  0
SECTION
  2
HEADER
  9
$ACADVER
  1
AC1009
  9
$INSBASE
 10
0.0
 20
0.0
 30
0.0
  9
$EXTMIN
 10
-80.010985489947416
 20
-131.71201227911089
 30
-0.0015258207003583
  9
$EXTMAX
 10
280.01098716632811
 20
403.5481165140169
 30
0.0000000349246037
  9
$LIMMIN
 10
0.0
 20
0.0
  9
$LIMMAX
 10
0.0
 20
0.0
  9
$ORTHOMODE
 70
     0
  9
$REGENMODE
 70
     1
  9
$FILLMODE
 70
     1
  9
$QTEXTMODE
 70
     0
  9
$MIRRTEXT
 70
     1
  9
$DRAGMODE
 70
     2
  9
$LTSCALE
 40
10.16
  9
$OSMODE
 70
   231
  9
$ATTMODE
 70
     1
  9
$TEXTSIZE
 40
0.0
  9
$TRACEWID
 40
1.0
  9
$TEXTSTYLE
  7
STANDARD
  9
$CLAYER
  8
DATA
  9
$CELTYPE
  6
BYLAYER
  9
$CECOLOR
 62
   256
  9
$DIMSCALE
 40
1.0
  9
$DIMASZ
 40
0.18
  9
$DIMEXO
 40
0.0625
  9
$DIMDLI
 40
0.38
  9
$DIMRND
 40
0.0
  9
$DIMDLE
 40
0.0
  9
$DIMEXE
 40
0.18
  9
$DIMTP
 40
0.0
  9
$DIMTM
 40
0.0
  9
$DIMTXT
 40
0.18
  9
$DIMCEN
 40
0.09
  9
$DIMTSZ
 40
0.0
  9
$DIMTOL
 70
     0
  9
$DIMLIM
 70
     0
  9
$DIMTIH
 70
     1
  9
$DIMTOH
 70
     1
  9
$DIMSE1
 70
     0
  9
$DIMSE2
 70
     0
  9
$DIMTAD
 70
     0
  9
$DIMZIN
 70
     0
  9
$DIMBLK
  1

  9
$DIMASO
 70
     1
  9
$DIMSHO
 70
     1
  9
$DIMPOST
  1

  9
$DIMAPOST
  1

  9
$DIMALT
 70
     0
  9
$DIMALTD
 70
     2
  9
$DIMALTF
 40
25.399999999999999
  9
$DIMLFAC
 40
1.0
  9
$DIMTOFL
 70
     0
  9
$DIMTVP
 40
0.0
  9
$DIMTIX
 70
     0
  9
$DIMSOXD
 70
     0
  9
$DIMSAH
 70
     0
  9
$DIMBLK1
  1

  9
$DIMBLK2
  1

  9
$DIMSTYLE
  2
STANDARD
  9
$DIMCLRD
 70
     0
  9
$DIMCLRE
 70
     0
  9
$DIMCLRT
 70
     0
  9
$DIMTFAC
 40
1.0
  9
$DIMGAP
 40
0.09
  9
$LUNITS
 70
     2
  9
$LUPREC
 70
     4
  9
$SKETCHINC
 40
0.1
  9
$FILLETRAD
 40
0.0
  9
$AUNITS
 70
     0
  9
$AUPREC
 70
     0
  9
$MENU
  1
acad
  9
$ELEVATION
 40
0.0
  9
$PELEVATION
 40
0.0
  9
$THICKNESS
 40
0.0
  9
$LIMCHECK
 70
     0
  9
$BLIPMODE
 70
     0
  9
$CHAMFERA
 40
0.0
  9
$CHAMFERB
 40
0.0
  9
$SKPOLY
 70
     0
  9
$TDCREATE
 40
2454274.7316898149
  9
$TDUPDATE
 40
2454274.7329479288
  9
$TDINDWG
 40
0.0002749653
  9
$TDUSRTIMER
 40
0.0002747917
  9
$USRTIMER
 70
     1
  9
$ANGBASE
 50
0.0
  9
$ANGDIR
 70
     0
  9
$PDMODE
 70
     1
  9
$PDSIZE
 40
-2.0
  9
$PLINEWID
 40
0.0
  9
$COORDS
 70
     1
  9
$SPLFRAME
 70
     0
  9
$SPLINETYPE
 70
     6
  9
$SPLINESEGS
 70
     8
  9
$ATTDIA
 70
     0
  9
$ATTREQ
 70
     1
  9
$HANDLING
 70
     1
  9
$HANDSEED
  5
A83
  9
$SURFTAB1
 70
     6
  9
$SURFTAB2
 70
     6
  9
$SURFTYPE
 70
     6
  9
$SURFU
 70
     6
  9
$SURFV
 70
     6
  9
$UCSNAME
  2

  9
$UCSORG
 10
0.0
 20
0.0
 30
0.0
  9
$UCSXDIR
 10
1.0
 20
0.0
 30
0.0
  9
$UCSYDIR
 10
0.0
 20
1.0
 30
0.0
  9
$PUCSNAME
  2

  9
$PUCSORG
 10
0.0
 20
0.0
 30
0.0
  9
$PUCSXDIR
 10
1.0
 20
0.0
 30
0.0
  9
$PUCSYDIR
 10
0.0
 20
1.0
 30
0.0
  9
$USERI1
 70
     0
  9
$USERI2
 70
     0
  9
$USERI3
 70
     0
  9
$USERI4
 70
     0
  9
$USERI5
 70
     0
  9
$USERR1
 40
0.0
  9
$USERR2
 40
0.0
  9
$USERR3
 40
0.0
  9
$USERR4
 40
0.0
  9
$USERR5
 40
0.0
  9
$WORLDVIEW
 70
     1
  9
$SHADEDGE
 70
     3
  9
$SHADEDIF
 70
    70
  9
$TILEMODE
 70
     1
  9
$MAXACTVP
 70
    64
  9
$PLIMCHECK
 70
     0
  9
$PEXTMIN
 10
1.0000000000000000E+020
 20
1.0000000000000000E+020
 30
1.0000000000000000E+020
  9
$PEXTMAX
 10
-1.0000000000000000E+020
 20
-1.0000000000000000E+020
 30
-1.0000000000000000E+020
  9
$PLIMMIN
 10
0.0
 20
0.0
  9
$PLIMMAX
 10
12.0
 20
9.0
  9
$UNITMODE
 70
     0
  9
$VISRETAIN
 70
     0
  9
$PLINEGEN
 70
     1
  9
$PSLTSCALE
 70
     0
  0
ENDSEC
  0
SECTION
  2
TABLES
  0
TABLE
  2
VPORT
 70
     1
  0
VPORT
  2
*ACTIVE
 70
     0
 10
0.0
 20
0.0
 11
1.0
 21
1.0
 12
100.0000008381904
 22
135.91805211745299
 13
0.0
 23
0.0
 14
1.0
 24
1.0
 15
0.0
 25
0.0
 16
0.0
 26
0.0
 36
1.0
 17
0.0
 27
0.0
 37
0.0
 40
539.70212156319542
 41
1.6703601108033239
 42
50.0
 43
0.0
 44
0.0
 50
0.0
 51
0.0
 71
     0
 72
  2000
 73
     1
 74
     1
 75
     0
 76
     0
 77
     0
 78
     0
  0
ENDTAB
  0
TABLE
  2
LTYPE
 70
    11
  0
LTYPE
  2
CONTINUOUS
 70
     0
  3
Solid line
 72
    65
 73
     0
 40
0.0
  0
ENDTAB
  0
TABLE
  2
LAYER
 70
     5
  0
LAYER
  2
0
 70
     0
 62
     7
  6
CONTINUOUS
  0
LAYER
  2
DATA
 70
     0
 62
     7
  6
CONTINUOUS
  0
LAYER
  2
HIBINO-BASE
 70
     0
 62
     7
  6
CONTINUOUS
  0
LAYER
  2
SPEC
 70
     0
 62
     7
  6
CONTINUOUS
  0
LAYER
  2
DIMNSIONS
 70
     0
 62
     7
  6
CONTINUOUS
  0
ENDTAB
  0
TABLE
  2
STYLE
 70
     2
  0
STYLE
  2
STANDARD
 70
     0
 40
0.0
 41
1.0
 50
0.0
 71
     0
 42
0.0
  3
txt
  4
BIGFONT.SHX
  0
ENDTAB
  0
TABLE
  2
VIEW
 70
     0
  0
ENDTAB
  0
TABLE
  2
UCS
 70
     0
  0
ENDTAB
  0
TABLE
  2
APPID
 70
     1
  0
APPID
  2
ACAD
 70
     0
  0
ENDTAB
  0
TABLE
  2
DIMSTYLE
 70
     1
  0
DIMSTYLE
  2
STANDARD
 70
     0
  3

  4

  5

  6

  7

 40
1.0
 41
0.18
 42
0.0625
 43
0.38
 44
0.18
 45
0.0
 46
0.0
 47
0.0
 48
0.0
140
0.18
141
0.09
142
0.0
143
25.399999999999999
144
1.0
145
0.0
146
1.0
147
0.09
 71
     0
 72
     0
 73
     1
 74
     1
 75
     0
 76
     0
 77
     0
 78
     0
170
     0
171
     2
172
     0
173
     0
174
     0
175
     0
176
     0
177
     0
178
     0
  0
ENDTAB
  0
ENDSEC
  0
SECTION
  2
BLOCKS
  0
BLOCK
  8
0
  2
$MODEL_SPACE
 70
     0
 10
0.0
 20
0.0
 30
0.0
  3
$MODEL_SPACE
  1

  0
ENDBLK
  5
67D
  8
0
  0
BLOCK
 67
     1
  8
0
  2
$PAPER_SPACE
 70
     0
 10
0.0
 20
0.0
 30
0.0
  3
$PAPER_SPACE
  1

  0
ENDBLK
  5
679
 67
     1
  8
0
  0
ENDSEC
  0
SECTION
  2
ENTITIES
  0
LINE
  5
2C
  8
HIBINO-BASE
  6
CONTINUOUS
 62
     7
 10
-79.999999999999986
 20
403.53181499999999
 30
0.0
 11
279.99999999999989
 21
403.53181499999999
 31
0.0
  0
LINE
  5
2D
  8
HIBINO-BASE
  6
CONTINUOUS
 62
     7
 10
279.99999999999989
 20
-116.46818500000001
 30
0.0
 11
-79.999999999999986
 21
-116.46818500000001
 31
0.0
  0
LINE
  5
2E
  8
HIBINO-BASE
  6
CONTINUOUS
 62
     7
 10
-79.999999999999986
 20
-116.46818500000001
 30
0.0
 11
-79.999999999999986
 21
403.53181499999999
 31
0.0
  0
TEXT
  5
2F
  8
HIBINO-BASE
 62
     7
 10
-65.631999999999991
 20
-129.2855405999999
 30
0.0
 40
7.2000883593749991
  1
Hibino Corporation
 41
0.7
 11
-65.631999999999991
 21
-122.0854522406249
 31
0.0
 73
     3
  0
LINE
  5
30
  8
HIBINO-BASE
  6
CONTINUOUS
 62
     7
 10
279.99999999999989
 20
403.53181499999999
 30
0.0
 11
279.99999999999989
 21
-116.46818500000001
 31
0.0
  0
LINE
  5
31
  8
HIBINO-BASE
  6
CONTINUOUS
 62
     7
 10
100.0
 20
-71.468184999999977
 30
0.0
 11
279.99999999999989
 21
-71.468184999999977
 31
0.0
  0
LINE
  5
32
  8
HIBINO-BASE
  6
CONTINUOUS
 62
     7
 10
100.0
 20
-116.46818500000001
 30
0.0
 11
100.0
 21
-71.468184999999977
 31
0.0
  0
TEXT
  5
33
  8
HIBINO-BASE
 62
     7
 10
101.8
 20
-76.485571666666644
 30
0.0
 40
3.2576822916666659
  1
NOTE
 41
0.7
 11
101.8
 21
-73.227889374999975
 31
0.0
 73
     3
  0
LINE
  5
34
  8
HIBINO-BASE
  6
CONTINUOUS
 62
     7
 10
170.0
 20
-116.46818500000001
 30
0.0
 11
170.0
 21
-71.468184999999977
 31
0.0
  0
TEXT
  5
35
  8
HIBINO-BASE
 62
     7
 10
171.7999999999999
 20
-76.485571666666644
 30
0.0
 40
3.2576822916666659
  1
TITLE
 41
0.7
 11
171.7999999999999
 21
-73.227889374999975
 31
0.0
 73
     3
  0
TEXT
  5
36
  8
HIBINO-BASE
 62
     7
 10
200.13677999999999
 20
-129.2855405999999
 30
0.0
 40
7.2000883593749991
  1
ヒビノ株式会社
 41
0.7
 11
200.13677999999999
 21
-122.0854522406249
 31
0.0
 73
     3
  0
LINE
  5
37
  8
HIBINO-BASE
  6
CONTINUOUS
 62
     7
 10
100.0
 20
-96.468184999999963
 30
0.0
 11
279.99999999999989
 21
-96.468184999999963
 31
0.0
  0
TEXT
  5
38
  8
HIBINO-BASE
 62
     7
 10
196.80000000000001
 20
-101.3729316666666
 30
0.0
 40
3.2576822916666659
  1
DRAWN
 41
0.7
 11
196.80000000000001
 21
-98.115249375000005
 31
0.0
 73
     3
  0
TEXT
  5
39
  8
HIBINO-BASE
 62
     7
 10
146.7999999999999
 20
-101.3729316666666
 30
0.0
 40
3.2576822916666659
  1
DATE
 41
0.7
 11
146.7999999999999
 21
-98.115249375000005
 31
0.0
 73
     3
  0
TEXT
  5
3A
  8
HIBINO-BASE
 62
     7
 10
126.8
 20
-101.3729316666666
 30
0.0
 40
3.2576822916666659
  1
SCALE
 41
0.7
 11
126.8
 21
-98.115249375000005
 31
0.0
 73
     3
  0
TEXT
  5
3B
  8
HIBINO-BASE
 62
     7
 10
171.7999999999999
 20
-101.3729316666666
 30
0.0
 40
3.2576822916666659
  1
DESIGN
 41
0.7
 11
171.7999999999999
 21
-98.115249375000005
 31
0.0
 73
     3
  0
TEXT
  5
3C
  8
HIBINO-BASE
 62
     7
 10
246.7999999999999
 20
-101.3729316666666
 30
0.0
 40
3.2576822916666659
  1
DRAWING NO.
 41
0.7
 11
246.7999999999999
 21
-98.115249375000005
 31
0.0
 73
     3
  0
TEXT
  5
3D
  8
HIBINO-BASE
 62
     7
 10
221.7999999999999
 20
-101.3729316666666
 30
0.0
 40
3.2576822916666659
  1
CHECK
 41
0.7
 11
221.7999999999999
 21
-98.115249375000005
 31
0.0
 73
     3
  0
LINE
  5
3E
  8
HIBINO-BASE
  6
CONTINUOUS
 62
     7
 10
128.74999999999989
 20
-113.96818500000001
 30
0.0
 11
136.25
 21
-106.46818499999991
 31
0.0
  0
TEXT
  5
3F
  8
HIBINO-BASE
 62
     7
 10
127.5
 20
-108.68607166666661
 30
0.0
 40
3.2576822916666659
  1
1
 41
0.7
 11
127.5
 21
-105.42838937499999
 31
0.0
 73
     3
  0
LINE
  5
40
  8
HIBINO-BASE
  6
CONTINUOUS
 62
     7
 10
125.0
 20
-116.46818500000001
 30
0.0
 11
125.0
 21
-96.468184999999963
 31
0.0
  0
LINE
  5
41
  8
HIBINO-BASE
  6
CONTINUOUS
 62
     7
 10
145.0
 20
-116.46818500000001
 30
0.0
 11
145.0
 21
-96.468184999999963
 31
0.0
  0
LINE
  5
42
  8
HIBINO-BASE
  6
CONTINUOUS
 62
     7
 10
195.0
 20
-96.468184999999963
 30
0.0
 11
195.0
 21
-116.46818500000001
 31
0.0
  0
LINE
  5
43
  8
HIBINO-BASE
  6
CONTINUOUS
 62
     7
 10
245.0
 20
-96.468184999999963
 30
0.0
 11
245.0
 21
-116.46818500000001
 31
0.0
  0
LINE
  5
44
  8
HIBINO-BASE
  6
CONTINUOUS
 62
     7
 10
220.0
 20
-116.46818500000001
 30
0.0
 11
220.0
 21
-96.468184999999963
 31
0.0
  0
TEXT
  5
45
  8
HIBINO-BASE
 62
     7
 10
146.71307999999999
 20
-110.7408916666666
 30
0.0
 40
3.2576822916666659
  1
'07.06.
 41
0.7
 11
146.71307999999999
 21
-107.483209375
 31
0.0
 73
     3
  0
TEXT
  5
46
  8
HIBINO-BASE
 62
     7
 10
135.0
 20
-112.43607166666661
 30
0.0
 40
3.2576822916666659
  1
2
 41
0.7
 11
135.0
 21
-109.17838937499999
 31
0.0
 73
     3
  0
TEXT
  5
47
  8
HIBINO-BASE
 62
     7
 10
198.0116200220692
 20
-110.7408916666666
 30
0.0
 40
3.2576822916666659
  1
N.Sasaki
 41
0.7
 11
198.0116200220692
 21
-107.483209375
 31
0.0
 73
     3
  0
TEXT
  5
48
  8
HIBINO-BASE
 62
     7
 10
107.76666666666659
 20
-112.51618499999999
 30
0.0
 40
6.5153645833333318
  1
A4
 41
0.7
 11
107.76666666666659
 21
-106.0008204166666
 31
0.0
 73
     3
  0
TEXT
  5
49
  8
HIBINO-BASE
 62
     7
 10
101.9166666666666
 20
-101.707095
 30
0.0
 40
3.2576822916666659
  1
PAPER SIZE
 41
0.7
 11
101.9166666666666
 21
-98.449412708333327
 31
0.0
 73
     3
  0
LINE
  5
4A
  8
SPEC
  6
CONTINUOUS
 62
     7
 10
-65.000000000000014
 20
383.56362999999999
 30
0.0
 11
230.0
 21
383.56362999999999
 31
0.0
  0
LINE
  5
4B
  8
SPEC
  6
CONTINUOUS
 62
     7
 10
-65.000000000000014
 20
376.06362999999999
 30
0.0
 11
230.0
 21
376.06362999999999
 31
0.0
  0
TEXT
  5
4C
  8
SPEC
 62
     7
 10
-62.500000000000021
 20
386.35016999999999
 30
0.0
 40
4.8865234375000002
  1
仕様
 41
0.7
 11
-62.500000000000021
 21
391.23669343749998
 31
0.0
 73
     3
  0
LINE
  5
4D
  8
SPEC
  6
CONTINUOUS
 62
     7
 10
0.0
 20
383.56362999999999
 30
0.0
 11
0.0
 21
353.56362999999999
 31
0.0
  0
LINE
  5
4E
  8
SPEC
  6
CONTINUOUS
 62
     7
 10
-65.000000000000014
 20
368.56362999999999
 30
0.0
 11
230.0
 21
368.56362999999999
 31
0.0
  0
TEXT
  5
4F
  8
SPEC
 62
     7
 10
-60.367380808094609
 20
355.47247989509401
 30
0.0
 40
3.8006293402777769
  1
重量
 41
0.7
 11
-60.367380808094609
 21
359.27310923537181
 31
0.0
 73
     3
  0
TEXT
  5
50
  8
SPEC
 62
     7
 10
4.7425953037397903
 20
355.80097168560832
 30
0.0
 40
3.8006293402777769
  1
約215g(プレート含まず)
 41
0.7
 11
4.7425953037397903
 21
359.601601025886
 31
0.0
 73
     3
  0
LINE
  5
51
  8
SPEC
  6
CONTINUOUS
 62
     7
 10
-65.000000000000014
 20
361.06362999999999
 30
0.0
 11
230.0
 21
361.06362999999999
 31
0.0
  0
LINE
  5
52
  8
SPEC
  6
CONTINUOUS
 62
     7
 10
-65.000000000000014
 20
353.56362999999999
 30
0.0
 11
230.0
 21
353.56362999999999
 31
0.0
  0
LINE
  5
53
  8
SPEC
  6
CONTINUOUS
 62
     7
 10
230.0
 20
353.56362999999999
 30
0.0
 11
230.0
 21
383.56362999999999
 31
0.0
  0
LINE
  5
54
  8
SPEC
  6
CONTINUOUS
 62
     7
 10
-65.000000000000014
 20
353.56362999999999
 30
0.0
 11
-65.000000000000014
 21
383.53181499999999
 31
0.0
  0
TEXT
  5
55
  8
SPEC
 62
     7
 10
4.787344101344444
 20
370.18924813193058
 30
0.0
 40
3.8006293402777769
  1
DriveRack 4800,ZonePRO 1260/1261
 41
0.7
 11
4.787344101344444
 21
373.98987747220838
 31
0.0
 73
     3
  0
TEXT
  5
56
  8
SPEC
 62
     7
 10
4.7581074058877562
 20
362.86569729461343
 30
0.0
 40
3.8006293402777769
  1
RJ-45
 41
0.7
 11
4.7581074058877562
 21
366.66632663489122
 31
0.0
 73
     3
  0
TEXT
  5
57
  8
SPEC
 62
     7
 10
-60.191080669882311
 20
377.89578775022238
 30
0.0
 40
3.8006293402777769
  1
ZC-9
 41
0.7
 11
-60.191080669882311
 21
381.69641709050018
 31
0.0
 73
     3
  0
TEXT
  5
58
  8
SPEC
 62
     7
 10
-60.38304000256381
 20
370.33180130599533
 30
0.0
 40
3.8006293402777769
  1
対応機種
 41
0.7
 11
-60.38304000256381
 21
374.13243064627312
 31
0.0
 73
     3
  0
TEXT
  5
59
  8
SPEC
 62
     7
 10
-60.702972223699661
 20
362.95977419444961
 30
0.0
 40
3.8006293402777769
  1
コネクタの形状
 41
0.7
 11
-60.702972223699661
 21
366.7604035347274
 31
0.0
 73
     3
  0
TEXT
  5
5A
  8
DIMNSIONS
 62
     7
 10
60.0
 20
-91.929204999999968
 30
0.0
 40
4.8865234375000002
  1
(単位：mm)
 41
0.7
 11
60.0
 21
-87.042681562499979
 31
0.0
 73
     3
  0
LINE
  5
5B
  8
DIMNSIONS
  6
CONTINUOUS
 62
     7
 10
-37.000000000000007
 20
132.25
 30
0.0
 11
-66.500000000000014
 21
132.25
 31
0.0
  0
LINE
  5
5C
  8
DIMNSIONS
  6
CONTINUOUS
 62
     7
 10
-37.000000000000007
 20
17.75
 30
0.0
 11
-66.500000000000014
 21
17.75
 31
0.0
  0
LINE
  5
5D
  8
DIMNSIONS
  6
CONTINUOUS
 62
     7
 10
-62.500000000000021
 20
132.25
 30
0.0
 11
-62.500000000000021
 21
17.75
 31
0.0
  0
LINE
  5
5E
  8
DIMNSIONS
  6
CONTINUOUS
 62
     7
 10
-62.500000000000021
 20
132.25
 30
0.0
 11
-61.159920409699531
 21
127.24875488281251
 31
0.0
  0
LINE
  5
5F
  8
DIMNSIONS
  6
CONTINUOUS
 62
     7
 10
-62.500000000000021
 20
132.25
 30
0.0
 11
-63.840079590300498
 21
127.24875488281251
 31
0.0
  0
LINE
  5
60
  8
DIMNSIONS
  6
CONTINUOUS
 62
     7
 10
-62.500000000000021
 20
17.75
 30
0.0
 11
-63.840079590300498
 21
22.751245117187491
 31
0.0
  0
LINE
  5
61
  8
DIMNSIONS
  6
CONTINUOUS
 62
     7
 10
-62.500000000000021
 20
17.75
 30
0.0
 11
-61.159920409699531
 21
22.751245117187491
 31
0.0
  0
TEXT
  5
62
  8
DIMNSIONS
 62
     7
 10
-64.487777777777765
 20
69.708333333333343
 30
0.0
 40
5.4294704861111107
  1
115
 50
90.0
 41
0.7
 11
-69.917248263888879
 21
69.708333333333343
 31
0.0
 73
     3
  0
LINE
  5
63
  8
DIMNSIONS
  6
CONTINUOUS
 62
     7
 10
-7.5000000000000142
 20
33.25
 30
0.0
 11
-54.032574801714212
 21
33.25
 31
0.0
  0
LINE
  5
64
  8
DIMNSIONS
  6
CONTINUOUS
 62
     7
 10
-7.5000000000000142
 20
116.75
 30
0.0
 11
-54.032574801714212
 21
116.75
 31
0.0
  0
LINE
  5
65
  8
DIMNSIONS
  6
CONTINUOUS
 62
     7
 10
-50.032574801714212
 20
33.25
 30
0.0
 11
-50.032574801714212
 21
116.75
 31
0.0
  0
LINE
  5
66
  8
DIMNSIONS
  6
CONTINUOUS
 62
     7
 10
-50.032574801714212
 20
33.25
 30
0.0
 11
-51.372654392014702
 21
38.251245117187487
 31
0.0
  0
LINE
  5
67
  8
DIMNSIONS
  6
CONTINUOUS
 62
     7
 10
-50.032574801714212
 20
33.25
 30
0.0
 11
-48.6924952114137
 21
38.251245117187487
 31
0.0
  0
LINE
  5
68
  8
DIMNSIONS
  6
CONTINUOUS
 62
     7
 10
-50.032574801714212
 20
116.75
 30
0.0
 11
-48.6924952114137
 21
111.74875488281251
 31
0.0
  0
LINE
  5
69
  8
DIMNSIONS
  6
CONTINUOUS
 62
     7
 10
-50.032574801714212
 20
116.75
 30
0.0
 11
-51.372654392014702
 21
111.74875488281251
 31
0.0
  0
TEXT
  5
6A
  8
DIMNSIONS
 62
     7
 10
-52.020352579491963
 20
67.944444444444471
 30
0.0
 40
5.4294704861111107
  1
83.5
 50
90.0
 41
0.7
 11
-57.449823065603077
 21
67.944444444444471
 31
0.0
 73
     3
  0
LINE
  5
6B
  8
DIMNSIONS
  6
CONTINUOUS
 62
     7
 10
-35.000000000000007
 20
15.75
 30
0.0
 11
-35.000000000000007
 21
-16.5
 31
0.0
  0
LINE
  5
6C
  8
DIMNSIONS
  6
CONTINUOUS
 62
     7
 10
35.000000000000092
 20
15.75
 30
0.0
 11
35.000000000000092
 21
-16.5
 31
0.0
  0
LINE
  5
6D
  8
DIMNSIONS
  6
CONTINUOUS
 62
     7
 10
-35.000000000000007
 20
-12.5
 30
0.0
 11
35.000000000000092
 21
-12.5
 31
0.0
  0
LINE
  5
6E
  8
DIMNSIONS
  6
CONTINUOUS
 62
     7
 10
-35.000000000000007
 20
-12.5
 30
0.0
 11
-29.99875488281252
 21
-11.159920409699501
 31
0.0
  0
LINE
  5
6F
  8
DIMNSIONS
  6
CONTINUOUS
 62
     7
 10
-35.000000000000007
 20
-12.5
 30
0.0
 11
-29.99875488281252
 21
-13.840079590300491
 31
0.0
  0
LINE
  5
70
  8
DIMNSIONS
  6
CONTINUOUS
 62
     7
 10
35.000000000000092
 20
-12.5
 30
0.0
 11
29.998754882812609
 21
-13.840079590300491
 31
0.0
  0
LINE
  5
71
  8
DIMNSIONS
  6
CONTINUOUS
 62
     7
 10
35.000000000000092
 20
-12.5
 30
0.0
 11
29.998754882812609
 21
-11.159920409699501
 31
0.0
  0
TEXT
  5
72
  8
DIMNSIONS
 62
     7
 10
-3.5277777777777288
 20
-10.51222222222224
 30
0.0
 40
5.4294704861111107
  1
70
 41
0.7
 11
-3.5277777777777279
 21
-5.0827517361111347
 31
0.0
 73
     3
  0
LINE
  5
73
  8
DIMNSIONS
  6
CONTINUOUS
 62
     7
 10
-4.0
 20
154.9946116833361
 30
0.0
 11
-66.500000000000014
 21
154.9946116833361
 31
0.0
  0
LINE
  5
74
  8
DIMNSIONS
  6
CONTINUOUS
 62
     7
 10
-39.000000000000021
 20
172.0
 30
0.0
 11
-66.500000000000014
 21
172.0
 31
0.0
  0
LINE
  5
75
  8
DIMNSIONS
  6
CONTINUOUS
 62
     7
 10
-62.500000000000021
 20
154.9946116833361
 30
0.0
 11
-62.500000000000021
 21
172.0
 31
0.0
  0
LINE
  5
76
  8
DIMNSIONS
  6
CONTINUOUS
 62
     7
 10
-62.500000000000021
 20
154.9946116833361
 30
0.0
 11
-63.840079590300498
 21
159.9958568005236
 31
0.0
  0
LINE
  5
77
  8
DIMNSIONS
  6
CONTINUOUS
 62
     7
 10
-62.500000000000021
 20
154.9946116833361
 30
0.0
 11
-61.159920409699531
 21
159.9958568005236
 31
0.0
  0
LINE
  5
78
  8
DIMNSIONS
  6
CONTINUOUS
 62
     7
 10
-62.500000000000021
 20
172.0
 30
0.0
 11
-61.159920409699531
 21
166.99875488281251
 31
0.0
  0
LINE
  5
79
  8
DIMNSIONS
  6
CONTINUOUS
 62
     7
 10
-62.500000000000021
 20
172.0
 30
0.0
 11
-63.840079590300498
 21
166.99875488281251
 31
0.0
  0
TEXT
  5
7A
  8
DIMNSIONS
 62
     7
 10
-64.487777777777765
 20
159.96952806389029
 30
0.0
 40
5.4294704861111107
  1
17
 50
90.0
 41
0.7
 11
-69.917248263888879
 21
159.96952806389029
 31
0.0
 73
     3
  0
LINE
  5
7B
  8
DIMNSIONS
  6
CONTINUOUS
 62
     7
 10
-39.000000000000021
 20
172.0
 30
0.0
 11
-54.000000000000021
 21
172.0
 31
0.0
  0
LINE
  5
7C
  8
DIMNSIONS
  6
CONTINUOUS
 62
     7
 10
-39.000000000000021
 20
175.0
 30
0.0
 11
-54.000000000000021
 21
175.0
 31
0.0
  0
LINE
  5
7D
  8
DIMNSIONS
  6
CONTINUOUS
 62
     7
 10
-50.000000000000021
 20
175.0
 30
0.0
 11
-50.000000000000021
 21
172.0
 31
0.0
  0
LINE
  5
7E
  8
DIMNSIONS
  6
CONTINUOUS
 62
     7
 10
-50.000000000000021
 20
172.0
 30
0.0
 11
-50.000000000000021
 21
162.0
 31
0.0
  0
LINE
  5
7F
  8
DIMNSIONS
  6
CONTINUOUS
 62
     7
 10
-50.000000000000021
 20
172.0
 30
0.0
 11
-48.659920409699531
 21
166.99875488281251
 31
0.0
  0
LINE
  5
80
  8
DIMNSIONS
  6
CONTINUOUS
 62
     7
 10
-50.000000000000021
 20
172.0
 30
0.0
 11
-51.340079590300498
 21
166.99875488281251
 31
0.0
  0
LINE
  5
81
  8
DIMNSIONS
  6
CONTINUOUS
 62
     7
 10
-50.000000000000021
 20
175.0
 30
0.0
 11
-50.000000000000021
 21
181.77777777777769
 31
0.0
  0
LINE
  5
82
  8
DIMNSIONS
  6
CONTINUOUS
 62
     7
 10
-50.000000000000021
 20
175.0
 30
0.0
 11
-51.340079590300498
 21
180.00124511718741
 31
0.0
  0
LINE
  5
83
  8
DIMNSIONS
  6
CONTINUOUS
 62
     7
 10
-50.000000000000021
 20
175.0
 30
0.0
 11
-48.659920409699531
 21
180.00124511718741
 31
0.0
  0
TEXT
  5
84
  8
DIMNSIONS
 62
     7
 10
-51.987777777777772
 20
178.25
 30
0.0
 40
5.4294704861111107
  1
3
 50
90.0
 41
0.7
 11
-57.417248263888887
 21
178.25
 31
0.0
 73
     3
  0
LINE
  5
85
  8
DIMNSIONS
  6
CONTINUOUS
 62
     7
 10
-39.000000000000021
 20
172.0
 30
0.0
 11
-66.500000000000014
 21
172.0
 31
0.0
  0
LINE
  5
86
  8
DIMNSIONS
  6
CONTINUOUS
 62
     7
 10
-23.84999999999992
 20
195.0004887693589
 30
0.0
 11
-66.500000000000014
 21
195.0004887693589
 31
0.0
  0
LINE
  5
87
  8
DIMNSIONS
  6
CONTINUOUS
 62
     7
 10
-62.500000000000021
 20
172.0
 30
0.0
 11
-62.500000000000021
 21
195.0004887693589
 31
0.0
  0
LINE
  5
88
  8
DIMNSIONS
  6
CONTINUOUS
 62
     7
 10
-62.500000000000021
 20
172.0
 30
0.0
 11
-63.840079590300498
 21
177.00124511718741
 31
0.0
  0
LINE
  5
89
  8
DIMNSIONS
  6
CONTINUOUS
 62
     7
 10
-62.500000000000021
 20
172.0
 30
0.0
 11
-61.159920409699531
 21
177.00124511718741
 31
0.0
  0
LINE
  5
8A
  8
DIMNSIONS
  6
CONTINUOUS
 62
     7
 10
-62.500000000000021
 20
195.0004887693589
 30
0.0
 11
-61.159920409699531
 21
189.9992436521714
 31
0.0
  0
LINE
  5
8B
  8
DIMNSIONS
  6
CONTINUOUS
 62
     7
 10
-62.500000000000021
 20
195.0004887693589
 30
0.0
 11
-63.840079590300498
 21
189.9992436521714
 31
0.0
  0
TEXT
  5
8C
  8
DIMNSIONS
 62
     7
 10
-64.487777777777765
 20
179.97246660690169
 30
0.0
 40
5.4294704861111107
  1
23
 50
90.0
 41
0.7
 11
-69.917248263888879
 21
179.97246660690169
 31
0.0
 73
     3
  0
TEXT
  5
8D
  8
DATA
 62
     7
 10
-60.0
 20
-107.99218500000001
 30
0.0
 40
3.2576822916666659
  1
仕様および外観は予告なく変更されることがありますので、ご了承ください。
 41
0.7
 11
-60.0
 21
-104.7345027083333
 31
0.0
 73
     3
  0
TEXT
  5
8E
  8
DATA
 62
     7
 10
200.0
 20
-79.706404999999933
 30
0.0
 40
4.8865234375000002
  1
dbx
 41
0.7
 11
200.0
 21
-74.81988156249993
 31
0.0
 73
     3
  0
TEXT
  5
8F
  8
DATA
 62
     7
 10
200.0
 20
-94.206404999999947
 30
0.0
 40
4.8865234375000002
  1
ZC-9
 41
0.7
 11
200.0
 21
-89.319881562499944
 31
0.0
 73
     3
  0
TEXT
  5
90
  8
DATA
 62
     7
 10
195.0
 20
-86.914315000000002
 30
0.0
 40
3.8006293402777769
  1
レベルコントローラ
 41
0.7
 11
195.0
 21
-83.113685659722208
 31
0.0
 73
     3
  0
LINE
  5
91
  8
DATA
  6
CONTINUOUS
 62
     7
 10
33.000000000000099
 20
17.75
 30
0.0
 11
-33.000000000000007
 21
17.75
 31
0.0
  0
LINE
  5
92
  8
DATA
  6
CONTINUOUS
 62
     7
 10
35.000000000000092
 20
130.25
 30
0.0
 11
35.000000000000092
 21
19.75
 31
0.0
  0
LINE
  5
93
  8
DATA
  6
CONTINUOUS
 62
     7
 10
-33.000000000000007
 20
132.25
 30
0.0
 11
33.000000000000099
 21
132.25
 31
0.0
  0
LINE
  5
94
  8
DATA
  6
CONTINUOUS
 62
     7
 10
-35.000000000000007
 20
19.75
 30
0.0
 11
-35.000000000000007
 21
130.25
 31
0.0
  0
CIRCLE
  5
95
  8
DATA
  6
CONTINUOUS
 62
     7
 10
-0.0000000000000142
 20
116.75
 30
0.0
 40
3.5
  0
TEXT
  5
96
  8
DATA
 62
     7
 10
-9.3575319783606261
 20
43.700339023110743
 30
0.0
 40
1.357367621527777
  1
PROFESSIONAL PRODUCTS  
 41
0.7
 11
-9.3575319783606261
 21
45.057706644638507
 31
0.0
 73
     3
  0
TEXT
  5
97
  8
DATA
 62
     7
 10
-4.2827586249637903
 20
39.056448510603758
 30
0.0
 40
3.078125
  1
ZC-9
 41
0.7
 11
-4.2827586249637903
 21
42.134573510603758
 31
0.0
 73
     3
  0
POLYLINE
  5
98
  8
DATA
  6
CONTINUOUS
 62
     7
 66
     1
 10
0.0
 20
0.0
 30
0.0
 70
     1
  0
VERTEX
  5
69A
  8
DATA
  6
CONTINUOUS
 62
     7
 10
128.40000000000001
 20
110.0
 30
0.0
  0
VERTEX
  5
69B
  8
DATA
  6
CONTINUOUS
 62
     7
 10
171.60000000000011
 20
110.0
 30
0.0
  0
VERTEX
  5
69C
  8
DATA
  6
CONTINUOUS
 62
     7
 10
171.60000000000011
 20
40.0
 30
0.0
  0
VERTEX
  5
69D
  8
DATA
  6
CONTINUOUS
 62
     7
 10
128.40000000000001
 20
40.0
 30
0.0
  0
SEQEND
  5
69E
  8
DATA
  6
CONTINUOUS
 62
     7
  0
POLYLINE
  5
9F
  8
DATA
  6
CONTINUOUS
 62
     7
 66
     1
 10
0.0
 20
0.0
 30
0.0
  0
VERTEX
  5
69F
  8
DATA
  6
CONTINUOUS
 62
     7
 10
131.8753678805615
 20
58.140916940344198
 30
0.0
  0
VERTEX
  5
6A0
  8
DATA
  6
CONTINUOUS
 62
     7
 10
131.8753678805615
 20
53.540916940344182
 30
0.0
  0
VERTEX
  5
6A1
  8
DATA
  6
CONTINUOUS
 62
     7
 10
143.5753678805614
 20
53.540916940344182
 30
0.0
  0
VERTEX
  5
6A2
  8
DATA
  6
CONTINUOUS
 62
     7
 10
143.5753678805614
 20
67.24091694034432
 30
0.0
  0
VERTEX
  5
6A3
  8
DATA
  6
CONTINUOUS
 62
     7
 10
131.8753678805615
 20
67.24091694034432
 30
0.0
  0
VERTEX
  5
6A4
  8
DATA
  6
CONTINUOUS
 62
     7
 10
131.8753678805615
 20
62.640916940344191
 30
0.0
  0
SEQEND
  5
6A5
  8
DATA
  6
CONTINUOUS
 62
     7
  0
LINE
  5
A8
  8
DATA
  6
CONTINUOUS
 62
     7
 10
130.8753678805615
 20
62.640916940344191
 30
0.0
 11
131.8753678805615
 21
62.640916940344191
 31
0.0
  0
LINE
  5
A9
  8
DATA
  6
CONTINUOUS
 62
     7
 10
130.8753678805615
 20
58.140916940344198
 30
0.0
 11
130.8753678805615
 21
62.640916940344191
 31
0.0
  0
LINE
  5
AA
  8
DATA
  6
CONTINUOUS
 62
     7
 10
131.8753678805615
 20
58.140916940344198
 30
0.0
 11
130.8753678805615
 21
58.140916940344198
 31
0.0
  0
LINE
  5
AB
  8
DATA
  6
CONTINUOUS
 62
     7
 10
135.5753678805614
 20
66.440916940344295
 30
0.0
 11
143.5753678805614
 21
66.440916940344295
 31
0.0
  0
LINE
  5
AC
  8
DATA
  6
CONTINUOUS
 62
     7
 10
135.5753678805614
 20
54.340916940344151
 30
0.0
 11
143.5753678805614
 21
54.340916940344151
 31
0.0
  0
LINE
  5
AD
  8
DATA
  6
CONTINUOUS
 62
     7
 10
135.5753678805614
 20
54.340916940344151
 30
0.0
 11
135.5753678805614
 21
58.240916940344192
 31
0.0
  0
LINE
  5
AE
  8
DATA
  6
CONTINUOUS
 62
     7
 10
135.5753678805614
 20
58.240916940344192
 30
0.0
 11
132.12569074059189
 21
58.240916940344192
 31
0.0
  0
LINE
  5
AF
  8
DATA
  6
CONTINUOUS
 62
     7
 10
135.5753678805614
 20
66.440916940344295
 30
0.0
 11
135.5753678805614
 21
62.540916940344182
 31
0.0
  0
LINE
  5
B0
  8
DATA
  6
CONTINUOUS
 62
     7
 10
135.5753678805614
 20
62.540916940344182
 30
0.0
 11
132.12569074059189
 21
62.540916940344182
 31
0.0
  0
LINE
  5
B1
  8
DATA
  6
CONTINUOUS
 62
     7
 10
132.12569074059189
 20
58.240916940344192
 30
0.0
 11
132.12569074059189
 21
62.540916940344182
 31
0.0
  0
LINE
  5
B2
  8
DATA
  6
CONTINUOUS
 62
     7
 10
62.724230434059898
 20
107.1413941462215
 30
0.0
 11
61.111510299385031
 21
107.1413941462215
 31
0.0
  0
LINE
  5
B3
  8
DATA
  6
CONTINUOUS
 62
     7
 10
58.964693832407292
 20
109.9084965451847
 30
0.0
 11
58.964693832407292
 21
40.113636135184322
 31
0.0
  0
LINE
  5
B4
  8
DATA
  6
CONTINUOUS
 62
     7
 10
57.391183795839417
 20
109.9084965451847
 30
0.0
 11
57.391183795839417
 21
40.113636135184322
 31
0.0
  0
CIRCLE
  5
B5
  8
DATA
  6
CONTINUOUS
 62
     7
 10
-0.0000000000000142
 20
33.25
 30
0.0
 40
3.5
  0
LINE
  5
B6
  8
DATA
  6
CONTINUOUS
 62
     7
 10
-0.5000000000000142
 20
113.28589838486219
 30
0.0
 11
-0.5000000000000142
 21
120.21410161513769
 31
0.0
  0
LINE
  5
B7
  8
DATA
  6
CONTINUOUS
 62
     7
 10
0.4999999999999858
 20
120.21410161513769
 30
0.0
 11
0.4999999999999858
 21
113.28589838486219
 31
0.0
  0
LINE
  5
B8
  8
DATA
  6
CONTINUOUS
 62
     7
 10
-0.5000000000000142
 20
29.785898384862239
 30
0.0
 11
-0.5000000000000142
 21
36.714101615137757
 31
0.0
  0
LINE
  5
B9
  8
DATA
  6
CONTINUOUS
 62
     7
 10
0.4999999999999858
 20
36.714101615137757
 30
0.0
 11
0.4999999999999858
 21
29.785898384862239
 31
0.0
  0
LINE
  5
BA
  8
DATA
  6
CONTINUOUS
 62
     7
 10
62.724230434059791
 20
107.1413941462215
 30
0.0
 11
58.964693832407292
 21
107.1413941462215
 31
0.0
  0
LINE
  5
BB
  8
DATA
  6
CONTINUOUS
 62
     7
 10
63.127214804223861
 20
101.7609605711727
 30
0.0
 11
58.964693832407292
 21
101.7609605711727
 31
0.0
  0
POLYLINE
  5
BC
  8
DATA
  6
CONTINUOUS
 62
     7
 66
     1
 10
0.0
 20
0.0
 30
0.0
 70
     1
  0
VERTEX
  5
6A6
  8
DATA
  6
CONTINUOUS
 62
     7
 10
57.391183795839417
 20
107.8011773586971
 30
0.0
  0
VERTEX
  5
6A7
  8
DATA
  6
CONTINUOUS
 62
     7
 10
55.0
 20
107.8011773586971
 30
0.0
  0
VERTEX
  5
6A8
  8
DATA
  6
CONTINUOUS
 62
     7
 10
55.0
 20
101.1011773586971
 30
0.0
  0
VERTEX
  5
6A9
  8
DATA
  6
CONTINUOUS
 62
     7
 10
57.391183795839417
 20
101.1011773586971
 30
0.0
  0
SEQEND
  5
6AA
  8
DATA
  6
CONTINUOUS
 62
     7
  0
POLYLINE
  5
C3
  8
DATA
  6
CONTINUOUS
 62
     7
 66
     1
 10
0.0
 20
0.0
 30
0.0
 70
   128
  0
VERTEX
  5
6AB
  8
DATA
  6
CONTINUOUS
 62
     7
 10
56.391183795839417
 20
48.819655848378602
 30
0.0
  0
VERTEX
  5
6AC
  8
DATA
  6
CONTINUOUS
 62
     7
 10
55.0
 20
48.819655848378602
 30
0.0
  0
VERTEX
  5
6AD
  8
DATA
  6
CONTINUOUS
 62
     7
 10
55.0
 20
42.119655848378613
 30
0.0
  0
VERTEX
  5
6AE
  8
DATA
  6
CONTINUOUS
 62
     7
 10
56.391183795839417
 20
42.119655848378613
 30
0.0
  0
SEQEND
  5
6AF
  8
DATA
  6
CONTINUOUS
 62
     7
  0
LINE
  5
C9
  8
DATA
  6
CONTINUOUS
 62
     7
 10
55.0
 20
107.8011773586971
 30
0.0
 11
55.0
 21
101.1011773586971
 31
0.0
  0
CIRCLE
  5
CA
  8
DATA
  6
CONTINUOUS
 62
     7
 10
133.51378785643831
 20
104.43619405604819
 30
0.0
 40
3.3503691950977039
  0
POLYLINE
  5
CB
  8
DATA
  6
CONTINUOUS
 62
     7
 66
     1
 10
0.0
 20
0.0
 30
0.0
  0
VERTEX
  5
6B0
  8
DATA
  6
CONTINUOUS
 62
     7
 10
134.01378785643831
 20
104.93619405604829
 30
0.0
  0
VERTEX
  5
6B1
  8
DATA
  6
CONTINUOUS
 62
     7
 10
134.01378785643831
 20
106.93619405604829
 30
0.0
  0
VERTEX
  5
6B2
  8
DATA
  6
CONTINUOUS
 62
     7
 10
133.01378785643831
 20
106.93619405604829
 30
0.0
  0
VERTEX
  5
6B3
  8
DATA
  6
CONTINUOUS
 62
     7
 10
133.01378785643831
 20
104.93619405604829
 30
0.0
  0
SEQEND
  5
6B4
  8
DATA
  6
CONTINUOUS
 62
     7
  0
POLYLINE
  5
D2
  8
DATA
  6
CONTINUOUS
 62
     7
 66
     1
 10
0.0
 20
0.0
 30
0.0
  0
VERTEX
  5
6B5
  8
DATA
  6
CONTINUOUS
 62
     7
 10
134.01378785643831
 20
103.93619405604829
 30
0.0
  0
VERTEX
  5
6B6
  8
DATA
  6
CONTINUOUS
 62
     7
 10
134.01378785643831
 20
101.93619405604829
 30
0.0
  0
VERTEX
  5
6B7
  8
DATA
  6
CONTINUOUS
 62
     7
 10
133.01378785643831
 20
101.93619405604829
 30
0.0
  0
VERTEX
  5
6B8
  8
DATA
  6
CONTINUOUS
 62
     7
 10
133.01378785643831
 20
103.93619405604829
 30
0.0
  0
SEQEND
  5
6B9
  8
DATA
  6
CONTINUOUS
 62
     7
  0
POLYLINE
  5
D9
  8
DATA
  6
CONTINUOUS
 62
     7
 66
     1
 10
0.0
 20
0.0
 30
0.0
  0
VERTEX
  5
6BA
  8
DATA
  6
CONTINUOUS
 62
     7
 10
133.01378785643831
 20
103.93619405604829
 30
0.0
  0
VERTEX
  5
6BB
  8
DATA
  6
CONTINUOUS
 62
     7
 10
131.01378785643831
 20
103.93619405604829
 30
0.0
  0
VERTEX
  5
6BC
  8
DATA
  6
CONTINUOUS
 62
     7
 10
131.01378785643831
 20
104.93619405604829
 30
0.0
  0
VERTEX
  5
6BD
  8
DATA
  6
CONTINUOUS
 62
     7
 10
133.01378785643831
 20
104.93619405604829
 30
0.0
  0
SEQEND
  5
6BE
  8
DATA
  6
CONTINUOUS
 62
     7
  0
POLYLINE
  5
E0
  8
DATA
  6
CONTINUOUS
 62
     7
 66
     1
 10
0.0
 20
0.0
 30
0.0
  0
VERTEX
  5
6BF
  8
DATA
  6
CONTINUOUS
 62
     7
 10
134.01378785643831
 20
103.93619405604829
 30
0.0
  0
VERTEX
  5
6C0
  8
DATA
  6
CONTINUOUS
 62
     7
 10
136.01378785643831
 20
103.93619405604829
 30
0.0
  0
VERTEX
  5
6C1
  8
DATA
  6
CONTINUOUS
 62
     7
 10
136.01378785643831
 20
104.93619405604829
 30
0.0
  0
VERTEX
  5
6C2
  8
DATA
  6
CONTINUOUS
 62
     7
 10
134.01378785643831
 20
104.93619405604829
 30
0.0
  0
SEQEND
  5
6C3
  8
DATA
  6
CONTINUOUS
 62
     7
  0
CIRCLE
  5
E7
  8
DATA
  6
CONTINUOUS
 62
     7
 10
149.99749326071461
 20
45.473112392000942
 30
0.0
 40
3.3503691950977039
  0
POLYLINE
  5
E8
  8
DATA
  6
CONTINUOUS
 62
     7
 66
     1
 10
0.0
 20
0.0
 30
0.0
  0
VERTEX
  5
6C4
  8
DATA
  6
CONTINUOUS
 62
     7
 10
150.49749326071449
 20
45.973112392000928
 30
0.0
  0
VERTEX
  5
6C5
  8
DATA
  6
CONTINUOUS
 62
     7
 10
150.49749326071449
 20
47.973112392000942
 30
0.0
  0
VERTEX
  5
6C6
  8
DATA
  6
CONTINUOUS
 62
     7
 10
149.49749326071461
 20
47.973112392000942
 30
0.0
  0
VERTEX
  5
6C7
  8
DATA
  6
CONTINUOUS
 62
     7
 10
149.49749326071461
 20
45.973112392000928
 30
0.0
  0
SEQEND
  5
6C8
  8
DATA
  6
CONTINUOUS
 62
     7
  0
POLYLINE
  5
EF
  8
DATA
  6
CONTINUOUS
 62
     7
 66
     1
 10
0.0
 20
0.0
 30
0.0
  0
VERTEX
  5
6C9
  8
DATA
  6
CONTINUOUS
 62
     7
 10
150.49749326071449
 20
44.973112392000928
 30
0.0
  0
VERTEX
  5
6CA
  8
DATA
  6
CONTINUOUS
 62
     7
 10
150.49749326071449
 20
42.973112392000942
 30
0.0
  0
VERTEX
  5
6CB
  8
DATA
  6
CONTINUOUS
 62
     7
 10
149.49749326071461
 20
42.973112392000942
 30
0.0
  0
VERTEX
  5
6CC
  8
DATA
  6
CONTINUOUS
 62
     7
 10
149.49749326071461
 20
44.973112392000928
 30
0.0
  0
SEQEND
  5
6CD
  8
DATA
  6
CONTINUOUS
 62
     7
  0
POLYLINE
  5
F6
  8
DATA
  6
CONTINUOUS
 62
     7
 66
     1
 10
0.0
 20
0.0
 30
0.0
  0
VERTEX
  5
6CE
  8
DATA
  6
CONTINUOUS
 62
     7
 10
149.49749326071461
 20
44.973112392000928
 30
0.0
  0
VERTEX
  5
6CF
  8
DATA
  6
CONTINUOUS
 62
     7
 10
147.49749326071449
 20
44.973112392000928
 30
0.0
  0
VERTEX
  5
6D0
  8
DATA
  6
CONTINUOUS
 62
     7
 10
147.49749326071449
 20
45.973112392000928
 30
0.0
  0
VERTEX
  5
6D1
  8
DATA
  6
CONTINUOUS
 62
     7
 10
149.49749326071461
 20
45.973112392000928
 30
0.0
  0
SEQEND
  5
6D2
  8
DATA
  6
CONTINUOUS
 62
     7
  0
POLYLINE
  5
FD
  8
DATA
  6
CONTINUOUS
 62
     7
 66
     1
 10
0.0
 20
0.0
 30
0.0
  0
VERTEX
  5
6D3
  8
DATA
  6
CONTINUOUS
 62
     7
 10
150.49749326071449
 20
44.973112392000928
 30
0.0
  0
VERTEX
  5
6D4
  8
DATA
  6
CONTINUOUS
 62
     7
 10
152.49749326071461
 20
44.973112392000928
 30
0.0
  0
VERTEX
  5
6D5
  8
DATA
  6
CONTINUOUS
 62
     7
 10
152.49749326071461
 20
45.973112392000928
 30
0.0
  0
VERTEX
  5
6D6
  8
DATA
  6
CONTINUOUS
 62
     7
 10
150.49749326071449
 20
45.973112392000928
 30
0.0
  0
SEQEND
  5
6D7
  8
DATA
  6
CONTINUOUS
 62
     7
  0
POLYLINE
  5
104
  8
DATA
  6
CONTINUOUS
 62
     7
 66
     1
 10
0.0
 20
0.0
 30
0.0
  0
VERTEX
  5
6D8
  8
DATA
  6
CONTINUOUS
 62
     7
 10
131.8753678805615
 20
73.718011940191843
 30
0.0
  0
VERTEX
  5
6D9
  8
DATA
  6
CONTINUOUS
 62
     7
 10
131.8753678805615
 20
69.11801194019182
 30
0.0
  0
VERTEX
  5
6DA
  8
DATA
  6
CONTINUOUS
 62
     7
 10
143.5753678805614
 20
69.11801194019182
 30
0.0
  0
VERTEX
  5
6DB
  8
DATA
  6
CONTINUOUS
 62
     7
 10
143.5753678805614
 20
82.818011940191951
 30
0.0
  0
VERTEX
  5
6DC
  8
DATA
  6
CONTINUOUS
 62
     7
 10
131.8753678805615
 20
82.818011940191951
 30
0.0
  0
VERTEX
  5
6DD
  8
DATA
  6
CONTINUOUS
 62
     7
 10
131.8753678805615
 20
78.218011940191843
 30
0.0
  0
SEQEND
  5
6DE
  8
DATA
  6
CONTINUOUS
 62
     7
  0
LINE
  5
10D
  8
DATA
  6
CONTINUOUS
 62
     7
 10
130.8753678805615
 20
78.218011940191843
 30
0.0
 11
131.8753678805615
 21
78.218011940191843
 31
0.0
  0
LINE
  5
10E
  8
DATA
  6
CONTINUOUS
 62
     7
 10
130.8753678805615
 20
73.718011940191843
 30
0.0
 11
130.8753678805615
 21
78.218011940191843
 31
0.0
  0
LINE
  5
10F
  8
DATA
  6
CONTINUOUS
 62
     7
 10
131.8753678805615
 20
73.718011940191843
 30
0.0
 11
130.8753678805615
 21
73.718011940191843
 31
0.0
  0
LINE
  5
110
  8
DATA
  6
CONTINUOUS
 62
     7
 10
135.5753678805614
 20
82.018011940191954
 30
0.0
 11
143.5753678805614
 21
82.018011940191954
 31
0.0
  0
LINE
  5
111
  8
DATA
  6
CONTINUOUS
 62
     7
 10
135.5753678805614
 20
69.918011940191789
 30
0.0
 11
143.5753678805614
 21
69.918011940191789
 31
0.0
  0
LINE
  5
112
  8
DATA
  6
CONTINUOUS
 62
     7
 10
135.5753678805614
 20
69.918011940191789
 30
0.0
 11
135.5753678805614
 21
73.818011940191838
 31
0.0
  0
LINE
  5
113
  8
DATA
  6
CONTINUOUS
 62
     7
 10
135.5753678805614
 20
73.818011940191838
 30
0.0
 11
132.12569074059189
 21
73.818011940191838
 31
0.0
  0
LINE
  5
114
  8
DATA
  6
CONTINUOUS
 62
     7
 10
135.5753678805614
 20
82.018011940191954
 30
0.0
 11
135.5753678805614
 21
78.118011940191806
 31
0.0
  0
LINE
  5
115
  8
DATA
  6
CONTINUOUS
 62
     7
 10
135.5753678805614
 20
78.118011940191806
 30
0.0
 11
132.12569074059189
 21
78.118011940191806
 31
0.0
  0
LINE
  5
116
  8
DATA
  6
CONTINUOUS
 62
     7
 10
132.12569074059189
 20
73.818011940191838
 30
0.0
 11
132.12569074059189
 21
78.118011940191806
 31
0.0
  0
LINE
  5
117
  8
DATA
  6
CONTINUOUS
 62
     7
 10
56.391183795839417
 20
48.819655848378602
 30
0.0
 11
57.391183795839417
 21
48.819655848378602
 31
0.0
  0
LINE
  5
118
  8
DATA
  6
CONTINUOUS
 62
     7
 10
56.391183795839417
 20
42.119655848378613
 30
0.0
 11
57.391183795839417
 21
42.119655848378613
 31
0.0
  0
LINE
  5
119
  8
DATA
  6
CONTINUOUS
 62
     7
 10
68.457389690727254
 20
48.160044754699364
 30
0.0
 11
58.964693832407292
 21
48.160044754699364
 31
0.0
  0
LINE
  5
11A
  8
DATA
  6
CONTINUOUS
 62
     7
 10
68.420000000000073
 20
42.779266942057831
 30
0.0
 11
58.964693832407292
 21
42.779266942057831
 31
0.0
  0
LINE
  5
11B
  8
DATA
  6
CONTINUOUS
 62
     7
 10
3.1583750827286239
 20
102.9212805198317
 30
0.0
 11
4.2936412398122323
 21
104.0565466769153
 31
0.0
  0
LINE
  5
11C
  8
DATA
  6
CONTINUOUS
 62
     7
 10
4.3073087937988097
 20
101.6660511748677
 30
0.0
 11
5.4555940963885368
 21
102.8143364774574
 31
0.0
  0
CIRCLE
  5
11D
  8
DATA
  6
CONTINUOUS
 62
     7
 10
0.0579695035644221
 20
98.929989845790686
 30
0.0
 40
6.6500000000000492
  0
CIRCLE
  5
11E
  8
DATA
  6
CONTINUOUS
 62
     7
 10
0.0579695035644221
 20
98.929989845790686
 30
0.0
 40
5.0540000000000243
  0
POLYLINE
  5
11F
  8
DATA
  6
CONTINUOUS
 62
     7
 66
     1
 10
0.0
 20
0.0
 30
0.0
 70
   129
  0
VERTEX
  5
6DF
  8
DATA
  6
CONTINUOUS
 62
     7
 10
-7.3661550912687659
 20
97.193073515019563
 30
0.0
  0
VERTEX
  5
6E0
  8
DATA
  6
CONTINUOUS
 62
     7
 10
-7.3661550912687659
 20
97.193073515019563
 30
0.0
 42
-0.41421356237315
  0
VERTEX
  5
6E1
  8
DATA
  6
CONTINUOUS
 62
     7
 10
-6.8395019606409884
 20
98.105263495231995
 30
0.0
  0
VERTEX
  5
6E2
  8
DATA
  6
CONTINUOUS
 62
     7
 10
-0.9196903046130415
 20
99.691472247809088
 30
0.0
  0
VERTEX
  5
6E3
  8
DATA
  6
CONTINUOUS
 62
     7
 10
-0.9196903046129703
 20
99.691472247809088
 30
0.0
 42
-0.4142135623730252
  0
VERTEX
  5
6E4
  8
DATA
  6
CONTINUOUS
 62
     7
 10
-0.0075003244005671
 20
99.164819117181409
 30
0.0
  0
VERTEX
  5
6E5
  8
DATA
  6
CONTINUOUS
 62
     7
 10
0.0475763683971167
 20
98.959270101347187
 30
0.0
  0
VERTEX
  5
6E6
  8
DATA
  6
CONTINUOUS
 62
     7
 10
0.0475763683971167
 20
98.959270101347187
 30
0.0
 42
-0.4142135623731412
  0
VERTEX
  5
6E7
  8
DATA
  6
CONTINUOUS
 62
     7
 10
-0.4790767622306619
 20
98.047080121134655
 30
0.0
  0
VERTEX
  5
6E8
  8
DATA
  6
CONTINUOUS
 62
     7
 10
-6.3988884182584931
 20
96.460871368557605
 30
0.0
  0
VERTEX
  5
6E9
  8
DATA
  6
CONTINUOUS
 62
     7
 10
-6.3988884182584931
 20
96.460871368557605
 30
0.0
 42
-0.4142135623730951
  0
VERTEX
  5
6EA
  8
DATA
  6
CONTINUOUS
 62
     7
 10
-7.3110783984709098
 20
96.987524499185497
 30
0.0
  0
SEQEND
  5
6EB
  8
DATA
  6
CONTINUOUS
 62
     7
  0
LINE
  5
12D
  8
DATA
  6
CONTINUOUS
 62
     7
 10
-2.8628088411827122
 20
103.0545467748298
 30
0.0
 11
-4.0037212968794194
 21
104.1954592305265
 31
0.0
  0
LINE
  5
12E
  8
DATA
  6
CONTINUOUS
 62
     7
 10
-4.0665874254746788
 20
101.85076819053781
 30
0.0
 11
-5.20749988117133
 21
102.9916806462345
 31
0.0
  0
LINE
  5
12F
  8
DATA
  6
CONTINUOUS
 62
     7
 10
4.1825264326035798
 20
96.009211501043509
 30
0.0
 11
5.323438888300231
 21
94.868299045346845
 31
0.0
  0
LINE
  5
130
  8
DATA
  6
CONTINUOUS
 62
     7
 10
2.9787478483115559
 20
94.805432916751514
 30
0.0
 11
4.1196603040082067
 21
93.664520461054877
 31
0.0
  0
LINE
  5
131
  8
DATA
  6
CONTINUOUS
 62
     7
 10
-0.7932304964355837
 20
103.91179419361281
 30
0.0
 11
-0.7932304964355268
 21
105.52528806194439
 31
0.0
  0
LINE
  5
132
  8
DATA
  6
CONTINUOUS
 62
     7
 10
0.9091695035644278
 20
103.9117941936194
 30
0.0
 11
0.9091695035643709
 21
105.52528806194439
 31
0.0
  0
LINE
  5
133
  8
DATA
  6
CONTINUOUS
 62
     7
 10
5.03977385138647
 20
99.781189845790607
 30
0.0
 11
6.6532677197180732
 21
99.781189845790635
 31
0.0
  0
LINE
  5
134
  8
DATA
  6
CONTINUOUS
 62
     7
 10
6.6532677197180732
 20
98.078789845790595
 30
0.0
 11
5.0397738513930639
 21
98.078789845790553
 31
0.0
  0
LINE
  5
135
  8
DATA
  6
CONTINUOUS
 62
     7
 10
0.9091695035644278
 20
92.33469162963695
 30
0.0
 11
0.9091695035644278
 21
93.948185497961958
 31
0.0
  0
LINE
  5
136
  8
DATA
  6
CONTINUOUS
 62
     7
 10
-0.7932304964355837
 20
92.334691629636978
 30
0.0
 11
-0.7932304964355837
 21
93.948185497968552
 31
0.0
  0
LINE
  5
137
  8
DATA
  6
CONTINUOUS
 62
     7
 10
78.0
 20
17.75
 30
0.0
 11
78.0
 21
132.25
 31
0.0
  0
LINE
  5
138
  8
DATA
  6
CONTINUOUS
 62
     7
 10
75.0
 20
17.75
 30
0.0
 11
75.0
 21
132.25
 31
0.0
  0
LINE
  5
139
  8
DATA
  6
CONTINUOUS
 62
     7
 10
78.0
 20
132.25
 30
0.0
 11
75.0
 21
132.25
 31
0.0
  0
LINE
  5
13A
  8
DATA
  6
CONTINUOUS
 62
     7
 10
78.0
 20
17.75
 30
0.0
 11
75.0
 21
17.75
 31
0.0
  0
LINE
  5
13B
  8
DATA
  6
CONTINUOUS
 62
     7
 10
57.391183795839417
 20
109.9084965451847
 30
0.0
 11
57.391183795839417
 21
110.0
 31
0.0
  0
LINE
  5
13C
  8
DATA
  6
CONTINUOUS
 62
     7
 10
58.964693832407292
 20
109.9084965451847
 30
0.0
 11
58.964693832407292
 21
110.0
 31
0.0
  0
LINE
  5
13D
  8
DATA
  6
CONTINUOUS
 62
     7
 10
58.964693832407292
 20
110.0
 30
0.0
 11
57.393829898001393
 21
110.0
 31
0.0
  0
LINE
  5
13E
  8
DATA
  6
CONTINUOUS
 62
     7
 10
57.391183795839417
 20
40.113636135184322
 30
0.0
 11
57.391183795839417
 21
40.0
 31
0.0
  0
LINE
  5
13F
  8
DATA
  6
CONTINUOUS
 62
     7
 10
58.964693832407292
 20
40.113636135184322
 30
0.0
 11
58.964693832407292
 21
40.0
 31
0.0
  0
LINE
  5
140
  8
DATA
  6
CONTINUOUS
 62
     7
 10
58.964693832407292
 20
40.0
 30
0.0
 11
57.391183795839417
 21
40.0
 31
0.0
  0
LINE
  5
141
  8
DATA
  6
CONTINUOUS
 62
     7
 10
68.457389690727254
 20
48.160044754699364
 30
0.0
 11
71.030000000000101
 21
48.160044754699364
 31
0.0
  0
LINE
  5
142
  8
DATA
  6
CONTINUOUS
 62
     7
 10
62.724230434059898
 20
107.1413941462215
 30
0.0
 11
75.0
 21
107.1413941462215
 31
0.0
  0
LINE
  5
143
  8
DATA
  6
CONTINUOUS
 62
     7
 10
63.127214804223861
 20
101.7609605711727
 30
0.0
 11
75.0
 21
101.7609605711727
 31
0.0
  0
LINE
  5
144
  8
DATA
  6
CONTINUOUS
 62
     7
 10
82.395898122943777
 20
92.588360957478073
 30
0.0
 11
78.969701362069941
 21
92.348771592907426
 31
0.0
  0
LINE
  5
145
  8
DATA
  6
CONTINUOUS
 62
     7
 10
93.970198704766275
 20
94.060320904177203
 30
0.0
 11
82.395898122943777
 21
92.843785251315694
 31
0.0
  0
LINE
  5
146
  8
DATA
  6
CONTINUOUS
 62
     7
 10
93.973330156415372
 20
94.060645709002387
 30
0.0
 11
93.970198704766275
 21
94.060320904177203
 31
0.0
  0
POLYLINE
  5
147
  8
DATA
  6
CONTINUOUS
 62
     7
 66
     1
 10
0.0
 20
0.0
 30
0.0
 70
   128
  0
VERTEX
  5
6EC
  8
DATA
  6
CONTINUOUS
 62
     7
 10
94.197395515996149
 20
94.309507279700796
 30
0.0
  0
VERTEX
  5
6ED
  8
DATA
  6
CONTINUOUS
 62
     7
 10
94.197349506046166
 20
94.308036699190012
 30
0.0
  0
VERTEX
  5
6EE
  8
DATA
  6
CONTINUOUS
 62
     7
 10
94.19729633996306
 20
94.306568529337909
 30
0.0
  0
VERTEX
  5
6EF
  8
DATA
  6
CONTINUOUS
 62
     7
 10
94.197236017746818
 20
94.305102770144615
 30
0.0
  0
VERTEX
  5
6F0
  8
DATA
  6
CONTINUOUS
 62
     7
 10
94.197168539397438
 20
94.303639421609986
 30
0.0
  0
VERTEX
  5
6F1
  8
DATA
  6
CONTINUOUS
 62
     7
 10
94.197093904915008
 20
94.302178483734124
 30
0.0
  0
VERTEX
  5
6F2
  8
DATA
  6
CONTINUOUS
 62
     7
 10
94.197012114299412
 20
94.300719956516957
 30
0.0
  0
VERTEX
  5
6F3
  8
DATA
  6
CONTINUOUS
 62
     7
 10
94.196923167550693
 20
94.299263839958513
 30
0.0
  0
VERTEX
  5
6F4
  8
DATA
  6
CONTINUOUS
 62
     7
 10
94.196827064668838
 20
94.297810134058835
 30
0.0
  0
VERTEX
  5
6F5
  8
DATA
  6
CONTINUOUS
 62
     7
 10
94.196723805653917
 20
94.296358838817866
 30
0.0
  0
VERTEX
  5
6F6
  8
DATA
  6
CONTINUOUS
 62
     7
 10
94.196613390505846
 20
94.294909954235592
 30
0.0
  0
VERTEX
  5
6F7
  8
DATA
  6
CONTINUOUS
 62
     7
 10
94.196495819224637
 20
94.293463480312084
 30
0.0
  0
VERTEX
  5
6F8
  8
DATA
  6
CONTINUOUS
 62
     7
 10
94.19637109181032
 20
94.292019417047285
 30
0.0
  0
VERTEX
  5
6F9
  8
DATA
  6
CONTINUOUS
 62
     7
 10
94.196239208262924
 20
94.290577764441224
 30
0.0
  0
VERTEX
  5
6FA
  8
DATA
  6
CONTINUOUS
 62
     7
 10
94.196100168582333
 20
94.289138522493914
 30
0.0
  0
VERTEX
  5
6FB
  8
DATA
  6
CONTINUOUS
 62
     7
 10
94.195953972768706
 20
94.287701691205271
 30
0.0
  0
VERTEX
  5
6FC
  8
DATA
  6
CONTINUOUS
 62
     7
 10
94.195800620821913
 20
94.286267270575422
 30
0.0
  0
VERTEX
  5
6FD
  8
DATA
  6
CONTINUOUS
 62
     7
 10
94.195640112742026
 20
94.284835260604268
 30
0.0
  0
VERTEX
  5
6FE
  8
DATA
  6
CONTINUOUS
 62
     7
 10
94.19547244852896
 20
94.283405661291837
 30
0.0
  0
VERTEX
  5
6FF
  8
DATA
  6
CONTINUOUS
 62
     7
 10
94.195297628182814
 20
94.28197847263813
 30
0.0
  0
VERTEX
  5
700
  8
DATA
  6
CONTINUOUS
 62
     7
 10
94.195115651703574
 20
94.280553694643146
 30
0.0
  0
VERTEX
  5
701
  8
DATA
  6
CONTINUOUS
 62
     7
 10
94.194926519091183
 20
94.279131327306914
 30
0.0
  0
VERTEX
  5
702
  8
DATA
  6
CONTINUOUS
 62
     7
 10
94.194730230345684
 20
94.277711370629405
 30
0.0
  0
VERTEX
  5
703
  8
DATA
  6
CONTINUOUS
 62
     7
 10
94.194526785467033
 20
94.27629382461059
 30
0.0
  0
VERTEX
  5
704
  8
DATA
  6
CONTINUOUS
 62
     7
 10
94.194316184455303
 20
94.274878689250571
 30
0.0
  0
VERTEX
  5
705
  8
DATA
  6
CONTINUOUS
 62
     7
 10
94.194098427310422
 20
94.273465964549217
 30
0.0
  0
VERTEX
  5
706
  8
DATA
  6
CONTINUOUS
 62
     7
 10
94.193873514032461
 20
94.272055650506587
 30
0.0
  0
VERTEX
  5
707
  8
DATA
  6
CONTINUOUS
 62
     7
 10
94.193641444621335
 20
94.270647747122766
 30
0.0
  0
VERTEX
  5
708
  8
DATA
  6
CONTINUOUS
 62
     7
 10
94.193402219077143
 20
94.269242254397597
 30
0.0
  0
VERTEX
  5
709
  8
DATA
  6
CONTINUOUS
 62
     7
 10
94.193155837399786
 20
94.267839172331179
 30
0.0
  0
VERTEX
  5
70A
  8
DATA
  6
CONTINUOUS
 62
     7
 10
94.192902299589306
 20
94.266438500923485
 30
0.0
  0
VERTEX
  5
70B
  8
DATA
  6
CONTINUOUS
 62
     7
 10
94.192641605645775
 20
94.265040240174514
 30
0.0
  0
VERTEX
  5
70C
  8
DATA
  6
CONTINUOUS
 62
     7
 10
94.192373755569051
 20
94.263644390084266
 30
0.0
  0
VERTEX
  5
70D
  8
DATA
  6
CONTINUOUS
 62
     7
 10
94.192098749359232
 20
94.262250950652771
 30
0.0
  0
VERTEX
  5
70E
  8
DATA
  6
CONTINUOUS
 62
     7
 10
94.191816587016305
 20
94.260859921879955
 30
0.0
  0
VERTEX
  5
70F
  8
DATA
  6
CONTINUOUS
 62
     7
 10
94.191527268540213
 20
94.259471303765906
 30
0.0
  0
VERTEX
  5
710
  8
DATA
  6
CONTINUOUS
 62
     7
 10
94.191230793931084
 20
94.258085096310552
 30
0.0
  0
VERTEX
  5
711
  8
DATA
  6
CONTINUOUS
 62
     7
 10
94.190927163188803
 20
94.256701299513949
 30
0.0
  0
VERTEX
  5
712
  8
DATA
  6
CONTINUOUS
 62
     7
 10
94.190616376313343
 20
94.255319913376098
 30
0.0
  0
VERTEX
  5
713
  8
DATA
  6
CONTINUOUS
 62
     7
 10
94.190298433304847
 20
94.253940937896942
 30
0.0
  0
VERTEX
  5
714
  8
DATA
  6
CONTINUOUS
 62
     7
 10
94.189973334163184
 20
94.252564373076495
 30
0.0
  0
VERTEX
  5
715
  8
DATA
  6
CONTINUOUS
 62
     7
 10
94.189641078888386
 20
94.251190218914857
 30
0.0
  0
VERTEX
  5
716
  8
DATA
  6
CONTINUOUS
 62
     7
 10
94.189301667480507
 20
94.249818475411885
 30
0.0
  0
VERTEX
  5
717
  8
DATA
  6
CONTINUOUS
 62
     7
 10
94.188955099939506
 20
94.248449142567637
 30
0.0
  0
VERTEX
  5
718
  8
DATA
  6
CONTINUOUS
 62
     7
 10
94.188601376265353
 20
94.247082220382097
 30
0.0
  0
VERTEX
  5
719
  8
DATA
  6
CONTINUOUS
 62
     7
 10
94.188240496458135
 20
94.24571770885531
 30
0.0
  0
VERTEX
  5
71A
  8
DATA
  6
CONTINUOUS
 62
     7
 10
94.187872460517767
 20
94.244355607987288
 30
0.0
  0
VERTEX
  5
71B
  8
DATA
  6
CONTINUOUS
 62
     7
 10
94.187497268444304
 20
94.242995917777961
 30
0.0
  0
VERTEX
  5
71C
  8
DATA
  6
CONTINUOUS
 62
     7
 10
94.187114920237647
 20
94.241638638227371
 30
0.0
  0
VERTEX
  5
71D
  8
DATA
  6
CONTINUOUS
 62
     7
 10
94.186725415897939
 20
94.240283769335477
 30
0.0
  0
VERTEX
  5
71E
  8
DATA
  6
CONTINUOUS
 62
     7
 10
94.186328755425066
 20
94.238931311102306
 30
0.0
  0
VERTEX
  5
71F
  8
DATA
  6
CONTINUOUS
 62
     7
 10
94.185924938819127
 20
94.237581263527915
 30
0.0
  0
VERTEX
  5
720
  8
DATA
  6
CONTINUOUS
 62
     7
 10
94.185513966080052
 20
94.236233626612204
 30
0.0
  0
VERTEX
  5
721
  8
DATA
  6
CONTINUOUS
 62
     7
 10
94.185095837207825
 20
94.23488840035526
 30
0.0
  0
VERTEX
  5
722
  8
DATA
  6
CONTINUOUS
 62
     7
 10
94.184670552202491
 20
94.233545584757024
 30
0.0
  0
VERTEX
  5
723
  8
DATA
  6
CONTINUOUS
 62
     7
 10
94.184238111064076
 20
94.232205179817484
 30
0.0
  0
VERTEX
  5
724
  8
DATA
  6
CONTINUOUS
 62
     7
 10
94.183798513792468
 20
94.230867185536724
 30
0.0
  0
VERTEX
  5
725
  8
DATA
  6
CONTINUOUS
 62
     7
 10
94.183351760387794
 20
94.229531601914687
 30
0.0
  0
VERTEX
  5
726
  8
DATA
  6
CONTINUOUS
 62
     7
 10
94.182897850849983
 20
94.228198428951345
 30
0.0
  0
VERTEX
  5
727
  8
DATA
  6
CONTINUOUS
 62
     7
 10
94.182436785179078
 20
94.226867666646768
 30
0.0
  0
VERTEX
  5
728
  8
DATA
  6
CONTINUOUS
 62
     7
 10
94.181968563375051
 20
94.225539315000887
 30
0.0
  0
VERTEX
  5
729
  8
DATA
  6
CONTINUOUS
 62
     7
 10
94.181493185437887
 20
94.224213374013715
 30
0.0
  0
VERTEX
  5
72A
  8
DATA
  6
CONTINUOUS
 62
     7
 10
94.181010651367586
 20
94.222889843685337
 30
0.0
  0
VERTEX
  5
72B
  8
DATA
  6
CONTINUOUS
 62
     7
 10
94.180520961164206
 20
94.221568724015626
 30
0.0
  0
VERTEX
  5
72C
  8
DATA
  6
CONTINUOUS
 62
     7
 10
94.180024114827688
 20
94.220250015004652
 30
0.0
  0
VERTEX
  5
72D
  8
DATA
  6
CONTINUOUS
 62
     7
 10
94.180024114827688
 20
94.220250015004652
 30
0.0
  0
VERTEX
  5
72E
  8
DATA
  6
CONTINUOUS
 62
     7
 10
94.179519853366301
 20
94.218934186248035
 30
0.0
  0
VERTEX
  5
72F
  8
DATA
  6
CONTINUOUS
 62
     7
 10
94.179007917788326
 20
94.217621707341394
 30
0.0
  0
VERTEX
  5
730
  8
DATA
  6
CONTINUOUS
 62
     7
 10
94.178488308093719
 20
94.216312578284743
 30
0.0
  0
VERTEX
  5
731
  8
DATA
  6
CONTINUOUS
 62
     7
 10
94.17796102428251
 20
94.21500679907804
 30
0.0
  0
VERTEX
  5
732
  8
DATA
  6
CONTINUOUS
 62
     7
 10
94.177426066354727
 20
94.213704369721299
 30
0.0
  0
VERTEX
  5
733
  8
DATA
  6
CONTINUOUS
 62
     7
 10
94.176883434310341
 20
94.212405290214562
 30
0.0
  0
VERTEX
  5
734
  8
DATA
  6
CONTINUOUS
 62
     7
 10
94.176333128149324
 20
94.211109560557787
 30
0.0
  0
VERTEX
  5
735
  8
DATA
  6
CONTINUOUS
 62
     7
 10
94.175775147871718
 20
94.209817180750946
 30
0.0
  0
VERTEX
  5
736
  8
DATA
  6
CONTINUOUS
 62
     7
 10
94.175209493477524
 20
94.208528150794166
 30
0.0
  0
VERTEX
  5
737
  8
DATA
  6
CONTINUOUS
 62
     7
 10
94.174636164966699
 20
94.207242470687277
 30
0.0
  0
VERTEX
  5
738
  8
DATA
  6
CONTINUOUS
 62
     7
 10
94.174055162339286
 20
94.205960140430406
 30
0.0
  0
VERTEX
  5
739
  8
DATA
  6
CONTINUOUS
 62
     7
 10
94.173466485595213
 20
94.204681160023483
 30
0.0
  0
VERTEX
  5
73A
  8
DATA
  6
CONTINUOUS
 62
     7
 10
94.172870134734595
 20
94.203405529466508
 30
0.0
  0
VERTEX
  5
73B
  8
DATA
  6
CONTINUOUS
 62
     7
 10
94.172266109757359
 20
94.202133248759523
 30
0.0
  0
VERTEX
  5
73C
  8
DATA
  6
CONTINUOUS
 62
     7
 10
94.171654410663507
 20
94.200864317902514
 30
0.0
  0
VERTEX
  5
73D
  8
DATA
  6
CONTINUOUS
 62
     7
 10
94.171035037453066
 20
94.199598736895467
 30
0.0
  0
VERTEX
  5
73E
  8
DATA
  6
CONTINUOUS
 62
     7
 10
94.170407990126023
 20
94.198336505738425
 30
0.0
  0
VERTEX
  5
73F
  8
DATA
  6
CONTINUOUS
 62
     7
 10
94.169773268682405
 20
94.197077624431344
 30
0.0
  0
VERTEX
  5
740
  8
DATA
  6
CONTINUOUS
 62
     7
 10
94.169130873122157
 20
94.195822092974225
 30
0.0
  0
VERTEX
  5
741
  8
DATA
  6
CONTINUOUS
 62
     7
 10
94.168480803445263
 20
94.194569911367068
 30
0.0
  0
VERTEX
  5
742
  8
DATA
  6
CONTINUOUS
 62
     7
 10
94.167823059651809
 20
94.193321079609916
 30
0.0
  0
VERTEX
  5
743
  8
DATA
  6
CONTINUOUS
 62
     7
 10
94.167157641741696
 20
94.192075597702683
 30
0.0
  0
VERTEX
  5
744
  8
DATA
  6
CONTINUOUS
 62
     7
 10
94.166484549715065
 20
94.190833465645483
 30
0.0
  0
VERTEX
  5
745
  8
DATA
  6
CONTINUOUS
 62
     7
 10
94.165803783571789
 20
94.189594683438187
 30
0.0
  0
VERTEX
  5
746
  8
DATA
  6
CONTINUOUS
 62
     7
 10
94.165115343311925
 20
94.188359251080911
 30
0.0
  0
VERTEX
  5
747
  8
DATA
  6
CONTINUOUS
 62
     7
 10
94.164419228935429
 20
94.187127168573596
 30
0.0
  0
VERTEX
  5
748
  8
DATA
  6
CONTINUOUS
 62
     7
 10
94.163715440442346
 20
94.185898435916272
 30
0.0
  0
VERTEX
  5
749
  8
DATA
  6
CONTINUOUS
 62
     7
 10
94.163003977832645
 20
94.184673053108895
 30
0.0
  0
VERTEX
  5
74A
  8
DATA
  6
CONTINUOUS
 62
     7
 10
94.162284841106356
 20
94.18345102015148
 30
0.0
  0
VERTEX
  5
74B
  8
DATA
  6
CONTINUOUS
 62
     7
 10
94.16155803026345
 20
94.182232337044084
 30
0.0
  0
VERTEX
  5
74C
  8
DATA
  6
CONTINUOUS
 62
     7
 10
94.160823545303927
 20
94.181017003786607
 30
0.0
  0
VERTEX
  5
74D
  8
DATA
  6
CONTINUOUS
 62
     7
 10
94.160081386227844
 20
94.179805020379106
 30
0.0
  0
VERTEX
  5
74E
  8
DATA
  6
CONTINUOUS
 62
     7
 10
94.15933155303513
 20
94.178596386821596
 30
0.0
  0
VERTEX
  5
74F
  8
DATA
  6
CONTINUOUS
 62
     7
 10
94.1585740457258
 20
94.177391103114076
 30
0.0
  0
VERTEX
  5
750
  8
DATA
  6
CONTINUOUS
 62
     7
 10
94.157808864299867
 20
94.176189169256503
 30
0.0
  0
VERTEX
  5
751
  8
DATA
  6
CONTINUOUS
 62
     7
 10
94.157036008757345
 20
94.174990585248906
 30
0.0
  0
VERTEX
  5
752
  8
DATA
  6
CONTINUOUS
 62
     7
 10
94.15625547909822
 20
94.173795351091286
 30
0.0
  0
VERTEX
  5
753
  8
DATA
  6
CONTINUOUS
 62
     7
 10
94.155467275322493
 20
94.172603466783585
 30
0.0
  0
VERTEX
  5
754
  8
DATA
  6
CONTINUOUS
 62
     7
 10
94.154671397430135
 20
94.171414932325931
 30
0.0
  0
VERTEX
  5
755
  8
DATA
  6
CONTINUOUS
 62
     7
 10
94.153867845421189
 20
94.170229747718224
 30
0.0
  0
VERTEX
  5
756
  8
DATA
  6
CONTINUOUS
 62
     7
 10
94.153056619295626
 20
94.169047912960494
 30
0.0
  0
VERTEX
  5
757
  8
DATA
  6
CONTINUOUS
 62
     7
 10
94.152237719053474
 20
94.167869428052725
 30
0.0
  0
VERTEX
  5
758
  8
DATA
  6
CONTINUOUS
 62
     7
 10
94.151411144694706
 20
94.166694292994919
 30
0.0
  0
VERTEX
  5
759
  8
DATA
  6
CONTINUOUS
 62
     7
 10
94.150576896219377
 20
94.165522507787117
 30
0.0
  0
VERTEX
  5
75A
  8
DATA
  6
CONTINUOUS
 62
     7
 10
94.149734973627417
 20
94.164354072429276
 30
0.0
  0
VERTEX
  5
75B
  8
DATA
  6
CONTINUOUS
 62
     7
 10
94.148885376918855
 20
94.163188986921384
 30
0.0
  0
VERTEX
  5
75C
  8
DATA
  6
CONTINUOUS
 62
     7
 10
94.14802810609369
 20
94.162027251263481
 30
0.0
  0
VERTEX
  5
75D
  8
DATA
  6
CONTINUOUS
 62
     7
 10
94.147163161151866
 20
94.160868865455555
 30
0.0
  0
VERTEX
  5
75E
  8
DATA
  6
CONTINUOUS
 62
     7
 10
94.146290542093524
 20
94.159713829497562
 30
0.0
  0
VERTEX
  5
75F
  8
DATA
  6
CONTINUOUS
 62
     7
 10
94.145410248918509
 20
94.158562143389574
 30
0.0
  0
VERTEX
  5
760
  8
DATA
  6
CONTINUOUS
 62
     7
 10
94.144522281626934
 20
94.157413807131547
 30
0.0
  0
VERTEX
  5
761
  8
DATA
  6
CONTINUOUS
 62
     7
 10
94.143626640218741
 20
94.156268820723497
 30
0.0
  0
VERTEX
  5
762
  8
DATA
  6
CONTINUOUS
 62
     7
 10
94.142723324693947
 20
94.155127184165437
 30
0.0
  0
VERTEX
  5
763
  8
DATA
  6
CONTINUOUS
 62
     7
 10
94.141812335052563
 20
94.15398889745731
 30
0.0
  0
VERTEX
  5
764
  8
DATA
  6
CONTINUOUS
 62
     7
 10
94.140893671294521
 20
94.152853960599217
 30
0.0
  0
VERTEX
  5
765
  8
DATA
  6
CONTINUOUS
 62
     7
 10
94.139967333419946
 20
94.151722373591042
 30
0.0
  0
VERTEX
  5
766
  8
DATA
  6
CONTINUOUS
 62
     7
 10
94.139033321428698
 20
94.150594136432844
 30
0.0
  0
VERTEX
  5
767
  8
DATA
  6
CONTINUOUS
 62
     7
 10
94.138091635320876
 20
94.149469249124635
 30
0.0
  0
VERTEX
  5
768
  8
DATA
  6
CONTINUOUS
 62
     7
 10
94.137142275096451
 20
94.148347711666418
 30
0.0
  0
VERTEX
  5
769
  8
DATA
  6
CONTINUOUS
 62
     7
 10
94.136185240755466
 20
94.147229524058133
 30
0.0
  0
VERTEX
  5
76A
  8
DATA
  6
CONTINUOUS
 62
     7
 10
94.135220532297808
 20
94.146114686299825
 30
0.0
  0
VERTEX
  5
76B
  8
DATA
  6
CONTINUOUS
 62
     7
 10
94.134248149723575
 20
94.145003198391464
 30
0.0
  0
VERTEX
  5
76C
  8
DATA
  6
CONTINUOUS
 62
     7
 10
94.133268093032726
 20
94.143895060333122
 30
0.0
  0
VERTEX
  5
76D
  8
DATA
  6
CONTINUOUS
 62
     7
 10
94.132280362225288
 20
94.142790272124785
 30
0.0
  0
VERTEX
  5
76E
  8
DATA
  6
CONTINUOUS
 62
     7
 10
94.132280362225288
 20
94.142790272124785
 30
0.0
  0
VERTEX
  5
76F
  8
DATA
  6
CONTINUOUS
 62
     7
 10
94.131286716481426
 20
94.1416908089722
 30
0.0
  0
VERTEX
  5
770
  8
DATA
  6
CONTINUOUS
 62
     7
 10
94.130288914981463
 20
94.140598646081358
 30
0.0
  0
VERTEX
  5
771
  8
DATA
  6
CONTINUOUS
 62
     7
 10
94.129286957725256
 20
94.139513783452145
 30
0.0
  0
VERTEX
  5
772
  8
DATA
  6
CONTINUOUS
 62
     7
 10
94.128280844712904
 20
94.138436221084689
 30
0.0
  0
VERTEX
  5
773
  8
DATA
  6
CONTINUOUS
 62
     7
 10
94.127270575944408
 20
94.137365958978904
 30
0.0
  0
VERTEX
  5
774
  8
DATA
  6
CONTINUOUS
 62
     7
 10
94.12625615141971
 20
94.136302997134806
 30
0.0
  0
VERTEX
  5
775
  8
DATA
  6
CONTINUOUS
 62
     7
 10
94.12523757113884
 20
94.135247335552364
 30
0.0
  0
VERTEX
  5
776
  8
DATA
  6
CONTINUOUS
 62
     7
 10
94.124214835101796
 20
94.134198974231666
 30
0.0
  0
VERTEX
  5
777
  8
DATA
  6
CONTINUOUS
 62
     7
 10
94.123187943308565
 20
94.133157913172667
 30
0.0
  0
VERTEX
  5
778
  8
DATA
  6
CONTINUOUS
 62
     7
 10
94.122156895759204
 20
94.132124152375283
 30
0.0
  0
VERTEX
  5
779
  8
DATA
  6
CONTINUOUS
 62
     7
 10
94.121121692453627
 20
94.131097691839642
 30
0.0
  0
VERTEX
  5
77A
  8
DATA
  6
CONTINUOUS
 62
     7
 10
94.120082333391906
 20
94.130078531565687
 30
0.0
  0
VERTEX
  5
77B
  8
DATA
  6
CONTINUOUS
 62
     7
 10
94.119038818574012
 20
94.129066671553446
 30
0.0
  0
VERTEX
  5
77C
  8
DATA
  6
CONTINUOUS
 62
     7
 10
94.117991147999916
 20
94.128062111802876
 30
0.0
  0
VERTEX
  5
77D
  8
DATA
  6
CONTINUOUS
 62
     7
 10
94.11693932166969
 20
94.127064852313993
 30
0.0
  0
VERTEX
  5
77E
  8
DATA
  6
CONTINUOUS
 62
     7
 10
94.115883339583249
 20
94.126074893086795
 30
0.0
  0
VERTEX
  5
77F
  8
DATA
  6
CONTINUOUS
 62
     7
 10
94.114823201740691
 20
94.125092234121269
 30
0.0
  0
VERTEX
  5
780
  8
DATA
  6
CONTINUOUS
 62
     7
 10
94.113758908141904
 20
94.124116875417485
 30
0.0
  0
VERTEX
  5
781
  8
DATA
  6
CONTINUOUS
 62
     7
 10
94.112690458786943
 20
94.123148816975359
 30
0.0
  0
VERTEX
  5
782
  8
DATA
  6
CONTINUOUS
 62
     7
 10
94.111617853675838
 20
94.122188058794933
 30
0.0
  0
VERTEX
  5
783
  8
DATA
  6
CONTINUOUS
 62
     7
 10
94.110541092808575
 20
94.121234600876178
 30
0.0
  0
VERTEX
  5
784
  8
DATA
  6
CONTINUOUS
 62
     7
 10
94.109460176185124
 20
94.120288443219138
 30
0.0
  0
VERTEX
  5
785
  8
DATA
  6
CONTINUOUS
 62
     7
 10
94.108375103805486
 20
94.119349585823798
 30
0.0
  0
VERTEX
  5
786
  8
DATA
  6
CONTINUOUS
 62
     7
 10
94.107285875669689
 20
94.118418028690144
 30
0.0
  0
VERTEX
  5
787
  8
DATA
  6
CONTINUOUS
 62
     7
 10
94.106192491777719
 20
94.117493771818204
 30
0.0
  0
VERTEX
  5
788
  8
DATA
  6
CONTINUOUS
 62
     7
 10
94.105094952129534
 20
94.116576815207907
 30
0.0
  0
VERTEX
  5
789
  8
DATA
  6
CONTINUOUS
 62
     7
 10
94.103993256725232
 20
94.115667158859296
 30
0.0
  0
VERTEX
  5
78A
  8
DATA
  6
CONTINUOUS
 62
     7
 10
94.102887405564772
 20
94.114764802772413
 30
0.0
  0
VERTEX
  5
78B
  8
DATA
  6
CONTINUOUS
 62
     7
 10
94.101777398648053
 20
94.113869746947216
 30
0.0
  0
VERTEX
  5
78C
  8
DATA
  6
CONTINUOUS
 62
     7
 10
94.100663235975262
 20
94.112981991383705
 30
0.0
  0
VERTEX
  5
78D
  8
DATA
  6
CONTINUOUS
 62
     7
 10
94.099544917546226
 20
94.112101536081866
 30
0.0
  0
VERTEX
  5
78E
  8
DATA
  6
CONTINUOUS
 62
     7
 10
94.098422443361073
 20
94.111228381041755
 30
0.0
  0
VERTEX
  5
78F
  8
DATA
  6
CONTINUOUS
 62
     7
 10
94.09729581341972
 20
94.110362526263273
 30
0.0
  0
VERTEX
  5
790
  8
DATA
  6
CONTINUOUS
 62
     7
 10
94.096165027722208
 20
94.109503971746577
 30
0.0
  0
VERTEX
  5
791
  8
DATA
  6
CONTINUOUS
 62
     7
 10
94.095030086268466
 20
94.108652717491495
 30
0.0
  0
VERTEX
  5
792
  8
DATA
  6
CONTINUOUS
 62
     7
 10
94.093890989058622
 20
94.107808763498113
 30
0.0
  0
VERTEX
  5
793
  8
DATA
  6
CONTINUOUS
 62
     7
 10
94.092747736092562
 20
94.106972109766446
 30
0.0
  0
VERTEX
  5
794
  8
DATA
  6
CONTINUOUS
 62
     7
 10
94.091600327370358
 20
94.106142756296464
 30
0.0
  0
VERTEX
  5
795
  8
DATA
  6
CONTINUOUS
 62
     7
 10
94.090448762891995
 20
94.105320703088154
 30
0.0
  0
VERTEX
  5
796
  8
DATA
  6
CONTINUOUS
 62
     7
 10
94.089293042657417
 20
94.104505950141544
 30
0.0
  0
VERTEX
  5
797
  8
DATA
  6
CONTINUOUS
 62
     7
 10
94.08813316666668
 20
94.103698497456634
 30
0.0
  0
VERTEX
  5
798
  8
DATA
  6
CONTINUOUS
 62
     7
 10
94.086969134919784
 20
94.102898345033395
 30
0.0
  0
VERTEX
  5
799
  8
DATA
  6
CONTINUOUS
 62
     7
 10
94.085800947416715
 20
94.102105492871829
 30
0.0
  0
VERTEX
  5
79A
  8
DATA
  6
CONTINUOUS
 62
     7
 10
94.084628604157444
 20
94.101319940972019
 30
0.0
  0
VERTEX
  5
79B
  8
DATA
  6
CONTINUOUS
 62
     7
 10
94.083452105142044
 20
94.10054168933388
 30
0.0
  0
VERTEX
  5
79C
  8
DATA
  6
CONTINUOUS
 62
     7
 10
94.082271450370428
 20
94.0997707379574
 30
0.0
  0
VERTEX
  5
79D
  8
DATA
  6
CONTINUOUS
 62
     7
 10
94.081086639842624
 20
94.099007086842633
 30
0.0
  0
VERTEX
  5
79E
  8
DATA
  6
CONTINUOUS
 62
     7
 10
94.079897673558733
 20
94.098250735989566
 30
0.0
  0
VERTEX
  5
79F
  8
DATA
  6
CONTINUOUS
 62
     7
 10
94.078704551518598
 20
94.097501685398143
 30
0.0
  0
VERTEX
  5
7A0
  8
DATA
  6
CONTINUOUS
 62
     7
 10
94.077507273722347
 20
94.096759935068505
 30
0.0
  0
VERTEX
  5
7A1
  8
DATA
  6
CONTINUOUS
 62
     7
 10
94.076305840169866
 20
94.096025485000439
 30
0.0
  0
VERTEX
  5
7A2
  8
DATA
  6
CONTINUOUS
 62
     7
 10
94.075100250861226
 20
94.095298335194187
 30
0.0
  0
VERTEX
  5
7A3
  8
DATA
  6
CONTINUOUS
 62
     7
 10
94.073890505796413
 20
94.094578485649507
 30
0.0
  0
VERTEX
  5
7A4
  8
DATA
  6
CONTINUOUS
 62
     7
 10
94.072676604975427
 20
94.093865936366583
 30
0.0
  0
VERTEX
  5
7A5
  8
DATA
  6
CONTINUOUS
 62
     7
 10
94.071458548398283
 20
94.093160687345346
 30
0.0
  0
VERTEX
  5
7A6
  8
DATA
  6
CONTINUOUS
 62
     7
 10
94.070236336064994
 20
94.092462738585795
 30
0.0
  0
VERTEX
  5
7A7
  8
DATA
  6
CONTINUOUS
 62
     7
 10
94.069009967975504
 20
94.091772090087929
 30
0.0
  0
VERTEX
  5
7A8
  8
DATA
  6
CONTINUOUS
 62
     7
 10
94.067779444129812
 20
94.091088741851763
 30
0.0
  0
VERTEX
  5
7A9
  8
DATA
  6
CONTINUOUS
 62
     7
 10
94.066544764527947
 20
94.090412693877283
 30
0.0
  0
VERTEX
  5
7AA
  8
DATA
  6
CONTINUOUS
 62
     7
 10
94.065305929169966
 20
94.089743946164475
 30
0.0
  0
VERTEX
  5
7AB
  8
DATA
  6
CONTINUOUS
 62
     7
 10
94.064062938055784
 20
94.089082498713424
 30
0.0
  0
VERTEX
  5
7AC
  8
DATA
  6
CONTINUOUS
 62
     7
 10
94.062815791185443
 20
94.088428351523973
 30
0.0
  0
VERTEX
  5
7AD
  8
DATA
  6
CONTINUOUS
 62
     7
 10
94.061564488558901
 20
94.087781504596293
 30
0.0
  0
VERTEX
  5
7AE
  8
DATA
  6
CONTINUOUS
 62
     7
 10
94.060309030176214
 20
94.087141957930285
 30
0.0
  0
VERTEX
  5
7AF
  8
DATA
  6
CONTINUOUS
 62
     7
 10
94.060309030176214
 20
94.087141957930285
 30
0.0
  0
VERTEX
  5
7B0
  8
DATA
  6
CONTINUOUS
 62
     7
 10
94.059049907842891
 20
94.086509528467687
 30
0.0
  0
VERTEX
  5
7B1
  8
DATA
  6
CONTINUOUS
 62
     7
 10
94.057787613364525
 20
94.085884033150265
 30
0.0
  0
VERTEX
  5
7B2
  8
DATA
  6
CONTINUOUS
 62
     7
 10
94.056522146741088
 20
94.085265471978047
 30
0.0
  0
VERTEX
  5
7B3
  8
DATA
  6
CONTINUOUS
 62
     7
 10
94.055253507972623
 20
94.084653844950978
 30
0.0
  0
VERTEX
  5
7B4
  8
DATA
  6
CONTINUOUS
 62
     7
 10
94.053981697059072
 20
94.084049152069085
 30
0.0
  0
VERTEX
  5
7B5
  8
DATA
  6
CONTINUOUS
 62
     7
 10
94.052706714000493
 20
94.083451393332396
 30
0.0
  0
VERTEX
  5
7B6
  8
DATA
  6
CONTINUOUS
 62
     7
 10
94.051428558796886
 20
94.082860568740884
 30
0.0
  0
VERTEX
  5
7B7
  8
DATA
  6
CONTINUOUS
 62
     7
 10
94.050147231448193
 20
94.082276678294519
 30
0.0
  0
VERTEX
  5
7B8
  8
DATA
  6
CONTINUOUS
 62
     7
 10
94.048862731954443
 20
94.081699721993346
 30
0.0
  0
VERTEX
  5
7B9
  8
DATA
  6
CONTINUOUS
 62
     7
 10
94.047575060315637
 20
94.081129699837362
 30
0.0
  0
VERTEX
  5
7BA
  8
DATA
  6
CONTINUOUS
 62
     7
 10
94.046284216531774
 20
94.080566611826555
 30
0.0
  0
VERTEX
  5
7BB
  8
DATA
  6
CONTINUOUS
 62
     7
 10
94.044990200602868
 20
94.080010457960924
 30
0.0
  0
VERTEX
  5
7BC
  8
DATA
  6
CONTINUOUS
 62
     7
 10
94.043693012528905
 20
94.079461238240484
 30
0.0
  0
VERTEX
  5
7BD
  8
DATA
  6
CONTINUOUS
 62
     7
 10
94.042392652309871
 20
94.078918952665163
 30
0.0
  0
VERTEX
  5
7BE
  8
DATA
  6
CONTINUOUS
 62
     7
 10
94.041089119945809
 20
94.078383601235089
 30
0.0
  0
VERTEX
  5
7BF
  8
DATA
  6
CONTINUOUS
 62
     7
 10
94.03978241543669
 20
94.077855183950163
 30
0.0
  0
VERTEX
  5
7C0
  8
DATA
  6
CONTINUOUS
 62
     7
 10
94.038472538782514
 20
94.077333700810414
 30
0.0
  0
VERTEX
  5
7C1
  8
DATA
  6
CONTINUOUS
 62
     7
 10
94.037159489983267
 20
94.076819151815826
 30
0.0
  0
VERTEX
  5
7C2
  8
DATA
  6
CONTINUOUS
 62
     7
 10
94.035843269039006
 20
94.076311536966443
 30
0.0
  0
VERTEX
  5
7C3
  8
DATA
  6
CONTINUOUS
 62
     7
 10
94.034523875949645
 20
94.075810856262223
 30
0.0
  0
VERTEX
  5
7C4
  8
DATA
  6
CONTINUOUS
 62
     7
 10
94.03320131071527
 20
94.075317109703164
 30
0.0
  0
VERTEX
  5
7C5
  8
DATA
  6
CONTINUOUS
 62
     7
 10
94.031875573335824
 20
94.07483029728931
 30
0.0
  0
VERTEX
  5
7C6
  8
DATA
  6
CONTINUOUS
 62
     7
 10
94.030546663811322
 20
94.074350419020632
 30
0.0
  0
VERTEX
  5
7C7
  8
DATA
  6
CONTINUOUS
 62
     7
 10
94.029214582141762
 20
94.073877474897117
 30
0.0
  0
VERTEX
  5
7C8
  8
DATA
  6
CONTINUOUS
 62
     7
 10
94.027879328327145
 20
94.073411464918806
 30
0.0
  0
VERTEX
  5
7C9
  8
DATA
  6
CONTINUOUS
 62
     7
 10
94.026540902367486
 20
94.072952389085657
 30
0.0
  0
VERTEX
  5
7CA
  8
DATA
  6
CONTINUOUS
 62
     7
 10
94.025199304262784
 20
94.072500247397684
 30
0.0
  0
VERTEX
  5
7CB
  8
DATA
  6
CONTINUOUS
 62
     7
 10
94.023854534012983
 20
94.072055039854874
 30
0.0
  0
VERTEX
  5
7CC
  8
DATA
  6
CONTINUOUS
 62
     7
 10
94.022506591618196
 20
94.07161676645724
 30
0.0
  0
VERTEX
  5
7CD
  8
DATA
  6
CONTINUOUS
 62
     7
 10
94.02115547707831
 20
94.071185427204796
 30
0.0
  0
VERTEX
  5
7CE
  8
DATA
  6
CONTINUOUS
 62
     7
 10
94.019801190393366
 20
94.070761022097557
 30
0.0
  0
VERTEX
  5
7CF
  8
DATA
  6
CONTINUOUS
 62
     7
 10
94.018443731563409
 20
94.070343551135451
 30
0.0
  0
VERTEX
  5
7D0
  8
DATA
  6
CONTINUOUS
 62
     7
 10
94.017083100588366
 20
94.069933014318565
 30
0.0
  0
VERTEX
  5
7D1
  8
DATA
  6
CONTINUOUS
 62
     7
 10
94.015719297468266
 20
94.069529411646798
 30
0.0
  0
VERTEX
  5
7D2
  8
DATA
  6
CONTINUOUS
 62
     7
 10
94.014352322203123
 20
94.069132743120306
 30
0.0
  0
VERTEX
  5
7D3
  8
DATA
  6
CONTINUOUS
 62
     7
 10
94.012982174792924
 20
94.068743008738863
 30
0.0
  0
VERTEX
  5
7D4
  8
DATA
  6
CONTINUOUS
 62
     7
 10
94.011608855237625
 20
94.068360208502696
 30
0.0
  0
VERTEX
  5
7D5
  8
DATA
  6
CONTINUOUS
 62
     7
 10
94.010232363537355
 20
94.067984342411691
 30
0.0
  0
VERTEX
  5
7D6
  8
DATA
  6
CONTINUOUS
 62
     7
 10
94.008852699691985
 20
94.067615410465834
 30
0.0
  0
VERTEX
  5
7D7
  8
DATA
  6
CONTINUOUS
 62
     7
 10
94.007469863701559
 20
94.067253412665153
 30
0.0
  0
VERTEX
  5
7D8
  8
DATA
  6
CONTINUOUS
 62
     7
 10
94.006083855566104
 20
94.066898349009691
 30
0.0
  0
VERTEX
  5
7D9
  8
DATA
  6
CONTINUOUS
 62
     7
 10
94.004694675285563
 20
94.066550219499348
 30
0.0
  0
VERTEX
  5
7DA
  8
DATA
  6
CONTINUOUS
 62
     7
 10
94.003302322859994
 20
94.066209024134196
 30
0.0
  0
VERTEX
  5
7DB
  8
DATA
  6
CONTINUOUS
 62
     7
 10
94.001906798289355
 20
94.065874762914277
 30
0.0
  0
VERTEX
  5
7DC
  8
DATA
  6
CONTINUOUS
 62
     7
 10
94.000508101573701
 20
94.065547435839477
 30
0.0
  0
VERTEX
  5
7DD
  8
DATA
  6
CONTINUOUS
 62
     7
 10
93.999106232712919
 20
94.065227042909868
 30
0.0
  0
VERTEX
  5
7DE
  8
DATA
  6
CONTINUOUS
 62
     7
 10
93.997701191707137
 20
94.064913584125463
 30
0.0
  0
VERTEX
  5
7DF
  8
DATA
  6
CONTINUOUS
 62
     7
 10
93.996292978556284
 20
94.064607059486235
 30
0.0
  0
VERTEX
  5
7E0
  8
DATA
  6
CONTINUOUS
 62
     7
 10
93.994881593260374
 20
94.064307468992155
 30
0.0
  0
VERTEX
  5
7E1
  8
DATA
  6
CONTINUOUS
 62
     7
 10
93.993467035819435
 20
94.064014812643265
 30
0.0
  0
VERTEX
  5
7E2
  8
DATA
  6
CONTINUOUS
 62
     7
 10
93.992049306233426
 20
94.063729090439566
 30
0.0
  0
VERTEX
  5
7E3
  8
DATA
  6
CONTINUOUS
 62
     7
 10
93.99062840450236
 20
94.063450302380986
 30
0.0
  0
VERTEX
  5
7E4
  8
DATA
  6
CONTINUOUS
 62
     7
 10
93.989204330626237
 20
94.063178448467639
 30
0.0
  0
VERTEX
  5
7E5
  8
DATA
  6
CONTINUOUS
 62
     7
 10
93.987777084605085
 20
94.062913528699454
 30
0.0
  0
VERTEX
  5
7E6
  8
DATA
  6
CONTINUOUS
 62
     7
 10
93.986346666438834
 20
94.06265554307646
 30
0.0
  0
VERTEX
  5
7E7
  8
DATA
  6
CONTINUOUS
 62
     7
 10
93.984913076127555
 20
94.062404491598656
 30
0.0
  0
VERTEX
  5
7E8
  8
DATA
  6
CONTINUOUS
 62
     7
 10
93.983476313671233
 20
94.062160374266014
 30
0.0
  0
VERTEX
  5
7E9
  8
DATA
  6
CONTINUOUS
 62
     7
 10
93.982036379069854
 20
94.061923191078506
 30
0.0
  0
VERTEX
  5
7EA
  8
DATA
  6
CONTINUOUS
 62
     7
 10
93.980593272323404
 20
94.061692942036231
 30
0.0
  0
VERTEX
  5
7EB
  8
DATA
  6
CONTINUOUS
 62
     7
 10
93.979146993431925
 20
94.061469627139104
 30
0.0
  0
VERTEX
  5
7EC
  8
DATA
  6
CONTINUOUS
 62
     7
 10
93.977697542395362
 20
94.061253246387153
 30
0.0
  0
VERTEX
  5
7ED
  8
DATA
  6
CONTINUOUS
 62
     7
 10
93.976244919213755
 20
94.061043799780407
 30
0.0
  0
VERTEX
  5
7EE
  8
DATA
  6
CONTINUOUS
 62
     7
 10
93.974789123887078
 20
94.060841287318809
 30
0.0
  0
VERTEX
  5
7EF
  8
DATA
  6
CONTINUOUS
 62
     7
 10
93.973330156415372
 20
94.060645709002387
 30
0.0
  0
VERTEX
  5
7F0
  8
DATA
  6
CONTINUOUS
 62
     7
 10
93.973330156415372
 20
94.060645709002387
 30
0.0
  0
SEQEND
  5
7F1
  8
DATA
  6
CONTINUOUS
 62
     7
  0
LINE
  5
24E
  8
DATA
  6
CONTINUOUS
 62
     7
 10
94.197395515996149
 20
94.312647059679904
 30
0.0
 11
94.197395515996149
 21
94.309507279700796
 31
0.0
  0
LINE
  5
24F
  8
DATA
  6
CONTINUOUS
 62
     7
 10
78.0
 20
102.4955188774974
 30
0.0
 11
78.969701362069941
 21
102.4955188774974
 31
0.0
  0
LINE
  5
250
  8
DATA
  6
CONTINUOUS
 62
     7
 10
78.969701362069941
 20
95.500955229933751
 30
0.0
 11
78.0
 21
95.500955229933751
 31
0.0
  0
LINE
  5
251
  8
DATA
  6
CONTINUOUS
 62
     7
 10
82.395898122943777
 20
92.588360957478073
 30
0.0
 11
82.395898122943777
 21
104.1296147303927
 31
0.0
  0
LINE
  5
252
  8
DATA
  6
CONTINUOUS
 62
     7
 10
79.869538429580416
 20
104.2834889343622
 30
0.0
 11
82.395898122943777
 21
104.1296147303927
 31
0.0
  0
LINE
  5
253
  8
DATA
  6
CONTINUOUS
 62
     7
 10
78.969701362069941
 20
104.3385669492062
 30
0.0
 11
79.869538429580416
 21
104.2834889343622
 31
0.0
  0
LINE
  5
254
  8
DATA
  6
CONTINUOUS
 62
     7
 10
78.969701362069941
 20
92.348771592907426
 30
0.0
 11
78.969701362069941
 21
104.3385669492062
 31
0.0
  0
LINE
  5
255
  8
DATA
  6
CONTINUOUS
 62
     7
 10
84.018289897684781
 20
103.7578381301973
 30
0.0
 11
93.970198704766275
 21
102.8428546086059
 31
0.0
  0
LINE
  5
256
  8
DATA
  6
CONTINUOUS
 62
     7
 10
82.395898122943777
 20
103.90689300786811
 30
0.0
 11
84.018289897684781
 21
103.7578381301973
 31
0.0
  0
LINE
  5
257
  8
DATA
  6
CONTINUOUS
 62
     7
 10
93.943692410121685
 20
99.632839055993514
 30
0.0
 11
82.395898122943777
 21
99.632839055993514
 31
0.0
  0
LINE
  5
258
  8
DATA
  6
CONTINUOUS
 62
     7
 10
93.970198704766275
 20
99.634216006364596
 30
0.0
 11
93.943692410121685
 21
99.632839055993514
 31
0.0
  0
LINE
  5
259
  8
DATA
  6
CONTINUOUS
 62
     7
 10
93.943692410121685
 20
98.363979289030482
 30
0.0
 11
93.970198704766275
 21
98.362602338659414
 31
0.0
  0
LINE
  5
25A
  8
DATA
  6
CONTINUOUS
 62
     7
 10
93.943692410121685
 20
98.363979289030482
 30
0.0
 11
82.395898122943777
 21
98.363979289030482
 31
0.0
  0
LINE
  5
25B
  8
DATA
  6
CONTINUOUS
 62
     7
 10
85.348768193755518
 20
94.284075339479784
 30
0.0
 11
82.395898122943777
 21
94.013848829152778
 31
0.0
  0
LINE
  5
25C
  8
DATA
  6
CONTINUOUS
 62
     7
 10
93.943692410121685
 20
95.072035189338067
 30
0.0
 11
85.348768193755518
 21
94.284075339479784
 31
0.0
  0
LINE
  5
25D
  8
DATA
  6
CONTINUOUS
 62
     7
 10
93.970198704766275
 20
95.075477565266127
 30
0.0
 11
93.943692410121685
 21
95.072035189338067
 31
0.0
  0
LINE
  5
25E
  8
DATA
  6
CONTINUOUS
 62
     7
 10
93.996360761816604
 20
102.8394122326778
 30
0.0
 11
93.970198704766275
 21
102.8428546086059
 31
0.0
  0
LINE
  5
25F
  8
DATA
  6
CONTINUOUS
 62
     7
 10
94.075879645747591
 20
102.81187322525609
 30
0.0
 11
93.996360761816604
 21
102.8394122326778
 31
0.0
  0
LINE
  5
260
  8
DATA
  6
CONTINUOUS
 62
     7
 10
94.140596313187984
 20
102.76195877430391
 30
0.0
 11
94.075879645747591
 21
102.81187322525609
 31
0.0
  0
LINE
  5
261
  8
DATA
  6
CONTINUOUS
 62
     7
 10
94.182937537099875
 20
102.69586515649139
 30
0.0
 11
94.140596313187984
 21
102.76195877430391
 31
0.0
  0
LINE
  5
262
  8
DATA
  6
CONTINUOUS
 62
     7
 10
94.197395515996149
 20
102.6215098364524
 30
0.0
 11
94.182937537099875
 21
102.69586515649139
 31
0.0
  0
LINE
  5
263
  8
DATA
  6
CONTINUOUS
 62
     7
 10
94.197395515996149
 20
99.886542161867638
 30
0.0
 11
94.197395515996149
 21
102.6215098364524
 31
0.0
  0
LINE
  5
264
  8
DATA
  6
CONTINUOUS
 62
     7
 10
94.036292322577765
 20
95.099229959167516
 30
0.0
 11
93.970198704766275
 21
95.075477565266127
 31
0.0
  0
LINE
  5
265
  8
DATA
  6
CONTINUOUS
 62
     7
 10
94.09033762464378
 20
95.142603895856652
 30
0.0
 11
94.036292322577765
 21
95.099229959167516
 31
0.0
  0
LINE
  5
266
  8
DATA
  6
CONTINUOUS
 62
     7
 10
94.151611916156526
 20
95.235203808312747
 30
0.0
 11
94.09033762464378
 21
95.142603895856652
 31
0.0
  0
LINE
  5
267
  8
DATA
  6
CONTINUOUS
 62
     7
 10
94.193953140068515
 20
95.393897338581425
 30
0.0
 11
94.151611916156526
 21
95.235203808312747
 31
0.0
  0
LINE
  5
268
  8
DATA
  6
CONTINUOUS
 62
     7
 10
94.197395515996149
 20
95.454827392502466
 30
0.0
 11
94.193953140068515
 21
95.393897338581425
 31
0.0
  0
LINE
  5
269
  8
DATA
  6
CONTINUOUS
 62
     7
 10
94.197395515996149
 20
95.458269768430156
 30
0.0
 11
94.197395515996149
 21
95.454827392502466
 31
0.0
  0
LINE
  5
26A
  8
DATA
  6
CONTINUOUS
 62
     7
 10
94.197395515996149
 20
95.458269768430156
 30
0.0
 11
94.197395515996149
 21
98.109931945563943
 31
0.0
  0
LINE
  5
26B
  8
DATA
  6
CONTINUOUS
 62
     7
 10
94.197395515996149
 20
98.109931945563943
 30
0.0
 11
94.197395515996149
 21
99.886542161867638
 31
0.0
  0
LINE
  5
26C
  8
DATA
  6
CONTINUOUS
 62
     7
 10
82.395898122943777
 20
93.618664072648755
 30
0.0
 11
93.943692410121685
 21
94.702668252292426
 31
0.0
  0
LINE
  5
26D
  8
DATA
  6
CONTINUOUS
 62
     7
 10
93.952986825126345
 20
94.703700965070723
 30
0.0
 11
93.943692410121685
 21
94.702668252292426
 31
0.0
  0
LINE
  5
26E
  8
DATA
  6
CONTINUOUS
 62
     7
 10
93.961937002538434
 20
94.704045202663465
 30
0.0
 11
93.952986825126345
 21
94.703700965070723
 31
0.0
  0
LINE
  5
26F
  8
DATA
  6
CONTINUOUS
 62
     7
 10
93.971231417543081
 20
94.704733677849006
 30
0.0
 11
93.961937002538434
 21
94.704045202663465
 31
0.0
  0
LINE
  5
270
  8
DATA
  6
CONTINUOUS
 62
     7
 10
94.016670779790033
 20
94.707831816183926
 30
0.0
 11
93.971231417543081
 21
94.704733677849006
 31
0.0
  0
LINE
  5
271
  8
DATA
  6
CONTINUOUS
 62
     7
 10
94.059356241293244
 20
94.714372330446508
 30
0.0
 11
94.016670779790033
 21
94.707831816183926
 31
0.0
  0
LINE
  5
272
  8
DATA
  6
CONTINUOUS
 62
     7
 10
94.098599326870286
 20
94.723322507858853
 30
0.0
 11
94.059356241293244
 21
94.714372330446508
 31
0.0
  0
LINE
  5
273
  8
DATA
  6
CONTINUOUS
 62
     7
 10
94.132678848554292
 20
94.735026586012992
 30
0.0
 11
94.098599326870286
 21
94.723322507858853
 31
0.0
  0
LINE
  5
274
  8
DATA
  6
CONTINUOUS
 62
     7
 10
94.160217855977194
 20
94.748451852131296
 30
0.0
 11
94.132678848554292
 21
94.735026586012992
 31
0.0
  0
LINE
  5
275
  8
DATA
  6
CONTINUOUS
 62
     7
 10
94.180872111543266
 20
94.763598306213126
 30
0.0
 11
94.160217855977194
 21
94.748451852131296
 31
0.0
  0
LINE
  5
276
  8
DATA
  6
CONTINUOUS
 62
     7
 10
94.193264664882932
 20
94.780121710666364
 30
0.0
 11
94.180872111543266
 21
94.763598306213126
 31
0.0
  0
LINE
  5
277
  8
DATA
  6
CONTINUOUS
 62
     7
 10
94.197395515996149
 20
94.796989352712302
 30
0.0
 11
94.193264664882932
 21
94.780121710666364
 31
0.0
  0
LINE
  5
278
  8
DATA
  6
CONTINUOUS
 62
     7
 10
94.197395515996149
 20
94.796989352712302
 30
0.0
 11
94.197395515996149
 21
95.685122342067586
 31
0.0
  0
LINE
  5
279
  8
DATA
  6
CONTINUOUS
 62
     7
 10
85.348768193755518
 20
93.649645455998282
 30
0.0
 11
82.395898122943777
 21
93.379418945671276
 31
0.0
  0
LINE
  5
27A
  8
DATA
  6
CONTINUOUS
 62
     7
 10
93.943692410121685
 20
94.437605305856948
 30
0.0
 11
85.348768193755518
 21
93.649645455998282
 31
0.0
  0
LINE
  5
27B
  8
DATA
  6
CONTINUOUS
 62
     7
 10
93.943692410121685
 20
94.437605305856948
 30
0.0
 11
93.970198704766275
 21
94.439326493820744
 31
0.0
  0
LINE
  5
27C
  8
DATA
  6
CONTINUOUS
 62
     7
 10
94.036292322577765
 20
94.447243958454436
 30
0.0
 11
93.970198704766275
 21
94.439326493820744
 31
0.0
  0
LINE
  5
27D
  8
DATA
  6
CONTINUOUS
 62
     7
 10
94.09033762464378
 20
94.46170193735108
 30
0.0
 11
94.036292322577765
 21
94.447243958454436
 31
0.0
  0
LINE
  5
27E
  8
DATA
  6
CONTINUOUS
 62
     7
 10
94.151611916156526
 20
94.492683320700564
 30
0.0
 11
94.09033762464378
 21
94.46170193735108
 31
0.0
  0
LINE
  5
27F
  8
DATA
  6
CONTINUOUS
 62
     7
 10
94.193953140068515
 20
94.547072860358654
 30
0.0
 11
94.151611916156526
 21
94.492683320700564
 31
0.0
  0
LINE
  5
280
  8
DATA
  6
CONTINUOUS
 62
     7
 10
94.197395515996149
 20
94.568759828703406
 30
0.0
 11
94.193953140068515
 21
94.547072860358654
 31
0.0
  0
LINE
  5
281
  8
DATA
  6
CONTINUOUS
 62
     7
 10
94.197395515996149
 20
94.569792541481704
 30
0.0
 11
94.197395515996149
 21
94.568759828703406
 31
0.0
  0
LINE
  5
282
  8
DATA
  6
CONTINUOUS
 62
     7
 10
94.197395515996149
 20
94.569792541481704
 30
0.0
 11
94.197395515996149
 21
94.796989352712302
 31
0.0
  0
LINE
  5
283
  8
DATA
  6
CONTINUOUS
 62
     7
 10
94.197395515996149
 20
94.312647059679904
 30
0.0
 11
94.197395515996149
 21
94.569792541481704
 31
0.0
  0
LINE
  5
284
  8
DATA
  6
CONTINUOUS
 62
     7
 10
94.197395515996149
 20
95.458269768430156
 30
0.0
 11
94.197395515996149
 21
95.685122342067586
 31
0.0
  0
LINE
  5
285
  8
DATA
  6
CONTINUOUS
 62
     7
 10
93.970198704766275
 20
102.8428546086059
 30
0.0
 11
93.970198704766275
 21
99.634216006364596
 31
0.0
  0
LINE
  5
286
  8
DATA
  6
CONTINUOUS
 62
     7
 10
93.970198704766275
 20
98.362602338659414
 30
0.0
 11
93.970198704766275
 21
95.075477565266127
 31
0.0
  0
LINE
  5
287
  8
DATA
  6
CONTINUOUS
 62
     7
 10
93.971231417543081
 20
99.634216006364596
 30
0.0
 11
93.971231417543081
 21
98.362258101066644
 31
0.0
  0
LINE
  5
288
  8
DATA
  6
CONTINUOUS
 62
     7
 10
93.971231417543081
 20
95.075477565266127
 30
0.0
 11
93.971231417543081
 21
94.704733677849006
 31
0.0
  0
LINE
  5
289
  8
DATA
  6
CONTINUOUS
 62
     7
 10
93.943692410121685
 20
94.702668252292426
 30
0.0
 11
93.943692410121685
 21
94.437605305856948
 31
0.0
  0
LINE
  5
28A
  8
DATA
  6
CONTINUOUS
 62
     7
 10
93.970198704766275
 20
94.439326493820744
 30
0.0
 11
93.970198704766275
 21
94.060320904177203
 31
0.0
  0
POLYLINE
  5
28B
  8
DATA
  6
CONTINUOUS
 62
     7
 66
     1
 10
0.0
 20
0.0
 30
0.0
  0
VERTEX
  5
7F2
  8
DATA
  6
CONTINUOUS
 62
     7
 10
65.964693832407292
 20
101.7609605711727
 30
0.0
  0
VERTEX
  5
7F3
  8
DATA
  6
CONTINUOUS
 62
     7
 10
65.964693832407292
 20
89.498237053715627
 30
0.0
  0
VERTEX
  5
7F4
  8
DATA
  6
CONTINUOUS
 62
     7
 10
58.964693832407292
 20
89.498237053715627
 30
0.0
  0
VERTEX
  5
7F5
  8
DATA
  6
CONTINUOUS
 62
     7
 10
58.964693832407292
 20
108.4982370537154
 30
0.0
  0
VERTEX
  5
7F6
  8
DATA
  6
CONTINUOUS
 62
     7
 10
65.964693832407292
 20
108.4982370537154
 30
0.0
  0
VERTEX
  5
7F7
  8
DATA
  6
CONTINUOUS
 62
     7
 10
65.964693832407292
 20
107.1413941462215
 30
0.0
  0
SEQEND
  5
7F8
  8
DATA
  6
CONTINUOUS
 62
     7
  0
LINE
  5
294
  8
DATA
  6
CONTINUOUS
 62
     7
 10
75.0
 20
94.64823705371559
 30
0.0
 11
65.964693832407292
 21
94.64823705371559
 31
0.0
  0
LINE
  5
295
  8
DATA
  6
CONTINUOUS
 62
     7
 10
71.030000000000101
 20
45.011766679057928
 30
0.0
 11
68.420000000000073
 21
45.011766679057928
 31
0.0
  0
LINE
  5
296
  8
DATA
  6
CONTINUOUS
 62
     7
 10
71.030000000000101
 20
41.011766679057928
 30
0.0
 11
68.420000000000073
 21
41.011766679057928
 31
0.0
  0
LINE
  5
297
  8
DATA
  6
CONTINUOUS
 62
     7
 10
71.030000000000101
 20
41.011766679057928
 30
0.0
 11
71.030000000000101
 21
45.011766679057928
 31
0.0
  0
LINE
  5
298
  8
DATA
  6
CONTINUOUS
 62
     7
 10
71.030000000000101
 20
38.761766679057942
 30
0.0
 11
71.030000000000101
 21
47.261766679057992
 31
0.0
  0
LINE
  5
299
  8
DATA
  6
CONTINUOUS
 62
     7
 10
71.030000000000101
 20
47.261766679057992
 30
0.0
 11
75.0
 21
47.261766679057992
 31
0.0
  0
LINE
  5
29A
  8
DATA
  6
CONTINUOUS
 62
     7
 10
71.030000000000101
 20
38.761766679057942
 30
0.0
 11
75.0
 21
38.761766679057942
 31
0.0
  0
LINE
  5
29B
  8
DATA
  6
CONTINUOUS
 62
     7
 10
75.0
 20
43.011766679057928
 30
0.0
 11
71.030000000000101
 21
43.011766679057928
 31
0.0
  0
LINE
  5
29C
  8
DATA
  6
CONTINUOUS
 62
     7
 10
68.420000000000073
 20
45.011766679057928
 30
0.0
 11
68.420000000000073
 21
41.011766679057928
 31
0.0
  0
LINE
  5
29D
  8
DATA
  6
CONTINUOUS
 62
     7
 10
117.0
 20
132.25
 30
0.0
 11
183.0
 21
132.25
 31
0.0
  0
LINE
  5
29E
  8
DATA
  6
CONTINUOUS
 62
     7
 10
117.0
 20
17.75
 30
0.0
 11
183.0
 21
17.75
 31
0.0
  0
LINE
  5
29F
  8
DATA
  6
CONTINUOUS
 62
     7
 10
115.0
 20
19.75
 30
0.0
 11
115.0
 21
130.25
 31
0.0
  0
LINE
  5
2A0
  8
DATA
  6
CONTINUOUS
 62
     7
 10
185.0
 20
19.75
 30
0.0
 11
185.0
 21
130.25
 31
0.0
  0
CIRCLE
  5
2A1
  8
DATA
  6
CONTINUOUS
 62
     7
 10
150.0
 20
116.75
 30
0.0
 40
1.990000000000008
  0
CIRCLE
  5
2A2
  8
DATA
  6
CONTINUOUS
 62
     7
 10
150.0
 20
33.25
 30
0.0
 40
1.990000000000008
  0
CIRCLE
  5
2A3
  8
DATA
  6
CONTINUOUS
 62
     7
 10
166.51378785643831
 20
104.43619405604819
 30
0.0
 40
3.3503691950977039
  0
POLYLINE
  5
2A4
  8
DATA
  6
CONTINUOUS
 62
     7
 66
     1
 10
0.0
 20
0.0
 30
0.0
  0
VERTEX
  5
7F9
  8
DATA
  6
CONTINUOUS
 62
     7
 10
167.01378785643831
 20
104.93619405604829
 30
0.0
  0
VERTEX
  5
7FA
  8
DATA
  6
CONTINUOUS
 62
     7
 10
167.01378785643831
 20
106.93619405604829
 30
0.0
  0
VERTEX
  5
7FB
  8
DATA
  6
CONTINUOUS
 62
     7
 10
166.0137878564382
 20
106.93619405604829
 30
0.0
  0
VERTEX
  5
7FC
  8
DATA
  6
CONTINUOUS
 62
     7
 10
166.0137878564382
 20
104.93619405604829
 30
0.0
  0
SEQEND
  5
7FD
  8
DATA
  6
CONTINUOUS
 62
     7
  0
POLYLINE
  5
2AB
  8
DATA
  6
CONTINUOUS
 62
     7
 66
     1
 10
0.0
 20
0.0
 30
0.0
  0
VERTEX
  5
7FE
  8
DATA
  6
CONTINUOUS
 62
     7
 10
167.01378785643831
 20
103.93619405604829
 30
0.0
  0
VERTEX
  5
7FF
  8
DATA
  6
CONTINUOUS
 62
     7
 10
167.01378785643831
 20
101.93619405604829
 30
0.0
  0
VERTEX
  5
800
  8
DATA
  6
CONTINUOUS
 62
     7
 10
166.0137878564382
 20
101.93619405604829
 30
0.0
  0
VERTEX
  5
801
  8
DATA
  6
CONTINUOUS
 62
     7
 10
166.0137878564382
 20
103.93619405604829
 30
0.0
  0
SEQEND
  5
802
  8
DATA
  6
CONTINUOUS
 62
     7
  0
POLYLINE
  5
2B2
  8
DATA
  6
CONTINUOUS
 62
     7
 66
     1
 10
0.0
 20
0.0
 30
0.0
  0
VERTEX
  5
803
  8
DATA
  6
CONTINUOUS
 62
     7
 10
166.0137878564382
 20
103.93619405604829
 30
0.0
  0
VERTEX
  5
804
  8
DATA
  6
CONTINUOUS
 62
     7
 10
164.01378785643831
 20
103.93619405604829
 30
0.0
  0
VERTEX
  5
805
  8
DATA
  6
CONTINUOUS
 62
     7
 10
164.01378785643831
 20
104.93619405604829
 30
0.0
  0
VERTEX
  5
806
  8
DATA
  6
CONTINUOUS
 62
     7
 10
166.0137878564382
 20
104.93619405604829
 30
0.0
  0
SEQEND
  5
807
  8
DATA
  6
CONTINUOUS
 62
     7
  0
POLYLINE
  5
2B9
  8
DATA
  6
CONTINUOUS
 62
     7
 66
     1
 10
0.0
 20
0.0
 30
0.0
  0
VERTEX
  5
808
  8
DATA
  6
CONTINUOUS
 62
     7
 10
167.01378785643831
 20
103.93619405604829
 30
0.0
  0
VERTEX
  5
809
  8
DATA
  6
CONTINUOUS
 62
     7
 10
169.01378785643831
 20
103.93619405604829
 30
0.0
  0
VERTEX
  5
80A
  8
DATA
  6
CONTINUOUS
 62
     7
 10
169.01378785643831
 20
104.93619405604829
 30
0.0
  0
VERTEX
  5
80B
  8
DATA
  6
CONTINUOUS
 62
     7
 10
167.01378785643831
 20
104.93619405604829
 30
0.0
  0
SEQEND
  5
80C
  8
DATA
  6
CONTINUOUS
 62
     7
  0
LINE
  5
2C0
  8
DATA
  6
CONTINUOUS
 62
     7
 10
237.27576956594029
 20
107.1413941462215
 30
0.0
 11
238.88848970061511
 21
107.1413941462215
 31
0.0
  0
LINE
  5
2C1
  8
DATA
  6
CONTINUOUS
 62
     7
 10
241.03530616759281
 20
109.9084965451847
 30
0.0
 11
241.03530616759281
 21
40.113636135184322
 31
0.0
  0
LINE
  5
2C2
  8
DATA
  6
CONTINUOUS
 62
     7
 10
242.6088162041608
 20
109.9084965451847
 30
0.0
 11
242.6088162041608
 21
40.113636135184322
 31
0.0
  0
LINE
  5
2C3
  8
DATA
  6
CONTINUOUS
 62
     7
 10
237.27576956594029
 20
107.1413941462215
 30
0.0
 11
241.03530616759281
 21
107.1413941462215
 31
0.0
  0
LINE
  5
2C4
  8
DATA
  6
CONTINUOUS
 62
     7
 10
236.8727851957764
 20
101.7609605711727
 30
0.0
 11
241.03530616759281
 21
101.7609605711727
 31
0.0
  0
POLYLINE
  5
2C5
  8
DATA
  6
CONTINUOUS
 62
     7
 66
     1
 10
0.0
 20
0.0
 30
0.0
 70
     1
  0
VERTEX
  5
80D
  8
DATA
  6
CONTINUOUS
 62
     7
 10
242.6088162041608
 20
107.8011773586971
 30
0.0
  0
VERTEX
  5
80E
  8
DATA
  6
CONTINUOUS
 62
     7
 10
245.00000000000011
 20
107.8011773586971
 30
0.0
  0
VERTEX
  5
80F
  8
DATA
  6
CONTINUOUS
 62
     7
 10
245.00000000000011
 20
101.1011773586971
 30
0.0
  0
VERTEX
  5
810
  8
DATA
  6
CONTINUOUS
 62
     7
 10
242.6088162041608
 20
101.1011773586971
 30
0.0
  0
SEQEND
  5
811
  8
DATA
  6
CONTINUOUS
 62
     7
  0
POLYLINE
  5
2CC
  8
DATA
  6
CONTINUOUS
 62
     7
 66
     1
 10
0.0
 20
0.0
 30
0.0
 70
   128
  0
VERTEX
  5
812
  8
DATA
  6
CONTINUOUS
 62
     7
 10
243.6088162041608
 20
48.819655848378602
 30
0.0
  0
VERTEX
  5
813
  8
DATA
  6
CONTINUOUS
 62
     7
 10
245.00000000000011
 20
48.819655848378602
 30
0.0
  0
VERTEX
  5
814
  8
DATA
  6
CONTINUOUS
 62
     7
 10
245.00000000000011
 20
42.119655848378613
 30
0.0
  0
VERTEX
  5
815
  8
DATA
  6
CONTINUOUS
 62
     7
 10
243.6088162041608
 20
42.119655848378613
 30
0.0
  0
SEQEND
  5
816
  8
DATA
  6
CONTINUOUS
 62
     7
  0
LINE
  5
2D2
  8
DATA
  6
CONTINUOUS
 62
     7
 10
245.00000000000011
 20
107.8011773586971
 30
0.0
 11
245.00000000000011
 21
101.1011773586971
 31
0.0
  0
LINE
  5
2D3
  8
DATA
  6
CONTINUOUS
 62
     7
 10
243.6088162041608
 20
48.819655848378602
 30
0.0
 11
242.6088162041608
 21
48.819655848378602
 31
0.0
  0
LINE
  5
2D4
  8
DATA
  6
CONTINUOUS
 62
     7
 10
243.6088162041608
 20
42.119655848378613
 30
0.0
 11
242.6088162041608
 21
42.119655848378613
 31
0.0
  0
LINE
  5
2D5
  8
DATA
  6
CONTINUOUS
 62
     7
 10
231.5426103092729
 20
48.160044754699364
 30
0.0
 11
241.03530616759281
 21
48.160044754699364
 31
0.0
  0
LINE
  5
2D6
  8
DATA
  6
CONTINUOUS
 62
     7
 10
231.5800000000001
 20
42.779266942057831
 30
0.0
 11
241.03530616759281
 21
42.779266942057831
 31
0.0
  0
LINE
  5
2D7
  8
DATA
  6
CONTINUOUS
 62
     7
 10
222.0
 20
17.75
 30
0.0
 11
222.0
 21
132.25
 31
0.0
  0
LINE
  5
2D8
  8
DATA
  6
CONTINUOUS
 62
     7
 10
225.0
 20
17.75
 30
0.0
 11
225.0
 21
132.25
 31
0.0
  0
LINE
  5
2D9
  8
DATA
  6
CONTINUOUS
 62
     7
 10
222.0
 20
132.25
 30
0.0
 11
225.0
 21
132.25
 31
0.0
  0
LINE
  5
2DA
  8
DATA
  6
CONTINUOUS
 62
     7
 10
222.0
 20
17.75
 30
0.0
 11
225.0
 21
17.75
 31
0.0
  0
LINE
  5
2DB
  8
DATA
  6
CONTINUOUS
 62
     7
 10
242.6088162041608
 20
109.9084965451847
 30
0.0
 11
242.6088162041608
 21
110.0
 31
0.0
  0
LINE
  5
2DC
  8
DATA
  6
CONTINUOUS
 62
     7
 10
241.03530616759281
 20
109.9084965451847
 30
0.0
 11
241.03530616759281
 21
110.0
 31
0.0
  0
LINE
  5
2DD
  8
DATA
  6
CONTINUOUS
 62
     7
 10
241.03530616759281
 20
110.0
 30
0.0
 11
242.60617010199871
 21
110.0
 31
0.0
  0
LINE
  5
2DE
  8
DATA
  6
CONTINUOUS
 62
     7
 10
242.6088162041608
 20
40.113636135184322
 30
0.0
 11
242.6088162041608
 21
40.0
 31
0.0
  0
LINE
  5
2DF
  8
DATA
  6
CONTINUOUS
 62
     7
 10
241.03530616759281
 20
40.113636135184322
 30
0.0
 11
241.03530616759281
 21
40.0
 31
0.0
  0
LINE
  5
2E0
  8
DATA
  6
CONTINUOUS
 62
     7
 10
241.03530616759281
 20
40.0
 30
0.0
 11
242.6088162041608
 21
40.0
 31
0.0
  0
LINE
  5
2E1
  8
DATA
  6
CONTINUOUS
 62
     7
 10
237.27576956594029
 20
107.1413941462215
 30
0.0
 11
225.0
 21
107.1413941462215
 31
0.0
  0
LINE
  5
2E2
  8
DATA
  6
CONTINUOUS
 62
     7
 10
236.8727851957764
 20
101.7609605711727
 30
0.0
 11
225.0
 21
101.7609605711727
 31
0.0
  0
LINE
  5
2E3
  8
DATA
  6
CONTINUOUS
 62
     7
 10
217.60410187705619
 20
92.592540750528315
 30
0.0
 11
221.03029863793009
 21
92.352951385957681
 31
0.0
  0
LINE
  5
2E4
  8
DATA
  6
CONTINUOUS
 62
     7
 10
206.0298012952334
 20
94.064500697227459
 30
0.0
 11
217.60410187705619
 21
92.847965044365907
 31
0.0
  0
LINE
  5
2E5
  8
DATA
  6
CONTINUOUS
 62
     7
 10
206.0266698435843
 20
94.064825502052628
 30
0.0
 11
206.0298012952334
 21
94.064500697227459
 31
0.0
  0
POLYLINE
  5
2E6
  8
DATA
  6
CONTINUOUS
 62
     7
 66
     1
 10
0.0
 20
0.0
 30
0.0
 70
   128
  0
VERTEX
  5
817
  8
DATA
  6
CONTINUOUS
 62
     7
 10
205.8026044840035
 20
94.313687072751009
 30
0.0
  0
VERTEX
  5
818
  8
DATA
  6
CONTINUOUS
 62
     7
 10
205.80265049395351
 20
94.312216492240225
 30
0.0
  0
VERTEX
  5
819
  8
DATA
  6
CONTINUOUS
 62
     7
 10
205.8027036600366
 20
94.31074832238815
 30
0.0
  0
VERTEX
  5
81A
  8
DATA
  6
CONTINUOUS
 62
     7
 10
205.80276398225291
 20
94.309282563194785
 30
0.0
  0
VERTEX
  5
81B
  8
DATA
  6
CONTINUOUS
 62
     7
 10
205.80283146060219
 20
94.307819214660185
 30
0.0
  0
VERTEX
  5
81C
  8
DATA
  6
CONTINUOUS
 62
     7
 10
205.80290609508469
 20
94.306358276784309
 30
0.0
  0
VERTEX
  5
81D
  8
DATA
  6
CONTINUOUS
 62
     7
 10
205.8029878857003
 20
94.30489974956717
 30
0.0
  0
VERTEX
  5
81E
  8
DATA
  6
CONTINUOUS
 62
     7
 10
205.80307683244899
 20
94.303443633008726
 30
0.0
  0
VERTEX
  5
81F
  8
DATA
  6
CONTINUOUS
 62
     7
 10
205.80317293533079
 20
94.301989927109076
 30
0.0
  0
VERTEX
  5
820
  8
DATA
  6
CONTINUOUS
 62
     7
 10
205.8032761943457
 20
94.300538631868093
 30
0.0
  0
VERTEX
  5
821
  8
DATA
  6
CONTINUOUS
 62
     7
 10
205.8033866094938
 20
94.299089747285805
 30
0.0
  0
VERTEX
  5
822
  8
DATA
  6
CONTINUOUS
 62
     7
 10
205.80350418077501
 20
94.297643273362311
 30
0.0
  0
VERTEX
  5
823
  8
DATA
  6
CONTINUOUS
 62
     7
 10
205.8036289081893
 20
94.296199210097527
 30
0.0
  0
VERTEX
  5
824
  8
DATA
  6
CONTINUOUS
 62
     7
 10
205.80376079173681
 20
94.294757557491451
 30
0.0
  0
VERTEX
  5
825
  8
DATA
  6
CONTINUOUS
 62
     7
 10
205.80389983141731
 20
94.293318315544127
 30
0.0
  0
VERTEX
  5
826
  8
DATA
  6
CONTINUOUS
 62
     7
 10
205.80404602723101
 20
94.291881484255526
 30
0.0
  0
VERTEX
  5
827
  8
DATA
  6
CONTINUOUS
 62
     7
 10
205.8041993791777
 20
94.290447063625635
 30
0.0
  0
VERTEX
  5
828
  8
DATA
  6
CONTINUOUS
 62
     7
 10
205.80435988725759
 20
94.289015053654481
 30
0.0
  0
VERTEX
  5
829
  8
DATA
  6
CONTINUOUS
 62
     7
 10
205.8045275514707
 20
94.287585454342064
 30
0.0
  0
VERTEX
  5
82A
  8
DATA
  6
CONTINUOUS
 62
     7
 10
205.8047023718168
 20
94.286158265688357
 30
0.0
  0
VERTEX
  5
82B
  8
DATA
  6
CONTINUOUS
 62
     7
 10
205.8048843482961
 20
94.284733487693373
 30
0.0
  0
VERTEX
  5
82C
  8
DATA
  6
CONTINUOUS
 62
     7
 10
205.8050734809085
 20
94.283311120357155
 30
0.0
  0
VERTEX
  5
82D
  8
DATA
  6
CONTINUOUS
 62
     7
 10
205.80526976965399
 20
94.281891163679632
 30
0.0
  0
VERTEX
  5
82E
  8
DATA
  6
CONTINUOUS
 62
     7
 10
205.80547321453261
 20
94.280473617660846
 30
0.0
  0
VERTEX
  5
82F
  8
DATA
  6
CONTINUOUS
 62
     7
 10
205.8056838155444
 20
94.279058482300798
 30
0.0
  0
VERTEX
  5
830
  8
DATA
  6
CONTINUOUS
 62
     7
 10
205.80590157268921
 20
94.277645757599444
 30
0.0
  0
VERTEX
  5
831
  8
DATA
  6
CONTINUOUS
 62
     7
 10
205.80612648596721
 20
94.276235443556843
 30
0.0
  0
VERTEX
  5
832
  8
DATA
  6
CONTINUOUS
 62
     7
 10
205.80635855537821
 20
94.274827540172964
 30
0.0
  0
VERTEX
  5
833
  8
DATA
  6
CONTINUOUS
 62
     7
 10
205.80659778092249
 20
94.273422047447795
 30
0.0
  0
VERTEX
  5
834
  8
DATA
  6
CONTINUOUS
 62
     7
 10
205.8068441625999
 20
94.272018965381406
 30
0.0
  0
VERTEX
  5
835
  8
DATA
  6
CONTINUOUS
 62
     7
 10
205.8070977004104
 20
94.270618293973726
 30
0.0
  0
VERTEX
  5
836
  8
DATA
  6
CONTINUOUS
 62
     7
 10
205.80735839435391
 20
94.269220033224741
 30
0.0
  0
VERTEX
  5
837
  8
DATA
  6
CONTINUOUS
 62
     7
 10
205.80762624443059
 20
94.267824183134479
 30
0.0
  0
VERTEX
  5
838
  8
DATA
  6
CONTINUOUS
 62
     7
 10
205.80790125064041
 20
94.266430743702983
 30
0.0
  0
VERTEX
  5
839
  8
DATA
  6
CONTINUOUS
 62
     7
 10
205.80818341298331
 20
94.265039714930211
 30
0.0
  0
VERTEX
  5
83A
  8
DATA
  6
CONTINUOUS
 62
     7
 10
205.8084727314594
 20
94.263651096816133
 30
0.0
  0
VERTEX
  5
83B
  8
DATA
  6
CONTINUOUS
 62
     7
 10
205.8087692060686
 20
94.262264889360779
 30
0.0
  0
VERTEX
  5
83C
  8
DATA
  6
CONTINUOUS
 62
     7
 10
205.80907283681091
 20
94.260881092564205
 30
0.0
  0
VERTEX
  5
83D
  8
DATA
  6
CONTINUOUS
 62
     7
 10
205.8093836236863
 20
94.259499706426325
 30
0.0
  0
VERTEX
  5
83E
  8
DATA
  6
CONTINUOUS
 62
     7
 10
205.8097015666948
 20
94.258120730947184
 30
0.0
  0
VERTEX
  5
83F
  8
DATA
  6
CONTINUOUS
 62
     7
 10
205.81002666583649
 20
94.256744166126765
 30
0.0
  0
VERTEX
  5
840
  8
DATA
  6
CONTINUOUS
 62
     7
 10
205.81035892111129
 20
94.255370011965084
 30
0.0
  0
VERTEX
  5
841
  8
DATA
  6
CONTINUOUS
 62
     7
 10
205.81069833251919
 20
94.253998268462126
 30
0.0
  0
VERTEX
  5
842
  8
DATA
  6
CONTINUOUS
 62
     7
 10
205.8110449000601
 20
94.252628935617864
 30
0.0
  0
VERTEX
  5
843
  8
DATA
  6
CONTINUOUS
 62
     7
 10
205.81139862373431
 20
94.251262013432353
 30
0.0
  0
VERTEX
  5
844
  8
DATA
  6
CONTINUOUS
 62
     7
 10
205.81175950354151
 20
94.249897501905579
 30
0.0
  0
VERTEX
  5
845
  8
DATA
  6
CONTINUOUS
 62
     7
 10
205.81212753948191
 20
94.248535401037515
 30
0.0
  0
VERTEX
  5
846
  8
DATA
  6
CONTINUOUS
 62
     7
 10
205.81250273155541
 20
94.247175710828216
 30
0.0
  0
VERTEX
  5
847
  8
DATA
  6
CONTINUOUS
 62
     7
 10
205.812885079762
 20
94.245818431277584
 30
0.0
  0
VERTEX
  5
848
  8
DATA
  6
CONTINUOUS
 62
     7
 10
205.81327458410169
 20
94.244463562385718
 30
0.0
  0
VERTEX
  5
849
  8
DATA
  6
CONTINUOUS
 62
     7
 10
205.81367124457461
 20
94.243111104152561
 30
0.0
  0
VERTEX
  5
84A
  8
DATA
  6
CONTINUOUS
 62
     7
 10
205.81407506118049
 20
94.241761056578156
 30
0.0
  0
VERTEX
  5
84B
  8
DATA
  6
CONTINUOUS
 62
     7
 10
205.81448603391971
 20
94.24041341966246
 30
0.0
  0
VERTEX
  5
84C
  8
DATA
  6
CONTINUOUS
 62
     7
 10
205.81490416279189
 20
94.239068193405487
 30
0.0
  0
VERTEX
  5
84D
  8
DATA
  6
CONTINUOUS
 62
     7
 10
205.81532944779721
 20
94.237725377807266
 30
0.0
  0
VERTEX
  5
84E
  8
DATA
  6
CONTINUOUS
 62
     7
 10
205.81576188893561
 20
94.236384972867725
 30
0.0
  0
VERTEX
  5
84F
  8
DATA
  6
CONTINUOUS
 62
     7
 10
205.81620148620709
 20
94.235046978586979
 30
0.0
  0
VERTEX
  5
850
  8
DATA
  6
CONTINUOUS
 62
     7
 10
205.81664823961179
 20
94.233711394964928
 30
0.0
  0
VERTEX
  5
851
  8
DATA
  6
CONTINUOUS
 62
     7
 10
205.81710214914969
 20
94.232378222001572
 30
0.0
  0
VERTEX
  5
852
  8
DATA
  6
CONTINUOUS
 62
     7
 10
205.8175632148205
 20
94.231047459696995
 30
0.0
  0
VERTEX
  5
853
  8
DATA
  6
CONTINUOUS
 62
     7
 10
205.81803143662461
 20
94.229719108051128
 30
0.0
  0
VERTEX
  5
854
  8
DATA
  6
CONTINUOUS
 62
     7
 10
205.8185068145618
 20
94.228393167063984
 30
0.0
  0
VERTEX
  5
855
  8
DATA
  6
CONTINUOUS
 62
     7
 10
205.81898934863199
 20
94.227069636735536
 30
0.0
  0
VERTEX
  5
856
  8
DATA
  6
CONTINUOUS
 62
     7
 10
205.81947903883551
 20
94.225748517065867
 30
0.0
  0
VERTEX
  5
857
  8
DATA
  6
CONTINUOUS
 62
     7
 10
205.819975885172
 20
94.224429808054893
 30
0.0
  0
VERTEX
  5
858
  8
DATA
  6
CONTINUOUS
 62
     7
 10
205.819975885172
 20
94.224429808054893
 30
0.0
  0
VERTEX
  5
859
  8
DATA
  6
CONTINUOUS
 62
     7
 10
205.8204801466334
 20
94.223113979298304
 30
0.0
  0
VERTEX
  5
85A
  8
DATA
  6
CONTINUOUS
 62
     7
 10
205.82099208221121
 20
94.221801500391649
 30
0.0
  0
VERTEX
  5
85B
  8
DATA
  6
CONTINUOUS
 62
     7
 10
205.82151169190601
 20
94.220492371334984
 30
0.0
  0
VERTEX
  5
85C
  8
DATA
  6
CONTINUOUS
 62
     7
 10
205.82203897571719
 20
94.219186592128281
 30
0.0
  0
VERTEX
  5
85D
  8
DATA
  6
CONTINUOUS
 62
     7
 10
205.82257393364489
 20
94.217884162771568
 30
0.0
  0
VERTEX
  5
85E
  8
DATA
  6
CONTINUOUS
 62
     7
 10
205.8231165656893
 20
94.216585083264775
 30
0.0
  0
VERTEX
  5
85F
  8
DATA
  6
CONTINUOUS
 62
     7
 10
205.82366687185029
 20
94.215289353608057
 30
0.0
  0
VERTEX
  5
860
  8
DATA
  6
CONTINUOUS
 62
     7
 10
205.82422485212791
 20
94.213996973801216
 30
0.0
  0
VERTEX
  5
861
  8
DATA
  6
CONTINUOUS
 62
     7
 10
205.82479050652219
 20
94.212707943844407
 30
0.0
  0
VERTEX
  5
862
  8
DATA
  6
CONTINUOUS
 62
     7
 10
205.82536383503299
 20
94.211422263737546
 30
0.0
  0
VERTEX
  5
863
  8
DATA
  6
CONTINUOUS
 62
     7
 10
205.82594483766039
 20
94.210139933480647
 30
0.0
  0
VERTEX
  5
864
  8
DATA
  6
CONTINUOUS
 62
     7
 10
205.82653351440439
 20
94.208860953073724
 30
0.0
  0
VERTEX
  5
865
  8
DATA
  6
CONTINUOUS
 62
     7
 10
205.82712986526511
 20
94.207585322516763
 30
0.0
  0
VERTEX
  5
866
  8
DATA
  6
CONTINUOUS
 62
     7
 10
205.8277338902422
 20
94.206313041809764
 30
0.0
  0
VERTEX
  5
867
  8
DATA
  6
CONTINUOUS
 62
     7
 10
205.8283455893361
 20
94.205044110952755
 30
0.0
  0
VERTEX
  5
868
  8
DATA
  6
CONTINUOUS
 62
     7
 10
205.82896496254659
 20
94.203778529945723
 30
0.0
  0
VERTEX
  5
869
  8
DATA
  6
CONTINUOUS
 62
     7
 10
205.82959200987361
 20
94.202516298788666
 30
0.0
  0
VERTEX
  5
86A
  8
DATA
  6
CONTINUOUS
 62
     7
 10
205.83022673131731
 20
94.201257417481557
 30
0.0
  0
VERTEX
  5
86B
  8
DATA
  6
CONTINUOUS
 62
     7
 10
205.83086912687759
 20
94.200001886024452
 30
0.0
  0
VERTEX
  5
86C
  8
DATA
  6
CONTINUOUS
 62
     7
 10
205.83151919655441
 20
94.198749704417295
 30
0.0
  0
VERTEX
  5
86D
  8
DATA
  6
CONTINUOUS
 62
     7
 10
205.83217694034781
 20
94.197500872660143
 30
0.0
  0
VERTEX
  5
86E
  8
DATA
  6
CONTINUOUS
 62
     7
 10
205.83284235825789
 20
94.196255390752924
 30
0.0
  0
VERTEX
  5
86F
  8
DATA
  6
CONTINUOUS
 62
     7
 10
205.83351545028461
 20
94.195013258695724
 30
0.0
  0
VERTEX
  5
870
  8
DATA
  6
CONTINUOUS
 62
     7
 10
205.8341962164279
 20
94.193774476488443
 30
0.0
  0
VERTEX
  5
871
  8
DATA
  6
CONTINUOUS
 62
     7
 10
205.83488465668771
 20
94.192539044131166
 30
0.0
  0
VERTEX
  5
872
  8
DATA
  6
CONTINUOUS
 62
     7
 10
205.8355807710642
 20
94.191306961623823
 30
0.0
  0
VERTEX
  5
873
  8
DATA
  6
CONTINUOUS
 62
     7
 10
205.8362845595573
 20
94.190078228966499
 30
0.0
  0
VERTEX
  5
874
  8
DATA
  6
CONTINUOUS
 62
     7
 10
205.836996022167
 20
94.188852846159136
 30
0.0
  0
VERTEX
  5
875
  8
DATA
  6
CONTINUOUS
 62
     7
 10
205.8377151588933
 20
94.187630813201693
 30
0.0
  0
VERTEX
  5
876
  8
DATA
  6
CONTINUOUS
 62
     7
 10
205.83844196973621
 20
94.186412130094325
 30
0.0
  0
VERTEX
  5
877
  8
DATA
  6
CONTINUOUS
 62
     7
 10
205.83917645469569
 20
94.185196796836848
 30
0.0
  0
VERTEX
  5
878
  8
DATA
  6
CONTINUOUS
 62
     7
 10
205.83991861377191
 20
94.183984813429362
 30
0.0
  0
VERTEX
  5
879
  8
DATA
  6
CONTINUOUS
 62
     7
 10
205.8406684469646
 20
94.182776179871837
 30
0.0
  0
VERTEX
  5
87A
  8
DATA
  6
CONTINUOUS
 62
     7
 10
205.8414259542738
 20
94.181570896164274
 30
0.0
  0
VERTEX
  5
87B
  8
DATA
  6
CONTINUOUS
 62
     7
 10
205.84219113569981
 20
94.180368962306716
 30
0.0
  0
VERTEX
  5
87C
  8
DATA
  6
CONTINUOUS
 62
     7
 10
205.8429639912423
 20
94.179170378299133
 30
0.0
  0
VERTEX
  5
87D
  8
DATA
  6
CONTINUOUS
 62
     7
 10
205.84374452090151
 20
94.177975144141485
 30
0.0
  0
VERTEX
  5
87E
  8
DATA
  6
CONTINUOUS
 62
     7
 10
205.84453272467721
 20
94.176783259833854
 30
0.0
  0
VERTEX
  5
87F
  8
DATA
  6
CONTINUOUS
 62
     7
 10
205.84532860256951
 20
94.175594725376143
 30
0.0
  0
VERTEX
  5
880
  8
DATA
  6
CONTINUOUS
 62
     7
 10
205.84613215457841
 20
94.174409540768451
 30
0.0
  0
VERTEX
  5
881
  8
DATA
  6
CONTINUOUS
 62
     7
 10
205.846943380704
 20
94.173227706010735
 30
0.0
  0
VERTEX
  5
882
  8
DATA
  6
CONTINUOUS
 62
     7
 10
205.84776228094611
 20
94.172049221102966
 30
0.0
  0
VERTEX
  5
883
  8
DATA
  6
CONTINUOUS
 62
     7
 10
205.84858885530491
 20
94.170874086045146
 30
0.0
  0
VERTEX
  5
884
  8
DATA
  6
CONTINUOUS
 62
     7
 10
205.84942310378031
 20
94.169702300837344
 30
0.0
  0
VERTEX
  5
885
  8
DATA
  6
CONTINUOUS
 62
     7
 10
205.85026502637231
 20
94.168533865479503
 30
0.0
  0
VERTEX
  5
886
  8
DATA
  6
CONTINUOUS
 62
     7
 10
205.8511146230808
 20
94.167368779971596
 30
0.0
  0
VERTEX
  5
887
  8
DATA
  6
CONTINUOUS
 62
     7
 10
205.85197189390601
 20
94.166207044313694
 30
0.0
  0
VERTEX
  5
888
  8
DATA
  6
CONTINUOUS
 62
     7
 10
205.85283683884771
 20
94.165048658505754
 30
0.0
  0
VERTEX
  5
889
  8
DATA
  6
CONTINUOUS
 62
     7
 10
205.85370945790609
 20
94.163893622547803
 30
0.0
  0
VERTEX
  5
88A
  8
DATA
  6
CONTINUOUS
 62
     7
 10
205.85458975108111
 20
94.162741936439801
 30
0.0
  0
VERTEX
  5
88B
  8
DATA
  6
CONTINUOUS
 62
     7
 10
205.8554777183727
 20
94.161593600181789
 30
0.0
  0
VERTEX
  5
88C
  8
DATA
  6
CONTINUOUS
 62
     7
 10
205.85637335978089
 20
94.160448613773767
 30
0.0
  0
VERTEX
  5
88D
  8
DATA
  6
CONTINUOUS
 62
     7
 10
205.85727667530571
 20
94.15930697721565
 30
0.0
  0
VERTEX
  5
88E
  8
DATA
  6
CONTINUOUS
 62
     7
 10
205.85818766494711
 20
94.158168690507566
 30
0.0
  0
VERTEX
  5
88F
  8
DATA
  6
CONTINUOUS
 62
     7
 10
205.85910632870511
 20
94.157033753649443
 30
0.0
  0
VERTEX
  5
890
  8
DATA
  6
CONTINUOUS
 62
     7
 10
205.86003266657971
 20
94.155902166641255
 30
0.0
  0
VERTEX
  5
891
  8
DATA
  6
CONTINUOUS
 62
     7
 10
205.86096667857089
 20
94.154773929483071
 30
0.0
  0
VERTEX
  5
892
  8
DATA
  6
CONTINUOUS
 62
     7
 10
205.8619083646787
 20
94.153649042174848
 30
0.0
  0
VERTEX
  5
893
  8
DATA
  6
CONTINUOUS
 62
     7
 10
205.86285772490319
 20
94.152527504716574
 30
0.0
  0
VERTEX
  5
894
  8
DATA
  6
CONTINUOUS
 62
     7
 10
205.86381475924421
 20
94.151409317108346
 30
0.0
  0
VERTEX
  5
895
  8
DATA
  6
CONTINUOUS
 62
     7
 10
205.86477946770179
 20
94.150294479350052
 30
0.0
  0
VERTEX
  5
896
  8
DATA
  6
CONTINUOUS
 62
     7
 10
205.8657518502761
 20
94.149182991441705
 30
0.0
  0
VERTEX
  5
897
  8
DATA
  6
CONTINUOUS
 62
     7
 10
205.86673190696689
 20
94.148074853383335
 30
0.0
  0
VERTEX
  5
898
  8
DATA
  6
CONTINUOUS
 62
     7
 10
205.8677196377744
 20
94.146970065174969
 30
0.0
  0
VERTEX
  5
899
  8
DATA
  6
CONTINUOUS
 62
     7
 10
205.8677196377744
 20
94.146970065174969
 30
0.0
  0
VERTEX
  5
89A
  8
DATA
  6
CONTINUOUS
 62
     7
 10
205.86871328351819
 20
94.145870602022427
 30
0.0
  0
VERTEX
  5
89B
  8
DATA
  6
CONTINUOUS
 62
     7
 10
205.8697110850182
 20
94.144778439131571
 30
0.0
  0
VERTEX
  5
89C
  8
DATA
  6
CONTINUOUS
 62
     7
 10
205.87071304227439
 20
94.143693576502386
 30
0.0
  0
VERTEX
  5
89D
  8
DATA
  6
CONTINUOUS
 62
     7
 10
205.87171915528671
 20
94.142616014134916
 30
0.0
  0
VERTEX
  5
89E
  8
DATA
  6
CONTINUOUS
 62
     7
 10
205.87272942405531
 20
94.141545752029117
 30
0.0
  0
VERTEX
  5
89F
  8
DATA
  6
CONTINUOUS
 62
     7
 10
205.87374384857989
 20
94.140482790185004
 30
0.0
  0
VERTEX
  5
8A0
  8
DATA
  6
CONTINUOUS
 62
     7
 10
205.87476242886081
 20
94.139427128602605
 30
0.0
  0
VERTEX
  5
8A1
  8
DATA
  6
CONTINUOUS
 62
     7
 10
205.87578516489779
 20
94.138378767281864
 30
0.0
  0
VERTEX
  5
8A2
  8
DATA
  6
CONTINUOUS
 62
     7
 10
205.87681205669099
 20
94.137337706222837
 30
0.0
  0
VERTEX
  5
8A3
  8
DATA
  6
CONTINUOUS
 62
     7
 10
205.87784310424041
 20
94.13630394542551
 30
0.0
  0
VERTEX
  5
8A4
  8
DATA
  6
CONTINUOUS
 62
     7
 10
205.87887830754599
 20
94.135277484889855
 30
0.0
  0
VERTEX
  5
8A5
  8
DATA
  6
CONTINUOUS
 62
     7
 10
205.8799176666077
 20
94.134258324615942
 30
0.0
  0
VERTEX
  5
8A6
  8
DATA
  6
CONTINUOUS
 62
     7
 10
205.88096118142559
 20
94.133246464603687
 30
0.0
  0
VERTEX
  5
8A7
  8
DATA
  6
CONTINUOUS
 62
     7
 10
205.8820088519997
 20
94.132241904853075
 30
0.0
  0
VERTEX
  5
8A8
  8
DATA
  6
CONTINUOUS
 62
     7
 10
205.88306067832991
 20
94.131244645364234
 30
0.0
  0
VERTEX
  5
8A9
  8
DATA
  6
CONTINUOUS
 62
     7
 10
205.88411666041631
 20
94.130254686137008
 30
0.0
  0
VERTEX
  5
8AA
  8
DATA
  6
CONTINUOUS
 62
     7
 10
205.8851767982589
 20
94.12927202717151
 30
0.0
  0
VERTEX
  5
8AB
  8
DATA
  6
CONTINUOUS
 62
     7
 10
205.8862410918577
 20
94.128296668467712
 30
0.0
  0
VERTEX
  5
8AC
  8
DATA
  6
CONTINUOUS
 62
     7
 10
205.8873095412126
 20
94.1273286100256
 30
0.0
  0
VERTEX
  5
8AD
  8
DATA
  6
CONTINUOUS
 62
     7
 10
205.88838214632369
 20
94.126367851845146
 30
0.0
  0
VERTEX
  5
8AE
  8
DATA
  6
CONTINUOUS
 62
     7
 10
205.88945890719111
 20
94.125414393926434
 30
0.0
  0
VERTEX
  5
8AF
  8
DATA
  6
CONTINUOUS
 62
     7
 10
205.89053982381449
 20
94.124468236269394
 30
0.0
  0
VERTEX
  5
8B0
  8
DATA
  6
CONTINUOUS
 62
     7
 10
205.89162489619409
 20
94.123529378874053
 30
0.0
  0
VERTEX
  5
8B1
  8
DATA
  6
CONTINUOUS
 62
     7
 10
205.89271412433001
 20
94.122597821740385
 30
0.0
  0
VERTEX
  5
8B2
  8
DATA
  6
CONTINUOUS
 62
     7
 10
205.8938075082219
 20
94.121673564868416
 30
0.0
  0
VERTEX
  5
8B3
  8
DATA
  6
CONTINUOUS
 62
     7
 10
205.89490504787
 20
94.120756608258134
 30
0.0
  0
VERTEX
  5
8B4
  8
DATA
  6
CONTINUOUS
 62
     7
 10
205.8960067432744
 20
94.119846951909565
 30
0.0
  0
VERTEX
  5
8B5
  8
DATA
  6
CONTINUOUS
 62
     7
 10
205.89711259443479
 20
94.11894459582264
 30
0.0
  0
VERTEX
  5
8B6
  8
DATA
  6
CONTINUOUS
 62
     7
 10
205.89822260135151
 20
94.118049539997443
 30
0.0
  0
VERTEX
  5
8B7
  8
DATA
  6
CONTINUOUS
 62
     7
 10
205.89933676402441
 20
94.117161784433904
 30
0.0
  0
VERTEX
  5
8B8
  8
DATA
  6
CONTINUOUS
 62
     7
 10
205.90045508245331
 20
94.116281329132093
 30
0.0
  0
VERTEX
  5
8B9
  8
DATA
  6
CONTINUOUS
 62
     7
 10
205.9015775566385
 20
94.115408174091954
 30
0.0
  0
VERTEX
  5
8BA
  8
DATA
  6
CONTINUOUS
 62
     7
 10
205.90270418657991
 20
94.114542319313543
 30
0.0
  0
VERTEX
  5
8BB
  8
DATA
  6
CONTINUOUS
 62
     7
 10
205.90383497227739
 20
94.113683764796775
 30
0.0
  0
VERTEX
  5
8BC
  8
DATA
  6
CONTINUOUS
 62
     7
 10
205.90496991373109
 20
94.112832510541722
 30
0.0
  0
VERTEX
  5
8BD
  8
DATA
  6
CONTINUOUS
 62
     7
 10
205.90610901094101
 20
94.111988556548354
 30
0.0
  0
VERTEX
  5
8BE
  8
DATA
  6
CONTINUOUS
 62
     7
 10
205.907252263907
 20
94.111151902816644
 30
0.0
  0
VERTEX
  5
8BF
  8
DATA
  6
CONTINUOUS
 62
     7
 10
205.9083996726292
 20
94.110322549346691
 30
0.0
  0
VERTEX
  5
8C0
  8
DATA
  6
CONTINUOUS
 62
     7
 10
205.90955123710759
 20
94.109500496138381
 30
0.0
  0
VERTEX
  5
8C1
  8
DATA
  6
CONTINUOUS
 62
     7
 10
205.9107069573422
 20
94.108685743191757
 30
0.0
  0
VERTEX
  5
8C2
  8
DATA
  6
CONTINUOUS
 62
     7
 10
205.91186683333279
 20
94.107878290506861
 30
0.0
  0
VERTEX
  5
8C3
  8
DATA
  6
CONTINUOUS
 62
     7
 10
205.9130308650798
 20
94.107078138083651
 30
0.0
  0
VERTEX
  5
8C4
  8
DATA
  6
CONTINUOUS
 62
     7
 10
205.91419905258289
 20
94.10628528592207
 30
0.0
  0
VERTEX
  5
8C5
  8
DATA
  6
CONTINUOUS
 62
     7
 10
205.9153713958421
 20
94.105499734022274
 30
0.0
  0
VERTEX
  5
8C6
  8
DATA
  6
CONTINUOUS
 62
     7
 10
205.91654789485759
 20
94.104721482384093
 30
0.0
  0
VERTEX
  5
8C7
  8
DATA
  6
CONTINUOUS
 62
     7
 10
205.9177285496292
 20
94.103950531007627
 30
0.0
  0
VERTEX
  5
8C8
  8
DATA
  6
CONTINUOUS
 62
     7
 10
205.91891336015701
 20
94.103186879892874
 30
0.0
  0
VERTEX
  5
8C9
  8
DATA
  6
CONTINUOUS
 62
     7
 10
205.92010232644091
 20
94.102430529039808
 30
0.0
  0
VERTEX
  5
8CA
  8
DATA
  6
CONTINUOUS
 62
     7
 10
205.921295448481
 20
94.101681478448398
 30
0.0
  0
VERTEX
  5
8CB
  8
DATA
  6
CONTINUOUS
 62
     7
 10
205.92249272627731
 20
94.100939728118689
 30
0.0
  0
VERTEX
  5
8CC
  8
DATA
  6
CONTINUOUS
 62
     7
 10
205.92369415982969
 20
94.100205278050709
 30
0.0
  0
VERTEX
  5
8CD
  8
DATA
  6
CONTINUOUS
 62
     7
 10
205.9248997491384
 20
94.099478128244385
 30
0.0
  0
VERTEX
  5
8CE
  8
DATA
  6
CONTINUOUS
 62
     7
 10
205.92610949420319
 20
94.098758278699762
 30
0.0
  0
VERTEX
  5
8CF
  8
DATA
  6
CONTINUOUS
 62
     7
 10
205.9273233950241
 20
94.098045729416853
 30
0.0
  0
VERTEX
  5
8D0
  8
DATA
  6
CONTINUOUS
 62
     7
 10
205.92854145160129
 20
94.097340480395602
 30
0.0
  0
VERTEX
  5
8D1
  8
DATA
  6
CONTINUOUS
 62
     7
 10
205.92976366393461
 20
94.096642531636036
 30
0.0
  0
VERTEX
  5
8D2
  8
DATA
  6
CONTINUOUS
 62
     7
 10
205.93099003202411
 20
94.095951883138184
 30
0.0
  0
VERTEX
  5
8D3
  8
DATA
  6
CONTINUOUS
 62
     7
 10
205.9322205558698
 20
94.095268534902004
 30
0.0
  0
VERTEX
  5
8D4
  8
DATA
  6
CONTINUOUS
 62
     7
 10
205.93345523547171
 20
94.094592486927553
 30
0.0
  0
VERTEX
  5
8D5
  8
DATA
  6
CONTINUOUS
 62
     7
 10
205.93469407082969
 20
94.093923739214731
 30
0.0
  0
VERTEX
  5
8D6
  8
DATA
  6
CONTINUOUS
 62
     7
 10
205.93593706194389
 20
94.093262291763651
 30
0.0
  0
VERTEX
  5
8D7
  8
DATA
  6
CONTINUOUS
 62
     7
 10
205.93718420881419
 20
94.092608144574228
 30
0.0
  0
VERTEX
  5
8D8
  8
DATA
  6
CONTINUOUS
 62
     7
 10
205.93843551144079
 20
94.091961297646563
 30
0.0
  0
VERTEX
  5
8D9
  8
DATA
  6
CONTINUOUS
 62
     7
 10
205.9396909698234
 20
94.091321750980512
 30
0.0
  0
VERTEX
  5
8DA
  8
DATA
  6
CONTINUOUS
 62
     7
 10
205.9396909698234
 20
94.091321750980512
 30
0.0
  0
VERTEX
  5
8DB
  8
DATA
  6
CONTINUOUS
 62
     7
 10
205.9409500921567
 20
94.090689321517928
 30
0.0
  0
VERTEX
  5
8DC
  8
DATA
  6
CONTINUOUS
 62
     7
 10
205.94221238663511
 20
94.090063826200506
 30
0.0
  0
VERTEX
  5
8DD
  8
DATA
  6
CONTINUOUS
 62
     7
 10
205.94347785325851
 20
94.089445265028274
 30
0.0
  0
VERTEX
  5
8DE
  8
DATA
  6
CONTINUOUS
 62
     7
 10
205.94474649202701
 20
94.088833638001205
 30
0.0
  0
VERTEX
  5
8DF
  8
DATA
  6
CONTINUOUS
 62
     7
 10
205.9460183029405
 20
94.088228945119326
 30
0.0
  0
VERTEX
  5
8E0
  8
DATA
  6
CONTINUOUS
 62
     7
 10
205.94729328599911
 20
94.087631186382637
 30
0.0
  0
VERTEX
  5
8E1
  8
DATA
  6
CONTINUOUS
 62
     7
 10
205.9485714412028
 20
94.087040361791139
 30
0.0
  0
VERTEX
  5
8E2
  8
DATA
  6
CONTINUOUS
 62
     7
 10
205.94985276855149
 20
94.086456471344746
 30
0.0
  0
VERTEX
  5
8E3
  8
DATA
  6
CONTINUOUS
 62
     7
 10
205.95113726804519
 20
94.085879515043601
 30
0.0
  0
VERTEX
  5
8E4
  8
DATA
  6
CONTINUOUS
 62
     7
 10
205.95242493968399
 20
94.085309492887575
 30
0.0
  0
VERTEX
  5
8E5
  8
DATA
  6
CONTINUOUS
 62
     7
 10
205.9537157834678
 20
94.084746404876796
 30
0.0
  0
VERTEX
  5
8E6
  8
DATA
  6
CONTINUOUS
 62
     7
 10
205.95500979939669
 20
94.084190251011165
 30
0.0
  0
VERTEX
  5
8E7
  8
DATA
  6
CONTINUOUS
 62
     7
 10
205.95630698747081
 20
94.083641031290725
 30
0.0
  0
VERTEX
  5
8E8
  8
DATA
  6
CONTINUOUS
 62
     7
 10
205.9576073476897
 20
94.083098745715404
 30
0.0
  0
VERTEX
  5
8E9
  8
DATA
  6
CONTINUOUS
 62
     7
 10
205.95891088005371
 20
94.082563394285316
 30
0.0
  0
VERTEX
  5
8EA
  8
DATA
  6
CONTINUOUS
 62
     7
 10
205.96021758456291
 20
94.082034977000404
 30
0.0
  0
VERTEX
  5
8EB
  8
DATA
  6
CONTINUOUS
 62
     7
 10
205.96152746121709
 20
94.081513493860655
 30
0.0
  0
VERTEX
  5
8EC
  8
DATA
  6
CONTINUOUS
 62
     7
 10
205.96284051001641
 20
94.080998944866067
 30
0.0
  0
VERTEX
  5
8ED
  8
DATA
  6
CONTINUOUS
 62
     7
 10
205.96415673096061
 20
94.080491330016685
 30
0.0
  0
VERTEX
  5
8EE
  8
DATA
  6
CONTINUOUS
 62
     7
 10
205.96547612405001
 20
94.079990649312464
 30
0.0
  0
VERTEX
  5
8EF
  8
DATA
  6
CONTINUOUS
 62
     7
 10
205.96679868928439
 20
94.079496902753434
 30
0.0
  0
VERTEX
  5
8F0
  8
DATA
  6
CONTINUOUS
 62
     7
 10
205.96812442666371
 20
94.079010090339565
 30
0.0
  0
VERTEX
  5
8F1
  8
DATA
  6
CONTINUOUS
 62
     7
 10
205.96945333618831
 20
94.078530212070859
 30
0.0
  0
VERTEX
  5
8F2
  8
DATA
  6
CONTINUOUS
 62
     7
 10
205.9707854178578
 20
94.078057267947372
 30
0.0
  0
VERTEX
  5
8F3
  8
DATA
  6
CONTINUOUS
 62
     7
 10
205.9721206716724
 20
94.077591257969047
 30
0.0
  0
VERTEX
  5
8F4
  8
DATA
  6
CONTINUOUS
 62
     7
 10
205.97345909763209
 20
94.077132182135855
 30
0.0
  0
VERTEX
  5
8F5
  8
DATA
  6
CONTINUOUS
 62
     7
 10
205.9748006957368
 20
94.076680040447926
 30
0.0
  0
VERTEX
  5
8F6
  8
DATA
  6
CONTINUOUS
 62
     7
 10
205.9761454659866
 20
94.076234832905115
 30
0.0
  0
VERTEX
  5
8F7
  8
DATA
  6
CONTINUOUS
 62
     7
 10
205.97749340838141
 20
94.075796559507481
 30
0.0
  0
VERTEX
  5
8F8
  8
DATA
  6
CONTINUOUS
 62
     7
 10
205.97884452292129
 20
94.075365220255051
 30
0.0
  0
VERTEX
  5
8F9
  8
DATA
  6
CONTINUOUS
 62
     7
 10
205.98019880960621
 20
94.074940815147784
 30
0.0
  0
VERTEX
  5
8FA
  8
DATA
  6
CONTINUOUS
 62
     7
 10
205.98155626843621
 20
94.074523344185707
 30
0.0
  0
VERTEX
  5
8FB
  8
DATA
  6
CONTINUOUS
 62
     7
 10
205.98291689941129
 20
94.074112807368778
 30
0.0
  0
VERTEX
  5
8FC
  8
DATA
  6
CONTINUOUS
 62
     7
 10
205.98428070253129
 20
94.073709204697053
 30
0.0
  0
VERTEX
  5
8FD
  8
DATA
  6
CONTINUOUS
 62
     7
 10
205.98564767779649
 20
94.073312536170505
 30
0.0
  0
VERTEX
  5
8FE
  8
DATA
  6
CONTINUOUS
 62
     7
 10
205.98701782520669
 20
94.072922801789119
 30
0.0
  0
VERTEX
  5
8FF
  8
DATA
  6
CONTINUOUS
 62
     7
 10
205.98839114476189
 20
94.072540001552923
 30
0.0
  0
VERTEX
  5
900
  8
DATA
  6
CONTINUOUS
 62
     7
 10
205.98976763646229
 20
94.072164135461904
 30
0.0
  0
VERTEX
  5
901
  8
DATA
  6
CONTINUOUS
 62
     7
 10
205.9911473003076
 20
94.071795203516061
 30
0.0
  0
VERTEX
  5
902
  8
DATA
  6
CONTINUOUS
 62
     7
 10
205.99253013629809
 20
94.071433205715394
 30
0.0
  0
VERTEX
  5
903
  8
DATA
  6
CONTINUOUS
 62
     7
 10
205.99391614443351
 20
94.071078142059903
 30
0.0
  0
VERTEX
  5
904
  8
DATA
  6
CONTINUOUS
 62
     7
 10
205.995305324714
 20
94.070730012549589
 30
0.0
  0
VERTEX
  5
905
  8
DATA
  6
CONTINUOUS
 62
     7
 10
205.99669767713959
 20
94.070388817184451
 30
0.0
  0
VERTEX
  5
906
  8
DATA
  6
CONTINUOUS
 62
     7
 10
205.99809320171019
 20
94.070054555964504
 30
0.0
  0
VERTEX
  5
907
  8
DATA
  6
CONTINUOUS
 62
     7
 10
205.99949189842599
 20
94.069727228889704
 30
0.0
  0
VERTEX
  5
908
  8
DATA
  6
CONTINUOUS
 62
     7
 10
206.0008937672867
 20
94.069406835960123
 30
0.0
  0
VERTEX
  5
909
  8
DATA
  6
CONTINUOUS
 62
     7
 10
206.00229880829249
 20
94.069093377175705
 30
0.0
  0
VERTEX
  5
90A
  8
DATA
  6
CONTINUOUS
 62
     7
 10
206.00370702144329
 20
94.068786852536434
 30
0.0
  0
VERTEX
  5
90B
  8
DATA
  6
CONTINUOUS
 62
     7
 10
206.00511840673931
 20
94.068487262042353
 30
0.0
  0
VERTEX
  5
90C
  8
DATA
  6
CONTINUOUS
 62
     7
 10
206.0065329641802
 20
94.068194605693506
 30
0.0
  0
VERTEX
  5
90D
  8
DATA
  6
CONTINUOUS
 62
     7
 10
206.00795069376619
 20
94.067908883489764
 30
0.0
  0
VERTEX
  5
90E
  8
DATA
  6
CONTINUOUS
 62
     7
 10
206.0093715954973
 20
94.067630095431227
 30
0.0
  0
VERTEX
  5
90F
  8
DATA
  6
CONTINUOUS
 62
     7
 10
206.01079566937329
 20
94.067358241517866
 30
0.0
  0
VERTEX
  5
910
  8
DATA
  6
CONTINUOUS
 62
     7
 10
206.01222291539449
 20
94.067093321749667
 30
0.0
  0
VERTEX
  5
911
  8
DATA
  6
CONTINUOUS
 62
     7
 10
206.0136533335608
 20
94.066835336126687
 30
0.0
  0
VERTEX
  5
912
  8
DATA
  6
CONTINUOUS
 62
     7
 10
206.01508692387199
 20
94.066584284648854
 30
0.0
  0
VERTEX
  5
913
  8
DATA
  6
CONTINUOUS
 62
     7
 10
206.01652368632841
 20
94.066340167316199
 30
0.0
  0
VERTEX
  5
914
  8
DATA
  6
CONTINUOUS
 62
     7
 10
206.01796362092969
 20
94.066102984128747
 30
0.0
  0
VERTEX
  5
915
  8
DATA
  6
CONTINUOUS
 62
     7
 10
206.0194067276762
 20
94.065872735086444
 30
0.0
  0
VERTEX
  5
916
  8
DATA
  6
CONTINUOUS
 62
     7
 10
206.02085300656771
 20
94.065649420189288
 30
0.0
  0
VERTEX
  5
917
  8
DATA
  6
CONTINUOUS
 62
     7
 10
206.0223024576043
 20
94.065433039437366
 30
0.0
  0
VERTEX
  5
918
  8
DATA
  6
CONTINUOUS
 62
     7
 10
206.02375508078589
 20
94.06522359283062
 30
0.0
  0
VERTEX
  5
919
  8
DATA
  6
CONTINUOUS
 62
     7
 10
206.0252108761126
 20
94.06502108036905
 30
0.0
  0
VERTEX
  5
91A
  8
DATA
  6
CONTINUOUS
 62
     7
 10
206.0266698435843
 20
94.064825502052628
 30
0.0
  0
VERTEX
  5
91B
  8
DATA
  6
CONTINUOUS
 62
     7
 10
206.0266698435843
 20
94.064825502052628
 30
0.0
  0
SEQEND
  5
91C
  8
DATA
  6
CONTINUOUS
 62
     7
  0
LINE
  5
3ED
  8
DATA
  6
CONTINUOUS
 62
     7
 10
205.8026044840035
 20
94.316826852730145
 30
0.0
 11
205.8026044840035
 21
94.313687072751009
 31
0.0
  0
LINE
  5
3EE
  8
DATA
  6
CONTINUOUS
 62
     7
 10
222.0
 20
102.4996986705477
 30
0.0
 11
221.03029863793009
 21
102.4996986705477
 31
0.0
  0
LINE
  5
3EF
  8
DATA
  6
CONTINUOUS
 62
     7
 10
221.03029863793009
 20
95.50513502298395
 30
0.0
 11
222.0
 21
95.50513502298395
 31
0.0
  0
LINE
  5
3F0
  8
DATA
  6
CONTINUOUS
 62
     7
 10
217.60410187705619
 20
92.592540750528315
 30
0.0
 11
217.60410187705619
 21
104.1337945234429
 31
0.0
  0
LINE
  5
3F1
  8
DATA
  6
CONTINUOUS
 62
     7
 10
220.13046157041961
 20
104.28766872741249
 30
0.0
 11
217.60410187705619
 21
104.1337945234429
 31
0.0
  0
LINE
  5
3F2
  8
DATA
  6
CONTINUOUS
 62
     7
 10
221.03029863793009
 20
104.34274674225649
 30
0.0
 11
220.13046157041961
 21
104.28766872741249
 31
0.0
  0
LINE
  5
3F3
  8
DATA
  6
CONTINUOUS
 62
     7
 10
221.03029863793009
 20
92.352951385957681
 30
0.0
 11
221.03029863793009
 21
104.34274674225649
 31
0.0
  0
LINE
  5
3F4
  8
DATA
  6
CONTINUOUS
 62
     7
 10
215.98171010231511
 20
103.7620179232476
 30
0.0
 11
206.0298012952334
 21
102.8470344016561
 31
0.0
  0
LINE
  5
3F5
  8
DATA
  6
CONTINUOUS
 62
     7
 10
217.60410187705619
 20
103.9110728009183
 30
0.0
 11
215.98171010231511
 21
103.7620179232476
 31
0.0
  0
LINE
  5
3F6
  8
DATA
  6
CONTINUOUS
 62
     7
 10
206.056307589878
 20
99.63701884904377
 30
0.0
 11
217.60410187705619
 21
99.63701884904377
 31
0.0
  0
LINE
  5
3F7
  8
DATA
  6
CONTINUOUS
 62
     7
 10
206.0298012952334
 20
99.638395799414852
 30
0.0
 11
206.056307589878
 21
99.63701884904377
 31
0.0
  0
LINE
  5
3F8
  8
DATA
  6
CONTINUOUS
 62
     7
 10
206.056307589878
 20
98.368159082080723
 30
0.0
 11
206.0298012952334
 21
98.366782131709627
 31
0.0
  0
LINE
  5
3F9
  8
DATA
  6
CONTINUOUS
 62
     7
 10
206.056307589878
 20
98.368159082080723
 30
0.0
 11
217.60410187705619
 21
98.368159082080723
 31
0.0
  0
LINE
  5
3FA
  8
DATA
  6
CONTINUOUS
 62
     7
 10
214.6512318062444
 20
94.288255132530026
 30
0.0
 11
217.60410187705619
 21
94.018028622203047
 31
0.0
  0
LINE
  5
3FB
  8
DATA
  6
CONTINUOUS
 62
     7
 10
206.056307589878
 20
95.076214982388308
 30
0.0
 11
214.6512318062444
 21
94.288255132530026
 31
0.0
  0
LINE
  5
3FC
  8
DATA
  6
CONTINUOUS
 62
     7
 10
206.0298012952334
 20
95.079657358316368
 30
0.0
 11
206.056307589878
 21
95.076214982388308
 31
0.0
  0
LINE
  5
3FD
  8
DATA
  6
CONTINUOUS
 62
     7
 10
205.8026044840035
 20
99.888656529361285
 30
0.0
 11
205.8026044840035
 21
99.890721954917865
 31
0.0
  0
LINE
  5
3FE
  8
DATA
  6
CONTINUOUS
 62
     7
 10
205.8060468599312
 20
99.849069206192226
 30
0.0
 11
205.8026044840035
 21
99.888656529361285
 31
0.0
  0
LINE
  5
3FF
  8
DATA
  6
CONTINUOUS
 62
     7
 10
205.84838808384319
 20
99.745109453174763
 30
0.0
 11
205.8060468599312
 21
99.849069206192226
 31
0.0
  0
LINE
  5
400
  8
DATA
  6
CONTINUOUS
 62
     7
 10
205.90966237535591
 20
99.683490924068181
 30
0.0
 11
205.84838808384319
 21
99.745109453174763
 31
0.0
  0
LINE
  5
401
  8
DATA
  6
CONTINUOUS
 62
     7
 10
205.96370767742181
 20
99.654574966275291
 30
0.0
 11
205.90966237535591
 21
99.683490924068181
 31
0.0
  0
LINE
  5
402
  8
DATA
  6
CONTINUOUS
 62
     7
 10
206.0298012952334
 20
99.638395799414852
 30
0.0
 11
205.96370767742181
 21
99.654574966275291
 31
0.0
  0
LINE
  5
403
  8
DATA
  6
CONTINUOUS
 62
     7
 10
206.0036392381829
 20
102.8435920257281
 30
0.0
 11
206.0298012952334
 21
102.8470344016561
 31
0.0
  0
LINE
  5
404
  8
DATA
  6
CONTINUOUS
 62
     7
 10
205.9241203542521
 20
102.81605301830631
 30
0.0
 11
206.0036392381829
 21
102.8435920257281
 31
0.0
  0
LINE
  5
405
  8
DATA
  6
CONTINUOUS
 62
     7
 10
205.8594036868117
 20
102.7661385673542
 30
0.0
 11
205.9241203542521
 21
102.81605301830631
 31
0.0
  0
LINE
  5
406
  8
DATA
  6
CONTINUOUS
 62
     7
 10
205.81706246289971
 20
102.70004494954161
 30
0.0
 11
205.8594036868117
 21
102.7661385673542
 31
0.0
  0
LINE
  5
407
  8
DATA
  6
CONTINUOUS
 62
     7
 10
205.8026044840035
 20
102.6256896295026
 30
0.0
 11
205.81706246289971
 21
102.70004494954161
 31
0.0
  0
LINE
  5
408
  8
DATA
  6
CONTINUOUS
 62
     7
 10
205.8026044840035
 20
99.890721954917865
 30
0.0
 11
205.8026044840035
 21
102.6256896295026
 31
0.0
  0
LINE
  5
409
  8
DATA
  6
CONTINUOUS
 62
     7
 10
205.96370767742181
 20
98.350602964849543
 30
0.0
 11
206.0298012952334
 21
98.366782131709627
 31
0.0
  0
LINE
  5
40A
  8
DATA
  6
CONTINUOUS
 62
     7
 10
205.90966237535591
 20
98.321342769463527
 30
0.0
 11
205.96370767742181
 21
98.350602964849543
 31
0.0
  0
LINE
  5
40B
  8
DATA
  6
CONTINUOUS
 62
     7
 10
205.84838808384319
 20
98.259724240357286
 30
0.0
 11
205.90966237535591
 21
98.321342769463527
 31
0.0
  0
LINE
  5
40C
  8
DATA
  6
CONTINUOUS
 62
     7
 10
205.8060468599312
 20
98.155764487339496
 30
0.0
 11
205.84838808384319
 21
98.259724240357286
 31
0.0
  0
LINE
  5
40D
  8
DATA
  6
CONTINUOUS
 62
     7
 10
205.8026044840035
 20
98.116177164170765
 30
0.0
 11
205.8060468599312
 21
98.155764487339496
 31
0.0
  0
LINE
  5
40E
  8
DATA
  6
CONTINUOUS
 62
     7
 10
205.8026044840035
 20
98.114111738614199
 30
0.0
 11
205.8026044840035
 21
98.116177164170765
 31
0.0
  0
LINE
  5
40F
  8
DATA
  6
CONTINUOUS
 62
     7
 10
205.96370767742181
 20
95.103409752217715
 30
0.0
 11
206.0298012952334
 21
95.079657358316368
 31
0.0
  0
LINE
  5
410
  8
DATA
  6
CONTINUOUS
 62
     7
 10
205.90966237535591
 20
95.146783688906893
 30
0.0
 11
205.96370767742181
 21
95.103409752217715
 31
0.0
  0
LINE
  5
411
  8
DATA
  6
CONTINUOUS
 62
     7
 10
205.84838808384319
 20
95.239383601362974
 30
0.0
 11
205.90966237535591
 21
95.146783688906893
 31
0.0
  0
LINE
  5
412
  8
DATA
  6
CONTINUOUS
 62
     7
 10
205.8060468599312
 20
95.398077131631624
 30
0.0
 11
205.84838808384319
 21
95.239383601362974
 31
0.0
  0
LINE
  5
413
  8
DATA
  6
CONTINUOUS
 62
     7
 10
205.8026044840035
 20
95.459007185552693
 30
0.0
 11
205.8060468599312
 21
95.398077131631624
 31
0.0
  0
LINE
  5
414
  8
DATA
  6
CONTINUOUS
 62
     7
 10
205.8026044840035
 20
95.462449561480355
 30
0.0
 11
205.8026044840035
 21
95.459007185552693
 31
0.0
  0
LINE
  5
415
  8
DATA
  6
CONTINUOUS
 62
     7
 10
205.8026044840035
 20
95.462449561480355
 30
0.0
 11
205.8026044840035
 21
98.114111738614199
 31
0.0
  0
LINE
  5
416
  8
DATA
  6
CONTINUOUS
 62
     7
 10
205.8026044840035
 20
98.114111738614199
 30
0.0
 11
205.8026044840035
 21
99.890721954917865
 31
0.0
  0
LINE
  5
417
  8
DATA
  6
CONTINUOUS
 62
     7
 10
217.60410187705619
 20
93.622843865699025
 30
0.0
 11
206.056307589878
 21
94.706848045342653
 31
0.0
  0
LINE
  5
418
  8
DATA
  6
CONTINUOUS
 62
     7
 10
206.0470131748732
 20
94.70788075812095
 30
0.0
 11
206.056307589878
 21
94.706848045342653
 31
0.0
  0
LINE
  5
419
  8
DATA
  6
CONTINUOUS
 62
     7
 10
206.0380629974612
 20
94.708224995713707
 30
0.0
 11
206.0470131748732
 21
94.70788075812095
 31
0.0
  0
LINE
  5
41A
  8
DATA
  6
CONTINUOUS
 62
     7
 10
206.02876858245639
 20
94.708913470899262
 30
0.0
 11
206.0380629974612
 21
94.708224995713707
 31
0.0
  0
LINE
  5
41B
  8
DATA
  6
CONTINUOUS
 62
     7
 10
205.98332922020961
 20
94.712011609234196
 30
0.0
 11
206.02876858245639
 21
94.708913470899262
 31
0.0
  0
LINE
  5
41C
  8
DATA
  6
CONTINUOUS
 62
     7
 10
205.94064375870639
 20
94.718552123496764
 30
0.0
 11
205.98332922020961
 21
94.712011609234196
 31
0.0
  0
LINE
  5
41D
  8
DATA
  6
CONTINUOUS
 62
     7
 10
205.90140067312939
 20
94.727502300909066
 30
0.0
 11
205.94064375870639
 21
94.718552123496764
 31
0.0
  0
LINE
  5
41E
  8
DATA
  6
CONTINUOUS
 62
     7
 10
205.8673211514454
 20
94.739206379063205
 30
0.0
 11
205.90140067312939
 21
94.727502300909066
 31
0.0
  0
LINE
  5
41F
  8
DATA
  6
CONTINUOUS
 62
     7
 10
205.83978214402251
 20
94.752631645181523
 30
0.0
 11
205.8673211514454
 21
94.739206379063205
 31
0.0
  0
LINE
  5
420
  8
DATA
  6
CONTINUOUS
 62
     7
 10
205.81912788845631
 20
94.767778099263296
 30
0.0
 11
205.83978214402251
 21
94.752631645181523
 31
0.0
  0
LINE
  5
421
  8
DATA
  6
CONTINUOUS
 62
     7
 10
205.8067353351166
 20
94.784301503716549
 30
0.0
 11
205.81912788845631
 21
94.767778099263296
 31
0.0
  0
LINE
  5
422
  8
DATA
  6
CONTINUOUS
 62
     7
 10
205.8026044840035
 20
94.801169145762543
 30
0.0
 11
205.8067353351166
 21
94.784301503716549
 31
0.0
  0
LINE
  5
423
  8
DATA
  6
CONTINUOUS
 62
     7
 10
205.8026044840035
 20
94.801169145762543
 30
0.0
 11
205.8026044840035
 21
95.689302135117842
 31
0.0
  0
LINE
  5
424
  8
DATA
  6
CONTINUOUS
 62
     7
 10
214.6512318062444
 20
93.653825249048523
 30
0.0
 11
217.60410187705619
 21
93.383598738721503
 31
0.0
  0
LINE
  5
425
  8
DATA
  6
CONTINUOUS
 62
     7
 10
206.056307589878
 20
94.441785098907175
 30
0.0
 11
214.6512318062444
 21
93.653825249048523
 31
0.0
  0
LINE
  5
426
  8
DATA
  6
CONTINUOUS
 62
     7
 10
206.056307589878
 20
94.441785098907175
 30
0.0
 11
206.0298012952334
 21
94.443506286870999
 31
0.0
  0
LINE
  5
427
  8
DATA
  6
CONTINUOUS
 62
     7
 10
205.96370767742181
 20
94.451423751504691
 30
0.0
 11
206.0298012952334
 21
94.443506286870999
 31
0.0
  0
LINE
  5
428
  8
DATA
  6
CONTINUOUS
 62
     7
 10
205.90966237535591
 20
94.465881730401293
 30
0.0
 11
205.96370767742181
 21
94.451423751504691
 31
0.0
  0
LINE
  5
429
  8
DATA
  6
CONTINUOUS
 62
     7
 10
205.84838808384319
 20
94.496863113750805
 30
0.0
 11
205.90966237535591
 21
94.465881730401293
 31
0.0
  0
LINE
  5
42A
  8
DATA
  6
CONTINUOUS
 62
     7
 10
205.8060468599312
 20
94.551252653408866
 30
0.0
 11
205.84838808384319
 21
94.496863113750805
 31
0.0
  0
LINE
  5
42B
  8
DATA
  6
CONTINUOUS
 62
     7
 10
205.8026044840035
 20
94.572939621753633
 30
0.0
 11
205.8060468599312
 21
94.551252653408866
 31
0.0
  0
LINE
  5
42C
  8
DATA
  6
CONTINUOUS
 62
     7
 10
205.8026044840035
 20
94.573972334531973
 30
0.0
 11
205.8026044840035
 21
94.572939621753633
 31
0.0
  0
LINE
  5
42D
  8
DATA
  6
CONTINUOUS
 62
     7
 10
205.8026044840035
 20
94.573972334531973
 30
0.0
 11
205.8026044840035
 21
94.801169145762543
 31
0.0
  0
LINE
  5
42E
  8
DATA
  6
CONTINUOUS
 62
     7
 10
205.8026044840035
 20
94.316826852730145
 30
0.0
 11
205.8026044840035
 21
94.573972334531973
 31
0.0
  0
LINE
  5
42F
  8
DATA
  6
CONTINUOUS
 62
     7
 10
205.8026044840035
 20
95.462449561480355
 30
0.0
 11
205.8026044840035
 21
95.689302135117842
 31
0.0
  0
LINE
  5
430
  8
DATA
  6
CONTINUOUS
 62
     7
 10
206.0298012952334
 20
102.8470344016561
 30
0.0
 11
206.0298012952334
 21
99.638395799414852
 31
0.0
  0
LINE
  5
431
  8
DATA
  6
CONTINUOUS
 62
     7
 10
206.0298012952334
 20
98.366782131709627
 30
0.0
 11
206.0298012952334
 21
95.079657358316368
 31
0.0
  0
LINE
  5
432
  8
DATA
  6
CONTINUOUS
 62
     7
 10
206.02876858245639
 20
99.638395799414852
 30
0.0
 11
206.02876858245639
 21
98.366437894116885
 31
0.0
  0
LINE
  5
433
  8
DATA
  6
CONTINUOUS
 62
     7
 10
206.02876858245639
 20
95.079657358316368
 30
0.0
 11
206.02876858245639
 21
94.708913470899262
 31
0.0
  0
LINE
  5
434
  8
DATA
  6
CONTINUOUS
 62
     7
 10
206.056307589878
 20
94.706848045342653
 30
0.0
 11
206.056307589878
 21
94.441785098907175
 31
0.0
  0
LINE
  5
435
  8
DATA
  6
CONTINUOUS
 62
     7
 10
206.0298012952334
 20
94.443506286870999
 30
0.0
 11
206.0298012952334
 21
94.064500697227459
 31
0.0
  0
LINE
  5
436
  8
DATA
  6
CONTINUOUS
 62
     7
 10
231.5426103092729
 20
48.160044754699364
 30
0.0
 11
225.0
 21
48.160044754699364
 31
0.0
  0
LINE
  5
437
  8
DATA
  6
CONTINUOUS
 62
     7
 10
231.5800000000001
 20
42.779266942057831
 30
0.0
 11
225.0
 21
42.779266942057831
 31
0.0
  0
POLYLINE
  5
438
  8
DATA
  6
CONTINUOUS
 62
     7
 66
     1
 10
0.0
 20
0.0
 30
0.0
 70
     1
  0
VERTEX
  5
91D
  8
DATA
  6
CONTINUOUS
 62
     7
 10
232.03530616759281
 20
64.700000000000045
 30
0.0
  0
VERTEX
  5
91E
  8
DATA
  6
CONTINUOUS
 62
     7
 10
241.03530616759281
 20
64.700000000000045
 30
0.0
  0
VERTEX
  5
91F
  8
DATA
  6
CONTINUOUS
 62
     7
 10
241.03530616759281
 20
51.0
 30
0.0
  0
VERTEX
  5
920
  8
DATA
  6
CONTINUOUS
 62
     7
 10
232.03530616759281
 20
51.0
 30
0.0
  0
SEQEND
  5
921
  8
DATA
  6
CONTINUOUS
 62
     7
  0
POLYLINE
  5
43F
  8
DATA
  6
CONTINUOUS
 62
     7
 66
     1
 10
0.0
 20
0.0
 30
0.0
 70
     1
  0
VERTEX
  5
922
  8
DATA
  6
CONTINUOUS
 62
     7
 10
232.03530616759281
 20
80.192818423551884
 30
0.0
  0
VERTEX
  5
923
  8
DATA
  6
CONTINUOUS
 62
     7
 10
241.03530616759281
 20
80.192818423551884
 30
0.0
  0
VERTEX
  5
924
  8
DATA
  6
CONTINUOUS
 62
     7
 10
241.03530616759281
 20
66.492818423551853
 30
0.0
  0
VERTEX
  5
925
  8
DATA
  6
CONTINUOUS
 62
     7
 10
232.03530616759281
 20
66.492818423551853
 30
0.0
  0
SEQEND
  5
926
  8
DATA
  6
CONTINUOUS
 62
     7
  0
LINE
  5
446
  8
DATA
  6
CONTINUOUS
 62
     7
 10
243.6088162041608
 20
66.492818423551853
 30
0.0
 11
243.6088162041608
 21
80.192818423551884
 31
0.0
  0
LINE
  5
447
  8
DATA
  6
CONTINUOUS
 62
     7
 10
243.6088162041608
 20
51.0
 30
0.0
 11
243.6088162041608
 21
64.700000000000045
 31
0.0
  0
LINE
  5
448
  8
DATA
  6
CONTINUOUS
 62
     7
 10
243.6088162041608
 20
80.192818423551884
 30
0.0
 11
242.6088162041608
 21
80.192818423551884
 31
0.0
  0
LINE
  5
449
  8
DATA
  6
CONTINUOUS
 62
     7
 10
243.6088162041608
 20
66.492818423551853
 30
0.0
 11
242.6088162041608
 21
66.492818423551853
 31
0.0
  0
LINE
  5
44A
  8
DATA
  6
CONTINUOUS
 62
     7
 10
243.6088162041608
 20
64.700000000000045
 30
0.0
 11
242.6088162041608
 21
64.700000000000045
 31
0.0
  0
LINE
  5
44B
  8
DATA
  6
CONTINUOUS
 62
     7
 10
243.6088162041608
 20
51.0
 30
0.0
 11
242.6088162041608
 21
51.0
 31
0.0
  0
LINE
  5
44C
  8
DATA
  6
CONTINUOUS
 62
     7
 10
35.000000000000092
 20
172.0
 30
0.0
 11
-35.000000000000007
 21
172.0
 31
0.0
  0
LINE
  5
44D
  8
DATA
  6
CONTINUOUS
 62
     7
 10
35.000000000000092
 20
175.0
 30
0.0
 11
-35.000000000000007
 21
175.0
 31
0.0
  0
LINE
  5
44E
  8
DATA
  6
CONTINUOUS
 62
     7
 10
-35.000000000000007
 20
172.0
 30
0.0
 11
-35.000000000000007
 21
175.0
 31
0.0
  0
LINE
  5
44F
  8
DATA
  6
CONTINUOUS
 62
     7
 10
35.000000000000092
 20
172.0
 30
0.0
 11
35.000000000000092
 21
175.0
 31
0.0
  0
LINE
  5
450
  8
DATA
  6
CONTINUOUS
 62
     7
 10
-5.8213951039530931
 20
167.6045906464152
 30
0.0
 11
-6.0609844685237269
 21
171.03078740728901
 31
0.0
  0
LINE
  5
451
  8
DATA
  6
CONTINUOUS
 62
     7
 10
-4.34943515725395
 20
156.03029006459269
 30
0.0
 11
-5.5659708101154726
 21
167.6045906464152
 31
0.0
  0
LINE
  5
452
  8
DATA
  6
CONTINUOUS
 62
     7
 10
-4.3491103524287524
 20
156.02715861294351
 30
0.0
 11
-4.34943515725395
 21
156.03029006459269
 31
0.0
  0
POLYLINE
  5
453
  8
DATA
  6
CONTINUOUS
 62
     7
 66
     1
 10
0.0
 20
0.0
 30
0.0
 70
   128
  0
VERTEX
  5
927
  8
DATA
  6
CONTINUOUS
 62
     7
 10
-4.1002487817304001
 20
155.8030932533627
 30
0.0
  0
VERTEX
  5
928
  8
DATA
  6
CONTINUOUS
 62
     7
 10
-4.1017193622411829
 20
155.80313926331269
 30
0.0
  0
VERTEX
  5
929
  8
DATA
  6
CONTINUOUS
 62
     7
 10
-4.1031875320932576
 20
155.80319242939581
 30
0.0
  0
VERTEX
  5
92A
  8
DATA
  6
CONTINUOUS
 62
     7
 10
-4.1046532912865947
 20
155.80325275161209
 30
0.0
  0
VERTEX
  5
92B
  8
DATA
  6
CONTINUOUS
 62
     7
 10
-4.1061166398211952
 20
155.80332022996151
 30
0.0
  0
VERTEX
  5
92C
  8
DATA
  6
CONTINUOUS
 62
     7
 10
-4.1075775776970724
 20
155.8033948644439
 30
0.0
  0
VERTEX
  5
92D
  8
DATA
  6
CONTINUOUS
 62
     7
 10
-4.1090361049142379
 20
155.80347665505951
 30
0.0
  0
VERTEX
  5
92E
  8
DATA
  6
CONTINUOUS
 62
     7
 10
-4.1104922214726543
 20
155.8035656018082
 30
0.0
  0
VERTEX
  5
92F
  8
DATA
  6
CONTINUOUS
 62
     7
 10
-4.1119459273723598
 20
155.80366170469009
 30
0.0
  0
VERTEX
  5
930
  8
DATA
  6
CONTINUOUS
 62
     7
 10
-4.1133972226133286
 20
155.80376496370499
 30
0.0
  0
VERTEX
  5
931
  8
DATA
  6
CONTINUOUS
 62
     7
 10
-4.1148461071955884
 20
155.80387537885309
 30
0.0
  0
VERTEX
  5
932
  8
DATA
  6
CONTINUOUS
 62
     7
 10
-4.1162925811190956
 20
155.8039929501343
 30
0.0
  0
VERTEX
  5
933
  8
DATA
  6
CONTINUOUS
 62
     7
 10
-4.1177366443838963
 20
155.80411767754859
 30
0.0
  0
VERTEX
  5
934
  8
DATA
  6
CONTINUOUS
 62
     7
 10
-4.1191782969899444
 20
155.80424956109599
 30
0.0
  0
VERTEX
  5
935
  8
DATA
  6
CONTINUOUS
 62
     7
 10
-4.1206175389372808
 20
155.8043886007766
 30
0.0
  0
VERTEX
  5
936
  8
DATA
  6
CONTINUOUS
 62
     7
 10
-4.1220543702258814
 20
155.8045347965903
 30
0.0
  0
VERTEX
  5
937
  8
DATA
  6
CONTINUOUS
 62
     7
 10
-4.1234887908557729
 20
155.804688148537
 30
0.0
  0
VERTEX
  5
938
  8
DATA
  6
CONTINUOUS
 62
     7
 10
-4.1249208008269269
 20
155.80484865661691
 30
0.0
  0
VERTEX
  5
939
  8
DATA
  6
CONTINUOUS
 62
     7
 10
-4.1263504001393594
 20
155.80501632082999
 30
0.0
  0
VERTEX
  5
93A
  8
DATA
  6
CONTINUOUS
 62
     7
 10
-4.1277775887930508
 20
155.8051911411761
 30
0.0
  0
VERTEX
  5
93B
  8
DATA
  6
CONTINUOUS
 62
     7
 10
-4.1292023667880207
 20
155.80537311765539
 30
0.0
  0
VERTEX
  5
93C
  8
DATA
  6
CONTINUOUS
 62
     7
 10
-4.130624734124253
 20
155.8055622502678
 30
0.0
  0
VERTEX
  5
93D
  8
DATA
  6
CONTINUOUS
 62
     7
 10
-4.1320446908017772
 20
155.80575853901331
 30
0.0
  0
VERTEX
  5
93E
  8
DATA
  6
CONTINUOUS
 62
     7
 10
-4.133462236820562
 20
155.8059619838919
 30
0.0
  0
VERTEX
  5
93F
  8
DATA
  6
CONTINUOUS
 62
     7
 10
-4.1348773721806236
 20
155.80617258490361
 30
0.0
  0
VERTEX
  5
940
  8
DATA
  6
CONTINUOUS
 62
     7
 10
-4.1362900968819503
 20
155.8063903420485
 30
0.0
  0
VERTEX
  5
941
  8
DATA
  6
CONTINUOUS
 62
     7
 10
-4.1377004109245661
 20
155.80661525532651
 30
0.0
  0
VERTEX
  5
942
  8
DATA
  6
CONTINUOUS
 62
     7
 10
-4.1391083143084444
 20
155.80684732473759
 30
0.0
  0
VERTEX
  5
943
  8
DATA
  6
CONTINUOUS
 62
     7
 10
-4.1405138070336003
 20
155.80708655028181
 30
0.0
  0
VERTEX
  5
944
  8
DATA
  6
CONTINUOUS
 62
     7
 10
-4.141916889100016
 20
155.80733293195911
 30
0.0
  0
VERTEX
  5
945
  8
DATA
  6
CONTINUOUS
 62
     7
 10
-4.1433175605077244
 20
155.8075864697696
 30
0.0
  0
VERTEX
  5
946
  8
DATA
  6
CONTINUOUS
 62
     7
 10
-4.1447158212566961
 20
155.80784716371321
 30
0.0
  0
VERTEX
  5
947
  8
DATA
  6
CONTINUOUS
 62
     7
 10
-4.1461116713469286
 20
155.80811501378989
 30
0.0
  0
VERTEX
  5
948
  8
DATA
  6
CONTINUOUS
 62
     7
 10
-4.1475051107784404
 20
155.80839001999971
 30
0.0
  0
VERTEX
  5
949
  8
DATA
  6
CONTINUOUS
 62
     7
 10
-4.1488961395512396
 20
155.8086721823426
 30
0.0
  0
VERTEX
  5
94A
  8
DATA
  6
CONTINUOUS
 62
     7
 10
-4.1502847576652888
 20
155.8089615008187
 30
0.0
  0
VERTEX
  5
94B
  8
DATA
  6
CONTINUOUS
 62
     7
 10
-4.1516709651206289
 20
155.8092579754279
 30
0.0
  0
VERTEX
  5
94C
  8
DATA
  6
CONTINUOUS
 62
     7
 10
-4.1530547619172324
 20
155.80956160617021
 30
0.0
  0
VERTEX
  5
94D
  8
DATA
  6
CONTINUOUS
 62
     7
 10
-4.1544361480551109
 20
155.80987239304559
 30
0.0
  0
VERTEX
  5
94E
  8
DATA
  6
CONTINUOUS
 62
     7
 10
-4.1558151235342526
 20
155.81019033605409
 30
0.0
  0
VERTEX
  5
94F
  8
DATA
  6
CONTINUOUS
 62
     7
 10
-4.157191688354672
 20
155.81051543519581
 30
0.0
  0
VERTEX
  5
950
  8
DATA
  6
CONTINUOUS
 62
     7
 10
-4.1585658425163521
 20
155.81084769047061
 30
0.0
  0
VERTEX
  5
951
  8
DATA
  6
CONTINUOUS
 62
     7
 10
-4.159937586019324
 20
155.8111871018784
 30
0.0
  0
VERTEX
  5
952
  8
DATA
  6
CONTINUOUS
 62
     7
 10
-4.1613069188635592
 20
155.81153366941939
 30
0.0
  0
VERTEX
  5
953
  8
DATA
  6
CONTINUOUS
 62
     7
 10
-4.1626738410490836
 20
155.8118873930936
 30
0.0
  0
VERTEX
  5
954
  8
DATA
  6
CONTINUOUS
 62
     7
 10
-4.1640383525758571
 20
155.8122482729008
 30
0.0
  0
VERTEX
  5
955
  8
DATA
  6
CONTINUOUS
 62
     7
 10
-4.1654004534439206
 20
155.8126163088412
 30
0.0
  0
VERTEX
  5
956
  8
DATA
  6
CONTINUOUS
 62
     7
 10
-4.1667601436532351
 20
155.81299150091471
 30
0.0
  0
VERTEX
  5
957
  8
DATA
  6
CONTINUOUS
 62
     7
 10
-4.1681174232038387
 20
155.81337384912129
 30
0.0
  0
VERTEX
  5
958
  8
DATA
  6
CONTINUOUS
 62
     7
 10
-4.1694722920957039
 20
155.8137633534611
 30
0.0
  0
VERTEX
  5
959
  8
DATA
  6
CONTINUOUS
 62
     7
 10
-4.1708247503288609
 20
155.8141600139339
 30
0.0
  0
VERTEX
  5
95A
  8
DATA
  6
CONTINUOUS
 62
     7
 10
-4.1721747979032671
 20
155.81456383053981
 30
0.0
  0
VERTEX
  5
95B
  8
DATA
  6
CONTINUOUS
 62
     7
 10
-4.1735224348189632
 20
155.81497480327889
 30
0.0
  0
VERTEX
  5
95C
  8
DATA
  6
CONTINUOUS
 62
     7
 10
-4.1748676610759361
 20
155.8153929321511
 30
0.0
  0
VERTEX
  5
95D
  8
DATA
  6
CONTINUOUS
 62
     7
 10
-4.1762104766741706
 20
155.8158182171565
 30
0.0
  0
VERTEX
  5
95E
  8
DATA
  6
CONTINUOUS
 62
     7
 10
-4.1775508816136684
 20
155.8162506582949
 30
0.0
  0
VERTEX
  5
95F
  8
DATA
  6
CONTINUOUS
 62
     7
 10
-4.178888875894458
 20
155.8166902555665
 30
0.0
  0
VERTEX
  5
960
  8
DATA
  6
CONTINUOUS
 62
     7
 10
-4.1802244595165092
 20
155.81713700897109
 30
0.0
  0
VERTEX
  5
961
  8
DATA
  6
CONTINUOUS
 62
     7
 10
-4.1815576324798513
 20
155.8175909185089
 30
0.0
  0
VERTEX
  5
962
  8
DATA
  6
CONTINUOUS
 62
     7
 10
-4.1828883947844551
 20
155.8180519841799
 30
0.0
  0
VERTEX
  5
963
  8
DATA
  6
CONTINUOUS
 62
     7
 10
-4.184216746430323
 20
155.8185202059839
 30
0.0
  0
VERTEX
  5
964
  8
DATA
  6
CONTINUOUS
 62
     7
 10
-4.1855426874174517
 20
155.81899558392109
 30
0.0
  0
VERTEX
  5
965
  8
DATA
  6
CONTINUOUS
 62
     7
 10
-4.1868662177458731
 20
155.81947811799139
 30
0.0
  0
VERTEX
  5
966
  8
DATA
  6
CONTINUOUS
 62
     7
 10
-4.188187337415556
 20
155.8199678081948
 30
0.0
  0
VERTEX
  5
967
  8
DATA
  6
CONTINUOUS
 62
     7
 10
-4.189506046426529
 20
155.82046465453129
 30
0.0
  0
VERTEX
  5
968
  8
DATA
  6
CONTINUOUS
 62
     7
 10
-4.189506046426529
 20
155.82046465453129
 30
0.0
  0
VERTEX
  5
969
  8
DATA
  6
CONTINUOUS
 62
     7
 10
-4.1908218751831461
 20
155.82096891599261
 30
0.0
  0
VERTEX
  5
96A
  8
DATA
  6
CONTINUOUS
 62
     7
 10
-4.1921343540897871
 20
155.8214808515707
 30
0.0
  0
VERTEX
  5
96B
  8
DATA
  6
CONTINUOUS
 62
     7
 10
-4.193443483146452
 20
155.82200046126519
 30
0.0
  0
VERTEX
  5
96C
  8
DATA
  6
CONTINUOUS
 62
     7
 10
-4.1947492623531408
 20
155.8225277450764
 30
0.0
  0
VERTEX
  5
96D
  8
DATA
  6
CONTINUOUS
 62
     7
 10
-4.1960516917098678
 20
155.82306270300421
 30
0.0
  0
VERTEX
  5
96E
  8
DATA
  6
CONTINUOUS
 62
     7
 10
-4.1973507712166187
 20
155.8236053350486
 30
0.0
  0
VERTEX
  5
96F
  8
DATA
  6
CONTINUOUS
 62
     7
 10
-4.1986465008734077
 20
155.8241556412097
 30
0.0
  0
VERTEX
  5
970
  8
DATA
  6
CONTINUOUS
 62
     7
 10
-4.1999388806802207
 20
155.82471362148721
 30
0.0
  0
VERTEX
  5
971
  8
DATA
  6
CONTINUOUS
 62
     7
 10
-4.2012279106370576
 20
155.8252792758814
 30
0.0
  0
VERTEX
  5
972
  8
DATA
  6
CONTINUOUS
 62
     7
 10
-4.2025135907439193
 20
155.82585260439231
 30
0.0
  0
VERTEX
  5
973
  8
DATA
  6
CONTINUOUS
 62
     7
 10
-4.2037959210008173
 20
155.82643360701971
 30
0.0
  0
VERTEX
  5
974
  8
DATA
  6
CONTINUOUS
 62
     7
 10
-4.2050749014077411
 20
155.82702228376371
 30
0.0
  0
VERTEX
  5
975
  8
DATA
  6
CONTINUOUS
 62
     7
 10
-4.206350531964687
 20
155.82761863462429
 30
0.0
  0
VERTEX
  5
976
  8
DATA
  6
CONTINUOUS
 62
     7
 10
-4.2076228126716577
 20
155.82822265960161
 30
0.0
  0
VERTEX
  5
977
  8
DATA
  6
CONTINUOUS
 62
     7
 10
-4.2088917435286683
 20
155.82883435869539
 30
0.0
  0
VERTEX
  5
978
  8
DATA
  6
CONTINUOUS
 62
     7
 10
-4.2101573245357002
 20
155.82945373190589
 30
0.0
  0
VERTEX
  5
979
  8
DATA
  6
CONTINUOUS
 62
     7
 10
-4.2114195556927561
 20
155.8300807792329
 30
0.0
  0
VERTEX
  5
97A
  8
DATA
  6
CONTINUOUS
 62
     7
 10
-4.2126784369998509
 20
155.8307155006766
 30
0.0
  0
VERTEX
  5
97B
  8
DATA
  6
CONTINUOUS
 62
     7
 10
-4.2139339684569697
 20
155.8313578962368
 30
0.0
  0
VERTEX
  5
97C
  8
DATA
  6
CONTINUOUS
 62
     7
 10
-4.2151861500641132
 20
155.8320079659137
 30
0.0
  0
VERTEX
  5
97D
  8
DATA
  6
CONTINUOUS
 62
     7
 10
-4.216434981821279
 20
155.83266570970719
 30
0.0
  0
VERTEX
  5
97E
  8
DATA
  6
CONTINUOUS
 62
     7
 10
-4.2176804637284837
 20
155.83333112761721
 30
0.0
  0
VERTEX
  5
97F
  8
DATA
  6
CONTINUOUS
 62
     7
 10
-4.2189225957857284
 20
155.8340042196439
 30
0.0
  0
VERTEX
  5
980
  8
DATA
  6
CONTINUOUS
 62
     7
 10
-4.2201613779929934
 20
155.83468498578719
 30
0.0
  0
VERTEX
  5
981
  8
DATA
  6
CONTINUOUS
 62
     7
 10
-4.2213968103502699
 20
155.835373426047
 30
0.0
  0
VERTEX
  5
982
  8
DATA
  6
CONTINUOUS
 62
     7
 10
-4.2226288928575846
 20
155.83606954042349
 30
0.0
  0
VERTEX
  5
983
  8
DATA
  6
CONTINUOUS
 62
     7
 10
-4.2238576255149241
 20
155.83677332891659
 30
0.0
  0
VERTEX
  5
984
  8
DATA
  6
CONTINUOUS
 62
     7
 10
-4.2250830083222999
 20
155.83748479152641
 30
0.0
  0
VERTEX
  5
985
  8
DATA
  6
CONTINUOUS
 62
     7
 10
-4.2263050412796996
 20
155.8382039282526
 30
0.0
  0
VERTEX
  5
986
  8
DATA
  6
CONTINUOUS
 62
     7
 10
-4.227523724387126
 20
155.8389307390955
 30
0.0
  0
VERTEX
  5
987
  8
DATA
  6
CONTINUOUS
 62
     7
 10
-4.2287390576445878
 20
155.83966522405501
 30
0.0
  0
VERTEX
  5
988
  8
DATA
  6
CONTINUOUS
 62
     7
 10
-4.2299510410520753
 20
155.84040738313109
 30
0.0
  0
VERTEX
  5
989
  8
DATA
  6
CONTINUOUS
 62
     7
 10
-4.231159674609585
 20
155.84115721632389
 30
0.0
  0
VERTEX
  5
98A
  8
DATA
  6
CONTINUOUS
 62
     7
 10
-4.2323649583171203
 20
155.84191472363321
 30
0.0
  0
VERTEX
  5
98B
  8
DATA
  6
CONTINUOUS
 62
     7
 10
-4.2335668921746921
 20
155.8426799050591
 30
0.0
  0
VERTEX
  5
98C
  8
DATA
  6
CONTINUOUS
 62
     7
 10
-4.2347654761822886
 20
155.84345276060159
 30
0.0
  0
VERTEX
  5
98D
  8
DATA
  6
CONTINUOUS
 62
     7
 10
-4.2359607103399091
 20
155.84423329026069
 30
0.0
  0
VERTEX
  5
98E
  8
DATA
  6
CONTINUOUS
 62
     7
 10
-4.2371525946475677
 20
155.8450214940365
 30
0.0
  0
VERTEX
  5
98F
  8
DATA
  6
CONTINUOUS
 62
     7
 10
-4.2383411291052511
 20
155.8458173719288
 30
0.0
  0
VERTEX
  5
990
  8
DATA
  6
CONTINUOUS
 62
     7
 10
-4.2395263137129708
 20
155.84662092393779
 30
0.0
  0
VERTEX
  5
991
  8
DATA
  6
CONTINUOUS
 62
     7
 10
-4.2407081484707021
 20
155.8474321500633
 30
0.0
  0
VERTEX
  5
992
  8
DATA
  6
CONTINUOUS
 62
     7
 10
-4.2418866333784564
 20
155.84825105030541
 30
0.0
  0
VERTEX
  5
993
  8
DATA
  6
CONTINUOUS
 62
     7
 10
-4.2430617684362479
 20
155.8490776246642
 30
0.0
  0
VERTEX
  5
994
  8
DATA
  6
CONTINUOUS
 62
     7
 10
-4.2442335536440803
 20
155.8499118731396
 30
0.0
  0
VERTEX
  5
995
  8
DATA
  6
CONTINUOUS
 62
     7
 10
-4.245401989001933
 20
155.85075379573161
 30
0.0
  0
VERTEX
  5
996
  8
DATA
  6
CONTINUOUS
 62
     7
 10
-4.2465670745098123
 20
155.8516033924401
 30
0.0
  0
VERTEX
  5
997
  8
DATA
  6
CONTINUOUS
 62
     7
 10
-4.2477288101677138
 20
155.8524606632653
 30
0.0
  0
VERTEX
  5
998
  8
DATA
  6
CONTINUOUS
 62
     7
 10
-4.2488871959756551
 20
155.853325608207
 30
0.0
  0
VERTEX
  5
999
  8
DATA
  6
CONTINUOUS
 62
     7
 10
-4.2500422319336204
 20
155.85419822726541
 30
0.0
  0
VERTEX
  5
99A
  8
DATA
  6
CONTINUOUS
 62
     7
 10
-4.251193918041607
 20
155.8550785204404
 30
0.0
  0
VERTEX
  5
99B
  8
DATA
  6
CONTINUOUS
 62
     7
 10
-4.2523422542996334
 20
155.85596648773199
 30
0.0
  0
VERTEX
  5
99C
  8
DATA
  6
CONTINUOUS
 62
     7
 10
-4.2534872407076838
 20
155.85686212914021
 30
0.0
  0
VERTEX
  5
99D
  8
DATA
  6
CONTINUOUS
 62
     7
 10
-4.2546288772657581
 20
155.85776544466501
 30
0.0
  0
VERTEX
  5
99E
  8
DATA
  6
CONTINUOUS
 62
     7
 10
-4.2557671639738572
 20
155.8586764343064
 30
0.0
  0
VERTEX
  5
99F
  8
DATA
  6
CONTINUOUS
 62
     7
 10
-4.2569021008319927
 20
155.8595950980644
 30
0.0
  0
VERTEX
  5
9A0
  8
DATA
  6
CONTINUOUS
 62
     7
 10
-4.258033687840153
 20
155.86052143593901
 30
0.0
  0
VERTEX
  5
9A1
  8
DATA
  6
CONTINUOUS
 62
     7
 10
-4.2591619249983372
 20
155.86145544793021
 30
0.0
  0
VERTEX
  5
9A2
  8
DATA
  6
CONTINUOUS
 62
     7
 10
-4.2602868123065454
 20
155.86239713403799
 30
0.0
  0
VERTEX
  5
9A3
  8
DATA
  6
CONTINUOUS
 62
     7
 10
-4.2614083497647917
 20
155.8633464942624
 30
0.0
  0
VERTEX
  5
9A4
  8
DATA
  6
CONTINUOUS
 62
     7
 10
-4.2625265373730628
 20
155.8643035286035
 30
0.0
  0
VERTEX
  5
9A5
  8
DATA
  6
CONTINUOUS
 62
     7
 10
-4.2636413751313711
 20
155.86526823706109
 30
0.0
  0
VERTEX
  5
9A6
  8
DATA
  6
CONTINUOUS
 62
     7
 10
-4.2647528630397042
 20
155.86624061963531
 30
0.0
  0
VERTEX
  5
9A7
  8
DATA
  6
CONTINUOUS
 62
     7
 10
-4.2658610010980604
 20
155.86722067632621
 30
0.0
  0
VERTEX
  5
9A8
  8
DATA
  6
CONTINUOUS
 62
     7
 10
-4.2669657893064388
 20
155.86820840713361
 30
0.0
  0
VERTEX
  5
9A9
  8
DATA
  6
CONTINUOUS
 62
     7
 10
-4.2669657893064388
 20
155.86820840713361
 30
0.0
  0
VERTEX
  5
9AA
  8
DATA
  6
CONTINUOUS
 62
     7
 10
-4.2680652524589808
 20
155.8692020528774
 30
0.0
  0
VERTEX
  5
9AB
  8
DATA
  6
CONTINUOUS
 62
     7
 10
-4.2691574153498522
 20
155.8701998543774
 30
0.0
  0
VERTEX
  5
9AC
  8
DATA
  6
CONTINUOUS
 62
     7
 10
-4.2702422779790226
 20
155.8712018116336
 30
0.0
  0
VERTEX
  5
9AD
  8
DATA
  6
CONTINUOUS
 62
     7
 10
-4.2713198403465071
 20
155.87220792464601
 30
0.0
  0
VERTEX
  5
9AE
  8
DATA
  6
CONTINUOUS
 62
     7
 10
-4.2723901024522908
 20
155.87321819341449
 30
0.0
  0
VERTEX
  5
9AF
  8
DATA
  6
CONTINUOUS
 62
     7
 10
-4.2734530642963904
 20
155.87423261793921
 30
0.0
  0
VERTEX
  5
9B0
  8
DATA
  6
CONTINUOUS
 62
     7
 10
-4.2745087258787891
 20
155.8752511982201
 30
0.0
  0
VERTEX
  5
9B1
  8
DATA
  6
CONTINUOUS
 62
     7
 10
-4.2755570871995161
 20
155.87627393425711
 30
0.0
  0
VERTEX
  5
9B2
  8
DATA
  6
CONTINUOUS
 62
     7
 10
-4.2765981482585431
 20
155.87730082605029
 30
0.0
  0
VERTEX
  5
9B3
  8
DATA
  6
CONTINUOUS
 62
     7
 10
-4.2776319090558843
 20
155.87833187359971
 30
0.0
  0
VERTEX
  5
9B4
  8
DATA
  6
CONTINUOUS
 62
     7
 10
-4.2786583695915246
 20
155.87936707690531
 30
0.0
  0
VERTEX
  5
9B5
  8
DATA
  6
CONTINUOUS
 62
     7
 10
-4.2796775298654799
 20
155.88040643596699
 30
0.0
  0
VERTEX
  5
9B6
  8
DATA
  6
CONTINUOUS
 62
     7
 10
-4.2806893898777361
 20
155.88144995078491
 30
0.0
  0
VERTEX
  5
9B7
  8
DATA
  6
CONTINUOUS
 62
     7
 10
-4.2816939496283188
 20
155.88249762135899
 30
0.0
  0
VERTEX
  5
9B8
  8
DATA
  6
CONTINUOUS
 62
     7
 10
-4.2826912091172034
 20
155.88354944768921
 30
0.0
  0
VERTEX
  5
9B9
  8
DATA
  6
CONTINUOUS
 62
     7
 10
-4.2836811683443861
 20
155.8846054297756
 30
0.0
  0
VERTEX
  5
9BA
  8
DATA
  6
CONTINUOUS
 62
     7
 10
-4.2846638273098838
 20
155.88566556761819
 30
0.0
  0
VERTEX
  5
9BB
  8
DATA
  6
CONTINUOUS
 62
     7
 10
-4.2856391860136958
 20
155.88672986121699
 30
0.0
  0
VERTEX
  5
9BC
  8
DATA
  6
CONTINUOUS
 62
     7
 10
-4.2866072444558077
 20
155.88779831057201
 30
0.0
  0
VERTEX
  5
9BD
  8
DATA
  6
CONTINUOUS
 62
     7
 10
-4.2875680026362337
 20
155.8888709156831
 30
0.0
  0
VERTEX
  5
9BE
  8
DATA
  6
CONTINUOUS
 62
     7
 10
-4.288521460554974
 20
155.88994767655029
 30
0.0
  0
VERTEX
  5
9BF
  8
DATA
  6
CONTINUOUS
 62
     7
 10
-4.2894676182120151
 20
155.89102859317379
 30
0.0
  0
VERTEX
  5
9C0
  8
DATA
  6
CONTINUOUS
 62
     7
 10
-4.2904064756073552
 20
155.89211366555341
 30
0.0
  0
VERTEX
  5
9C1
  8
DATA
  6
CONTINUOUS
 62
     7
 10
-4.2913380327410229
 20
155.89320289368919
 30
0.0
  0
VERTEX
  5
9C2
  8
DATA
  6
CONTINUOUS
 62
     7
 10
-4.2922622896129923
 20
155.89429627758119
 30
0.0
  0
VERTEX
  5
9C3
  8
DATA
  6
CONTINUOUS
 62
     7
 10
-4.2931792462232741
 20
155.8953938172294
 30
0.0
  0
VERTEX
  5
9C4
  8
DATA
  6
CONTINUOUS
 62
     7
 10
-4.2940889025718567
 20
155.89649551263361
 30
0.0
  0
VERTEX
  5
9C5
  8
DATA
  6
CONTINUOUS
 62
     7
 10
-4.2949912586587677
 20
155.89760136379411
 30
0.0
  0
VERTEX
  5
9C6
  8
DATA
  6
CONTINUOUS
 62
     7
 10
-4.2958863144839787
 20
155.8987113707108
 30
0.0
  0
VERTEX
  5
9C7
  8
DATA
  6
CONTINUOUS
 62
     7
 10
-4.2967740700474897
 20
155.89982553338359
 30
0.0
  0
VERTEX
  5
9C8
  8
DATA
  6
CONTINUOUS
 62
     7
 10
-4.2976545253493148
 20
155.9009438518126
 30
0.0
  0
VERTEX
  5
9C9
  8
DATA
  6
CONTINUOUS
 62
     7
 10
-4.2985276803894399
 20
155.90206632599779
 30
0.0
  0
VERTEX
  5
9CA
  8
DATA
  6
CONTINUOUS
 62
     7
 10
-4.29939353516788
 20
155.9031929559392
 30
0.0
  0
VERTEX
  5
9CB
  8
DATA
  6
CONTINUOUS
 62
     7
 10
-4.3002520896846326
 20
155.90432374163669
 30
0.0
  0
VERTEX
  5
9CC
  8
DATA
  6
CONTINUOUS
 62
     7
 10
-4.301103343939686
 20
155.90545868309039
 30
0.0
  0
VERTEX
  5
9CD
  8
DATA
  6
CONTINUOUS
 62
     7
 10
-4.3019472979330544
 20
155.9065977803003
 30
0.0
  0
VERTEX
  5
9CE
  8
DATA
  6
CONTINUOUS
 62
     7
 10
-4.3027839516647362
 20
155.9077410332664
 30
0.0
  0
VERTEX
  5
9CF
  8
DATA
  6
CONTINUOUS
 62
     7
 10
-4.303613305134717
 20
155.90888844198849
 30
0.0
  0
VERTEX
  5
9D0
  8
DATA
  6
CONTINUOUS
 62
     7
 10
-4.3044353583430128
 20
155.91004000646689
 30
0.0
  0
VERTEX
  5
9D1
  8
DATA
  6
CONTINUOUS
 62
     7
 10
-4.3052501112896229
 20
155.91119572670141
 30
0.0
  0
VERTEX
  5
9D2
  8
DATA
  6
CONTINUOUS
 62
     7
 10
-4.3060575639745329
 20
155.9123556026922
 30
0.0
  0
VERTEX
  5
9D3
  8
DATA
  6
CONTINUOUS
 62
     7
 10
-4.3068577163977722
 20
155.9135196344391
 30
0.0
  0
VERTEX
  5
9D4
  8
DATA
  6
CONTINUOUS
 62
     7
 10
-4.3076505685592963
 20
155.91468782194221
 30
0.0
  0
VERTEX
  5
9D5
  8
DATA
  6
CONTINUOUS
 62
     7
 10
-4.3084361204591479
 20
155.91586016520151
 30
0.0
  0
VERTEX
  5
9D6
  8
DATA
  6
CONTINUOUS
 62
     7
 10
-4.3092143720973164
 20
155.91703666421691
 30
0.0
  0
VERTEX
  5
9D7
  8
DATA
  6
CONTINUOUS
 62
     7
 10
-4.3099853234737671
 20
155.9182173189885
 30
0.0
  0
VERTEX
  5
9D8
  8
DATA
  6
CONTINUOUS
 62
     7
 10
-4.3107489745885479
 20
155.91940212951619
 30
0.0
  0
VERTEX
  5
9D9
  8
DATA
  6
CONTINUOUS
 62
     7
 10
-4.3115053254416162
 20
155.92059109580021
 30
0.0
  0
VERTEX
  5
9DA
  8
DATA
  6
CONTINUOUS
 62
     7
 10
-4.3122543760329961
 20
155.9217842178403
 30
0.0
  0
VERTEX
  5
9DB
  8
DATA
  6
CONTINUOUS
 62
     7
 10
-4.3129961263627052
 20
155.92298149563661
 30
0.0
  0
VERTEX
  5
9DC
  8
DATA
  6
CONTINUOUS
 62
     7
 10
-4.3137305764307001
 20
155.92418292918899
 30
0.0
  0
VERTEX
  5
9DD
  8
DATA
  6
CONTINUOUS
 62
     7
 10
-4.3144577262370092
 20
155.9253885184977
 30
0.0
  0
VERTEX
  5
9DE
  8
DATA
  6
CONTINUOUS
 62
     7
 10
-4.3151775757816173
 20
155.92659826356251
 30
0.0
  0
VERTEX
  5
9DF
  8
DATA
  6
CONTINUOUS
 62
     7
 10
-4.3158901250645547
 20
155.9278121643834
 30
0.0
  0
VERTEX
  5
9E0
  8
DATA
  6
CONTINUOUS
 62
     7
 10
-4.3165953740858072
 20
155.92903022096061
 30
0.0
  0
VERTEX
  5
9E1
  8
DATA
  6
CONTINUOUS
 62
     7
 10
-4.3172933228453587
 20
155.9302524332939
 30
0.0
  0
VERTEX
  5
9E2
  8
DATA
  6
CONTINUOUS
 62
     7
 10
-4.3179839713432244
 20
155.93147880138341
 30
0.0
  0
VERTEX
  5
9E3
  8
DATA
  6
CONTINUOUS
 62
     7
 10
-4.3186673195794043
 20
155.9327093252291
 30
0.0
  0
VERTEX
  5
9E4
  8
DATA
  6
CONTINUOUS
 62
     7
 10
-4.3193433675538841
 20
155.93394400483089
 30
0.0
  0
VERTEX
  5
9E5
  8
DATA
  6
CONTINUOUS
 62
     7
 10
-4.3200121152666631
 20
155.9351828401889
 30
0.0
  0
VERTEX
  5
9E6
  8
DATA
  6
CONTINUOUS
 62
     7
 10
-4.3206735627177428
 20
155.9364258313031
 30
0.0
  0
VERTEX
  5
9E7
  8
DATA
  6
CONTINUOUS
 62
     7
 10
-4.321327709907151
 20
155.9376729781734
 30
0.0
  0
VERTEX
  5
9E8
  8
DATA
  6
CONTINUOUS
 62
     7
 10
-4.3219745568348591
 20
155.93892428079999
 30
0.0
  0
VERTEX
  5
9E9
  8
DATA
  6
CONTINUOUS
 62
     7
 10
-4.3226141035008956
 20
155.9401797391827
 30
0.0
  0
VERTEX
  5
9EA
  8
DATA
  6
CONTINUOUS
 62
     7
 10
-4.3226141035008956
 20
155.9401797391827
 30
0.0
  0
VERTEX
  5
9EB
  8
DATA
  6
CONTINUOUS
 62
     7
 10
-4.3232465329634939
 20
155.94143886151599
 30
0.0
  0
VERTEX
  5
9EC
  8
DATA
  6
CONTINUOUS
 62
     7
 10
-4.3238720282809027
 20
155.9427011559944
 30
0.0
  0
VERTEX
  5
9ED
  8
DATA
  6
CONTINUOUS
 62
     7
 10
-4.3244905894531342
 20
155.94396662261781
 30
0.0
  0
VERTEX
  5
9EE
  8
DATA
  6
CONTINUOUS
 62
     7
 10
-4.3251022164801887
 20
155.9452352613863
 30
0.0
  0
VERTEX
  5
9EF
  8
DATA
  6
CONTINUOUS
 62
     7
 10
-4.3257069093620677
 20
155.9465070722998
 30
0.0
  0
VERTEX
  5
9F0
  8
DATA
  6
CONTINUOUS
 62
     7
 10
-4.3263046680987713
 20
155.9477820553584
 30
0.0
  0
VERTEX
  5
9F1
  8
DATA
  6
CONTINUOUS
 62
     7
 10
-4.3268954926902969
 20
155.94906021056201
 30
0.0
  0
VERTEX
  5
9F2
  8
DATA
  6
CONTINUOUS
 62
     7
 10
-4.3274793831366329
 20
155.9503415379107
 30
0.0
  0
VERTEX
  5
9F3
  8
DATA
  6
CONTINUOUS
 62
     7
 10
-4.3280563394378069
 20
155.9516260374044
 30
0.0
  0
VERTEX
  5
9F4
  8
DATA
  6
CONTINUOUS
 62
     7
 10
-4.3286263615938037
 20
155.95291370904329
 30
0.0
  0
VERTEX
  5
9F5
  8
DATA
  6
CONTINUOUS
 62
     7
 10
-4.3291894496046117
 20
155.95420455282709
 30
0.0
  0
VERTEX
  5
9F6
  8
DATA
  6
CONTINUOUS
 62
     7
 10
-4.3297456034702444
 20
155.95549856875601
 30
0.0
  0
VERTEX
  5
9F7
  8
DATA
  6
CONTINUOUS
 62
     7
 10
-4.3302948231906973
 20
155.95679575682999
 30
0.0
  0
VERTEX
  5
9F8
  8
DATA
  6
CONTINUOUS
 62
     7
 10
-4.3308371087659756
 20
155.958096117049
 30
0.0
  0
VERTEX
  5
9F9
  8
DATA
  6
CONTINUOUS
 62
     7
 10
-4.3313724601960919
 20
155.95939964941309
 30
0.0
  0
VERTEX
  5
9FA
  8
DATA
  6
CONTINUOUS
 62
     7
 10
-4.3319008774810177
 20
155.96070635392221
 30
0.0
  0
VERTEX
  5
9FB
  8
DATA
  6
CONTINUOUS
 62
     7
 10
-4.3324223606207681
 20
155.96201623057641
 30
0.0
  0
VERTEX
  5
9FC
  8
DATA
  6
CONTINUOUS
 62
     7
 10
-4.3329369096153272
 20
155.96332927937561
 30
0.0
  0
VERTEX
  5
9FD
  8
DATA
  6
CONTINUOUS
 62
     7
 10
-4.3334445244647242
 20
155.9646455003199
 30
0.0
  0
VERTEX
  5
9FE
  8
DATA
  6
CONTINUOUS
 62
     7
 10
-4.333945205168944
 20
155.96596489340919
 30
0.0
  0
VERTEX
  5
9FF
  8
DATA
  6
CONTINUOUS
 62
     7
 10
-4.3344389517279884
 20
155.9672874586436
 30
0.0
  0
VERTEX
  5
A00
  8
DATA
  6
CONTINUOUS
 62
     7
 10
-4.3349257641418566
 20
155.96861319602311
 30
0.0
  0
VERTEX
  5
A01
  8
DATA
  6
CONTINUOUS
 62
     7
 10
-4.3354056424105352
 20
155.9699421055476
 30
0.0
  0
VERTEX
  5
A02
  8
DATA
  6
CONTINUOUS
 62
     7
 10
-4.3358785865340357
 20
155.97127418721709
 30
0.0
  0
VERTEX
  5
A03
  8
DATA
  6
CONTINUOUS
 62
     7
 10
-4.336344596512375
 20
155.97260944103169
 30
0.0
  0
VERTEX
  5
A04
  8
DATA
  6
CONTINUOUS
 62
     7
 10
-4.3368036723455239
 20
155.97394786699141
 30
0.0
  0
VERTEX
  5
A05
  8
DATA
  6
CONTINUOUS
 62
     7
 10
-4.3372558140334974
 20
155.9752894650961
 30
0.0
  0
VERTEX
  5
A06
  8
DATA
  6
CONTINUOUS
 62
     7
 10
-4.3377010215762928
 20
155.9766342353459
 30
0.0
  0
VERTEX
  5
A07
  8
DATA
  6
CONTINUOUS
 62
     7
 10
-4.3381392949739128
 20
155.9779821777407
 30
0.0
  0
VERTEX
  5
A08
  8
DATA
  6
CONTINUOUS
 62
     7
 10
-4.3385706342263566
 20
155.97933329228059
 30
0.0
  0
VERTEX
  5
A09
  8
DATA
  6
CONTINUOUS
 62
     7
 10
-4.3389950393336241
 20
155.9806875789655
 30
0.0
  0
VERTEX
  5
A0A
  8
DATA
  6
CONTINUOUS
 62
     7
 10
-4.3394125102957011
 20
155.9820450377955
 30
0.0
  0
VERTEX
  5
A0B
  8
DATA
  6
CONTINUOUS
 62
     7
 10
-4.3398230471126018
 20
155.9834056687705
 30
0.0
  0
VERTEX
  5
A0C
  8
DATA
  6
CONTINUOUS
 62
     7
 10
-4.3402266497843396
 20
155.98476947189059
 30
0.0
  0
VERTEX
  5
A0D
  8
DATA
  6
CONTINUOUS
 62
     7
 10
-4.3406233183109029
 20
155.98613644715579
 30
0.0
  0
VERTEX
  5
A0E
  8
DATA
  6
CONTINUOUS
 62
     7
 10
-4.3410130526922748
 20
155.98750659456601
 30
0.0
  0
VERTEX
  5
A0F
  8
DATA
  6
CONTINUOUS
 62
     7
 10
-4.3413958529284713
 20
155.9888799141213
 30
0.0
  0
VERTEX
  5
A10
  8
DATA
  6
CONTINUOUS
 62
     7
 10
-4.3417717190194898
 20
155.99025640582161
 30
0.0
  0
VERTEX
  5
A11
  8
DATA
  6
CONTINUOUS
 62
     7
 10
-4.3421406509653329
 20
155.9916360696669
 30
0.0
  0
VERTEX
  5
A12
  8
DATA
  6
CONTINUOUS
 62
     7
 10
-4.3425026487659997
 20
155.99301890565729
 30
0.0
  0
VERTEX
  5
A13
  8
DATA
  6
CONTINUOUS
 62
     7
 10
-4.3428577124214911
 20
155.99440491379281
 30
0.0
  0
VERTEX
  5
A14
  8
DATA
  6
CONTINUOUS
 62
     7
 10
-4.3432058419318036
 20
155.9957940940734
 30
0.0
  0
VERTEX
  5
A15
  8
DATA
  6
CONTINUOUS
 62
     7
 10
-4.3435470372969442
 20
155.99718644649889
 30
0.0
  0
VERTEX
  5
A16
  8
DATA
  6
CONTINUOUS
 62
     7
 10
-4.3438812985168891
 20
155.99858197106951
 30
0.0
  0
VERTEX
  5
A17
  8
DATA
  6
CONTINUOUS
 62
     7
 10
-4.3442086255916621
 20
155.9999806677852
 30
0.0
  0
VERTEX
  5
A18
  8
DATA
  6
CONTINUOUS
 62
     7
 10
-4.3445290185212713
 20
156.00138253664599
 30
0.0
  0
VERTEX
  5
A19
  8
DATA
  6
CONTINUOUS
 62
     7
 10
-4.3448424773057042
 20
156.00278757765179
 30
0.0
  0
VERTEX
  5
A1A
  8
DATA
  6
CONTINUOUS
 62
     7
 10
-4.3451490019449457
 20
156.00419579080261
 30
0.0
  0
VERTEX
  5
A1B
  8
DATA
  6
CONTINUOUS
 62
     7
 10
-4.3454485924390118
 20
156.00560717609849
 30
0.0
  0
VERTEX
  5
A1C
  8
DATA
  6
CONTINUOUS
 62
     7
 10
-4.3457412487879159
 20
156.0070217335394
 30
0.0
  0
VERTEX
  5
A1D
  8
DATA
  6
CONTINUOUS
 62
     7
 10
-4.3460269709916304
 20
156.00843946312551
 30
0.0
  0
VERTEX
  5
A1E
  8
DATA
  6
CONTINUOUS
 62
     7
 10
-4.3463057590501668
 20
156.00986036485651
 30
0.0
  0
VERTEX
  5
A1F
  8
DATA
  6
CONTINUOUS
 62
     7
 10
-4.3465776129635136
 20
156.01128443873259
 30
0.0
  0
VERTEX
  5
A20
  8
DATA
  6
CONTINUOUS
 62
     7
 10
-4.3468425327316993
 20
156.0127116847539
 30
0.0
  0
VERTEX
  5
A21
  8
DATA
  6
CONTINUOUS
 62
     7
 10
-4.3471005183547069
 20
156.01414210292009
 30
0.0
  0
VERTEX
  5
A22
  8
DATA
  6
CONTINUOUS
 62
     7
 10
-4.3473515698325249
 20
156.01557569323131
 30
0.0
  0
VERTEX
  5
A23
  8
DATA
  6
CONTINUOUS
 62
     7
 10
-4.3475956871651684
 20
156.01701245568771
 30
0.0
  0
VERTEX
  5
A24
  8
DATA
  6
CONTINUOUS
 62
     7
 10
-4.3478328703526472
 20
156.0184523902891
 30
0.0
  0
VERTEX
  5
A25
  8
DATA
  6
CONTINUOUS
 62
     7
 10
-4.3480631193949506
 20
156.01989549703549
 30
0.0
  0
VERTEX
  5
A26
  8
DATA
  6
CONTINUOUS
 62
     7
 10
-4.3482864342920644
 20
156.021341775927
 30
0.0
  0
VERTEX
  5
A27
  8
DATA
  6
CONTINUOUS
 62
     7
 10
-4.3485028150440002
 20
156.02279122696359
 30
0.0
  0
VERTEX
  5
A28
  8
DATA
  6
CONTINUOUS
 62
     7
 10
-4.3487122616507596
 20
156.02424385014521
 30
0.0
  0
VERTEX
  5
A29
  8
DATA
  6
CONTINUOUS
 62
     7
 10
-4.3489147741123437
 20
156.0256996454718
 30
0.0
  0
VERTEX
  5
A2A
  8
DATA
  6
CONTINUOUS
 62
     7
 10
-4.3491103524287524
 20
156.02715861294351
 30
0.0
  0
VERTEX
  5
A2B
  8
DATA
  6
CONTINUOUS
 62
     7
 10
-4.3491103524287524
 20
156.02715861294351
 30
0.0
  0
SEQEND
  5
A2C
  8
DATA
  6
CONTINUOUS
 62
     7
  0
LINE
  5
55A
  8
DATA
  6
CONTINUOUS
 62
     7
 10
-4.0971090017512921
 20
155.8030932533627
 30
0.0
 11
-4.1002487817304001
 21
155.8030932533627
 31
0.0
  0
LINE
  5
55B
  8
DATA
  6
CONTINUOUS
 62
     7
 10
3.4343842798158302
 20
172.00048876935881
 30
0.0
 11
3.4343842798158302
 21
171.03078740728901
 31
0.0
  0
LINE
  5
55C
  8
DATA
  6
CONTINUOUS
 62
     7
 10
-3.5601793677478351
 20
171.03078740728901
 30
0.0
 11
-3.5601793677478351
 21
172.00048876935881
 31
0.0
  0
LINE
  5
55D
  8
DATA
  6
CONTINUOUS
 62
     7
 10
-5.8213951039530931
 20
167.6045906464152
 30
0.0
 11
-0.8372541224613456
 21
167.6045906464152
 31
0.0
  0
LINE
  5
55E
  8
DATA
  6
CONTINUOUS
 62
     7
 10
0.7543934105606099
 20
167.6045906464152
 30
0.0
 11
5.7198586689614643
 21
167.6045906464152
 31
0.0
  0
LINE
  5
55F
  8
DATA
  6
CONTINUOUS
 62
     7
 10
5.8737328729310292
 20
170.13095033977851
 30
0.0
 11
5.7198586689614643
 21
167.6045906464152
 31
0.0
  0
LINE
  5
560
  8
DATA
  6
CONTINUOUS
 62
     7
 10
5.9288108877749854
 20
171.03078740728901
 30
0.0
 11
5.8737328729310292
 21
170.13095033977851
 31
0.0
  0
LINE
  5
561
  8
DATA
  6
CONTINUOUS
 62
     7
 10
-6.0609844685237269
 20
171.03078740728901
 30
0.0
 11
5.9288108877749854
 21
171.03078740728901
 31
0.0
  0
LINE
  5
562
  8
DATA
  6
CONTINUOUS
 62
     7
 10
5.348082068766117
 20
165.9821988716742
 30
0.0
 11
4.4330985471747084
 21
156.03029006459269
 31
0.0
  0
LINE
  5
563
  8
DATA
  6
CONTINUOUS
 62
     7
 10
5.4971369464368962
 20
167.6045906464152
 30
0.0
 11
5.348082068766117
 21
165.9821988716742
 31
0.0
  0
LINE
  5
564
  8
DATA
  6
CONTINUOUS
 62
     7
 10
4.4296561712466049
 20
156.00412800754231
 30
0.0
 11
4.4330985471747084
 21
156.03029006459269
 31
0.0
  0
LINE
  5
565
  8
DATA
  6
CONTINUOUS
 62
     7
 10
4.4021171638248546
 20
155.92460912361139
 30
0.0
 11
4.4296561712466049
 21
156.00412800754231
 31
0.0
  0
LINE
  5
566
  8
DATA
  6
CONTINUOUS
 62
     7
 10
4.3522027128727103
 20
155.859892456171
 30
0.0
 11
4.4021171638248546
 21
155.92460912361139
 31
0.0
  0
LINE
  5
567
  8
DATA
  6
CONTINUOUS
 62
     7
 10
4.286109095060155
 20
155.81755123225901
 30
0.0
 11
4.3522027128727103
 21
155.859892456171
 31
0.0
  0
LINE
  5
568
  8
DATA
  6
CONTINUOUS
 62
     7
 10
4.2117537750211644
 20
155.8030932533627
 30
0.0
 11
4.286109095060155
 21
155.81755123225901
 31
0.0
  0
LINE
  5
569
  8
DATA
  6
CONTINUOUS
 62
     7
 10
1.4767861004363989
 20
155.8030932533627
 30
0.0
 11
4.2117537750211644
 21
155.8030932533627
 31
0.0
  0
LINE
  5
56A
  8
DATA
  6
CONTINUOUS
 62
     7
 10
-2.9514862930010528
 20
155.8030932533627
 30
0.0
 11
-0.8901927514603613
 21
155.8030932533627
 31
0.0
  0
LINE
  5
56B
  8
DATA
  6
CONTINUOUS
 62
     7
 10
-3.6127667087188362
 20
155.8030932533627
 30
0.0
 11
-2.724633719363581
 21
155.8030932533627
 31
0.0
  0
LINE
  5
56C
  8
DATA
  6
CONTINUOUS
 62
     7
 10
-3.8409962327277891
 20
155.8030932533627
 30
0.0
 11
-3.862683201072528
 21
155.80653562929041
 31
0.0
  0
LINE
  5
56D
  8
DATA
  6
CONTINUOUS
 62
     7
 10
-3.8399635199494488
 20
155.8030932533627
 30
0.0
 11
-3.8409962327277891
 21
155.8030932533627
 31
0.0
  0
LINE
  5
56E
  8
DATA
  6
CONTINUOUS
 62
     7
 10
-3.8399635199494488
 20
155.8030932533627
 30
0.0
 11
-3.6127667087188362
 21
155.8030932533627
 31
0.0
  0
LINE
  5
56F
  8
DATA
  6
CONTINUOUS
 62
     7
 10
-4.0971090017512921
 20
155.8030932533627
 30
0.0
 11
-3.8399635199494488
 21
155.8030932533627
 31
0.0
  0
LINE
  5
570
  8
DATA
  6
CONTINUOUS
 62
     7
 10
-2.9514862930010528
 20
155.8030932533627
 30
0.0
 11
-2.724633719363581
 21
155.8030932533627
 31
0.0
  0
LINE
  5
571
  8
DATA
  6
CONTINUOUS
 62
     7
 10
4.4330985471747084
 20
156.03029006459269
 30
0.0
 11
1.2244599449333431
 21
156.03029006459269
 31
0.0
  0
LINE
  5
572
  8
DATA
  6
CONTINUOUS
 62
     7
 10
-3.9704295676103949
 20
156.03029006459269
 30
0.0
 11
-4.34943515725395
 21
156.03029006459269
 31
0.0
  0
LINE
  5
573
  8
DATA
  6
CONTINUOUS
 62
     7
 10
21.600000000000069
 20
191.03579493695159
 30
0.0
 11
-21.59999999999993
 21
191.03579493695159
 31
0.0
  0
LINE
  5
574
  8
DATA
  6
CONTINUOUS
 62
     7
 10
21.600000000000069
 20
192.85930497351961
 30
0.0
 11
-21.59999999999993
 21
192.85930497351961
 31
0.0
  0
LINE
  5
575
  8
DATA
  6
CONTINUOUS
 62
     7
 10
-21.59999999999993
 20
191.03579493695159
 30
0.0
 11
-21.59999999999993
 21
192.85930497351961
 31
0.0
  0
LINE
  5
576
  8
DATA
  6
CONTINUOUS
 62
     7
 10
21.600000000000069
 20
191.03579493695159
 30
0.0
 11
21.600000000000069
 21
192.85930497351961
 31
0.0
  0
LINE
  5
577
  8
DATA
  6
CONTINUOUS
 62
     7
 10
-19.84999999999993
 20
192.85930497351961
 30
0.0
 11
-19.84999999999993
 21
195.0004887693589
 31
0.0
  0
LINE
  5
578
  8
DATA
  6
CONTINUOUS
 62
     7
 10
-13.149999999999929
 20
192.85930497351961
 30
0.0
 11
-13.149999999999929
 21
195.0004887693589
 31
0.0
  0
LINE
  5
579
  8
DATA
  6
CONTINUOUS
 62
     7
 10
13.15000000000007
 20
192.85930497351961
 30
0.0
 11
13.15000000000007
 21
195.0004887693589
 31
0.0
  0
LINE
  5
57A
  8
DATA
  6
CONTINUOUS
 62
     7
 10
19.850000000000058
 20
192.85930497351961
 30
0.0
 11
19.850000000000058
 21
195.0004887693589
 31
0.0
  0
LINE
  5
57B
  8
DATA
  6
CONTINUOUS
 62
     7
 10
-13.149999999999929
 20
195.0004887693589
 30
0.0
 11
-19.84999999999993
 21
195.0004887693589
 31
0.0
  0
LINE
  5
57C
  8
DATA
  6
CONTINUOUS
 62
     7
 10
19.850000000000058
 20
195.0004887693589
 30
0.0
 11
13.15000000000007
 21
195.0004887693589
 31
0.0
  0
LINE
  5
57D
  8
DATA
  6
CONTINUOUS
 62
     7
 10
-19.149999999999931
 20
175.0
 30
0.0
 11
-19.149999999999931
 21
191.03579493695159
 31
0.0
  0
LINE
  5
57E
  8
DATA
  6
CONTINUOUS
 62
     7
 10
-13.84999999999992
 20
175.0
 30
0.0
 11
-13.84999999999992
 21
191.03579493695159
 31
0.0
  0
LINE
  5
57F
  8
DATA
  6
CONTINUOUS
 62
     7
 10
13.85000000000006
 20
175.0
 30
0.0
 11
13.85000000000006
 21
191.03579493695159
 31
0.0
  0
LINE
  5
580
  8
DATA
  6
CONTINUOUS
 62
     7
 10
19.15000000000008
 20
175.0
 30
0.0
 11
19.15000000000008
 21
191.03579493695159
 31
0.0
  0
LINE
  5
581
  8
DATA
  6
CONTINUOUS
 62
     7
 10
-3.3342784961650551
 20
156.03029006459269
 30
0.0
 11
-3.9758755862109321
 21
156.03029006459269
 31
0.0
  0
LINE
  5
582
  8
DATA
  6
CONTINUOUS
 62
     7
 10
1.4767861004363989
 20
155.8030932533627
 30
0.0
 11
0.7993256636312794
 21
155.8030932533627
 31
0.0
  0
ARC
  5
583
  8
DATA
  6
CONTINUOUS
 62
     7
 10
-0.0556065894388809
 20
155.82770699933539
 30
0.0
 40
0.8349490393604533
 50
165.95822662785719
 51
14.041773372140881
  0
LINE
  5
584
  8
DATA
  6
CONTINUOUS
 62
     7
 10
-3.3342784961650551
 20
156.03029006459269
 30
0.0
 11
-0.8372541224613456
 21
156.03029006459269
 31
0.0
  0
LINE
  5
585
  8
DATA
  6
CONTINUOUS
 62
     7
 10
1.2244599449333431
 20
156.03029006459269
 30
0.0
 11
0.7543934105606099
 21
156.03029006459269
 31
0.0
  0
LINE
  5
586
  8
DATA
  6
CONTINUOUS
 62
     7
 10
-0.8372541224613456
 20
156.03029006459269
 30
0.0
 11
-0.8372541224613456
 21
171.03078740728901
 31
0.0
  0
LINE
  5
587
  8
DATA
  6
CONTINUOUS
 62
     7
 10
0.7543934105606099
 20
156.03029006459269
 30
0.0
 11
0.7543934105606099
 21
171.03078740728901
 31
0.0
  0
LINE
  5
588
  8
DATA
  6
CONTINUOUS
 62
     7
 10
71.030000000000101
 20
48.160044754699364
 30
0.0
 11
75.0
 21
48.160044754699364
 31
0.0
  0
TEXT
  5
589
  8
DATA
 62
     7
 10
-9.7591368971265666
 20
96.051392116108914
 30
0.0
 40
1.492902787441406
  1
A
 41
0.7
 11
-9.7591368971265666
 21
97.544294903550323
 31
0.0
 73
     3
  0
POLYLINE
  5
58A
  8
DATA
  6
CONTINUOUS
 62
     7
 66
     1
 10
0.0
 20
0.0
 30
0.0
 70
     1
  0
VERTEX
  5
A2D
  8
DATA
  6
CONTINUOUS
 62
     7
 10
-13.499999999999901
 20
89.412814834049229
 30
0.0
  0
VERTEX
  5
A2E
  8
DATA
  6
CONTINUOUS
 62
     7
 10
13.500000000000099
 20
89.412814834049229
 30
0.0
  0
VERTEX
  5
A2F
  8
DATA
  6
CONTINUOUS
 62
     7
 10
13.500000000000099
 20
84.912814834049215
 30
0.0
  0
VERTEX
  5
A30
  8
DATA
  6
CONTINUOUS
 62
     7
 10
-13.499999999999901
 20
84.912814834049215
 30
0.0
  0
SEQEND
  5
A31
  8
DATA
  6
CONTINUOUS
 62
     7
  0
TEXT
  5
591
  8
DATA
 62
     7
 10
-15.73471060738906
 20
86.337892982983391
 30
0.0
 40
1.492902787441406
  1
A
 41
0.7
 11
-15.73471060738906
 21
87.8307957704248
 31
0.0
 73
     3
  0
POLYLINE
  5
592
  8
DATA
  6
CONTINUOUS
 62
     7
 66
     1
 10
0.0
 20
0.0
 30
0.0
 70
     1
  0
VERTEX
  5
A32
  8
DATA
  6
CONTINUOUS
 62
     7
 10
-13.499999999999901
 20
84.512814834049209
 30
0.0
  0
VERTEX
  5
A33
  8
DATA
  6
CONTINUOUS
 62
     7
 10
13.500000000000099
 20
84.512814834049209
 30
0.0
  0
VERTEX
  5
A34
  8
DATA
  6
CONTINUOUS
 62
     7
 10
13.500000000000099
 20
80.012814834049209
 30
0.0
  0
VERTEX
  5
A35
  8
DATA
  6
CONTINUOUS
 62
     7
 10
-13.499999999999901
 20
80.012814834049209
 30
0.0
  0
SEQEND
  5
A36
  8
DATA
  6
CONTINUOUS
 62
     7
  0
TEXT
  5
599
  8
DATA
 62
     7
 10
-15.73471060738906
 20
81.437892982983371
 30
0.0
 40
1.492902787441406
  1
B
 41
0.7
 11
-15.73471060738906
 21
82.93079577042478
 31
0.0
 73
     3
  0
POLYLINE
  5
59A
  8
DATA
  6
CONTINUOUS
 62
     7
 66
     1
 10
0.0
 20
0.0
 30
0.0
 70
     1
  0
VERTEX
  5
A37
  8
DATA
  6
CONTINUOUS
 62
     7
 10
-13.499999999999901
 20
79.612814834049203
 30
0.0
  0
VERTEX
  5
A38
  8
DATA
  6
CONTINUOUS
 62
     7
 10
13.500000000000099
 20
79.612814834049203
 30
0.0
  0
VERTEX
  5
A39
  8
DATA
  6
CONTINUOUS
 62
     7
 10
13.500000000000099
 20
75.112814834049203
 30
0.0
  0
VERTEX
  5
A3A
  8
DATA
  6
CONTINUOUS
 62
     7
 10
-13.499999999999901
 20
75.112814834049203
 30
0.0
  0
SEQEND
  5
A3B
  8
DATA
  6
CONTINUOUS
 62
     7
  0
TEXT
  5
5A1
  8
DATA
 62
     7
 10
-15.73471060738906
 20
76.537892982983379
 30
0.0
 40
1.492902787441406
  1
C
 41
0.7
 11
-15.73471060738906
 21
78.030795770424788
 31
0.0
 73
     3
  0
POLYLINE
  5
5A2
  8
DATA
  6
CONTINUOUS
 62
     7
 66
     1
 10
0.0
 20
0.0
 30
0.0
 70
     1
  0
VERTEX
  5
A3C
  8
DATA
  6
CONTINUOUS
 62
     7
 10
-13.499999999999901
 20
74.712814834049183
 30
0.0
  0
VERTEX
  5
A3D
  8
DATA
  6
CONTINUOUS
 62
     7
 10
13.500000000000099
 20
74.712814834049183
 30
0.0
  0
VERTEX
  5
A3E
  8
DATA
  6
CONTINUOUS
 62
     7
 10
13.500000000000099
 20
70.212814834049212
 30
0.0
  0
VERTEX
  5
A3F
  8
DATA
  6
CONTINUOUS
 62
     7
 10
-13.499999999999901
 20
70.212814834049212
 30
0.0
  0
SEQEND
  5
A40
  8
DATA
  6
CONTINUOUS
 62
     7
  0
TEXT
  5
5A9
  8
DATA
 62
     7
 10
-15.73471060738906
 20
71.637892982983374
 30
0.0
 40
1.492902787441406
  1
D
 41
0.7
 11
-15.73471060738906
 21
73.130795770424783
 31
0.0
 73
     3
  0
POLYLINE
  5
5AA
  8
DATA
  6
CONTINUOUS
 62
     7
 66
     1
 10
0.0
 20
0.0
 30
0.0
 70
     1
  0
VERTEX
  5
A41
  8
DATA
  6
CONTINUOUS
 62
     7
 10
-13.499999999999901
 20
69.81281483404922
 30
0.0
  0
VERTEX
  5
A42
  8
DATA
  6
CONTINUOUS
 62
     7
 10
13.500000000000099
 20
69.81281483404922
 30
0.0
  0
VERTEX
  5
A43
  8
DATA
  6
CONTINUOUS
 62
     7
 10
13.500000000000099
 20
65.31281483404922
 30
0.0
  0
VERTEX
  5
A44
  8
DATA
  6
CONTINUOUS
 62
     7
 10
-13.499999999999901
 20
65.31281483404922
 30
0.0
  0
SEQEND
  5
A45
  8
DATA
  6
CONTINUOUS
 62
     7
  0
TEXT
  5
5B1
  8
DATA
 62
     7
 10
-15.73471060738906
 20
66.737892982983411
 30
0.0
 40
1.492902787441406
  1
E
 41
0.7
 11
-15.73471060738906
 21
68.23079577042482
 31
0.0
 73
     3
  0
POLYLINE
  5
5B2
  8
DATA
  6
CONTINUOUS
 62
     7
 66
     1
 10
0.0
 20
0.0
 30
0.0
 70
     1
  0
VERTEX
  5
A46
  8
DATA
  6
CONTINUOUS
 62
     7
 10
-13.499999999999901
 20
64.912814834049215
 30
0.0
  0
VERTEX
  5
A47
  8
DATA
  6
CONTINUOUS
 62
     7
 10
13.500000000000099
 20
64.912814834049215
 30
0.0
  0
VERTEX
  5
A48
  8
DATA
  6
CONTINUOUS
 62
     7
 10
13.500000000000099
 20
60.412814834049207
 30
0.0
  0
VERTEX
  5
A49
  8
DATA
  6
CONTINUOUS
 62
     7
 10
-13.499999999999901
 20
60.412814834049207
 30
0.0
  0
SEQEND
  5
A4A
  8
DATA
  6
CONTINUOUS
 62
     7
  0
TEXT
  5
5B9
  8
DATA
 62
     7
 10
-15.73471060738906
 20
61.837892982983377
 30
0.0
 40
1.492902787441406
  1
F
 41
0.7
 11
-15.73471060738906
 21
63.330795770424793
 31
0.0
 73
     3
  0
POLYLINE
  5
5BA
  8
DATA
  6
CONTINUOUS
 62
     7
 66
     1
 10
0.0
 20
0.0
 30
0.0
 70
     1
  0
VERTEX
  5
A4B
  8
DATA
  6
CONTINUOUS
 62
     7
 10
-13.499999999999901
 20
60.012814834049209
 30
0.0
  0
VERTEX
  5
A4C
  8
DATA
  6
CONTINUOUS
 62
     7
 10
13.500000000000099
 20
60.012814834049209
 30
0.0
  0
VERTEX
  5
A4D
  8
DATA
  6
CONTINUOUS
 62
     7
 10
13.500000000000099
 20
55.512814834049209
 30
0.0
  0
VERTEX
  5
A4E
  8
DATA
  6
CONTINUOUS
 62
     7
 10
-13.499999999999901
 20
55.512814834049209
 30
0.0
  0
SEQEND
  5
A4F
  8
DATA
  6
CONTINUOUS
 62
     7
  0
TEXT
  5
5C1
  8
DATA
 62
     7
 10
-15.73471060738906
 20
56.937892982983378
 30
0.0
 40
1.492902787441406
  1
G
 41
0.7
 11
-15.73471060738906
 21
58.430795770424787
 31
0.0
 73
     3
  0
POLYLINE
  5
5C2
  8
DATA
  6
CONTINUOUS
 62
     7
 66
     1
 10
0.0
 20
0.0
 30
0.0
 70
     1
  0
VERTEX
  5
A50
  8
DATA
  6
CONTINUOUS
 62
     7
 10
-13.499999999999901
 20
55.112814834049203
 30
0.0
  0
VERTEX
  5
A51
  8
DATA
  6
CONTINUOUS
 62
     7
 10
13.500000000000099
 20
55.112814834049203
 30
0.0
  0
VERTEX
  5
A52
  8
DATA
  6
CONTINUOUS
 62
     7
 10
13.500000000000099
 20
50.612814834049203
 30
0.0
  0
VERTEX
  5
A53
  8
DATA
  6
CONTINUOUS
 62
     7
 10
-13.499999999999901
 20
50.612814834049203
 30
0.0
  0
SEQEND
  5
A54
  8
DATA
  6
CONTINUOUS
 62
     7
  0
TEXT
  5
5C9
  8
DATA
 62
     7
 10
-15.73471060738906
 20
52.037892982983379
 30
0.0
 40
1.492902787441406
  1
H
 41
0.7
 11
-15.73471060738906
 21
53.530795770424781
 31
0.0
 73
     3
  0
TEXT
  5
5CA
  8
DATA
 62
     7
 10
-9.8144105416257208
 20
100.58582273045469
 30
0.0
 40
1.492902787441406
  1
B
 41
0.7
 11
-9.8144105416257208
 21
102.0787255178962
 31
0.0
 73
     3
  0
TEXT
  5
5CB
  8
DATA
 62
     7
 10
-7.4388851408647412
 20
105.2391572987956
 30
0.0
 40
1.492902787441406
  1
C
 41
0.7
 11
-7.4388851408647412
 21
106.7320600862371
 31
0.0
 73
     3
  0
TEXT
  5
5CC
  8
DATA
 62
     7
 10
-2.817578767476121
 20
107.8575607133466
 30
0.0
 40
1.492902787441406
  1
D
 41
0.7
 11
-2.817578767476121
 21
109.350463500788
 31
0.0
 73
     3
  0
CIRCLE
  5
5CD
  8
DATA
  6
CONTINUOUS
 62
     7
 10
-7.9688880668848139
 20
96.864742877904206
 30
0.0
 40
0.3500000000000227
  0
CIRCLE
  5
5CE
  8
DATA
  6
CONTINUOUS
 62
     7
 10
-7.9649621201036931
 20
101.1498554428867
 30
0.0
 40
0.3500000000000227
  0
CIRCLE
  5
5CF
  8
DATA
  6
CONTINUOUS
 62
     7
 10
-5.8321923982467876
 20
104.8350691366801
 30
0.0
 40
0.3500000000000227
  0
CIRCLE
  5
5D0
  8
DATA
  6
CONTINUOUS
 62
     7
 10
-2.1352571220958358
 20
106.9688880668852
 30
0.0
 40
0.3500000000000227
  0
CIRCLE
  5
5D1
  8
DATA
  6
CONTINUOUS
 62
     7
 10
2.1352571220951262
 20
106.968888066882
 30
0.0
 40
0.3499999999999659
  0
CIRCLE
  5
5D2
  8
DATA
  6
CONTINUOUS
 62
     7
 10
5.8535812460682868
 20
104.8913559355593
 30
0.0
 40
0.3500000000000227
  0
CIRCLE
  5
5D3
  8
DATA
  6
CONTINUOUS
 62
     7
 10
7.9626036382855867
 20
101.15857436739159
 30
0.0
 40
0.3500000000000227
  0
CIRCLE
  5
5D4
  8
DATA
  6
CONTINUOUS
 62
     7
 10
7.9727872576340673
 20
96.879348367952275
 30
0.0
 40
0.3500000000000227
  0
TEXT
  5
5D5
  8
DATA
 62
     7
 10
1.942750809334469
 20
107.935279537735
 30
0.0
 40
1.492902787441406
  1
E
 41
0.7
 11
1.942750809334469
 21
109.42818232517639
 31
0.0
 73
     3
  0
TEXT
  5
5D6
  8
DATA
 62
     7
 10
6.1674251982858399
 20
105.59989000532239
 30
0.0
 40
1.492902787441406
  1
F
 41
0.7
 11
6.1674251982858399
 21
107.0927927927638
 31
0.0
 73
     3
  0
TEXT
  5
5D7
  8
DATA
 62
     7
 10
8.8939872936981477
 20
100.6829265382593
 30
0.0
 40
1.492902787441406
  1
G
 41
0.7
 11
8.8939872936981477
 21
102.1758293257007
 31
0.0
 73
     3
  0
TEXT
  5
5D8
  8
DATA
 62
     7
 10
9.0301479594121314
 20
96.157560713346726
 30
0.0
 40
1.492902787441406
  1
H
 41
0.7
 11
9.0301479594121314
 21
97.650463500788121
 31
0.0
 73
     3
  0
ARC
  5
5D9
  8
DATA
  6
CONTINUOUS
 62
     7
 10
0.0000000000000995
 20
99.0
 30
0.0
 40
8.2500000000000462
 50
197.43091236302169
 51
342.67407443244429
  0
ARC
  5
5DA
  8
DATA
  6
CONTINUOUS
 62
     7
 10
0.0000000000000995
 20
99.0
 30
0.0
 40
8.2499999999999591
 50
347.5358991584859
 51
12.73680310469728
  0
ARC
  5
5DB
  8
DATA
  6
CONTINUOUS
 62
     7
 10
0.0000000000000995
 20
99.0
 30
0.0
 40
8.2499999999999876
 50
17.598627830738671
 51
42.791494584509842
  0
ARC
  5
5DC
  8
DATA
  6
CONTINUOUS
 62
     7
 10
0.0000000000000995
 20
99.0
 30
0.0
 40
8.2499999999999982
 50
47.577059590623968
 51
72.569087636979233
  0
ARC
  5
5DD
  8
DATA
  6
CONTINUOUS
 62
     7
 10
0.0000000000000995
 20
99.0
 30
0.0
 40
8.2499999999999911
 50
77.430912363021093
 51
102.5690876369797
  0
ARC
  5
5DE
  8
DATA
  6
CONTINUOUS
 62
     7
 10
0.0000000000000995
 20
99.0
 30
0.0
 40
8.2500000000000124
 50
107.4309123630203
 51
132.55496050293399
  0
ARC
  5
5DF
  8
DATA
  6
CONTINUOUS
 62
     7
 10
0.0000000000000995
 20
99.0
 30
0.0
 40
8.2500000000000142
 50
137.41678522897439
 51
162.46410084151489
  0
ARC
  5
5E0
  8
DATA
  6
CONTINUOUS
 62
     7
 10
0.0000000000000995
 20
99.0
 30
0.0
 40
8.2500000000000568
 50
167.32592556755569
 51
192.56908763697791
  0
ARC
  5
5E1
  8
DATA
  6
CONTINUOUS
 62
     7
 10
94.197730740016723
 20
98.999216998634722
 30
0.0
 40
0.810000069367372
 50
269.97628775250348
 51
90.023712247496405
  0
LINE
  5
5E2
  8
DATA
  6
CONTINUOUS
 62
     7
 10
56.168829898001391
 20
64.392081852767376
 30
0.0
 11
57.388119451605121
 21
64.392081852767376
 31
0.0
  0
LINE
  5
5E3
  8
DATA
  6
CONTINUOUS
 62
     7
 10
56.168829898001391
 20
63.884331403426721
 30
0.0
 11
56.168829898001391
 21
64.392081852767376
 31
0.0
  0
LINE
  5
5E4
  8
DATA
  6
CONTINUOUS
 62
     7
 10
56.168829898001391
 20
63.884331403426721
 30
0.0
 11
57.388119451605121
 21
63.884331403426721
 31
0.0
  0
LINE
  5
5E5
  8
DATA
  6
CONTINUOUS
 62
     7
 10
56.168829898001391
 20
56.270484326463652
 30
0.0
 11
56.168829898001391
 21
56.777890538211892
 31
0.0
  0
LINE
  5
5E6
  8
DATA
  6
CONTINUOUS
 62
     7
 10
56.168829898001391
 20
56.777890538211892
 30
0.0
 11
57.388119451605121
 21
56.777890538211892
 31
0.0
  0
LINE
  5
5E7
  8
DATA
  6
CONTINUOUS
 62
     7
 10
56.168829898001391
 20
56.270484326463652
 30
0.0
 11
57.388119451605121
 21
56.270484326463652
 31
0.0
  0
LINE
  5
5E8
  8
DATA
  6
CONTINUOUS
 62
     7
 10
56.168829898001391
 20
61.346611869500613
 30
0.0
 11
56.168829898001391
 21
61.854018081248881
 31
0.0
  0
LINE
  5
5E9
  8
DATA
  6
CONTINUOUS
 62
     7
 10
56.168829898001391
 20
61.346611869500613
 30
0.0
 11
57.388119451605121
 21
61.346611869500613
 31
0.0
  0
LINE
  5
5EA
  8
DATA
  6
CONTINUOUS
 62
     7
 10
56.168829898001391
 20
61.854018081248881
 30
0.0
 11
57.388119451605121
 21
61.854018081248881
 31
0.0
  0
LINE
  5
5EB
  8
DATA
  6
CONTINUOUS
 62
     7
 10
56.168829898001391
 20
58.80854809798214
 30
0.0
 11
57.388119451605121
 21
58.80854809798214
 31
0.0
  0
LINE
  5
5EC
  8
DATA
  6
CONTINUOUS
 62
     7
 10
56.168829898001391
 20
58.80854809798214
 30
0.0
 11
56.168829898001391
 21
59.315954309730387
 31
0.0
  0
LINE
  5
5ED
  8
DATA
  6
CONTINUOUS
 62
     7
 10
56.168829898001391
 20
59.315954309730387
 30
0.0
 11
57.388119451605121
 21
59.315954309730387
 31
0.0
  0
LINE
  5
5EE
  8
DATA
  6
CONTINUOUS
 62
     7
 10
56.168829898001391
 20
66.422395174945208
 30
0.0
 11
56.168829898001391
 21
66.930145624285871
 31
0.0
  0
LINE
  5
5EF
  8
DATA
  6
CONTINUOUS
 62
     7
 10
56.168829898001391
 20
66.930145624285871
 30
0.0
 11
57.388119451605121
 21
66.930145624285871
 31
0.0
  0
LINE
  5
5F0
  8
DATA
  6
CONTINUOUS
 62
     7
 10
56.168829898001391
 20
66.422395174945208
 30
0.0
 11
57.388119451605121
 21
66.422395174945208
 31
0.0
  0
LINE
  5
5F1
  8
DATA
  6
CONTINUOUS
 62
     7
 10
56.168829898001391
 20
53.732420554945151
 30
0.0
 11
57.388119451605121
 21
53.732420554945151
 31
0.0
  0
LINE
  5
5F2
  8
DATA
  6
CONTINUOUS
 62
     7
 10
56.168829898001391
 20
54.240171004285827
 30
0.0
 11
57.388119451605121
 21
54.240171004285827
 31
0.0
  0
LINE
  5
5F3
  8
DATA
  6
CONTINUOUS
 62
     7
 10
56.168829898001391
 20
53.732420554945151
 30
0.0
 11
56.168829898001391
 21
54.240171004285827
 31
0.0
  0
LINE
  5
5F4
  8
DATA
  6
CONTINUOUS
 62
     7
 10
68.788119451605098
 20
52.00135593555931
 30
0.0
 11
68.788119451605098
 21
68.501355935559303
 31
0.0
  0
LINE
  5
5F5
  8
DATA
  6
CONTINUOUS
 62
     7
 10
68.788119451605098
 20
68.501355935559303
 30
0.0
 11
58.961629488172989
 21
68.501355935559303
 31
0.0
  0
LINE
  5
5F6
  8
DATA
  6
CONTINUOUS
 62
     7
 10
58.961629488172989
 20
52.00135593555931
 30
0.0
 11
68.788119451605098
 21
52.00135593555931
 31
0.0
  0
POLYLINE
  5
5F7
  8
DATA
  6
CONTINUOUS
 62
     7
 66
     1
 10
0.0
 20
0.0
 30
0.0
 70
     1
  0
VERTEX
  5
A55
  8
DATA
  6
CONTINUOUS
 62
     7
 10
62.188119451605189
 20
54.601355935559283
 30
0.0
  0
VERTEX
  5
A56
  8
DATA
  6
CONTINUOUS
 62
     7
 10
65.688119451605175
 20
54.601355935559283
 30
0.0
  0
VERTEX
  5
A57
  8
DATA
  6
CONTINUOUS
 62
     7
 10
65.688119451605175
 20
53.301355935559322
 30
0.0
  0
VERTEX
  5
A58
  8
DATA
  6
CONTINUOUS
 62
     7
 10
62.188119451605189
 20
53.301355935559322
 30
0.0
  0
SEQEND
  5
A59
  8
DATA
  6
CONTINUOUS
 62
     7
  0
LINE
  5
5FE
  8
DATA
  6
CONTINUOUS
 62
     7
 10
63.488119451605129
 20
54.601355935559283
 30
0.0
 11
63.488119451605129
 21
53.301355935559322
 31
0.0
  0
POLYLINE
  5
5FF
  8
DATA
  6
CONTINUOUS
 62
     7
 66
     1
 10
0.0
 20
0.0
 30
0.0
 70
     1
  0
VERTEX
  5
A5A
  8
DATA
  6
CONTINUOUS
 62
     7
 10
62.188119451605189
 20
57.00135593555931
 30
0.0
  0
VERTEX
  5
A5B
  8
DATA
  6
CONTINUOUS
 62
     7
 10
65.688119451605175
 20
57.00135593555931
 30
0.0
  0
VERTEX
  5
A5C
  8
DATA
  6
CONTINUOUS
 62
     7
 10
65.688119451605175
 20
55.701355935559292
 30
0.0
  0
VERTEX
  5
A5D
  8
DATA
  6
CONTINUOUS
 62
     7
 10
62.188119451605189
 20
55.701355935559292
 30
0.0
  0
SEQEND
  5
A5E
  8
DATA
  6
CONTINUOUS
 62
     7
  0
LINE
  5
606
  8
DATA
  6
CONTINUOUS
 62
     7
 10
63.488119451605129
 20
57.00135593555931
 30
0.0
 11
63.488119451605129
 21
55.701355935559292
 31
0.0
  0
POLYLINE
  5
607
  8
DATA
  6
CONTINUOUS
 62
     7
 66
     1
 10
0.0
 20
0.0
 30
0.0
 70
     1
  0
VERTEX
  5
A5F
  8
DATA
  6
CONTINUOUS
 62
     7
 10
62.188119451605189
 20
59.40135593555928
 30
0.0
  0
VERTEX
  5
A60
  8
DATA
  6
CONTINUOUS
 62
     7
 10
65.688119451605175
 20
59.40135593555928
 30
0.0
  0
VERTEX
  5
A61
  8
DATA
  6
CONTINUOUS
 62
     7
 10
65.688119451605175
 20
58.101355935559269
 30
0.0
  0
VERTEX
  5
A62
  8
DATA
  6
CONTINUOUS
 62
     7
 10
62.188119451605189
 20
58.101355935559269
 30
0.0
  0
SEQEND
  5
A63
  8
DATA
  6
CONTINUOUS
 62
     7
  0
LINE
  5
60E
  8
DATA
  6
CONTINUOUS
 62
     7
 10
63.488119451605129
 20
59.40135593555928
 30
0.0
 11
63.488119451605129
 21
58.101355935559269
 31
0.0
  0
POLYLINE
  5
60F
  8
DATA
  6
CONTINUOUS
 62
     7
 66
     1
 10
0.0
 20
0.0
 30
0.0
 70
     1
  0
VERTEX
  5
A64
  8
DATA
  6
CONTINUOUS
 62
     7
 10
62.188119451605189
 20
61.801355935559251
 30
0.0
  0
VERTEX
  5
A65
  8
DATA
  6
CONTINUOUS
 62
     7
 10
65.688119451605175
 20
61.801355935559251
 30
0.0
  0
VERTEX
  5
A66
  8
DATA
  6
CONTINUOUS
 62
     7
 10
65.688119451605175
 20
60.501355935559282
 30
0.0
  0
VERTEX
  5
A67
  8
DATA
  6
CONTINUOUS
 62
     7
 10
62.188119451605189
 20
60.501355935559282
 30
0.0
  0
SEQEND
  5
A68
  8
DATA
  6
CONTINUOUS
 62
     7
  0
LINE
  5
616
  8
DATA
  6
CONTINUOUS
 62
     7
 10
63.488119451605129
 20
61.801355935559293
 30
0.0
 11
63.488119451605129
 21
60.501355935559303
 31
0.0
  0
POLYLINE
  5
617
  8
DATA
  6
CONTINUOUS
 62
     7
 66
     1
 10
0.0
 20
0.0
 30
0.0
 70
     1
  0
VERTEX
  5
A69
  8
DATA
  6
CONTINUOUS
 62
     7
 10
62.188119451605189
 20
64.201355935559292
 30
0.0
  0
VERTEX
  5
A6A
  8
DATA
  6
CONTINUOUS
 62
     7
 10
65.688119451605175
 20
64.201355935559292
 30
0.0
  0
VERTEX
  5
A6B
  8
DATA
  6
CONTINUOUS
 62
     7
 10
65.688119451605175
 20
62.90135593555928
 30
0.0
  0
VERTEX
  5
A6C
  8
DATA
  6
CONTINUOUS
 62
     7
 10
62.188119451605189
 20
62.90135593555928
 30
0.0
  0
SEQEND
  5
A6D
  8
DATA
  6
CONTINUOUS
 62
     7
  0
LINE
  5
61E
  8
DATA
  6
CONTINUOUS
 62
     7
 10
63.488119451605129
 20
64.201355935559292
 30
0.0
 11
63.488119451605129
 21
62.90135593555928
 31
0.0
  0
POLYLINE
  5
61F
  8
DATA
  6
CONTINUOUS
 62
     7
 66
     1
 10
0.0
 20
0.0
 30
0.0
 70
     1
  0
VERTEX
  5
A6E
  8
DATA
  6
CONTINUOUS
 62
     7
 10
62.188119451605189
 20
66.601355935559269
 30
0.0
  0
VERTEX
  5
A6F
  8
DATA
  6
CONTINUOUS
 62
     7
 10
65.688119451605175
 20
66.601355935559269
 30
0.0
  0
VERTEX
  5
A70
  8
DATA
  6
CONTINUOUS
 62
     7
 10
65.688119451605175
 20
65.301355935559315
 30
0.0
  0
VERTEX
  5
A71
  8
DATA
  6
CONTINUOUS
 62
     7
 10
62.188119451605189
 20
65.301355935559315
 30
0.0
  0
SEQEND
  5
A72
  8
DATA
  6
CONTINUOUS
 62
     7
  0
LINE
  5
626
  8
DATA
  6
CONTINUOUS
 62
     7
 10
63.488119451605129
 20
66.601355935559269
 30
0.0
 11
63.488119451605129
 21
65.301355935559315
 31
0.0
  0
TEXT
  5
627
  8
DATA
 62
     7
 10
66.887430795219785
 20
65.335711342825277
 30
0.0
 40
0.9234375000000001
  1
ON
 50
270.0
 41
0.7
 11
67.810868295219791
 21
65.335711342825277
 31
0.0
 73
     3
  0
TEXT
  5
628
  8
DATA
 62
     7
 10
60.452109058377047
 20
66.346640238428478
 30
0.0
 40
0.9234375000000001
  1
1
 50
270.0
 41
0.7
 11
61.375546558377039
 21
66.346640238428478
 31
0.0
 73
     3
  0
TEXT
  5
629
  8
DATA
 62
     7
 10
60.452109058377047
 20
63.9466402384285
 30
0.0
 40
0.9234375000000001
  1
2
 50
270.0
 41
0.7
 11
61.375546558377039
 21
63.9466402384285
 31
0.0
 73
     3
  0
TEXT
  5
62A
  8
DATA
 62
     7
 10
60.452109058377047
 20
61.546640238428488
 30
0.0
 40
0.9234375000000001
  1
3
 50
270.0
 41
0.7
 11
61.375546558377039
 21
61.546640238428488
 31
0.0
 73
     3
  0
TEXT
  5
62B
  8
DATA
 62
     7
 10
60.452109058377047
 20
59.146640238428489
 30
0.0
 40
0.9234375000000001
  1
4
 50
270.0
 41
0.7
 11
61.375546558377039
 21
59.146640238428489
 31
0.0
 73
     3
  0
TEXT
  5
62C
  8
DATA
 62
     7
 10
60.452109058377047
 20
56.746640238428512
 30
0.0
 40
0.9234375000000001
  1
5
 50
270.0
 41
0.7
 11
61.375546558377039
 21
56.746640238428512
 31
0.0
 73
     3
  0
TEXT
  5
62D
  8
DATA
 62
     7
 10
60.452109058377047
 20
54.346640238428478
 30
0.0
 40
0.9234375000000001
  1
6
 50
270.0
 41
0.7
 11
61.375546558377039
 21
54.346640238428478
 31
0.0
 73
     3
  0
LINE
  5
62E
  8
DATA
  6
CONTINUOUS
 62
     7
 10
67.964693832407292
 20
69.11801194019182
 30
0.0
 11
67.964693832407292
 21
82.818011940191951
 31
0.0
  0
LINE
  5
62F
  8
DATA
  6
CONTINUOUS
 62
     7
 10
67.964693832407292
 20
82.818011940191951
 30
0.0
 11
58.964693832407292
 21
82.818011940191951
 31
0.0
  0
LINE
  5
630
  8
DATA
  6
CONTINUOUS
 62
     7
 10
67.964693832407292
 20
69.11801194019182
 30
0.0
 11
58.961629488172989
 21
69.11801194019182
 31
0.0
  0
LINE
  5
631
  8
DATA
  6
CONTINUOUS
 62
     7
 10
234.03530616759281
 20
89.498237053715627
 30
0.0
 11
234.03530616759281
 21
101.7609605711727
 31
0.0
  0
LINE
  5
632
  8
DATA
  6
CONTINUOUS
 62
     7
 10
234.03530616759281
 20
89.498237053715627
 30
0.0
 11
241.03530616759281
 21
89.498237053715627
 31
0.0
  0
LINE
  5
633
  8
DATA
  6
CONTINUOUS
 62
     7
 10
234.03530616759281
 20
94.64823705371559
 30
0.0
 11
225.0
 21
94.64823705371559
 31
0.0
  0
LINE
  5
634
  8
DATA
  6
CONTINUOUS
 62
     7
 10
234.03530616759281
 20
107.1413941462215
 30
0.0
 11
234.03530616759281
 21
108.4982370537154
 31
0.0
  0
LINE
  5
635
  8
DATA
  6
CONTINUOUS
 62
     7
 10
241.03530616759281
 20
108.4982370537154
 30
0.0
 11
234.03530616759281
 21
108.4982370537154
 31
0.0
  0
ARC
  5
636
  8
DATA
  6
CONTINUOUS
 62
     7
 10
205.80000422582799
 20
99.041355935559309
 30
0.0
 40
0.8000042258279625
 50
89.813770881929955
 51
270.18622911807012
  0
LINE
  5
637
  8
DATA
  6
CONTINUOUS
 62
     7
 10
-10.562897543966031
 20
181.56
 30
0.0
 11
-10.562897543966031
 21
191.03579493695159
 31
0.0
  0
LINE
  5
638
  8
DATA
  6
CONTINUOUS
 62
     7
 10
10.437102456033969
 20
181.56
 30
0.0
 11
10.437102456033969
 21
191.03579493695159
 31
0.0
  0
LINE
  5
639
  8
DATA
  6
CONTINUOUS
 62
     7
 10
-10.562897543966031
 20
181.56
 30
0.0
 11
10.437102456033969
 21
181.56
 31
0.0
  0
LINE
  5
63A
  8
DATA
  6
CONTINUOUS
 62
     7
 10
-3.5601793677478351
 20
175.0
 30
0.0
 11
-3.5601793677478351
 21
181.56
 31
0.0
  0
LINE
  5
63B
  8
DATA
  6
CONTINUOUS
 62
     7
 10
3.4343842798158302
 20
175.0
 30
0.0
 11
3.4343842798158302
 21
181.56
 31
0.0
  0
ARC
  5
63C
  8
DATA
  6
CONTINUOUS
 62
     7
 10
-33.000000000000007
 20
130.25
 30
0.0
 40
2.0
 50
90.0
 51
180.0
  0
ARC
  5
63D
  8
DATA
  6
CONTINUOUS
 62
     7
 10
33.000000000000099
 20
130.25
 30
0.0
 40
2.0
 50
0.0
 51
90.0
  0
ARC
  5
63E
  8
DATA
  6
CONTINUOUS
 62
     7
 10
-33.000000000000007
 20
19.75
 30
0.0
 40
2.0
 50
180.0
 51
270.0
  0
ARC
  5
63F
  8
DATA
  6
CONTINUOUS
 62
     7
 10
33.000000000000099
 20
19.75
 30
0.0
 40
2.0
 50
270.0
 51
0.0
  0
ARC
  5
640
  8
DATA
  6
CONTINUOUS
 62
     7
 10
117.0
 20
130.25
 30
0.0
 40
2.0
 50
90.0
 51
180.0
  0
ARC
  5
641
  8
DATA
  6
CONTINUOUS
 62
     7
 10
183.0
 20
130.25
 30
0.0
 40
2.0
 50
0.0
 51
90.0
  0
ARC
  5
642
  8
DATA
  6
CONTINUOUS
 62
     7
 10
183.0
 20
19.75
 30
0.0
 40
2.0
 50
270.0
 51
0.0
  0
ARC
  5
643
  8
DATA
  6
CONTINUOUS
 62
     7
 10
117.0
 20
19.75
 30
0.0
 40
2.0
 50
180.0
 51
270.0
  0
ENDSEC
  0
EOF
