  0
SECTION
  2
HEADER
  9
$ACADVER
  1
AC1009
  9
$INSBASE
 10
0.0
 20
0.0
 30
0.0
  9
$EXTMIN
 10
-3500.2197097989501
 20
-5227.1357605822232
 30
-0.0015258207003583
  9
$EXTMAX
 10
3700.2197433265619
 20
5478.0668152803337
 30
0.0000000349246037
  9
$LIMMIN
 10
0.0
 20
0.0
  9
$LIMMAX
 10
0.0
 20
0.0
  9
$ORTHOMODE
 70
     0
  9
$REGENMODE
 70
     1
  9
$FILLMODE
 70
     1
  9
$QTEXTMODE
 70
     0
  9
$MIRRTEXT
 70
     1
  9
$DRAGMODE
 70
     2
  9
$LTSCALE
 40
203.19999999999999
  9
$OSMODE
 70
   231
  9
$ATTMODE
 70
     1
  9
$TEXTSIZE
 40
0.0
  9
$TRACEWID
 40
1.0
  9
$TEXTSTYLE
  7
STANDARD
  9
$CLAYER
  8
DATA
  9
$CELTYPE
  6
CONTINUOUS
  9
$CECOLOR
 62
   256
  9
$DIMSCALE
 40
1.0
  9
$DIMASZ
 40
0.18
  9
$DIMEXO
 40
0.0625
  9
$DIMDLI
 40
0.38
  9
$DIMRND
 40
0.0
  9
$DIMDLE
 40
0.0
  9
$DIMEXE
 40
0.18
  9
$DIMTP
 40
0.0
  9
$DIMTM
 40
0.0
  9
$DIMTXT
 40
0.18
  9
$DIMCEN
 40
0.09
  9
$DIMTSZ
 40
0.0
  9
$DIMTOL
 70
     0
  9
$DIMLIM
 70
     0
  9
$DIMTIH
 70
     1
  9
$DIMTOH
 70
     1
  9
$DIMSE1
 70
     0
  9
$DIMSE2
 70
     0
  9
$DIMTAD
 70
     0
  9
$DIMZIN
 70
     0
  9
$DIMBLK
  1

  9
$DIMASO
 70
     1
  9
$DIMSHO
 70
     1
  9
$DIMPOST
  1

  9
$DIMAPOST
  1

  9
$DIMALT
 70
     0
  9
$DIMALTD
 70
     2
  9
$DIMALTF
 40
25.399999999999999
  9
$DIMLFAC
 40
1.0
  9
$DIMTOFL
 70
     0
  9
$DIMTVP
 40
0.0
  9
$DIMTIX
 70
     0
  9
$DIMSOXD
 70
     0
  9
$DIMSAH
 70
     0
  9
$DIMBLK1
  1

  9
$DIMBLK2
  1

  9
$DIMSTYLE
  2
STANDARD
  9
$DIMCLRD
 70
     0
  9
$DIMCLRE
 70
     0
  9
$DIMCLRT
 70
     0
  9
$DIMTFAC
 40
1.0
  9
$DIMGAP
 40
0.09
  9
$LUNITS
 70
     2
  9
$LUPREC
 70
     4
  9
$SKETCHINC
 40
0.1
  9
$FILLETRAD
 40
0.0
  9
$AUNITS
 70
     0
  9
$AUPREC
 70
     0
  9
$MENU
  1
acad
  9
$ELEVATION
 40
0.0
  9
$PELEVATION
 40
0.0
  9
$THICKNESS
 40
0.0
  9
$LIMCHECK
 70
     0
  9
$BLIPMODE
 70
     0
  9
$CHAMFERA
 40
0.0
  9
$CHAMFERB
 40
0.0
  9
$SKPOLY
 70
     0
  9
$TDCREATE
 40
2453952.6213657409
  9
$TDUPDATE
 40
2453952.621934942
  9
$TDINDWG
 40
0.0004767824
  9
$TDUSRTIMER
 40
0.0004767824
  9
$USRTIMER
 70
     1
  9
$ANGBASE
 50
0.0
  9
$ANGDIR
 70
     0
  9
$PDMODE
 70
     1
  9
$PDSIZE
 40
-2.0
  9
$PLINEWID
 40
0.0
  9
$COORDS
 70
     1
  9
$SPLFRAME
 70
     0
  9
$SPLINETYPE
 70
     6
  9
$SPLINESEGS
 70
     8
  9
$ATTDIA
 70
     0
  9
$ATTREQ
 70
     1
  9
$HANDLING
 70
     1
  9
$HANDSEED
  5
687
  9
$SURFTAB1
 70
     6
  9
$SURFTAB2
 70
     6
  9
$SURFTYPE
 70
     6
  9
$SURFU
 70
     6
  9
$SURFV
 70
     6
  9
$UCSNAME
  2

  9
$UCSORG
 10
0.0
 20
0.0
 30
0.0
  9
$UCSXDIR
 10
1.0
 20
0.0
 30
0.0
  9
$UCSYDIR
 10
0.0
 20
1.0
 30
0.0
  9
$PUCSNAME
  2

  9
$PUCSORG
 10
0.0
 20
0.0
 30
0.0
  9
$PUCSXDIR
 10
1.0
 20
0.0
 30
0.0
  9
$PUCSYDIR
 10
0.0
 20
1.0
 30
0.0
  9
$USERI1
 70
     0
  9
$USERI2
 70
     0
  9
$USERI3
 70
     0
  9
$USERI4
 70
     0
  9
$USERI5
 70
     0
  9
$USERR1
 40
0.0
  9
$USERR2
 40
0.0
  9
$USERR3
 40
0.0
  9
$USERR4
 40
0.0
  9
$USERR5
 40
0.0
  9
$WORLDVIEW
 70
     1
  9
$SHADEDGE
 70
     3
  9
$SHADEDIF
 70
    70
  9
$TILEMODE
 70
     1
  9
$MAXACTVP
 70
    64
  9
$PLIMCHECK
 70
     0
  9
$PEXTMIN
 10
1.0000000000000000E+020
 20
1.0000000000000000E+020
 30
1.0000000000000000E+020
  9
$PEXTMAX
 10
-1.0000000000000000E+020
 20
-1.0000000000000000E+020
 30
-1.0000000000000000E+020
  9
$PLIMMIN
 10
0.0
 20
0.0
  9
$PLIMMAX
 10
12.0
 20
9.0
  9
$UNITMODE
 70
     0
  9
$VISRETAIN
 70
     0
  9
$PLINEGEN
 70
     1
  9
$PSLTSCALE
 70
     0
  0
ENDSEC
  0
SECTION
  2
TABLES
  0
TABLE
  2
VPORT
 70
     1
  0
VPORT
  2
*ACTIVE
 70
     0
 10
0.0
 20
0.0
 11
1.0
 21
1.0
 12
100.0000167638063
 22
125.46552734905519
 13
0.0
 23
0.0
 14
1.0
 24
1.0
 15
0.0
 25
0.0
 16
0.0
 26
0.0
 36
1.0
 17
0.0
 27
0.0
 37
0.0
 40
10794.042431263901
 41
1.6703601108033239
 42
50.0
 43
0.0
 44
0.0
 50
0.0
 51
0.0
 71
     0
 72
  2000
 73
     1
 74
     1
 75
     0
 76
     0
 77
     0
 78
     0
  0
ENDTAB
  0
TABLE
  2
LTYPE
 70
    11
  0
LTYPE
  2
CONTINUOUS
 70
     0
  3
Solid line
 72
    65
 73
     0
 40
0.0
  0
ENDTAB
  0
TABLE
  2
LAYER
 70
     6
  0
LAYER
  2
0
 70
     0
 62
     7
  6
CONTINUOUS
  0
LAYER
  2
DATA
 70
     0
 62
     7
  6
CONTINUOUS
  0
LAYER
  2
HIBINO-BASE
 70
     0
 62
     7
  6
CONTINUOUS
  0
LAYER
  2
PATTERN_FILL
 70
     0
 62
     7
  6
CONTINUOUS
  0
LAYER
  2
SPEC
 70
     0
 62
     7
  6
CONTINUOUS
  0
LAYER
  2
DIMNSIONS
 70
     0
 62
     7
  6
CONTINUOUS
  0
ENDTAB
  0
TABLE
  2
STYLE
 70
     2
  0
STYLE
  2
STANDARD
 70
     0
 40
0.0
 41
1.0
 50
0.0
 71
     0
 42
0.0
  3
txt
  4
BIGFONT.SHX
  0
ENDTAB
  0
TABLE
  2
VIEW
 70
     0
  0
ENDTAB
  0
TABLE
  2
UCS
 70
     0
  0
ENDTAB
  0
TABLE
  2
APPID
 70
     1
  0
APPID
  2
ACAD
 70
     0
  0
ENDTAB
  0
TABLE
  2
DIMSTYLE
 70
     1
  0
DIMSTYLE
  2
STANDARD
 70
     0
  3

  4

  5

  6

  7

 40
1.0
 41
0.18
 42
0.0625
 43
0.38
 44
0.18
 45
0.0
 46
0.0
 47
0.0
 48
0.0
140
0.18
141
0.09
142
0.0
143
25.399999999999999
144
1.0
145
0.0
146
1.0
147
0.09
 71
     0
 72
     0
 73
     1
 74
     1
 75
     0
 76
     0
 77
     0
 78
     0
170
     0
171
     2
172
     0
173
     0
174
     0
175
     0
176
     0
177
     0
178
     0
  0
ENDTAB
  0
ENDSEC
  0
SECTION
  2
BLOCKS
  0
BLOCK
  8
0
  2
$MODEL_SPACE
 70
     0
 10
0.0
 20
0.0
 30
0.0
  3
$MODEL_SPACE
  1

  0
ENDBLK
  5
654
  8
0
  0
BLOCK
 67
     1
  8
0
  2
$PAPER_SPACE
 70
     0
 10
0.0
 20
0.0
 30
0.0
  3
$PAPER_SPACE
  1

  0
ENDBLK
  5
650
 67
     1
  8
0
  0
ENDSEC
  0
SECTION
  2
ENTITIES
  0
LINE
  5
2D
  8
HIBINO-BASE
  6
CONTINUOUS
 62
     7
 10
-3500.0
 20
5477.740785
 30
0.0
 11
3700.0
 21
5477.740785
 31
0.0
  0
LINE
  5
2E
  8
HIBINO-BASE
  6
CONTINUOUS
 62
     7
 10
3700.0
 20
-4922.259215
 30
0.0
 11
-3500.0
 21
-4922.259215
 31
0.0
  0
LINE
  5
2F
  8
HIBINO-BASE
  6
CONTINUOUS
 62
     7
 10
-3500.0
 20
-4922.259215
 30
0.0
 11
-3500.0
 21
5477.740785
 31
0.0
  0
TEXT
  5
30
  8
HIBINO-BASE
 62
     7
 10
-3212.6399999999999
 20
-5178.6063269999977
 30
0.0
 40
144.00176718749989
  1
Hibino Corporation
 41
0.8
 11
-3212.6399999999999
 21
-5034.6045598124992
 31
0.0
 73
     3
  0
LINE
  5
31
  8
HIBINO-BASE
  6
CONTINUOUS
 62
     7
 10
3700.0
 20
5477.740785
 30
0.0
 11
3700.0
 21
-4922.259215
 31
0.0
  0
TEXT
  5
32
  8
HIBINO-BASE
 62
     7
 10
2102.7355999999991
 20
-5178.6063269999977
 30
0.0
 40
144.00176718749989
  1
ヒビノ株式会社
 41
0.8
 11
2102.7355999999991
 21
-5034.6045598124992
 31
0.0
 73
     3
  0
LINE
  5
33
  8
HIBINO-BASE
  6
CONTINUOUS
 62
     7
 10
50.000000000000561
 20
-4022.259215
 30
0.0
 11
3700.0
 21
-4022.259215
 31
0.0
  0
LINE
  5
34
  8
HIBINO-BASE
  6
CONTINUOUS
 62
     7
 10
50.000000000000561
 20
-4522.259215
 30
0.0
 11
3700.0
 21
-4522.259215
 31
0.0
  0
TEXT
  5
35
  8
HIBINO-BASE
 62
     7
 10
2036.0
 20
-4620.3541483333329
 30
0.0
 40
65.153645833333329
  1
DRAWN
 41
0.8
 11
2036.0
 21
-4555.2005024999989
 31
0.0
 73
     3
  0
TEXT
  5
36
  8
HIBINO-BASE
 62
     7
 10
3036.0
 20
-4620.3541483333329
 30
0.0
 40
65.153645833333329
  1
DRAWING NO.
 41
0.8
 11
3036.0
 21
-4555.2005024999989
 31
0.0
 73
     3
  0
TEXT
  5
37
  8
HIBINO-BASE
 62
     7
 10
2536.0
 20
-4620.3541483333329
 30
0.0
 40
65.153645833333329
  1
CHECK
 41
0.8
 11
2536.0
 21
-4555.2005024999989
 31
0.0
 73
     3
  0
LINE
  5
38
  8
HIBINO-BASE
  6
CONTINUOUS
 62
     7
 10
2000.0
 20
-4522.259215
 30
0.0
 11
2000.0
 21
-4922.259215
 31
0.0
  0
LINE
  5
39
  8
HIBINO-BASE
  6
CONTINUOUS
 62
     7
 10
3000.0
 20
-4522.259215
 30
0.0
 11
3000.0
 21
-4922.259215
 31
0.0
  0
LINE
  5
3A
  8
HIBINO-BASE
  6
CONTINUOUS
 62
     7
 10
2500.0
 20
-4922.259215
 30
0.0
 11
2500.0
 21
-4522.259215
 31
0.0
  0
TEXT
  5
3B
  8
HIBINO-BASE
 62
     7
 10
2060.2324004413849
 20
-4807.7133483333328
 30
0.0
 40
65.153645833333329
  1
N.Sasaki
 41
0.8
 11
2060.2324004413849
 21
-4742.5597024999988
 31
0.0
 73
     3
  0
TEXT
  5
3C
  8
HIBINO-BASE
 62
     7
 10
255.33333333333391
 20
-4843.2192150000001
 30
0.0
 40
130.3072916666666
  1
A4
 41
0.8
 11
255.33333333333391
 21
-4712.9119233333331
 31
0.0
 73
     3
  0
TEXT
  5
3D
  8
HIBINO-BASE
 62
     7
 10
1086.0
 20
-4620.3541483333329
 30
0.0
 40
65.153645833333329
  1
DATE
 41
0.8
 11
1086.0
 21
-4555.2005024999989
 31
0.0
 73
     3
  0
TEXT
  5
3E
  8
HIBINO-BASE
 62
     7
 10
686.00000000000045
 20
-4620.3541483333329
 30
0.0
 40
65.153645833333329
  1
SCALE
 41
0.8
 11
686.00000000000045
 21
-4555.2005024999989
 31
0.0
 73
     3
  0
LINE
  5
3F
  8
HIBINO-BASE
  6
CONTINUOUS
 62
     7
 10
725.00000000000045
 20
-4872.259215
 30
0.0
 11
875.00000000000045
 21
-4722.259215
 31
0.0
  0
TEXT
  5
40
  8
HIBINO-BASE
 62
     7
 10
700.00000000000045
 20
-4766.6169483333333
 30
0.0
 40
65.153645833333329
  1
1
 41
0.8
 11
700.00000000000045
 21
-4701.4633025000003
 31
0.0
 73
     3
  0
LINE
  5
41
  8
HIBINO-BASE
  6
CONTINUOUS
 62
     7
 10
650.00000000000057
 20
-4922.259215
 30
0.0
 11
650.00000000000057
 21
-4522.259215
 31
0.0
  0
LINE
  5
42
  8
HIBINO-BASE
  6
CONTINUOUS
 62
     7
 10
1050.0
 20
-4922.259215
 30
0.0
 11
1050.0
 21
-4522.259215
 31
0.0
  0
TEXT
  5
43
  8
HIBINO-BASE
 62
     7
 10
1084.2616
 20
-4807.7133483333328
 30
0.0
 40
65.153645833333329
  1
'99.02.
 41
0.8
 11
1084.2616
 21
-4742.5597024999988
 31
0.0
 73
     3
  0
TEXT
  5
44
  8
HIBINO-BASE
 62
     7
 10
850.00000000000045
 20
-4841.6169483333333
 30
0.0
 40
65.153645833333329
  1
40
 41
0.8
 11
850.00000000000045
 21
-4776.4633025000003
 31
0.0
 73
     3
  0
LINE
  5
45
  8
HIBINO-BASE
  6
CONTINUOUS
 62
     7
 10
1550.0
 20
-4922.259215
 30
0.0
 11
1550.0
 21
-4022.259215
 31
0.0
  0
TEXT
  5
46
  8
HIBINO-BASE
 62
     7
 10
1586.0000000000009
 20
-4122.6069483333322
 30
0.0
 40
65.153645833333329
  1
TITLE
 41
0.8
 11
1586.0000000000009
 21
-4057.4533024999992
 31
0.0
 73
     3
  0
TEXT
  5
47
  8
HIBINO-BASE
 62
     7
 10
1586.0000000000009
 20
-4620.3541483333329
 30
0.0
 40
65.153645833333329
  1
DESIGN
 41
0.8
 11
1586.0000000000009
 21
-4555.2005024999989
 31
0.0
 73
     3
  0
LINE
  5
48
  8
HIBINO-BASE
  6
CONTINUOUS
 62
     7
 10
50.000000000000561
 20
-4922.259215
 30
0.0
 11
50.000000000000561
 21
-4022.259215
 31
0.0
  0
TEXT
  5
49
  8
HIBINO-BASE
 62
     7
 10
86.000000000000483
 20
-4122.6069483333322
 30
0.0
 40
65.153645833333329
  1
NOTE
 41
0.8
 11
86.000000000000483
 21
-4057.4533024999992
 31
0.0
 73
     3
  0
TEXT
  5
4A
  8
HIBINO-BASE
 62
     7
 10
88.333333333333968
 20
-4627.0374149999989
 30
0.0
 40
65.153645833333329
  1
PAPER SIZE
 41
0.8
 11
88.333333333333968
 21
-4561.8837691666658
 31
0.0
 73
     3
  0
LINE
  5
4B
  8
PATTERN_FILL
  6
CONTINUOUS
 62
     7
 10
378.71683026659889
 20
1250.2719050296889
 30
0.0
 11
392.39479497030891
 21
1263.9498697333991
 31
0.0
  0
LINE
  5
4C
  8
PATTERN_FILL
  6
CONTINUOUS
 62
     7
 10
380.21440623737681
 20
1246.112626750974
 30
0.0
 11
396.55407324902319
 21
1262.4522937626209
 31
0.0
  0
LINE
  5
4D
  8
PATTERN_FILL
  6
CONTINUOUS
 62
     7
 10
381.87126048686929
 20
1242.112626750974
 30
0.0
 11
400.55407324902319
 21
1260.795439513128
 31
0.0
  0
LINE
  5
4E
  8
PATTERN_FILL
  6
CONTINUOUS
 62
     7
 10
384.66669999999812
 20
1239.2512120146109
 30
0.0
 11
403.4154879853869
 21
1258.0
 31
0.0
  0
LINE
  5
4F
  8
PATTERN_FILL
  6
CONTINUOUS
 62
     7
 10
388.66669999999812
 20
1237.594357765118
 30
0.0
 11
405.07234223487922
 21
1254.0
 31
0.0
  0
LINE
  5
50
  8
PATTERN_FILL
  6
CONTINUOUS
 62
     7
 10
392.66669999999851
 20
1235.9375035156261
 30
0.0
 11
406.7291964843713
 21
1249.9999999999991
 31
0.0
  0
LINE
  5
51
  8
PATTERN_FILL
  6
CONTINUOUS
 62
     7
 10
402.323554249491
 20
1239.937503515627
 30
0.0
 11
402.7291964843713
 21
1240.343145750506
 31
0.0
  0
LINE
  5
52
  8
PATTERN_FILL
  6
CONTINUOUS
 62
     7
 10
249.2822133489563
 20
959.68423360250961
 30
0.0
 11
249.64924139748621
 21
960.05126165103945
 31
0.0
  0
LINE
  5
53
  8
PATTERN_FILL
  6
CONTINUOUS
 62
     7
 10
245.28221334895639
 20
950.0273793530173
 30
0.0
 11
259.30609564697841
 21
964.05126165103923
 31
0.0
  0
LINE
  5
54
  8
PATTERN_FILL
  6
CONTINUOUS
 62
     7
 10
246.923073078762
 20
946.01138483333034
 30
0.0
 11
263.3220901666653
 21
962.41040192123387
 31
0.0
  0
LINE
  5
55
  8
PATTERN_FILL
  6
CONTINUOUS
 62
     7
 10
248.57992732825431
 20
942.01138483333023
 30
0.0
 11
267.3220901666653
 21
960.75354767174144
 31
0.0
  0
LINE
  5
56
  8
PATTERN_FILL
  6
CONTINUOUS
 62
     7
 10
251.43471691764
 20
939.20932017322355
 30
0.0
 11
270.12415482677198
 21
957.8987580823557
 31
0.0
  0
LINE
  5
57
  8
PATTERN_FILL
  6
CONTINUOUS
 62
     7
 10
255.43471691764009
 20
937.55246592373123
 30
0.0
 11
271.78100907626441
 21
953.89875808235558
 31
0.0
  0
LINE
  5
58
  8
PATTERN_FILL
  6
CONTINUOUS
 62
     7
 10
259.57800067666801
 20
936.03889543326704
 30
0.0
 11
273.29457956672888
 21
949.7554743233278
 31
0.0
  0
LINE
  5
59
  8
PATTERN_FILL
  6
CONTINUOUS
 62
     7
 10
269.23485492616038
 20
940.03889543326693
 30
0.0
 11
269.29457956672888
 21
940.09862007383549
 31
0.0
  0
LINE
  5
5A
  8
PATTERN_FILL
  6
CONTINUOUS
 62
     7
 10
963.02325414263851
 20
1252.621233889085
 30
0.0
 11
973.37876611090758
 21
1262.976745857354
 31
0.0
  0
LINE
  5
5B
  8
PATTERN_FILL
  6
CONTINUOUS
 62
     7
 10
963.14462513005253
 20
1247.085750627007
 30
0.0
 11
978.91424937298643
 21
1262.8553748699401
 31
0.0
  0
LINE
  5
5C
  8
PATTERN_FILL
  6
CONTINUOUS
 62
     7
 10
964.80147937954473
 20
1243.0857506270061
 30
0.0
 11
982.91424937298632
 21
1261.198520620447
 31
0.0
  0
LINE
  5
5D
  8
PATTERN_FILL
  6
CONTINUOUS
 62
     7
 10
967.02687612395846
 20
1239.6542931219269
 30
0.0
 11
986.34570687806502
 21
1258.9731238760351
 31
0.0
  0
LINE
  5
5E
  8
PATTERN_FILL
  6
CONTINUOUS
 62
     7
 10
971.02687612395835
 20
1237.9974388724349
 30
0.0
 11
988.00256112755767
 21
1254.9731238760339
 31
0.0
  0
LINE
  5
5F
  8
PATTERN_FILL
  6
CONTINUOUS
 62
     7
 10
975.02687612395846
 20
1236.340584622943
 30
0.0
 11
989.65941537704998
 21
1250.9731238760351
 31
0.0
  0
LINE
  5
60
  8
PATTERN_FILL
  6
CONTINUOUS
 62
     7
 10
983.30752539008347
 20
1238.9643796395751
 30
0.0
 11
987.03562036041706
 21
1242.6924746099089
 31
0.0
  0
LINE
  5
61
  8
PATTERN_FILL
  6
CONTINUOUS
 62
     7
 10
1212.0501302665959
 20
1250.271905029676
 30
0.0
 11
1225.728094970317
 21
1263.9498697333961
 31
0.0
  0
LINE
  5
62
  8
PATTERN_FILL
  6
CONTINUOUS
 62
     7
 10
1213.547706237378
 20
1246.1126267509651
 30
0.0
 11
1229.8873732490281
 21
1262.452293762615
 31
0.0
  0
LINE
  5
63
  8
PATTERN_FILL
  6
CONTINUOUS
 62
     7
 10
1215.2045604868699
 20
1242.112626750964
 30
0.0
 11
1233.8873732490281
 21
1260.7954395131219
 31
0.0
  0
LINE
  5
64
  8
PATTERN_FILL
  6
CONTINUOUS
 62
     7
 10
1218.0
 20
1239.2512120146021
 30
0.0
 11
1236.7487879853909
 21
1257.999999999992
 31
0.0
  0
LINE
  5
65
  8
PATTERN_FILL
  6
CONTINUOUS
 62
     7
 10
1222.0
 20
1237.594357765109
 30
0.0
 11
1238.4056422348831
 21
1253.999999999992
 31
0.0
  0
LINE
  5
66
  8
PATTERN_FILL
  6
CONTINUOUS
 62
     7
 10
1226.0000000000009
 20
1235.937503515617
 30
0.0
 11
1240.0624964843751
 21
1249.999999999992
 31
0.0
  0
LINE
  5
67
  8
PATTERN_FILL
  6
CONTINUOUS
 62
     7
 10
1235.6568542494931
 20
1239.937503515617
 30
0.0
 11
1236.0624964843751
 21
1240.3431457505001
 31
0.0
  0
LINE
  5
68
  8
PATTERN_FILL
  6
CONTINUOUS
 62
     7
 10
1412.0501302665959
 20
1250.271905029671
 30
0.0
 11
1425.728094970317
 21
1263.949869733392
 31
0.0
  0
LINE
  5
69
  8
PATTERN_FILL
  6
CONTINUOUS
 62
     7
 10
1413.547706237378
 20
1246.112626750961
 30
0.0
 11
1429.8873732490281
 21
1262.4522937626109
 31
0.0
  0
LINE
  5
6A
  8
PATTERN_FILL
  6
CONTINUOUS
 62
     7
 10
1415.2045604868699
 20
1242.112626750961
 30
0.0
 11
1433.8873732490281
 21
1260.795439513118
 31
0.0
  0
LINE
  5
6B
  8
PATTERN_FILL
  6
CONTINUOUS
 62
     7
 10
1418.0000000000009
 20
1239.251212014598
 30
0.0
 11
1436.7487879853909
 21
1257.9999999999879
 31
0.0
  0
LINE
  5
6C
  8
PATTERN_FILL
  6
CONTINUOUS
 62
     7
 10
1422.0000000000009
 20
1237.594357765106
 30
0.0
 11
1438.4056422348831
 21
1253.9999999999891
 31
0.0
  0
LINE
  5
6D
  8
PATTERN_FILL
  6
CONTINUOUS
 62
     7
 10
1426.0000000000009
 20
1235.937503515614
 30
0.0
 11
1440.0624964843751
 21
1249.9999999999879
 31
0.0
  0
LINE
  5
6E
  8
PATTERN_FILL
  6
CONTINUOUS
 62
     7
 10
1435.6568542494931
 20
1239.937503515614
 30
0.0
 11
1436.0624964843751
 21
1240.343145750496
 31
0.0
  0
LINE
  5
6F
  8
PATTERN_FILL
  6
CONTINUOUS
 62
     7
 10
1512.0501302665959
 20
1250.271905029671
 30
0.0
 11
1525.728094970317
 21
1263.9498697333929
 31
0.0
  0
LINE
  5
70
  8
PATTERN_FILL
  6
CONTINUOUS
 62
     7
 10
1513.547706237378
 20
1246.112626750961
 30
0.0
 11
1529.8873732490281
 21
1262.4522937626109
 31
0.0
  0
LINE
  5
71
  8
PATTERN_FILL
  6
CONTINUOUS
 62
     7
 10
1515.2045604868711
 20
1242.112626750961
 30
0.0
 11
1533.8873732490281
 21
1260.795439513118
 31
0.0
  0
LINE
  5
72
  8
PATTERN_FILL
  6
CONTINUOUS
 62
     7
 10
1518.0
 20
1239.251212014598
 30
0.0
 11
1536.7487879853909
 21
1257.9999999999879
 31
0.0
  0
LINE
  5
73
  8
PATTERN_FILL
  6
CONTINUOUS
 62
     7
 10
1522.0000000000009
 20
1237.594357765106
 30
0.0
 11
1538.4056422348831
 21
1253.9999999999891
 31
0.0
  0
LINE
  5
74
  8
PATTERN_FILL
  6
CONTINUOUS
 62
     7
 10
1526.0
 20
1235.937503515614
 30
0.0
 11
1540.0624964843751
 21
1249.9999999999879
 31
0.0
  0
LINE
  5
75
  8
PATTERN_FILL
  6
CONTINUOUS
 62
     7
 10
1535.6568542494931
 20
1239.937503515614
 30
0.0
 11
1536.0624964843751
 21
1240.343145750496
 31
0.0
  0
LINE
  5
76
  8
PATTERN_FILL
  6
CONTINUOUS
 62
     7
 10
1213.993816891109
 20
1054.964367139585
 30
0.0
 11
1221.0356203604099
 21
1062.006170608887
 31
0.0
  0
LINE
  5
77
  8
PATTERN_FILL
  6
CONTINUOUS
 62
     7
 10
1212.7426048764989
 20
1048.056300875483
 30
0.0
 11
1227.9436866245121
 21
1063.2573826234959
 31
0.0
  0
LINE
  5
78
  8
PATTERN_FILL
  6
CONTINUOUS
 62
     7
 10
1214.3994591259921
 20
1044.056300875483
 30
0.0
 11
1231.943686624513
 21
1061.600528374003
 31
0.0
  0
LINE
  5
79
  8
PATTERN_FILL
  6
CONTINUOUS
 62
     7
 10
1216.056313375484
 20
1040.056300875483
 30
0.0
 11
1235.9436866245121
 21
1059.9436741245111
 31
0.0
  0
LINE
  5
7A
  8
PATTERN_FILL
  6
CONTINUOUS
 62
     7
 10
1220.056313375484
 20
1038.399446625991
 30
0.0
 11
1237.6005408740041
 21
1055.9436741245111
 31
0.0
  0
LINE
  5
7B
  8
PATTERN_FILL
  6
CONTINUOUS
 62
     7
 10
1224.056313375484
 20
1036.742592376499
 30
0.0
 11
1239.257395123497
 21
1051.9436741245111
 31
0.0
  0
LINE
  5
7C
  8
PATTERN_FILL
  6
CONTINUOUS
 62
     7
 10
1230.964379639586
 20
1037.9938043911079
 30
0.0
 11
1238.0061831088869
 21
1045.0356078604091
 31
0.0
  0
LINE
  5
7D
  8
PATTERN_FILL
  6
CONTINUOUS
 62
     7
 10
1414.700932511133
 20
1056.6714952596101
 30
0.0
 11
1419.328492240387
 21
1061.2990549888641
 31
0.0
  0
LINE
  5
7E
  8
PATTERN_FILL
  6
CONTINUOUS
 62
     7
 10
1412.449707996522
 20
1048.7634164955059
 30
0.0
 11
1427.236571004491
 21
1063.5502795034749
 31
0.0
  0
LINE
  5
7F
  8
PATTERN_FILL
  6
CONTINUOUS
 62
     7
 10
1414.1065622460139
 20
1044.7634164955059
 30
0.0
 11
1431.236571004491
 21
1061.893425253983
 31
0.0
  0
LINE
  5
80
  8
PATTERN_FILL
  6
CONTINUOUS
 62
     7
 10
1415.763416495507
 20
1040.7634164955059
 30
0.0
 11
1435.236571004491
 21
1060.236571004491
 31
0.0
  0
LINE
  5
81
  8
PATTERN_FILL
  6
CONTINUOUS
 62
     7
 10
1419.3491977554629
 20
1038.69234350597
 30
0.0
 11
1437.3076439940271
 21
1056.650789744534
 31
0.0
  0
LINE
  5
82
  8
PATTERN_FILL
  6
CONTINUOUS
 62
     7
 10
1423.3491977554629
 20
1037.0354892564781
 30
0.0
 11
1438.9644982435191
 21
1052.650789744534
 31
0.0
  0
LINE
  5
83
  8
PATTERN_FILL
  6
CONTINUOUS
 62
     7
 10
1429.2572515195629
 20
1037.286688771085
 30
0.0
 11
1438.7132987289119
 21
1046.742735980434
 31
0.0
  0
LINE
  5
84
  8
SPEC
  6
CONTINUOUS
 62
     7
 10
-3200.0
 20
5077.7407849999991
 30
0.0
 11
2700.0
 21
5077.7407849999991
 31
0.0
  0
LINE
  5
85
  8
SPEC
  6
CONTINUOUS
 62
     7
 10
-3200.0
 20
4927.7407849999991
 30
0.0
 11
2700.0
 21
4927.7407849999991
 31
0.0
  0
LINE
  5
86
  8
SPEC
  6
CONTINUOUS
 62
     7
 10
-3200.0
 20
4327.7407849999981
 30
0.0
 11
2700.0
 21
4327.7407849999981
 31
0.0
  0
LINE
  5
87
  8
SPEC
  6
CONTINUOUS
 62
     7
 10
-3200.0
 20
4477.7407849999991
 30
0.0
 11
2700.0
 21
4477.7407849999991
 31
0.0
  0
LINE
  5
88
  8
SPEC
  6
CONTINUOUS
 62
     7
 10
-3200.0
 20
4627.7407849999991
 30
0.0
 11
2700.0
 21
4627.7407849999991
 31
0.0
  0
LINE
  5
89
  8
SPEC
  6
CONTINUOUS
 62
     7
 10
-3200.0
 20
4177.740785
 30
0.0
 11
2700.0
 21
4177.740785
 31
0.0
  0
LINE
  5
8A
  8
SPEC
  6
CONTINUOUS
 62
     7
 10
-3200.0
 20
3877.740785
 30
0.0
 11
2700.0
 21
3877.740785
 31
0.0
  0
LINE
  5
8B
  8
SPEC
  6
CONTINUOUS
 62
     7
 10
-3200.0
 20
4027.740785
 30
0.0
 11
2700.0
 21
4027.740785
 31
0.0
  0
LINE
  5
8C
  8
SPEC
  6
CONTINUOUS
 62
     7
 10
-3200.0
 20
3727.740785
 30
0.0
 11
2700.0
 21
3727.740785
 31
0.0
  0
LINE
  5
8D
  8
SPEC
  6
CONTINUOUS
 62
     7
 10
-3200.0
 20
3577.740785
 30
0.0
 11
2700.0
 21
3577.740785
 31
0.0
  0
LINE
  5
8E
  8
SPEC
  6
CONTINUOUS
 62
     7
 10
-3200.0
 20
4777.7407849999981
 30
0.0
 11
2700.0
 21
4777.7407849999981
 31
0.0
  0
LINE
  5
8F
  8
SPEC
  6
CONTINUOUS
 62
     7
 10
-3200.0
 20
3277.7407850000009
 30
0.0
 11
2700.0
 21
3277.7407850000009
 31
0.0
  0
LINE
  5
90
  8
SPEC
  6
CONTINUOUS
 62
     7
 10
-3200.0
 20
2977.740785
 30
0.0
 11
2700.0
 21
2977.740785
 31
0.0
  0
LINE
  5
91
  8
SPEC
  6
CONTINUOUS
 62
     7
 10
-3200.0
 20
5077.7407849999991
 30
0.0
 11
-3200.0
 21
2677.740785
 31
0.0
  0
TEXT
  5
92
  8
SPEC
 62
     7
 10
-3150.0
 20
5133.4715849999984
 30
0.0
 40
97.73046875
  1
仕様
 41
0.8
 11
-3150.0
 21
5231.2020537499984
 31
0.0
 73
     3
  0
LINE
  5
93
  8
SPEC
  6
CONTINUOUS
 62
     7
 10
-1900.0
 20
5077.7407849999991
 30
0.0
 11
-1900.0
 21
2677.740785
 31
0.0
  0
LINE
  5
94
  8
SPEC
  6
CONTINUOUS
 62
     7
 10
1100.0
 20
4027.740785
 30
0.0
 11
1100.0
 21
4327.7407849999981
 31
0.0
  0
LINE
  5
95
  8
SPEC
  6
CONTINUOUS
 62
     7
 10
2700.0
 20
5077.7407849999991
 30
0.0
 11
2700.0
 21
2677.740785
 31
0.0
  0
LINE
  5
96
  8
SPEC
  6
CONTINUOUS
 62
     7
 10
105.9999999999981
 20
293.99998749999492
 30
0.0
 11
-254.0
 21
293.99998749999492
 31
0.0
  0
LINE
  5
97
  8
SPEC
  6
CONTINUOUS
 62
     7
 10
-254.0
 20
749.99998749999759
 30
0.0
 11
105.9999999999981
 21
749.99998749999759
 31
0.0
  0
LINE
  5
98
  8
SPEC
  6
CONTINUOUS
 62
     7
 10
-266.0
 20
345.99998749999492
 30
0.0
 11
-233.99999999999639
 21
345.99998749999492
 31
0.0
  0
CIRCLE
  5
99
  8
SPEC
  6
CONTINUOUS
 62
     7
 10
-249.9999999999954
 20
345.99998749999492
 30
0.0
 40
24.0
  0
LINE
  5
9A
  8
SPEC
  6
CONTINUOUS
 62
     7
 10
-266.0
 20
697.99998749999838
 30
0.0
 11
-233.99999999999639
 21
697.99998749999838
 31
0.0
  0
CIRCLE
  5
9B
  8
SPEC
  6
CONTINUOUS
 62
     7
 10
-249.9999999999954
 20
697.99998749999838
 30
0.0
 40
24.0
  0
TEXT
  5
9C
  8
SPEC
 62
     7
 10
-426.22876886195161
 20
143.55467499999941
 30
0.0
 40
82.66448974609375
  1
BLK (-)
 41
0.8
 11
-426.22876886195161
 21
226.21916474609321
 31
0.0
 73
     3
  0
LINE
  5
9D
  8
SPEC
  6
CONTINUOUS
 62
     7
 10
-301.99999999999642
 20
341.9999874999985
 30
0.0
 11
-301.99999999999642
 21
701.99998749999747
 31
0.0
  0
ARC
  5
9E
  8
SPEC
  6
CONTINUOUS
 62
     7
 10
-254.0
 20
341.9999874999985
 30
0.0
 40
48.0
 50
180.0
 51
270.0
  0
LINE
  5
9F
  8
SPEC
  6
CONTINUOUS
 62
     7
 10
-249.9999999999954
 20
329.9999874999985
 30
0.0
 11
-249.9999999999954
 21
361.99998749999492
 31
0.0
  0
ARC
  5
A0
  8
SPEC
  6
CONTINUOUS
 62
     7
 10
-254.0
 20
701.99998749999747
 30
0.0
 40
48.0
 50
90.0
 51
180.0
  0
LINE
  5
A1
  8
SPEC
  6
CONTINUOUS
 62
     7
 10
-249.9999999999954
 20
681.99998749999486
 30
0.0
 11
-249.9999999999954
 21
713.99998749999838
 31
0.0
  0
LINE
  5
A2
  8
SPEC
  6
CONTINUOUS
 62
     7
 10
1726.0
 20
49.999987500003051
 30
0.0
 11
1726.0
 21
1249.999987499998
 31
0.0
  0
LINE
  5
A3
  8
SPEC
  6
CONTINUOUS
 62
     7
 10
2073.9999999999968
 20
941.99998750000123
 30
0.0
 11
2073.9999999999968
 21
1201.9999875000001
 31
0.0
  0
LINE
  5
A4
  8
SPEC
  6
CONTINUOUS
 62
     7
 10
1998.0000000000009
 20
891.99998750000395
 30
0.0
 11
1998.0000000000009
 21
1251.999987500003
 31
0.0
  0
LINE
  5
A5
  8
SPEC
  6
CONTINUOUS
 62
     7
 10
2254.0000000000009
 20
1129.999987500003
 30
0.0
 11
2254.0000000000009
 21
997.99998749999816
 31
0.0
  0
LINE
  5
A6
  8
SPEC
  6
CONTINUOUS
 62
     7
 10
2197.9999999999991
 20
1129.999987500003
 30
0.0
 11
2197.9999999999991
 21
997.99998749999816
 31
0.0
  0
LINE
  5
A7
  8
SPEC
  6
CONTINUOUS
 62
     7
 10
2106.0
 20
1129.999987500003
 30
0.0
 11
2106.0
 21
997.99998749999816
 31
0.0
  0
LINE
  5
A8
  8
SPEC
  6
CONTINUOUS
 62
     7
 10
2377.9999999999991
 20
1201.9999875000001
 30
0.0
 11
2377.9999999999991
 21
941.99998750000123
 31
0.0
  0
LINE
  5
A9
  8
SPEC
  6
CONTINUOUS
 62
     7
 10
2453.9999999999991
 20
1251.999987500003
 30
0.0
 11
2453.9999999999991
 21
891.99998750000395
 31
0.0
  0
LINE
  5
AA
  8
SPEC
  6
CONTINUOUS
 62
     7
 10
2346.0000000000009
 20
1129.999987500003
 30
0.0
 11
2346.0000000000009
 21
997.99998749999816
 31
0.0
  0
LINE
  5
AB
  8
SPEC
  6
CONTINUOUS
 62
     7
 10
1625.9998874999951
 20
900.00008749999881
 30
0.0
 11
1625.9998874999951
 21
1299.9999874999969
 31
0.0
  0
LINE
  5
AC
  8
SPEC
  6
CONTINUOUS
 62
     7
 10
1225.999999999998
 20
1049.9999874999969
 30
0.0
 11
1225.999999999998
 21
1134.9999874999969
 31
0.0
  0
LINE
  5
AD
  8
SPEC
  6
CONTINUOUS
 62
     7
 10
1426.0
 20
1049.9999874999969
 30
0.0
 11
1426.0
 21
1134.9999874999969
 31
0.0
  0
LINE
  5
AE
  8
SPEC
  6
CONTINUOUS
 62
     7
 10
1526.0
 20
1049.9999874999969
 30
0.0
 11
1526.0
 21
1134.9999874999969
 31
0.0
  0
LINE
  5
AF
  8
SPEC
  6
CONTINUOUS
 62
     7
 10
975.99999999999818
 20
1049.9999874999969
 30
0.0
 11
975.99999999999818
 21
1134.9999874999969
 31
0.0
  0
LINE
  5
B0
  8
SPEC
  6
CONTINUOUS
 62
     7
 10
526.0
 20
900.00008749999665
 30
0.0
 11
526.0
 21
1299.9999874999969
 31
0.0
  0
LINE
  5
B1
  8
SPEC
  6
CONTINUOUS
 62
     7
 10
0.0
 20
749.99998749999759
 30
0.0
 11
0.0
 21
1249.9999999999991
 31
0.0
  0
LINE
  5
B2
  8
SPEC
  6
CONTINUOUS
 62
     7
 10
392.666699999998
 20
700.0
 30
0.0
 11
392.666699999998
 21
1250.0
 31
0.0
  0
LINE
  5
B3
  8
SPEC
  6
CONTINUOUS
 62
     7
 10
1726.0
 20
49.999987500003051
 30
0.0
 11
2752.3615502234002
 21
49.999987499995768
 31
0.0
  0
LINE
  5
B4
  8
SPEC
  6
CONTINUOUS
 62
     7
 10
1825.999999999998
 20
-125.0
 30
0.0
 11
2699.6384497766048
 21
-125.0
 31
0.0
  0
LINE
  5
B5
  8
SPEC
  6
CONTINUOUS
 62
     7
 10
975.99988749999829
 20
699.99999999999909
 30
0.0
 11
2300.0000000000018
 21
700.00000000000159
 31
0.0
  0
LINE
  5
B6
  8
SPEC
  6
CONTINUOUS
 62
     7
 10
975.99988749999648
 20
400.00007499999811
 30
0.0
 11
2151.9999999999991
 21
400.00007499999981
 31
0.0
  0
LINE
  5
B7
  8
SPEC
  6
CONTINUOUS
 62
     7
 10
526.0
 20
700.0
 30
0.0
 11
975.99988749999648
 21
700.0000000000008
 31
0.0
  0
LINE
  5
B8
  8
SPEC
  6
CONTINUOUS
 62
     7
 10
526.0
 20
400.00007499999907
 30
0.0
 11
975.99988749999648
 21
400.00007499999907
 31
0.0
  0
LINE
  5
B9
  8
SPEC
  6
CONTINUOUS
 62
     7
 10
525.99999999999818
 20
350.00008749999961
 30
0.0
 11
975.99988749999648
 21
350.00008749999688
 31
0.0
  0
LINE
  5
BA
  8
SPEC
  6
CONTINUOUS
 62
     7
 10
526.0
 20
749.99998749999759
 30
0.0
 11
975.99988749999648
 21
749.99998749999759
 31
0.0
  0
LINE
  5
BB
  8
SPEC
  6
CONTINUOUS
 62
     7
 10
526.0
 20
900.00008749999574
 30
0.0
 11
1625.9998874999951
 21
900.00008749999802
 31
0.0
  0
LINE
  5
BC
  8
SPEC
  6
CONTINUOUS
 62
     7
 10
526.0
 20
950.00007499999822
 30
0.0
 11
1625.9998874999951
 21
950.00007499999822
 31
0.0
  0
TEXT
  5
BD
  8
SPEC
 62
     7
 10
569.91986637015782
 20
463.3529351171855
 30
0.0
 40
57.865142822265653
  1
フィルター
 41
0.8
 11
569.91986637015782
 21
521.21807793945106
 31
0.0
 73
     3
  0
TEXT
  5
BE
  8
SPEC
 62
     7
 10
583.7530000281937
 20
568.82165874999816
 30
0.0
 40
57.865142822265653
  1
ハイパス
 41
0.8
 11
583.7530000281937
 21
626.68680157226379
 31
0.0
 73
     3
  0
TEXT
  5
BF
  8
SPEC
 62
     7
 10
569.919866370156
 20
1030.0195851171829
 30
0.0
 40
57.865142822265653
  1
フィルター
 41
0.8
 11
569.919866370156
 21
1087.884727939449
 31
0.0
 73
     3
  0
LINE
  5
C0
  8
SPEC
  6
CONTINUOUS
 62
     7
 10
-147.9999999999981
 20
950.00007499999822
 30
0.0
 11
526.0
 21
950.00007499999822
 31
0.0
  0
TEXT
  5
C1
  8
SPEC
 62
     7
 10
-146.39055371579889
 20
318.64842499999389
 30
0.0
 40
42.98553466796875
  1
INPUT
 41
0.8
 11
-146.39055371579889
 21
361.6339596679627
 31
0.0
 73
     3
  0
LINE
  5
C2
  8
SPEC
  6
CONTINUOUS
 62
     7
 10
78.0
 20
447.99998749999838
 30
0.0
 11
-226.00000000000179
 21
447.99998749999838
 31
0.0
  0
LINE
  5
C3
  8
SPEC
  6
CONTINUOUS
 62
     7
 10
78.0
 20
391.99998749999389
 30
0.0
 11
-226.00000000000179
 21
391.99998749999389
 31
0.0
  0
LINE
  5
C4
  8
SPEC
  6
CONTINUOUS
 62
     7
 10
-226.00000000000179
 20
579.99998749999565
 30
0.0
 11
78.0
 21
579.99998749999565
 31
0.0
  0
LINE
  5
C5
  8
SPEC
  6
CONTINUOUS
 62
     7
 10
-226.00000000000179
 20
651.99998749999941
 30
0.0
 11
78.0
 21
651.99998749999941
 31
0.0
  0
CIRCLE
  5
C6
  8
SPEC
  6
CONTINUOUS
 62
     7
 10
-147.9999999999981
 20
419.99998750000032
 30
0.0
 40
18.0
  0
LINE
  5
C7
  8
SPEC
  6
CONTINUOUS
 62
     7
 10
-159.99999999999821
 20
419.99998750000032
 30
0.0
 11
-135.99999999999821
 21
419.99998750000032
 31
0.0
  0
LINE
  5
C8
  8
SPEC
  6
CONTINUOUS
 62
     7
 10
-101.9999999999982
 20
503.9999874999956
 30
0.0
 11
-193.99999999999821
 21
503.9999874999956
 31
0.0
  0
LINE
  5
C9
  8
SPEC
  6
CONTINUOUS
 62
     7
 10
-101.9999999999982
 20
475.99998749999759
 30
0.0
 11
-193.99999999999821
 21
475.99998749999759
 31
0.0
  0
LINE
  5
CA
  8
SPEC
  6
CONTINUOUS
 62
     7
 10
-208.0
 20
639.99998749999838
 30
0.0
 11
-87.999999999996376
 21
639.99998749999838
 31
0.0
  0
LINE
  5
CB
  8
SPEC
  6
CONTINUOUS
 62
     7
 10
-87.999999999996376
 20
591.99998749999656
 30
0.0
 11
-208.0
 21
591.99998749999656
 31
0.0
  0
LINE
  5
CC
  8
SPEC
  6
CONTINUOUS
 62
     7
 10
-193.99999999999821
 20
579.99998749999565
 30
0.0
 11
-193.99999999999821
 21
447.99998749999838
 31
0.0
  0
LINE
  5
CD
  8
SPEC
  6
CONTINUOUS
 62
     7
 10
-226.00000000000179
 20
391.99998749999389
 30
0.0
 11
-226.00000000000179
 21
651.99998749999941
 31
0.0
  0
LINE
  5
CE
  8
SPEC
  6
CONTINUOUS
 62
     7
 10
-208.0
 20
591.99998749999656
 30
0.0
 11
-208.0
 21
639.99998749999838
 31
0.0
  0
LINE
  5
CF
  8
SPEC
  6
CONTINUOUS
 62
     7
 10
-147.9999999999981
 20
749.99998749999759
 30
0.0
 11
-147.9999999999981
 21
950.00007499999822
 31
0.0
  0
LINE
  5
D0
  8
SPEC
  6
CONTINUOUS
 62
     7
 10
525.99999999999818
 20
749.99998749999759
 30
0.0
 11
526.0
 21
350.00008749999961
 31
0.0
  0
LINE
  5
D1
  8
SPEC
  6
CONTINUOUS
 62
     7
 10
46.000000000003638
 20
503.9999874999956
 30
0.0
 11
-45.999999999996383
 21
503.9999874999956
 31
0.0
  0
LINE
  5
D2
  8
SPEC
  6
CONTINUOUS
 62
     7
 10
46.000000000003638
 20
475.99998749999759
 30
0.0
 11
-45.999999999996383
 21
475.99998749999759
 31
0.0
  0
LINE
  5
D3
  8
SPEC
  6
CONTINUOUS
 62
     7
 10
-59.999999999998209
 20
639.99998749999838
 30
0.0
 11
59.999999999998181
 21
639.99998749999838
 31
0.0
  0
LINE
  5
D4
  8
SPEC
  6
CONTINUOUS
 62
     7
 10
59.999999999998181
 20
591.99998749999656
 30
0.0
 11
-59.999999999998209
 21
591.99998749999656
 31
0.0
  0
LINE
  5
D5
  8
SPEC
  6
CONTINUOUS
 62
     7
 10
-45.999999999996383
 20
579.99998749999565
 30
0.0
 11
-45.999999999996383
 21
447.99998749999838
 31
0.0
  0
LINE
  5
D6
  8
SPEC
  6
CONTINUOUS
 62
     7
 10
-101.9999999999982
 20
579.99998749999565
 30
0.0
 11
-101.9999999999982
 21
447.99998749999838
 31
0.0
  0
LINE
  5
D7
  8
SPEC
  6
CONTINUOUS
 62
     7
 10
-59.999999999998209
 20
591.99998749999656
 30
0.0
 11
-59.999999999998209
 21
639.99998749999838
 31
0.0
  0
LINE
  5
D8
  8
SPEC
  6
CONTINUOUS
 62
     7
 10
-87.999999999996376
 20
639.99998749999838
 30
0.0
 11
-87.999999999996376
 21
591.99998749999656
 31
0.0
  0
TEXT
  5
D9
  8
SPEC
 62
     7
 10
-19.999999999996358
 20
143.55467499999941
 30
0.0
 40
82.66448974609375
  1
RED (+)
 41
0.8
 11
-19.999999999996358
 21
226.21916474609321
 31
0.0
 73
     3
  0
CIRCLE
  5
DA
  8
SPEC
  6
CONTINUOUS
 62
     7
 10
259.3333999999976
 20
950.00007499999822
 30
0.0
 40
14.062496484373691
  0
LINE
  5
DB
  8
SPEC
  6
CONTINUOUS
 62
     7
 10
259.33339999999959
 20
400.00007499999532
 30
0.0
 11
526.0
 21
400.00007499999907
 31
0.0
  0
LINE
  5
DC
  8
SPEC
  6
CONTINUOUS
 62
     7
 10
46.000000000003638
 20
579.99998749999565
 30
0.0
 11
46.000000000003638
 21
447.99998749999838
 31
0.0
  0
LINE
  5
DD
  8
SPEC
  6
CONTINUOUS
 62
     7
 10
78.0
 20
651.99998749999941
 30
0.0
 11
78.0
 21
391.99998749999389
 31
0.0
  0
LINE
  5
DE
  8
SPEC
  6
CONTINUOUS
 62
     7
 10
154.0
 20
701.99998749999668
 30
0.0
 11
154.0
 21
341.99998749999668
 31
0.0
  0
ARC
  5
DF
  8
SPEC
  6
CONTINUOUS
 62
     7
 10
105.9999999999981
 20
341.99998749999668
 30
0.0
 40
48.0
 50
270.0
 51
0.0
  0
LINE
  5
E0
  8
SPEC
  6
CONTINUOUS
 62
     7
 10
102.0
 20
329.99998749999583
 30
0.0
 11
102.0
 21
361.99998749999293
 31
0.0
  0
LINE
  5
E1
  8
SPEC
  6
CONTINUOUS
 62
     7
 10
86.000000000001819
 20
345.99998749999492
 30
0.0
 11
117.9999999999981
 21
345.99998749999492
 31
0.0
  0
CIRCLE
  5
E2
  8
SPEC
  6
CONTINUOUS
 62
     7
 10
102.0
 20
345.99998749999492
 30
0.0
 40
23.999999999999989
  0
LINE
  5
E3
  8
SPEC
  6
CONTINUOUS
 62
     7
 10
0.000000000003638
 20
431.99998749999293
 30
0.0
 11
0.000000000003638
 21
407.99998749999941
 31
0.0
  0
CIRCLE
  5
E4
  8
SPEC
  6
CONTINUOUS
 62
     7
 10
0.000000000003638
 20
419.99998750000032
 30
0.0
 40
18.0
  0
LINE
  5
E5
  8
SPEC
  6
CONTINUOUS
 62
     7
 10
-11.99999999999636
 20
419.99998750000032
 30
0.0
 11
12.000000000003631
 21
419.99998750000032
 31
0.0
  0
ARC
  5
E6
  8
SPEC
  6
CONTINUOUS
 62
     7
 10
105.9999999999981
 20
701.99998749999668
 30
0.0
 40
48.0
 50
0.0
 51
90.0
  0
LINE
  5
E7
  8
SPEC
  6
CONTINUOUS
 62
     7
 10
102.0
 20
681.99998749999293
 30
0.0
 11
102.0
 21
713.99998749999679
 31
0.0
  0
LINE
  5
E8
  8
SPEC
  6
CONTINUOUS
 62
     7
 10
86.000000000001819
 20
697.99998749999838
 30
0.0
 11
117.9999999999981
 21
697.99998749999838
 31
0.0
  0
CIRCLE
  5
E9
  8
SPEC
  6
CONTINUOUS
 62
     7
 10
102.0
 20
697.99998749999838
 30
0.0
 40
23.999999999999989
  0
LINE
  5
EA
  8
SPEC
  6
CONTINUOUS
 62
     7
 10
59.999999999998181
 20
639.99998749999838
 30
0.0
 11
59.999999999998181
 21
591.99998749999656
 31
0.0
  0
LINE
  5
EB
  8
SPEC
  6
CONTINUOUS
 62
     7
 10
259.3333999999976
 20
400.00007499999532
 30
0.0
 11
259.3333999999976
 21
950.00007499999822
 31
0.0
  0
LINE
  5
EC
  8
SPEC
  6
CONTINUOUS
 62
     7
 10
392.666699999998
 20
700.0
 30
0.0
 11
526.0
 21
700.0
 31
0.0
  0
TEXT
  5
ED
  8
SPEC
 62
     7
 10
1254.6891217466091
 20
-307.7343875000015
 30
0.0
 40
99.1973876953125
  1
接続図
 41
0.8
 11
1254.6891217466091
 21
-208.536999804689
 31
0.0
 73
     3
  0
LINE
  5
EE
  8
SPEC
  6
CONTINUOUS
 62
     7
 10
1126.0
 20
-350.00001250000241
 30
0.0
 11
1726.0
 21
-350.00001250000241
 31
0.0
  0
LINE
  5
EF
  8
SPEC
  6
CONTINUOUS
 62
     7
 10
1825.999999999998
 20
-125.0
 30
0.0
 11
1825.999999999998
 21
950.0000750000072
 31
0.0
  0
LINE
  5
F0
  8
SPEC
  6
CONTINUOUS
 62
     7
 10
1625.9998874999951
 20
950.00007500000515
 30
0.0
 11
1825.999999999998
 21
950.00007500000788
 31
0.0
  0
LINE
  5
F1
  8
SPEC
  6
CONTINUOUS
 62
     7
 10
1288.529256811498
 20
1054.5602549376049
 30
0.0
 11
1369.9692635862721
 21
1084.201993282061
 31
0.0
  0
CIRCLE
  5
F2
  8
SPEC
  6
CONTINUOUS
 62
     7
 10
1276.0000249999939
 20
1049.9999874999969
 30
0.0
 40
13.33333000000129
  0
CIRCLE
  5
F3
  8
SPEC
  6
CONTINUOUS
 62
     7
 10
1375.999999999997
 20
1049.9999874999969
 30
0.0
 40
13.33333000000129
  0
LINE
  5
F4
  8
SPEC
  6
CONTINUOUS
 62
     7
 10
1389.333329999997
 20
1049.9999874999969
 30
0.0
 11
1526.0
 21
1049.999987499999
 31
0.0
  0
CIRCLE
  5
F5
  8
SPEC
  6
CONTINUOUS
 62
     7
 10
1426.0
 20
1049.9999874999969
 30
0.0
 40
14.06249648437551
  0
LINE
  5
F6
  8
SPEC
  6
CONTINUOUS
 62
     7
 10
975.99999999999818
 20
1049.9999874999969
 30
0.0
 11
1262.666694999994
 21
1049.9999874999969
 31
0.0
  0
CIRCLE
  5
F7
  8
SPEC
  6
CONTINUOUS
 62
     7
 10
1225.999999999998
 20
1049.9999874999969
 30
0.0
 40
14.06249648437551
  0
LINE
  5
F8
  8
SPEC
  6
CONTINUOUS
 62
     7
 10
975.99988749999648
 20
350.00008749999688
 30
0.0
 11
975.99988749999648
 21
749.99998749999759
 31
0.0
  0
CIRCLE
  5
F9
  8
SPEC
  6
CONTINUOUS
 62
     7
 10
2726.0
 20
449.9999874999985
 30
0.0
 40
239.97440272499989
  0
CIRCLE
  5
FA
  8
SPEC
  6
CONTINUOUS
 62
     7
 10
2726.0
 20
449.9999874999985
 30
0.0
 40
215.97696245249969
  0
LINE
  5
FB
  8
SPEC
  6
CONTINUOUS
 62
     7
 10
2871.149356741993
 20
487.77385418410358
 30
0.0
 11
2919.1752125813009
 21
515.50159498099129
 31
0.0
  0
LINE
  5
FC
  8
SPEC
  6
CONTINUOUS
 62
     7
 10
2871.1493567419948
 20
412.22612081589892
 30
0.0
 11
2919.175212581305
 21
384.49838001901031
 31
0.0
  0
TEXT
  5
FD
  8
SPEC
 62
     7
 10
2775.9999999999991
 20
70.166004333494655
 30
0.0
 40
61.998351809978487
  1
GRN
 41
0.8
 11
2775.9999999999991
 21
132.1643561434731
 31
0.0
 73
     3
  0
TEXT
  5
FE
  8
SPEC
 62
     7
 10
1875.0
 20
83.268835365655946
 30
0.0
 40
66.131575263977041
  1
L.F.+
 41
0.8
 11
1875.0
 21
149.400410629633
 31
0.0
 73
     3
  0
TEXT
  5
FF
  8
SPEC
 62
     7
 10
1875.0
 20
-91.731152134342494
 30
0.0
 40
66.131575263977041
  1
L.F.-
 41
0.8
 11
1875.0
 21
-25.599576870365471
 31
0.0
 73
     3
  0
TEXT
  5
100
  8
SPEC
 62
     7
 10
1875.0
 20
733.26884161565715
 30
0.0
 40
66.131575263977041
  1
H.F.+
 41
0.8
 11
1875.0
 21
799.40041687963424
 31
0.0
 73
     3
  0
TEXT
  5
101
  8
SPEC
 62
     7
 10
1875.0
 20
433.26892911565949
 30
0.0
 40
66.131575263977041
  1
H.F.-
 41
0.8
 11
1875.0
 21
499.40050437963652
 31
0.0
 73
     3
  0
CIRCLE
  5
102
  8
SPEC
  6
CONTINUOUS
 62
     7
 10
2726.0
 20
449.9999874999985
 30
0.0
 40
149.98400170312379
  0
CIRCLE
  5
103
  8
SPEC
  6
CONTINUOUS
 62
     7
 10
2726.0
 20
449.9999874999985
 30
0.0
 40
119.98720136249899
  0
CIRCLE
  5
104
  8
SPEC
  6
CONTINUOUS
 62
     7
 10
2726.0
 20
449.9999874999985
 30
0.0
 40
105.0
  0
CIRCLE
  5
105
  8
SPEC
  6
CONTINUOUS
 62
     7
 10
2726.0
 20
449.9999874999985
 30
0.0
 40
134.97440272499981
  0
ARC
  5
106
  8
SPEC
  6
CONTINUOUS
 62
     7
 10
2726.0
 20
449.9999874999985
 30
0.0
 40
203.9782423162506
 50
161.26929483577399
 51
198.73070516422641
  0
LINE
  5
107
  8
SPEC
  6
CONTINUOUS
 62
     7
 10
2532.8247874186909
 20
515.50159498098765
 30
0.0
 11
2580.8506432580039
 21
487.77385418409898
 31
0.0
  0
ARC
  5
108
  8
SPEC
  6
CONTINUOUS
 62
     7
 10
2726.0
 20
449.9999874999985
 30
0.0
 40
203.97824231625069
 50
221.2692948357741
 51
258.73070516422752
  0
ARC
  5
109
  8
SPEC
  6
CONTINUOUS
 62
     7
 10
2726.0
 20
449.9999874999985
 30
0.0
 40
203.97824231624989
 50
281.2692948357751
 51
318.73070516422712
  0
CIRCLE
  5
10A
  8
SPEC
  6
CONTINUOUS
 62
     7
 10
2564.7968488958609
 20
288.79683639585983
 30
0.0
 40
5.9993600681245871
  0
CIRCLE
  5
10B
  8
SPEC
  6
CONTINUOUS
 62
     7
 10
2726.0
 20
222.02430491124781
 30
0.0
 40
5.9993600681245871
  0
CIRCLE
  5
10C
  8
SPEC
  6
CONTINUOUS
 62
     7
 10
2887.2031511041369
 20
288.79683639585983
 30
0.0
 40
5.9993600681245871
  0
LINE
  5
10D
  8
SPEC
  6
CONTINUOUS
 62
     7
 10
2686.1384497766048
 20
305.41002387640862
 30
0.0
 11
2686.1384497766071
 21
249.95454228263131
 31
0.0
  0
LINE
  5
10E
  8
SPEC
  6
CONTINUOUS
 62
     7
 10
2765.8615502234011
 20
249.95454228263219
 30
0.0
 11
2765.8615502234011
 21
305.41002387641117
 31
0.0
  0
LINE
  5
10F
  8
SPEC
  6
CONTINUOUS
 62
     7
 10
2686.1384497766048
 20
287.6822830795191
 30
0.0
 11
2765.8615502234011
 21
287.68228307952182
 31
0.0
  0
LINE
  5
110
  8
SPEC
  6
CONTINUOUS
 62
     7
 10
2686.1384497766048
 20
267.68228307951898
 30
0.0
 11
2765.8615502234011
 21
267.68228307952171
 31
0.0
  0
LINE
  5
111
  8
SPEC
  6
CONTINUOUS
 62
     7
 10
2713.1384497766048
 20
267.68228307952091
 30
0.0
 11
2713.1384497766048
 21
287.68228307952091
 31
0.0
  0
LINE
  5
112
  8
SPEC
  6
CONTINUOUS
 62
     7
 10
2738.8615502234011
 20
267.68228307952171
 30
0.0
 11
2738.8615502234011
 21
287.68228307952091
 31
0.0
  0
LINE
  5
113
  8
SPEC
  6
CONTINUOUS
 62
     7
 10
2831.2878065185969
 20
343.18389056051359
 30
0.0
 11
2879.3136623579112
 21
315.45614976362589
 31
0.0
  0
LINE
  5
114
  8
SPEC
  6
CONTINUOUS
 62
     7
 10
2572.686337642092
 20
315.45614976362322
 30
0.0
 11
2620.712193481404
 21
343.18389056051001
 31
0.0
  0
LINE
  5
115
  8
SPEC
  6
CONTINUOUS
 62
     7
 10
2532.8247874186932
 20
384.49838001900662
 30
0.0
 11
2580.8506432580039
 21
412.22612081589432
 31
0.0
  0
TEXT
  5
116
  8
SPEC
 62
     7
 10
2756.381127958552
 20
393.55467499999759
 30
0.0
 40
82.66448974609375
  1
+
 41
0.8
 11
2756.381127958552
 21
476.21916474609128
 31
0.0
 73
     3
  0
TEXT
  5
117
  8
SPEC
 62
     7
 10
2643.6580275117581
 20
393.55467499999759
 30
0.0
 40
82.66448974609375
  1
-
 41
0.8
 11
2643.6580275117581
 21
476.21916474609128
 31
0.0
 73
     3
  0
CIRCLE
  5
118
  8
SPEC
  6
CONTINUOUS
 62
     7
 10
2498.024317411247
 20
449.9999874999985
 30
0.0
 40
5.9993600681245871
  0
LINE
  5
119
  8
SPEC
  6
CONTINUOUS
 62
     7
 10
2752.3615502234002
 20
49.999987499996678
 30
0.0
 11
2752.3615502234002
 21
267.68228307951898
 31
0.0
  0
LINE
  5
11A
  8
SPEC
  6
CONTINUOUS
 62
     7
 10
2699.6384497766048
 20
267.68228307951898
 30
0.0
 11
2699.6384497766048
 21
-125.0
 31
0.0
  0
CIRCLE
  5
11B
  8
SPEC
  6
CONTINUOUS
 62
     7
 10
2564.7968488958609
 20
611.20313860413808
 30
0.0
 40
5.9993600681245871
  0
CIRCLE
  5
11C
  8
SPEC
  6
CONTINUOUS
 62
     7
 10
2887.2031511041369
 20
611.20313860413808
 30
0.0
 40
5.9993600681245871
  0
CIRCLE
  5
11D
  8
SPEC
  6
CONTINUOUS
 62
     7
 10
2726.0
 20
677.97567008874739
 30
0.0
 40
5.9993600681245871
  0
ARC
  5
11E
  8
SPEC
  6
CONTINUOUS
 62
     7
 10
2726.0
 20
449.9999874999985
 30
0.0
 40
203.97824231624929
 50
41.269294835774389
 51
78.73070516422645
  0
ARC
  5
11F
  8
SPEC
  6
CONTINUOUS
 62
     7
 10
2726.0
 20
449.9999874999985
 30
0.0
 40
203.9782423162504
 50
101.2692948357745
 51
138.73070516422661
  0
LINE
  5
120
  8
SPEC
  6
CONTINUOUS
 62
     7
 10
2572.686337642092
 20
584.54382523637105
 30
0.0
 11
2620.7121934814008
 21
556.81608443948335
 31
0.0
  0
LINE
  5
121
  8
SPEC
  6
CONTINUOUS
 62
     7
 10
2686.1384497765998
 20
594.58995112358571
 30
0.0
 11
2686.1384497765998
 21
650.04543271736475
 31
0.0
  0
LINE
  5
122
  8
SPEC
  6
CONTINUOUS
 62
     7
 10
2765.8615502233952
 20
594.58995112358753
 30
0.0
 11
2765.8615502233952
 21
650.04543271736475
 31
0.0
  0
LINE
  5
123
  8
SPEC
  6
CONTINUOUS
 62
     7
 10
2831.2878065185942
 20
556.81608443948596
 30
0.0
 11
2879.3136623579048
 21
584.54382523637366
 31
0.0
  0
TEXT
  5
124
  8
SPEC
 62
     7
 10
2357.1448911492639
 20
71.832664333495444
 30
0.0
 40
61.998351809978487
  1
GRN/BLK
 41
0.8
 11
2357.1448911492639
 21
133.8310161434739
 31
0.0
 73
     3
  0
TEXT
  5
125
  8
SPEC
 62
     7
 10
2089.3161803381649
 20
868.64842500000111
 30
0.0
 40
42.98553466796875
  1
HF OUTPUT
 41
0.8
 11
2089.3161803381649
 21
911.63395966796986
 31
0.0
 73
     3
  0
LINE
  5
126
  8
SPEC
  6
CONTINUOUS
 62
     7
 10
2377.9999999999991
 20
941.99998750000123
 30
0.0
 11
2073.9999999999968
 21
941.99998750000123
 31
0.0
  0
LINE
  5
127
  8
SPEC
  6
CONTINUOUS
 62
     7
 10
2045.999999999997
 20
843.99998750000213
 30
0.0
 11
2405.9999999999968
 21
843.99998750000213
 31
0.0
  0
LINE
  5
128
  8
SPEC
  6
CONTINUOUS
 62
     7
 10
2377.9999999999991
 20
997.99998749999816
 30
0.0
 11
2073.9999999999968
 21
997.99998749999816
 31
0.0
  0
CIRCLE
  5
129
  8
SPEC
  6
CONTINUOUS
 62
     7
 10
2151.9999999999991
 20
969.99998750000032
 30
0.0
 40
18.0
  0
LINE
  5
12A
  8
SPEC
  6
CONTINUOUS
 62
     7
 10
2197.9999999999991
 20
1053.9999875000019
 30
0.0
 11
2106.0
 21
1053.9999875000019
 31
0.0
  0
LINE
  5
12B
  8
SPEC
  6
CONTINUOUS
 62
     7
 10
2197.9999999999991
 20
1025.999987500004
 30
0.0
 11
2106.0
 21
1025.999987500004
 31
0.0
  0
LINE
  5
12C
  8
SPEC
  6
CONTINUOUS
 62
     7
 10
2139.9999999999991
 20
969.99998750000032
 30
0.0
 11
2164.0
 21
969.99998750000032
 31
0.0
  0
ARC
  5
12D
  8
SPEC
  6
CONTINUOUS
 62
     7
 10
2045.999999999997
 20
891.99998750000395
 30
0.0
 40
48.0
 50
180.0
 51
270.0
  0
LINE
  5
12E
  8
SPEC
  6
CONTINUOUS
 62
     7
 10
2050.0000000000018
 20
879.99998750000304
 30
0.0
 11
2050.0000000000018
 21
911.99998750000032
 31
0.0
  0
LINE
  5
12F
  8
SPEC
  6
CONTINUOUS
 62
     7
 10
2033.999999999997
 20
895.99998750000111
 30
0.0
 11
2066.0
 21
895.99998750000111
 31
0.0
  0
CIRCLE
  5
130
  8
SPEC
  6
CONTINUOUS
 62
     7
 10
2050.0000000000018
 20
895.99998750000111
 30
0.0
 40
24.0
  0
LINE
  5
131
  8
SPEC
  6
CONTINUOUS
 62
     7
 10
2151.9999999999968
 20
400.00007499999981
 30
0.0
 11
2151.9999999999991
 21
843.99998750000213
 31
0.0
  0
LINE
  5
132
  8
SPEC
  6
CONTINUOUS
 62
     7
 10
2346.0000000000009
 20
1053.9999875000019
 30
0.0
 11
2254.0000000000009
 21
1053.9999875000019
 31
0.0
  0
LINE
  5
133
  8
SPEC
  6
CONTINUOUS
 62
     7
 10
2346.0000000000009
 20
1025.999987500004
 30
0.0
 11
2254.0000000000009
 21
1025.999987500004
 31
0.0
  0
LINE
  5
134
  8
SPEC
  6
CONTINUOUS
 62
     7
 10
2300.0000000000018
 20
981.99998750000043
 30
0.0
 11
2300.0000000000018
 21
957.99998749999952
 31
0.0
  0
CIRCLE
  5
135
  8
SPEC
  6
CONTINUOUS
 62
     7
 10
2300.0000000000018
 20
969.99998750000032
 30
0.0
 40
18.0
  0
ARC
  5
136
  8
SPEC
  6
CONTINUOUS
 62
     7
 10
2405.9999999999968
 20
891.99998750000395
 30
0.0
 40
48.0
 50
270.0
 51
0.0
  0
LINE
  5
137
  8
SPEC
  6
CONTINUOUS
 62
     7
 10
2402.0
 20
879.99998750000304
 30
0.0
 11
2402.0
 21
911.99998750000032
 31
0.0
  0
LINE
  5
138
  8
SPEC
  6
CONTINUOUS
 62
     7
 10
2386.0000000000009
 20
895.99998750000111
 30
0.0
 11
2417.9999999999968
 21
895.99998750000111
 31
0.0
  0
CIRCLE
  5
139
  8
SPEC
  6
CONTINUOUS
 62
     7
 10
2402.0
 20
895.99998750000111
 30
0.0
 40
24.0
  0
LINE
  5
13A
  8
SPEC
  6
CONTINUOUS
 62
     7
 10
2288.0000000000018
 20
969.99998750000032
 30
0.0
 11
2312.0000000000018
 21
969.99998750000032
 31
0.0
  0
LINE
  5
13B
  8
SPEC
  6
CONTINUOUS
 62
     7
 10
2300.0000000000018
 20
700.00000000000273
 30
0.0
 11
2300.0000000000018
 21
843.99998750000123
 31
0.0
  0
TEXT
  5
13C
  8
SPEC
 62
     7
 10
3026.0
 20
491.75190959437322
 30
0.0
 40
61.998351809978487
  1
Driver
 41
0.8
 11
3026.0
 21
553.7502614043517
 31
0.0
 73
     3
  0
TEXT
  5
13D
  8
SPEC
 62
     7
 10
3026.0
 20
411.76846116199289
 30
0.0
 40
61.998351809978487
  1
Low Freq
 41
0.8
 11
3026.0
 21
473.76681297197138
 31
0.0
 73
     3
  0
ARC
  5
13E
  8
SPEC
  6
CONTINUOUS
 62
     7
 10
2726.0
 20
449.9999874999985
 30
0.0
 40
203.97824231624969
 50
341.26929483577482
 51
18.730705164227171
  0
CIRCLE
  5
13F
  8
SPEC
  6
CONTINUOUS
 62
     7
 10
2953.9756825887471
 20
449.9999874999985
 30
0.0
 40
5.9993600681245871
  0
TEXT
  5
140
  8
SPEC
 62
     7
 10
3026.0
 20
331.78501272962211
 30
0.0
 40
61.998351809978487
  1
2035H
 41
0.8
 11
3026.0
 21
393.78336453960048
 31
0.0
 73
     3
  0
TEXT
  5
141
  8
SPEC
 62
     7
 10
1684.707086498843
 20
1693.554674999998
 30
0.0
 40
82.66448974609375
  1
外部配線
 41
0.8
 11
1684.707086498843
 21
1776.219164746092
 31
0.0
 73
     3
  0
LINE
  5
142
  8
SPEC
  6
CONTINUOUS
 62
     7
 10
526.0
 20
1299.9999874999969
 30
0.0
 11
1625.9998874999951
 21
1299.9999875000001
 31
0.0
  0
LINE
  5
143
  8
SPEC
  6
CONTINUOUS
 62
     7
 10
526.0
 20
1250.0
 30
0.0
 11
1625.9998874999951
 21
1250.0
 31
0.0
  0
TEXT
  5
144
  8
SPEC
 62
     7
 10
583.7530000281937
 20
1135.488308749995
 30
0.0
 40
57.865142822265653
  1
ローパス
 41
0.8
 11
583.7530000281937
 21
1193.3534515722611
 31
0.0
 73
     3
  0
LINE
  5
145
  8
SPEC
  6
CONTINUOUS
 62
     7
 10
0.000000000001819
 20
1250.0
 30
0.0
 11
526.0
 21
1250.0
 31
0.0
  0
CIRCLE
  5
146
  8
SPEC
  6
CONTINUOUS
 62
     7
 10
392.666699999998
 20
1250.0
 30
0.0
 40
14.062496484373691
  0
LINE
  5
147
  8
SPEC
  6
CONTINUOUS
 62
     7
 10
1625.9998874999951
 20
1250.0000000000041
 30
0.0
 11
1726.0
 21
1250.000000000007
 31
0.0
  0
CIRCLE
  5
148
  8
SPEC
  6
CONTINUOUS
 62
     7
 10
1226.0
 20
1249.999999999993
 30
0.0
 40
14.06249648437551
  0
CIRCLE
  5
149
  8
SPEC
  6
CONTINUOUS
 62
     7
 10
1426.0
 20
1249.9999999999891
 30
0.0
 40
14.06249648437551
  0
LINE
  5
14A
  8
SPEC
  6
CONTINUOUS
 62
     7
 10
1259.3333250000001
 20
1134.9999874999969
 30
0.0
 11
1192.666674999997
 21
1134.9999874999969
 31
0.0
  0
LINE
  5
14B
  8
SPEC
  6
CONTINUOUS
 62
     7
 10
1259.3333250000001
 20
1164.999987499998
 30
0.0
 11
1192.666674999997
 21
1164.999987499998
 31
0.0
  0
LINE
  5
14C
  8
SPEC
  6
CONTINUOUS
 62
     7
 10
1225.999999999998
 20
1164.999987499998
 30
0.0
 11
1226.0
 21
1249.999999999993
 31
0.0
  0
LINE
  5
14D
  8
SPEC
  6
CONTINUOUS
 62
     7
 10
1459.333325000001
 20
1134.9999874999969
 30
0.0
 11
1392.6666749999979
 21
1134.9999874999969
 31
0.0
  0
LINE
  5
14E
  8
SPEC
  6
CONTINUOUS
 62
     7
 10
1459.333325000001
 20
1164.999987499998
 30
0.0
 11
1392.6666749999979
 21
1164.999987499998
 31
0.0
  0
LINE
  5
14F
  8
SPEC
  6
CONTINUOUS
 62
     7
 10
1426.0
 20
1164.999987499998
 30
0.0
 11
1426.0
 21
1249.9999999999891
 31
0.0
  0
CIRCLE
  5
150
  8
SPEC
  6
CONTINUOUS
 62
     7
 10
1526.0
 20
1249.9999999999891
 30
0.0
 40
14.06249648437551
  0
LINE
  5
151
  8
SPEC
  6
CONTINUOUS
 62
     7
 10
1559.333325000001
 20
1134.9999874999969
 30
0.0
 11
1492.666674999999
 21
1134.9999874999969
 31
0.0
  0
LINE
  5
152
  8
SPEC
  6
CONTINUOUS
 62
     7
 10
1559.333325000001
 20
1164.999987499998
 30
0.0
 11
1492.666674999999
 21
1164.999987499998
 31
0.0
  0
LINE
  5
153
  8
SPEC
  6
CONTINUOUS
 62
     7
 10
1526.0
 20
1164.999987499998
 30
0.0
 11
1526.0
 21
1249.9999999999891
 31
0.0
  0
CIRCLE
  5
154
  8
SPEC
  6
CONTINUOUS
 62
     7
 10
976.0
 20
1249.999999999993
 30
0.0
 40
14.06249648437551
  0
LINE
  5
155
  8
SPEC
  6
CONTINUOUS
 62
     7
 10
1009.3333249999999
 20
1134.9999874999969
 30
0.0
 11
942.66667499999824
 21
1134.9999874999969
 31
0.0
  0
LINE
  5
156
  8
SPEC
  6
CONTINUOUS
 62
     7
 10
1009.3333249999999
 20
1164.999987499998
 30
0.0
 11
942.66667499999824
 21
1164.999987499998
 31
0.0
  0
LINE
  5
157
  8
SPEC
  6
CONTINUOUS
 62
     7
 10
975.99999999999818
 20
1164.999987499998
 30
0.0
 11
976.0
 21
1249.999999999993
 31
0.0
  0
ARC
  5
158
  8
SPEC
  6
CONTINUOUS
 62
     7
 10
1063.499999999998
 20
1121.874987499999
 30
0.0
 40
46.874999999999453
 50
36.869897645843132
 51
143.13010235415771
  0
ARC
  5
159
  8
SPEC
  6
CONTINUOUS
 62
     7
 10
1138.5
 20
1178.1249874999969
 30
0.0
 40
46.874999999999453
 50
216.8698976458432
 51
323.13010235415783
  0
TEXT
  5
15A
  8
SPEC
 62
     7
 10
1899.257876998503
 20
1443.5546749999969
 30
0.0
 40
82.66448974609375
  1
BLK (-)
 41
0.8
 11
1899.257876998503
 21
1526.2191647460911
 31
0.0
 73
     3
  0
ARC
  5
15B
  8
SPEC
  6
CONTINUOUS
 62
     7
 10
2726.0
 20
2249.999987499998
 30
0.0
 40
149.9840017031247
 50
343.36181524457203
 51
196.63818475542789
  0
ARC
  5
15C
  8
SPEC
  6
CONTINUOUS
 62
     7
 10
2726.0
 20
2249.999987499998
 30
0.0
 40
149.9840017031251
 50
231.8435745764252
 51
308.15642542357477
  0
ARC
  5
15D
  8
SPEC
  6
CONTINUOUS
 62
     7
 10
2726.0
 20
2249.999987499998
 30
0.0
 40
119.9872013624999
 50
339.0281810853013
 51
200.9718189146989
  0
TEXT
  5
15E
  8
SPEC
 62
     7
 10
2565.3808140986812
 20
2134.7287364459389
 30
0.0
 40
61.998367309570327
  1
BLK
 41
0.8
 11
2565.3808140986812
 21
2196.7271037555088
 31
0.0
 73
     3
  0
TEXT
  5
15F
  8
SPEC
 62
     7
 10
2749.4400037174451
 20
2134.7287364459389
 30
0.0
 40
61.998367309570327
  1
RED
 41
0.8
 11
2749.4400037174451
 21
2196.7271037555088
 31
0.0
 73
     3
  0
CIRCLE
  5
160
  8
SPEC
  6
CONTINUOUS
 62
     7
 10
2749.4400037174451
 20
2117.0651205654699
 30
0.0
 40
7.499200085156188
  0
CIRCLE
  5
161
  8
SPEC
  6
CONTINUOUS
 62
     7
 10
2702.5599962825531
 20
2117.0651205654699
 30
0.0
 40
7.499200085156188
  0
CIRCLE
  5
162
  8
SPEC
  6
CONTINUOUS
 62
     7
 10
2726.0
 20
2249.999987499998
 30
0.0
 40
44.995200510937131
  0
ARC
  5
163
  8
SPEC
  6
CONTINUOUS
 62
     7
 10
2726.0
 20
2249.999987499998
 30
0.0
 40
119.9872013625001
 50
259.39170962435799
 51
280.6082903756419
  0
LINE
  5
164
  8
SPEC
  6
CONTINUOUS
 62
     7
 10
2702.559996282544
 20
1899.999987499999
 30
0.0
 11
2702.5599962825531
 21
2109.5659204803151
 31
0.0
  0
LINE
  5
165
  8
SPEC
  6
CONTINUOUS
 62
     7
 10
2749.4400037174451
 20
1849.999987499999
 30
0.0
 11
2749.4400037174451
 21
2109.5659204803151
 31
0.0
  0
LINE
  5
166
  8
SPEC
  6
CONTINUOUS
 62
     7
 10
2073.9999999999968
 20
1129.999987500003
 30
0.0
 11
2377.9999999999991
 21
1129.999987500003
 31
0.0
  0
LINE
  5
167
  8
SPEC
  6
CONTINUOUS
 62
     7
 10
2073.9999999999968
 20
1201.9999875000001
 30
0.0
 11
2377.9999999999991
 21
1201.9999875000001
 31
0.0
  0
LINE
  5
168
  8
SPEC
  6
CONTINUOUS
 62
     7
 10
2045.999999999997
 20
1299.9999874999969
 30
0.0
 11
2405.9999999999968
 21
1299.9999874999969
 31
0.0
  0
LINE
  5
169
  8
SPEC
  6
CONTINUOUS
 62
     7
 10
2091.9999999999968
 20
1189.999987499998
 30
0.0
 11
2212.0000000000009
 21
1189.999987499998
 31
0.0
  0
LINE
  5
16A
  8
SPEC
  6
CONTINUOUS
 62
     7
 10
2212.0000000000009
 20
1141.999987500003
 30
0.0
 11
2091.9999999999968
 21
1141.999987500003
 31
0.0
  0
LINE
  5
16B
  8
SPEC
  6
CONTINUOUS
 62
     7
 10
2171.9992000000002
 20
1679.999987499998
 30
0.0
 11
2151.9999999999991
 21
1799.999987499998
 31
0.0
  0
ARC
  5
16C
  8
SPEC
  6
CONTINUOUS
 62
     7
 10
2045.999999999997
 20
1251.999987500003
 30
0.0
 40
48.0
 50
90.0
 51
180.0
  0
LINE
  5
16D
  8
SPEC
  6
CONTINUOUS
 62
     7
 10
2050.0000000000018
 20
1231.9999875000001
 30
0.0
 11
2050.0000000000018
 21
1263.999987500004
 31
0.0
  0
LINE
  5
16E
  8
SPEC
  6
CONTINUOUS
 62
     7
 10
2033.999999999997
 20
1247.9999874999969
 30
0.0
 11
2066.0
 21
1247.9999874999969
 31
0.0
  0
CIRCLE
  5
16F
  8
SPEC
  6
CONTINUOUS
 62
     7
 10
2050.0000000000018
 20
1247.9999874999969
 30
0.0
 40
24.0
  0
LINE
  5
170
  8
SPEC
  6
CONTINUOUS
 62
     7
 10
2091.9999999999968
 20
1141.999987500003
 30
0.0
 11
2091.9999999999968
 21
1189.999987499998
 31
0.0
  0
LINE
  5
171
  8
SPEC
  6
CONTINUOUS
 62
     7
 10
2152.0
 20
1399.999987499996
 30
0.0
 11
2151.9999999999991
 21
1299.9999874999969
 31
0.0
  0
LINE
  5
172
  8
SPEC
  6
CONTINUOUS
 62
     7
 10
2132.000799999998
 20
1679.999987499998
 30
0.0
 11
2151.9999999999991
 21
1799.999987499998
 31
0.0
  0
LINE
  5
173
  8
SPEC
  6
CONTINUOUS
 62
     7
 10
2151.9999999999991
 20
1899.9999874999969
 30
0.0
 11
2151.9999999999991
 21
1599.9999874999969
 31
0.0
  0
LINE
  5
174
  8
SPEC
  6
CONTINUOUS
 62
     7
 10
2240.0
 20
1189.999987499998
 30
0.0
 11
2359.9999999999968
 21
1189.999987499998
 31
0.0
  0
LINE
  5
175
  8
SPEC
  6
CONTINUOUS
 62
     7
 10
2359.9999999999968
 20
1141.999987500003
 30
0.0
 11
2240.0
 21
1141.999987500003
 31
0.0
  0
LINE
  5
176
  8
SPEC
  6
CONTINUOUS
 62
     7
 10
2240.0
 20
1141.999987500003
 30
0.0
 11
2240.0
 21
1189.999987499998
 31
0.0
  0
LINE
  5
177
  8
SPEC
  6
CONTINUOUS
 62
     7
 10
2212.0000000000009
 20
1189.999987499998
 30
0.0
 11
2212.0000000000009
 21
1141.999987500003
 31
0.0
  0
ARC
  5
178
  8
SPEC
  6
CONTINUOUS
 62
     7
 10
2405.9999999999968
 20
1251.999987500003
 30
0.0
 40
48.0
 50
0.0
 51
90.0
  0
LINE
  5
179
  8
SPEC
  6
CONTINUOUS
 62
     7
 10
2402.0
 20
1231.9999875000001
 30
0.0
 11
2402.0
 21
1263.999987500004
 31
0.0
  0
LINE
  5
17A
  8
SPEC
  6
CONTINUOUS
 62
     7
 10
2386.0000000000009
 20
1247.9999874999969
 30
0.0
 11
2417.9999999999968
 21
1247.9999874999969
 31
0.0
  0
CIRCLE
  5
17B
  8
SPEC
  6
CONTINUOUS
 62
     7
 10
2402.0
 20
1247.9999874999969
 30
0.0
 40
24.0
  0
LINE
  5
17C
  8
SPEC
  6
CONTINUOUS
 62
     7
 10
2359.9999999999968
 20
1189.999987499998
 30
0.0
 11
2359.9999999999968
 21
1141.999987500003
 31
0.0
  0
TEXT
  5
17D
  8
SPEC
 62
     7
 10
2267.2499385394358
 20
1443.5546749999969
 30
0.0
 40
82.66448974609375
  1
RED (+)
 41
0.8
 11
2267.2499385394358
 21
1526.2191647460911
 31
0.0
 73
     3
  0
LINE
  5
17E
  8
SPEC
  6
CONTINUOUS
 62
     7
 10
2299.9999999999982
 20
1299.9999874999969
 30
0.0
 11
2299.9999999999982
 21
1399.999987499998
 31
0.0
  0
LINE
  5
17F
  8
SPEC
  6
CONTINUOUS
 62
     7
 10
2319.9991999999979
 20
1679.999987499998
 30
0.0
 11
2299.9999999999982
 21
1799.999987499998
 31
0.0
  0
LINE
  5
180
  8
SPEC
  6
CONTINUOUS
 62
     7
 10
2280.000799999998
 20
1679.999987499998
 30
0.0
 11
2299.9999999999982
 21
1799.999987499998
 31
0.0
  0
LINE
  5
181
  8
SPEC
  6
CONTINUOUS
 62
     7
 10
2299.9999999999982
 20
1599.999987499998
 30
0.0
 11
2300.0
 21
1849.999987499999
 31
0.0
  0
LINE
  5
182
  8
SPEC
  6
CONTINUOUS
 62
     7
 10
2300.0
 20
1849.999987499999
 30
0.0
 11
2749.4400037174451
 21
1849.9999874999969
 31
0.0
  0
LINE
  5
183
  8
SPEC
  6
CONTINUOUS
 62
     7
 10
2163.3095449538691
 20
1899.999987499998
 30
0.0
 11
2702.5599962825399
 21
1899.999987499999
 31
0.0
  0
TEXT
  5
184
  8
SPEC
 62
     7
 10
3025.9999999999991
 20
2195.1654168334971
 30
0.0
 40
61.998351809978487
  1
High Freq
 41
0.8
 11
3025.9999999999991
 21
2257.1637686434751
 31
0.0
 73
     3
  0
TEXT
  5
185
  8
SPEC
 62
     7
 10
3025.9999999999991
 20
2275.148865265875
 30
0.0
 40
61.998351809978487
  1
Driver
 41
0.8
 11
3025.9999999999991
 21
2337.147217075853
 31
0.0
 73
     3
  0
TEXT
  5
186
  8
SPEC
 62
     7
 10
3025.9999999999991
 20
2115.1819684011261
 30
0.0
 40
61.998351809978487
  1
2446H
 41
0.8
 11
3025.9999999999991
 21
2177.1803202111041
 31
0.0
 73
     3
  0
TEXT
  5
187
  8
SPEC
 62
     7
 10
-1864.0
 20
3160.4678475000001
 30
0.0
 40
82.664489746093807
  1
SPユニットは低域は前面側で、高域は裏面側で交換
 41
0.8
 11
-1864.0
 21
3243.1323372460938
 31
0.0
 73
     3
  0
TEXT
  5
188
  8
SPEC
 62
     7
 10
-1864.0
 20
3310.4678475000001
 30
0.0
 40
82.664489746093807
  1
ネットワーク:正相(低域),正相(高域)
 41
0.8
 11
-1864.0
 21
3393.1323372460938
 31
0.0
 73
     3
  0
TEXT
  5
189
  8
SPEC
 62
     7
 10
-1864.0
 20
4959.2576738888874
 30
0.0
 40
76.012586805555543
  1
2WAY映画用スピーカシステム(Cinema Loudspeaker Systems)
 41
0.8
 11
-1864.0
 21
5035.2702606944431
 31
0.0
 73
     3
  0
TEXT
  5
18A
  8
SPEC
 62
     7
 10
-3164.0
 20
3009.257673888887
 30
0.0
 40
76.012586805555543
  1
コネクター
 41
0.8
 11
-3164.0
 21
3085.2702606944431
 31
0.0
 73
     3
  0
TEXT
  5
18B
  8
SPEC
 62
     7
 10
-3164.0
 20
2709.257673888887
 30
0.0
 40
76.012586805555543
  1
重量
 41
0.8
 11
-3164.0
 21
2785.2702606944431
 31
0.0
 73
     3
  0
TEXT
  5
18C
  8
SPEC
 62
     7
 10
-3164.0
 20
2859.257673888887
 30
0.0
 40
76.012586805555543
  1
寸法
 41
0.8
 11
-3164.0
 21
2935.2702606944431
 31
0.0
 73
     3
  0
TEXT
  5
18D
  8
SPEC
 62
     7
 10
-3164.0
 20
4959.2576738888874
 30
0.0
 40
76.012586805555543
  1
形式
 41
0.8
 11
-3164.0
 21
5035.2702606944431
 31
0.0
 73
     3
  0
TEXT
  5
18E
  8
SPEC
 62
     7
 10
-3164.0
 20
4659.2576738888874
 30
0.0
 40
76.012586805555543
  1
周波数特性(±3dB)
 41
0.8
 11
-3164.0
 21
4735.2702606944431
 31
0.0
 73
     3
  0
TEXT
  5
18F
  8
SPEC
 62
     7
 10
-3164.0
 20
4809.2576738888874
 30
0.0
 40
76.012586805555543
  1
周波数レンジ(-10dB)
 41
0.8
 11
-3164.0
 21
4885.270260694444
 31
0.0
 73
     3
  0
TEXT
  5
190
  8
SPEC
 62
     7
 10
-3164.0
 20
4509.2576738888874
 30
0.0
 40
76.012586805555543
  1
公称カバレージ
 41
0.8
 11
-3164.0
 21
4585.2702606944431
 31
0.0
 73
     3
  0
TEXT
  5
191
  8
SPEC
 62
     7
 10
-3164.0
 20
4359.2576738888874
 30
0.0
 40
76.012586805555543
  1
低域ユニット
 41
0.8
 11
-3164.0
 21
4435.2702606944431
 31
0.0
 73
     3
  0
TEXT
  5
192
  8
SPEC
 62
     7
 10
-3164.0
 20
4059.257673888887
 30
0.0
 40
76.012586805555543
  1
音圧レベル(1W/1m)
 41
0.8
 11
-3164.0
 21
4135.2702606944431
 31
0.0
 73
     3
  0
TEXT
  5
193
  8
SPEC
 62
     7
 10
-3164.0
 20
4209.2576738888874
 30
0.0
 40
76.012586805555543
  1
高域ユニット
 41
0.8
 11
-3164.0
 21
4285.2702606944431
 31
0.0
 73
     3
  0
TEXT
  5
194
  8
SPEC
 62
     7
 10
-3164.0
 20
3909.2576738888879
 30
0.0
 40
76.012586805555543
  1
公称インピーダンス
 41
0.8
 11
-3164.0
 21
3985.2702606944431
 31
0.0
 73
     3
  0
TEXT
  5
195
  8
SPEC
 62
     7
 10
-3164.0
 20
3759.2576738888879
 30
0.0
 40
76.012586805555543
  1
許容入力
 41
0.8
 11
-3164.0
 21
3835.2702606944431
 31
0.0
 73
     3
  0
TEXT
  5
196
  8
SPEC
 62
     7
 10
-3164.0
 20
3609.257673888887
 30
0.0
 40
76.012586805555543
  1
クロスオーバー
 41
0.8
 11
-3164.0
 21
3685.2702606944431
 31
0.0
 73
     3
  0
TEXT
  5
197
  8
SPEC
 62
     7
 10
-3164.0
 20
3309.257673888887
 30
0.0
 40
76.012586805555543
  1
極性
 41
0.8
 11
-3164.0
 21
3385.2702606944431
 31
0.0
 73
     3
  0
TEXT
  5
198
  8
SPEC
 62
     7
 10
-3164.0
 20
3459.257673888887
 30
0.0
 40
76.012586805555543
  1
仕上げ
 41
0.8
 11
-3164.0
 21
3535.2702606944431
 31
0.0
 73
     3
  0
TEXT
  5
199
  8
SPEC
 62
     7
 10
-3164.0
 20
3159.257673888887
 30
0.0
 40
76.012586805555543
  1
メンテナンス
 41
0.8
 11
-3164.0
 21
3235.2702606944431
 31
0.0
 73
     3
  0
TEXT
  5
19A
  8
SPEC
 62
     7
 10
-1864.0
 20
2859.257673888887
 30
0.0
 40
76.012586805555543
  1
649(W)×1411(H)×455(D)mm
 41
0.8
 11
-1864.0
 21
2935.2702606944431
 31
0.0
 73
     3
  0
TEXT
  5
19B
  8
SPEC
 62
     7
 10
-1864.0
 20
3009.257673888887
 30
0.0
 40
76.012586805555543
  1
プッシュ式ターミナル
 41
0.8
 11
-1864.0
 21
3085.2702606944431
 31
0.0
 73
     3
  0
TEXT
  5
19C
  8
SPEC
 62
     7
 10
-1864.0
 20
2709.257673888887
 30
0.0
 40
76.012586805555543
  1
約102kg
 41
0.8
 11
-1864.0
 21
2785.2702606944431
 31
0.0
 73
     3
  0
TEXT
  5
19D
  8
SPEC
 62
     7
 10
-1864.0
 20
4359.2576738888874
 30
0.0
 40
76.012586805555543
  1
2035HPL×2(口径:15インチ)
 41
0.8
 11
-1864.0
 21
4435.2702606944431
 31
0.0
 73
     3
  0
TEXT
  5
19E
  8
SPEC
 62
     7
 10
-1864.0
 20
4209.2576738888874
 30
0.0
 40
76.012586805555543
  1
2446H(ダイアフラム径:2インチ)
 41
0.8
 11
-1864.0
 21
4285.2702606944431
 31
0.0
 73
     3
  0
TEXT
  5
19F
  8
SPEC
 62
     7
 10
-1864.0
 20
3459.257673888887
 30
0.0
 40
76.012586805555543
  1
黒のデュラフレックス塗装
 41
0.8
 11
-1864.0
 21
3535.2702606944431
 31
0.0
 73
     3
  0
TEXT
  5
1A0
  8
SPEC
 62
     7
 10
-1864.0
 20
3609.257673888887
 30
0.0
 40
76.012586805555543
  1
(ネットワーク):800Hz
 41
0.8
 11
-1864.0
 21
3685.2702606944431
 31
0.0
 73
     3
  0
TEXT
  5
1A1
  8
SPEC
 62
     7
 10
-1864.0
 20
4509.2576738888874
 30
0.0
 40
76.012586805555543
  1
90゜×40゜
 41
0.8
 11
-1864.0
 21
4585.2702606944431
 31
0.0
 73
     3
  0
TEXT
  5
1A2
  8
SPEC
 62
     7
 10
-1864.0
 20
4059.257673888887
 30
0.0
 40
76.012586805555543
  1
100dB SPL
 41
0.8
 11
-1864.0
 21
4135.2702606944431
 31
0.0
 73
     3
  0
TEXT
  5
1A3
  8
SPEC
 62
     7
 10
-1864.0
 20
3909.2576738888879
 30
0.0
 40
76.012586805555543
  1
4Ω
 41
0.8
 11
-1864.0
 21
3985.2702606944431
 31
0.0
 73
     3
  0
TEXT
  5
1A4
  8
SPEC
 62
     7
 10
-1864.0
 20
3759.2576738888879
 30
0.0
 40
76.012586805555543
  1
(IEC):600W
 41
0.8
 11
-1864.0
 21
3835.2702606944431
 31
0.0
 73
     3
  0
TEXT
  5
1A5
  8
SPEC
 62
     7
 10
-1864.0
 20
4809.2576738888874
 30
0.0
 40
76.012586805555543
  1
35Hz～20kHz
 41
0.8
 11
-1864.0
 21
4885.270260694444
 31
0.0
 73
     3
  0
TEXT
  5
1A6
  8
SPEC
 62
     7
 10
-1864.0
 20
4659.2576738888874
 30
0.0
 40
76.012586805555543
  1
40Hz～16kHz
 41
0.8
 11
-1864.0
 21
4735.2702606944431
 31
0.0
 73
     3
  0
TEXT
  5
1A7
  8
SPEC
 62
     7
 10
1136.0
 20
4059.2576738888888
 30
0.0
 40
76.012586805555543
  1
振動板交換パーツ:D8R2450
 41
0.8
 11
1136.0
 21
4135.270260694444
 31
0.0
 73
     3
  0
TEXT
  5
1A8
  8
SPEC
 62
     7
 10
1136.0
 20
4209.2576738888883
 30
0.0
 40
76.012586805555543
  1
振動板交換パーツ:C8R2035
 41
0.8
 11
1136.0
 21
4285.270260694444
 31
0.0
 73
     3
  0
LINE
  5
1A9
  8
SPEC
  6
CONTINUOUS
 62
     7
 10
-3200.0
 20
3427.740785
 30
0.0
 11
2700.0
 21
3427.740785
 31
0.0
  0
LINE
  5
1AA
  8
SPEC
  6
CONTINUOUS
 62
     7
 10
-3200.0
 20
3127.740785
 30
0.0
 11
2700.0
 21
3127.740785
 31
0.0
  0
LINE
  5
1AB
  8
SPEC
  6
CONTINUOUS
 62
     7
 10
-3200.0
 20
2827.7407849999991
 30
0.0
 11
2700.0
 21
2827.7407849999991
 31
0.0
  0
LINE
  5
1AC
  8
SPEC
  6
CONTINUOUS
 62
     7
 10
-3200.0
 20
2677.740785
 30
0.0
 11
2700.0
 21
2677.740785
 31
0.0
  0
TEXT
  5
1AD
  8
DIMNSIONS
 62
     7
 10
-700.0
 20
-4431.4796149999993
 30
0.0
 40
97.73046875
  1
(単位：mm)
 41
0.8
 11
-700.0
 21
-4333.7491462500002
 31
0.0
 73
     3
  0
LINE
  5
1AE
  8
DIMNSIONS
  6
CONTINUOUS
 62
     7
 10
-2580.0
 20
-1248.895999999999
 30
0.0
 11
-2830.0
 21
-1248.895999999999
 31
0.0
  0
LINE
  5
1AF
  8
DIMNSIONS
  6
CONTINUOUS
 62
     7
 10
-2580.0
 20
-1700.0
 30
0.0
 11
-2830.0
 21
-1700.0
 31
0.0
  0
LINE
  5
1B0
  8
DIMNSIONS
  6
CONTINUOUS
 62
     7
 10
-2750.0
 20
-1248.895999999999
 30
0.0
 11
-2750.0
 21
-1700.0
 31
0.0
  0
LINE
  5
1B1
  8
DIMNSIONS
  6
CONTINUOUS
 62
     7
 10
-2750.0
 20
-1248.895999999999
 30
0.0
 11
-2723.1984081939909
 21
-1348.920902343749
 31
0.0
  0
LINE
  5
1B2
  8
DIMNSIONS
  6
CONTINUOUS
 62
     7
 10
-2750.0
 20
-1248.895999999999
 30
0.0
 11
-2776.80159180601
 21
-1348.920902343749
 31
0.0
  0
LINE
  5
1B3
  8
DIMNSIONS
  6
CONTINUOUS
 62
     7
 10
-2750.0
 20
-1700.0
 30
0.0
 11
-2776.80159180601
 21
-1599.97509765625
 31
0.0
  0
LINE
  5
1B4
  8
DIMNSIONS
  6
CONTINUOUS
 62
     7
 10
-2750.0
 20
-1700.0
 30
0.0
 11
-2723.1984081939909
 21
-1599.97509765625
 31
0.0
  0
TEXT
  5
1B5
  8
DIMNSIONS
 62
     7
 10
-2789.7555555555559
 20
-1580.2813333333329
 30
0.0
 40
108.5894097222222
  1
451
 50
90.0
 41
0.8
 11
-2898.3449652777781
 21
-1580.2813333333329
 31
0.0
 73
     3
  0
LINE
  5
1B6
  8
DIMNSIONS
  6
CONTINUOUS
 62
     7
 10
-2580.0
 20
-1248.895999999999
 30
0.0
 11
-3080.0
 21
-1248.895999999999
 31
0.0
  0
LINE
  5
1B7
  8
DIMNSIONS
  6
CONTINUOUS
 62
     7
 10
-2448.8879999999999
 20
-1703.5999999999999
 30
0.0
 11
-3080.0
 21
-1703.5999999999999
 31
0.0
  0
LINE
  5
1B8
  8
DIMNSIONS
  6
CONTINUOUS
 62
     7
 10
-3000.0
 20
-1248.895999999999
 30
0.0
 11
-3000.0
 21
-1703.5999999999999
 31
0.0
  0
LINE
  5
1B9
  8
DIMNSIONS
  6
CONTINUOUS
 62
     7
 10
-3000.0
 20
-1248.895999999999
 30
0.0
 11
-2973.19840819399
 21
-1348.920902343749
 31
0.0
  0
LINE
  5
1BA
  8
DIMNSIONS
  6
CONTINUOUS
 62
     7
 10
-3000.0
 20
-1248.895999999999
 30
0.0
 11
-3026.80159180601
 21
-1348.920902343749
 31
0.0
  0
LINE
  5
1BB
  8
DIMNSIONS
  6
CONTINUOUS
 62
     7
 10
-3000.0
 20
-1703.5999999999999
 30
0.0
 11
-3026.80159180601
 21
-1603.575097656251
 31
0.0
  0
LINE
  5
1BC
  8
DIMNSIONS
  6
CONTINUOUS
 62
     7
 10
-3000.0
 20
-1703.5999999999999
 30
0.0
 11
-2973.19840819399
 21
-1603.575097656251
 31
0.0
  0
TEXT
  5
1BD
  8
DIMNSIONS
 62
     7
 10
-3039.7555555555559
 20
-1582.081333333334
 30
0.0
 40
108.5894097222222
  1
455
 50
90.0
 41
0.8
 11
-3148.3449652777781
 21
-1582.081333333334
 31
0.0
 73
     3
  0
LINE
  5
1BE
  8
DIMNSIONS
  6
CONTINUOUS
 62
     7
 10
-2580.0
 20
-2508.384
 30
0.0
 11
-2705.0
 21
-2508.384
 31
0.0
  0
LINE
  5
1BF
  8
DIMNSIONS
  6
CONTINUOUS
 62
     7
 10
-2580.0
 20
-3500.0
 30
0.0
 11
-2705.0
 21
-3500.0
 31
0.0
  0
LINE
  5
1C0
  8
DIMNSIONS
  6
CONTINUOUS
 62
     7
 10
-2625.0
 20
-2508.384
 30
0.0
 11
-2625.0
 21
-3500.0
 31
0.0
  0
LINE
  5
1C1
  8
DIMNSIONS
  6
CONTINUOUS
 62
     7
 10
-2625.0
 20
-2508.384
 30
0.0
 11
-2598.1984081939909
 21
-2608.40890234375
 31
0.0
  0
LINE
  5
1C2
  8
DIMNSIONS
  6
CONTINUOUS
 62
     7
 10
-2625.0
 20
-2508.384
 30
0.0
 11
-2651.80159180601
 21
-2608.40890234375
 31
0.0
  0
LINE
  5
1C3
  8
DIMNSIONS
  6
CONTINUOUS
 62
     7
 10
-2625.0
 20
-3500.0
 30
0.0
 11
-2651.80159180601
 21
-3399.9750976562509
 31
0.0
  0
LINE
  5
1C4
  8
DIMNSIONS
  6
CONTINUOUS
 62
     7
 10
-2625.0
 20
-3500.0
 30
0.0
 11
-2598.1984081939909
 21
-3399.9750976562509
 31
0.0
  0
TEXT
  5
1C5
  8
DIMNSIONS
 62
     7
 10
-2664.7555555555559
 20
-3110.025333333333
 30
0.0
 40
108.5894097222222
  1
992
 50
90.0
 41
0.8
 11
-2773.3449652777781
 21
-3110.025333333333
 31
0.0
 73
     3
  0
LINE
  5
1C6
  8
DIMNSIONS
  6
CONTINUOUS
 62
     7
 10
-2580.0
 20
-3500.0
 30
0.0
 11
-2892.5
 21
-3500.0
 31
0.0
  0
LINE
  5
1C7
  8
DIMNSIONS
  6
CONTINUOUS
 62
     7
 10
-2476.8880000000008
 20
-2229.1339999999991
 30
0.0
 11
-2892.5
 21
-2229.1339999999991
 31
0.0
  0
LINE
  5
1C8
  8
DIMNSIONS
  6
CONTINUOUS
 62
     7
 10
-2812.5
 20
-3500.0
 30
0.0
 11
-2812.5
 21
-2229.1339999999991
 31
0.0
  0
LINE
  5
1C9
  8
DIMNSIONS
  6
CONTINUOUS
 62
     7
 10
-2812.5
 20
-3500.0
 30
0.0
 11
-2839.30159180601
 21
-3399.9750976562509
 31
0.0
  0
LINE
  5
1CA
  8
DIMNSIONS
  6
CONTINUOUS
 62
     7
 10
-2812.5
 20
-3500.0
 30
0.0
 11
-2785.6984081939909
 21
-3399.9750976562509
 31
0.0
  0
LINE
  5
1CB
  8
DIMNSIONS
  6
CONTINUOUS
 62
     7
 10
-2812.5
 20
-2229.1339999999991
 30
0.0
 11
-2785.6984081939909
 21
-2329.1589023437491
 31
0.0
  0
LINE
  5
1CC
  8
DIMNSIONS
  6
CONTINUOUS
 62
     7
 10
-2812.5
 20
-2229.1339999999991
 30
0.0
 11
-2839.30159180601
 21
-2329.1589023437491
 31
0.0
  0
TEXT
  5
1CD
  8
DIMNSIONS
 62
     7
 10
-2852.2555555555559
 20
-3146.7892222222222
 30
0.0
 40
108.5894097222222
  1
1271(HF)
 50
90.0
 41
0.8
 11
-2960.8449652777781
 21
-3146.7892222222222
 31
0.0
 73
     3
  0
LINE
  5
1CE
  8
DIMNSIONS
  6
CONTINUOUS
 62
     7
 10
-2473.8880000000008
 20
-2088.8839999999991
 30
0.0
 11
-3080.0
 21
-2088.8839999999991
 31
0.0
  0
LINE
  5
1CF
  8
DIMNSIONS
  6
CONTINUOUS
 62
     7
 10
-2580.0
 20
-3500.0
 30
0.0
 11
-3080.0
 21
-3500.0
 31
0.0
  0
LINE
  5
1D0
  8
DIMNSIONS
  6
CONTINUOUS
 62
     7
 10
-3000.0
 20
-2088.8839999999991
 30
0.0
 11
-3000.0
 21
-3500.0
 31
0.0
  0
LINE
  5
1D1
  8
DIMNSIONS
  6
CONTINUOUS
 62
     7
 10
-3000.0
 20
-2088.8839999999991
 30
0.0
 11
-2973.19840819399
 21
-2188.9089023437491
 31
0.0
  0
LINE
  5
1D2
  8
DIMNSIONS
  6
CONTINUOUS
 62
     7
 10
-3000.0
 20
-2088.8839999999991
 30
0.0
 11
-3026.80159180601
 21
-2188.9089023437491
 31
0.0
  0
LINE
  5
1D3
  8
DIMNSIONS
  6
CONTINUOUS
 62
     7
 10
-3000.0
 20
-3500.0
 30
0.0
 11
-3026.80159180601
 21
-3399.9750976562509
 31
0.0
  0
LINE
  5
1D4
  8
DIMNSIONS
  6
CONTINUOUS
 62
     7
 10
-3000.0
 20
-3500.0
 30
0.0
 11
-2973.19840819399
 21
-3399.9750976562509
 31
0.0
  0
TEXT
  5
1D5
  8
DIMNSIONS
 62
     7
 10
-3039.7555555555559
 20
-2935.5531111111109
 30
0.0
 40
108.5894097222222
  1
1411
 50
90.0
 41
0.8
 11
-3148.3449652777781
 21
-2935.5531111111109
 31
0.0
 73
     3
  0
LINE
  5
1D6
  8
DIMNSIONS
  6
CONTINUOUS
 62
     7
 10
-2500.0
 20
-3580.0
 30
0.0
 11
-2500.0
 21
-4080.0
 31
0.0
  0
LINE
  5
1D7
  8
DIMNSIONS
  6
CONTINUOUS
 62
     7
 10
-1850.7760000000001
 20
-3580.0
 30
0.0
 11
-1850.7760000000001
 21
-4080.0
 31
0.0
  0
LINE
  5
1D8
  8
DIMNSIONS
  6
CONTINUOUS
 62
     7
 10
-2500.0
 20
-4000.0
 30
0.0
 11
-1850.7760000000001
 21
-4000.0
 31
0.0
  0
LINE
  5
1D9
  8
DIMNSIONS
  6
CONTINUOUS
 62
     7
 10
-2500.0
 20
-4000.0
 30
0.0
 11
-2399.97509765625
 21
-3973.19840819399
 31
0.0
  0
LINE
  5
1DA
  8
DIMNSIONS
  6
CONTINUOUS
 62
     7
 10
-2500.0
 20
-4000.0
 30
0.0
 11
-2399.97509765625
 21
-4026.80159180601
 31
0.0
  0
LINE
  5
1DB
  8
DIMNSIONS
  6
CONTINUOUS
 62
     7
 10
-1850.7760000000001
 20
-4000.0
 30
0.0
 11
-1950.8009023437489
 21
-4026.80159180601
 31
0.0
  0
LINE
  5
1DC
  8
DIMNSIONS
  6
CONTINUOUS
 62
     7
 10
-1850.7760000000001
 20
-4000.0
 30
0.0
 11
-1950.8009023437489
 21
-3973.19840819399
 31
0.0
  0
TEXT
  5
1DD
  8
DIMNSIONS
 62
     7
 10
-2281.221333333333
 20
-3960.244444444445
 30
0.0
 40
108.5894097222222
  1
649
 41
0.8
 11
-2281.221333333333
 21
-3851.6550347222219
 31
0.0
 73
     3
  0
LINE
  5
1DE
  8
DIMNSIONS
  6
CONTINUOUS
 62
     7
 10
-848.89600000000053
 20
-3580.0
 30
0.0
 11
-848.89600000000053
 21
-3830.0
 31
0.0
  0
LINE
  5
1DF
  8
DIMNSIONS
  6
CONTINUOUS
 62
     7
 10
-1300.0
 20
-3580.0
 30
0.0
 11
-1300.0
 21
-3830.0
 31
0.0
  0
LINE
  5
1E0
  8
DIMNSIONS
  6
CONTINUOUS
 62
     7
 10
-848.89600000000053
 20
-3750.0
 30
0.0
 11
-1300.0
 21
-3750.0
 31
0.0
  0
LINE
  5
1E1
  8
DIMNSIONS
  6
CONTINUOUS
 62
     7
 10
-848.89600000000053
 20
-3750.0
 30
0.0
 11
-948.92090234375053
 21
-3776.8015918060091
 31
0.0
  0
LINE
  5
1E2
  8
DIMNSIONS
  6
CONTINUOUS
 62
     7
 10
-848.89600000000053
 20
-3750.0
 30
0.0
 11
-948.92090234375053
 21
-3723.1984081939909
 31
0.0
  0
LINE
  5
1E3
  8
DIMNSIONS
  6
CONTINUOUS
 62
     7
 10
-1300.0
 20
-3750.0
 30
0.0
 11
-1199.9750976562509
 21
-3723.1984081939909
 31
0.0
  0
LINE
  5
1E4
  8
DIMNSIONS
  6
CONTINUOUS
 62
     7
 10
-1300.0
 20
-3750.0
 30
0.0
 11
-1199.9750976562509
 21
-3776.8015918060091
 31
0.0
  0
TEXT
  5
1E5
  8
DIMNSIONS
 62
     7
 10
-1180.281333333334
 20
-3710.244444444445
 30
0.0
 40
108.5894097222222
  1
451
 41
0.8
 11
-1180.281333333334
 21
-3601.6550347222219
 31
0.0
 73
     3
  0
LINE
  5
1E6
  8
DIMNSIONS
  6
CONTINUOUS
 62
     7
 10
-848.89600000000053
 20
-3580.0
 30
0.0
 11
-848.89600000000053
 21
-4080.0
 31
0.0
  0
LINE
  5
1E7
  8
DIMNSIONS
  6
CONTINUOUS
 62
     7
 10
-1303.5999999999999
 20
-3478.5
 30
0.0
 11
-1303.5999999999999
 21
-4080.0
 31
0.0
  0
LINE
  5
1E8
  8
DIMNSIONS
  6
CONTINUOUS
 62
     7
 10
-848.89600000000053
 20
-4000.0
 30
0.0
 11
-1303.5999999999999
 21
-4000.0
 31
0.0
  0
LINE
  5
1E9
  8
DIMNSIONS
  6
CONTINUOUS
 62
     7
 10
-848.89600000000053
 20
-4000.0
 30
0.0
 11
-948.92090234375053
 21
-4026.80159180601
 31
0.0
  0
LINE
  5
1EA
  8
DIMNSIONS
  6
CONTINUOUS
 62
     7
 10
-848.89600000000053
 20
-4000.0
 30
0.0
 11
-948.92090234375053
 21
-3973.19840819399
 31
0.0
  0
LINE
  5
1EB
  8
DIMNSIONS
  6
CONTINUOUS
 62
     7
 10
-1303.5999999999999
 20
-4000.0
 30
0.0
 11
-1203.5750976562499
 21
-3973.19840819399
 31
0.0
  0
LINE
  5
1EC
  8
DIMNSIONS
  6
CONTINUOUS
 62
     7
 10
-1303.5999999999999
 20
-4000.0
 30
0.0
 11
-1203.5750976562499
 21
-4026.80159180601
 31
0.0
  0
TEXT
  5
1ED
  8
DIMNSIONS
 62
     7
 10
-1182.0813333333331
 20
-3960.244444444445
 30
0.0
 40
108.5894097222222
  1
455
 41
0.8
 11
-1182.0813333333331
 21
-3851.6550347222219
 31
0.0
 73
     3
  0
TEXT
  5
1EE
  8
DATA
 62
     7
 10
2100.0
 20
-4187.0236150000001
 30
0.0
 40
97.73046875
  1
JBL
 41
0.8
 11
2100.0
 21
-4089.2931462500001
 31
0.0
 73
     3
  0
TEXT
  5
1EF
  8
DATA
 62
     7
 10
-3100.0
 20
-4752.7392149999996
 30
0.0
 40
65.153645833333329
  1
仕様および外観は予告なく変更されることがありますので、ご了承ください。
 41
0.8
 11
-3100.0
 21
-4687.5855691666666
 31
0.0
 73
     3
  0
LINE
  5
1F0
  8
DATA
  6
CONTINUOUS
 62
     7
 10
349.22399999999931
 20
-3500.0
 30
0.0
 11
-300.0000000000008
 21
-3500.0
 31
0.0
  0
LINE
  5
1F1
  8
DATA
  6
CONTINUOUS
 62
     7
 10
330.22399999999931
 20
-3481.0
 30
0.0
 11
-281.00000000000091
 21
-3481.0
 31
0.0
  0
LINE
  5
1F2
  8
DATA
  6
CONTINUOUS
 62
     7
 10
-281.00000000000091
 20
-2527.384
 30
0.0
 11
330.22399999999931
 21
-2527.384
 31
0.0
  0
LINE
  5
1F3
  8
DATA
  6
CONTINUOUS
 62
     7
 10
-300.0000000000008
 20
-2508.384
 30
0.0
 11
349.22399999999931
 21
-2508.384
 31
0.0
  0
LINE
  5
1F4
  8
DATA
  6
CONTINUOUS
 62
     7
 10
-102.63799999999991
 20
-2493.384
 30
0.0
 11
151.8619999999982
 21
-2493.3839999999991
 31
0.0
  0
LINE
  5
1F5
  8
DATA
  6
CONTINUOUS
 62
     7
 10
-193.8880000000008
 20
-2088.8839999999991
 30
0.0
 11
243.11200000000011
 21
-2088.8839999999991
 31
0.0
  0
LINE
  5
1F6
  8
DATA
  6
CONTINUOUS
 62
     7
 10
-111.887999999999
 20
-2369.3839999999991
 30
0.0
 11
161.1119999999982
 21
-2369.3839999999991
 31
0.0
  0
CIRCLE
  5
1F7
  8
DATA
  6
CONTINUOUS
 62
     7
 10
24.612000000000069
 20
-2229.134
 30
0.0
 40
98.250000000000014
  0
CIRCLE
  5
1F8
  8
DATA
  6
CONTINUOUS
 62
     7
 10
24.612000000000069
 20
-2229.134
 30
0.0
 40
95.897699999999503
  0
CIRCLE
  5
1F9
  8
DATA
  6
CONTINUOUS
 62
     7
 10
24.612000000000069
 20
-2229.134
 30
0.0
 40
116.25
  0
ARC
  5
1FA
  8
DATA
  6
CONTINUOUS
 62
     7
 10
24.612000000000069
 20
-2229.134
 30
0.0
 40
74.234963636363446
 50
246.5850794528977
 51
293.4149205471021
  0
TEXT
  5
1FB
  8
DATA
 62
     7
 10
-3.6545920395868312
 20
-2230.028374999999
 30
0.0
 40
4.6171875
  1
Professional Series
 41
0.8
 11
-3.6545920395868312
 21
-2225.411187499999
 31
0.0
 73
     3
  0
LINE
  5
1FC
  8
DATA
  6
CONTINUOUS
 62
     7
 10
54.112000000000073
 20
-2247.384
 30
0.0
 11
-4.8880000000008428
 21
-2247.384
 31
0.0
  0
LINE
  5
1FD
  8
DATA
  6
CONTINUOUS
 62
     7
 10
-4.8880000000008428
 20
-2194.3839999999991
 30
0.0
 11
54.112000000000073
 21
-2194.3839999999991
 31
0.0
  0
CIRCLE
  5
1FE
  8
DATA
  6
CONTINUOUS
 62
     7
 10
24.612000000000069
 20
-2229.134
 30
0.0
 40
51.75
  0
CIRCLE
  5
1FF
  8
DATA
  6
CONTINUOUS
 62
     7
 10
24.612000000000069
 20
-2229.134
 30
0.0
 40
71.246999999999375
  0
ARC
  5
200
  8
DATA
  6
CONTINUOUS
 62
     7
 10
24.612000000000069
 20
-2229.134
 30
0.0
 40
93.656727272727494
 50
262.62188751734561
 51
277.37811248265388
  0
LINE
  5
201
  8
DATA
  6
CONTINUOUS
 62
     7
 10
36.61200000000008
 20
-2214.384
 30
0.0
 11
12.61199999999824
 21
-2214.384
 31
0.0
  0
TEXT
  5
202
  8
DATA
 62
     7
 10
4.2045841137259989
 20
-2267.0773593749991
 30
0.0
 40
2.4799346923828121
  1
SERIAL No.
 41
0.8
 11
4.2045841137259989
 21
-2264.5974246826158
 31
0.0
 73
     3
  0
TEXT
  5
203
  8
DATA
 62
     7
 10
4.2045841137259989
 20
-2262.5773593749991
 30
0.0
 40
2.4799346923828121
  1
IMPEDANCE
 41
0.8
 11
4.2045841137259989
 21
-2260.0974246826158
 31
0.0
 73
     3
  0
TEXT
  5
204
  8
DATA
 62
     7
 10
4.2045841137259989
 20
-2258.077359375
 30
0.0
 40
2.4799346923828121
  1
MODEL No.
 41
0.8
 11
4.2045841137259989
 21
-2255.5974246826172
 31
0.0
 73
     3
  0
CIRCLE
  5
205
  8
DATA
  6
CONTINUOUS
 62
     7
 10
39.111999999999149
 20
-2316.5485837675878
 30
0.0
 40
6.0
  0
CIRCLE
  5
206
  8
DATA
  6
CONTINUOUS
 62
     7
 10
39.111999999999149
 20
-2316.5485837675878
 30
0.0
 40
5.0
  0
TEXT
  5
207
  8
DATA
 62
     7
 10
29.61199999999825
 20
-2262.5773593749991
 30
0.0
 40
2.4799346923828121
  1
8 OHMS
 41
0.8
 11
29.61199999999825
 21
-2260.0974246826158
 31
0.0
 73
     3
  0
TEXT
  5
208
  8
DATA
 62
     7
 10
29.61199999999825
 20
-2258.077359375
 30
0.0
 40
2.4799346923828121
  1
2446H
 41
0.8
 11
29.61199999999825
 21
-2255.5974246826172
 31
0.0
 73
     3
  0
LINE
  5
209
  8
DATA
  6
CONTINUOUS
 62
     7
 10
-1850.7760000000001
 20
-3500.0
 30
0.0
 11
-2500.0
 21
-3500.0
 31
0.0
  0
LINE
  5
20A
  8
DATA
  6
CONTINUOUS
 62
     7
 10
-1869.7760000000001
 20
-3481.0
 30
0.0
 11
-2481.0000000000009
 21
-3481.0
 31
0.0
  0
LINE
  5
20B
  8
DATA
  6
CONTINUOUS
 62
     7
 10
-2481.0000000000009
 20
-2527.384
 30
0.0
 11
-1869.7760000000001
 21
-2527.384
 31
0.0
  0
LINE
  5
20C
  8
DATA
  6
CONTINUOUS
 62
     7
 10
-2500.0
 20
-2508.384
 30
0.0
 11
-1850.7760000000001
 21
-2508.384
 31
0.0
  0
CIRCLE
  5
20D
  8
DATA
  6
CONTINUOUS
 62
     7
 10
-2175.3880000000008
 20
-3204.9999999999991
 30
0.0
 40
193.5
  0
CIRCLE
  5
20E
  8
DATA
  6
CONTINUOUS
 62
     7
 10
-2175.3880000000008
 20
-3204.9999999999991
 30
0.0
 40
190.0
  0
CIRCLE
  5
20F
  8
DATA
  6
CONTINUOUS
 62
     7
 10
-2175.3880000000008
 20
-3204.9998999999998
 30
0.0
 40
180.0
  0
CIRCLE
  5
210
  8
DATA
  6
CONTINUOUS
 62
     7
 10
-2175.3880000000008
 20
-3204.9998999999998
 30
0.0
 40
176.25
  0
CIRCLE
  5
211
  8
DATA
  6
CONTINUOUS
 62
     7
 10
-2175.3880000000008
 20
-3204.9999999999991
 30
0.0
 40
169.75
  0
CIRCLE
  5
212
  8
DATA
  6
CONTINUOUS
 62
     7
 10
-2175.3880000000008
 20
-3204.9998999999998
 30
0.0
 40
163.0
  0
CIRCLE
  5
213
  8
DATA
  6
CONTINUOUS
 62
     7
 10
-2175.3880000000008
 20
-3204.9999999999991
 30
0.0
 40
151.0
  0
CIRCLE
  5
214
  8
DATA
  6
CONTINUOUS
 62
     7
 10
-2175.3880000000008
 20
-3204.9998999999998
 30
0.0
 40
145.30779999999959
  0
CIRCLE
  5
215
  8
DATA
  6
CONTINUOUS
 62
     7
 10
-2175.3880000000008
 20
-3204.9999999999991
 30
0.0
 40
139.61560000000009
  0
CIRCLE
  5
216
  8
DATA
  6
CONTINUOUS
 62
     7
 10
-2175.3880000000008
 20
-3204.9998999999998
 30
0.0
 40
133.9233999999997
  0
CIRCLE
  5
217
  8
DATA
  6
CONTINUOUS
 62
     7
 10
-2175.3880000000008
 20
-3204.9998999999998
 30
0.0
 40
128.23120000000009
  0
CIRCLE
  5
218
  8
DATA
  6
CONTINUOUS
 62
     7
 10
-2175.3880000000008
 20
-3204.9998999999998
 30
0.0
 40
122.5389999999997
  0
CIRCLE
  5
219
  8
DATA
  6
CONTINUOUS
 62
     7
 10
-2175.3880000000008
 20
-3204.9998999999998
 30
0.0
 40
116.8468000000002
  0
CIRCLE
  5
21A
  8
DATA
  6
CONTINUOUS
 62
     7
 10
-2175.3880000000008
 20
-3204.9999999999991
 30
0.0
 40
111.1545999999998
  0
CIRCLE
  5
21B
  8
DATA
  6
CONTINUOUS
 62
     7
 10
-2175.3880000000008
 20
-2803.384
 30
0.0
 40
193.5
  0
CIRCLE
  5
21C
  8
DATA
  6
CONTINUOUS
 62
     7
 10
-2175.3880000000008
 20
-2803.384
 30
0.0
 40
190.0
  0
CIRCLE
  5
21D
  8
DATA
  6
CONTINUOUS
 62
     7
 10
-2175.3880000000008
 20
-2803.3839000000012
 30
0.0
 40
180.0
  0
CIRCLE
  5
21E
  8
DATA
  6
CONTINUOUS
 62
     7
 10
-2175.3880000000008
 20
-2803.3839000000012
 30
0.0
 40
176.25
  0
CIRCLE
  5
21F
  8
DATA
  6
CONTINUOUS
 62
     7
 10
-2175.3880000000008
 20
-2803.384
 30
0.0
 40
169.75
  0
CIRCLE
  5
220
  8
DATA
  6
CONTINUOUS
 62
     7
 10
-2175.3880000000008
 20
-2803.3839000000012
 30
0.0
 40
163.0
  0
CIRCLE
  5
221
  8
DATA
  6
CONTINUOUS
 62
     7
 10
-2175.3880000000008
 20
-2803.384
 30
0.0
 40
151.0
  0
CIRCLE
  5
222
  8
DATA
  6
CONTINUOUS
 62
     7
 10
-2175.3880000000008
 20
-2803.3839000000012
 30
0.0
 40
145.30779999999959
  0
CIRCLE
  5
223
  8
DATA
  6
CONTINUOUS
 62
     7
 10
-2175.3880000000008
 20
-2803.384
 30
0.0
 40
139.61560000000009
  0
CIRCLE
  5
224
  8
DATA
  6
CONTINUOUS
 62
     7
 10
-2175.3880000000008
 20
-2803.3839000000012
 30
0.0
 40
133.9233999999997
  0
CIRCLE
  5
225
  8
DATA
  6
CONTINUOUS
 62
     7
 10
-2175.3880000000008
 20
-2803.3839000000012
 30
0.0
 40
128.23120000000009
  0
CIRCLE
  5
226
  8
DATA
  6
CONTINUOUS
 62
     7
 10
-2175.3880000000008
 20
-2803.3839000000012
 30
0.0
 40
122.5389999999997
  0
CIRCLE
  5
227
  8
DATA
  6
CONTINUOUS
 62
     7
 10
-2175.3880000000008
 20
-2803.3839000000012
 30
0.0
 40
116.8468000000002
  0
CIRCLE
  5
228
  8
DATA
  6
CONTINUOUS
 62
     7
 10
-2175.3880000000008
 20
-2803.384
 30
0.0
 40
111.1545999999998
  0
LINE
  5
229
  8
DATA
  6
CONTINUOUS
 62
     7
 10
-2302.6379999999999
 20
-2493.384
 30
0.0
 11
-2048.1379999999999
 21
-2493.3839999999991
 31
0.0
  0
LINE
  5
22A
  8
DATA
  6
CONTINUOUS
 62
     7
 10
-2363.8879999999999
 20
-2344.384
 30
0.0
 11
-1986.8879999999999
 21
-2344.384
 31
0.0
  0
LINE
  5
22B
  8
DATA
  6
CONTINUOUS
 62
     7
 10
-2393.8880000000008
 20
-2369.3839999999991
 30
0.0
 11
-1956.8879999999999
 21
-2369.3839999999991
 31
0.0
  0
LINE
  5
22C
  8
DATA
  6
CONTINUOUS
 62
     7
 10
-2363.8879999999999
 20
-2113.884
 30
0.0
 11
-1986.8879999999999
 21
-2113.884
 31
0.0
  0
LINE
  5
22D
  8
DATA
  6
CONTINUOUS
 62
     7
 10
-2393.8880000000008
 20
-2088.8839999999991
 30
0.0
 11
-1956.8879999999999
 21
-2088.8839999999991
 31
0.0
  0
ARC
  5
22E
  8
DATA
  6
CONTINUOUS
 62
     7
 10
-1894.525268579305
 20
-2504.9445468750082
 30
0.0
 40
401.8198918392078
 50
103.28888973434429
 51
116.8704983776894
  0
ARC
  5
22F
  8
DATA
  6
CONTINUOUS
 62
     7
 10
-1894.5252685793041
 20
-1953.3234531249891
 30
0.0
 40
401.8198918392082
 50
243.1295016223105
 51
256.71111026565552
  0
LINE
  5
230
  8
DATA
  6
CONTINUOUS
 62
     7
 10
-2500.0
 20
-1700.0
 30
0.0
 11
-1850.7760000000001
 21
-1700.0
 31
0.0
  0
LINE
  5
231
  8
DATA
  6
CONTINUOUS
 62
     7
 10
-2500.0
 20
-1248.895999999999
 30
0.0
 11
-1850.7760000000001
 21
-1248.895999999999
 31
0.0
  0
LINE
  5
232
  8
DATA
  6
CONTINUOUS
 62
     7
 10
-2368.8879999999999
 20
-1703.5999999999999
 30
0.0
 11
-1981.8879999999999
 21
-1703.599999999999
 31
0.0
  0
ARC
  5
233
  8
DATA
  6
CONTINUOUS
 62
     7
 10
-1696.4369130434609
 20
-968.1854619564873
 30
0.0
 40
752.19614294944915
 50
237.06575875519241
 51
246.78926737310189
  0
ARC
  5
234
  8
DATA
  6
CONTINUOUS
 62
     7
 10
-1696.4369130434609
 20
-954.68546195648821
 30
0.0
 40
752.19614294944915
 50
237.06575875519241
 51
246.78926737310189
  0
LINE
  5
235
  8
DATA
  6
CONTINUOUS
 62
     7
 10
-2396.8879999999999
 20
-1659.499999999998
 30
0.0
 11
-1953.8879999999999
 21
-1659.499999999998
 31
0.0
  0
LINE
  5
236
  8
DATA
  6
CONTINUOUS
 62
     7
 10
-2396.8879999999999
 20
-1672.499999999998
 30
0.0
 11
-1953.8879999999999
 21
-1672.499999999998
 31
0.0
  0
LINE
  5
237
  8
DATA
  6
CONTINUOUS
 62
     7
 10
-2059.1379999999999
 20
-1338.4881999999991
 30
0.0
 11
-2077.1379999999999
 21
-1332.4881999999991
 31
0.0
  0
LINE
  5
238
  8
DATA
  6
CONTINUOUS
 62
     7
 10
-2112.93824837393
 20
-1414.25
 30
0.0
 11
-2048.1379999999999
 21
-1414.25
 31
0.0
  0
LINE
  5
239
  8
DATA
  6
CONTINUOUS
 62
     7
 10
-2112.2908577349831
 20
-1410.7499999999991
 30
0.0
 11
-2042.3879999999999
 21
-1410.7499999999991
 31
0.0
  0
LINE
  5
23A
  8
DATA
  6
CONTINUOUS
 62
     7
 10
-2291.6379999999999
 20
-1338.4881999999991
 30
0.0
 11
-2059.1379999999999
 21
-1338.4881999999991
 31
0.0
  0
LINE
  5
23B
  8
DATA
  6
CONTINUOUS
 62
     7
 10
-2291.6379999999999
 20
-1375.4882999999991
 30
0.0
 11
-2059.1379999999999
 21
-1375.4882999999991
 31
0.0
  0
LINE
  5
23C
  8
DATA
  6
CONTINUOUS
 62
     7
 10
-2315.3879999999999
 20
-1270.25
 30
0.0
 11
-2035.3879999999999
 21
-1270.25
 31
0.0
  0
LINE
  5
23D
  8
DATA
  6
CONTINUOUS
 62
     7
 10
-2302.6379999999999
 20
-1266.7499999999991
 30
0.0
 11
-2048.1379999999999
 21
-1266.7499999999991
 31
0.0
  0
LINE
  5
23E
  8
DATA
  6
CONTINUOUS
 62
     7
 10
-2304.8879999999999
 20
-1431.0
 30
0.0
 11
-2045.8879999999999
 21
-1431.0
 31
0.0
  0
LINE
  5
23F
  8
DATA
  6
CONTINUOUS
 62
     7
 10
-2304.8879999999999
 20
-1434.4999999999991
 30
0.0
 11
-2045.8879999999999
 21
-1434.4999999999991
 31
0.0
  0
LINE
  5
240
  8
DATA
  6
CONTINUOUS
 62
     7
 10
-2500.0
 20
-3500.0
 30
0.0
 11
-2500.0
 21
-2508.384
 31
0.0
  0
LINE
  5
241
  8
DATA
  6
CONTINUOUS
 62
     7
 10
-2481.0000000000009
 20
-3481.0
 30
0.0
 11
-2481.0000000000009
 21
-2527.384
 31
0.0
  0
CIRCLE
  5
242
  8
DATA
  6
CONTINUOUS
 62
     7
 10
-2175.3880000000008
 20
-3204.9999999999991
 30
0.0
 40
56.5
  0
CIRCLE
  5
243
  8
DATA
  6
CONTINUOUS
 62
     7
 10
-2175.3880000000008
 20
-3204.9998999999998
 30
0.0
 40
77.0
  0
CIRCLE
  5
244
  8
DATA
  6
CONTINUOUS
 62
     7
 10
-2175.3880000000008
 20
-3204.9998999999998
 30
0.0
 40
105.46239999999941
  0
CIRCLE
  5
245
  8
DATA
  6
CONTINUOUS
 62
     7
 10
-2175.3880000000008
 20
-3204.9998999999998
 30
0.0
 40
99.770199999999917
  0
CIRCLE
  5
246
  8
DATA
  6
CONTINUOUS
 62
     7
 10
-2175.3880000000008
 20
-3204.9998999999998
 30
0.0
 40
94.078000000000443
  0
CIRCLE
  5
247
  8
DATA
  6
CONTINUOUS
 62
     7
 10
-2175.3880000000008
 20
-3204.9998999999998
 30
0.0
 40
88.385800000000017
  0
CIRCLE
  5
248
  8
DATA
  6
CONTINUOUS
 62
     7
 10
-2175.3880000000008
 20
-3204.9998999999998
 30
0.0
 40
82.693599999999591
  0
CIRCLE
  5
249
  8
DATA
  6
CONTINUOUS
 62
     7
 10
-2346.3056999999999
 20
-3275.7964000000002
 30
0.0
 40
3.5
  0
LINE
  5
24A
  8
DATA
  6
CONTINUOUS
 62
     7
 10
-2348.3056999999999
 20
-3275.7964000000002
 30
0.0
 11
-2344.3056999999999
 21
-3275.7964000000002
 31
0.0
  0
LINE
  5
24B
  8
DATA
  6
CONTINUOUS
 62
     7
 10
-2346.3056999999999
 20
-3277.7964000000011
 30
0.0
 11
-2346.3056999999999
 21
-3273.7963999999988
 31
0.0
  0
LINE
  5
24C
  8
DATA
  6
CONTINUOUS
 62
     7
 10
-2350.8173999999999
 20
-3273.8768000000009
 30
0.0
 11
-2347.6451000000011
 21
-3272.5628000000002
 31
0.0
  0
LINE
  5
24D
  8
DATA
  6
CONTINUOUS
 62
     7
 10
-2348.1386000000002
 20
-3280.3440000000001
 30
0.0
 11
-2344.9663999999998
 21
-3279.0300000000002
 31
0.0
  0
ARC
  5
24E
  8
DATA
  6
CONTINUOUS
 62
     7
 10
-2351.3914
 20
-3272.491
 30
0.0
 40
1.5000999999999061
 50
200.98074499999771
 51
292.49939499998521
  0
ARC
  5
24F
  8
DATA
  6
CONTINUOUS
 62
     7
 10
-2347.5646000000011
 20
-3281.7298000000001
 30
0.0
 40
1.5000000000000651
 50
112.4993950000067
 51
204.02066399999671
  0
CIRCLE
  5
250
  8
DATA
  6
CONTINUOUS
 62
     7
 10
-2246.184600000001
 20
-3375.9177
 30
0.0
 40
3.5
  0
LINE
  5
251
  8
DATA
  6
CONTINUOUS
 62
     7
 10
-2247.5988000000011
 20
-3377.3319000000001
 30
0.0
 11
-2244.7704000000008
 21
-3374.5034999999998
 31
0.0
  0
LINE
  5
252
  8
DATA
  6
CONTINUOUS
 62
     7
 10
-2244.7704000000008
 20
-3377.3319000000001
 30
0.0
 11
-2247.5988000000011
 21
-3374.5034999999998
 31
0.0
  0
LINE
  5
253
  8
DATA
  6
CONTINUOUS
 62
     7
 10
-2250.7321000000002
 20
-3377.7506000000012
 30
0.0
 11
-2249.418200000001
 21
-3374.5783000000001
 31
0.0
  0
LINE
  5
254
  8
DATA
  6
CONTINUOUS
 62
     7
 10
-2244.264900000001
 20
-3380.4294
 30
0.0
 11
-2242.951
 21
-3377.2570999999998
 31
0.0
  0
ARC
  5
255
  8
DATA
  6
CONTINUOUS
 62
     7
 10
-2252.1180000000008
 20
-3377.1765
 30
0.0
 40
1.5000999999995039
 50
245.98089100001579
 51
337.49853800001159
  0
ARC
  5
256
  8
DATA
  6
CONTINUOUS
 62
     7
 10
-2242.8791000000001
 20
-3381.0034000000001
 30
0.0
 40
1.499999999999891
 50
157.5006050000093
 51
249.01788699999079
  0
CIRCLE
  5
257
  8
DATA
  6
CONTINUOUS
 62
     7
 10
-2104.5916999999999
 20
-3375.9179000000008
 30
0.0
 40
3.5
  0
LINE
  5
258
  8
DATA
  6
CONTINUOUS
 62
     7
 10
-2104.5916000000002
 20
-3377.9178000000002
 30
0.0
 11
-2104.5916999999999
 21
-3373.917899999999
 31
0.0
  0
LINE
  5
259
  8
DATA
  6
CONTINUOUS
 62
     7
 10
-2102.5916999999999
 20
-3375.9179000000008
 30
0.0
 11
-2106.5916000000011
 21
-3375.9178000000011
 31
0.0
  0
LINE
  5
25A
  8
DATA
  6
CONTINUOUS
 62
     7
 10
-2106.5112000000008
 20
-3380.4294
 30
0.0
 11
-2107.8253000000009
 21
-3377.2573000000002
 31
0.0
  0
LINE
  5
25B
  8
DATA
  6
CONTINUOUS
 62
     7
 10
-2100.0440000000008
 20
-3377.7506000000012
 30
0.0
 11
-2101.3581000000008
 21
-3374.5785000000001
 31
0.0
  0
ARC
  5
25C
  8
DATA
  6
CONTINUOUS
 62
     7
 10
-2107.897100000001
 20
-3381.0035000000021
 30
0.0
 40
1.500100000000069
 50
290.97937800003263
 51
22.50146199998165
  0
ARC
  5
25D
  8
DATA
  6
CONTINUOUS
 62
     7
 10
-2098.6582000000012
 20
-3377.1765999999998
 30
0.0
 40
1.5000000000000651
 50
202.49939500000681
 51
294.01717500000291
  0
CIRCLE
  5
25E
  8
DATA
  6
CONTINUOUS
 62
     7
 10
-2175.3880000000008
 20
-2803.3839000000012
 30
0.0
 40
77.0
  0
CIRCLE
  5
25F
  8
DATA
  6
CONTINUOUS
 62
     7
 10
-2175.3880000000008
 20
-2803.3839000000012
 30
0.0
 40
105.46239999999941
  0
CIRCLE
  5
260
  8
DATA
  6
CONTINUOUS
 62
     7
 10
-2175.3880000000008
 20
-2803.3839000000012
 30
0.0
 40
99.770199999999917
  0
CIRCLE
  5
261
  8
DATA
  6
CONTINUOUS
 62
     7
 10
-2175.3880000000008
 20
-2803.3839000000012
 30
0.0
 40
94.078000000000443
  0
CIRCLE
  5
262
  8
DATA
  6
CONTINUOUS
 62
     7
 10
-2175.3880000000008
 20
-2803.3839000000012
 30
0.0
 40
88.385800000000017
  0
CIRCLE
  5
263
  8
DATA
  6
CONTINUOUS
 62
     7
 10
-2175.3880000000008
 20
-2803.3839000000012
 30
0.0
 40
82.693599999999591
  0
CIRCLE
  5
264
  8
DATA
  6
CONTINUOUS
 62
     7
 10
-2346.305800000001
 20
-2732.5874000000008
 30
0.0
 40
3.5
  0
LINE
  5
265
  8
DATA
  6
CONTINUOUS
 62
     7
 10
-2347.7200000000012
 20
-2731.1734000000001
 30
0.0
 11
-2344.8915000000011
 21
-2734.0016999999998
 31
0.0
  0
LINE
  5
266
  8
DATA
  6
CONTINUOUS
 62
     7
 10
-2347.7200000000012
 20
-2734.001600000001
 30
0.0
 11
-2344.8915999999999
 21
-2731.1734000000001
 31
0.0
  0
CIRCLE
  5
267
  8
DATA
  6
CONTINUOUS
 62
     7
 10
-2175.3880000000008
 20
-2803.384
 30
0.0
 40
56.5
  0
CIRCLE
  5
268
  8
DATA
  6
CONTINUOUS
 62
     7
 10
-2371.0000000000009
 20
-3004.192
 30
0.0
 40
67.5
  0
CIRCLE
  5
269
  8
DATA
  6
CONTINUOUS
 62
     7
 10
-2346.305800000001
 20
-3134.2033999999999
 30
0.0
 40
3.5
  0
LINE
  5
26A
  8
DATA
  6
CONTINUOUS
 62
     7
 10
-2347.7200000000012
 20
-3132.7893999999992
 30
0.0
 11
-2344.8915000000011
 21
-3135.6177000000012
 31
0.0
  0
LINE
  5
26B
  8
DATA
  6
CONTINUOUS
 62
     7
 10
-2347.7200000000012
 20
-3135.6176
 30
0.0
 11
-2344.8915999999999
 21
-3132.7893999999992
 31
0.0
  0
LINE
  5
26C
  8
DATA
  6
CONTINUOUS
 62
     7
 10
-2348.1386000000002
 20
-3129.6559999999999
 30
0.0
 11
-2344.9663999999998
 21
-3130.9697999999999
 31
0.0
  0
LINE
  5
26D
  8
DATA
  6
CONTINUOUS
 62
     7
 10
-2350.8173999999999
 20
-3136.1232
 30
0.0
 11
-2347.6451999999999
 21
-3137.4369999999999
 31
0.0
  0
ARC
  5
26E
  8
DATA
  6
CONTINUOUS
 62
     7
 10
-2347.5645
 20
-3128.2701000000002
 30
0.0
 40
1.5002000000006079
 50
155.97895700000839
 51
247.49853800001881
  0
ARC
  5
26F
  8
DATA
  6
CONTINUOUS
 62
     7
 10
-2351.3914
 20
-3137.509
 30
0.0
 40
1.5000000000000651
 50
67.5006049999933
 51
159.0178869999971
  0
CIRCLE
  5
270
  8
DATA
  6
CONTINUOUS
 62
     7
 10
-2346.3056999999999
 20
-2874.1804000000002
 30
0.0
 40
3.5
  0
LINE
  5
271
  8
DATA
  6
CONTINUOUS
 62
     7
 10
-2348.3056999999999
 20
-2874.1804000000002
 30
0.0
 11
-2344.3056999999999
 21
-2874.1804000000002
 31
0.0
  0
LINE
  5
272
  8
DATA
  6
CONTINUOUS
 62
     7
 10
-2346.3056999999999
 20
-2876.1804000000002
 30
0.0
 11
-2346.3056999999999
 21
-2872.1804000000002
 31
0.0
  0
LINE
  5
273
  8
DATA
  6
CONTINUOUS
 62
     7
 10
-2350.8173999999999
 20
-2872.2608
 30
0.0
 11
-2347.6451000000011
 21
-2870.9468000000002
 31
0.0
  0
LINE
  5
274
  8
DATA
  6
CONTINUOUS
 62
     7
 10
-2348.1386000000002
 20
-2878.7280000000001
 30
0.0
 11
-2344.9663999999998
 21
-2877.4140000000002
 31
0.0
  0
ARC
  5
275
  8
DATA
  6
CONTINUOUS
 62
     7
 10
-2351.3914
 20
-2870.875
 30
0.0
 40
1.5000999999999061
 50
200.98074499999771
 51
292.49939499998521
  0
ARC
  5
276
  8
DATA
  6
CONTINUOUS
 62
     7
 10
-2347.5646000000011
 20
-2880.1138000000001
 30
0.0
 40
1.5000000000000651
 50
112.4993950000067
 51
204.02066399999671
  0
LINE
  5
277
  8
DATA
  6
CONTINUOUS
 62
     7
 10
-2350.8173999999999
 20
-2734.5072
 30
0.0
 11
-2347.6451999999999
 21
-2735.8209999999999
 31
0.0
  0
ARC
  5
278
  8
DATA
  6
CONTINUOUS
 62
     7
 10
-2351.3914
 20
-2735.893
 30
0.0
 40
1.5000000000000651
 50
67.5006049999933
 51
159.0178869999971
  0
CIRCLE
  5
279
  8
DATA
  6
CONTINUOUS
 62
     7
 10
-2246.184400000001
 20
-3034.0821999999998
 30
0.0
 40
3.5
  0
LINE
  5
27A
  8
DATA
  6
CONTINUOUS
 62
     7
 10
-2246.1845000000012
 20
-3032.0823
 30
0.0
 11
-2246.184400000001
 21
-3036.0822000000012
 31
0.0
  0
LINE
  5
27B
  8
DATA
  6
CONTINUOUS
 62
     7
 10
-2248.184400000001
 20
-3034.0821999999998
 30
0.0
 11
-2244.1845000000012
 21
-3034.0823
 31
0.0
  0
LINE
  5
27C
  8
DATA
  6
CONTINUOUS
 62
     7
 10
-2244.264900000001
 20
-3029.5707000000011
 30
0.0
 11
-2242.9508000000001
 21
-3032.7428
 31
0.0
  0
LINE
  5
27D
  8
DATA
  6
CONTINUOUS
 62
     7
 10
-2250.7321000000002
 20
-3032.2495000000008
 30
0.0
 11
-2249.418000000001
 21
-3035.4216000000001
 31
0.0
  0
ARC
  5
27E
  8
DATA
  6
CONTINUOUS
 62
     7
 10
-2242.8789999999999
 20
-3028.9965999999999
 30
0.0
 40
1.5001000000004929
 50
110.9793780000263
 51
202.50146199999099
  0
ARC
  5
27F
  8
DATA
  6
CONTINUOUS
 62
     7
 10
-2252.1179000000011
 20
-3032.8235000000009
 30
0.0
 40
1.5000000000000651
 50
22.499395000006711
 51
114.01717499998701
  0
CIRCLE
  5
280
  8
DATA
  6
CONTINUOUS
 62
     7
 10
-2246.184600000001
 20
-2974.3017
 30
0.0
 40
3.5
  0
LINE
  5
281
  8
DATA
  6
CONTINUOUS
 62
     7
 10
-2247.5988000000011
 20
-2975.7159000000001
 30
0.0
 11
-2244.7704000000008
 21
-2972.8875000000012
 31
0.0
  0
LINE
  5
282
  8
DATA
  6
CONTINUOUS
 62
     7
 10
-2244.7704000000008
 20
-2975.7159000000001
 30
0.0
 11
-2247.5988000000011
 21
-2972.8875000000012
 31
0.0
  0
LINE
  5
283
  8
DATA
  6
CONTINUOUS
 62
     7
 10
-2250.7321000000002
 20
-2976.1346000000008
 30
0.0
 11
-2249.418200000001
 21
-2972.9623000000011
 31
0.0
  0
LINE
  5
284
  8
DATA
  6
CONTINUOUS
 62
     7
 10
-2244.264900000001
 20
-2978.8134
 30
0.0
 11
-2242.951
 21
-2975.6410999999998
 31
0.0
  0
ARC
  5
285
  8
DATA
  6
CONTINUOUS
 62
     7
 10
-2252.1180000000008
 20
-2975.5605
 30
0.0
 40
1.5000999999999189
 50
245.98089100002289
 51
337.49853800001159
  0
ARC
  5
286
  8
DATA
  6
CONTINUOUS
 62
     7
 10
-2242.8791000000001
 20
-2979.3874000000001
 30
0.0
 40
1.5000000000000651
 50
157.5006049999933
 51
249.01788699999079
  0
CIRCLE
  5
287
  8
DATA
  6
CONTINUOUS
 62
     7
 10
-2104.5915000000009
 20
-3034.0823999999998
 30
0.0
 40
3.5
  0
LINE
  5
288
  8
DATA
  6
CONTINUOUS
 62
     7
 10
-2103.1773000000012
 20
-3032.6682000000001
 30
0.0
 11
-2106.0057000000011
 21
-3035.4965999999999
 31
0.0
  0
LINE
  5
289
  8
DATA
  6
CONTINUOUS
 62
     7
 10
-2106.0057000000011
 20
-3032.6682000000001
 30
0.0
 11
-2103.1773000000012
 21
-3035.4965999999999
 31
0.0
  0
LINE
  5
28A
  8
DATA
  6
CONTINUOUS
 62
     7
 10
-2100.0440000000008
 20
-3032.2495000000008
 30
0.0
 11
-2101.3579
 21
-3035.4218000000001
 31
0.0
  0
LINE
  5
28B
  8
DATA
  6
CONTINUOUS
 62
     7
 10
-2106.5112000000008
 20
-3029.5707000000011
 30
0.0
 11
-2107.8251
 21
-3032.7429999999999
 31
0.0
  0
ARC
  5
28C
  8
DATA
  6
CONTINUOUS
 62
     7
 10
-2098.6581000000001
 20
-3032.8236000000002
 30
0.0
 40
1.5000999999999189
 50
65.98089100002295
 51
157.49853800001171
  0
ARC
  5
28D
  8
DATA
  6
CONTINUOUS
 62
     7
 10
-2107.8969999999999
 20
-3028.9967000000001
 30
0.0
 40
1.4999999999992251
 50
337.50060499998
 51
69.017887000017041
  0
CIRCLE
  5
28E
  8
DATA
  6
CONTINUOUS
 62
     7
 10
-2104.5916999999999
 20
-2974.3018999999999
 30
0.0
 40
3.5
  0
LINE
  5
28F
  8
DATA
  6
CONTINUOUS
 62
     7
 10
-2104.5916000000002
 20
-2976.3018000000002
 30
0.0
 11
-2104.5916999999999
 21
-2972.3018999999999
 31
0.0
  0
LINE
  5
290
  8
DATA
  6
CONTINUOUS
 62
     7
 10
-2102.5916999999999
 20
-2974.3018999999999
 30
0.0
 11
-2106.5916000000011
 21
-2974.3018000000002
 31
0.0
  0
LINE
  5
291
  8
DATA
  6
CONTINUOUS
 62
     7
 10
-2106.5112000000008
 20
-2978.8134
 30
0.0
 11
-2107.8253000000009
 21
-2975.6412999999998
 31
0.0
  0
LINE
  5
292
  8
DATA
  6
CONTINUOUS
 62
     7
 10
-2100.0440000000008
 20
-2976.1346000000008
 30
0.0
 11
-2101.3581000000008
 21
-2972.9625000000001
 31
0.0
  0
ARC
  5
293
  8
DATA
  6
CONTINUOUS
 62
     7
 10
-2107.897100000001
 20
-2979.3874999999998
 30
0.0
 40
1.5001000000004929
 50
290.97937800002637
 51
22.50146199999109
  0
ARC
  5
294
  8
DATA
  6
CONTINUOUS
 62
     7
 10
-2098.6582000000012
 20
-2975.5605999999998
 30
0.0
 40
1.5000000000000651
 50
202.49939500000681
 51
294.01717500001871
  0
LINE
  5
295
  8
DATA
  6
CONTINUOUS
 62
     7
 10
-2348.1386000000002
 20
-2728.04
 30
0.0
 11
-2344.9663999999998
 21
-2729.3537999999999
 31
0.0
  0
ARC
  5
296
  8
DATA
  6
CONTINUOUS
 62
     7
 10
-2347.5645
 20
-2726.6541000000011
 30
0.0
 40
1.5002000000006079
 50
155.97895700000839
 51
247.49853800001881
  0
CIRCLE
  5
297
  8
DATA
  6
CONTINUOUS
 62
     7
 10
-2246.184400000001
 20
-2632.4661999999998
 30
0.0
 40
3.5
  0
LINE
  5
298
  8
DATA
  6
CONTINUOUS
 62
     7
 10
-2246.1845000000012
 20
-2630.4663
 30
0.0
 11
-2246.184400000001
 21
-2634.4661999999998
 31
0.0
  0
LINE
  5
299
  8
DATA
  6
CONTINUOUS
 62
     7
 10
-2248.184400000001
 20
-2632.4661999999998
 30
0.0
 11
-2244.1845000000012
 21
-2632.4663
 31
0.0
  0
LINE
  5
29A
  8
DATA
  6
CONTINUOUS
 62
     7
 10
-2244.264900000001
 20
-2627.9546999999998
 30
0.0
 11
-2242.9508000000001
 21
-2631.1268
 31
0.0
  0
LINE
  5
29B
  8
DATA
  6
CONTINUOUS
 62
     7
 10
-2250.7321000000002
 20
-2630.6335000000008
 30
0.0
 11
-2249.418000000001
 21
-2633.8056000000001
 31
0.0
  0
ARC
  5
29C
  8
DATA
  6
CONTINUOUS
 62
     7
 10
-2242.8789999999999
 20
-2627.3806
 30
0.0
 40
1.5001000000004929
 50
110.9793780000263
 51
202.50146199999099
  0
ARC
  5
29D
  8
DATA
  6
CONTINUOUS
 62
     7
 10
-2252.1179000000011
 20
-2631.2075
 30
0.0
 40
1.5000000000000651
 50
22.499395000006711
 51
114.01717499998701
  0
CIRCLE
  5
29E
  8
DATA
  6
CONTINUOUS
 62
     7
 10
-2104.5915000000009
 20
-2632.4663999999998
 30
0.0
 40
3.5
  0
LINE
  5
29F
  8
DATA
  6
CONTINUOUS
 62
     7
 10
-2103.1773000000012
 20
-2631.0522000000001
 30
0.0
 11
-2106.0057000000011
 21
-2633.880599999999
 31
0.0
  0
LINE
  5
2A0
  8
DATA
  6
CONTINUOUS
 62
     7
 10
-2106.0057000000011
 20
-2631.0522000000001
 30
0.0
 11
-2103.1773000000012
 21
-2633.880599999999
 31
0.0
  0
LINE
  5
2A1
  8
DATA
  6
CONTINUOUS
 62
     7
 10
-2100.0440000000008
 20
-2630.6335000000008
 30
0.0
 11
-2101.3579
 21
-2633.8058000000001
 31
0.0
  0
LINE
  5
2A2
  8
DATA
  6
CONTINUOUS
 62
     7
 10
-2106.5112000000008
 20
-2627.9546999999998
 30
0.0
 11
-2107.8251
 21
-2631.127
 31
0.0
  0
ARC
  5
2A3
  8
DATA
  6
CONTINUOUS
 62
     7
 10
-2098.6581000000001
 20
-2631.2076000000002
 30
0.0
 40
1.5000999999999189
 50
65.98089100002295
 51
157.49853800001171
  0
ARC
  5
2A4
  8
DATA
  6
CONTINUOUS
 62
     7
 10
-2107.8969999999999
 20
-2627.3807000000002
 30
0.0
 40
1.4999999999992251
 50
337.50060499998
 51
69.017887000017041
  0
LINE
  5
2A5
  8
DATA
  6
CONTINUOUS
 62
     7
 10
-2315.3879999999999
 20
-2501.384
 30
0.0
 11
-2315.3879999999999
 21
-2369.3839999999991
 31
0.0
  0
LINE
  5
2A6
  8
DATA
  6
CONTINUOUS
 62
     7
 10
-2311.8879999999999
 20
-2501.384
 30
0.0
 11
-2311.8879999999999
 21
-2369.3839999999991
 31
0.0
  0
ARC
  5
2A7
  8
DATA
  6
CONTINUOUS
 62
     7
 10
-2308.3879999999999
 20
-2501.384
 30
0.0
 40
7.0
 50
180.0
 51
270.0
  0
ARC
  5
2A8
  8
DATA
  6
CONTINUOUS
 62
     7
 10
-2308.3879999999999
 20
-2501.384
 30
0.0
 40
3.5
 50
180.0
 51
270.0
  0
LINE
  5
2A9
  8
DATA
  6
CONTINUOUS
 62
     7
 10
-2302.6379999999999
 20
-2504.8839999999991
 30
0.0
 11
-2302.6379999999999
 21
-2493.384
 31
0.0
  0
LINE
  5
2AA
  8
DATA
  6
CONTINUOUS
 62
     7
 10
-2308.3879999999999
 20
-2504.8839999999991
 30
0.0
 11
-2302.6379999999999
 21
-2504.8839999999991
 31
0.0
  0
ARC
  5
2AB
  8
DATA
  6
CONTINUOUS
 62
     7
 10
-2257.7507314206891
 20
-1788.0734531250159
 30
0.0
 40
401.81989183918068
 50
283.28888973434431
 51
296.87049837769041
  0
ARC
  5
2AC
  8
DATA
  6
CONTINUOUS
 62
     7
 10
-2257.7507314206891
 20
-2670.1945468749809
 30
0.0
 40
401.81989183918063
 50
63.129501622309633
 51
76.711110265655705
  0
ARC
  5
2AD
  8
DATA
  6
CONTINUOUS
 62
     7
 10
-2456.2507314206969
 20
-2504.9445468750082
 30
0.0
 40
401.81989183920871
 50
63.129501622310357
 51
76.711110265655421
  0
ARC
  5
2AE
  8
DATA
  6
CONTINUOUS
 62
     7
 10
-2456.2507314206969
 20
-1953.3234531249891
 30
0.0
 40
401.8198918392082
 50
283.28888973434448
 51
296.87049837768961
  0
LINE
  5
2AF
  8
DATA
  6
CONTINUOUS
 62
     7
 10
-2363.8879999999999
 20
-2113.884
 30
0.0
 11
-2363.8879999999999
 21
-2344.384
 31
0.0
  0
LINE
  5
2B0
  8
DATA
  6
CONTINUOUS
 62
     7
 10
-2396.8879999999999
 20
-2366.3839999999991
 30
0.0
 11
-2396.8879999999999
 21
-2091.8839999999982
 31
0.0
  0
CIRCLE
  5
2B1
  8
DATA
  6
CONTINUOUS
 62
     7
 10
-2385.8879999999999
 20
-2357.1339999999991
 30
0.0
 40
3.0
  0
CIRCLE
  5
2B2
  8
DATA
  6
CONTINUOUS
 62
     7
 10
-2385.8879999999999
 20
-2357.1339999999991
 30
0.0
 40
6.25
  0
CIRCLE
  5
2B3
  8
DATA
  6
CONTINUOUS
 62
     7
 10
-2385.8879999999999
 20
-2229.1339999999991
 30
0.0
 40
3.0
  0
CIRCLE
  5
2B4
  8
DATA
  6
CONTINUOUS
 62
     7
 10
-2385.8879999999999
 20
-2229.1339999999991
 30
0.0
 40
6.25
  0
ARC
  5
2B5
  8
DATA
  6
CONTINUOUS
 62
     7
 10
-2393.8880000000008
 20
-2366.3839999999991
 30
0.0
 40
3.0
 50
180.0
 51
270.0
  0
CIRCLE
  5
2B6
  8
DATA
  6
CONTINUOUS
 62
     7
 10
-2385.8879999999999
 20
-2101.1339999999991
 30
0.0
 40
3.0
  0
CIRCLE
  5
2B7
  8
DATA
  6
CONTINUOUS
 62
     7
 10
-2385.8879999999999
 20
-2101.1339999999991
 30
0.0
 40
6.25
  0
ARC
  5
2B8
  8
DATA
  6
CONTINUOUS
 62
     7
 10
-2393.8880000000008
 20
-2091.8839999999982
 30
0.0
 40
3.0
 50
90.0
 51
180.0
  0
ARC
  5
2B9
  8
DATA
  6
CONTINUOUS
 62
     7
 10
-2093.0252685793121
 20
-1788.0734531250159
 30
0.0
 40
401.81989183918063
 50
243.12950162230959
 51
256.71111026565569
  0
ARC
  5
2BA
  8
DATA
  6
CONTINUOUS
 62
     7
 10
-2093.0252685793121
 20
-2670.1945468749809
 30
0.0
 40
401.81989183918068
 50
103.28888973434429
 51
116.8704983776903
  0
CIRCLE
  5
2BB
  8
DATA
  6
CONTINUOUS
 62
     7
 10
-2264.3879999999999
 20
-2357.1339999999991
 30
0.0
 40
3.0
  0
CIRCLE
  5
2BC
  8
DATA
  6
CONTINUOUS
 62
     7
 10
-2264.3879999999999
 20
-2357.1339999999991
 30
0.0
 40
6.25
  0
CIRCLE
  5
2BD
  8
DATA
  6
CONTINUOUS
 62
     7
 10
-2264.3879999999999
 20
-2101.1339999999991
 30
0.0
 40
3.0
  0
CIRCLE
  5
2BE
  8
DATA
  6
CONTINUOUS
 62
     7
 10
-2264.3879999999999
 20
-2101.1339999999991
 30
0.0
 40
6.25
  0
POLYLINE
  5
2BF
  8
DATA
  6
CONTINUOUS
 62
     7
 66
     1
 10
0.0
 20
0.0
 30
0.0
 70
     1
  0
VERTEX
  5
672
  8
DATA
  6
CONTINUOUS
 62
     7
 10
-2185.3879999999999
 20
-2179.134
 30
0.0
  0
VERTEX
  5
673
  8
DATA
  6
CONTINUOUS
 62
     7
 10
-2165.3879999999999
 20
-2179.134
 30
0.0
  0
VERTEX
  5
674
  8
DATA
  6
CONTINUOUS
 62
     7
 10
-2165.3879999999999
 20
-2279.134
 30
0.0
  0
VERTEX
  5
675
  8
DATA
  6
CONTINUOUS
 62
     7
 10
-2185.3879999999999
 20
-2279.134
 30
0.0
  0
SEQEND
  5
676
  8
DATA
  6
CONTINUOUS
 62
     7
  0
CIRCLE
  5
2C6
  8
DATA
  6
CONTINUOUS
 62
     7
 10
-2086.3880000000008
 20
-2357.1339999999991
 30
0.0
 40
3.0
  0
CIRCLE
  5
2C7
  8
DATA
  6
CONTINUOUS
 62
     7
 10
-2086.3880000000008
 20
-2357.1339999999991
 30
0.0
 40
6.25
  0
CIRCLE
  5
2C8
  8
DATA
  6
CONTINUOUS
 62
     7
 10
-2086.3880000000008
 20
-2101.1339999999991
 30
0.0
 40
3.0
  0
CIRCLE
  5
2C9
  8
DATA
  6
CONTINUOUS
 62
     7
 10
-2086.3880000000008
 20
-2101.1339999999991
 30
0.0
 40
6.25
  0
LINE
  5
2CA
  8
DATA
  6
CONTINUOUS
 62
     7
 10
-2500.0
 20
-1700.0
 30
0.0
 11
-2500.0
 21
-1248.895999999999
 31
0.0
  0
LINE
  5
2CB
  8
DATA
  6
CONTINUOUS
 62
     7
 10
-2171.6379999999999
 20
-1451.6999999999989
 30
0.0
 11
-2171.6379999999999
 21
-1659.499999999998
 31
0.0
  0
LINE
  5
2CC
  8
DATA
  6
CONTINUOUS
 62
     7
 10
-2179.1379999999999
 20
-1451.6999999999989
 30
0.0
 11
-2179.1379999999999
 21
-1659.499999999998
 31
0.0
  0
LINE
  5
2CD
  8
DATA
  6
CONTINUOUS
 62
     7
 10
-2199.3879999999999
 20
-1516.4999999999991
 30
0.0
 11
-2219.3879999999999
 21
-1564.5
 31
0.0
  0
LINE
  5
2CE
  8
DATA
  6
CONTINUOUS
 62
     7
 10
-2158.8879999999999
 20
-1542.4999999999991
 30
0.0
 11
-2158.8879999999999
 21
-1447.4999999999991
 31
0.0
  0
LINE
  5
2CF
  8
DATA
  6
CONTINUOUS
 62
     7
 10
-2191.8879999999999
 20
-1542.4999999999991
 30
0.0
 11
-2191.887999999999
 21
-1447.4999999999991
 31
0.0
  0
LINE
  5
2D0
  8
DATA
  6
CONTINUOUS
 62
     7
 10
-2151.3879999999999
 20
-1516.4999999999991
 30
0.0
 11
-2131.3879999999999
 21
-1564.5
 31
0.0
  0
LINE
  5
2D1
  8
DATA
  6
CONTINUOUS
 62
     7
 10
-2368.8880000000008
 20
-1700.0
 30
0.0
 11
-2368.8879999999999
 21
-1703.5999999999999
 31
0.0
  0
ARC
  5
2D2
  8
DATA
  6
CONTINUOUS
 62
     7
 10
-2654.3390869565369
 20
-968.1854619564873
 30
0.0
 40
752.19614294944904
 50
293.21073262689811
 51
302.93424124480748
  0
ARC
  5
2D3
  8
DATA
  6
CONTINUOUS
 62
     7
 10
-2654.3390869565369
 20
-954.68546195648821
 30
0.0
 40
752.19614294944904
 50
293.21073262689811
 51
302.93424124480748
  0
LINE
  5
2D4
  8
DATA
  6
CONTINUOUS
 62
     7
 10
-2357.8879999999999
 20
-1659.499999999998
 30
0.0
 11
-2357.8879999999999
 21
-1645.9999999999991
 31
0.0
  0
LINE
  5
2D5
  8
DATA
  6
CONTINUOUS
 62
     7
 10
-2396.8879999999999
 20
-1672.499999999998
 30
0.0
 11
-2396.8879999999999
 21
-1659.499999999998
 31
0.0
  0
LINE
  5
2D6
  8
DATA
  6
CONTINUOUS
 62
     7
 10
-2105.3879999999999
 20
-1585.9999999999991
 30
0.0
 11
-2131.3879999999999
 21
-1564.5
 31
0.0
  0
LINE
  5
2D7
  8
DATA
  6
CONTINUOUS
 62
     7
 10
-2245.3879999999999
 20
-1585.9999999999991
 30
0.0
 11
-2219.3879999999999
 21
-1564.5
 31
0.0
  0
LINE
  5
2D8
  8
DATA
  6
CONTINUOUS
 62
     7
 10
-2191.8879999999999
 20
-1542.4999999999991
 30
0.0
 11
-2245.3879999999999
 21
-1599.5
 31
0.0
  0
LINE
  5
2D9
  8
DATA
  6
CONTINUOUS
 62
     7
 10
-2158.8879999999999
 20
-1542.4999999999991
 30
0.0
 11
-2105.3879999999999
 21
-1599.5
 31
0.0
  0
LINE
  5
2DA
  8
DATA
  6
CONTINUOUS
 62
     7
 10
-2145.3879999999999
 20
-1447.4999999999991
 30
0.0
 11
-2151.3879999999999
 21
-1516.4999999999991
 31
0.0
  0
LINE
  5
2DB
  8
DATA
  6
CONTINUOUS
 62
     7
 10
-2079.4903000000008
 20
-1331.4882
 30
0.0
 11
-2079.4903000000008
 21
-1332.4881999999991
 31
0.0
  0
LINE
  5
2DC
  8
DATA
  6
CONTINUOUS
 62
     7
 10
-2079.490299999999
 20
-1331.4882
 30
0.0
 11
-2104.1410000000001
 21
-1298.4882000000009
 31
0.0
  0
LINE
  5
2DD
  8
DATA
  6
CONTINUOUS
 62
     7
 10
-2101.6427894353342
 20
-1302.4882
 30
0.0
 11
-2101.6427894353342
 21
-1328.4882
 31
0.0
  0
LINE
  5
2DE
  8
DATA
  6
CONTINUOUS
 62
     7
 10
-2081.731272727272
 20
-1328.4882
 30
0.0
 11
-2112.569962441044
 21
-1328.4882
 31
0.0
  0
LINE
  5
2DF
  8
DATA
  6
CONTINUOUS
 62
     7
 10
-2112.569962441044
 20
-1328.4882
 30
0.0
 11
-2131.1427894353351
 21
-1302.4882
 31
0.0
  0
LINE
  5
2E0
  8
DATA
  6
CONTINUOUS
 62
     7
 10
-2101.1530363636361
 20
-1302.4882
 30
0.0
 11
-2131.1427894353351
 21
-1302.4882
 31
0.0
  0
LINE
  5
2E1
  8
DATA
  6
CONTINUOUS
 62
     7
 10
-2127.7130000000002
 20
-1451.6999999999989
 30
0.0
 11
-2127.7130000000002
 21
-1447.4999999999991
 31
0.0
  0
LINE
  5
2E2
  8
DATA
  6
CONTINUOUS
 62
     7
 10
-2121.4630000000002
 20
-1451.6999999999989
 30
0.0
 11
-2121.4629999999988
 21
-1447.4999999999991
 31
0.0
  0
LINE
  5
2E3
  8
DATA
  6
CONTINUOUS
 62
     7
 10
-2118.3379999999988
 20
-1451.6999999999989
 30
0.0
 11
-2118.3379999999988
 21
-1447.4999999999991
 31
0.0
  0
LINE
  5
2E4
  8
DATA
  6
CONTINUOUS
 62
     7
 10
-2130.8380000000002
 20
-1451.6999999999989
 30
0.0
 11
-2130.8380000000002
 21
-1447.4999999999991
 31
0.0
  0
LINE
  5
2E5
  8
DATA
  6
CONTINUOUS
 62
     7
 10
-2130.8380000000002
 20
-1451.6999999999989
 30
0.0
 11
-2118.3379999999988
 21
-1451.6999999999989
 31
0.0
  0
LINE
  5
2E6
  8
DATA
  6
CONTINUOUS
 62
     7
 10
-2115.8885
 20
-1430.2
 30
0.0
 11
-2108.6367999999989
 21
-1390.994999999999
 31
0.0
  0
LINE
  5
2E7
  8
DATA
  6
CONTINUOUS
 62
     7
 10
-2108.6367999999989
 20
-1390.994999999999
 30
0.0
 11
-2079.4903000000008
 21
-1382.4607000000001
 31
0.0
  0
LINE
  5
2E8
  8
DATA
  6
CONTINUOUS
 62
     7
 10
-2079.4903000000008
 20
-1382.4607000000001
 30
0.0
 11
-2079.4903000000008
 21
-1375.4882999999991
 31
0.0
  0
LINE
  5
2E9
  8
DATA
  6
CONTINUOUS
 62
     7
 10
-2115.8885
 20
-1431.0
 30
0.0
 11
-2115.8885
 21
-1430.2
 31
0.0
  0
LINE
  5
2EA
  8
DATA
  6
CONTINUOUS
 62
     7
 10
-2114.8879999999999
 20
-1447.4999999999991
 30
0.0
 11
-2114.8879999999999
 21
-1434.4999999999991
 31
0.0
  0
LINE
  5
2EB
  8
DATA
  6
CONTINUOUS
 62
     7
 10
-2271.2857000000008
 20
-1331.4882
 30
0.0
 11
-2246.6350000000002
 21
-1298.4882000000009
 31
0.0
  0
LINE
  5
2EC
  8
DATA
  6
CONTINUOUS
 62
     7
 10
-2271.2857000000008
 20
-1331.4882
 30
0.0
 11
-2271.2857000000008
 21
-1332.4881999999991
 31
0.0
  0
LINE
  5
2ED
  8
DATA
  6
CONTINUOUS
 62
     7
 10
-2238.2060375589572
 20
-1328.4882
 30
0.0
 11
-2219.6332105646652
 21
-1302.4882
 31
0.0
  0
LINE
  5
2EE
  8
DATA
  6
CONTINUOUS
 62
     7
 10
-2249.1332105646652
 20
-1302.4882
 30
0.0
 11
-2249.1332105646652
 21
-1328.4882
 31
0.0
  0
LINE
  5
2EF
  8
DATA
  6
CONTINUOUS
 62
     7
 10
-2249.6229636363641
 20
-1302.4882
 30
0.0
 11
-2219.6332105646652
 21
-1302.4882
 31
0.0
  0
LINE
  5
2F0
  8
DATA
  6
CONTINUOUS
 62
     7
 10
-2269.0447272727279
 20
-1328.4882
 30
0.0
 11
-2238.2060375589572
 21
-1328.4882
 31
0.0
  0
LINE
  5
2F1
  8
DATA
  6
CONTINUOUS
 62
     7
 10
-2299.3879999999999
 20
-1335.9999999999991
 30
0.0
 11
-2300.387999999999
 21
-1341.6712818196149
 31
0.0
  0
LINE
  5
2F2
  8
DATA
  6
CONTINUOUS
 62
     7
 10
-2297.8879999999999
 20
-1335.9999999999991
 30
0.0
 11
-2299.4749428263758
 21
-1344.9999999999991
 31
0.0
  0
LINE
  5
2F3
  8
DATA
  6
CONTINUOUS
 62
     7
 10
-2296.3879999999999
 20
-1335.9999999999991
 30
0.0
 11
-2297.9749428263758
 21
-1344.9999999999991
 31
0.0
  0
LINE
  5
2F4
  8
DATA
  6
CONTINUOUS
 62
     7
 10
-2294.8879999999999
 20
-1335.9999999999991
 30
0.0
 11
-2296.4749428263758
 21
-1344.9999999999991
 31
0.0
  0
LINE
  5
2F5
  8
DATA
  6
CONTINUOUS
 62
     7
 10
-2294.887999999999
 20
-1335.9999999999991
 30
0.0
 11
-2294.8879999999999
 21
-1344.9999999999991
 31
0.0
  0
LINE
  5
2F6
  8
DATA
  6
CONTINUOUS
 62
     7
 10
-2294.8879999999999
 20
-1344.999999999997
 30
0.0
 11
-2300.387999999999
 21
-1344.9999999999991
 31
0.0
  0
LINE
  5
2F7
  8
DATA
  6
CONTINUOUS
 62
     7
 10
-2294.8879999999999
 20
-1335.9999999999991
 30
0.0
 11
-2300.387999999999
 21
-1335.9999999999991
 31
0.0
  0
LINE
  5
2F8
  8
DATA
  6
CONTINUOUS
 62
     7
 10
-2300.387999999999
 20
-1347.6447095812191
 30
0.0
 11
-2300.387999999999
 21
-1333.355290418777
 31
0.0
  0
LINE
  5
2F9
  8
DATA
  6
CONTINUOUS
 62
     7
 10
-2291.6379999999999
 20
-1338.4881999999991
 30
0.0
 11
-2273.6379999999999
 21
-1332.4881999999991
 31
0.0
  0
LINE
  5
2FA
  8
DATA
  6
CONTINUOUS
 62
     7
 10
-2178.5129999999999
 20
-1451.6999999999989
 30
0.0
 11
-2178.5129999999999
 21
-1447.4999999999991
 31
0.0
  0
LINE
  5
2FB
  8
DATA
  6
CONTINUOUS
 62
     7
 10
-2172.2629999999999
 20
-1451.6999999999989
 30
0.0
 11
-2172.2629999999999
 21
-1447.4999999999991
 31
0.0
  0
LINE
  5
2FC
  8
DATA
  6
CONTINUOUS
 62
     7
 10
-2169.1379999999999
 20
-1451.6999999999989
 30
0.0
 11
-2169.1379999999999
 21
-1447.4999999999991
 31
0.0
  0
LINE
  5
2FD
  8
DATA
  6
CONTINUOUS
 62
     7
 10
-2181.6379999999999
 20
-1451.6999999999989
 30
0.0
 11
-2181.6379999999999
 21
-1447.4999999999991
 31
0.0
  0
LINE
  5
2FE
  8
DATA
  6
CONTINUOUS
 62
     7
 10
-2181.6379999999999
 20
-1451.6999999999989
 30
0.0
 11
-2169.1379999999999
 21
-1451.6999999999989
 31
0.0
  0
LINE
  5
2FF
  8
DATA
  6
CONTINUOUS
 62
     7
 10
-2229.3130000000001
 20
-1451.6999999999989
 30
0.0
 11
-2229.3130000000001
 21
-1447.4999999999991
 31
0.0
  0
LINE
  5
300
  8
DATA
  6
CONTINUOUS
 62
     7
 10
-2223.0629999999992
 20
-1451.6999999999989
 30
0.0
 11
-2223.0629999999992
 21
-1447.4999999999991
 31
0.0
  0
LINE
  5
301
  8
DATA
  6
CONTINUOUS
 62
     7
 10
-2219.9379999999992
 20
-1451.6999999999989
 30
0.0
 11
-2219.9379999999992
 21
-1447.4999999999991
 31
0.0
  0
LINE
  5
302
  8
DATA
  6
CONTINUOUS
 62
     7
 10
-2232.4380000000001
 20
-1451.6999999999989
 30
0.0
 11
-2232.4380000000001
 21
-1447.4999999999991
 31
0.0
  0
LINE
  5
303
  8
DATA
  6
CONTINUOUS
 62
     7
 10
-2232.4380000000001
 20
-1451.6999999999989
 30
0.0
 11
-2219.9379999999992
 21
-1451.6999999999989
 31
0.0
  0
LINE
  5
304
  8
DATA
  6
CONTINUOUS
 62
     7
 10
-2242.1392000000001
 20
-1390.994999999999
 30
0.0
 11
-2271.2857000000008
 21
-1382.4607000000001
 31
0.0
  0
LINE
  5
305
  8
DATA
  6
CONTINUOUS
 62
     7
 10
-2234.8874999999998
 20
-1431.0
 30
0.0
 11
-2234.8874999999998
 21
-1430.2
 31
0.0
  0
LINE
  5
306
  8
DATA
  6
CONTINUOUS
 62
     7
 10
-2242.1392000000001
 20
-1390.994999999999
 30
0.0
 11
-2234.8874999999998
 21
-1430.2
 31
0.0
  0
LINE
  5
307
  8
DATA
  6
CONTINUOUS
 62
     7
 10
-2271.2857000000008
 20
-1382.4607000000001
 30
0.0
 11
-2271.2857000000008
 21
-1375.4882999999991
 31
0.0
  0
LINE
  5
308
  8
DATA
  6
CONTINUOUS
 62
     7
 10
-2235.8879999999999
 20
-1447.4999999999991
 30
0.0
 11
-2235.8879999999999
 21
-1434.4999999999991
 31
0.0
  0
LINE
  5
309
  8
DATA
  6
CONTINUOUS
 62
     7
 10
-2291.6379999999999
 20
-1375.4882999999991
 30
0.0
 11
-2291.6379999999999
 21
-1338.4881999999991
 31
0.0
  0
LINE
  5
30A
  8
DATA
  6
CONTINUOUS
 62
     7
 10
-2308.387999999999
 20
-1350.4999999999991
 30
0.0
 11
-2306.387999999999
 21
-1350.499999999997
 31
0.0
  0
LINE
  5
30B
  8
DATA
  6
CONTINUOUS
 62
     7
 10
-2308.387999999999
 20
-1330.5
 30
0.0
 11
-2306.387999999999
 21
-1330.499999999997
 31
0.0
  0
LINE
  5
30C
  8
DATA
  6
CONTINUOUS
 62
     7
 10
-2306.3879999999999
 20
-1350.4999999999991
 30
0.0
 11
-2306.387999999999
 21
-1330.499999999997
 31
0.0
  0
LINE
  5
30D
  8
DATA
  6
CONTINUOUS
 62
     7
 10
-2317.3879999999999
 20
-1347.6447095812191
 30
0.0
 11
-2323.3879999999999
 21
-1347.6447095812191
 31
0.0
  0
LINE
  5
30E
  8
DATA
  6
CONTINUOUS
 62
     7
 10
-2317.3879999999999
 20
-1333.355290418777
 30
0.0
 11
-2323.3879999999999
 21
-1333.355290418777
 31
0.0
  0
LINE
  5
30F
  8
DATA
  6
CONTINUOUS
 62
     7
 10
-2317.3879999999999
 20
-1340.499999999997
 30
0.0
 11
-2323.3879999999999
 21
-1340.4999999999991
 31
0.0
  0
LINE
  5
310
  8
DATA
  6
CONTINUOUS
 62
     7
 10
-2315.3879999999999
 20
-1350.4999999999991
 30
0.0
 11
-2317.3879999999999
 21
-1350.499999999997
 31
0.0
  0
LINE
  5
311
  8
DATA
  6
CONTINUOUS
 62
     7
 10
-2315.3879999999999
 20
-1330.5
 30
0.0
 11
-2317.3879999999999
 21
-1330.499999999997
 31
0.0
  0
LINE
  5
312
  8
DATA
  6
CONTINUOUS
 62
     7
 10
-2317.3879999999999
 20
-1350.4999999999991
 30
0.0
 11
-2317.3879999999999
 21
-1330.499999999997
 31
0.0
  0
LINE
  5
313
  8
DATA
  6
CONTINUOUS
 62
     7
 10
-2323.3879999999999
 20
-1347.6447095812191
 30
0.0
 11
-2323.3879999999999
 21
-1333.355290418777
 31
0.0
  0
LINE
  5
314
  8
DATA
  6
CONTINUOUS
 62
     7
 10
-2302.6379999999999
 20
-1266.7499999999991
 30
0.0
 11
-2302.6379999999999
 21
-1270.25
 31
0.0
  0
LINE
  5
315
  8
DATA
  6
CONTINUOUS
 62
     7
 10
-2302.6379999999999
 20
-1414.25
 30
0.0
 11
-2302.6379999999999
 21
-1410.7499999999991
 31
0.0
  0
LINE
  5
316
  8
DATA
  6
CONTINUOUS
 62
     7
 10
-2311.8879999999999
 20
-1410.7499999999991
 30
0.0
 11
-2315.3879999999999
 21
-1410.7499999999991
 31
0.0
  0
ARC
  5
317
  8
DATA
  6
CONTINUOUS
 62
     7
 10
-2304.8879999999999
 20
-1427.4999999999991
 30
0.0
 40
7.0
 50
180.0
 51
270.0
  0
ARC
  5
318
  8
DATA
  6
CONTINUOUS
 62
     7
 10
-2304.8879999999999
 20
-1427.4999999999991
 30
0.0
 40
3.5
 50
180.0
 51
270.0
  0
LINE
  5
319
  8
DATA
  6
CONTINUOUS
 62
     7
 10
-2315.3879999999999
 20
-1410.7499999999991
 30
0.0
 11
-2315.3879999999999
 21
-1270.25
 31
0.0
  0
LINE
  5
31A
  8
DATA
  6
CONTINUOUS
 62
     7
 10
-2311.8879999999999
 20
-1427.4999999999991
 30
0.0
 11
-2311.8879999999999
 21
-1270.25
 31
0.0
  0
LINE
  5
31B
  8
DATA
  6
CONTINUOUS
 62
     7
 10
-2308.3879999999999
 20
-1427.4999999999991
 30
0.0
 11
-2308.387999999999
 21
-1270.25
 31
0.0
  0
LINE
  5
31C
  8
DATA
  6
CONTINUOUS
 62
     7
 10
-2306.387999999999
 20
-1347.6447095812191
 30
0.0
 11
-2300.3879999999999
 21
-1347.6447095812191
 31
0.0
  0
LINE
  5
31D
  8
DATA
  6
CONTINUOUS
 62
     7
 10
-2306.387999999999
 20
-1333.355290418777
 30
0.0
 11
-2300.3879999999999
 21
-1333.355290418777
 31
0.0
  0
LINE
  5
31E
  8
DATA
  6
CONTINUOUS
 62
     7
 10
-2306.387999999999
 20
-1340.499999999997
 30
0.0
 11
-2300.387999999999
 21
-1340.4999999999991
 31
0.0
  0
LINE
  5
31F
  8
DATA
  6
CONTINUOUS
 62
     7
 10
-2308.3879999999999
 20
-1410.7499999999991
 30
0.0
 11
-2238.4851422650172
 21
-1410.7499999999991
 31
0.0
  0
LINE
  5
320
  8
DATA
  6
CONTINUOUS
 62
     7
 10
-2302.6379999999999
 20
-1414.25
 30
0.0
 11
-2237.837751626068
 21
-1414.25
 31
0.0
  0
LINE
  5
321
  8
DATA
  6
CONTINUOUS
 62
     7
 10
-2205.3879999999999
 20
-1447.4999999999991
 30
0.0
 11
-2199.3879999999999
 21
-1516.4999999999991
 31
0.0
  0
LINE
  5
322
  8
DATA
  6
CONTINUOUS
 62
     7
 10
-2246.6350000000002
 20
-1298.4882000000009
 30
0.0
 11
-2104.1410000000001
 21
-1298.4882000000009
 31
0.0
  0
LINE
  5
323
  8
DATA
  6
CONTINUOUS
 62
     7
 10
-2077.1379999999999
 20
-1332.4881999999991
 30
0.0
 11
-2273.6379999999999
 21
-1332.4881999999991
 31
0.0
  0
LINE
  5
324
  8
DATA
  6
CONTINUOUS
 62
     7
 10
-2079.4903000000008
 20
-1331.4882
 30
0.0
 11
-2271.2857000000008
 21
-1331.4882
 31
0.0
  0
LINE
  5
325
  8
DATA
  6
CONTINUOUS
 62
     7
 10
-2271.2857000000008
 20
-1382.4607000000001
 30
0.0
 11
-2079.4903000000008
 21
-1382.4607000000001
 31
0.0
  0
LINE
  5
326
  8
DATA
  6
CONTINUOUS
 62
     7
 10
-2242.1392000000001
 20
-1390.994999999999
 30
0.0
 11
-2108.6367999999989
 21
-1390.994999999999
 31
0.0
  0
LINE
  5
327
  8
DATA
  6
CONTINUOUS
 62
     7
 10
-2234.8874999999998
 20
-1430.2
 30
0.0
 11
-2115.8885
 21
-1430.2
 31
0.0
  0
LINE
  5
328
  8
DATA
  6
CONTINUOUS
 62
     7
 10
-2235.8879999999999
 20
-1447.4999999999991
 30
0.0
 11
-2114.8879999999999
 21
-1447.4999999999991
 31
0.0
  0
LINE
  5
329
  8
DATA
  6
CONTINUOUS
 62
     7
 10
-1850.7760000000001
 20
-3500.0
 30
0.0
 11
-1850.7760000000001
 21
-2508.384
 31
0.0
  0
LINE
  5
32A
  8
DATA
  6
CONTINUOUS
 62
     7
 10
-1869.7760000000001
 20
-2527.384
 30
0.0
 11
-1869.7760000000001
 21
-3481.0
 31
0.0
  0
LINE
  5
32B
  8
DATA
  6
CONTINUOUS
 62
     7
 10
-1845.7760000000001
 20
-2736.3840000000009
 30
0.0
 11
-1845.7760000000001
 21
-2559.384
 31
0.0
  0
LINE
  5
32C
  8
DATA
  6
CONTINUOUS
 62
     7
 10
-1300.0
 20
-3500.0
 30
0.0
 11
-1300.0
 21
-2508.384
 31
0.0
  0
LINE
  5
32D
  8
DATA
  6
CONTINUOUS
 62
     7
 10
-848.89600000000053
 20
-2508.384
 30
0.0
 11
-848.89600000000053
 21
-3500.0
 31
0.0
  0
LINE
  5
32E
  8
DATA
  6
CONTINUOUS
 62
     7
 10
-300.0000000000008
 20
-3500.0
 30
0.0
 11
-300.0000000000008
 21
-2508.384
 31
0.0
  0
LINE
  5
32F
  8
DATA
  6
CONTINUOUS
 62
     7
 10
-281.00000000000091
 20
-3481.0
 30
0.0
 11
-281.00000000000091
 21
-2527.384
 31
0.0
  0
LINE
  5
330
  8
DATA
  6
CONTINUOUS
 62
     7
 10
-305.00000000000267
 20
-2736.3840000000009
 30
0.0
 11
-305.00000000000267
 21
-2559.384
 31
0.0
  0
LINE
  5
331
  8
DATA
  6
CONTINUOUS
 62
     7
 10
-1049.896000000002
 20
-2731.384
 30
0.0
 11
-1049.896000000002
 21
-2564.384
 31
0.0
  0
LINE
  5
332
  8
DATA
  6
CONTINUOUS
 62
     7
 10
-1033.3960000000011
 20
-2715.884
 30
0.0
 11
-1033.3960000000011
 21
-2579.884
 31
0.0
  0
LINE
  5
333
  8
DATA
  6
CONTINUOUS
 62
     7
 10
-1002.896
 20
-2635.384
 30
0.0
 11
-1002.896
 21
-2590.384
 31
0.0
  0
LINE
  5
334
  8
DATA
  6
CONTINUOUS
 62
     7
 10
-945.89600000000064
 20
-2590.384
 30
0.0
 11
-945.89600000000064
 21
-2635.384
 31
0.0
  0
LINE
  5
335
  8
DATA
  6
CONTINUOUS
 62
     7
 10
-993.39600000000155
 20
-2629.134
 30
0.0
 11
-993.39600000000155
 21
-2596.634
 31
0.0
  0
LINE
  5
336
  8
DATA
  6
CONTINUOUS
 62
     7
 10
-955.39600000000155
 20
-2596.634
 30
0.0
 11
-955.39600000000155
 21
-2629.134
 31
0.0
  0
LINE
  5
337
  8
DATA
  6
CONTINUOUS
 62
     7
 10
-989.39600000000166
 20
-2605.634
 30
0.0
 11
-989.39600000000166
 21
-2622.134
 31
0.0
  0
LINE
  5
338
  8
DATA
  6
CONTINUOUS
 62
     7
 10
-977.89600000000166
 20
-2605.634
 30
0.0
 11
-977.89600000000166
 21
-2622.134
 31
0.0
  0
LINE
  5
339
  8
DATA
  6
CONTINUOUS
 62
     7
 10
-970.89600000000064
 20
-2605.634
 30
0.0
 11
-970.89600000000064
 21
-2622.134
 31
0.0
  0
LINE
  5
33A
  8
DATA
  6
CONTINUOUS
 62
     7
 10
-959.39600000000064
 20
-2605.634
 30
0.0
 11
-959.39600000000064
 21
-2622.134
 31
0.0
  0
LINE
  5
33B
  8
DATA
  6
CONTINUOUS
 62
     7
 10
-898.89599999999962
 20
-2564.384
 30
0.0
 11
-898.89599999999962
 21
-2731.384
 31
0.0
  0
LINE
  5
33C
  8
DATA
  6
CONTINUOUS
 62
     7
 10
-915.39600000000064
 20
-2579.884
 30
0.0
 11
-915.39600000000064
 21
-2715.884
 31
0.0
  0
LINE
  5
33D
  8
DATA
  6
CONTINUOUS
 62
     7
 10
-1029.3960000000011
 20
-2715.384
 30
0.0
 11
-1029.3960000000011
 21
-2580.384
 31
0.0
  0
LINE
  5
33E
  8
DATA
  6
CONTINUOUS
 62
     7
 10
-919.39600000000155
 20
-2580.384
 30
0.0
 11
-919.39600000000155
 21
-2715.384
 31
0.0
  0
LINE
  5
33F
  8
DATA
  6
CONTINUOUS
 62
     7
 10
-927.77100000000064
 20
-2607.1053158225632
 30
0.0
 11
-926.64600000000075
 21
-2605.1567586640472
 31
0.0
  0
LINE
  5
340
  8
DATA
  6
CONTINUOUS
 62
     7
 10
-936.14600000000155
 20
-2605.1567586640472
 30
0.0
 11
-935.02100000000155
 21
-2607.1053158225632
 31
0.0
  0
LINE
  5
341
  8
DATA
  6
CONTINUOUS
 62
     7
 10
-939.89889384291837
 20
-2605.1567586640472
 30
0.0
 11
-939.89889384291837
 21
-2626.384
 31
0.0
  0
LINE
  5
342
  8
DATA
  6
CONTINUOUS
 62
     7
 10
-848.89600000000053
 20
-3500.0
 30
0.0
 11
-1300.0
 21
-3500.0
 31
0.0
  0
LINE
  5
343
  8
DATA
  6
CONTINUOUS
 62
     7
 10
-984.44800000000134
 20
-2940.384
 30
0.0
 11
-1164.448000000001
 21
-2940.384
 31
0.0
  0
LINE
  5
344
  8
DATA
  6
CONTINUOUS
 62
     7
 10
-1164.448000000001
 20
-2793.384
 30
0.0
 11
-984.44800000000134
 21
-2793.384
 31
0.0
  0
LINE
  5
345
  8
DATA
  6
CONTINUOUS
 62
     7
 10
-903.89600000000166
 20
-2736.384
 30
0.0
 11
-1044.896000000002
 21
-2736.384
 31
0.0
  0
LINE
  5
346
  8
DATA
  6
CONTINUOUS
 62
     7
 10
-918.39600000000155
 20
-2718.8840000000009
 30
0.0
 11
-1030.396000000002
 21
-2718.8840000000009
 31
0.0
  0
LINE
  5
347
  8
DATA
  6
CONTINUOUS
 62
     7
 10
-1029.3960000000011
 20
-2715.384
 30
0.0
 11
-919.39600000000155
 21
-2715.384
 31
0.0
  0
CIRCLE
  5
348
  8
DATA
  6
CONTINUOUS
 62
     7
 10
-1979.7760000000001
 20
-3004.192
 30
0.0
 40
67.5
  0
CIRCLE
  5
349
  8
DATA
  6
CONTINUOUS
 62
     7
 10
-2004.4703
 20
-3275.7966000000001
 30
0.0
 40
3.5
  0
LINE
  5
34A
  8
DATA
  6
CONTINUOUS
 62
     7
 10
-2003.0561000000009
 20
-3277.2105999999999
 30
0.0
 11
-2005.884600000001
 21
-3274.3823000000011
 31
0.0
  0
LINE
  5
34B
  8
DATA
  6
CONTINUOUS
 62
     7
 10
-2003.0561000000009
 20
-3274.3824
 30
0.0
 11
-2005.8844999999999
 21
-3277.2105999999999
 31
0.0
  0
LINE
  5
34C
  8
DATA
  6
CONTINUOUS
 62
     7
 10
-2002.6375
 20
-3280.3440000000001
 30
0.0
 11
-2005.8097000000009
 21
-3279.0302000000011
 31
0.0
  0
LINE
  5
34D
  8
DATA
  6
CONTINUOUS
 62
     7
 10
-1999.9586999999999
 20
-3273.8768000000009
 30
0.0
 11
-2003.1309000000001
 21
-3272.5630000000001
 31
0.0
  0
ARC
  5
34E
  8
DATA
  6
CONTINUOUS
 62
     7
 10
-2003.211600000001
 20
-3281.7298999999989
 30
0.0
 40
1.5002000000006079
 50
335.97895700000851
 51
67.498538000002782
  0
ARC
  5
34F
  8
DATA
  6
CONTINUOUS
 62
     7
 10
-1999.3847000000001
 20
-3272.491
 30
0.0
 40
1.5000000000000651
 50
247.5006049999933
 51
339.01788699999707
  0
CIRCLE
  5
350
  8
DATA
  6
CONTINUOUS
 62
     7
 10
-2004.4703
 20
-2732.5877
 30
0.0
 40
3.5
  0
LINE
  5
351
  8
DATA
  6
CONTINUOUS
 62
     7
 10
-2004.4703
 20
-2730.587700000001
 30
0.0
 11
-2004.4703
 21
-2734.5877
 31
0.0
  0
CIRCLE
  5
352
  8
DATA
  6
CONTINUOUS
 62
     7
 10
-2004.4703
 20
-3134.2037
 30
0.0
 40
3.5
  0
LINE
  5
353
  8
DATA
  6
CONTINUOUS
 62
     7
 10
-2002.4703
 20
-3134.2037
 30
0.0
 11
-2006.4703
 21
-3134.2037
 31
0.0
  0
LINE
  5
354
  8
DATA
  6
CONTINUOUS
 62
     7
 10
-2004.4703
 20
-3132.2037
 30
0.0
 11
-2004.4703
 21
-3136.2037
 31
0.0
  0
LINE
  5
355
  8
DATA
  6
CONTINUOUS
 62
     7
 10
-1999.9586000000011
 20
-3136.1233000000002
 30
0.0
 11
-2003.1309000000001
 21
-3137.4373000000001
 31
0.0
  0
LINE
  5
356
  8
DATA
  6
CONTINUOUS
 62
     7
 10
-2002.637400000001
 20
-3129.6561000000002
 30
0.0
 11
-2005.8096
 21
-3130.9701
 31
0.0
  0
ARC
  5
357
  8
DATA
  6
CONTINUOUS
 62
     7
 10
-1999.3846000000001
 20
-3137.5091000000002
 30
0.0
 40
1.5000999999999061
 50
20.980744999997711
 51
112.4993950000172
  0
ARC
  5
358
  8
DATA
  6
CONTINUOUS
 62
     7
 10
-2003.2113999999999
 20
-3128.2703000000001
 30
0.0
 40
1.5000000000000651
 50
292.4993950000067
 51
24.02066399999666
  0
CIRCLE
  5
359
  8
DATA
  6
CONTINUOUS
 62
     7
 10
-2004.4703
 20
-2874.1806000000001
 30
0.0
 40
3.5
  0
LINE
  5
35A
  8
DATA
  6
CONTINUOUS
 62
     7
 10
-2003.0561000000009
 20
-2875.594599999999
 30
0.0
 11
-2005.884600000001
 21
-2872.7662999999989
 31
0.0
  0
LINE
  5
35B
  8
DATA
  6
CONTINUOUS
 62
     7
 10
-2003.0561000000009
 20
-2872.7664
 30
0.0
 11
-2005.8844999999999
 21
-2875.594599999999
 31
0.0
  0
LINE
  5
35C
  8
DATA
  6
CONTINUOUS
 62
     7
 10
-2002.6375
 20
-2878.7280000000001
 30
0.0
 11
-2005.8097000000009
 21
-2877.4142000000002
 31
0.0
  0
LINE
  5
35D
  8
DATA
  6
CONTINUOUS
 62
     7
 10
-1999.9586999999999
 20
-2872.2608
 30
0.0
 11
-2003.1309000000001
 21
-2870.947000000001
 31
0.0
  0
ARC
  5
35E
  8
DATA
  6
CONTINUOUS
 62
     7
 10
-2003.211600000001
 20
-2880.1138999999998
 30
0.0
 40
1.5002000000006079
 50
335.97895700000851
 51
67.498538000018812
  0
ARC
  5
35F
  8
DATA
  6
CONTINUOUS
 62
     7
 10
-1999.3847000000001
 20
-2870.875
 30
0.0
 40
1.5000000000000651
 50
247.5006049999933
 51
339.01788699999088
  0
LINE
  5
360
  8
DATA
  6
CONTINUOUS
 62
     7
 10
-2002.4703
 20
-2732.5877
 30
0.0
 11
-2006.4703
 21
-2732.5877
 31
0.0
  0
LINE
  5
361
  8
DATA
  6
CONTINUOUS
 62
     7
 10
-1999.9586000000011
 20
-2734.5073000000011
 30
0.0
 11
-2003.1309000000001
 21
-2735.8213000000001
 31
0.0
  0
ARC
  5
362
  8
DATA
  6
CONTINUOUS
 62
     7
 10
-1999.3846000000001
 20
-2735.8930999999998
 30
0.0
 40
1.5000999999999061
 50
20.980744999997711
 51
112.4993950000172
  0
LINE
  5
363
  8
DATA
  6
CONTINUOUS
 62
     7
 10
-2002.637400000001
 20
-2728.0401000000002
 30
0.0
 11
-2005.8096
 21
-2729.3541
 31
0.0
  0
ARC
  5
364
  8
DATA
  6
CONTINUOUS
 62
     7
 10
-2003.2113999999999
 20
-2726.6543000000001
 30
0.0
 40
1.5000000000000651
 50
292.4993950000067
 51
24.02066399999666
  0
LINE
  5
365
  8
DATA
  6
CONTINUOUS
 62
     7
 10
-1850.7760000000001
 20
-2736.384
 30
0.0
 11
-1845.7760000000001
 21
-2736.3840000000009
 31
0.0
  0
LINE
  5
366
  8
DATA
  6
CONTINUOUS
 62
     7
 10
-1303.5999999999999
 20
-3398.5
 30
0.0
 11
-1303.5999999999999
 21
-3011.5
 31
0.0
  0
LINE
  5
367
  8
DATA
  6
CONTINUOUS
 62
     7
 10
-1303.5999999999999
 20
-3398.4999999999982
 30
0.0
 11
-1300.0
 21
-3398.5
 31
0.0
  0
LINE
  5
368
  8
DATA
  6
CONTINUOUS
 62
     7
 10
-1303.5999999999999
 20
-2996.884
 30
0.0
 11
-1303.5999999999999
 21
-2609.8840000000009
 31
0.0
  0
LINE
  5
369
  8
DATA
  6
CONTINUOUS
 62
     7
 10
-1303.5999999999999
 20
-3011.5
 30
0.0
 11
-1300.0
 21
-3011.5
 31
0.0
  0
LINE
  5
36A
  8
DATA
  6
CONTINUOUS
 62
     7
 10
-1164.448000000001
 20
-2940.384
 30
0.0
 11
-1164.448000000001
 21
-2793.384
 31
0.0
  0
LINE
  5
36B
  8
DATA
  6
CONTINUOUS
 62
     7
 10
-1303.5999999999999
 20
-2996.884
 30
0.0
 11
-1300.0
 21
-2996.884
 31
0.0
  0
LINE
  5
36C
  8
DATA
  6
CONTINUOUS
 62
     7
 10
-1303.5999999999999
 20
-2609.8840000000009
 30
0.0
 11
-1300.0
 21
-2609.8840000000009
 31
0.0
  0
CIRCLE
  5
36D
  8
DATA
  6
CONTINUOUS
 62
     7
 10
-1044.395999999999
 20
-2647.884
 30
0.0
 40
4.0
  0
LINE
  5
36E
  8
DATA
  6
CONTINUOUS
 62
     7
 10
-1046.396000000002
 20
-2647.884
 30
0.0
 11
-1042.396
 21
-2647.884
 31
0.0
  0
LINE
  5
36F
  8
DATA
  6
CONTINUOUS
 62
     7
 10
-1044.395999999999
 20
-2649.884
 30
0.0
 11
-1044.395999999999
 21
-2645.8840000000009
 31
0.0
  0
CIRCLE
  5
370
  8
DATA
  6
CONTINUOUS
 62
     7
 10
-1044.395999999999
 20
-2730.384
 30
0.0
 40
4.0
  0
LINE
  5
371
  8
DATA
  6
CONTINUOUS
 62
     7
 10
-1046.396000000002
 20
-2730.384
 30
0.0
 11
-1042.396
 21
-2730.384
 31
0.0
  0
LINE
  5
372
  8
DATA
  6
CONTINUOUS
 62
     7
 10
-1044.395999999999
 20
-2732.384
 30
0.0
 11
-1044.395999999999
 21
-2728.384
 31
0.0
  0
ARC
  5
373
  8
DATA
  6
CONTINUOUS
 62
     7
 10
-1030.396000000002
 20
-2715.884
 30
0.0
 40
3.0
 50
180.0
 51
270.0
  0
ARC
  5
374
  8
DATA
  6
CONTINUOUS
 62
     7
 10
-1044.896000000002
 20
-2731.384
 30
0.0
 40
5.0
 50
180.0
 51
270.0
  0
LINE
  5
375
  8
DATA
  6
CONTINUOUS
 62
     7
 10
-984.44800000000134
 20
-2793.384
 30
0.0
 11
-984.44800000000134
 21
-2940.384
 31
0.0
  0
LINE
  5
376
  8
DATA
  6
CONTINUOUS
 62
     7
 10
-300.00000000000182
 20
-2736.384
 30
0.0
 11
-305.00000000000267
 21
-2736.3840000000009
 31
0.0
  0
LINE
  5
377
  8
DATA
  6
CONTINUOUS
 62
     7
 10
-951.89600000000166
 20
-2641.384
 30
0.0
 11
-996.89600000000155
 21
-2641.384
 31
0.0
  0
LINE
  5
378
  8
DATA
  6
CONTINUOUS
 62
     7
 10
-955.39600000000155
 20
-2629.134
 30
0.0
 11
-993.39600000000155
 21
-2629.134
 31
0.0
  0
LINE
  5
379
  8
DATA
  6
CONTINUOUS
 62
     7
 10
-955.39600000000155
 20
-2622.134
 30
0.0
 11
-993.39600000000155
 21
-2622.134
 31
0.0
  0
LINE
  5
37A
  8
DATA
  6
CONTINUOUS
 62
     7
 10
-985.14600000000064
 20
-2625.634
 30
0.0
 11
-982.14600000000075
 21
-2625.634
 31
0.0
  0
LINE
  5
37B
  8
DATA
  6
CONTINUOUS
 62
     7
 10
-977.89600000000166
 20
-2618.634
 30
0.0
 11
-989.39600000000166
 21
-2618.634
 31
0.0
  0
LINE
  5
37C
  8
DATA
  6
CONTINUOUS
 62
     7
 10
-977.89600000000166
 20
-2615.134
 30
0.0
 11
-989.39600000000166
 21
-2615.134
 31
0.0
  0
LINE
  5
37D
  8
DATA
  6
CONTINUOUS
 62
     7
 10
-959.39600000000064
 20
-2618.634
 30
0.0
 11
-970.89600000000064
 21
-2618.634
 31
0.0
  0
LINE
  5
37E
  8
DATA
  6
CONTINUOUS
 62
     7
 10
-959.39600000000064
 20
-2615.134
 30
0.0
 11
-970.89600000000064
 21
-2615.134
 31
0.0
  0
CIRCLE
  5
37F
  8
DATA
  6
CONTINUOUS
 62
     7
 10
-983.64600000000053
 20
-2625.634
 30
0.0
 40
2.25
  0
LINE
  5
380
  8
DATA
  6
CONTINUOUS
 62
     7
 10
-966.64599999999973
 20
-2625.634
 30
0.0
 11
-963.64599999999973
 21
-2625.634
 31
0.0
  0
CIRCLE
  5
381
  8
DATA
  6
CONTINUOUS
 62
     7
 10
-965.14599999999984
 20
-2625.634
 30
0.0
 40
2.25
  0
LINE
  5
382
  8
DATA
  6
CONTINUOUS
 62
     7
 10
-965.14599999999984
 20
-2624.134
 30
0.0
 11
-965.14599999999984
 21
-2627.134
 31
0.0
  0
CIRCLE
  5
383
  8
DATA
  6
CONTINUOUS
 62
     7
 10
-952.39600000000053
 20
-2634.884
 30
0.0
 40
3.0
  0
LINE
  5
384
  8
DATA
  6
CONTINUOUS
 62
     7
 10
-954.39600000000075
 20
-2634.884
 30
0.0
 11
-950.39600000000166
 21
-2634.884
 31
0.0
  0
LINE
  5
385
  8
DATA
  6
CONTINUOUS
 62
     7
 10
-952.39600000000053
 20
-2636.884
 30
0.0
 11
-952.39600000000053
 21
-2632.884
 31
0.0
  0
CIRCLE
  5
386
  8
DATA
  6
CONTINUOUS
 62
     7
 10
-996.39600000000075
 20
-2634.884
 30
0.0
 40
3.0
  0
LINE
  5
387
  8
DATA
  6
CONTINUOUS
 62
     7
 10
-998.39600000000166
 20
-2634.884
 30
0.0
 11
-994.39600000000053
 21
-2634.884
 31
0.0
  0
LINE
  5
388
  8
DATA
  6
CONTINUOUS
 62
     7
 10
-996.39600000000075
 20
-2636.884
 30
0.0
 11
-996.39600000000075
 21
-2632.884
 31
0.0
  0
ARC
  5
389
  8
DATA
  6
CONTINUOUS
 62
     7
 10
-996.89600000000155
 20
-2635.384
 30
0.0
 40
6.0
 50
180.0
 51
270.0
  0
ARC
  5
38A
  8
DATA
  6
CONTINUOUS
 62
     7
 10
-951.89600000000166
 20
-2635.384
 30
0.0
 40
6.0
 50
270.0
 51
0.0
  0
LINE
  5
38B
  8
DATA
  6
CONTINUOUS
 62
     7
 10
-1002.896
 20
-2705.384
 30
0.0
 11
-1002.896
 21
-2660.384
 31
0.0
  0
LINE
  5
38C
  8
DATA
  6
CONTINUOUS
 62
     7
 10
-951.89600000000166
 20
-2711.384
 30
0.0
 11
-996.89600000000155
 21
-2711.384
 31
0.0
  0
LINE
  5
38D
  8
DATA
  6
CONTINUOUS
 62
     7
 10
-945.89600000000064
 20
-2660.384
 30
0.0
 11
-945.89600000000064
 21
-2705.384
 31
0.0
  0
LINE
  5
38E
  8
DATA
  6
CONTINUOUS
 62
     7
 10
-996.89600000000155
 20
-2654.384
 30
0.0
 11
-951.89600000000166
 21
-2654.384
 31
0.0
  0
LINE
  5
38F
  8
DATA
  6
CONTINUOUS
 62
     7
 10
-993.39600000000155
 20
-2699.134
 30
0.0
 11
-993.39600000000155
 21
-2666.634
 31
0.0
  0
LINE
  5
390
  8
DATA
  6
CONTINUOUS
 62
     7
 10
-955.39600000000155
 20
-2699.134
 30
0.0
 11
-993.39600000000155
 21
-2699.134
 31
0.0
  0
LINE
  5
391
  8
DATA
  6
CONTINUOUS
 62
     7
 10
-955.39600000000155
 20
-2666.634
 30
0.0
 11
-955.39600000000155
 21
-2699.134
 31
0.0
  0
LINE
  5
392
  8
DATA
  6
CONTINUOUS
 62
     7
 10
-993.39600000000155
 20
-2666.634
 30
0.0
 11
-955.39600000000155
 21
-2666.634
 31
0.0
  0
LINE
  5
393
  8
DATA
  6
CONTINUOUS
 62
     7
 10
-993.39600000000155
 20
-2675.634
 30
0.0
 11
-955.39600000000155
 21
-2675.634
 31
0.0
  0
LINE
  5
394
  8
DATA
  6
CONTINUOUS
 62
     7
 10
-955.39600000000155
 20
-2692.134
 30
0.0
 11
-993.39600000000155
 21
-2692.134
 31
0.0
  0
LINE
  5
395
  8
DATA
  6
CONTINUOUS
 62
     7
 10
-991.14600000000166
 20
-2674.134
 30
0.0
 11
-991.14600000000166
 21
-2668.134
 31
0.0
  0
LINE
  5
396
  8
DATA
  6
CONTINUOUS
 62
     7
 10
-976.14600000000064
 20
-2674.134
 30
0.0
 11
-991.14600000000166
 21
-2674.134
 31
0.0
  0
LINE
  5
397
  8
DATA
  6
CONTINUOUS
 62
     7
 10
-976.14600000000064
 20
-2668.134
 30
0.0
 11
-976.14600000000064
 21
-2674.134
 31
0.0
  0
LINE
  5
398
  8
DATA
  6
CONTINUOUS
 62
     7
 10
-991.14600000000166
 20
-2668.134
 30
0.0
 11
-976.14600000000064
 21
-2668.134
 31
0.0
  0
LINE
  5
399
  8
DATA
  6
CONTINUOUS
 62
     7
 10
-985.14600000000064
 20
-2695.634
 30
0.0
 11
-982.14600000000075
 21
-2695.634
 31
0.0
  0
LINE
  5
39A
  8
DATA
  6
CONTINUOUS
 62
     7
 10
-972.64600000000064
 20
-2674.134
 30
0.0
 11
-972.64600000000064
 21
-2668.134
 31
0.0
  0
LINE
  5
39B
  8
DATA
  6
CONTINUOUS
 62
     7
 10
-957.64600000000155
 20
-2674.134
 30
0.0
 11
-972.64600000000064
 21
-2674.134
 31
0.0
  0
LINE
  5
39C
  8
DATA
  6
CONTINUOUS
 62
     7
 10
-957.64600000000155
 20
-2668.134
 30
0.0
 11
-957.64600000000155
 21
-2674.134
 31
0.0
  0
LINE
  5
39D
  8
DATA
  6
CONTINUOUS
 62
     7
 10
-972.64600000000064
 20
-2668.134
 30
0.0
 11
-957.64600000000155
 21
-2668.134
 31
0.0
  0
LINE
  5
39E
  8
DATA
  6
CONTINUOUS
 62
     7
 10
-977.89600000000166
 20
-2688.634
 30
0.0
 11
-989.39600000000166
 21
-2688.634
 31
0.0
  0
LINE
  5
39F
  8
DATA
  6
CONTINUOUS
 62
     7
 10
-977.89600000000166
 20
-2685.134
 30
0.0
 11
-989.39600000000166
 21
-2685.134
 31
0.0
  0
LINE
  5
3A0
  8
DATA
  6
CONTINUOUS
 62
     7
 10
-989.39600000000166
 20
-2675.634
 30
0.0
 11
-989.39600000000166
 21
-2692.134
 31
0.0
  0
LINE
  5
3A1
  8
DATA
  6
CONTINUOUS
 62
     7
 10
-977.89600000000166
 20
-2675.634
 30
0.0
 11
-977.89600000000166
 21
-2692.134
 31
0.0
  0
LINE
  5
3A2
  8
DATA
  6
CONTINUOUS
 62
     7
 10
-959.39600000000064
 20
-2688.634
 30
0.0
 11
-970.89600000000064
 21
-2688.634
 31
0.0
  0
LINE
  5
3A3
  8
DATA
  6
CONTINUOUS
 62
     7
 10
-959.39600000000064
 20
-2685.134
 30
0.0
 11
-970.89600000000064
 21
-2685.134
 31
0.0
  0
LINE
  5
3A4
  8
DATA
  6
CONTINUOUS
 62
     7
 10
-970.89600000000064
 20
-2675.634
 30
0.0
 11
-970.89600000000064
 21
-2692.134
 31
0.0
  0
LINE
  5
3A5
  8
DATA
  6
CONTINUOUS
 62
     7
 10
-959.39600000000064
 20
-2675.634
 30
0.0
 11
-959.39600000000064
 21
-2692.134
 31
0.0
  0
CIRCLE
  5
3A6
  8
DATA
  6
CONTINUOUS
 62
     7
 10
-983.64600000000053
 20
-2695.634
 30
0.0
 40
2.25
  0
LINE
  5
3A7
  8
DATA
  6
CONTINUOUS
 62
     7
 10
-966.64599999999973
 20
-2695.634
 30
0.0
 11
-963.64599999999973
 21
-2695.634
 31
0.0
  0
CIRCLE
  5
3A8
  8
DATA
  6
CONTINUOUS
 62
     7
 10
-965.14599999999984
 20
-2695.634
 30
0.0
 40
2.25
  0
LINE
  5
3A9
  8
DATA
  6
CONTINUOUS
 62
     7
 10
-965.14599999999984
 20
-2694.134
 30
0.0
 11
-965.14599999999984
 21
-2697.134
 31
0.0
  0
CIRCLE
  5
3AA
  8
DATA
  6
CONTINUOUS
 62
     7
 10
-996.39600000000075
 20
-2660.884
 30
0.0
 40
3.0
  0
LINE
  5
3AB
  8
DATA
  6
CONTINUOUS
 62
     7
 10
-998.39600000000166
 20
-2660.884
 30
0.0
 11
-994.39600000000053
 21
-2660.884
 31
0.0
  0
LINE
  5
3AC
  8
DATA
  6
CONTINUOUS
 62
     7
 10
-996.39600000000075
 20
-2662.884
 30
0.0
 11
-996.39600000000075
 21
-2658.884
 31
0.0
  0
CIRCLE
  5
3AD
  8
DATA
  6
CONTINUOUS
 62
     7
 10
-952.39600000000053
 20
-2660.884
 30
0.0
 40
3.0
  0
LINE
  5
3AE
  8
DATA
  6
CONTINUOUS
 62
     7
 10
-954.39600000000075
 20
-2660.884
 30
0.0
 11
-950.39600000000166
 21
-2660.884
 31
0.0
  0
LINE
  5
3AF
  8
DATA
  6
CONTINUOUS
 62
     7
 10
-952.39600000000053
 20
-2662.884
 30
0.0
 11
-952.39600000000053
 21
-2658.884
 31
0.0
  0
CIRCLE
  5
3B0
  8
DATA
  6
CONTINUOUS
 62
     7
 10
-952.39600000000053
 20
-2704.884
 30
0.0
 40
3.0
  0
LINE
  5
3B1
  8
DATA
  6
CONTINUOUS
 62
     7
 10
-954.39600000000075
 20
-2704.884
 30
0.0
 11
-950.39600000000166
 21
-2704.884
 31
0.0
  0
LINE
  5
3B2
  8
DATA
  6
CONTINUOUS
 62
     7
 10
-952.39600000000053
 20
-2706.884
 30
0.0
 11
-952.39600000000053
 21
-2702.8840000000009
 31
0.0
  0
CIRCLE
  5
3B3
  8
DATA
  6
CONTINUOUS
 62
     7
 10
-996.39600000000075
 20
-2704.884
 30
0.0
 40
3.0
  0
LINE
  5
3B4
  8
DATA
  6
CONTINUOUS
 62
     7
 10
-998.39600000000166
 20
-2704.884
 30
0.0
 11
-994.39600000000053
 21
-2704.884
 31
0.0
  0
LINE
  5
3B5
  8
DATA
  6
CONTINUOUS
 62
     7
 10
-996.39600000000075
 20
-2706.884
 30
0.0
 11
-996.39600000000075
 21
-2702.8840000000009
 31
0.0
  0
ARC
  5
3B6
  8
DATA
  6
CONTINUOUS
 62
     7
 10
-996.89600000000155
 20
-2660.384
 30
0.0
 40
6.0
 50
90.0
 51
180.0
  0
ARC
  5
3B7
  8
DATA
  6
CONTINUOUS
 62
     7
 10
-996.89600000000155
 20
-2705.384
 30
0.0
 40
6.0
 50
180.0
 51
270.0
  0
ARC
  5
3B8
  8
DATA
  6
CONTINUOUS
 62
     7
 10
-951.89600000000166
 20
-2705.384
 30
0.0
 40
6.0
 50
270.0
 51
0.0
  0
ARC
  5
3B9
  8
DATA
  6
CONTINUOUS
 62
     7
 10
-951.89600000000166
 20
-2660.384
 30
0.0
 40
6.0
 50
0.0
 51
90.0
  0
TEXT
  5
3BA
  8
DATA
 62
     7
 10
-991.48147745773076
 20
-2638.3029453125
 30
0.0
 40
5.3731918334960929
  1
HF OUTPUT
 41
0.8
 11
-991.48147745773076
 21
-2632.9297534790039
 31
0.0
 73
     3
  0
TEXT
  5
3BB
  8
DATA
 62
     7
 10
-983.4448192144755
 20
-2708.3029453125
 30
0.0
 40
5.3731918334960929
  1
INPUT
 41
0.8
 11
-983.4448192144755
 21
-2702.9297534790039
 31
0.0
 73
     3
  0
CIRCLE
  5
3BC
  8
DATA
  6
CONTINUOUS
 62
     7
 10
-904.39600000000075
 20
-2647.884
 30
0.0
 40
4.0
  0
LINE
  5
3BD
  8
DATA
  6
CONTINUOUS
 62
     7
 10
-906.39600000000064
 20
-2647.884
 30
0.0
 11
-902.39600000000155
 21
-2647.884
 31
0.0
  0
LINE
  5
3BE
  8
DATA
  6
CONTINUOUS
 62
     7
 10
-904.39600000000075
 20
-2649.884
 30
0.0
 11
-904.39600000000075
 21
-2645.8840000000009
 31
0.0
  0
CIRCLE
  5
3BF
  8
DATA
  6
CONTINUOUS
 62
     7
 10
-904.39600000000075
 20
-2730.384
 30
0.0
 40
4.0
  0
LINE
  5
3C0
  8
DATA
  6
CONTINUOUS
 62
     7
 10
-906.39600000000064
 20
-2730.384
 30
0.0
 11
-902.39600000000155
 21
-2730.384
 31
0.0
  0
LINE
  5
3C1
  8
DATA
  6
CONTINUOUS
 62
     7
 10
-904.39600000000075
 20
-2732.384
 30
0.0
 11
-904.39600000000075
 21
-2728.384
 31
0.0
  0
ARC
  5
3C2
  8
DATA
  6
CONTINUOUS
 62
     7
 10
-918.39600000000155
 20
-2715.884
 30
0.0
 40
3.0
 50
270.0
 51
0.0
  0
ARC
  5
3C3
  8
DATA
  6
CONTINUOUS
 62
     7
 10
-903.89600000000166
 20
-2731.384
 30
0.0
 40
5.0
 50
270.0
 51
0.0
  0
CIRCLE
  5
3C4
  8
DATA
  6
CONTINUOUS
 62
     7
 10
-931.39600000000166
 20
-2613.3839999999991
 30
0.0
 40
3.0
  0
CIRCLE
  5
3C5
  8
DATA
  6
CONTINUOUS
 62
     7
 10
-931.39600000000166
 20
-2613.3839999999991
 30
0.0
 40
7.25
  0
LINE
  5
3C6
  8
DATA
  6
CONTINUOUS
 62
     7
 10
-937.89600000000166
 20
-2613.3840000000009
 30
0.0
 11
-934.64599999999962
 21
-2619.0131651245988
 31
0.0
  0
LINE
  5
3C7
  8
DATA
  6
CONTINUOUS
 62
     7
 10
-934.64599999999962
 20
-2619.0131651245988
 30
0.0
 11
-928.14600000000155
 21
-2619.0131651245988
 31
0.0
  0
LINE
  5
3C8
  8
DATA
  6
CONTINUOUS
 62
     7
 10
-928.14600000000155
 20
-2619.0131651245988
 30
0.0
 11
-924.89600000000155
 21
-2613.3840000000009
 31
0.0
  0
LINE
  5
3C9
  8
DATA
  6
CONTINUOUS
 62
     7
 10
-924.89600000000155
 20
-2613.3840000000009
 30
0.0
 11
-928.14600000000064
 21
-2607.7548348754008
 31
0.0
  0
LINE
  5
3CA
  8
DATA
  6
CONTINUOUS
 62
     7
 10
-928.14600000000064
 20
-2607.7548348754008
 30
0.0
 11
-934.64600000000155
 21
-2607.7548348754008
 31
0.0
  0
LINE
  5
3CB
  8
DATA
  6
CONTINUOUS
 62
     7
 10
-934.64600000000155
 20
-2607.7548348754008
 30
0.0
 11
-937.89600000000166
 21
-2613.3840000000009
 31
0.0
  0
LINE
  5
3CC
  8
DATA
  6
CONTINUOUS
 62
     7
 10
-937.89889384291837
 20
-2630.384
 30
0.0
 11
-937.89889384291837
 21
-2622.384
 31
0.0
  0
LINE
  5
3CD
  8
DATA
  6
CONTINUOUS
 62
     7
 10
-920.89600000000166
 20
-2630.384
 30
0.0
 11
-920.89600000000166
 21
-2622.384
 31
0.0
  0
LINE
  5
3CE
  8
DATA
  6
CONTINUOUS
 62
     7
 10
-937.89889384291837
 20
-2630.384
 30
0.0
 11
-920.89600000000166
 21
-2630.384
 31
0.0
  0
LINE
  5
3CF
  8
DATA
  6
CONTINUOUS
 62
     7
 10
-937.89889384291837
 20
-2622.384
 30
0.0
 11
-920.89600000000166
 21
-2622.384
 31
0.0
  0
LINE
  5
3D0
  8
DATA
  6
CONTINUOUS
 62
     7
 10
-939.89889384291837
 20
-2626.384
 30
0.0
 11
-937.89889384291837
 21
-2626.384
 31
0.0
  0
TEXT
  5
3D1
  8
DATA
 62
     7
 10
-936.39889384291837
 20
-2629.335171875
 30
0.0
 40
5.7865142822265634
  1
2360
 41
0.8
 11
-936.39889384291837
 21
-2623.548657592773
 31
0.0
 73
     3
  0
LINE
  5
3D2
  8
DATA
  6
CONTINUOUS
 62
     7
 10
-933.30803264766735
 20
-2615.6957376914902
 30
0.0
 11
-930.34999275611801
 21
-2610.5722623085089
 31
0.0
  0
LINE
  5
3D3
  8
DATA
  6
CONTINUOUS
 62
     7
 10
-932.44200724388315
 20
-2616.1957376914888
 30
0.0
 11
-929.48396735233382
 21
-2611.0722623085089
 31
0.0
  0
TEXT
  5
3D4
  8
DATA
 62
     7
 10
-940.61774710107534
 20
-2646.206265625
 30
0.0
 40
4.1332244873046884
  1
SWITCH
 41
0.8
 11
-940.61774710107534
 21
-2642.0730411376958
 31
0.0
 73
     3
  0
TEXT
  5
3D5
  8
DATA
 62
     7
 10
-943.90297012663814
 20
-2641.2062656250009
 30
0.0
 40
4.1332244873046884
  1
SELECTOR
 41
0.8
 11
-943.90297012663814
 21
-2637.0730411376958
 31
0.0
 73
     3
  0
TEXT
  5
3D6
  8
DATA
 62
     7
 10
-938.49498760763436
 20
-2636.2062656250009
 30
0.0
 40
4.1332244873046884
  1
HORN
 41
0.8
 11
-938.49498760763436
 21
-2632.0730411376958
 31
0.0
 73
     3
  0
LINE
  5
3D7
  8
DATA
  6
CONTINUOUS
 62
     7
 10
-1300.0
 20
-2508.384
 30
0.0
 11
-848.89600000000053
 21
-2508.384
 31
0.0
  0
LINE
  5
3D8
  8
DATA
  6
CONTINUOUS
 62
     7
 10
-1034.4999999999991
 20
-2299.384
 30
0.0
 11
-1010.749999999999
 21
-2299.384
 31
0.0
  0
LINE
  5
3D9
  8
DATA
  6
CONTINUOUS
 62
     7
 10
-1034.4999999999991
 20
-2158.884
 30
0.0
 11
-940.4999999999992
 21
-2158.884
 31
0.0
  0
LINE
  5
3DA
  8
DATA
  6
CONTINUOUS
 62
     7
 10
-1044.896000000002
 20
-2559.384
 30
0.0
 11
-903.89600000000166
 21
-2559.384
 31
0.0
  0
LINE
  5
3DB
  8
DATA
  6
CONTINUOUS
 62
     7
 10
-1030.396000000002
 20
-2576.884
 30
0.0
 11
-918.39600000000155
 21
-2576.884
 31
0.0
  0
LINE
  5
3DC
  8
DATA
  6
CONTINUOUS
 62
     7
 10
-1029.3960000000011
 20
-2580.384
 30
0.0
 11
-919.39600000000155
 21
-2580.384
 31
0.0
  0
LINE
  5
3DD
  8
DATA
  6
CONTINUOUS
 62
     7
 10
-2038.8879999999999
 20
-2501.384
 30
0.0
 11
-2038.8879999999999
 21
-2369.3839999999991
 31
0.0
  0
LINE
  5
3DE
  8
DATA
  6
CONTINUOUS
 62
     7
 10
-2035.3879999999999
 20
-2501.384
 30
0.0
 11
-2035.3879999999999
 21
-2369.3839999999991
 31
0.0
  0
ARC
  5
3DF
  8
DATA
  6
CONTINUOUS
 62
     7
 10
-2042.3879999999999
 20
-2501.384
 30
0.0
 40
3.5
 50
270.0
 51
0.0
  0
ARC
  5
3E0
  8
DATA
  6
CONTINUOUS
 62
     7
 10
-2042.3879999999999
 20
-2501.384
 30
0.0
 40
7.0
 50
270.0
 51
0.0
  0
LINE
  5
3E1
  8
DATA
  6
CONTINUOUS
 62
     7
 10
-2048.1379999999999
 20
-2504.8839999999991
 30
0.0
 11
-2048.1379999999999
 21
-2493.384
 31
0.0
  0
LINE
  5
3E2
  8
DATA
  6
CONTINUOUS
 62
     7
 10
-2048.1379999999999
 20
-2504.8839999999991
 30
0.0
 11
-2042.3879999999999
 21
-2504.8839999999991
 31
0.0
  0
LINE
  5
3E3
  8
DATA
  6
CONTINUOUS
 62
     7
 10
-1986.8879999999999
 20
-2344.384
 30
0.0
 11
-1986.8879999999999
 21
-2113.884
 31
0.0
  0
LINE
  5
3E4
  8
DATA
  6
CONTINUOUS
 62
     7
 10
-1953.8879999999999
 20
-2091.8839999999982
 30
0.0
 11
-1953.8879999999999
 21
-2366.3839999999991
 31
0.0
  0
CIRCLE
  5
3E5
  8
DATA
  6
CONTINUOUS
 62
     7
 10
-1964.8879999999999
 20
-2357.1339999999991
 30
0.0
 40
3.0
  0
CIRCLE
  5
3E6
  8
DATA
  6
CONTINUOUS
 62
     7
 10
-1964.8879999999999
 20
-2357.1339999999991
 30
0.0
 40
6.25
  0
CIRCLE
  5
3E7
  8
DATA
  6
CONTINUOUS
 62
     7
 10
-1964.8879999999999
 20
-2229.1339999999991
 30
0.0
 40
3.0
  0
CIRCLE
  5
3E8
  8
DATA
  6
CONTINUOUS
 62
     7
 10
-1964.8879999999999
 20
-2229.1339999999991
 30
0.0
 40
6.25
  0
ARC
  5
3E9
  8
DATA
  6
CONTINUOUS
 62
     7
 10
-1956.8879999999999
 20
-2366.3839999999991
 30
0.0
 40
3.0
 50
270.0
 51
0.0
  0
CIRCLE
  5
3EA
  8
DATA
  6
CONTINUOUS
 62
     7
 10
-1964.8879999999999
 20
-2101.1339999999991
 30
0.0
 40
3.0
  0
CIRCLE
  5
3EB
  8
DATA
  6
CONTINUOUS
 62
     7
 10
-1964.8879999999999
 20
-2101.1339999999991
 30
0.0
 40
6.25
  0
ARC
  5
3EC
  8
DATA
  6
CONTINUOUS
 62
     7
 10
-1956.8879999999999
 20
-2091.8839999999982
 30
0.0
 40
3.0
 50
0.0
 51
90.0
  0
LINE
  5
3ED
  8
DATA
  6
CONTINUOUS
 62
     7
 10
-1850.7760000000001
 20
-2559.384
 30
0.0
 11
-1845.7760000000001
 21
-2559.384
 31
0.0
  0
LINE
  5
3EE
  8
DATA
  6
CONTINUOUS
 62
     7
 10
-1051.6999999999989
 20
-2276.8089999999979
 30
0.0
 11
-1047.4999999999991
 21
-2276.8089999999979
 31
0.0
  0
LINE
  5
3EF
  8
DATA
  6
CONTINUOUS
 62
     7
 10
-1051.6999999999989
 20
-2283.0590000000002
 30
0.0
 11
-1047.4999999999991
 21
-2283.0590000000002
 31
0.0
  0
LINE
  5
3F0
  8
DATA
  6
CONTINUOUS
 62
     7
 10
-1051.6999999999989
 20
-2286.1839999999988
 30
0.0
 11
-1047.4999999999991
 21
-2286.1839999999988
 31
0.0
  0
LINE
  5
3F1
  8
DATA
  6
CONTINUOUS
 62
     7
 10
-1051.6999999999989
 20
-2273.6840000000002
 30
0.0
 11
-1047.4999999999991
 21
-2273.6840000000002
 31
0.0
  0
LINE
  5
3F2
  8
DATA
  6
CONTINUOUS
 62
     7
 10
-1051.6999999999989
 20
-2273.6840000000002
 30
0.0
 11
-1051.6999999999989
 21
-2286.1839999999988
 31
0.0
  0
LINE
  5
3F3
  8
DATA
  6
CONTINUOUS
 62
     7
 10
-1051.6999999999989
 20
-2175.2089999999998
 30
0.0
 11
-1047.4999999999991
 21
-2175.2089999999998
 31
0.0
  0
LINE
  5
3F4
  8
DATA
  6
CONTINUOUS
 62
     7
 10
-1051.6999999999989
 20
-2181.4589999999989
 30
0.0
 11
-1047.4999999999991
 21
-2181.4589999999989
 31
0.0
  0
LINE
  5
3F5
  8
DATA
  6
CONTINUOUS
 62
     7
 10
-1051.6999999999989
 20
-2184.5839999999998
 30
0.0
 11
-1047.4999999999991
 21
-2184.5839999999998
 31
0.0
  0
LINE
  5
3F6
  8
DATA
  6
CONTINUOUS
 62
     7
 10
-1051.6999999999989
 20
-2172.0840000000012
 30
0.0
 11
-1047.4999999999991
 21
-2172.0840000000012
 31
0.0
  0
LINE
  5
3F7
  8
DATA
  6
CONTINUOUS
 62
     7
 10
-1051.6999999999989
 20
-2172.0840000000012
 30
0.0
 11
-1051.6999999999989
 21
-2184.5839999999998
 31
0.0
  0
LINE
  5
3F8
  8
DATA
  6
CONTINUOUS
 62
     7
 10
-1051.6999999999989
 20
-2226.009
 30
0.0
 11
-1047.4999999999991
 21
-2226.009
 31
0.0
  0
LINE
  5
3F9
  8
DATA
  6
CONTINUOUS
 62
     7
 10
-1051.6999999999989
 20
-2232.2589999999991
 30
0.0
 11
-1047.4999999999991
 21
-2232.2589999999991
 31
0.0
  0
LINE
  5
3FA
  8
DATA
  6
CONTINUOUS
 62
     7
 10
-1051.6999999999989
 20
-2235.3839999999991
 30
0.0
 11
-1047.4999999999991
 21
-2235.3839999999991
 31
0.0
  0
LINE
  5
3FB
  8
DATA
  6
CONTINUOUS
 62
     7
 10
-1051.6999999999989
 20
-2222.884
 30
0.0
 11
-1047.4999999999991
 21
-2222.884
 31
0.0
  0
LINE
  5
3FC
  8
DATA
  6
CONTINUOUS
 62
     7
 10
-1051.6999999999989
 20
-2235.3839999999991
 30
0.0
 11
-1051.6999999999989
 21
-2222.884
 31
0.0
  0
LINE
  5
3FD
  8
DATA
  6
CONTINUOUS
 62
     7
 10
-1047.4999999999991
 20
-2168.634
 30
0.0
 11
-1034.4999999999991
 21
-2168.634
 31
0.0
  0
LINE
  5
3FE
  8
DATA
  6
CONTINUOUS
 62
     7
 10
-1047.4999999999991
 20
-2289.634
 30
0.0
 11
-1034.4999999999991
 21
-2289.634
 31
0.0
  0
LINE
  5
3FF
  8
DATA
  6
CONTINUOUS
 62
     7
 10
-1047.4999999999991
 20
-2289.634
 30
0.0
 11
-1047.4999999999991
 21
-2168.634
 31
0.0
  0
LINE
  5
400
  8
DATA
  6
CONTINUOUS
 62
     7
 10
-1034.4999999999991
 20
-2158.884
 30
0.0
 11
-1034.4999999999991
 21
-2299.384
 31
0.0
  0
LINE
  5
401
  8
DATA
  6
CONTINUOUS
 62
     7
 10
-1147.4999999999991
 20
-2232.8839999999982
 30
0.0
 11
-1147.4999999999991
 21
-2284.1339999999991
 31
0.0
  0
ARC
  5
402
  8
DATA
  6
CONTINUOUS
 62
     7
 10
-1126.4999999999991
 20
-2229.1339999999991
 30
0.0
 40
15.999999999999551
 50
193.55478403717771
 51
270.0
  0
ARC
  5
403
  8
DATA
  6
CONTINUOUS
 62
     7
 10
-1126.4999999999991
 20
-2229.1339999999991
 30
0.0
 40
16.0
 50
90.0
 51
166.4452159628209
  0
LINE
  5
404
  8
DATA
  6
CONTINUOUS
 62
     7
 10
-1147.4999999999991
 20
-2174.134
 30
0.0
 11
-1147.4999999999991
 21
-2225.3839999999991
 31
0.0
  0
ARC
  5
405
  8
DATA
  6
CONTINUOUS
 62
     7
 10
-999.63637996261889
 20
-2667.7725259853269
 30
0.0
 40
404.15818791776621
 50
111.46026002343
 51
127.5585810063543
  0
ARC
  5
406
  8
DATA
  6
CONTINUOUS
 62
     7
 10
-999.63637996261889
 20
-1790.4954740146729
 30
0.0
 40
404.15818791776621
 50
232.4414189936457
 51
248.53973997656999
  0
LINE
  5
407
  8
DATA
  6
CONTINUOUS
 62
     7
 10
-1272.4999999999991
 20
-2088.8839999999991
 30
0.0
 11
-1259.4999999999991
 21
-2088.8839999999991
 31
0.0
  0
LINE
  5
408
  8
DATA
  6
CONTINUOUS
 62
     7
 10
-1272.4999999999991
 20
-2369.3839999999991
 30
0.0
 11
-1259.4999999999991
 21
-2369.3839999999991
 31
0.0
  0
LINE
  5
409
  8
DATA
  6
CONTINUOUS
 62
     7
 10
-1259.4999999999991
 20
-2369.3839999999991
 30
0.0
 11
-1259.4999999999991
 21
-2088.8839999999991
 31
0.0
  0
LINE
  5
40A
  8
DATA
  6
CONTINUOUS
 62
     7
 10
-1272.4999999999991
 20
-2369.3839999999991
 30
0.0
 11
-1272.4999999999991
 21
-2088.8839999999991
 31
0.0
  0
LINE
  5
40B
  8
DATA
  6
CONTINUOUS
 62
     7
 10
-1259.4999999999991
 20
-2110.884
 30
0.0
 11
-1245.9999999999991
 21
-2110.884
 31
0.0
  0
LINE
  5
40C
  8
DATA
  6
CONTINUOUS
 62
     7
 10
-1259.4999999999991
 20
-2347.384
 30
0.0
 11
-1245.9999999999991
 21
-2347.384
 31
0.0
  0
ARC
  5
40D
  8
DATA
  6
CONTINUOUS
 62
     7
 10
-955.78493149667588
 20
-2754.4007023299951
 30
0.0
 40
507.8439118583218
 50
112.1793989689462
 51
126.73022809446471
  0
ARC
  5
40E
  8
DATA
  6
CONTINUOUS
 62
     7
 10
-955.78493149667588
 20
-1703.867297670002
 30
0.0
 40
507.84391185832197
 50
233.26977190553521
 51
247.8206010310538
  0
LINE
  5
40F
  8
DATA
  6
CONTINUOUS
 62
     7
 10
-1126.4999999999991
 20
-2245.1339999999991
 30
0.0
 11
-1047.4999999999991
 21
-2253.134
 31
0.0
  0
ARC
  5
410
  8
DATA
  6
CONTINUOUS
 62
     7
 10
-960.67187499998442
 20
-2925.1965000000682
 30
0.0
 40
667.73189020546101
 50
97.471580969120154
 51
106.2479772727758
  0
ARC
  5
411
  8
DATA
  6
CONTINUOUS
 62
     7
 10
-960.67187499998442
 20
-2932.6965000000669
 30
0.0
 40
667.73189020546101
 50
97.471580969120154
 51
106.2479772727758
  0
LINE
  5
412
  8
DATA
  6
CONTINUOUS
 62
     7
 10
-1126.4999999999991
 20
-2213.1339999999991
 30
0.0
 11
-1047.4999999999991
 21
-2205.134
 31
0.0
  0
ARC
  5
413
  8
DATA
  6
CONTINUOUS
 62
     7
 10
-960.67187499998442
 20
-1533.0714999999309
 30
0.0
 40
667.73189020546101
 50
253.75202272722399
 51
262.52841903088
  0
ARC
  5
414
  8
DATA
  6
CONTINUOUS
 62
     7
 10
-960.67187499998442
 20
-1525.57149999993
 30
0.0
 40
667.73189020546101
 50
253.75202272722399
 51
262.52841903088
  0
LINE
  5
415
  8
DATA
  6
CONTINUOUS
 62
     7
 10
-1259.4999999999991
 20
-2232.8839999999982
 30
0.0
 11
-1051.6999999999989
 21
-2232.8839999999982
 31
0.0
  0
LINE
  5
416
  8
DATA
  6
CONTINUOUS
 62
     7
 10
-1259.4999999999991
 20
-2225.3839999999991
 30
0.0
 11
-1051.6999999999989
 21
-2225.3839999999991
 31
0.0
  0
LINE
  5
417
  8
DATA
  6
CONTINUOUS
 62
     7
 10
-1981.8879999999999
 20
-1703.599999999999
 30
0.0
 11
-1981.8879999999999
 21
-1700.0
 31
0.0
  0
LINE
  5
418
  8
DATA
  6
CONTINUOUS
 62
     7
 10
-1992.8879999999999
 20
-1659.499999999998
 30
0.0
 11
-1992.8879999999999
 21
-1645.9999999999991
 31
0.0
  0
LINE
  5
419
  8
DATA
  6
CONTINUOUS
 62
     7
 10
-1953.8879999999999
 20
-1659.499999999998
 30
0.0
 11
-1953.8879999999999
 21
-1672.499999999998
 31
0.0
  0
LINE
  5
41A
  8
DATA
  6
CONTINUOUS
 62
     7
 10
-2051.3879999999999
 20
-1335.9999999999991
 30
0.0
 11
-2050.3879999999999
 21
-1341.6712818196149
 31
0.0
  0
LINE
  5
41B
  8
DATA
  6
CONTINUOUS
 62
     7
 10
-2052.8879999999999
 20
-1335.9999999999991
 30
0.0
 11
-2051.301057173624
 21
-1344.9999999999991
 31
0.0
  0
LINE
  5
41C
  8
DATA
  6
CONTINUOUS
 62
     7
 10
-2054.3879999999999
 20
-1335.9999999999991
 30
0.0
 11
-2052.801057173624
 21
-1344.9999999999991
 31
0.0
  0
LINE
  5
41D
  8
DATA
  6
CONTINUOUS
 62
     7
 10
-2055.8879999999999
 20
-1335.9999999999991
 30
0.0
 11
-2054.301057173624
 21
-1344.9999999999991
 31
0.0
  0
LINE
  5
41E
  8
DATA
  6
CONTINUOUS
 62
     7
 10
-2055.8879999999999
 20
-1335.9999999999991
 30
0.0
 11
-2055.8879999999999
 21
-1344.9999999999991
 31
0.0
  0
LINE
  5
41F
  8
DATA
  6
CONTINUOUS
 62
     7
 10
-2055.8879999999999
 20
-1344.999999999997
 30
0.0
 11
-2050.3879999999999
 21
-1344.9999999999991
 31
0.0
  0
LINE
  5
420
  8
DATA
  6
CONTINUOUS
 62
     7
 10
-2055.8879999999999
 20
-1335.9999999999991
 30
0.0
 11
-2050.3879999999999
 21
-1335.9999999999991
 31
0.0
  0
LINE
  5
421
  8
DATA
  6
CONTINUOUS
 62
     7
 10
-2044.3879999999999
 20
-1347.6447095812191
 30
0.0
 11
-2050.3879999999999
 21
-1347.6447095812191
 31
0.0
  0
LINE
  5
422
  8
DATA
  6
CONTINUOUS
 62
     7
 10
-2044.3879999999999
 20
-1333.355290418777
 30
0.0
 11
-2050.3879999999999
 21
-1333.355290418777
 31
0.0
  0
LINE
  5
423
  8
DATA
  6
CONTINUOUS
 62
     7
 10
-2044.3879999999999
 20
-1340.499999999997
 30
0.0
 11
-2050.3879999999999
 21
-1340.4999999999991
 31
0.0
  0
LINE
  5
424
  8
DATA
  6
CONTINUOUS
 62
     7
 10
-2042.3879999999999
 20
-1350.4999999999991
 30
0.0
 11
-2044.3879999999999
 21
-1350.499999999997
 31
0.0
  0
LINE
  5
425
  8
DATA
  6
CONTINUOUS
 62
     7
 10
-2042.3879999999999
 20
-1330.5
 30
0.0
 11
-2044.3879999999999
 21
-1330.499999999997
 31
0.0
  0
LINE
  5
426
  8
DATA
  6
CONTINUOUS
 62
     7
 10
-2044.3879999999999
 20
-1350.4999999999991
 30
0.0
 11
-2044.3879999999999
 21
-1330.499999999997
 31
0.0
  0
LINE
  5
427
  8
DATA
  6
CONTINUOUS
 62
     7
 10
-2050.3879999999999
 20
-1347.6447095812191
 30
0.0
 11
-2050.3879999999999
 21
-1333.355290418777
 31
0.0
  0
LINE
  5
428
  8
DATA
  6
CONTINUOUS
 62
     7
 10
-2033.3879999999999
 20
-1347.6447095812191
 30
0.0
 11
-2027.3879999999999
 21
-1347.6447095812191
 31
0.0
  0
LINE
  5
429
  8
DATA
  6
CONTINUOUS
 62
     7
 10
-2033.3879999999999
 20
-1333.355290418777
 30
0.0
 11
-2027.3879999999999
 21
-1333.355290418777
 31
0.0
  0
LINE
  5
42A
  8
DATA
  6
CONTINUOUS
 62
     7
 10
-2033.3879999999999
 20
-1340.499999999997
 30
0.0
 11
-2027.3879999999999
 21
-1340.4999999999991
 31
0.0
  0
LINE
  5
42B
  8
DATA
  6
CONTINUOUS
 62
     7
 10
-2035.387999999999
 20
-1350.4999999999991
 30
0.0
 11
-2033.3879999999999
 21
-1350.499999999997
 31
0.0
  0
LINE
  5
42C
  8
DATA
  6
CONTINUOUS
 62
     7
 10
-2035.387999999999
 20
-1330.5
 30
0.0
 11
-2033.387999999999
 21
-1330.499999999997
 31
0.0
  0
LINE
  5
42D
  8
DATA
  6
CONTINUOUS
 62
     7
 10
-2033.3879999999999
 20
-1350.4999999999991
 30
0.0
 11
-2033.3879999999999
 21
-1330.499999999997
 31
0.0
  0
LINE
  5
42E
  8
DATA
  6
CONTINUOUS
 62
     7
 10
-2027.387999999999
 20
-1347.6447095812191
 30
0.0
 11
-2027.387999999999
 21
-1333.355290418777
 31
0.0
  0
LINE
  5
42F
  8
DATA
  6
CONTINUOUS
 62
     7
 10
-2048.1379999999999
 20
-1266.7499999999991
 30
0.0
 11
-2048.137999999999
 21
-1270.25
 31
0.0
  0
LINE
  5
430
  8
DATA
  6
CONTINUOUS
 62
     7
 10
-2048.1379999999999
 20
-1414.25
 30
0.0
 11
-2048.137999999999
 21
-1410.7499999999991
 31
0.0
  0
LINE
  5
431
  8
DATA
  6
CONTINUOUS
 62
     7
 10
-2038.8879999999999
 20
-1410.7499999999991
 30
0.0
 11
-2035.3879999999999
 21
-1410.7499999999991
 31
0.0
  0
ARC
  5
432
  8
DATA
  6
CONTINUOUS
 62
     7
 10
-2045.8879999999999
 20
-1427.4999999999991
 30
0.0
 40
7.0
 50
270.0
 51
0.0
  0
ARC
  5
433
  8
DATA
  6
CONTINUOUS
 62
     7
 10
-2045.8879999999999
 20
-1427.4999999999991
 30
0.0
 40
3.5
 50
270.0
 51
0.0
  0
LINE
  5
434
  8
DATA
  6
CONTINUOUS
 62
     7
 10
-2059.1379999999999
 20
-1375.4882999999991
 30
0.0
 11
-2059.1379999999999
 21
-1338.4881999999991
 31
0.0
  0
LINE
  5
435
  8
DATA
  6
CONTINUOUS
 62
     7
 10
-2042.3879999999999
 20
-1427.4999999999991
 30
0.0
 11
-2042.3879999999999
 21
-1270.25
 31
0.0
  0
LINE
  5
436
  8
DATA
  6
CONTINUOUS
 62
     7
 10
-2035.3879999999999
 20
-1410.7499999999991
 30
0.0
 11
-2035.3879999999999
 21
-1270.25
 31
0.0
  0
LINE
  5
437
  8
DATA
  6
CONTINUOUS
 62
     7
 10
-2038.8879999999999
 20
-1427.4999999999991
 30
0.0
 11
-2038.8879999999999
 21
-1270.25
 31
0.0
  0
LINE
  5
438
  8
DATA
  6
CONTINUOUS
 62
     7
 10
-1850.7760000000001
 20
-1700.0
 30
0.0
 11
-1850.7760000000001
 21
-1248.895999999999
 31
0.0
  0
LINE
  5
439
  8
DATA
  6
CONTINUOUS
 62
     7
 10
-1845.7760000000001
 20
-1449.896
 30
0.0
 11
-1845.7760000000001
 21
-1298.895999999999
 31
0.0
  0
LINE
  5
43A
  8
DATA
  6
CONTINUOUS
 62
     7
 10
-1850.7760000000001
 20
-1449.896
 30
0.0
 11
-1845.7760000000001
 21
-1449.8960000000011
 31
0.0
  0
LINE
  5
43B
  8
DATA
  6
CONTINUOUS
 62
     7
 10
-1850.7760000000001
 20
-1298.896
 30
0.0
 11
-1845.7760000000001
 21
-1298.896
 31
0.0
  0
CIRCLE
  5
43C
  8
DATA
  6
CONTINUOUS
 62
     7
 10
-1044.395999999999
 20
-2565.384
 30
0.0
 40
4.0
  0
LINE
  5
43D
  8
DATA
  6
CONTINUOUS
 62
     7
 10
-1046.396000000002
 20
-2565.384
 30
0.0
 11
-1042.396
 21
-2565.384
 31
0.0
  0
LINE
  5
43E
  8
DATA
  6
CONTINUOUS
 62
     7
 10
-1044.395999999999
 20
-2567.384
 30
0.0
 11
-1044.395999999999
 21
-2563.384
 31
0.0
  0
ARC
  5
43F
  8
DATA
  6
CONTINUOUS
 62
     7
 10
-1030.396000000002
 20
-2579.884
 30
0.0
 40
3.0
 50
90.0
 51
180.0
  0
ARC
  5
440
  8
DATA
  6
CONTINUOUS
 62
     7
 10
-1044.896000000002
 20
-2564.384
 30
0.0
 40
5.0
 50
90.0
 51
180.0
  0
LINE
  5
441
  8
DATA
  6
CONTINUOUS
 62
     7
 10
-1010.749999999999
 20
-2508.384
 30
0.0
 11
-1010.749999999999
 21
-2229.1339999999991
 31
0.0
  0
LINE
  5
442
  8
DATA
  6
CONTINUOUS
 62
     7
 10
-870.24999999999909
 20
-2508.384
 30
0.0
 11
-870.24999999999909
 21
-2229.1339999999991
 31
0.0
  0
ARC
  5
443
  8
DATA
  6
CONTINUOUS
 62
     7
 10
-940.4999999999992
 20
-2229.1339999999991
 30
0.0
 40
70.25
 50
0.0
 51
90.0
  0
ARC
  5
444
  8
DATA
  6
CONTINUOUS
 62
     7
 10
-940.4999999999992
 20
-2235.134
 30
0.0
 40
70.25
 50
0.0
 51
180.0
  0
LINE
  5
445
  8
DATA
  6
CONTINUOUS
 62
     7
 10
-898.48819999999876
 20
-2172.8306150150802
 30
0.0
 11
-898.48819999999876
 21
-2157.8869999999988
 31
0.0
  0
LINE
  5
446
  8
DATA
  6
CONTINUOUS
 62
     7
 10
-932.48819999999876
 20
-2159.3423560821188
 30
0.0
 11
-932.48819999999876
 21
-2130.884
 31
0.0
  0
LINE
  5
447
  8
DATA
  6
CONTINUOUS
 62
     7
 10
-931.48819999999876
 20
-2159.4644229899441
 30
0.0
 11
-931.48819999999876
 21
-2133.2363
 31
0.0
  0
LINE
  5
448
  8
DATA
  6
CONTINUOUS
 62
     7
 10
-938.48819999999876
 20
-2158.884
 30
0.0
 11
-938.48819999999876
 21
-2112.884
 31
0.0
  0
LINE
  5
449
  8
DATA
  6
CONTINUOUS
 62
     7
 10
-931.48819999999876
 20
-2133.2363
 30
0.0
 11
-898.48819999999876
 21
-2157.8869999999988
 31
0.0
  0
LINE
  5
44A
  8
DATA
  6
CONTINUOUS
 62
     7
 10
-938.48819999999876
 20
-2112.884
 30
0.0
 11
-932.48819999999876
 21
-2130.884
 31
0.0
  0
LINE
  5
44B
  8
DATA
  6
CONTINUOUS
 62
     7
 10
-931.48819999999876
 20
-2133.2363
 30
0.0
 11
-932.48819999999876
 21
-2133.2363
 31
0.0
  0
CIRCLE
  5
44C
  8
DATA
  6
CONTINUOUS
 62
     7
 10
-890.4999999999992
 20
-2218.884
 30
0.0
 40
2.0
  0
LINE
  5
44D
  8
DATA
  6
CONTINUOUS
 62
     7
 10
-940.4999999999992
 20
-2220.8839999999991
 30
0.0
 11
-947.64470958122058
 21
-2225.0089999999991
 31
0.0
  0
LINE
  5
44E
  8
DATA
  6
CONTINUOUS
 62
     7
 10
-933.35529041877794
 20
-2225.0089999999991
 30
0.0
 11
-940.4999999999992
 21
-2220.8839999999991
 31
0.0
  0
LINE
  5
44F
  8
DATA
  6
CONTINUOUS
 62
     7
 10
-933.35529041877794
 20
-2233.259
 30
0.0
 11
-933.35529041877794
 21
-2225.0089999999991
 31
0.0
  0
LINE
  5
450
  8
DATA
  6
CONTINUOUS
 62
     7
 10
-940.4999999999992
 20
-2237.384
 30
0.0
 11
-933.35529041877794
 21
-2233.259
 31
0.0
  0
LINE
  5
451
  8
DATA
  6
CONTINUOUS
 62
     7
 10
-947.64470958122058
 20
-2233.259
 30
0.0
 11
-940.4999999999992
 21
-2237.384
 31
0.0
  0
LINE
  5
452
  8
DATA
  6
CONTINUOUS
 62
     7
 10
-947.64470958122058
 20
-2225.0089999999991
 30
0.0
 11
-947.64470958122058
 21
-2233.259
 31
0.0
  0
CIRCLE
  5
453
  8
DATA
  6
CONTINUOUS
 62
     7
 10
-940.4999999999992
 20
-2229.1339999999991
 30
0.0
 40
10.0
  0
LINE
  5
454
  8
DATA
  6
CONTINUOUS
 62
     7
 10
-975.48829999999896
 20
-2158.884
 30
0.0
 11
-975.48829999999896
 21
-2112.884
 31
0.0
  0
LINE
  5
455
  8
DATA
  6
CONTINUOUS
 62
     7
 10
-982.46069999999872
 20
-2158.884
 30
0.0
 11
-982.46069999999872
 21
-2133.2363
 31
0.0
  0
LINE
  5
456
  8
DATA
  6
CONTINUOUS
 62
     7
 10
-982.46069999999872
 20
-2133.2363
 30
0.0
 11
-975.48829999999896
 21
-2133.2363
 31
0.0
  0
LINE
  5
457
  8
DATA
  6
CONTINUOUS
 62
     7
 10
-975.48829999999896
 20
-2112.884
 30
0.0
 11
-938.48819999999876
 21
-2112.884
 31
0.0
  0
CIRCLE
  5
458
  8
DATA
  6
CONTINUOUS
 62
     7
 10
-990.4999999999992
 20
-2218.884
 30
0.0
 40
2.0
  0
LINE
  5
459
  8
DATA
  6
CONTINUOUS
 62
     7
 10
-989.97052677542695
 20
-2158.884
 30
0.0
 11
-982.46069999999872
 21
-2133.2363
 31
0.0
  0
LINE
  5
45A
  8
DATA
  6
CONTINUOUS
 62
     7
 10
-300.00000000000182
 20
-2559.384
 30
0.0
 11
-305.00000000000091
 21
-2559.384
 31
0.0
  0
ARC
  5
45B
  8
DATA
  6
CONTINUOUS
 62
     7
 10
-108.3880000000008
 20
-2501.384
 30
0.0
 40
7.0
 50
180.0
 51
270.0
  0
ARC
  5
45C
  8
DATA
  6
CONTINUOUS
 62
     7
 10
-108.38799999999991
 20
-2501.384
 30
0.0
 40
3.5
 50
180.0
 51
270.0
  0
LINE
  5
45D
  8
DATA
  6
CONTINUOUS
 62
     7
 10
-102.63799999999991
 20
-2504.8839999999991
 30
0.0
 11
-102.63799999999991
 21
-2493.384
 31
0.0
  0
LINE
  5
45E
  8
DATA
  6
CONTINUOUS
 62
     7
 10
-108.38799999999991
 20
-2504.8839999999991
 30
0.0
 11
-102.63799999999991
 21
-2504.8839999999991
 31
0.0
  0
LINE
  5
45F
  8
DATA
  6
CONTINUOUS
 62
     7
 10
-115.38799999999991
 20
-2501.384
 30
0.0
 11
-115.38799999999991
 21
-2164.8839999999982
 31
0.0
  0
LINE
  5
460
  8
DATA
  6
CONTINUOUS
 62
     7
 10
-111.88799999999991
 20
-2501.384
 30
0.0
 11
-111.8879999999981
 21
-2158.8839999999991
 31
0.0
  0
LINE
  5
461
  8
DATA
  6
CONTINUOUS
 62
     7
 10
-115.38799999999991
 20
-2164.8839999999982
 30
0.0
 11
-111.88799999999991
 21
-2164.8839999999982
 31
0.0
  0
LINE
  5
462
  8
DATA
  6
CONTINUOUS
 62
     7
 10
-111.88799999999991
 20
-2158.8839999999991
 30
0.0
 11
-68.010891339020432
 21
-2158.8839999999991
 31
0.0
  0
LINE
  5
463
  8
DATA
  6
CONTINUOUS
 62
     7
 10
-111.88799999999991
 20
-2299.384
 30
0.0
 11
-68.010891339020432
 21
-2299.384
 31
0.0
  0
LINE
  5
464
  8
DATA
  6
CONTINUOUS
 62
     7
 10
-108.387999999999
 20
-2299.384
 30
0.0
 11
-108.3879999999981
 21
-2158.8839999999991
 31
0.0
  0
LINE
  5
465
  8
DATA
  6
CONTINUOUS
 62
     7
 10
-99.387999999999934
 20
-2224.6339999999991
 30
0.0
 11
-100.387999999999
 21
-2230.3052818196152
 31
0.0
  0
LINE
  5
466
  8
DATA
  6
CONTINUOUS
 62
     7
 10
-97.887999999999934
 20
-2224.6339999999991
 30
0.0
 11
-99.474942826375809
 21
-2233.634
 31
0.0
  0
LINE
  5
467
  8
DATA
  6
CONTINUOUS
 62
     7
 10
-96.38799999999992
 20
-2224.6339999999991
 30
0.0
 11
-97.974942826375809
 21
-2233.634
 31
0.0
  0
LINE
  5
468
  8
DATA
  6
CONTINUOUS
 62
     7
 10
-94.88799999999992
 20
-2224.6339999999991
 30
0.0
 11
-96.474942826374928
 21
-2233.634
 31
0.0
  0
LINE
  5
469
  8
DATA
  6
CONTINUOUS
 62
     7
 10
-94.88799999999992
 20
-2224.6339999999991
 30
0.0
 11
-94.88799999999992
 21
-2233.634
 31
0.0
  0
LINE
  5
46A
  8
DATA
  6
CONTINUOUS
 62
     7
 10
-94.88799999999992
 20
-2233.6339999999982
 30
0.0
 11
-100.387999999999
 21
-2233.634
 31
0.0
  0
LINE
  5
46B
  8
DATA
  6
CONTINUOUS
 62
     7
 10
-94.88799999999992
 20
-2224.6339999999991
 30
0.0
 11
-100.387999999999
 21
-2224.6339999999991
 31
0.0
  0
LINE
  5
46C
  8
DATA
  6
CONTINUOUS
 62
     7
 10
-100.387999999999
 20
-2236.27870958122
 30
0.0
 11
-100.387999999999
 21
-2221.9892904187759
 31
0.0
  0
LINE
  5
46D
  8
DATA
  6
CONTINUOUS
 62
     7
 10
-108.387999999999
 20
-2239.1339999999991
 30
0.0
 11
-106.387999999999
 21
-2239.1339999999968
 31
0.0
  0
LINE
  5
46E
  8
DATA
  6
CONTINUOUS
 62
     7
 10
-108.387999999999
 20
-2219.134
 30
0.0
 11
-106.387999999999
 21
-2219.1339999999968
 31
0.0
  0
LINE
  5
46F
  8
DATA
  6
CONTINUOUS
 62
     7
 10
-106.387999999999
 20
-2239.1339999999991
 30
0.0
 11
-106.387999999999
 21
-2219.1339999999968
 31
0.0
  0
LINE
  5
470
  8
DATA
  6
CONTINUOUS
 62
     7
 10
-117.38799999999991
 20
-2236.27870958122
 30
0.0
 11
-123.38799999999991
 21
-2236.27870958122
 31
0.0
  0
LINE
  5
471
  8
DATA
  6
CONTINUOUS
 62
     7
 10
-117.38799999999991
 20
-2221.9892904187759
 30
0.0
 11
-123.38799999999991
 21
-2221.9892904187759
 31
0.0
  0
LINE
  5
472
  8
DATA
  6
CONTINUOUS
 62
     7
 10
-117.38799999999991
 20
-2229.1339999999968
 30
0.0
 11
-123.38799999999991
 21
-2229.134
 31
0.0
  0
LINE
  5
473
  8
DATA
  6
CONTINUOUS
 62
     7
 10
-115.38799999999991
 20
-2239.1339999999991
 30
0.0
 11
-117.38799999999991
 21
-2239.1339999999968
 31
0.0
  0
LINE
  5
474
  8
DATA
  6
CONTINUOUS
 62
     7
 10
-115.38799999999991
 20
-2219.134
 30
0.0
 11
-117.38799999999991
 21
-2219.1339999999968
 31
0.0
  0
LINE
  5
475
  8
DATA
  6
CONTINUOUS
 62
     7
 10
-117.38799999999991
 20
-2239.1339999999991
 30
0.0
 11
-117.38799999999991
 21
-2219.1339999999968
 31
0.0
  0
LINE
  5
476
  8
DATA
  6
CONTINUOUS
 62
     7
 10
-123.38799999999991
 20
-2236.27870958122
 30
0.0
 11
-123.38799999999991
 21
-2221.9892904187759
 31
0.0
  0
LINE
  5
477
  8
DATA
  6
CONTINUOUS
 62
     7
 10
-106.387999999999
 20
-2236.27870958122
 30
0.0
 11
-100.38799999999991
 21
-2236.27870958122
 31
0.0
  0
LINE
  5
478
  8
DATA
  6
CONTINUOUS
 62
     7
 10
-106.387999999999
 20
-2221.9892904187759
 30
0.0
 11
-100.38799999999991
 21
-2221.9892904187759
 31
0.0
  0
LINE
  5
479
  8
DATA
  6
CONTINUOUS
 62
     7
 10
-106.387999999999
 20
-2229.1339999999968
 30
0.0
 11
-100.387999999999
 21
-2229.134
 31
0.0
  0
ARC
  5
47A
  8
DATA
  6
CONTINUOUS
 62
     7
 10
-193.8880000000008
 20
-2366.3839999999991
 30
0.0
 40
3.0
 50
180.0
 51
270.0
  0
CIRCLE
  5
47B
  8
DATA
  6
CONTINUOUS
 62
     7
 10
-185.88799999999989
 20
-2229.1339999999991
 30
0.0
 40
6.25
  0
CIRCLE
  5
47C
  8
DATA
  6
CONTINUOUS
 62
     7
 10
-185.88799999999989
 20
-2229.1339999999991
 30
0.0
 40
3.0
  0
CIRCLE
  5
47D
  8
DATA
  6
CONTINUOUS
 62
     7
 10
-64.387999999999934
 20
-2101.1339999999991
 30
0.0
 40
3.0
  0
CIRCLE
  5
47E
  8
DATA
  6
CONTINUOUS
 62
     7
 10
-64.387999999999934
 20
-2101.1339999999991
 30
0.0
 40
6.25
  0
LINE
  5
47F
  8
DATA
  6
CONTINUOUS
 62
     7
 10
-163.8880000000008
 20
-2113.884
 30
0.0
 11
-163.8880000000008
 21
-2344.384
 31
0.0
  0
LINE
  5
480
  8
DATA
  6
CONTINUOUS
 62
     7
 10
-196.8880000000008
 20
-2366.3839999999991
 30
0.0
 11
-196.8880000000008
 21
-2091.8839999999982
 31
0.0
  0
CIRCLE
  5
481
  8
DATA
  6
CONTINUOUS
 62
     7
 10
-185.88799999999989
 20
-2357.1339999999991
 30
0.0
 40
3.0
  0
CIRCLE
  5
482
  8
DATA
  6
CONTINUOUS
 62
     7
 10
-185.88799999999989
 20
-2357.1339999999991
 30
0.0
 40
6.25
  0
CIRCLE
  5
483
  8
DATA
  6
CONTINUOUS
 62
     7
 10
-185.88799999999989
 20
-2101.1339999999991
 30
0.0
 40
3.0
  0
CIRCLE
  5
484
  8
DATA
  6
CONTINUOUS
 62
     7
 10
-185.88799999999989
 20
-2101.1339999999991
 30
0.0
 40
6.25
  0
ARC
  5
485
  8
DATA
  6
CONTINUOUS
 62
     7
 10
-193.8880000000008
 20
-2091.8839999999982
 30
0.0
 40
3.0
 50
90.0
 51
180.0
  0
CIRCLE
  5
486
  8
DATA
  6
CONTINUOUS
 62
     7
 10
-64.387999999999934
 20
-2357.1339999999991
 30
0.0
 40
3.0
  0
CIRCLE
  5
487
  8
DATA
  6
CONTINUOUS
 62
     7
 10
-64.387999999999934
 20
-2357.1339999999991
 30
0.0
 40
6.25
  0
ARC
  5
488
  8
DATA
  6
CONTINUOUS
 62
     7
 10
-256.25073142069681
 20
-2504.9445468750082
 30
0.0
 40
401.8198918392082
 50
63.129501622310471
 51
76.711110265655535
  0
ARC
  5
489
  8
DATA
  6
CONTINUOUS
 62
     7
 10
106.9747314206879
 20
-1788.0734531250159
 30
0.0
 40
401.81989183918063
 50
243.12950162230959
 51
245.02928498638951
  0
ARC
  5
48A
  8
DATA
  6
CONTINUOUS
 62
     7
 10
106.9747314206879
 20
-2670.1945468749809
 30
0.0
 40
401.81989183918068
 50
114.9707150136106
 51
116.8704983776903
  0
ARC
  5
48B
  8
DATA
  6
CONTINUOUS
 62
     7
 10
-256.25073142069681
 20
-1953.3234531249891
 30
0.0
 40
401.81989183920791
 50
283.28888973434448
 51
290.52168524496881
  0
ARC
  5
48C
  8
DATA
  6
CONTINUOUS
 62
     7
 10
-256.25073142069681
 20
-1953.3234531249891
 30
0.0
 40
401.81989183920791
 50
291.05550834013638
 51
296.87049837768939
  0
LINE
  5
48D
  8
DATA
  6
CONTINUOUS
 62
     7
 10
-163.8880000000008
 20
-2113.884
 30
0.0
 11
9.3968759453009465
 21
-2113.884
 31
0.0
  0
LINE
  5
48E
  8
DATA
  6
CONTINUOUS
 62
     7
 10
-163.8880000000008
 20
-2344.384
 30
0.0
 11
-115.38799999999991
 21
-2344.384
 31
0.0
  0
LINE
  5
48F
  8
DATA
  6
CONTINUOUS
 62
     7
 10
-111.887999999999
 20
-2344.384
 30
0.0
 11
9.3968759453009465
 21
-2344.384
 31
0.0
  0
LINE
  5
490
  8
DATA
  6
CONTINUOUS
 62
     7
 10
-193.8880000000008
 20
-2369.3839999999991
 30
0.0
 11
-115.38799999999991
 21
-2369.3839999999991
 31
0.0
  0
LINE
  5
491
  8
DATA
  6
CONTINUOUS
 62
     7
 10
-996.89600000000155
 20
-2584.384
 30
0.0
 11
-951.89600000000166
 21
-2584.384
 31
0.0
  0
LINE
  5
492
  8
DATA
  6
CONTINUOUS
 62
     7
 10
-993.39600000000155
 20
-2596.634
 30
0.0
 11
-955.39600000000155
 21
-2596.634
 31
0.0
  0
LINE
  5
493
  8
DATA
  6
CONTINUOUS
 62
     7
 10
-993.39600000000155
 20
-2605.634
 30
0.0
 11
-955.39600000000155
 21
-2605.634
 31
0.0
  0
LINE
  5
494
  8
DATA
  6
CONTINUOUS
 62
     7
 10
-991.14600000000166
 20
-2604.134
 30
0.0
 11
-991.14600000000166
 21
-2598.134
 31
0.0
  0
LINE
  5
495
  8
DATA
  6
CONTINUOUS
 62
     7
 10
-976.14600000000064
 20
-2604.134
 30
0.0
 11
-991.14600000000166
 21
-2604.134
 31
0.0
  0
LINE
  5
496
  8
DATA
  6
CONTINUOUS
 62
     7
 10
-976.14600000000064
 20
-2598.134
 30
0.0
 11
-976.14600000000064
 21
-2604.134
 31
0.0
  0
LINE
  5
497
  8
DATA
  6
CONTINUOUS
 62
     7
 10
-991.14600000000166
 20
-2598.134
 30
0.0
 11
-976.14600000000064
 21
-2598.134
 31
0.0
  0
LINE
  5
498
  8
DATA
  6
CONTINUOUS
 62
     7
 10
-972.64600000000064
 20
-2604.134
 30
0.0
 11
-972.64600000000064
 21
-2598.134
 31
0.0
  0
LINE
  5
499
  8
DATA
  6
CONTINUOUS
 62
     7
 10
-957.64600000000155
 20
-2604.134
 30
0.0
 11
-972.64600000000064
 21
-2604.134
 31
0.0
  0
LINE
  5
49A
  8
DATA
  6
CONTINUOUS
 62
     7
 10
-957.64600000000155
 20
-2598.134
 30
0.0
 11
-957.64600000000155
 21
-2604.134
 31
0.0
  0
LINE
  5
49B
  8
DATA
  6
CONTINUOUS
 62
     7
 10
-972.64600000000064
 20
-2598.134
 30
0.0
 11
-957.64600000000155
 21
-2598.134
 31
0.0
  0
CIRCLE
  5
49C
  8
DATA
  6
CONTINUOUS
 62
     7
 10
-996.39600000000075
 20
-2590.8840000000009
 30
0.0
 40
3.0
  0
LINE
  5
49D
  8
DATA
  6
CONTINUOUS
 62
     7
 10
-998.39600000000166
 20
-2590.8840000000009
 30
0.0
 11
-994.39600000000053
 21
-2590.8840000000009
 31
0.0
  0
LINE
  5
49E
  8
DATA
  6
CONTINUOUS
 62
     7
 10
-996.39600000000075
 20
-2592.884
 30
0.0
 11
-996.39600000000075
 21
-2588.884
 31
0.0
  0
CIRCLE
  5
49F
  8
DATA
  6
CONTINUOUS
 62
     7
 10
-952.39600000000053
 20
-2590.8840000000009
 30
0.0
 40
3.0
  0
LINE
  5
4A0
  8
DATA
  6
CONTINUOUS
 62
     7
 10
-954.39600000000075
 20
-2590.8840000000009
 30
0.0
 11
-950.39600000000166
 21
-2590.8840000000009
 31
0.0
  0
LINE
  5
4A1
  8
DATA
  6
CONTINUOUS
 62
     7
 10
-952.39600000000053
 20
-2592.884
 30
0.0
 11
-952.39600000000053
 21
-2588.884
 31
0.0
  0
ARC
  5
4A2
  8
DATA
  6
CONTINUOUS
 62
     7
 10
-996.89600000000155
 20
-2590.384
 30
0.0
 40
6.0
 50
90.0
 51
180.0
  0
ARC
  5
4A3
  8
DATA
  6
CONTINUOUS
 62
     7
 10
-951.89600000000166
 20
-2590.384
 30
0.0
 40
6.0
 50
0.0
 51
90.0
  0
CIRCLE
  5
4A4
  8
DATA
  6
CONTINUOUS
 62
     7
 10
-904.39600000000075
 20
-2565.384
 30
0.0
 40
4.0
  0
LINE
  5
4A5
  8
DATA
  6
CONTINUOUS
 62
     7
 10
-906.39600000000064
 20
-2565.384
 30
0.0
 11
-902.39600000000155
 21
-2565.384
 31
0.0
  0
LINE
  5
4A6
  8
DATA
  6
CONTINUOUS
 62
     7
 10
-904.39600000000075
 20
-2567.384
 30
0.0
 11
-904.39600000000075
 21
-2563.384
 31
0.0
  0
ARC
  5
4A7
  8
DATA
  6
CONTINUOUS
 62
     7
 10
-918.39600000000155
 20
-2579.884
 30
0.0
 40
3.0
 50
0.0
 51
90.0
  0
ARC
  5
4A8
  8
DATA
  6
CONTINUOUS
 62
     7
 10
-903.89600000000166
 20
-2564.384
 30
0.0
 40
5.0
 50
0.0
 51
90.0
  0
TEXT
  5
4A9
  8
DATA
 62
     7
 10
-936.39889384291837
 20
-2597.335171875
 30
0.0
 40
5.7865142822265634
  1
2380
 41
0.8
 11
-936.39889384291837
 21
-2591.548657592773
 31
0.0
 73
     3
  0
LINE
  5
4AA
  8
DATA
  6
CONTINUOUS
 62
     7
 10
-937.89889384291837
 20
-2598.384
 30
0.0
 11
-937.89889384291837
 21
-2590.384
 31
0.0
  0
LINE
  5
4AB
  8
DATA
  6
CONTINUOUS
 62
     7
 10
-920.89600000000166
 20
-2598.384
 30
0.0
 11
-920.89600000000166
 21
-2590.384
 31
0.0
  0
LINE
  5
4AC
  8
DATA
  6
CONTINUOUS
 62
     7
 10
-937.89889384291837
 20
-2598.384
 30
0.0
 11
-920.89600000000166
 21
-2598.384
 31
0.0
  0
LINE
  5
4AD
  8
DATA
  6
CONTINUOUS
 62
     7
 10
-937.89889384291837
 20
-2590.384
 30
0.0
 11
-920.89600000000166
 21
-2590.384
 31
0.0
  0
LINE
  5
4AE
  8
DATA
  6
CONTINUOUS
 62
     7
 10
-939.89889384291837
 20
-2594.384
 30
0.0
 11
-937.89889384291837
 21
-2594.384
 31
0.0
  0
LINE
  5
4AF
  8
DATA
  6
CONTINUOUS
 62
     7
 10
-939.89889384291837
 20
-2594.384
 30
0.0
 11
-939.89889384291837
 21
-2600.384
 31
0.0
  0
LINE
  5
4B0
  8
DATA
  6
CONTINUOUS
 62
     7
 10
-926.64599999999962
 20
-2605.1567586640472
 30
0.0
 11
-926.64599999999962
 21
-2600.384
 31
0.0
  0
LINE
  5
4B1
  8
DATA
  6
CONTINUOUS
 62
     7
 10
-939.89889384291837
 20
-2600.384
 30
0.0
 11
-926.64599999999962
 21
-2600.384
 31
0.0
  0
LINE
  5
4B2
  8
DATA
  6
CONTINUOUS
 62
     7
 10
-939.89889384291837
 20
-2605.1567586640472
 30
0.0
 11
-936.14600000000155
 21
-2605.1567586640472
 31
0.0
  0
ARC
  5
4B3
  8
DATA
  6
CONTINUOUS
 62
     7
 10
24.612000000000069
 20
-2229.134
 30
0.0
 40
93.656727272727224
 50
252.12315186638091
 51
258.5416107242259
  0
ARC
  5
4B4
  8
DATA
  6
CONTINUOUS
 62
     7
 10
24.612000000000069
 20
-2229.134
 30
0.0
 40
93.656727272727807
 50
132.12315186638099
 51
167.87684813361901
  0
LINE
  5
4B5
  8
DATA
  6
CONTINUOUS
 62
     7
 10
-19.63321056466522
 20
-2169.525349887952
 30
0.0
 11
-38.206037558958101
 21
-2159.6683486269681
 31
0.0
  0
ARC
  5
4B6
  8
DATA
  6
CONTINUOUS
 62
     7
 10
24.612000000000069
 20
-2229.134
 30
0.0
 40
74.23496363636427
 50
126.5850794528985
 51
173.41492054710201
  0
LINE
  5
4B7
  8
DATA
  6
CONTINUOUS
 62
     7
 10
-66.956037558958101
 20
-2209.464809344574
 30
0.0
 11
-49.133210564666129
 21
-2220.6208487112331
 31
0.0
  0
LINE
  5
4B8
  8
DATA
  6
CONTINUOUS
 62
     7
 10
-51.73396533267897
 20
-2185.0556363636351
 30
0.0
 11
-49.135889121325818
 21
-2186.5556363636351
 31
0.0
  0
CIRCLE
  5
4B9
  8
DATA
  6
CONTINUOUS
 62
     7
 10
-50.43492722700195
 20
-2185.8056363636351
 30
0.0
 40
3.0
  0
LINE
  5
4BA
  8
DATA
  6
CONTINUOUS
 62
     7
 10
-49.68492722700195
 20
-2184.506598257959
 30
0.0
 11
-51.18492722700195
 21
-2187.1046744693122
 31
0.0
  0
LINE
  5
4BB
  8
DATA
  6
CONTINUOUS
 62
     7
 10
-49.68492722700195
 20
-2184.506598257959
 30
0.0
 11
-51.18492722700195
 21
-2187.1046744693122
 31
0.0
  0
LINE
  5
4BC
  8
DATA
  6
CONTINUOUS
 62
     7
 10
-4.8880000000008428
 20
-2297.255801400815
 30
0.0
 11
-4.1380000000017532
 21
-2318.2688420284571
 31
0.0
  0
LINE
  5
4BD
  8
DATA
  6
CONTINUOUS
 62
     7
 10
-4.8880000000008428
 20
-2247.384
 30
0.0
 11
-4.8880000000008428
 21
-2194.3839999999991
 31
0.0
  0
LINE
  5
4BE
  8
DATA
  6
CONTINUOUS
 62
     7
 10
24.612000000000069
 20
-2317.2907272727271
 30
0.0
 11
24.612000000000069
 21
-2314.2907272727271
 31
0.0
  0
CIRCLE
  5
4BF
  8
DATA
  6
CONTINUOUS
 62
     7
 10
24.612000000000069
 20
-2315.7907272727271
 30
0.0
 40
3.0
  0
LINE
  5
4C0
  8
DATA
  6
CONTINUOUS
 62
     7
 10
23.11199999999916
 20
-2315.7907272727271
 30
0.0
 11
26.11199999999916
 21
-2315.7907272727271
 31
0.0
  0
LINE
  5
4C1
  8
DATA
  6
CONTINUOUS
 62
     7
 10
23.11199999999916
 20
-2315.7907272727271
 30
0.0
 11
26.11199999999916
 21
-2315.7907272727271
 31
0.0
  0
CIRCLE
  5
4C2
  8
DATA
  6
CONTINUOUS
 62
     7
 10
10.111999999999149
 20
-2316.5485837675878
 30
0.0
 40
6.0
  0
CIRCLE
  5
4C3
  8
DATA
  6
CONTINUOUS
 62
     7
 10
10.111999999999149
 20
-2316.5485837675878
 30
0.0
 40
5.0
  0
LINE
  5
4C4
  8
DATA
  6
CONTINUOUS
 62
     7
 10
12.61199999999824
 20
-2214.384
 30
0.0
 11
12.61199999999824
 21
-2194.3839999999991
 31
0.0
  0
LINE
  5
4C5
  8
DATA
  6
CONTINUOUS
 62
     7
 10
1810.0
 20
-3575.0000000000009
 30
0.0
 11
2689.9999999999968
 21
-3575.0000000000009
 31
0.0
  0
LINE
  5
4C6
  8
DATA
  6
CONTINUOUS
 62
     7
 10
2429.9999999999991
 20
-3543.0000000000009
 30
0.0
 11
2069.9999999999982
 21
-3543.0000000000009
 31
0.0
  0
CIRCLE
  5
4C7
  8
DATA
  6
CONTINUOUS
 62
     7
 10
2074.0000000000041
 20
-3491.0000000000018
 30
0.0
 40
24.0
  0
LINE
  5
4C8
  8
DATA
  6
CONTINUOUS
 62
     7
 10
2057.9999999999991
 20
-3491.0000000000018
 30
0.0
 11
2090.0000000000009
 21
-3491.0000000000018
 31
0.0
  0
LINE
  5
4C9
  8
DATA
  6
CONTINUOUS
 62
     7
 10
2429.9999999999991
 20
-2982.9999999999991
 30
0.0
 11
2069.9999999999982
 21
-2982.9999999999991
 31
0.0
  0
CIRCLE
  5
4CA
  8
DATA
  6
CONTINUOUS
 62
     7
 10
2074.0000000000041
 20
-2931.0
 30
0.0
 40
24.0
  0
LINE
  5
4CB
  8
DATA
  6
CONTINUOUS
 62
     7
 10
2057.9999999999991
 20
-2931.0
 30
0.0
 11
2090.0000000000009
 21
-2931.0
 31
0.0
  0
LINE
  5
4CC
  8
DATA
  6
CONTINUOUS
 62
     7
 10
2069.9999999999982
 20
-3086.9999999999991
 30
0.0
 11
2429.9999999999991
 21
-3086.9999999999991
 31
0.0
  0
CIRCLE
  5
4CD
  8
DATA
  6
CONTINUOUS
 62
     7
 10
2074.0000000000041
 20
-3138.9999999999982
 30
0.0
 40
24.0
  0
LINE
  5
4CE
  8
DATA
  6
CONTINUOUS
 62
     7
 10
2057.9999999999991
 20
-3138.9999999999982
 30
0.0
 11
2090.0000000000009
 21
-3138.9999999999982
 31
0.0
  0
LINE
  5
4CF
  8
DATA
  6
CONTINUOUS
 62
     7
 10
1550.0
 20
-1395.0
 30
0.0
 11
2950.0
 21
-1395.0
 31
0.0
  0
TEXT
  5
4D0
  8
DATA
 62
     7
 10
1643.2184097056561
 20
-1352.734375
 30
0.0
 40
99.1973876953125
  1
コネクターパネル拡大図
 41
0.8
 11
1643.2184097056561
 21
-1253.536987304688
 31
0.0
 73
     3
  0
ARC
  5
4D1
  8
DATA
  6
CONTINUOUS
 62
     7
 10
2250.0
 20
-1001.120290909089
 30
0.0
 40
749.25381818181904
 50
252.12315186638079
 51
258.54161072422608
  0
ARC
  5
4D2
  8
DATA
  6
CONTINUOUS
 62
     7
 10
2250.0
 20
-1001.120290909089
 30
0.0
 40
593.87970909090916
 50
246.5850794528979
 51
293.41492054710221
  0
TEXT
  5
4D3
  8
DATA
 62
     7
 10
2043.7145428539991
 20
-2051.4453124999991
 30
0.0
 40
82.66448974609375
  1
BLK
 41
0.8
 11
2043.7145428539991
 21
-1968.7808227539051
 31
0.0
 73
     3
  0
LINE
  5
4D4
  8
DATA
  6
CONTINUOUS
 62
     7
 10
2069.9999999999982
 20
-2527.0000000000032
 30
0.0
 11
2429.9999999999991
 21
-2527.0000000000032
 31
0.0
  0
CIRCLE
  5
4D5
  8
DATA
  6
CONTINUOUS
 62
     7
 10
2074.0000000000041
 20
-2579.0000000000032
 30
0.0
 40
24.0
  0
LINE
  5
4D6
  8
DATA
  6
CONTINUOUS
 62
     7
 10
2057.9999999999991
 20
-2579.0000000000032
 30
0.0
 11
2090.0000000000009
 21
-2579.0000000000032
 31
0.0
  0
LINE
  5
4D7
  8
DATA
  6
CONTINUOUS
 62
     7
 10
1810.0
 20
-2495.0
 30
0.0
 11
2689.9999999999968
 21
-2495.0
 31
0.0
  0
LINE
  5
4D8
  8
DATA
  6
CONTINUOUS
 62
     7
 10
349.22399999999931
 20
-3500.0
 30
0.0
 11
349.22399999999931
 21
-2508.384
 31
0.0
  0
LINE
  5
4D9
  8
DATA
  6
CONTINUOUS
 62
     7
 10
330.22399999999931
 20
-2527.384
 30
0.0
 11
330.22399999999931
 21
-3481.0
 31
0.0
  0
LINE
  5
4DA
  8
DATA
  6
CONTINUOUS
 62
     7
 10
1810.0
 20
-3575.0000000000009
 30
0.0
 11
1810.0
 21
-2495.0
 31
0.0
  0
LINE
  5
4DB
  8
DATA
  6
CONTINUOUS
 62
     7
 10
2022.0000000000041
 20
-2934.9999999999968
 30
0.0
 11
2022.0000000000041
 21
-2574.9999999999982
 31
0.0
  0
LINE
  5
4DC
  8
DATA
  6
CONTINUOUS
 62
     7
 10
2022.0000000000041
 20
-3494.9999999999991
 30
0.0
 11
2022.0000000000041
 21
-3135.0
 31
0.0
  0
LINE
  5
4DD
  8
DATA
  6
CONTINUOUS
 62
     7
 10
2074.0000000000041
 20
-3507.0
 30
0.0
 11
2074.0000000000041
 21
-3475.0000000000041
 31
0.0
  0
ARC
  5
4DE
  8
DATA
  6
CONTINUOUS
 62
     7
 10
2069.9999999999982
 20
-3494.9999999999991
 30
0.0
 40
48.0
 50
180.0
 51
270.0
  0
LINE
  5
4DF
  8
DATA
  6
CONTINUOUS
 62
     7
 10
2074.0000000000041
 20
-2946.9999999999982
 30
0.0
 11
2074.0000000000041
 21
-2915.0000000000009
 31
0.0
  0
ARC
  5
4E0
  8
DATA
  6
CONTINUOUS
 62
     7
 10
2069.9999999999982
 20
-2934.9999999999968
 30
0.0
 40
48.0
 50
180.0
 51
270.0
  0
LINE
  5
4E1
  8
DATA
  6
CONTINUOUS
 62
     7
 10
2074.0000000000041
 20
-3155.0000000000032
 30
0.0
 11
2074.0000000000041
 21
-3123.0
 31
0.0
  0
ARC
  5
4E2
  8
DATA
  6
CONTINUOUS
 62
     7
 10
2069.9999999999982
 20
-3135.0
 30
0.0
 40
48.0
 50
90.0
 51
180.0
  0
ARC
  5
4E3
  8
DATA
  6
CONTINUOUS
 62
     7
 10
157.61200000000011
 20
-2501.384
 30
0.0
 40
3.5
 50
270.0
 51
0.0
  0
ARC
  5
4E4
  8
DATA
  6
CONTINUOUS
 62
     7
 10
157.61200000000011
 20
-2501.384
 30
0.0
 40
7.0
 50
270.0
 51
0.0
  0
LINE
  5
4E5
  8
DATA
  6
CONTINUOUS
 62
     7
 10
151.8619999999982
 20
-2504.8839999999991
 30
0.0
 11
151.8619999999982
 21
-2493.384
 31
0.0
  0
LINE
  5
4E6
  8
DATA
  6
CONTINUOUS
 62
     7
 10
151.8619999999982
 20
-2504.8839999999991
 30
0.0
 11
157.61200000000011
 21
-2504.8839999999991
 31
0.0
  0
LINE
  5
4E7
  8
DATA
  6
CONTINUOUS
 62
     7
 10
164.61200000000011
 20
-2501.384
 30
0.0
 11
164.61200000000011
 21
-2164.8839999999982
 31
0.0
  0
LINE
  5
4E8
  8
DATA
  6
CONTINUOUS
 62
     7
 10
161.1119999999982
 20
-2501.384
 30
0.0
 11
161.1119999999982
 21
-2158.8839999999968
 31
0.0
  0
LINE
  5
4E9
  8
DATA
  6
CONTINUOUS
 62
     7
 10
161.1120000000019
 20
-2164.8839999999982
 30
0.0
 11
164.6119999999982
 21
-2164.8839999999982
 31
0.0
  0
LINE
  5
4EA
  8
DATA
  6
CONTINUOUS
 62
     7
 10
117.2348913390169
 20
-2158.8839999999991
 30
0.0
 11
161.1120000000019
 21
-2158.8839999999991
 31
0.0
  0
LINE
  5
4EB
  8
DATA
  6
CONTINUOUS
 62
     7
 10
117.23489133902051
 20
-2299.384
 30
0.0
 11
161.11200000000011
 21
-2299.384
 31
0.0
  0
LINE
  5
4EC
  8
DATA
  6
CONTINUOUS
 62
     7
 10
157.61200000000011
 20
-2299.384
 30
0.0
 11
157.61200000000011
 21
-2158.8839999999968
 31
0.0
  0
LINE
  5
4ED
  8
DATA
  6
CONTINUOUS
 62
     7
 10
148.6120000000019
 20
-2224.6339999999991
 30
0.0
 11
149.61200000000011
 21
-2230.3052818196152
 31
0.0
  0
LINE
  5
4EE
  8
DATA
  6
CONTINUOUS
 62
     7
 10
147.11200000000011
 20
-2224.6339999999991
 30
0.0
 11
148.69894282637591
 21
-2233.634
 31
0.0
  0
LINE
  5
4EF
  8
DATA
  6
CONTINUOUS
 62
     7
 10
145.6120000000019
 20
-2224.6339999999991
 30
0.0
 11
147.198942826376
 21
-2233.634
 31
0.0
  0
LINE
  5
4F0
  8
DATA
  6
CONTINUOUS
 62
     7
 10
144.11200000000011
 20
-2224.6339999999991
 30
0.0
 11
145.69894282637591
 21
-2233.634
 31
0.0
  0
LINE
  5
4F1
  8
DATA
  6
CONTINUOUS
 62
     7
 10
144.11200000000011
 20
-2224.6339999999991
 30
0.0
 11
144.11200000000011
 21
-2233.634
 31
0.0
  0
LINE
  5
4F2
  8
DATA
  6
CONTINUOUS
 62
     7
 10
144.11200000000011
 20
-2233.6339999999982
 30
0.0
 11
149.61200000000011
 21
-2233.634
 31
0.0
  0
LINE
  5
4F3
  8
DATA
  6
CONTINUOUS
 62
     7
 10
144.11200000000011
 20
-2224.6339999999991
 30
0.0
 11
149.61200000000011
 21
-2224.6339999999991
 31
0.0
  0
LINE
  5
4F4
  8
DATA
  6
CONTINUOUS
 62
     7
 10
155.61200000000011
 20
-2236.27870958122
 30
0.0
 11
149.61200000000011
 21
-2236.27870958122
 31
0.0
  0
LINE
  5
4F5
  8
DATA
  6
CONTINUOUS
 62
     7
 10
155.61200000000011
 20
-2221.9892904187759
 30
0.0
 11
149.61200000000011
 21
-2221.9892904187759
 31
0.0
  0
LINE
  5
4F6
  8
DATA
  6
CONTINUOUS
 62
     7
 10
155.61200000000011
 20
-2229.1339999999968
 30
0.0
 11
149.61200000000011
 21
-2229.134
 31
0.0
  0
LINE
  5
4F7
  8
DATA
  6
CONTINUOUS
 62
     7
 10
157.61200000000011
 20
-2239.1339999999991
 30
0.0
 11
155.61200000000011
 21
-2239.1339999999968
 31
0.0
  0
LINE
  5
4F8
  8
DATA
  6
CONTINUOUS
 62
     7
 10
157.61200000000011
 20
-2219.134
 30
0.0
 11
155.6119999999982
 21
-2219.1339999999968
 31
0.0
  0
LINE
  5
4F9
  8
DATA
  6
CONTINUOUS
 62
     7
 10
155.61200000000011
 20
-2239.1339999999991
 30
0.0
 11
155.61200000000011
 21
-2219.1339999999968
 31
0.0
  0
LINE
  5
4FA
  8
DATA
  6
CONTINUOUS
 62
     7
 10
149.61200000000011
 20
-2236.27870958122
 30
0.0
 11
149.61200000000011
 21
-2221.9892904187759
 31
0.0
  0
LINE
  5
4FB
  8
DATA
  6
CONTINUOUS
 62
     7
 10
166.61200000000011
 20
-2236.27870958122
 30
0.0
 11
172.61199999999999
 21
-2236.27870958122
 31
0.0
  0
LINE
  5
4FC
  8
DATA
  6
CONTINUOUS
 62
     7
 10
166.61200000000011
 20
-2221.9892904187759
 30
0.0
 11
172.61199999999999
 21
-2221.9892904187759
 31
0.0
  0
LINE
  5
4FD
  8
DATA
  6
CONTINUOUS
 62
     7
 10
166.61200000000011
 20
-2229.1339999999968
 30
0.0
 11
172.61199999999999
 21
-2229.134
 31
0.0
  0
LINE
  5
4FE
  8
DATA
  6
CONTINUOUS
 62
     7
 10
164.6120000000019
 20
-2239.1339999999991
 30
0.0
 11
166.61200000000011
 21
-2239.1339999999968
 31
0.0
  0
LINE
  5
4FF
  8
DATA
  6
CONTINUOUS
 62
     7
 10
164.6120000000019
 20
-2219.134
 30
0.0
 11
166.6120000000019
 21
-2219.1339999999968
 31
0.0
  0
LINE
  5
500
  8
DATA
  6
CONTINUOUS
 62
     7
 10
166.61200000000011
 20
-2239.1339999999991
 30
0.0
 11
166.61200000000011
 21
-2219.1339999999968
 31
0.0
  0
LINE
  5
501
  8
DATA
  6
CONTINUOUS
 62
     7
 10
172.61199999999999
 20
-2236.27870958122
 30
0.0
 11
172.61199999999999
 21
-2221.9892904187759
 31
0.0
  0
CIRCLE
  5
502
  8
DATA
  6
CONTINUOUS
 62
     7
 10
235.11200000000011
 20
-2101.1339999999991
 30
0.0
 40
3.0
  0
CIRCLE
  5
503
  8
DATA
  6
CONTINUOUS
 62
     7
 10
235.11200000000011
 20
-2101.1339999999991
 30
0.0
 40
6.25
  0
CIRCLE
  5
504
  8
DATA
  6
CONTINUOUS
 62
     7
 10
113.61200000000009
 20
-2101.1339999999991
 30
0.0
 40
3.0
  0
CIRCLE
  5
505
  8
DATA
  6
CONTINUOUS
 62
     7
 10
113.61200000000009
 20
-2101.1339999999991
 30
0.0
 40
6.25
  0
ARC
  5
506
  8
DATA
  6
CONTINUOUS
 62
     7
 10
243.11200000000011
 20
-2091.8839999999982
 30
0.0
 40
3.0
 50
0.0
 51
90.0
  0
CIRCLE
  5
507
  8
DATA
  6
CONTINUOUS
 62
     7
 10
235.11200000000011
 20
-2357.1339999999991
 30
0.0
 40
3.0
  0
CIRCLE
  5
508
  8
DATA
  6
CONTINUOUS
 62
     7
 10
235.11200000000011
 20
-2357.1339999999991
 30
0.0
 40
6.25
  0
CIRCLE
  5
509
  8
DATA
  6
CONTINUOUS
 62
     7
 10
113.61200000000009
 20
-2357.1339999999991
 30
0.0
 40
3.0
  0
CIRCLE
  5
50A
  8
DATA
  6
CONTINUOUS
 62
     7
 10
113.61200000000009
 20
-2357.1339999999991
 30
0.0
 40
6.25
  0
ARC
  5
50B
  8
DATA
  6
CONTINUOUS
 62
     7
 10
243.11200000000011
 20
-2366.3839999999991
 30
0.0
 40
3.0
 50
270.0
 51
0.0
  0
CIRCLE
  5
50C
  8
DATA
  6
CONTINUOUS
 62
     7
 10
235.11200000000011
 20
-2229.1339999999991
 30
0.0
 40
3.0
  0
CIRCLE
  5
50D
  8
DATA
  6
CONTINUOUS
 62
     7
 10
235.11200000000011
 20
-2229.1339999999991
 30
0.0
 40
6.25
  0
LINE
  5
50E
  8
DATA
  6
CONTINUOUS
 62
     7
 10
213.11200000000011
 20
-2344.384
 30
0.0
 11
213.11200000000011
 21
-2113.884
 31
0.0
  0
LINE
  5
50F
  8
DATA
  6
CONTINUOUS
 62
     7
 10
246.11200000000011
 20
-2091.8839999999982
 30
0.0
 11
246.11200000000011
 21
-2366.3839999999991
 31
0.0
  0
ARC
  5
510
  8
DATA
  6
CONTINUOUS
 62
     7
 10
305.47473142069521
 20
-2504.9445468750082
 30
0.0
 40
401.8198918392082
 50
103.28888973434459
 51
116.8704983776897
  0
ARC
  5
511
  8
DATA
  6
CONTINUOUS
 62
     7
 10
-57.750731420688709
 20
-1788.0734531250159
 30
0.0
 40
401.81989183918017
 50
294.97071501361029
 51
296.87049837769041
  0
ARC
  5
512
  8
DATA
  6
CONTINUOUS
 62
     7
 10
-57.750731420688709
 20
-2670.1945468749809
 30
0.0
 40
401.81989183918063
 50
63.129501622309633
 51
65.029284986389641
  0
ARC
  5
513
  8
DATA
  6
CONTINUOUS
 62
     7
 10
305.47473142069521
 20
-1953.3234531249891
 30
0.0
 40
401.81989183920871
 50
243.12950162231041
 51
248.9444916598637
  0
ARC
  5
514
  8
DATA
  6
CONTINUOUS
 62
     7
 10
305.47473142069521
 20
-1953.3234531249891
 30
0.0
 40
401.8198918392082
 50
249.47831475503139
 51
256.71111026565541
  0
LINE
  5
515
  8
DATA
  6
CONTINUOUS
 62
     7
 10
39.827124054697371
 20
-2113.884
 30
0.0
 11
213.11200000000011
 21
-2113.884
 31
0.0
  0
LINE
  5
516
  8
DATA
  6
CONTINUOUS
 62
     7
 10
39.827124054697371
 20
-2344.384
 30
0.0
 11
161.1119999999982
 21
-2344.384
 31
0.0
  0
LINE
  5
517
  8
DATA
  6
CONTINUOUS
 62
     7
 10
164.61200000000011
 20
-2344.384
 30
0.0
 11
213.11200000000011
 21
-2344.384
 31
0.0
  0
LINE
  5
518
  8
DATA
  6
CONTINUOUS
 62
     7
 10
164.61200000000011
 20
-2369.3839999999991
 30
0.0
 11
243.11200000000011
 21
-2369.3839999999991
 31
0.0
  0
ARC
  5
519
  8
DATA
  6
CONTINUOUS
 62
     7
 10
24.612000000000069
 20
-2229.134
 30
0.0
 40
93.656727272726883
 50
12.123151866381059
 51
47.876848133619163
  0
LINE
  5
51A
  8
DATA
  6
CONTINUOUS
 62
     7
 10
87.430037558955505
 20
-2159.6683486269681
 30
0.0
 11
68.857210564663532
 21
-2169.525349887952
 31
0.0
  0
ARC
  5
51B
  8
DATA
  6
CONTINUOUS
 62
     7
 10
24.612000000000069
 20
-2229.134
 30
0.0
 40
93.656727272727267
 50
281.45838927577358
 51
287.87684813361909
  0
LINE
  5
51C
  8
DATA
  6
CONTINUOUS
 62
     7
 10
98.357210564664456
 20
-2220.6208487112331
 30
0.0
 11
116.1800375589564
 21
-2209.464809344574
 31
0.0
  0
ARC
  5
51D
  8
DATA
  6
CONTINUOUS
 62
     7
 10
24.612000000000069
 20
-2229.134
 30
0.0
 40
74.234963636362906
 50
6.5850794528977721
 51
53.414920547102511
  0
LINE
  5
51E
  8
DATA
  6
CONTINUOUS
 62
     7
 10
100.9579653326773
 20
-2185.0556363636351
 30
0.0
 11
98.359889121323249
 21
-2186.5556363636351
 31
0.0
  0
CIRCLE
  5
51F
  8
DATA
  6
CONTINUOUS
 62
     7
 10
99.658927227000277
 20
-2185.8056363636351
 30
0.0
 40
3.0
  0
LINE
  5
520
  8
DATA
  6
CONTINUOUS
 62
     7
 10
100.40892722700021
 20
-2187.1046744693122
 30
0.0
 11
98.908927227000277
 21
-2184.506598257959
 31
0.0
  0
LINE
  5
521
  8
DATA
  6
CONTINUOUS
 62
     7
 10
100.40892722700021
 20
-2187.1046744693122
 30
0.0
 11
98.908927227000277
 21
-2184.506598257959
 31
0.0
  0
LINE
  5
522
  8
DATA
  6
CONTINUOUS
 62
     7
 10
53.362000000000059
 20
-2318.2688420284571
 30
0.0
 11
54.112000000000073
 21
-2297.255801400815
 31
0.0
  0
LINE
  5
523
  8
DATA
  6
CONTINUOUS
 62
     7
 10
54.112000000000073
 20
-2194.3839999999991
 30
0.0
 11
54.112000000000073
 21
-2247.384
 31
0.0
  0
LINE
  5
524
  8
DATA
  6
CONTINUOUS
 62
     7
 10
36.61200000000008
 20
-2194.3839999999991
 30
0.0
 11
36.61200000000008
 21
-2214.384
 31
0.0
  0
LINE
  5
525
  8
DATA
  6
CONTINUOUS
 62
     7
 10
2014.000000000002
 20
-1546.0947021156139
 30
0.0
 11
2020.0000000000041
 21
-1714.1990271367481
 31
0.0
  0
LINE
  5
526
  8
DATA
  6
CONTINUOUS
 62
     7
 10
2074.0000000000041
 20
-2595.0000000000009
 30
0.0
 11
2074.0000000000041
 21
-2562.9999999999968
 31
0.0
  0
ARC
  5
527
  8
DATA
  6
CONTINUOUS
 62
     7
 10
2069.9999999999982
 20
-2574.9999999999982
 30
0.0
 40
48.0
 50
90.0
 51
180.0
  0
LINE
  5
528
  8
DATA
  6
CONTINUOUS
 62
     7
 10
2689.9999999999968
 20
-2495.0
 30
0.0
 11
2689.9999999999968
 21
-3575.0000000000009
 31
0.0
  0
LINE
  5
529
  8
DATA
  6
CONTINUOUS
 62
     7
 10
2478.0
 20
-2574.9999999999982
 30
0.0
 11
2478.0
 21
-2934.9999999999968
 31
0.0
  0
TEXT
  5
52A
  8
DATA
 62
     7
 10
2553.9768492566691
 20
-2630.6093750000009
 30
0.0
 40
46.2921142578125
  1
2380
 41
0.8
 11
2553.9768492566691
 21
-2584.3172607421889
 31
0.0
 73
     3
  0
LINE
  5
52B
  8
DATA
  6
CONTINUOUS
 62
     7
 10
2541.9768492566691
 20
-2639.0000000000009
 30
0.0
 11
2541.9768492566691
 21
-2575.0000000000009
 31
0.0
  0
LINE
  5
52C
  8
DATA
  6
CONTINUOUS
 62
     7
 10
2677.9999999999968
 20
-2639.0000000000009
 30
0.0
 11
2677.9999999999968
 21
-2575.0000000000009
 31
0.0
  0
TEXT
  5
52D
  8
DATA
 62
     7
 10
2750.0
 20
-3350.1562499999991
 30
0.0
 40
66.131591796875
  1
プッシュ式ターミナル
 41
0.8
 11
2750.0
 21
-3284.0246582031241
 31
0.0
 73
     3
  0
TEXT
  5
52E
  8
DATA
 62
     7
 10
2750.0
 20
-3200.15625
 30
0.0
 40
66.131591796875
  1
2035HPL (低域)
 41
0.8
 11
2750.0
 21
-3134.024658203125
 31
0.0
 73
     3
  0
LINE
  5
52F
  8
DATA
  6
CONTINUOUS
 62
     7
 10
2478.0
 20
-3135.0
 30
0.0
 11
2478.0
 21
-3494.9999999999991
 31
0.0
  0
LINE
  5
530
  8
DATA
  6
CONTINUOUS
 62
     7
 10
2097.9999999999982
 20
-3445.0000000000018
 30
0.0
 11
2097.9999999999982
 21
-3184.9999999999968
 31
0.0
  0
LINE
  5
531
  8
DATA
  6
CONTINUOUS
 62
     7
 10
2402.0
 20
-3184.9999999999968
 30
0.0
 11
2402.0
 21
-3445.0000000000018
 31
0.0
  0
LINE
  5
532
  8
DATA
  6
CONTINUOUS
 62
     7
 10
2130.0000000000018
 20
-3257.0
 30
0.0
 11
2130.0000000000018
 21
-3388.9999999999982
 31
0.0
  0
LINE
  5
533
  8
DATA
  6
CONTINUOUS
 62
     7
 10
2222.0
 20
-3257.0
 30
0.0
 11
2222.0
 21
-3388.9999999999982
 31
0.0
  0
LINE
  5
534
  8
DATA
  6
CONTINUOUS
 62
     7
 10
2278.000000000005
 20
-3257.0
 30
0.0
 11
2278.000000000005
 21
-3388.9999999999982
 31
0.0
  0
LINE
  5
535
  8
DATA
  6
CONTINUOUS
 62
     7
 10
2370.0000000000041
 20
-3257.0
 30
0.0
 11
2370.0000000000041
 21
-3388.9999999999982
 31
0.0
  0
LINE
  5
536
  8
DATA
  6
CONTINUOUS
 62
     7
 10
2402.0
 20
-3445.0000000000018
 30
0.0
 11
2097.9999999999982
 21
-3445.0000000000018
 31
0.0
  0
LINE
  5
537
  8
DATA
  6
CONTINUOUS
 62
     7
 10
2402.0
 20
-3388.9999999999982
 30
0.0
 11
2097.9999999999982
 21
-3388.9999999999982
 31
0.0
  0
LINE
  5
538
  8
DATA
  6
CONTINUOUS
 62
     7
 10
2164.0
 20
-3416.9999999999968
 30
0.0
 11
2188.0000000000009
 21
-3416.9999999999968
 31
0.0
  0
LINE
  5
539
  8
DATA
  6
CONTINUOUS
 62
     7
 10
2222.0
 20
-3360.9999999999991
 30
0.0
 11
2130.0000000000018
 21
-3360.9999999999991
 31
0.0
  0
LINE
  5
53A
  8
DATA
  6
CONTINUOUS
 62
     7
 10
2222.0
 20
-3333.0
 30
0.0
 11
2130.0000000000018
 21
-3333.0
 31
0.0
  0
LINE
  5
53B
  8
DATA
  6
CONTINUOUS
 62
     7
 10
2370.0000000000041
 20
-3360.9999999999991
 30
0.0
 11
2278.000000000005
 21
-3360.9999999999991
 31
0.0
  0
LINE
  5
53C
  8
DATA
  6
CONTINUOUS
 62
     7
 10
2370.0000000000041
 20
-3333.0
 30
0.0
 11
2278.000000000005
 21
-3333.0
 31
0.0
  0
CIRCLE
  5
53D
  8
DATA
  6
CONTINUOUS
 62
     7
 10
2176.0
 20
-3416.9999999999968
 30
0.0
 40
18.0
  0
LINE
  5
53E
  8
DATA
  6
CONTINUOUS
 62
     7
 10
2312.0000000000041
 20
-3416.9999999999968
 30
0.0
 11
2336.000000000005
 21
-3416.9999999999968
 31
0.0
  0
CIRCLE
  5
53F
  8
DATA
  6
CONTINUOUS
 62
     7
 10
2324.0000000000041
 20
-3416.9999999999968
 30
0.0
 40
18.0
  0
LINE
  5
540
  8
DATA
  6
CONTINUOUS
 62
     7
 10
2324.0000000000041
 20
-3405.0000000000032
 30
0.0
 11
2324.0000000000041
 21
-3428.9999999999968
 31
0.0
  0
CIRCLE
  5
541
  8
DATA
  6
CONTINUOUS
 62
     7
 10
2426.0
 20
-3491.0000000000018
 30
0.0
 40
24.0
  0
LINE
  5
542
  8
DATA
  6
CONTINUOUS
 62
     7
 10
2410.0000000000018
 20
-3491.0000000000018
 30
0.0
 11
2442.0
 21
-3491.0000000000018
 31
0.0
  0
LINE
  5
543
  8
DATA
  6
CONTINUOUS
 62
     7
 10
2426.0
 20
-3507.0
 30
0.0
 11
2426.0
 21
-3475.0000000000041
 31
0.0
  0
ARC
  5
544
  8
DATA
  6
CONTINUOUS
 62
     7
 10
2429.9999999999991
 20
-3494.9999999999991
 30
0.0
 40
48.0
 50
270.0
 51
0.0
  0
TEXT
  5
545
  8
DATA
 62
     7
 10
2177.609446284207
 20
-3518.3515625
 30
0.0
 40
42.98553466796875
  1
INPUT
 41
0.8
 11
2177.609446284207
 21
-3475.3660278320308
 31
0.0
 73
     3
  0
LINE
  5
546
  8
DATA
  6
CONTINUOUS
 62
     7
 10
2097.9999999999982
 20
-2885.0
 30
0.0
 11
2097.9999999999982
 21
-2625.0000000000018
 31
0.0
  0
LINE
  5
547
  8
DATA
  6
CONTINUOUS
 62
     7
 10
2402.0
 20
-2885.0
 30
0.0
 11
2097.9999999999982
 21
-2885.0
 31
0.0
  0
LINE
  5
548
  8
DATA
  6
CONTINUOUS
 62
     7
 10
2402.0
 20
-2625.0000000000018
 30
0.0
 11
2402.0
 21
-2885.0
 31
0.0
  0
CIRCLE
  5
549
  8
DATA
  6
CONTINUOUS
 62
     7
 10
2176.0
 20
-2857.0000000000009
 30
0.0
 40
18.0
  0
CIRCLE
  5
54A
  8
DATA
  6
CONTINUOUS
 62
     7
 10
2324.0000000000041
 20
-2857.0000000000009
 30
0.0
 40
18.0
  0
LINE
  5
54B
  8
DATA
  6
CONTINUOUS
 62
     7
 10
2324.0000000000041
 20
-2845.0000000000018
 30
0.0
 11
2324.0000000000041
 21
-2869.0000000000009
 31
0.0
  0
CIRCLE
  5
54C
  8
DATA
  6
CONTINUOUS
 62
     7
 10
2426.0
 20
-2931.0
 30
0.0
 40
24.0
  0
LINE
  5
54D
  8
DATA
  6
CONTINUOUS
 62
     7
 10
2410.0000000000018
 20
-2931.0
 30
0.0
 11
2442.0
 21
-2931.0
 31
0.0
  0
LINE
  5
54E
  8
DATA
  6
CONTINUOUS
 62
     7
 10
2426.0
 20
-2946.9999999999982
 30
0.0
 11
2426.0
 21
-2915.0000000000009
 31
0.0
  0
ARC
  5
54F
  8
DATA
  6
CONTINUOUS
 62
     7
 10
2429.9999999999991
 20
-2934.9999999999968
 30
0.0
 40
48.0
 50
270.0
 51
0.0
  0
LINE
  5
550
  8
DATA
  6
CONTINUOUS
 62
     7
 10
2097.9999999999982
 20
-3184.9999999999968
 30
0.0
 11
2402.0
 21
-3184.9999999999968
 31
0.0
  0
LINE
  5
551
  8
DATA
  6
CONTINUOUS
 62
     7
 10
2097.9999999999982
 20
-3257.0
 30
0.0
 11
2402.0
 21
-3257.0
 31
0.0
  0
LINE
  5
552
  8
DATA
  6
CONTINUOUS
 62
     7
 10
2115.9999999999991
 20
-3245.0
 30
0.0
 11
2115.9999999999991
 21
-3196.9999999999968
 31
0.0
  0
LINE
  5
553
  8
DATA
  6
CONTINUOUS
 62
     7
 10
2236.0000000000041
 20
-3245.0
 30
0.0
 11
2115.9999999999991
 21
-3245.0
 31
0.0
  0
LINE
  5
554
  8
DATA
  6
CONTINUOUS
 62
     7
 10
2236.0000000000041
 20
-3196.9999999999968
 30
0.0
 11
2236.0000000000041
 21
-3245.0
 31
0.0
  0
LINE
  5
555
  8
DATA
  6
CONTINUOUS
 62
     7
 10
2115.9999999999991
 20
-3196.9999999999968
 30
0.0
 11
2236.0000000000041
 21
-3196.9999999999968
 31
0.0
  0
LINE
  5
556
  8
DATA
  6
CONTINUOUS
 62
     7
 10
2264.0000000000018
 20
-3245.0
 30
0.0
 11
2264.0000000000018
 21
-3196.9999999999968
 31
0.0
  0
LINE
  5
557
  8
DATA
  6
CONTINUOUS
 62
     7
 10
2383.9999999999991
 20
-3245.0
 30
0.0
 11
2264.0000000000018
 21
-3245.0
 31
0.0
  0
LINE
  5
558
  8
DATA
  6
CONTINUOUS
 62
     7
 10
2383.9999999999991
 20
-3196.9999999999968
 30
0.0
 11
2383.9999999999991
 21
-3245.0
 31
0.0
  0
LINE
  5
559
  8
DATA
  6
CONTINUOUS
 62
     7
 10
2264.0000000000018
 20
-3196.9999999999968
 30
0.0
 11
2383.9999999999991
 21
-3196.9999999999968
 31
0.0
  0
CIRCLE
  5
55A
  8
DATA
  6
CONTINUOUS
 62
     7
 10
2426.0
 20
-3138.9999999999982
 30
0.0
 40
24.0
  0
LINE
  5
55B
  8
DATA
  6
CONTINUOUS
 62
     7
 10
2410.0000000000018
 20
-3138.9999999999982
 30
0.0
 11
2442.0
 21
-3138.9999999999982
 31
0.0
  0
LINE
  5
55C
  8
DATA
  6
CONTINUOUS
 62
     7
 10
2426.0
 20
-3155.0000000000032
 30
0.0
 11
2426.0
 21
-3123.0
 31
0.0
  0
ARC
  5
55D
  8
DATA
  6
CONTINUOUS
 62
     7
 10
2429.9999999999991
 20
-3135.0
 30
0.0
 40
48.0
 50
0.0
 51
90.0
  0
TEXT
  5
55E
  8
DATA
 62
     7
 10
2113.316180338159
 20
-2958.3515625000009
 30
0.0
 40
42.98553466796875
  1
HF OUTPUT
 41
0.8
 11
2113.316180338159
 21
-2915.3660278320322
 31
0.0
 73
     3
  0
LINE
  5
55F
  8
DATA
  6
CONTINUOUS
 62
     7
 10
2541.9768492566691
 20
-2895.0000000000009
 30
0.0
 11
2541.9768492566691
 21
-2831.0000000000009
 31
0.0
  0
LINE
  5
560
  8
DATA
  6
CONTINUOUS
 62
     7
 10
2677.9999999999968
 20
-2895.0000000000009
 30
0.0
 11
2677.9999999999968
 21
-2831.0000000000009
 31
0.0
  0
LINE
  5
561
  8
DATA
  6
CONTINUOUS
 62
     7
 10
2541.9768492566691
 20
-2894.9999999999991
 30
0.0
 11
2677.9999999999968
 21
-2895.0000000000009
 31
0.0
  0
TEXT
  5
562
  8
DATA
 62
     7
 10
2553.9768492566691
 20
-2886.6093750000018
 30
0.0
 40
46.2921142578125
  1
2360
 41
0.8
 11
2553.9768492566691
 21
-2840.3172607421889
 31
0.0
 73
     3
  0
TEXT
  5
563
  8
DATA
 62
     7
 10
2520.226023191412
 20
-3021.5781250000041
 30
0.0
 40
33.0657958984375
  1
SWITCH
 41
0.8
 11
2520.226023191412
 21
-2988.512329101567
 31
0.0
 73
     3
  0
TEXT
  5
564
  8
DATA
 62
     7
 10
2493.9442389869041
 20
-2981.5781250000041
 30
0.0
 40
33.0657958984375
  1
SELECTOR
 41
0.8
 11
2493.9442389869041
 21
-2948.512329101567
 31
0.0
 73
     3
  0
TEXT
  5
565
  8
DATA
 62
     7
 10
2537.2080991389362
 20
-2941.5781250000018
 30
0.0
 40
33.0657958984375
  1
HORN
 41
0.8
 11
2537.2080991389362
 21
-2908.5123291015648
 31
0.0
 73
     3
  0
LINE
  5
566
  8
DATA
  6
CONTINUOUS
 62
     7
 10
2097.9999999999982
 20
-2625.0000000000018
 30
0.0
 11
2402.0
 21
-2625.0000000000018
 31
0.0
  0
LINE
  5
567
  8
DATA
  6
CONTINUOUS
 62
     7
 10
2097.9999999999982
 20
-2696.9999999999982
 30
0.0
 11
2402.0
 21
-2696.9999999999982
 31
0.0
  0
LINE
  5
568
  8
DATA
  6
CONTINUOUS
 62
     7
 10
2402.0
 20
-2829.0000000000018
 30
0.0
 11
2097.9999999999982
 21
-2829.0000000000018
 31
0.0
  0
LINE
  5
569
  8
DATA
  6
CONTINUOUS
 62
     7
 10
2115.9999999999991
 20
-2684.9999999999968
 30
0.0
 11
2115.9999999999991
 21
-2637.0000000000018
 31
0.0
  0
LINE
  5
56A
  8
DATA
  6
CONTINUOUS
 62
     7
 10
2236.0000000000041
 20
-2684.9999999999968
 30
0.0
 11
2115.9999999999991
 21
-2684.9999999999968
 31
0.0
  0
LINE
  5
56B
  8
DATA
  6
CONTINUOUS
 62
     7
 10
2236.0000000000041
 20
-2637.0000000000018
 30
0.0
 11
2236.0000000000041
 21
-2684.9999999999968
 31
0.0
  0
LINE
  5
56C
  8
DATA
  6
CONTINUOUS
 62
     7
 10
2115.9999999999991
 20
-2637.0000000000018
 30
0.0
 11
2236.0000000000041
 21
-2637.0000000000018
 31
0.0
  0
LINE
  5
56D
  8
DATA
  6
CONTINUOUS
 62
     7
 10
2164.0
 20
-2857.0000000000009
 30
0.0
 11
2188.0000000000009
 21
-2857.0000000000009
 31
0.0
  0
LINE
  5
56E
  8
DATA
  6
CONTINUOUS
 62
     7
 10
2264.0000000000018
 20
-2684.9999999999968
 30
0.0
 11
2264.0000000000018
 21
-2637.0000000000018
 31
0.0
  0
LINE
  5
56F
  8
DATA
  6
CONTINUOUS
 62
     7
 10
2383.9999999999991
 20
-2684.9999999999968
 30
0.0
 11
2264.0000000000018
 21
-2684.9999999999968
 31
0.0
  0
LINE
  5
570
  8
DATA
  6
CONTINUOUS
 62
     7
 10
2383.9999999999991
 20
-2637.0000000000018
 30
0.0
 11
2383.9999999999991
 21
-2684.9999999999968
 31
0.0
  0
LINE
  5
571
  8
DATA
  6
CONTINUOUS
 62
     7
 10
2264.0000000000018
 20
-2637.0000000000018
 30
0.0
 11
2383.9999999999991
 21
-2637.0000000000018
 31
0.0
  0
LINE
  5
572
  8
DATA
  6
CONTINUOUS
 62
     7
 10
2222.0
 20
-2800.9999999999968
 30
0.0
 11
2130.0000000000018
 21
-2800.9999999999968
 31
0.0
  0
LINE
  5
573
  8
DATA
  6
CONTINUOUS
 62
     7
 10
2222.0
 20
-2772.9999999999991
 30
0.0
 11
2130.0000000000018
 21
-2772.9999999999991
 31
0.0
  0
LINE
  5
574
  8
DATA
  6
CONTINUOUS
 62
     7
 10
2130.0000000000018
 20
-2696.9999999999982
 30
0.0
 11
2130.0000000000018
 21
-2829.0000000000018
 31
0.0
  0
LINE
  5
575
  8
DATA
  6
CONTINUOUS
 62
     7
 10
2222.0
 20
-2696.9999999999982
 30
0.0
 11
2222.0
 21
-2829.0000000000018
 31
0.0
  0
LINE
  5
576
  8
DATA
  6
CONTINUOUS
 62
     7
 10
2370.0000000000041
 20
-2800.9999999999968
 30
0.0
 11
2278.000000000005
 21
-2800.9999999999968
 31
0.0
  0
LINE
  5
577
  8
DATA
  6
CONTINUOUS
 62
     7
 10
2370.0000000000041
 20
-2772.9999999999991
 30
0.0
 11
2278.000000000005
 21
-2772.9999999999991
 31
0.0
  0
LINE
  5
578
  8
DATA
  6
CONTINUOUS
 62
     7
 10
2278.000000000005
 20
-2696.9999999999982
 30
0.0
 11
2278.000000000005
 21
-2829.0000000000018
 31
0.0
  0
LINE
  5
579
  8
DATA
  6
CONTINUOUS
 62
     7
 10
2370.0000000000041
 20
-2696.9999999999982
 30
0.0
 11
2370.0000000000041
 21
-2829.0000000000018
 31
0.0
  0
LINE
  5
57A
  8
DATA
  6
CONTINUOUS
 62
     7
 10
2312.0000000000041
 20
-2857.0000000000009
 30
0.0
 11
2336.000000000005
 21
-2857.0000000000009
 31
0.0
  0
CIRCLE
  5
57B
  8
DATA
  6
CONTINUOUS
 62
     7
 10
2593.9999999999941
 20
-2758.9999999999991
 30
0.0
 40
24.0
  0
CIRCLE
  5
57C
  8
DATA
  6
CONTINUOUS
 62
     7
 10
2593.9999999999941
 20
-2758.9999999999991
 30
0.0
 40
58.0
  0
LINE
  5
57D
  8
DATA
  6
CONTINUOUS
 62
     7
 10
2542.0
 20
-2758.9999999999991
 30
0.0
 11
2568.0000000000041
 21
-2804.033320996793
 31
0.0
  0
LINE
  5
57E
  8
DATA
  6
CONTINUOUS
 62
     7
 10
2568.0000000000041
 20
-2804.033320996793
 30
0.0
 11
2619.9999999999968
 21
-2804.0333209967862
 31
0.0
  0
LINE
  5
57F
  8
DATA
  6
CONTINUOUS
 62
     7
 10
2619.9999999999968
 20
-2804.0333209967862
 30
0.0
 11
2645.9999999999991
 21
-2758.9999999999991
 31
0.0
  0
LINE
  5
580
  8
DATA
  6
CONTINUOUS
 62
     7
 10
2645.9999999999991
 20
-2758.9999999999991
 30
0.0
 11
2620.0000000000041
 21
-2713.966679003212
 31
0.0
  0
LINE
  5
581
  8
DATA
  6
CONTINUOUS
 62
     7
 10
2620.0000000000041
 20
-2713.966679003212
 30
0.0
 11
2567.9999999999968
 21
-2713.9666790032052
 31
0.0
  0
LINE
  5
582
  8
DATA
  6
CONTINUOUS
 62
     7
 10
2567.9999999999968
 20
-2713.9666790032052
 30
0.0
 11
2542.0
 21
-2758.9999999999991
 31
0.0
  0
LINE
  5
583
  8
DATA
  6
CONTINUOUS
 62
     7
 10
2541.9768492566691
 20
-2638.9999999999982
 30
0.0
 11
2677.9999999999968
 21
-2639.0000000000009
 31
0.0
  0
LINE
  5
584
  8
DATA
  6
CONTINUOUS
 62
     7
 10
2525.9768492566641
 20
-2606.9999999999982
 30
0.0
 11
2541.9768492566691
 21
-2606.9999999999982
 31
0.0
  0
LINE
  5
585
  8
DATA
  6
CONTINUOUS
 62
     7
 10
2525.9768492566641
 20
-2606.9999999999982
 30
0.0
 11
2525.9768492566641
 21
-2654.9999999999941
 31
0.0
  0
LINE
  5
586
  8
DATA
  6
CONTINUOUS
 62
     7
 10
2623.000000000005
 20
-2708.770526580503
 30
0.0
 11
2632.000000000005
 21
-2693.1820693123841
 31
0.0
  0
LINE
  5
587
  8
DATA
  6
CONTINUOUS
 62
     7
 10
2632.000000000005
 20
-2693.1820693123768
 30
0.0
 11
2632.000000000005
 21
-2655.0
 31
0.0
  0
LINE
  5
588
  8
DATA
  6
CONTINUOUS
 62
     7
 10
2525.9768492566641
 20
-2654.9999999999941
 30
0.0
 11
2632.000000000005
 21
-2655.0
 31
0.0
  0
LINE
  5
589
  8
DATA
  6
CONTINUOUS
 62
     7
 10
2555.9999999999968
 20
-2693.1820693123768
 30
0.0
 11
2564.9999999999968
 21
-2708.7705265804998
 31
0.0
  0
LINE
  5
58A
  8
DATA
  6
CONTINUOUS
 62
     7
 10
2525.9768492566641
 20
-2693.1820693123768
 30
0.0
 11
2555.9999999999968
 21
-2693.1820693123768
 31
0.0
  0
LINE
  5
58B
  8
DATA
  6
CONTINUOUS
 62
     7
 10
2541.9768492566691
 20
-2831.0000000000009
 30
0.0
 11
2677.9999999999968
 21
-2831.0000000000009
 31
0.0
  0
LINE
  5
58C
  8
DATA
  6
CONTINUOUS
 62
     7
 10
2525.9768492566641
 20
-2862.9999999999991
 30
0.0
 11
2541.9768492566691
 21
-2862.9999999999991
 31
0.0
  0
LINE
  5
58D
  8
DATA
  6
CONTINUOUS
 62
     7
 10
2525.9768492566641
 20
-2693.1820693123768
 30
0.0
 11
2525.9768492566641
 21
-2862.9999999999991
 31
0.0
  0
LINE
  5
58E
  8
DATA
  6
CONTINUOUS
 62
     7
 10
2578.70373881866
 20
-2777.4939015319178
 30
0.0
 11
2602.3680579510678
 21
-2736.5060984680781
 31
0.0
  0
LINE
  5
58F
  8
DATA
  6
CONTINUOUS
 62
     7
 10
2585.6319420489331
 20
-2781.4939015319151
 30
0.0
 11
2609.29626118134
 21
-2740.5060984680781
 31
0.0
  0
TEXT
  5
590
  8
DATA
 62
     7
 10
2750.0
 20
-1850.156249999998
 30
0.0
 40
66.131591796875
  1
プッシュ式ターミナル
 41
0.8
 11
2750.0
 21
-1784.024658203123
 31
0.0
 73
     3
  0
TEXT
  5
591
  8
DATA
 62
     7
 10
2750.0
 20
-1700.1562499999991
 30
0.0
 40
66.131591796875
  1
2446H (高域)
 41
0.8
 11
2750.0
 21
-1634.0246582031241
 31
0.0
 73
     3
  0
TEXT
  5
592
  8
DATA
 62
     7
 10
2400.0
 20
-2400.1562499999991
 30
0.0
 40
66.131591796875
  1
2446H (高域)へ外部配線
 41
0.8
 11
2400.0
 21
-2334.0246582031241
 31
0.0
 73
     3
  0
CIRCLE
  5
593
  8
DATA
  6
CONTINUOUS
 62
     7
 10
2426.0
 20
-2579.0000000000032
 30
0.0
 40
24.0
  0
LINE
  5
594
  8
DATA
  6
CONTINUOUS
 62
     7
 10
2480.0000000000041
 20
-1714.1990271367481
 30
0.0
 11
2486.0000000000041
 21
-1546.0947021156139
 31
0.0
  0
ARC
  5
595
  8
DATA
  6
CONTINUOUS
 62
     7
 10
2250.0
 20
-1001.120290909089
 30
0.0
 40
749.25381818181881
 50
281.45838927577398
 51
287.87684813361892
  0
CIRCLE
  5
596
  8
DATA
  6
CONTINUOUS
 62
     7
 10
2134.0
 20
-1700.436961049794
 30
0.0
 40
40.0
  0
CIRCLE
  5
597
  8
DATA
  6
CONTINUOUS
 62
     7
 10
2134.0
 20
-1700.436961049794
 30
0.0
 40
48.0
  0
LINE
  5
598
  8
DATA
  6
CONTINUOUS
 62
     7
 10
2238.0
 20
-1694.3741090909059
 30
0.0
 11
2262.0
 21
-1694.3741090909059
 31
0.0
  0
LINE
  5
599
  8
DATA
  6
CONTINUOUS
 62
     7
 10
2238.0
 20
-1694.3741090909059
 30
0.0
 11
2262.0
 21
-1694.3741090909059
 31
0.0
  0
CIRCLE
  5
59A
  8
DATA
  6
CONTINUOUS
 62
     7
 10
2250.0
 20
-1694.3741090909059
 30
0.0
 40
24.0
  0
LINE
  5
59B
  8
DATA
  6
CONTINUOUS
 62
     7
 10
2250.0
 20
-1706.374109090907
 30
0.0
 11
2250.0
 21
-1682.374109090905
 31
0.0
  0
CIRCLE
  5
59C
  8
DATA
  6
CONTINUOUS
 62
     7
 10
2366.0
 20
-1700.436961049794
 30
0.0
 40
40.0
  0
CIRCLE
  5
59D
  8
DATA
  6
CONTINUOUS
 62
     7
 10
2366.0
 20
-1700.436961049794
 30
0.0
 40
48.0
  0
ARC
  5
59E
  8
DATA
  6
CONTINUOUS
 62
     7
 10
2250.0
 20
-1001.120290909089
 30
0.0
 40
749.25381818181825
 50
262.62188751734601
 51
277.37811248265399
  0
LINE
  5
59F
  8
DATA
  6
CONTINUOUS
 62
     7
 10
2134.0
 20
-1794.9999999999991
 30
0.0
 11
2134.0
 21
-1945.0
 31
0.0
  0
LINE
  5
5A0
  8
DATA
  6
CONTINUOUS
 62
     7
 10
2120.6671999999999
 20
-1874.9999999999991
 30
0.0
 11
2134.0
 21
-1794.9999999999991
 31
0.0
  0
LINE
  5
5A1
  8
DATA
  6
CONTINUOUS
 62
     7
 10
2147.3328000000001
 20
-1874.9999999999991
 30
0.0
 11
2134.0
 21
-1794.9999999999991
 31
0.0
  0
LINE
  5
5A2
  8
DATA
  6
CONTINUOUS
 62
     7
 10
2366.0
 20
-1794.9999999999991
 30
0.0
 11
2366.0
 21
-1945.0
 31
0.0
  0
LINE
  5
5A3
  8
DATA
  6
CONTINUOUS
 62
     7
 10
2352.6671999999999
 20
-1874.9999999999991
 30
0.0
 11
2366.0
 21
-1794.9999999999991
 31
0.0
  0
LINE
  5
5A4
  8
DATA
  6
CONTINUOUS
 62
     7
 10
2379.3327999999979
 20
-1874.9999999999991
 30
0.0
 11
2366.0
 21
-1794.9999999999991
 31
0.0
  0
TEXT
  5
5A5
  8
DATA
 62
     7
 10
2273.7935756806792
 20
-2051.4453124999991
 30
0.0
 40
82.66448974609375
  1
RED
 41
0.8
 11
2273.7935756806792
 21
-1968.7808227539051
 31
0.0
 73
     3
  0
LINE
  5
5A6
  8
DATA
  6
CONTINUOUS
 62
     7
 10
2426.0
 20
-2595.0000000000009
 30
0.0
 11
2426.0
 21
-2562.9999999999968
 31
0.0
  0
ARC
  5
5A7
  8
DATA
  6
CONTINUOUS
 62
     7
 10
2429.9999999999991
 20
-2574.9999999999982
 30
0.0
 40
48.0
 50
0.0
 51
90.0
  0
LINE
  5
5A8
  8
DATA
  6
CONTINUOUS
 62
     7
 10
2410.0000000000018
 20
-2579.0000000000032
 30
0.0
 11
2442.0
 21
-2579.0000000000032
 31
0.0
  0
LINE
  5
5A9
  8
DATA
  6
CONTINUOUS
 62
     7
 10
2541.9768492566691
 20
-2575.0000000000009
 30
0.0
 11
2677.9999999999968
 21
-2575.0000000000009
 31
0.0
  0
LINE
  5
5AA
  8
DATA
  6
CONTINUOUS
 62
     7
 10
2210.0016000000001
 20
-2434.9999999999991
 30
0.0
 11
2250.0
 21
-2194.9999999999982
 31
0.0
  0
LINE
  5
5AB
  8
DATA
  6
CONTINUOUS
 62
     7
 10
2250.0
 20
-2194.9999999999982
 30
0.0
 11
2289.998399999999
 21
-2434.9999999999991
 31
0.0
  0
LINE
  5
5AC
  8
DATA
  6
CONTINUOUS
 62
     7
 10
2249.999999999995
 20
-2194.9999999999791
 30
0.0
 11
2249.9999999999968
 21
-2576.0000000000041
 31
0.0
  0
TEXT
  5
5AD
  8
DATA
 62
     7
 10
2000.0
 20
-4326.1018149999991
 30
0.0
 40
65.153645833333329
  1
2WAY映画館用スピーカーシステム
 41
0.8
 11
2000.0
 21
-4260.948169166666
 31
0.0
 73
     3
  0
TEXT
  5
5AE
  8
DATA
 62
     7
 10
2100.0
 20
-4477.0236150000001
 30
0.0
 40
97.73046875
  1
4670D
 41
0.8
 11
2100.0
 21
-4379.2931462500001
 31
0.0
 73
     3
  0
ARC
  5
5AF
  8
DATA
  6
CONTINUOUS
 62
     7
 10
-1067.7718066550619
 20
-2887.8921607472639
 30
0.0
 40
1.9126986889102631
 50
307.64190249756149
 51
354.26701928934608
  0
LINE
  5
5B0
  8
DATA
  6
CONTINUOUS
 62
     7
 10
-1116.9017948365019
 20
-2857.7511250184998
 30
0.0
 11
-1107.9350348365019
 21
-2836.3858450184998
 31
0.0
  0
LINE
  5
5B1
  8
DATA
  6
CONTINUOUS
 62
     7
 10
-1116.9017948365019
 20
-2857.7511250184998
 30
0.0
 11
-1125.757914836501
 21
-2836.3858450184998
 31
0.0
  0
LINE
  5
5B2
  8
DATA
  6
CONTINUOUS
 62
     7
 10
-1048.9313948365011
 20
-2896.3858450184998
 30
0.0
 11
-1048.9313948365011
 21
-2836.3858450184998
 31
0.0
  0
LINE
  5
5B3
  8
DATA
  6
CONTINUOUS
 62
     7
 10
-1037.418474836501
 20
-2836.3858450184998
 30
0.0
 11
-1037.418474836501
 21
-2887.1976850185001
 31
0.0
  0
LINE
  5
5B4
  8
DATA
  6
CONTINUOUS
 62
     7
 10
-1103.728374836501
 20
-2836.3858450184998
 30
0.0
 11
-1103.728374836501
 21
-2887.1976850185001
 31
0.0
  0
LINE
  5
5B5
  8
DATA
  6
CONTINUOUS
 62
     7
 10
-1092.658254836502
 20
-2836.3858450184998
 30
0.0
 11
-1092.658254836502
 21
-2887.1976850185001
 31
0.0
  0
LINE
  5
5B6
  8
DATA
  6
CONTINUOUS
 62
     7
 10
-1086.9017948365019
 20
-2836.3858450184998
 30
0.0
 11
-1086.9017948365019
 21
-2896.3858450184998
 31
0.0
  0
LINE
  5
5B7
  8
DATA
  6
CONTINUOUS
 62
     7
 10
-1076.827974836501
 20
-2842.0315450184971
 30
0.0
 11
-1076.827974836501
 21
-2861.2935850184981
 31
0.0
  0
LINE
  5
5B8
  8
DATA
  6
CONTINUOUS
 62
     7
 10
-1055.2364948365021
 20
-2860.179025018499
 30
0.0
 11
-1055.2364948365021
 21
-2846.1275650184989
 31
0.0
  0
LINE
  5
5B9
  8
DATA
  6
CONTINUOUS
 62
     7
 10
-1065.868674836501
 20
-2844.6884050184981
 30
0.0
 11
-1065.868674836501
 21
-2858.6367850185002
 31
0.0
  0
ARC
  5
5BA
  8
DATA
  6
CONTINUOUS
 62
     7
 10
-1105.949814836501
 20
-2880.9790450184969
 30
0.0
 40
15.47312055100755
 50
264.69085622153381
 51
323.99119915423449
  0
LINE
  5
5BB
  8
DATA
  6
CONTINUOUS
 62
     7
 10
-1112.141634836501
 20
-2877.5666050185
 30
0.0
 11
-1112.141634836501
 21
-2887.1975650185
 31
0.0
  0
LINE
  5
5BC
  8
DATA
  6
CONTINUOUS
 62
     7
 10
-1112.141634836501
 20
-2877.5666050185
 30
0.0
 11
-1122.104754836502
 21
-2877.5666050185
 31
0.0
  0
LINE
  5
5BD
  8
DATA
  6
CONTINUOUS
 62
     7
 10
-1122.104754836502
 20
-2877.5666050185
 30
0.0
 11
-1122.104754836502
 21
-2887.1975650185
 31
0.0
  0
ARC
  5
5BE
  8
DATA
  6
CONTINUOUS
 62
     7
 10
-1107.9139148365009
 20
-2887.3274050184991
 30
0.0
 40
4.1875729574543987
 50
269.71184879275029
 51
1.7759870057005851
  0
ARC
  5
5BF
  8
DATA
  6
CONTINUOUS
 62
     7
 10
-1107.9560948365011
 20
-2887.3274050184991
 30
0.0
 40
4.1875515447573699
 50
178.22401299429831
 51
270.28815120725238
  0
ARC
  5
5C0
  8
DATA
  6
CONTINUOUS
 62
     7
 10
-1108.813194836501
 20
-2880.9790450184969
 30
0.0
 40
15.47309542167938
 50
216.00880084575761
 51
275.30914377846312
  0
ARC
  5
5C1
  8
DATA
  6
CONTINUOUS
 62
     7
 10
-1115.1121148365021
 20
-2886.8583850184991
 30
0.0
 40
7.000801249055951
 50
182.7769954500086
 51
207.3596066671667
  0
CIRCLE
  5
5C2
  8
DATA
  6
CONTINUOUS
 62
     7
 10
-1116.292914836502
 20
-2866.0537450184988
 30
0.0
 40
5.7010800000002737
  0
LINE
  5
5C3
  8
DATA
  6
CONTINUOUS
 62
     7
 10
-1018.931394836501
 20
-2896.3857850184982
 30
0.0
 11
-1048.9313948365011
 21
-2896.3857850184982
 31
0.0
  0
LINE
  5
5C4
  8
DATA
  6
CONTINUOUS
 62
     7
 10
-1018.931394836501
 20
-2896.3857850184982
 30
0.0
 11
-1018.931394836501
 21
-2877.5665450184988
 31
0.0
  0
LINE
  5
5C5
  8
DATA
  6
CONTINUOUS
 62
     7
 10
-1018.931394836501
 20
-2877.5666050185
 30
0.0
 11
-1029.0051548365011
 21
-2877.5666050185
 31
0.0
  0
LINE
  5
5C6
  8
DATA
  6
CONTINUOUS
 62
     7
 10
-1029.0051548365011
 20
-2877.5666050185
 30
0.0
 11
-1029.0051548365011
 21
-2887.1975650185
 31
0.0
  0
LINE
  5
5C7
  8
DATA
  6
CONTINUOUS
 62
     7
 10
-1086.9017948365019
 20
-2896.3857850184982
 30
0.0
 11
-1065.868674836501
 21
-2896.3857250185001
 31
0.0
  0
LINE
  5
5C8
  8
DATA
  6
CONTINUOUS
 62
     7
 10
-1076.828034836501
 20
-2890.7400250184992
 30
0.0
 11
-1071.403674836502
 21
-2890.7400250184992
 31
0.0
  0
LINE
  5
5C9
  8
DATA
  6
CONTINUOUS
 62
     7
 10
-1076.827974836501
 20
-2890.7400250184992
 30
0.0
 11
-1076.827974836501
 21
-2867.0499850184988
 31
0.0
  0
LINE
  5
5CA
  8
DATA
  6
CONTINUOUS
 62
     7
 10
-1076.828034836501
 20
-2867.0499850184988
 30
0.0
 11
-1071.403674836502
 21
-2867.0499850184988
 31
0.0
  0
LINE
  5
5CB
  8
DATA
  6
CONTINUOUS
 62
     7
 10
-1065.868674836501
 20
-2888.0832250184999
 30
0.0
 11
-1065.868674836501
 21
-2869.7067850184981
 31
0.0
  0
ARC
  5
5CC
  8
DATA
  6
CONTINUOUS
 62
     7
 10
-1099.6508948365019
 20
-2886.8583850184991
 30
0.0
 40
7.0007912871909452
 50
332.64039333284478
 51
357.22300455000573
  0
ARC
  5
5CD
  8
DATA
  6
CONTINUOUS
 62
     7
 10
-1033.1907548365009
 20
-2887.3274050184991
 30
0.0
 40
4.1875729574543987
 50
269.71184879275029
 51
1.7759870057005851
  0
ARC
  5
5CE
  8
DATA
  6
CONTINUOUS
 62
     7
 10
-1033.232874836501
 20
-2887.3274050184991
 30
0.0
 40
4.1875515447573699
 50
178.22401299429831
 51
270.28815120723368
  0
LINE
  5
5CF
  8
DATA
  6
CONTINUOUS
 62
     7
 10
-1055.2413548365021
 20
-2886.7547650185002
 30
0.0
 11
-1055.2413548365021
 21
-2870.8138450184979
 31
0.0
  0
LINE
  5
5D0
  8
DATA
  6
CONTINUOUS
 62
     7
 10
-1076.828034836501
 20
-2861.2935850184981
 30
0.0
 11
-1071.403674836502
 21
-2861.2935850184981
 31
0.0
  0
ARC
  5
5D1
  8
DATA
  6
CONTINUOUS
 62
     7
 10
-1066.6313948365021
 20
-2884.9955650184988
 30
0.0
 40
11.41566847030956
 50
273.83098160911783
 51
351.1351473098029
  0
LINE
  5
5D2
  8
DATA
  6
CONTINUOUS
 62
     7
 10
-1103.728374836501
 20
-2836.3858450184998
 30
0.0
 11
-1092.658254836502
 21
-2836.3858450184998
 31
0.0
  0
LINE
  5
5D3
  8
DATA
  6
CONTINUOUS
 62
     7
 10
-1125.757914836501
 20
-2836.3858450184998
 30
0.0
 11
-1107.9350348365019
 21
-2836.3858450184998
 31
0.0
  0
LINE
  5
5D4
  8
DATA
  6
CONTINUOUS
 62
     7
 10
-1048.9313948365011
 20
-2836.3858450184998
 30
0.0
 11
-1037.418474836501
 21
-2836.3858450184998
 31
0.0
  0
LINE
  5
5D5
  8
DATA
  6
CONTINUOUS
 62
     7
 10
-1086.9017948365019
 20
-2836.3858450184998
 30
0.0
 11
-1065.753054067621
 21
-2836.3858935809421
 31
0.0
  0
LINE
  5
5D6
  8
DATA
  6
CONTINUOUS
 62
     7
 10
-1076.828034836501
 20
-2842.0316050185002
 30
0.0
 11
-1071.403674836502
 21
-2842.0316050185002
 31
0.0
  0
ARC
  5
5D7
  8
DATA
  6
CONTINUOUS
 62
     7
 10
-1066.5175748365009
 20
-2847.7586050184982
 30
0.0
 40
11.398379597468301
 50
8.2269238590128424
 51
86.154126692151777
  0
ARC
  5
5D8
  8
DATA
  6
CONTINUOUS
 62
     7
 10
-1071.339622060882
 20
-2880.2178972549768
 30
0.0
 40
10.522322720289649
 50
269.6512199376138
 51
282.8264828068734
  0
ARC
  5
5D9
  8
DATA
  6
CONTINUOUS
 62
     7
 10
-1070.1577986717009
 20
-2884.666526885861
 30
0.0
 40
5.9246274221598432
 50
281.23310362265539
 51
306.86200889405433
  0
ARC
  5
5DA
  8
DATA
  6
CONTINUOUS
 62
     7
 10
-1067.7718066550619
 20
-2869.8978492897349
 30
0.0
 40
1.91269868891132
 50
5.7329807106505681
 51
52.358097502438959
  0
ARC
  5
5DB
  8
DATA
  6
CONTINUOUS
 62
     7
 10
-1071.339622060882
 20
-2877.5721127820202
 30
0.0
 40
10.522322720289781
 50
77.173517193126656
 51
90.348780062386126
  0
ARC
  5
5DC
  8
DATA
  6
CONTINUOUS
 62
     7
 10
-1070.1577986717009
 20
-2873.123483151137
 30
0.0
 40
5.9246274221587161
 50
53.137991105945758
 51
78.76689637734502
  0
ARC
  5
5DD
  8
DATA
  6
CONTINUOUS
 62
     7
 10
-1061.0474348365019
 20
-2871.2063050185002
 30
0.0
 40
5.8193289834824471
 50
3.86700635983129
 51
88.361634567890434
  0
ARC
  5
5DE
  8
DATA
  6
CONTINUOUS
 62
     7
 10
-1061.0527748365021
 20
-2859.5667850184968
 30
0.0
 40
5.8251116396873854
 50
271.6892821046506
 51
356.07828298265252
  0
ARC
  5
5DF
  8
DATA
  6
CONTINUOUS
 62
     7
 10
-1067.7718066550619
 20
-2858.4457207472642
 30
0.0
 40
1.9126986889102631
 50
307.64190249756149
 51
354.26701928934608
  0
ARC
  5
5E0
  8
DATA
  6
CONTINUOUS
 62
     7
 10
-1071.339622060882
 20
-2850.7714572549771
 30
0.0
 40
10.522322720289649
 50
269.6512199376138
 51
282.8264828068734
  0
ARC
  5
5E1
  8
DATA
  6
CONTINUOUS
 62
     7
 10
-1070.1577986717009
 20
-2855.2200868858608
 30
0.0
 40
5.9246274221598432
 50
281.23310362265539
 51
306.86200889405433
  0
ARC
  5
5E2
  8
DATA
  6
CONTINUOUS
 62
     7
 10
-1067.7718066550619
 20
-2844.8794692897341
 30
0.0
 40
1.91269868891132
 50
5.7329807106505681
 51
52.358097502438959
  0
ARC
  5
5E3
  8
DATA
  6
CONTINUOUS
 62
     7
 10
-1071.339622060882
 20
-2852.5537327820198
 30
0.0
 40
10.522322720289781
 50
77.173517193126656
 51
90.348780062386126
  0
ARC
  5
5E4
  8
DATA
  6
CONTINUOUS
 62
     7
 10
-1070.1577986717009
 20
-2848.105103151137
 30
0.0
 40
5.9246274221587161
 50
53.137991105945758
 51
78.76689637734502
  0
ARC
  5
5E5
  8
DATA
  6
CONTINUOUS
 62
     7
 10
25.557794057198311
 20
-2207.3601561058622
 30
0.0
 40
0.2709656475955124
 50
307.6419024976027
 51
354.26701928935847
  0
LINE
  5
5E6
  8
DATA
  6
CONTINUOUS
 62
     7
 10
18.597712398161079
 20
-2203.0901760442871
 30
0.0
 11
19.868003398161079
 21
-2200.063428044286
 31
0.0
  0
LINE
  5
5E7
  8
DATA
  6
CONTINUOUS
 62
     7
 10
18.597712398161079
 20
-2203.0901760442871
 30
0.0
 11
17.343095398161068
 21
-2200.063428044286
 31
0.0
  0
LINE
  5
5E8
  8
DATA
  6
CONTINUOUS
 62
     7
 10
28.226852398161089
 20
-2208.563428044286
 30
0.0
 11
28.226852398161089
 21
-2200.063428044286
 31
0.0
  0
LINE
  5
5E9
  8
DATA
  6
CONTINUOUS
 62
     7
 10
29.857849398161079
 20
-2200.063428044286
 30
0.0
 11
29.857849398161079
 21
-2207.2617720442872
 31
0.0
  0
LINE
  5
5EA
  8
DATA
  6
CONTINUOUS
 62
     7
 10
20.46394689816109
 20
-2200.063428044286
 30
0.0
 11
20.46394689816109
 21
-2207.2617720442872
 31
0.0
  0
LINE
  5
5EB
  8
DATA
  6
CONTINUOUS
 62
     7
 10
22.032213898161071
 20
-2200.063428044286
 30
0.0
 11
22.032213898161071
 21
-2207.2617720442872
 31
0.0
  0
LINE
  5
5EC
  8
DATA
  6
CONTINUOUS
 62
     7
 10
22.847712398161079
 20
-2200.063428044286
 30
0.0
 11
22.847712398161079
 21
-2208.563428044286
 31
0.0
  0
LINE
  5
5ED
  8
DATA
  6
CONTINUOUS
 62
     7
 10
24.27483689816107
 20
-2200.863235544286
 30
0.0
 11
24.27483689816107
 21
-2203.5920245442871
 31
0.0
  0
LINE
  5
5EE
  8
DATA
  6
CONTINUOUS
 62
     7
 10
27.333629898161071
 20
-2203.4341285442861
 30
0.0
 11
27.333629898161071
 21
-2201.4435050442871
 31
0.0
  0
LINE
  5
5EF
  8
DATA
  6
CONTINUOUS
 62
     7
 10
25.827404398161079
 20
-2201.2396240442849
 30
0.0
 11
25.827404398161079
 21
-2203.2156445442861
 31
0.0
  0
ARC
  5
5F0
  8
DATA
  6
CONTINUOUS
 62
     7
 10
20.149242898161081
 20
-2206.3807980442871
 30
0.0
 40
2.1920254113927751
 50
264.6908562215358
 51
323.99119915423847
  0
LINE
  5
5F1
  8
DATA
  6
CONTINUOUS
 62
     7
 10
19.272068398161061
 20
-2205.8973690442858
 30
0.0
 11
19.272068398161061
 21
-2207.2617550442869
 31
0.0
  0
LINE
  5
5F2
  8
DATA
  6
CONTINUOUS
 62
     7
 10
19.272068398161061
 20
-2205.8973690442858
 30
0.0
 11
17.86062639816107
 21
-2205.8973690442858
 31
0.0
  0
LINE
  5
5F3
  8
DATA
  6
CONTINUOUS
 62
     7
 10
17.86062639816107
 20
-2205.8973690442858
 30
0.0
 11
17.86062639816107
 21
-2207.2617550442869
 31
0.0
  0
ARC
  5
5F4
  8
DATA
  6
CONTINUOUS
 62
     7
 10
19.870995398161071
 20
-2207.2801490442871
 30
0.0
 40
0.5932395023061537
 50
269.71184879275091
 51
1.775987005680576
  0
ARC
  5
5F5
  8
DATA
  6
CONTINUOUS
 62
     7
 10
19.865019898161069
 20
-2207.2801490442871
 30
0.0
 40
0.5932364688406432
 50
178.22401299431161
 51
270.28815120724857
  0
ARC
  5
5F6
  8
DATA
  6
CONTINUOUS
 62
     7
 10
19.743597398161079
 20
-2206.3807980442871
 30
0.0
 40
2.192021851404597
 50
216.00880084575729
 51
275.30914377846369
  0
ARC
  5
5F7
  8
DATA
  6
CONTINUOUS
 62
     7
 10
18.851250398161088
 20
-2207.213704544286
 30
0.0
 40
0.9917801769498041
 50
182.77699545002241
 51
207.35960666715641
  0
CIRCLE
  5
5F8
  8
DATA
  6
CONTINUOUS
 62
     7
 10
18.683970398161069
 20
-2204.2663805442871
 30
0.0
 40
0.8076530000000021
  0
LINE
  5
5F9
  8
DATA
  6
CONTINUOUS
 62
     7
 10
32.476852398161093
 20
-2208.5634195442872
 30
0.0
 11
28.226852398161089
 21
-2208.5634195442872
 31
0.0
  0
LINE
  5
5FA
  8
DATA
  6
CONTINUOUS
 62
     7
 10
32.476852398161093
 20
-2208.5634195442872
 30
0.0
 11
32.476852398161093
 21
-2205.8973605442861
 31
0.0
  0
LINE
  5
5FB
  8
DATA
  6
CONTINUOUS
 62
     7
 10
32.476852398161093
 20
-2205.8973690442858
 30
0.0
 11
31.04973639816107
 21
-2205.8973690442858
 31
0.0
  0
LINE
  5
5FC
  8
DATA
  6
CONTINUOUS
 62
     7
 10
31.04973639816107
 20
-2205.8973690442858
 30
0.0
 11
31.04973639816107
 21
-2207.2617550442869
 31
0.0
  0
LINE
  5
5FD
  8
DATA
  6
CONTINUOUS
 62
     7
 10
22.847712398161079
 20
-2208.5634195442872
 30
0.0
 11
25.827404398161079
 21
-2208.5634110442861
 31
0.0
  0
LINE
  5
5FE
  8
DATA
  6
CONTINUOUS
 62
     7
 10
24.27482839816108
 20
-2207.7636035442861
 30
0.0
 11
25.043279398161079
 21
-2207.7636035442861
 31
0.0
  0
LINE
  5
5FF
  8
DATA
  6
CONTINUOUS
 62
     7
 10
24.27483689816107
 20
-2207.7636035442861
 30
0.0
 11
24.27483689816107
 21
-2204.4075145442871
 31
0.0
  0
LINE
  5
600
  8
DATA
  6
CONTINUOUS
 62
     7
 10
24.27482839816108
 20
-2204.4075145442871
 30
0.0
 11
25.043279398161079
 21
-2204.4075145442871
 31
0.0
  0
LINE
  5
601
  8
DATA
  6
CONTINUOUS
 62
     7
 10
25.827404398161079
 20
-2207.3872235442859
 30
0.0
 11
25.827404398161079
 21
-2204.7838945442859
 31
0.0
  0
ARC
  5
602
  8
DATA
  6
CONTINUOUS
 62
     7
 10
21.041589898161082
 20
-2207.213704544286
 30
0.0
 40
0.9917787656855129
 50
332.64039333282648
 51
357.22300455000482
  0
ARC
  5
603
  8
DATA
  6
CONTINUOUS
 62
     7
 10
30.456776398161079
 20
-2207.2801490442871
 30
0.0
 40
0.5932395023061537
 50
269.71184879275091
 51
1.775987005680576
  0
ARC
  5
604
  8
DATA
  6
CONTINUOUS
 62
     7
 10
30.45080939816107
 20
-2207.2801490442871
 30
0.0
 40
0.5932364688406148
 50
178.22401299431149
 51
270.28815120725
  0
LINE
  5
605
  8
DATA
  6
CONTINUOUS
 62
     7
 10
27.33294139816109
 20
-2207.1990250442859
 30
0.0
 11
27.33294139816109
 21
-2204.9407280442861
 31
0.0
  0
LINE
  5
606
  8
DATA
  6
CONTINUOUS
 62
     7
 10
24.27482839816108
 20
-2203.5920245442871
 30
0.0
 11
25.043279398161079
 21
-2203.5920245442871
 31
0.0
  0
ARC
  5
607
  8
DATA
  6
CONTINUOUS
 62
     7
 10
25.719352398161082
 20
-2206.9498050442871
 30
0.0
 40
1.617219699960289
 50
273.83098160911521
 51
351.13514730979739
  0
LINE
  5
608
  8
DATA
  6
CONTINUOUS
 62
     7
 10
20.46394689816109
 20
-2200.063428044286
 30
0.0
 11
22.032213898161071
 21
-2200.063428044286
 31
0.0
  0
LINE
  5
609
  8
DATA
  6
CONTINUOUS
 62
     7
 10
17.343095398161068
 20
-2200.063428044286
 30
0.0
 11
19.868003398161079
 21
-2200.063428044286
 31
0.0
  0
LINE
  5
60A
  8
DATA
  6
CONTINUOUS
 62
     7
 10
28.226852398161089
 20
-2200.063428044286
 30
0.0
 11
29.857849398161079
 21
-2200.063428044286
 31
0.0
  0
LINE
  5
60B
  8
DATA
  6
CONTINUOUS
 62
     7
 10
22.847712398161079
 20
-2200.063428044286
 30
0.0
 11
25.843784007085748
 21
-2200.0634349239649
 31
0.0
  0
LINE
  5
60C
  8
DATA
  6
CONTINUOUS
 62
     7
 10
24.27482839816108
 20
-2200.8632440442861
 30
0.0
 11
25.043279398161079
 21
-2200.8632440442861
 31
0.0
  0
ARC
  5
60D
  8
DATA
  6
CONTINUOUS
 62
     7
 10
25.735476898161071
 20
-2201.6745690442858
 30
0.0
 40
1.6147704429747289
 50
8.2269238590019729
 51
86.154126692151664
  0
ARC
  5
60E
  8
DATA
  6
CONTINUOUS
 62
     7
 10
25.052353541373812
 20
-2206.2729687777878
 30
0.0
 40
1.4906623853742751
 50
269.65121993761721
 51
282.82648280687272
  0
ARC
  5
60F
  8
DATA
  6
CONTINUOUS
 62
     7
 10
25.219778521507759
 20
-2206.9031913088288
 30
0.0
 40
0.8393222181394275
 50
281.23310362265568
 51
306.86200889406518
  0
ARC
  5
610
  8
DATA
  6
CONTINUOUS
 62
     7
 10
25.557794057198311
 20
-2204.8109619827119
 30
0.0
 40
0.2709656475957468
 50
5.7329807107332131
 51
52.358097502467963
  0
ARC
  5
611
  8
DATA
  6
CONTINUOUS
 62
     7
 10
25.052353541373812
 20
-2205.898149310784
 30
0.0
 40
1.4906623853741661
 50
77.173517193124184
 51
90.348780062382758
  0
ARC
  5
612
  8
DATA
  6
CONTINUOUS
 62
     7
 10
25.219778521507759
 20
-2205.267926779743
 30
0.0
 40
0.8393222181394385
 50
53.137991105948082
 51
78.766896377345319
  0
ARC
  5
613
  8
DATA
  6
CONTINUOUS
 62
     7
 10
26.510413398161081
 20
-2204.9963265442861
 30
0.0
 40
0.8244049393267053
 50
3.8670063598280029
 51
88.361634567897738
  0
ARC
  5
614
  8
DATA
  6
CONTINUOUS
 62
     7
 10
26.509656898161069
 20
-2203.3473945442861
 30
0.0
 40
0.8252241489556663
 50
271.68928210464799
 51
356.07828298264911
  0
ARC
  5
615
  8
DATA
  6
CONTINUOUS
 62
     7
 10
25.557794057198311
 20
-2203.188577105861
 30
0.0
 40
0.2709656475958725
 50
307.64190249754392
 51
354.26701928936609
  0
ARC
  5
616
  8
DATA
  6
CONTINUOUS
 62
     7
 10
25.052353541373812
 20
-2202.1013897777871
 30
0.0
 40
1.4906623853747301
 50
269.65121993761738
 51
282.82648280687249
  0
ARC
  5
617
  8
DATA
  6
CONTINUOUS
 62
     7
 10
25.219778521507759
 20
-2202.731612308829
 30
0.0
 40
0.8393222181394275
 50
281.23310362265568
 51
306.86200889405268
  0
ARC
  5
618
  8
DATA
  6
CONTINUOUS
 62
     7
 10
25.557794057198311
 20
-2201.2666914827109
 30
0.0
 40
0.2709656475957468
 50
5.7329807107332131
 51
52.358097502467963
  0
ARC
  5
619
  8
DATA
  6
CONTINUOUS
 62
     7
 10
25.052353541373812
 20
-2202.3538788107849
 30
0.0
 40
1.4906623853741661
 50
77.173517193124184
 51
90.348780062382758
  0
ARC
  5
61A
  8
DATA
  6
CONTINUOUS
 62
     7
 10
25.219778521507759
 20
-2201.7236562797439
 30
0.0
 40
0.8393222181394385
 50
53.137991105948082
 51
78.766896377345319
  0
ENDSEC
  0
EOF
