  0
SECTION
  2
HEADER
  9
$ACADVER
  1
AC1009
  9
$INSBASE
 10
0.0
 20
0.0
 30
0.0
  9
$EXTMIN
 10
-800.10985825197974
 20
-1202.069354206659
 30
-0.0000000349181948
  9
$EXTMAX
 10
1000.109875016297
 20
1471.949448393005
 30
0.0000000814935747
  9
$LIMMIN
 10
0.0
 20
0.0
  9
$LIMMAX
 10
0.0
 20
0.0
  9
$ORTHOMODE
 70
     0
  9
$REGENMODE
 70
     1
  9
$FILLMODE
 70
     1
  9
$QTEXTMODE
 70
     0
  9
$MIRRTEXT
 70
     1
  9
$DRAGMODE
 70
     2
  9
$LTSCALE
 40
50.799999999999997
  9
$OSMODE
 70
   231
  9
$ATTMODE
 70
     1
  9
$TEXTSIZE
 40
0.0
  9
$TRACEWID
 40
1.0
  9
$TEXTSTYLE
  7
STANDARD
  9
$CLAYER
  8
DATA
  9
$CELTYPE
  6
BYLAYER
  9
$CECOLOR
 62
   256
  9
$DIMSCALE
 40
1.0
  9
$DIMASZ
 40
0.18
  9
$DIMEXO
 40
0.0625
  9
$DIMDLI
 40
0.38
  9
$DIMRND
 40
0.0
  9
$DIMDLE
 40
0.0
  9
$DIMEXE
 40
0.18
  9
$DIMTP
 40
0.0
  9
$DIMTM
 40
0.0
  9
$DIMTXT
 40
0.18
  9
$DIMCEN
 40
0.09
  9
$DIMTSZ
 40
0.0
  9
$DIMTOL
 70
     0
  9
$DIMLIM
 70
     0
  9
$DIMTIH
 70
     1
  9
$DIMTOH
 70
     1
  9
$DIMSE1
 70
     0
  9
$DIMSE2
 70
     0
  9
$DIMTAD
 70
     0
  9
$DIMZIN
 70
     0
  9
$DIMBLK
  1

  9
$DIMASO
 70
     1
  9
$DIMSHO
 70
     1
  9
$DIMPOST
  1

  9
$DIMAPOST
  1

  9
$DIMALT
 70
     0
  9
$DIMALTD
 70
     2
  9
$DIMALTF
 40
25.399999999999999
  9
$DIMLFAC
 40
1.0
  9
$DIMTOFL
 70
     0
  9
$DIMTVP
 40
0.0
  9
$DIMTIX
 70
     0
  9
$DIMSOXD
 70
     0
  9
$DIMSAH
 70
     0
  9
$DIMBLK1
  1

  9
$DIMBLK2
  1

  9
$DIMSTYLE
  2
STANDARD
  9
$DIMCLRD
 70
     0
  9
$DIMCLRE
 70
     0
  9
$DIMCLRT
 70
     0
  9
$DIMTFAC
 40
1.0
  9
$DIMGAP
 40
0.09
  9
$LUNITS
 70
     2
  9
$LUPREC
 70
     4
  9
$SKETCHINC
 40
0.1
  9
$FILLETRAD
 40
0.0
  9
$AUNITS
 70
     0
  9
$AUPREC
 70
     0
  9
$MENU
  1
acad
  9
$ELEVATION
 40
0.0
  9
$PELEVATION
 40
0.0
  9
$THICKNESS
 40
0.0
  9
$LIMCHECK
 70
     0
  9
$BLIPMODE
 70
     0
  9
$CHAMFERA
 40
0.0
  9
$CHAMFERB
 40
0.0
  9
$SKPOLY
 70
     0
  9
$TDCREATE
 40
2452879.6314236112
  9
$TDUPDATE
 40
2455607.7493448039
  9
$TDINDWG
 40
0.0014778472
  9
$TDUSRTIMER
 40
0.001477662
  9
$USRTIMER
 70
     1
  9
$ANGBASE
 50
0.0
  9
$ANGDIR
 70
     0
  9
$PDMODE
 70
     1
  9
$PDSIZE
 40
-2.0
  9
$PLINEWID
 40
0.0
  9
$COORDS
 70
     1
  9
$SPLFRAME
 70
     0
  9
$SPLINETYPE
 70
     6
  9
$SPLINESEGS
 70
     8
  9
$ATTDIA
 70
     0
  9
$ATTREQ
 70
     1
  9
$HANDLING
 70
     1
  9
$HANDSEED
  5
A9A
  9
$SURFTAB1
 70
     6
  9
$SURFTAB2
 70
     6
  9
$SURFTYPE
 70
     6
  9
$SURFU
 70
     6
  9
$SURFV
 70
     6
  9
$UCSNAME
  2

  9
$UCSORG
 10
0.0
 20
0.0
 30
0.0
  9
$UCSXDIR
 10
1.0
 20
0.0
 30
0.0
  9
$UCSYDIR
 10
0.0
 20
1.0
 30
0.0
  9
$PUCSNAME
  2

  9
$PUCSORG
 10
0.0
 20
0.0
 30
0.0
  9
$PUCSXDIR
 10
1.0
 20
0.0
 30
0.0
  9
$PUCSYDIR
 10
0.0
 20
1.0
 30
0.0
  9
$USERI1
 70
     0
  9
$USERI2
 70
     0
  9
$USERI3
 70
     0
  9
$USERI4
 70
     0
  9
$USERI5
 70
     0
  9
$USERR1
 40
0.0
  9
$USERR2
 40
0.0
  9
$USERR3
 40
0.0
  9
$USERR4
 40
0.0
  9
$USERR5
 40
0.0
  9
$WORLDVIEW
 70
     1
  9
$SHADEDGE
 70
     3
  9
$SHADEDIF
 70
    70
  9
$TILEMODE
 70
     1
  9
$MAXACTVP
 70
    16
  9
$PLIMCHECK
 70
     0
  9
$PEXTMIN
 10
1.0000000000000000E+020
 20
1.0000000000000000E+020
 30
1.0000000000000000E+020
  9
$PEXTMAX
 10
-1.0000000000000000E+020
 20
-1.0000000000000000E+020
 30
-1.0000000000000000E+020
  9
$PLIMMIN
 10
0.0
 20
0.0
  9
$PLIMMAX
 10
12.0
 20
9.0
  9
$UNITMODE
 70
     0
  9
$VISRETAIN
 70
     0
  9
$PLINEGEN
 70
     1
  9
$PSLTSCALE
 70
     0
  0
ENDSEC
  0
SECTION
  2
TABLES
  0
TABLE
  2
VPORT
 70
     1
  0
VPORT
  2
*ACTIVE
 70
     0
 10
0.0
 20
0.0
 11
1.0
 21
1.0
 12
100.0000083821589
 22
134.94004709317321
 13
0.0
 23
0.0
 14
1.0
 24
1.0
 15
0.0
 25
0.0
 16
0.0
 26
0.0
 36
1.0
 17
0.0
 27
0.0
 37
0.0
 40
2693.704830594264
 41
1.9619164619164611
 42
50.0
 43
0.0
 44
0.0
 50
0.0
 51
0.0
 71
     0
 72
   100
 73
     1
 74
     1
 75
     0
 76
     0
 77
     0
 78
     0
  0
ENDTAB
  0
TABLE
  2
LTYPE
 70
    12
  0
LTYPE
  2
CONTINUOUS
 70
     0
  3
Solid line
 72
    65
 73
     0
 40
0.0
  0
LTYPE
  2
STYLE_01
 70
     0
  3

 72
    65
 73
     2
 40
0.4166412353515625
 49
0.208282470703125
 49
-0.2083587646484375
  0
ENDTAB
  0
TABLE
  2
LAYER
 70
     6
  0
LAYER
  2
0
 70
     0
 62
     7
  6
CONTINUOUS
  0
LAYER
  2
DATA
 70
     0
 62
     7
  6
CONTINUOUS
  0
LAYER
  2
DEFPOINTS
 70
     0
 62
     7
  6
CONTINUOUS
  0
LAYER
  2
HIBINO-BASE
 70
     0
 62
     7
  6
CONTINUOUS
  0
LAYER
  2
DIMNSIONS
 70
     0
 62
     7
  6
CONTINUOUS
  0
LAYER
  2
BRACKET
 70
     0
 62
     7
  6
CONTINUOUS
  0
ENDTAB
  0
TABLE
  2
STYLE
 70
     2
  0
STYLE
  2
STANDARD
 70
     0
 40
0.0
 41
1.0
 50
0.0
 71
     0
 42
0.0
  3
txt
  4
BIGFONT.SHX
  0
ENDTAB
  0
TABLE
  2
VIEW
 70
     0
  0
ENDTAB
  0
TABLE
  2
UCS
 70
     0
  0
ENDTAB
  0
TABLE
  2
APPID
 70
     3
  0
APPID
  2
ACAD
 70
     0
  0
APPID
  2
ACADANNOTATIVE
 70
     0
  0
APPID
  2
ACAD_MLEADERVER
 70
     0
  0
ENDTAB
  0
TABLE
  2
DIMSTYLE
 70
     2
  0
DIMSTYLE
  2
STANDARD
 70
     0
  3

  4

  5

  6

  7

 40
1.0
 41
0.18
 42
0.0625
 43
0.38
 44
0.18
 45
0.0
 46
0.0
 47
0.0
 48
0.0
140
0.18
141
0.09
142
0.0
143
25.399999999999999
144
1.0
145
0.0
146
1.0
147
0.09
 71
     0
 72
     0
 73
     1
 74
     1
 75
     0
 76
     0
 77
     0
 78
     0
170
     0
171
     2
172
     0
173
     0
174
     0
175
     0
176
     0
177
     0
178
     0
  0
ENDTAB
  0
ENDSEC
  0
SECTION
  2
BLOCKS
  0
BLOCK
  8
0
  2
$MODEL_SPACE
 70
     0
 10
0.0
 20
0.0
 30
0.0
  3
$MODEL_SPACE
  1

  0
ENDBLK
  5
788
  8
0
  0
BLOCK
 67
     1
  8
0
  2
$PAPER_SPACE
 70
     0
 10
0.0
 20
0.0
 30
0.0
  3
$PAPER_SPACE
  1

  0
ENDBLK
  5
784
 67
     1
  8
0
  0
BLOCK
  8
BRACKET
  2
*U2
 70
     1
 10
0.0
 20
0.0
 30
0.0
  3
*U2
  1

  0
ARC
  5
35
  8
BRACKET
  6
CONTINUOUS
 62
     7
 10
169.81413395600021
 20
-390.0
 30
0.0
 40
10.0
 50
180.0
 51
270.0
  0
LINE
  5
36
  8
BRACKET
  6
CONTINUOUS
 62
     7
 10
159.81413395600021
 20
-390.0
 30
0.0
 11
159.81413395600021
 21
-290.0
 31
0.0
  0
ARC
  5
37
  8
BRACKET
  6
CONTINUOUS
 62
     7
 10
169.81413395600021
 20
-290.0
 30
0.0
 40
10.0
 50
90.0
 51
180.0
  0
ARC
  5
38
  8
BRACKET
  6
CONTINUOUS
 62
     7
 10
630.18586604400048
 20
-390.0
 30
0.0
 40
10.0
 50
270.0
 51
0.0
  0
LINE
  5
39
  8
BRACKET
  6
CONTINUOUS
 62
     7
 10
640.18586604400082
 20
-390.0
 30
0.0
 11
640.18586604400082
 21
-290.0
 31
0.0
  0
ARC
  5
3A
  8
BRACKET
  6
CONTINUOUS
 62
     7
 10
630.18586604400048
 20
-290.0
 30
0.0
 40
10.0
 50
0.0
 51
90.0
  0
LINE
  5
3B
  8
BRACKET
  6
CONTINUOUS
 62
     7
 10
169.81413395600021
 20
-400.0
 30
0.0
 11
630.18586604400048
 21
-400.0
 31
0.0
  0
LINE
  5
3C
  8
BRACKET
  6
CONTINUOUS
 62
     7
 10
169.81413395600021
 20
-280.0
 30
0.0
 11
630.18586604400048
 21
-280.0
 31
0.0
  0
LINE
  5
3D
  8
BRACKET
  6
CONTINUOUS
 62
     7
 10
124.4500000000003
 20
-322.49999573499991
 30
0.0
 11
129.4500000000003
 21
-322.49999573499991
 31
0.0
  0
LINE
  5
3E
  8
BRACKET
  6
CONTINUOUS
 62
     7
 10
124.4500000000003
 20
-322.49999573499991
 30
0.0
 11
134.4500000000003
 21
-312.49999573499991
 31
0.0
  0
LINE
  5
3F
  8
BRACKET
  6
CONTINUOUS
 62
     7
 10
129.4500000000003
 20
-327.49999573499991
 30
0.0
 11
129.4500000000003
 21
-322.49999573499991
 31
0.0
  0
LINE
  5
40
  8
BRACKET
  6
CONTINUOUS
 62
     7
 10
134.4500000000003
 20
-312.49999573499991
 30
0.0
 11
144.4500000000003
 21
-322.49999573499991
 31
0.0
  0
LINE
  5
41
  8
BRACKET
  6
CONTINUOUS
 62
     7
 10
139.4500000000003
 20
-327.49999573499991
 30
0.0
 11
139.4500000000003
 21
-322.49999573499991
 31
0.0
  0
LINE
  5
42
  8
BRACKET
  6
CONTINUOUS
 62
     7
 10
139.4500000000003
 20
-322.49999573499991
 30
0.0
 11
144.4500000000003
 21
-322.49999573499991
 31
0.0
  0
LINE
  5
43
  8
BRACKET
  6
CONTINUOUS
 62
     7
 10
129.4500000000003
 20
-327.49999573499991
 30
0.0
 11
139.4500000000003
 21
-327.49999573499991
 31
0.0
  0
LINE
  5
44
  8
BRACKET
  6
CONTINUOUS
 62
     7
 10
146.4324218750003
 20
-296.78124573499991
 30
0.0
 11
146.4324218750003
 21
-304.39843323499991
 31
0.0
  0
LINE
  5
45
  8
BRACKET
  6
CONTINUOUS
 62
     7
 10
137.9949218750003
 20
-304.39843323499991
 30
0.0
 11
137.9949218750003
 21
-296.78124573499991
 31
0.0
  0
LINE
  5
46
  8
BRACKET
  6
CONTINUOUS
 62
     7
 10
130.9050781250003
 20
-296.78124573499991
 30
0.0
 11
130.9050781250003
 21
-308.49999573499991
 31
0.0
  0
LINE
  5
47
  8
BRACKET
  6
CONTINUOUS
 62
     7
 10
125.6316406250003
 20
-296.78124573499991
 30
0.0
 11
129.9050781250003
 21
-296.78124573499991
 31
0.0
  0
LINE
  5
48
  8
BRACKET
  6
CONTINUOUS
 62
     7
 10
129.9050781250003
 20
-303.22655823499991
 30
0.0
 11
125.6316406250003
 21
-303.22655823499991
 31
0.0
  0
POLYLINE
  5
49
  8
BRACKET
  6
CONTINUOUS
 62
     7
 66
     1
 10
0.0
 20
0.0
 30
0.0
 70
   128
  0
VERTEX
  5
8DC
  8
BRACKET
  6
CONTINUOUS
 62
     7
 10
125.6316406250003
 20
-303.22655823499991
 30
0.0
 42
-0.0243765490000349
  0
VERTEX
  5
8DD
  8
BRACKET
  6
CONTINUOUS
 62
     7
 10
125.377591595
 20
-303.18706042199972
 30
0.0
  0
VERTEX
  5
8DE
  8
BRACKET
  6
CONTINUOUS
 62
     7
 10
125.377591595
 20
-303.18706042199972
 30
0.0
  0
VERTEX
  5
8DF
  8
BRACKET
  6
CONTINUOUS
 62
     7
 10
125.377591595
 20
-303.18706042199972
 30
0.0
 42
-0.0242086420002773
  0
VERTEX
  5
8E0
  8
BRACKET
  6
CONTINUOUS
 62
     7
 10
125.1276540960002
 20
-303.12288647699972
 30
0.0
  0
VERTEX
  5
8E1
  8
BRACKET
  6
CONTINUOUS
 62
     7
 10
125.1276540960002
 20
-303.12288647699972
 30
0.0
  0
VERTEX
  5
8E2
  8
BRACKET
  6
CONTINUOUS
 62
     7
 10
125.1276540960002
 20
-303.12288647699972
 30
0.0
 42
-0.0239653980002683
  0
VERTEX
  5
8E3
  8
BRACKET
  6
CONTINUOUS
 62
     7
 10
124.8837656670003
 20
-303.03453388200001
 30
0.0
  0
VERTEX
  5
8E4
  8
BRACKET
  6
CONTINUOUS
 62
     7
 10
124.8837656670003
 20
-303.03453388200001
 30
0.0
  0
VERTEX
  5
8E5
  8
BRACKET
  6
CONTINUOUS
 62
     7
 10
124.8837656670003
 20
-303.03453388200001
 30
0.0
 42
-0.0236586450004896
  0
VERTEX
  5
8E6
  8
BRACKET
  6
CONTINUOUS
 62
     7
 10
124.6478169520001
 20
-302.92268755499981
 30
0.0
  0
VERTEX
  5
8E7
  8
BRACKET
  6
CONTINUOUS
 62
     7
 10
124.6478169520001
 20
-302.92268755499981
 30
0.0
  0
VERTEX
  5
8E8
  8
BRACKET
  6
CONTINUOUS
 62
     7
 10
124.6478169520003
 20
-302.92268755499992
 30
0.0
 42
-0.0233024819998562
  0
VERTEX
  5
8E9
  8
BRACKET
  6
CONTINUOUS
 62
     7
 10
124.4216370490003
 20
-302.78821453900002
 30
0.0
  0
VERTEX
  5
8EA
  8
BRACKET
  6
CONTINUOUS
 62
     7
 10
124.4216370490003
 20
-302.78821453900002
 30
0.0
  0
VERTEX
  5
8EB
  8
BRACKET
  6
CONTINUOUS
 62
     7
 10
124.42163704899831
 20
-302.78821453899872
 30
0.0
 42
-0.0229121639996526
  0
VERTEX
  5
8EC
  8
BRACKET
  6
CONTINUOUS
 62
     7
 10
124.20697932200029
 20
-302.63215728
 30
0.0
  0
VERTEX
  5
8ED
  8
BRACKET
  6
CONTINUOUS
 62
     7
 10
124.20697932200029
 20
-302.63215728
 30
0.0
  0
VERTEX
  5
8EE
  8
BRACKET
  6
CONTINUOUS
 62
     7
 10
124.20697932200039
 20
-302.63215728000011
 30
0.0
 42
-0.0225030649999696
  0
VERTEX
  5
8EF
  8
BRACKET
  6
CONTINUOUS
 62
     7
 10
124.0055078200003
 20
-302.45572554899991
 30
0.0
  0
VERTEX
  5
8F0
  8
BRACKET
  6
CONTINUOUS
 62
     7
 10
124.0055078200003
 20
-302.45572554899991
 30
0.0
  0
VERTEX
  5
8F1
  8
BRACKET
  6
CONTINUOUS
 62
     7
 10
124.0055078200003
 20
-302.45572554899991
 30
0.0
 42
-0.0220898390002595
  0
VERTEX
  5
8F2
  8
BRACKET
  6
CONTINUOUS
 62
     7
 10
123.8187843670003
 20
-302.26028705999988
 30
0.0
  0
VERTEX
  5
8F3
  8
BRACKET
  6
CONTINUOUS
 62
     7
 10
123.8187843670003
 20
-302.26028705999988
 30
0.0
  0
VERTEX
  5
8F4
  8
BRACKET
  6
CONTINUOUS
 62
     7
 10
123.8187843669985
 20
-302.26028705999772
 30
0.0
 42
-0.0216858179995881
  0
VERTEX
  5
8F5
  8
BRACKET
  6
CONTINUOUS
 62
     7
 10
123.648256459
 20
-302.04735686999987
 30
0.0
  0
VERTEX
  5
8F6
  8
BRACKET
  6
CONTINUOUS
 62
     7
 10
123.648256459
 20
-302.04735686999987
 30
0.0
  0
VERTEX
  5
8F7
  8
BRACKET
  6
CONTINUOUS
 62
     7
 10
123.6482564589984
 20
-302.04735686999771
 30
0.0
 42
-0.0213026569996441
  0
VERTEX
  5
8F8
  8
BRACKET
  6
CONTINUOUS
 62
     7
 10
123.4952460460004
 20
-301.81858563399987
 30
0.0
  0
VERTEX
  5
8F9
  8
BRACKET
  6
CONTINUOUS
 62
     7
 10
123.4952460460004
 20
-301.81858563399987
 30
0.0
  0
VERTEX
  5
8FA
  8
BRACKET
  6
CONTINUOUS
 62
     7
 10
123.4952460460004
 20
-301.81858563399987
 30
0.0
 42
-0.0209501920000479
  0
VERTEX
  5
8FB
  8
BRACKET
  6
CONTINUOUS
 62
     7
 10
123.3609392770004
 20
-301.57574680499988
 30
0.0
  0
VERTEX
  5
8FC
  8
BRACKET
  6
CONTINUOUS
 62
     7
 10
123.3609392770004
 20
-301.57574680499988
 30
0.0
  0
VERTEX
  5
8FD
  8
BRACKET
  6
CONTINUOUS
 62
     7
 10
123.3609392770004
 20
-301.57574680499988
 30
0.0
 42
-0.020636463000847
  0
VERTEX
  5
8FE
  8
BRACKET
  6
CONTINUOUS
 62
     7
 10
123.2463773100003
 20
-301.32072289400003
 30
0.0
  0
VERTEX
  5
8FF
  8
BRACKET
  6
CONTINUOUS
 62
     7
 10
123.2463773100003
 20
-301.32072289400003
 30
0.0
  0
VERTEX
  5
900
  8
BRACKET
  6
CONTINUOUS
 62
     7
 10
123.2463773100003
 20
-301.32072289400003
 30
0.0
 42
-0.0203678370002414
  0
VERTEX
  5
901
  8
BRACKET
  6
CONTINUOUS
 62
     7
 10
123.152448241
 20
-301.05549086799988
 30
0.0
  0
VERTEX
  5
902
  8
BRACKET
  6
CONTINUOUS
 62
     7
 10
123.152448241
 20
-301.05549086799988
 30
0.0
  0
VERTEX
  5
903
  8
BRACKET
  6
CONTINUOUS
 62
     7
 10
123.15244824099921
 20
-301.05549086799721
 30
0.0
 42
-0.0201491929996557
  0
VERTEX
  5
904
  8
BRACKET
  6
CONTINUOUS
 62
     7
 10
123.07988021600021
 20
-300.78210682999998
 30
0.0
  0
VERTEX
  5
905
  8
BRACKET
  6
CONTINUOUS
 62
     7
 10
123.07988021600021
 20
-300.78210682999998
 30
0.0
  0
VERTEX
  5
906
  8
BRACKET
  6
CONTINUOUS
 62
     7
 10
123.0798802159993
 20
-300.78210682999611
 30
0.0
 42
-0.019984125999423
  0
VERTEX
  5
907
  8
BRACKET
  6
CONTINUOUS
 62
     7
 10
123.02923578800031
 20
-300.5026900769999
 30
0.0
  0
VERTEX
  5
908
  8
BRACKET
  6
CONTINUOUS
 62
     7
 10
123.02923578800031
 20
-300.5026900769999
 30
0.0
  0
SEQEND
  5
909
  8
BRACKET
  6
CONTINUOUS
 62
     7
  0
POLYLINE
  5
78
  8
BRACKET
  6
CONTINUOUS
 62
     7
 66
     1
 10
0.0
 20
0.0
 30
0.0
 70
   128
  0
VERTEX
  5
90A
  8
BRACKET
  6
CONTINUOUS
 62
     7
 10
123.02923578800031
 20
-299.50511389099978
 30
0.0
 42
-0.0199515440007165
  0
VERTEX
  5
90B
  8
BRACKET
  6
CONTINUOUS
 62
     7
 10
123.07988021600021
 20
-299.22569713899998
 30
0.0
  0
VERTEX
  5
90C
  8
BRACKET
  6
CONTINUOUS
 62
     7
 10
123.07988021600021
 20
-299.22569713899998
 30
0.0
  0
VERTEX
  5
90D
  8
BRACKET
  6
CONTINUOUS
 62
     7
 10
123.0798802160013
 20
-299.22569713899509
 30
0.0
 42
-0.0201027889993668
  0
VERTEX
  5
90E
  8
BRACKET
  6
CONTINUOUS
 62
     7
 10
123.152448241
 20
-298.9523131009999
 30
0.0
  0
VERTEX
  5
90F
  8
BRACKET
  6
CONTINUOUS
 62
     7
 10
123.152448241
 20
-298.9523131009999
 30
0.0
  0
VERTEX
  5
910
  8
BRACKET
  6
CONTINUOUS
 62
     7
 10
123.152448241
 20
-298.9523131009999
 30
0.0
 42
-0.020308329000112
  0
VERTEX
  5
911
  8
BRACKET
  6
CONTINUOUS
 62
     7
 10
123.2463773110003
 20
-298.68708107499992
 30
0.0
  0
VERTEX
  5
912
  8
BRACKET
  6
CONTINUOUS
 62
     7
 10
123.2463773110003
 20
-298.68708107499992
 30
0.0
  0
VERTEX
  5
913
  8
BRACKET
  6
CONTINUOUS
 62
     7
 10
123.2463773110003
 20
-298.68708107499992
 30
0.0
 42
-0.020564864000294
  0
VERTEX
  5
914
  8
BRACKET
  6
CONTINUOUS
 62
     7
 10
123.3609392770004
 20
-298.43205716399967
 30
0.0
  0
VERTEX
  5
915
  8
BRACKET
  6
CONTINUOUS
 62
     7
 10
123.3609392770004
 20
-298.43205716399967
 30
0.0
  0
VERTEX
  5
916
  8
BRACKET
  6
CONTINUOUS
 62
     7
 10
123.3609392770003
 20
-298.43205716400001
 30
0.0
 42
-0.0208678529999805
  0
VERTEX
  5
917
  8
BRACKET
  6
CONTINUOUS
 62
     7
 10
123.4952460460004
 20
-298.18921833499979
 30
0.0
  0
VERTEX
  5
918
  8
BRACKET
  6
CONTINUOUS
 62
     7
 10
123.4952460460004
 20
-298.18921833499979
 30
0.0
  0
VERTEX
  5
919
  8
BRACKET
  6
CONTINUOUS
 62
     7
 10
123.4952460460016
 20
-298.1892183349978
 30
0.0
 42
-0.0212113189995896
  0
VERTEX
  5
91A
  8
BRACKET
  6
CONTINUOUS
 62
     7
 10
123.6482564600001
 20
-297.96044709900002
 30
0.0
  0
VERTEX
  5
91B
  8
BRACKET
  6
CONTINUOUS
 62
     7
 10
123.6482564600001
 20
-297.96044709900002
 30
0.0
  0
VERTEX
  5
91C
  8
BRACKET
  6
CONTINUOUS
 62
     7
 10
123.64825646
 20
-297.96044709900008
 30
0.0
 42
-0.0215876559999215
  0
VERTEX
  5
91D
  8
BRACKET
  6
CONTINUOUS
 62
     7
 10
123.8187843670003
 20
-297.74751690899973
 30
0.0
  0
VERTEX
  5
91E
  8
BRACKET
  6
CONTINUOUS
 62
     7
 10
123.8187843670003
 20
-297.74751690899973
 30
0.0
  0
VERTEX
  5
91F
  8
BRACKET
  6
CONTINUOUS
 62
     7
 10
123.8187843670014
 20
-297.74751690899848
 30
0.0
 42
-0.021987484999761
  0
VERTEX
  5
920
  8
BRACKET
  6
CONTINUOUS
 62
     7
 10
124.00550782100029
 20
-297.55207841999982
 30
0.0
  0
VERTEX
  5
921
  8
BRACKET
  6
CONTINUOUS
 62
     7
 10
124.00550782100029
 20
-297.55207841999982
 30
0.0
  0
VERTEX
  5
922
  8
BRACKET
  6
CONTINUOUS
 62
     7
 10
124.00550782100029
 20
-297.55207841999982
 30
0.0
 42
-0.0223995980001461
  0
VERTEX
  5
923
  8
BRACKET
  6
CONTINUOUS
 62
     7
 10
124.2069793230003
 20
-297.37564668899978
 30
0.0
  0
VERTEX
  5
924
  8
BRACKET
  6
CONTINUOUS
 62
     7
 10
124.2069793230003
 20
-297.37564668899978
 30
0.0
  0
VERTEX
  5
925
  8
BRACKET
  6
CONTINUOUS
 62
     7
 10
124.20697932300131
 20
-297.3756466889991
 30
0.0
 42
-0.0228110599998826
  0
VERTEX
  5
926
  8
BRACKET
  6
CONTINUOUS
 62
     7
 10
124.4216370490003
 20
-297.2195894309998
 30
0.0
  0
VERTEX
  5
927
  8
BRACKET
  6
CONTINUOUS
 62
     7
 10
124.4216370490003
 20
-297.2195894309998
 30
0.0
  0
VERTEX
  5
928
  8
BRACKET
  6
CONTINUOUS
 62
     7
 10
124.4216370490019
 20
-297.21958943099878
 30
0.0
 42
-0.0232074989997372
  0
VERTEX
  5
929
  8
BRACKET
  6
CONTINUOUS
 62
     7
 10
124.6478169530001
 20
-297.08511641399991
 30
0.0
  0
VERTEX
  5
92A
  8
BRACKET
  6
CONTINUOUS
 62
     7
 10
124.6478169530001
 20
-297.08511641399991
 30
0.0
  0
VERTEX
  5
92B
  8
BRACKET
  6
CONTINUOUS
 62
     7
 10
124.6478169530002
 20
-297.0851164139998
 30
0.0
 42
-0.023573651999885
  0
VERTEX
  5
92C
  8
BRACKET
  6
CONTINUOUS
 62
     7
 10
124.8837656670003
 20
-296.97327008799988
 30
0.0
  0
VERTEX
  5
92D
  8
BRACKET
  6
CONTINUOUS
 62
     7
 10
124.8837656670003
 20
-296.97327008799988
 30
0.0
  0
VERTEX
  5
92E
  8
BRACKET
  6
CONTINUOUS
 62
     7
 10
124.8837656670013
 20
-296.97327008799948
 30
0.0
 42
-0.0238941429997607
  0
VERTEX
  5
92F
  8
BRACKET
  6
CONTINUOUS
 62
     7
 10
125.1276540960002
 20
-296.88491749299988
 30
0.0
  0
VERTEX
  5
930
  8
BRACKET
  6
CONTINUOUS
 62
     7
 10
125.1276540960002
 20
-296.88491749299988
 30
0.0
  0
VERTEX
  5
931
  8
BRACKET
  6
CONTINUOUS
 62
     7
 10
125.1276540960035
 20
-296.88491749299891
 30
0.0
 42
-0.0241544809994774
  0
VERTEX
  5
932
  8
BRACKET
  6
CONTINUOUS
 62
     7
 10
125.377591595
 20
-296.82074354799988
 30
0.0
  0
VERTEX
  5
933
  8
BRACKET
  6
CONTINUOUS
 62
     7
 10
125.377591595
 20
-296.82074354799988
 30
0.0
  0
VERTEX
  5
934
  8
BRACKET
  6
CONTINUOUS
 62
     7
 10
125.3775915950027
 20
-296.8207435479992
 30
0.0
 42
-0.0243421659995552
  0
VERTEX
  5
935
  8
BRACKET
  6
CONTINUOUS
 62
     7
 10
125.6316406250003
 20
-296.78124573499991
 30
0.0
  0
VERTEX
  5
936
  8
BRACKET
  6
CONTINUOUS
 62
     7
 10
125.6316406250003
 20
-296.78124573499991
 30
0.0
  0
SEQEND
  5
937
  8
BRACKET
  6
CONTINUOUS
 62
     7
  0
POLYLINE
  5
A7
  8
BRACKET
  6
CONTINUOUS
 62
     7
 66
     1
 10
0.0
 20
0.0
 30
0.0
 70
   128
  0
VERTEX
  5
938
  8
BRACKET
  6
CONTINUOUS
 62
     7
 10
146.43242187499951
 20
-304.39843323500662
 30
0.0
 42
-0.0199078939992702
  0
VERTEX
  5
939
  8
BRACKET
  6
CONTINUOUS
 62
     7
 10
146.36643359800021
 20
-304.8080063139999
 30
0.0
  0
VERTEX
  5
93A
  8
BRACKET
  6
CONTINUOUS
 62
     7
 10
146.36643359800021
 20
-304.8080063139999
 30
0.0
  0
VERTEX
  5
93B
  8
BRACKET
  6
CONTINUOUS
 62
     7
 10
146.3664335979999
 20
-304.80800631400092
 30
0.0
 42
-0.0200452239999082
  0
VERTEX
  5
93C
  8
BRACKET
  6
CONTINUOUS
 62
     7
 10
146.26830162200031
 20
-305.20954987099981
 30
0.0
  0
VERTEX
  5
93D
  8
BRACKET
  6
CONTINUOUS
 62
     7
 10
146.26830162200031
 20
-305.20954987099981
 30
0.0
  0
VERTEX
  5
93E
  8
BRACKET
  6
CONTINUOUS
 62
     7
 10
146.26830162200011
 20
-305.20954987099998
 30
0.0
 42
-0.0202373670000093
  0
VERTEX
  5
93F
  8
BRACKET
  6
CONTINUOUS
 62
     7
 10
146.1387855220004
 20
-305.59995583099999
 30
0.0
  0
VERTEX
  5
940
  8
BRACKET
  6
CONTINUOUS
 62
     7
 10
146.1387855220004
 20
-305.59995583099999
 30
0.0
  0
VERTEX
  5
941
  8
BRACKET
  6
CONTINUOUS
 62
     7
 10
146.1387855220004
 20
-305.59995583099999
 30
0.0
 42
-0.0204813090000076
  0
VERTEX
  5
942
  8
BRACKET
  6
CONTINUOUS
 62
     7
 10
145.97888779100001
 20
-305.976202328
 30
0.0
  0
VERTEX
  5
943
  8
BRACKET
  6
CONTINUOUS
 62
     7
 10
145.97888779100001
 20
-305.976202328
 30
0.0
  0
VERTEX
  5
944
  8
BRACKET
  6
CONTINUOUS
 62
     7
 10
145.97888779100001
 20
-305.976202328
 30
0.0
 42
-0.0207728450003896
  0
VERTEX
  5
945
  8
BRACKET
  6
CONTINUOUS
 62
     7
 10
145.7898460910001
 20
-306.33537709400002
 30
0.0
  0
VERTEX
  5
946
  8
BRACKET
  6
CONTINUOUS
 62
     7
 10
145.7898460910001
 20
-306.33537709400002
 30
0.0
  0
VERTEX
  5
947
  8
BRACKET
  6
CONTINUOUS
 62
     7
 10
145.7898460910001
 20
-306.33537709400002
 30
0.0
 42
-0.0211063900002499
  0
VERTEX
  5
948
  8
BRACKET
  6
CONTINUOUS
 62
     7
 10
145.57312366300039
 20
-306.67470000099968
 30
0.0
  0
VERTEX
  5
949
  8
BRACKET
  6
CONTINUOUS
 62
     7
 10
145.57312366300039
 20
-306.67470000099968
 30
0.0
  0
VERTEX
  5
94A
  8
BRACKET
  6
CONTINUOUS
 62
     7
 10
145.5731236630005
 20
-306.67470000099962
 30
0.0
 42
-0.0214747810000967
  0
VERTEX
  5
94B
  8
BRACKET
  6
CONTINUOUS
 62
     7
 10
145.33039800900039
 20
-306.99154458299989
 30
0.0
  0
VERTEX
  5
94C
  8
BRACKET
  6
CONTINUOUS
 62
     7
 10
145.33039800900039
 20
-306.99154458299989
 30
0.0
  0
VERTEX
  5
94D
  8
BRACKET
  6
CONTINUOUS
 62
     7
 10
145.33039800900039
 20
-306.99154458299989
 30
0.0
 42
-0.0218691170000854
  0
VERTEX
  5
94E
  8
BRACKET
  6
CONTINUOUS
 62
     7
 10
145.06354790200021
 20
-307.28345836099987
 30
0.0
  0
VERTEX
  5
94F
  8
BRACKET
  6
CONTINUOUS
 62
     7
 10
145.06354790200021
 20
-307.28345836099987
 30
0.0
  0
VERTEX
  5
950
  8
BRACKET
  6
CONTINUOUS
 62
     7
 10
145.0635479019964
 20
-307.28345836100368
 30
0.0
 42
-0.0222786789994019
  0
VERTEX
  5
951
  8
BRACKET
  6
CONTINUOUS
 62
     7
 10
144.77463884599999
 20
-307.54818183100002
 30
0.0
  0
VERTEX
  5
952
  8
BRACKET
  6
CONTINUOUS
 62
     7
 10
144.77463884599999
 20
-307.54818183100002
 30
0.0
  0
VERTEX
  5
953
  8
BRACKET
  6
CONTINUOUS
 62
     7
 10
144.77463884599689
 20
-307.54818183100252
 30
0.0
 42
-0.0226909799995843
  0
VERTEX
  5
954
  8
BRACKET
  6
CONTINUOUS
 62
     7
 10
144.46590709100019
 20
-307.78366594699992
 30
0.0
  0
VERTEX
  5
955
  8
BRACKET
  6
CONTINUOUS
 62
     7
 10
144.46590709100019
 20
-307.78366594699992
 30
0.0
  0
VERTEX
  5
956
  8
BRACKET
  6
CONTINUOUS
 62
     7
 10
144.46590709099891
 20
-307.78366594700083
 30
0.0
 42
-0.0230920159998282
  0
VERTEX
  5
957
  8
BRACKET
  6
CONTINUOUS
 62
     7
 10
144.13974231900011
 20
-307.98808798800002
 30
0.0
  0
VERTEX
  5
958
  8
BRACKET
  6
CONTINUOUS
 62
     7
 10
144.13974231900011
 20
-307.98808798800002
 30
0.0
  0
VERTEX
  5
959
  8
BRACKET
  6
CONTINUOUS
 62
     7
 10
144.13974231900011
 20
-307.98808798800002
 30
0.0
 42
-0.0234667270002659
  0
VERTEX
  5
95A
  8
BRACKET
  6
CONTINUOUS
 62
     7
 10
143.798669147
 20
-308.15986566299989
 30
0.0
  0
VERTEX
  5
95B
  8
BRACKET
  6
CONTINUOUS
 62
     7
 10
143.798669147
 20
-308.15986566299989
 30
0.0
  0
VERTEX
  5
95C
  8
BRACKET
  6
CONTINUOUS
 62
     7
 10
143.7986691469998
 20
-308.15986566300001
 30
0.0
 42
-0.0237997269998348
  0
VERTEX
  5
95D
  8
BRACKET
  6
CONTINUOUS
 62
     7
 10
143.4453275920005
 20
-308.2976693569999
 30
0.0
  0
VERTEX
  5
95E
  8
BRACKET
  6
CONTINUOUS
 62
     7
 10
143.4453275920005
 20
-308.2976693569999
 30
0.0
  0
VERTEX
  5
95F
  8
BRACKET
  6
CONTINUOUS
 62
     7
 10
143.4453275919995
 20
-308.2976693570003
 30
0.0
 42
-0.0240762409997766
  0
VERTEX
  5
960
  8
BRACKET
  6
CONTINUOUS
 62
     7
 10
143.08245263000029
 20
-308.40043242499991
 30
0.0
  0
VERTEX
  5
961
  8
BRACKET
  6
CONTINUOUS
 62
     7
 10
143.08245263000029
 20
-308.40043242499991
 30
0.0
  0
VERTEX
  5
962
  8
BRACKET
  6
CONTINUOUS
 62
     7
 10
143.0824526299993
 20
-308.40043242500019
 30
0.0
 42
-0.0242831959998728
  0
VERTEX
  5
963
  8
BRACKET
  6
CONTINUOUS
 62
     7
 10
142.71285302800021
 20
-308.46735945
 30
0.0
  0
VERTEX
  5
964
  8
BRACKET
  6
CONTINUOUS
 62
     7
 10
142.71285302800021
 20
-308.46735945
 30
0.0
  0
SEQEND
  5
965
  8
BRACKET
  6
CONTINUOUS
 62
     7
  0
POLYLINE
  5
D6
  8
BRACKET
  6
CONTINUOUS
 62
     7
 66
     1
 10
0.0
 20
0.0
 30
0.0
 70
   128
  0
VERTEX
  5
966
  8
BRACKET
  6
CONTINUOUS
 62
     7
 10
141.71449072200039
 20
-308.46735945
 30
0.0
 42
-0.0243227860001473
  0
VERTEX
  5
967
  8
BRACKET
  6
CONTINUOUS
 62
     7
 10
141.34489112000031
 20
-308.40043242499991
 30
0.0
  0
VERTEX
  5
968
  8
BRACKET
  6
CONTINUOUS
 62
     7
 10
141.34489112000031
 20
-308.40043242499991
 30
0.0
  0
VERTEX
  5
969
  8
BRACKET
  6
CONTINUOUS
 62
     7
 10
141.34489112000031
 20
-308.40043242499991
 30
0.0
 42
-0.0241349580001524
  0
VERTEX
  5
96A
  8
BRACKET
  6
CONTINUOUS
 62
     7
 10
140.98201615800011
 20
-308.2976693569999
 30
0.0
  0
VERTEX
  5
96B
  8
BRACKET
  6
CONTINUOUS
 62
     7
 10
140.98201615800011
 20
-308.2976693569999
 30
0.0
  0
VERTEX
  5
96C
  8
BRACKET
  6
CONTINUOUS
 62
     7
 10
140.98201615800011
 20
-308.2976693569999
 30
0.0
 42
-0.023874699000232
  0
VERTEX
  5
96D
  8
BRACKET
  6
CONTINUOUS
 62
     7
 10
140.62867460300001
 20
-308.15986566299989
 30
0.0
  0
VERTEX
  5
96E
  8
BRACKET
  6
CONTINUOUS
 62
     7
 10
140.62867460300001
 20
-308.15986566299989
 30
0.0
  0
VERTEX
  5
96F
  8
BRACKET
  6
CONTINUOUS
 62
     7
 10
140.62867460300001
 20
-308.15986566299989
 30
0.0
 42
-0.0235544830001195
  0
VERTEX
  5
970
  8
BRACKET
  6
CONTINUOUS
 62
     7
 10
140.28760143100041
 20
-307.98808798800002
 30
0.0
  0
VERTEX
  5
971
  8
BRACKET
  6
CONTINUOUS
 62
     7
 10
140.28760143100041
 20
-307.98808798800002
 30
0.0
  0
VERTEX
  5
972
  8
BRACKET
  6
CONTINUOUS
 62
     7
 10
140.28760143099879
 20
-307.98808798799888
 30
0.0
 42
-0.0231887639999973
  0
VERTEX
  5
973
  8
BRACKET
  6
CONTINUOUS
 62
     7
 10
139.96143665900041
 20
-307.78366594699992
 30
0.0
  0
VERTEX
  5
974
  8
BRACKET
  6
CONTINUOUS
 62
     7
 10
139.96143665900041
 20
-307.78366594699992
 30
0.0
  0
VERTEX
  5
975
  8
BRACKET
  6
CONTINUOUS
 62
     7
 10
139.96143665899729
 20
-307.78366594699781
 30
0.0
 42
-0.0227928699995236
  0
VERTEX
  5
976
  8
BRACKET
  6
CONTINUOUS
 62
     7
 10
139.6527049040001
 20
-307.54818183100002
 30
0.0
  0
VERTEX
  5
977
  8
BRACKET
  6
CONTINUOUS
 62
     7
 10
139.6527049040001
 20
-307.54818183100002
 30
0.0
  0
VERTEX
  5
978
  8
BRACKET
  6
CONTINUOUS
 62
     7
 10
139.6527049039984
 20
-307.54818183099849
 30
0.0
 42
-0.0223820209997538
  0
VERTEX
  5
979
  8
BRACKET
  6
CONTINUOUS
 62
     7
 10
139.36379584800031
 20
-307.28345836099987
 30
0.0
  0
VERTEX
  5
97A
  8
BRACKET
  6
CONTINUOUS
 62
     7
 10
139.36379584800031
 20
-307.28345836099987
 30
0.0
  0
VERTEX
  5
97B
  8
BRACKET
  6
CONTINUOUS
 62
     7
 10
139.36379584800031
 20
-307.28345836099987
 30
0.0
 42
-0.0219705390002946
  0
VERTEX
  5
97C
  8
BRACKET
  6
CONTINUOUS
 62
     7
 10
139.0969457410001
 20
-306.99154458299989
 30
0.0
  0
VERTEX
  5
97D
  8
BRACKET
  6
CONTINUOUS
 62
     7
 10
139.0969457410001
 20
-306.99154458299989
 30
0.0
  0
VERTEX
  5
97E
  8
BRACKET
  6
CONTINUOUS
 62
     7
 10
139.09694574099751
 20
-306.99154458299682
 30
0.0
 42
-0.0215713209995979
  0
VERTEX
  5
97F
  8
BRACKET
  6
CONTINUOUS
 62
     7
 10
138.85422008700019
 20
-306.67470000099968
 30
0.0
  0
VERTEX
  5
980
  8
BRACKET
  6
CONTINUOUS
 62
     7
 10
138.85422008700019
 20
-306.67470000099968
 30
0.0
  0
VERTEX
  5
981
  8
BRACKET
  6
CONTINUOUS
 62
     7
 10
138.85422008700019
 20
-306.67470000099968
 30
0.0
 42
-0.0211955380001485
  0
VERTEX
  5
982
  8
BRACKET
  6
CONTINUOUS
 62
     7
 10
138.6374976590005
 20
-306.33537709400002
 30
0.0
  0
VERTEX
  5
983
  8
BRACKET
  6
CONTINUOUS
 62
     7
 10
138.6374976590005
 20
-306.33537709400002
 30
0.0
  0
VERTEX
  5
984
  8
BRACKET
  6
CONTINUOUS
 62
     7
 10
138.6374976590005
 20
-306.33537709400002
 30
0.0
 42
-0.0208525440002131
  0
VERTEX
  5
985
  8
BRACKET
  6
CONTINUOUS
 62
     7
 10
138.44845595900011
 20
-305.976202328
 30
0.0
  0
VERTEX
  5
986
  8
BRACKET
  6
CONTINUOUS
 62
     7
 10
138.44845595900011
 20
-305.976202328
 30
0.0
  0
VERTEX
  5
987
  8
BRACKET
  6
CONTINUOUS
 62
     7
 10
138.4484559589965
 20
-305.9762023279925
 30
0.0
 42
-0.0205499239991906
  0
VERTEX
  5
988
  8
BRACKET
  6
CONTINUOUS
 62
     7
 10
138.28855822800011
 20
-305.59995583099999
 30
0.0
  0
VERTEX
  5
989
  8
BRACKET
  6
CONTINUOUS
 62
     7
 10
138.28855822800011
 20
-305.59995583099999
 30
0.0
  0
VERTEX
  5
98A
  8
BRACKET
  6
CONTINUOUS
 62
     7
 10
138.28855822800011
 20
-305.59995583099999
 30
0.0
 42
-0.0202936390004364
  0
VERTEX
  5
98B
  8
BRACKET
  6
CONTINUOUS
 62
     7
 10
138.15904212800021
 20
-305.20954987099981
 30
0.0
  0
VERTEX
  5
98C
  8
BRACKET
  6
CONTINUOUS
 62
     7
 10
138.15904212800021
 20
-305.20954987099981
 30
0.0
  0
VERTEX
  5
98D
  8
BRACKET
  6
CONTINUOUS
 62
     7
 10
138.15904212800021
 20
-305.20954987099981
 30
0.0
 42
-0.0200882200001697
  0
VERTEX
  5
98E
  8
BRACKET
  6
CONTINUOUS
 62
     7
 10
138.06091015200039
 20
-304.8080063139999
 30
0.0
  0
VERTEX
  5
98F
  8
BRACKET
  6
CONTINUOUS
 62
     7
 10
138.06091015200039
 20
-304.8080063139999
 30
0.0
  0
VERTEX
  5
990
  8
BRACKET
  6
CONTINUOUS
 62
     7
 10
138.06091015200039
 20
-304.8080063139999
 30
0.0
 42
-0.0199369620005771
  0
VERTEX
  5
991
  8
BRACKET
  6
CONTINUOUS
 62
     7
 10
137.9949218750003
 20
-304.39843323499991
 30
0.0
  0
VERTEX
  5
992
  8
BRACKET
  6
CONTINUOUS
 62
     7
 10
137.9949218750003
 20
-304.39843323499991
 30
0.0
  0
SEQEND
  5
993
  8
BRACKET
  6
CONTINUOUS
 62
     7
  0
CIRCLE
  5
105
  8
BRACKET
  6
CONTINUOUS
 62
     7
 10
130.00000000000051
 20
-257.49999999999972
 30
0.0
 40
6.5
  0
CIRCLE
  5
106
  8
BRACKET
  6
CONTINUOUS
 62
     7
 10
670.0
 20
-257.49999999999972
 30
0.0
 40
6.5
  0
CIRCLE
  5
107
  8
BRACKET
  6
CONTINUOUS
 62
     7
 10
265.00000000000051
 20
-257.49999999999972
 30
0.0
 40
4.5999999999999091
  0
CIRCLE
  5
108
  8
BRACKET
  6
CONTINUOUS
 62
     7
 10
150.00000000000051
 20
-257.49999999999972
 30
0.0
 40
4.5999999999999091
  0
CIRCLE
  5
109
  8
BRACKET
  6
CONTINUOUS
 62
     7
 10
400.0000000000004
 20
-257.49999999999972
 30
0.0
 40
4.5999999999999091
  0
CIRCLE
  5
10A
  8
BRACKET
  6
CONTINUOUS
 62
     7
 10
535.0
 20
-257.49999999999972
 30
0.0
 40
4.5999999999999091
  0
CIRCLE
  5
10B
  8
BRACKET
  6
CONTINUOUS
 62
     7
 10
650.0
 20
-257.49999999999972
 30
0.0
 40
4.5999999999999091
  0
LINE
  5
10C
  8
BRACKET
  6
CONTINUOUS
 62
     7
 10
697.58586604400034
 20
-242.4999999999998
 30
0.0
 11
700.18586604400025
 21
-242.4999999999998
 31
0.0
  0
LINE
  5
10D
  8
BRACKET
  6
CONTINUOUS
 62
     7
 10
697.58586604400034
 20
-242.4999999999998
 30
0.0
 11
697.58586604400034
 21
-239.89999999999989
 31
0.0
  0
LINE
  5
10E
  8
BRACKET
  6
CONTINUOUS
 62
     7
 10
102.4141339560001
 20
-239.89999999999989
 30
0.0
 11
697.58586604400034
 21
-239.89999999999989
 31
0.0
  0
LINE
  5
10F
  8
BRACKET
  6
STYLE_01
 62
     7
 10
102.4141339560001
 20
-242.4999999999998
 30
0.0
 11
697.58586604400034
 21
-242.4999999999998
 31
0.0
  0
LINE
  5
110
  8
BRACKET
  6
CONTINUOUS
 62
     7
 10
102.4141339560001
 20
-242.4999999999998
 30
0.0
 11
102.4141339560001
 21
-239.89999999999989
 31
0.0
  0
LINE
  5
111
  8
BRACKET
  6
CONTINUOUS
 62
     7
 10
99.814133956000234
 20
-242.4999999999998
 30
0.0
 11
102.4141339560001
 21
-242.4999999999998
 31
0.0
  0
LINE
  5
112
  8
BRACKET
  6
CONTINUOUS
 62
     7
 10
99.814133956000234
 20
-437.5
 30
0.0
 11
99.814133956000234
 21
-242.5
 31
0.0
  0
LINE
  5
113
  8
BRACKET
  6
STYLE_01
 62
     7
 10
102.4141339560001
 20
-437.5
 30
0.0
 11
102.4141339560001
 21
-242.5
 31
0.0
  0
LINE
  5
114
  8
BRACKET
  6
CONTINUOUS
 62
     7
 10
99.814133956000234
 20
-437.5
 30
0.0
 11
102.4141339560001
 21
-437.5
 31
0.0
  0
LINE
  5
115
  8
BRACKET
  6
CONTINUOUS
 62
     7
 10
102.4141339560001
 20
-440.0999999999998
 30
0.0
 11
102.4141339560001
 21
-437.5
 31
0.0
  0
LINE
  5
116
  8
BRACKET
  6
STYLE_01
 62
     7
 10
102.4141339560001
 20
-290.0
 30
0.0
 11
105.01413395599999
 21
-290.0
 31
0.0
  0
LINE
  5
117
  8
BRACKET
  6
STYLE_01
 62
     7
 10
102.4141339560001
 20
-390.0
 30
0.0
 11
105.01413395599999
 21
-390.0
 31
0.0
  0
LINE
  5
118
  8
BRACKET
  6
STYLE_01
 62
     7
 10
102.4141339560001
 20
-290.0
 30
0.0
 11
102.4141339560001
 21
-390.0
 31
0.0
  0
LINE
  5
119
  8
BRACKET
  6
STYLE_01
 62
     7
 10
105.01413395599999
 20
-290.0
 30
0.0
 11
105.01413395599999
 21
-390.0
 31
0.0
  0
LINE
  5
11A
  8
BRACKET
  6
CONTINUOUS
 62
     7
 10
700.18586604400025
 20
-437.5
 30
0.0
 11
700.18586604400025
 21
-242.5
 31
0.0
  0
LINE
  5
11B
  8
BRACKET
  6
STYLE_01
 62
     7
 10
697.58586604400034
 20
-437.5
 30
0.0
 11
697.58586604400034
 21
-242.5
 31
0.0
  0
POLYLINE
  5
11C
  8
BRACKET
  6
CONTINUOUS
 62
     7
 66
     1
 10
0.0
 20
0.0
 30
0.0
  0
VERTEX
  5
994
  8
BRACKET
  6
CONTINUOUS
 62
     7
 10
697.58586604400034
 20
-440.0999999999998
 30
0.0
  0
VERTEX
  5
995
  8
BRACKET
  6
CONTINUOUS
 62
     7
 10
697.58586604400034
 20
-437.5
 30
0.0
  0
VERTEX
  5
996
  8
BRACKET
  6
CONTINUOUS
 62
     7
 10
700.18586604400025
 20
-437.5
 30
0.0
  0
SEQEND
  5
997
  8
BRACKET
  6
CONTINUOUS
 62
     7
  0
LINE
  5
121
  8
BRACKET
  6
STYLE_01
 62
     7
 10
697.58586604400034
 20
-290.0
 30
0.0
 11
694.98586604400043
 21
-290.0
 31
0.0
  0
LINE
  5
122
  8
BRACKET
  6
STYLE_01
 62
     7
 10
697.58586604400034
 20
-390.0
 30
0.0
 11
694.98586604400043
 21
-390.0
 31
0.0
  0
LINE
  5
123
  8
BRACKET
  6
STYLE_01
 62
     7
 10
697.58586604400034
 20
-290.0
 30
0.0
 11
697.58586604400034
 21
-390.0
 31
0.0
  0
LINE
  5
124
  8
BRACKET
  6
STYLE_01
 62
     7
 10
694.98586604400043
 20
-290.0
 30
0.0
 11
694.98586604400043
 21
-390.0
 31
0.0
  0
CIRCLE
  5
125
  8
BRACKET
  6
CONTINUOUS
 62
     7
 10
130.00000000000051
 20
-422.49999999999989
 30
0.0
 40
6.5
  0
CIRCLE
  5
126
  8
BRACKET
  6
CONTINUOUS
 62
     7
 10
670.0
 20
-422.49999999999989
 30
0.0
 40
6.5
  0
CIRCLE
  5
127
  8
BRACKET
  6
CONTINUOUS
 62
     7
 10
650.0
 20
-422.49999999999989
 30
0.0
 40
4.5999999999999091
  0
CIRCLE
  5
128
  8
BRACKET
  6
CONTINUOUS
 62
     7
 10
535.0
 20
-422.49999999999989
 30
0.0
 40
4.5999999999999091
  0
CIRCLE
  5
129
  8
BRACKET
  6
CONTINUOUS
 62
     7
 10
400.0000000000004
 20
-422.49999999999989
 30
0.0
 40
4.5999999999999091
  0
CIRCLE
  5
12A
  8
BRACKET
  6
CONTINUOUS
 62
     7
 10
265.00000000000051
 20
-422.49999999999989
 30
0.0
 40
4.5999999999999091
  0
CIRCLE
  5
12B
  8
BRACKET
  6
CONTINUOUS
 62
     7
 10
150.00000000000051
 20
-422.49999999999989
 30
0.0
 40
4.5999999999999091
  0
LINE
  5
12C
  8
BRACKET
  6
CONTINUOUS
 62
     7
 10
102.4141339560001
 20
-440.0999999999998
 30
0.0
 11
697.58586604400034
 21
-440.0999999999998
 31
0.0
  0
LINE
  5
12D
  8
BRACKET
  6
STYLE_01
 62
     7
 10
102.4141339560001
 20
-437.5
 30
0.0
 11
697.58586604400034
 21
-437.5
 31
0.0
  0
ENDBLK
  5
12E
  8
BRACKET
  0
ENDSEC
  0
SECTION
  2
ENTITIES
  0
LINE
  5
259
  8
HIBINO-BASE
 62
     7
 10
-800.0
 20
1471.786335
 30
0.0
 11
999.99999999999955
 21
1471.786335
 31
0.0
  0
LINE
  5
25A
  8
HIBINO-BASE
 62
     7
 10
999.99999999999955
 20
-1128.213665
 30
0.0
 11
-800.0
 21
-1128.213665
 31
0.0
  0
LINE
  5
25B
  8
HIBINO-BASE
 62
     7
 10
-800.0
 20
-1128.213665
 30
0.0
 11
-800.0
 21
1471.786335
 31
0.0
  0
TEXT
  5
25C
  8
HIBINO-BASE
 62
     7
 10
-728.15999999999985
 20
-1189.4935049999999
 30
0.0
 40
37.425839999999987
  1
Hibino Corporation
 41
0.7
 11
-728.15999999999985
 21
-1152.067665
 31
0.0
 73
     3
  0
LINE
  5
25D
  8
HIBINO-BASE
 62
     7
 10
999.99999999999955
 20
1471.786335
 30
0.0
 11
999.99999999999955
 21
-1128.213665
 31
0.0
  0
LINE
  5
25E
  8
HIBINO-BASE
 62
     7
 10
100.0
 20
-903.21366499999988
 30
0.0
 11
999.99999999999955
 21
-903.21366499999988
 31
0.0
  0
LINE
  5
25F
  8
HIBINO-BASE
 62
     7
 10
100.0
 20
-1128.213665
 30
0.0
 11
100.0
 21
-903.21366499999988
 31
0.0
  0
TEXT
  5
260
  8
HIBINO-BASE
 62
     7
 10
109.0
 20
-927.03059833333327
 30
0.0
 40
16.93333333333333
  1
NOTE
 41
0.7
 11
109.0
 21
-910.09726499999999
 31
0.0
 73
     3
  0
LINE
  5
261
  8
HIBINO-BASE
 62
     7
 10
450.0
 20
-1128.213665
 30
0.0
 11
450.0
 21
-903.21366499999988
 31
0.0
  0
TEXT
  5
262
  8
HIBINO-BASE
 62
     7
 10
459.0
 20
-927.03059833333327
 30
0.0
 40
16.93333333333333
  1
TITLE
 41
0.7
 11
459.0
 21
-910.09726499999999
 31
0.0
 73
     3
  0
TEXT
  5
263
  8
HIBINO-BASE
 62
     7
 10
600.68389999999988
 20
-1189.4935049999999
 30
0.0
 40
37.425839999999987
  1
ヒビノ株式会社
 41
0.7
 11
600.68389999999988
 21
-1152.067665
 31
0.0
 73
     3
  0
LINE
  5
264
  8
HIBINO-BASE
 62
     7
 10
100.0
 20
-1028.213665
 30
0.0
 11
999.99999999999955
 21
-1028.213665
 31
0.0
  0
TEXT
  5
265
  8
HIBINO-BASE
 62
     7
 10
584.0
 20
-1051.467398333333
 30
0.0
 40
16.93333333333333
  1
DRAWN
 41
0.7
 11
584.0
 21
-1034.5340650000001
 31
0.0
 73
     3
  0
TEXT
  5
266
  8
HIBINO-BASE
 62
     7
 10
334.0
 20
-1051.467398333333
 30
0.0
 40
16.93333333333333
  1
DATE
 41
0.7
 11
334.0
 21
-1034.5340650000001
 31
0.0
 73
     3
  0
TEXT
  5
267
  8
HIBINO-BASE
 62
     7
 10
234.0
 20
-1051.467398333333
 30
0.0
 40
16.93333333333333
  1
SCALE
 41
0.7
 11
234.0
 21
-1034.5340650000001
 31
0.0
 73
     3
  0
TEXT
  5
268
  8
HIBINO-BASE
 62
     7
 10
459.0
 20
-1051.467398333333
 30
0.0
 40
16.93333333333333
  1
DESIGN
 41
0.7
 11
459.0
 21
-1034.5340650000001
 31
0.0
 73
     3
  0
TEXT
  5
269
  8
HIBINO-BASE
 62
     7
 10
834.0
 20
-1051.467398333333
 30
0.0
 40
16.93333333333333
  1
DRAWING NO.
 41
0.7
 11
834.0
 21
-1034.5340650000001
 31
0.0
 73
     3
  0
TEXT
  5
26A
  8
HIBINO-BASE
 62
     7
 10
708.99999999999955
 20
-1051.467398333333
 30
0.0
 40
16.93333333333333
  1
CHECK
 41
0.7
 11
708.99999999999955
 21
-1034.5340650000001
 31
0.0
 73
     3
  0
LINE
  5
26B
  8
HIBINO-BASE
 62
     7
 10
243.75
 20
-1115.713665
 30
0.0
 11
281.25
 21
-1078.213665
 31
0.0
  0
TEXT
  5
26C
  8
HIBINO-BASE
 62
     7
 10
237.5
 20
-1088.0330983333331
 30
0.0
 40
16.93333333333333
  1
1
 41
0.7
 11
237.5
 21
-1071.0997649999999
 31
0.0
 73
     3
  0
LINE
  5
26D
  8
HIBINO-BASE
 62
     7
 10
225.0
 20
-1128.213665
 30
0.0
 11
225.0
 21
-1028.213665
 31
0.0
  0
LINE
  5
26E
  8
HIBINO-BASE
 62
     7
 10
325.0
 20
-1128.213665
 30
0.0
 11
325.0
 21
-1028.213665
 31
0.0
  0
LINE
  5
26F
  8
HIBINO-BASE
 62
     7
 10
574.99999999999989
 20
-1028.213665
 30
0.0
 11
574.99999999999989
 21
-1128.213665
 31
0.0
  0
LINE
  5
270
  8
HIBINO-BASE
 62
     7
 10
825.0
 20
-1028.213665
 30
0.0
 11
825.0
 21
-1128.213665
 31
0.0
  0
LINE
  5
271
  8
HIBINO-BASE
 62
     7
 10
699.99999999999989
 20
-1128.213665
 30
0.0
 11
699.99999999999989
 21
-1028.213665
 31
0.0
  0
TEXT
  5
272
  8
HIBINO-BASE
 62
     7
 10
333.5653999999999
 20
-1098.307198333333
 30
0.0
 40
16.93333333333333
  1
'03.08.
 41
0.7
 11
333.5653999999999
 21
-1081.373865
 31
0.0
 73
     3
  0
TEXT
  5
273
  8
HIBINO-BASE
 62
     7
 10
275.0
 20
-1106.7830983333331
 30
0.0
 40
16.93333333333333
  1
10
 41
0.7
 11
275.0
 21
-1089.8497649999999
 31
0.0
 73
     3
  0
TEXT
  5
274
  8
HIBINO-BASE
 62
     7
 10
590.05810011034623
 20
-1098.307198333333
 30
0.0
 40
16.93333333333333
  1
N.Sasaki
 41
0.7
 11
590.05810011034623
 21
-1081.373865
 31
0.0
 73
     3
  0
TEXT
  5
275
  8
HIBINO-BASE
 62
     7
 10
138.83333333333351
 20
-1105.9136649999989
 30
0.0
 40
33.866666666666667
  1
A4
 41
0.7
 11
138.83333333333351
 21
-1072.046998333333
 31
0.0
 73
     3
  0
TEXT
  5
276
  8
HIBINO-BASE
 62
     7
 10
109.5833333333333
 20
-1053.138214999999
 30
0.0
 40
16.93333333333333
  1
PAPER SIZE
 41
0.7
 11
109.5833333333333
 21
-1036.2048816666661
 31
0.0
 73
     3
  0
TEXT
  5
277
  8
DIMNSIONS
 62
     7
 10
-100.0
 20
-1003.6137649999999
 30
0.0
 40
25.399999999999999
  1
(単位：mm)
 41
0.7
 11
-100.0
 21
-978.21376499999985
 31
0.0
 73
     3
  0
LINE
  5
278
  8
DIMNSIONS
 62
     7
 10
231.09069576231241
 20
1288.907837603588
 30
0.0
 11
250.0
 21
1400.0
 31
0.0
  0
LINE
  5
279
  8
DIMNSIONS
 62
     7
 10
231.09069576231241
 20
1288.907837603588
 30
0.0
 11
228.8343774147319
 21
1314.697674328113
 31
0.0
  0
LINE
  5
27A
  8
DIMNSIONS
 62
     7
 10
231.09069576231241
 20
1288.907837603588
 30
0.0
 11
242.0315851165453
 21
1312.370650540269
 31
0.0
  0
LINE
  5
27B
  8
DIMNSIONS
 62
     7
 10
250.0
 20
1400.0
 30
0.0
 11
375.83333333333331
 21
1400.0
 31
0.0
  0
TEXT
  5
27C
  8
DIMNSIONS
 62
     7
 10
270.0
 20
1410.8055555555561
 30
0.0
 40
28.222222222222229
  1
4-\U+03C613
 41
0.7
 11
270.0
 21
1439.0277777777781
 31
0.0
 73
     3
  0
LINE
  5
27D
  8
DIMNSIONS
 62
     7
 10
367.09197492012532
 20
1286.5967842185789
 30
0.0
 11
424.99999999999989
 21
1400.0
 31
0.0
  0
LINE
  5
27E
  8
DIMNSIONS
 62
     7
 10
367.09197492012532
 20
1286.5967842185789
 30
0.0
 11
372.91558648285621
 21
1311.821617203748
 31
0.0
  0
LINE
  5
27F
  8
DIMNSIONS
 62
     7
 10
367.09197492012532
 20
1286.5967842185789
 30
0.0
 11
384.747786967808
 21
1305.53032460859
 31
0.0
  0
LINE
  5
280
  8
DIMNSIONS
 62
     7
 10
424.99999999999989
 20
1400.0
 30
0.0
 11
586.11111111111074
 21
1400.0
 31
0.0
  0
TEXT
  5
281
  8
DIMNSIONS
 62
     7
 10
444.99999999999989
 20
1410.8055555555561
 30
0.0
 40
28.222222222222229
  1
10-\U+03C69.2
 41
0.7
 11
444.99999999999989
 21
1439.0277777777781
 31
0.0
 73
     3
  0
LINE
  5
282
  8
DIMNSIONS
 62
     7
 10
203.4999999999996
 20
1117.5
 30
0.0
 11
29.999999999999989
 21
1117.5
 31
0.0
  0
LINE
  5
283
  8
DIMNSIONS
 62
     7
 10
203.4999999999996
 20
1282.5
 30
0.0
 11
29.999999999999989
 21
1282.5
 31
0.0
  0
LINE
  5
284
  8
DIMNSIONS
 62
     7
 10
50.0
 20
1117.5
 30
0.0
 11
50.0
 21
1282.5
 31
0.0
  0
LINE
  5
285
  8
DIMNSIONS
 62
     7
 10
50.0
 20
1117.5
 30
0.0
 11
43.299602048497533
 21
1142.506225585937
 31
0.0
  0
LINE
  5
286
  8
DIMNSIONS
 62
     7
 10
50.0
 20
1117.5
 30
0.0
 11
56.70039795150241
 21
1142.506225585937
 31
0.0
  0
LINE
  5
287
  8
DIMNSIONS
 62
     7
 10
50.0
 20
1282.5
 30
0.0
 11
56.700397951502403
 21
1257.493774414062
 31
0.0
  0
LINE
  5
288
  8
DIMNSIONS
 62
     7
 10
50.0
 20
1282.5
 30
0.0
 11
43.299602048497533
 21
1257.493774414062
 31
0.0
  0
TEXT
  5
289
  8
DIMNSIONS
 62
     7
 10
39.194444444444443
 20
1173.5416666666661
 30
0.0
 40
28.222222222222229
  1
165
 50
90.0
 41
0.7
 11
10.972222222222211
 21
1173.5416666666661
 31
0.0
 73
     3
  0
LINE
  5
28A
  8
DIMNSIONS
 62
     7
 10
203.4999999999996
 20
1282.5
 30
0.0
 11
29.999999999999989
 21
1282.5
 31
0.0
  0
LINE
  5
28B
  8
DIMNSIONS
 62
     7
 10
182.414133956
 20
1300.0999999999999
 30
0.0
 11
29.999999999999989
 21
1300.0999999999999
 31
0.0
  0
LINE
  5
28C
  8
DIMNSIONS
 62
     7
 10
50.0
 20
1300.0999999999999
 30
0.0
 11
50.0
 21
1282.5
 31
0.0
  0
LINE
  5
28D
  8
DIMNSIONS
 62
     7
 10
50.0
 20
1282.5
 30
0.0
 11
50.0
 21
1232.5
 31
0.0
  0
LINE
  5
28E
  8
DIMNSIONS
 62
     7
 10
50.0
 20
1282.5
 30
0.0
 11
56.700397951502403
 21
1257.493774414062
 31
0.0
  0
LINE
  5
28F
  8
DIMNSIONS
 62
     7
 10
50.0
 20
1282.5
 30
0.0
 11
43.299602048497533
 21
1257.493774414062
 31
0.0
  0
LINE
  5
290
  8
DIMNSIONS
 62
     7
 10
50.0
 20
1300.0999999999999
 30
0.0
 11
50.0
 21
1398.0908003409929
 31
0.0
  0
LINE
  5
291
  8
DIMNSIONS
 62
     7
 10
50.0
 20
1300.0999999999999
 30
0.0
 11
43.299602048497533
 21
1325.1062255859381
 31
0.0
  0
LINE
  5
292
  8
DIMNSIONS
 62
     7
 10
50.0
 20
1300.0999999999999
 30
0.0
 11
56.70039795150241
 21
1325.1062255859381
 31
0.0
  0
TEXT
  5
293
  8
DIMNSIONS
 62
     7
 10
39.194444444444443
 20
1327.535244785437
 30
0.0
 40
28.222222222222229
  1
17.6
 50
90.0
 41
0.7
 11
10.972222222222211
 21
1327.535244785437
 31
0.0
 73
     3
  0
LINE
  5
294
  8
DIMNSIONS
 62
     7
 10
203.4999999999996
 20
1117.5
 30
0.0
 11
29.999999999999989
 21
1117.5
 31
0.0
  0
LINE
  5
295
  8
DIMNSIONS
 62
     7
 10
182.414133956
 20
1099.9000000000001
 30
0.0
 11
29.999999999999989
 21
1099.9000000000001
 31
0.0
  0
LINE
  5
296
  8
DIMNSIONS
 62
     7
 10
50.0
 20
1099.9000000000001
 30
0.0
 11
50.0
 21
1117.5
 31
0.0
  0
LINE
  5
297
  8
DIMNSIONS
 62
     7
 10
50.0
 20
1117.5
 30
0.0
 11
50.0
 21
1167.5
 31
0.0
  0
LINE
  5
298
  8
DIMNSIONS
 62
     7
 10
50.0
 20
1117.5
 30
0.0
 11
43.299602048497533
 21
1142.506225585937
 31
0.0
  0
LINE
  5
299
  8
DIMNSIONS
 62
     7
 10
50.0
 20
1117.5
 30
0.0
 11
56.70039795150241
 21
1142.506225585937
 31
0.0
  0
LINE
  5
29A
  8
DIMNSIONS
 62
     7
 10
50.0
 20
1099.9000000000001
 30
0.0
 11
50.0
 21
1001.844444444444
 31
0.0
  0
LINE
  5
29B
  8
DIMNSIONS
 62
     7
 10
50.0
 20
1099.9000000000001
 30
0.0
 11
56.700397951502403
 21
1074.8937744140619
 31
0.0
  0
LINE
  5
29C
  8
DIMNSIONS
 62
     7
 10
50.0
 20
1099.9000000000001
 30
0.0
 11
43.299602048497533
 21
1074.8937744140619
 31
0.0
  0
TEXT
  5
29D
  8
DIMNSIONS
 62
     7
 10
39.194444444444443
 20
1001.844444444444
 30
0.0
 40
28.222222222222229
  1
17.6
 50
90.0
 41
0.7
 11
10.972222222222211
 21
1001.844444444444
 31
0.0
 73
     3
  0
LINE
  5
29E
  8
DIMNSIONS
 62
     7
 10
182.414133956
 20
1099.9000000000001
 30
0.0
 11
-20.000000000000149
 21
1099.9000000000001
 31
0.0
  0
LINE
  5
29F
  8
DIMNSIONS
 62
     7
 10
182.414133956
 20
1300.0999999999999
 30
0.0
 11
-20.000000000000149
 21
1300.0999999999999
 31
0.0
  0
LINE
  5
2A0
  8
DIMNSIONS
 62
     7
 10
-0.0000000000001563
 20
1099.9000000000001
 30
0.0
 11
-0.0000000000001563
 21
1300.0999999999999
 31
0.0
  0
LINE
  5
2A1
  8
DIMNSIONS
 62
     7
 10
-0.0000000000001563
 20
1099.9000000000001
 30
0.0
 11
-6.7003979515025929
 21
1124.9062255859369
 31
0.0
  0
LINE
  5
2A2
  8
DIMNSIONS
 62
     7
 10
-0.0000000000001563
 20
1099.9000000000001
 30
0.0
 11
6.700397951502266
 21
1124.9062255859369
 31
0.0
  0
LINE
  5
2A3
  8
DIMNSIONS
 62
     7
 10
-0.0000000000001563
 20
1300.0999999999999
 30
0.0
 11
6.700397951502266
 21
1275.093774414062
 31
0.0
  0
LINE
  5
2A4
  8
DIMNSIONS
 62
     7
 10
-0.0000000000001563
 20
1300.0999999999999
 30
0.0
 11
-6.7003979515025804
 21
1275.093774414062
 31
0.0
  0
TEXT
  5
2A5
  8
DIMNSIONS
 62
     7
 10
-10.80555555555569
 20
1155.9027777777781
 30
0.0
 40
28.222222222222229
  1
200.2
 50
90.0
 41
0.7
 11
-39.027777777777928
 21
1155.9027777777781
 31
0.0
 73
     3
  0
LINE
  5
2A6
  8
DIMNSIONS
 62
     7
 10
199.81413395599969
 20
1082.5
 30
0.0
 11
199.81413395599969
 21
980.0
 31
0.0
  0
LINE
  5
2A7
  8
DIMNSIONS
 62
     7
 10
249.9999999999996
 20
1092.9000000000001
 30
0.0
 11
249.9999999999996
 21
980.0
 31
0.0
  0
LINE
  5
2A8
  8
DIMNSIONS
 62
     7
 10
199.81413395599969
 20
1000.0
 30
0.0
 11
104.4444444444444
 21
1000.0
 31
0.0
  0
LINE
  5
2A9
  8
DIMNSIONS
 62
     7
 10
199.81413395599969
 20
1000.0
 30
0.0
 11
249.9999999999996
 21
1000.0
 31
0.0
  0
LINE
  5
2AA
  8
DIMNSIONS
 62
     7
 10
199.81413395599969
 20
1000.0
 30
0.0
 11
224.82035954193731
 21
1006.7003979515021
 31
0.0
  0
LINE
  5
2AB
  8
DIMNSIONS
 62
     7
 10
199.81413395599969
 20
1000.0
 30
0.0
 11
224.82035954193731
 21
993.2996020484976
 31
0.0
  0
LINE
  5
2AC
  8
DIMNSIONS
 62
     7
 10
249.9999999999996
 20
1000.0
 30
0.0
 11
224.99377441406199
 21
993.2996020484976
 31
0.0
  0
LINE
  5
2AD
  8
DIMNSIONS
 62
     7
 10
249.9999999999996
 20
1000.0
 30
0.0
 11
224.99377441406199
 21
1006.7003979515021
 31
0.0
  0
TEXT
  5
2AE
  8
DIMNSIONS
 62
     7
 10
104.4444444444444
 20
1010.805555555555
 30
0.0
 40
28.222222222222229
  1
50.2
 41
0.7
 11
104.4444444444444
 21
1039.0277777777781
 31
0.0
 73
     3
  0
LINE
  5
2AF
  8
DIMNSIONS
 62
     7
 10
249.9999999999996
 20
1092.9000000000001
 30
0.0
 11
249.9999999999996
 21
980.0
 31
0.0
  0
LINE
  5
2B0
  8
DIMNSIONS
 62
     7
 10
364.99999999999949
 20
1092.9000000000001
 30
0.0
 11
364.99999999999949
 21
980.0
 31
0.0
  0
LINE
  5
2B1
  8
DIMNSIONS
 62
     7
 10
249.9999999999996
 20
1000.0
 30
0.0
 11
364.99999999999949
 21
1000.0
 31
0.0
  0
LINE
  5
2B2
  8
DIMNSIONS
 62
     7
 10
249.9999999999996
 20
1000.0
 30
0.0
 11
275.00622558593699
 21
1006.7003979515021
 31
0.0
  0
LINE
  5
2B3
  8
DIMNSIONS
 62
     7
 10
249.9999999999996
 20
1000.0
 30
0.0
 11
275.00622558593699
 21
993.2996020484976
 31
0.0
  0
LINE
  5
2B4
  8
DIMNSIONS
 62
     7
 10
364.99999999999949
 20
1000.0
 30
0.0
 11
339.9937744140621
 21
993.2996020484976
 31
0.0
  0
LINE
  5
2B5
  8
DIMNSIONS
 62
     7
 10
364.99999999999949
 20
1000.0
 30
0.0
 11
339.9937744140621
 21
1006.7003979515021
 31
0.0
  0
TEXT
  5
2B6
  8
DIMNSIONS
 62
     7
 10
281.04166666666612
 20
1010.805555555555
 30
0.0
 40
28.222222222222229
  1
115
 41
0.7
 11
281.04166666666612
 21
1039.0277777777781
 31
0.0
 73
     3
  0
LINE
  5
2B7
  8
DIMNSIONS
 62
     7
 10
364.99999999999949
 20
1092.9000000000001
 30
0.0
 11
364.99999999999949
 21
980.0
 31
0.0
  0
LINE
  5
2B8
  8
DIMNSIONS
 62
     7
 10
499.99999999999937
 20
1092.9000000000001
 30
0.0
 11
499.99999999999937
 21
980.0
 31
0.0
  0
LINE
  5
2B9
  8
DIMNSIONS
 62
     7
 10
364.99999999999949
 20
1000.0
 30
0.0
 11
499.99999999999937
 21
1000.0
 31
0.0
  0
LINE
  5
2BA
  8
DIMNSIONS
 62
     7
 10
364.99999999999949
 20
1000.0
 30
0.0
 11
390.0062255859371
 21
1006.7003979515021
 31
0.0
  0
LINE
  5
2BB
  8
DIMNSIONS
 62
     7
 10
364.99999999999949
 20
1000.0
 30
0.0
 11
390.0062255859371
 21
993.2996020484976
 31
0.0
  0
LINE
  5
2BC
  8
DIMNSIONS
 62
     7
 10
499.99999999999937
 20
1000.0
 30
0.0
 11
474.99377441406199
 21
993.2996020484976
 31
0.0
  0
LINE
  5
2BD
  8
DIMNSIONS
 62
     7
 10
499.99999999999937
 20
1000.0
 30
0.0
 11
474.99377441406199
 21
1006.7003979515021
 31
0.0
  0
TEXT
  5
2BE
  8
DIMNSIONS
 62
     7
 10
406.04166666666612
 20
1010.805555555555
 30
0.0
 40
28.222222222222229
  1
135
 41
0.7
 11
406.04166666666612
 21
1039.0277777777781
 31
0.0
 73
     3
  0
LINE
  5
2BF
  8
DIMNSIONS
 62
     7
 10
499.99999999999937
 20
1092.9000000000001
 30
0.0
 11
499.99999999999937
 21
980.0
 31
0.0
  0
LINE
  5
2C0
  8
DIMNSIONS
 62
     7
 10
635.0
 20
1092.9000000000001
 30
0.0
 11
635.0
 21
980.0
 31
0.0
  0
LINE
  5
2C1
  8
DIMNSIONS
 62
     7
 10
499.99999999999937
 20
1000.0
 30
0.0
 11
635.0
 21
1000.0
 31
0.0
  0
LINE
  5
2C2
  8
DIMNSIONS
 62
     7
 10
499.99999999999937
 20
1000.0
 30
0.0
 11
525.00622558593705
 21
1006.7003979515021
 31
0.0
  0
LINE
  5
2C3
  8
DIMNSIONS
 62
     7
 10
499.99999999999937
 20
1000.0
 30
0.0
 11
525.00622558593705
 21
993.2996020484976
 31
0.0
  0
LINE
  5
2C4
  8
DIMNSIONS
 62
     7
 10
635.0
 20
1000.0
 30
0.0
 11
609.9937744140625
 21
993.2996020484976
 31
0.0
  0
LINE
  5
2C5
  8
DIMNSIONS
 62
     7
 10
635.0
 20
1000.0
 30
0.0
 11
609.9937744140625
 21
1006.7003979515021
 31
0.0
  0
TEXT
  5
2C6
  8
DIMNSIONS
 62
     7
 10
541.04166666666617
 20
1010.805555555555
 30
0.0
 40
28.222222222222229
  1
135
 41
0.7
 11
541.04166666666617
 21
1039.0277777777781
 31
0.0
 73
     3
  0
LINE
  5
2C7
  8
DIMNSIONS
 62
     7
 10
635.0
 20
1092.9000000000001
 30
0.0
 11
635.0
 21
980.0
 31
0.0
  0
LINE
  5
2C8
  8
DIMNSIONS
 62
     7
 10
750.0
 20
1092.9000000000001
 30
0.0
 11
750.0
 21
980.0
 31
0.0
  0
LINE
  5
2C9
  8
DIMNSIONS
 62
     7
 10
635.0
 20
1000.0
 30
0.0
 11
750.0
 21
1000.0
 31
0.0
  0
LINE
  5
2CA
  8
DIMNSIONS
 62
     7
 10
635.0
 20
1000.0
 30
0.0
 11
660.00622558593739
 21
1006.7003979515021
 31
0.0
  0
LINE
  5
2CB
  8
DIMNSIONS
 62
     7
 10
635.0
 20
1000.0
 30
0.0
 11
660.00622558593739
 21
993.2996020484976
 31
0.0
  0
LINE
  5
2CC
  8
DIMNSIONS
 62
     7
 10
750.0
 20
1000.0
 30
0.0
 11
724.99377441406227
 21
993.2996020484976
 31
0.0
  0
LINE
  5
2CD
  8
DIMNSIONS
 62
     7
 10
750.0
 20
1000.0
 30
0.0
 11
724.99377441406227
 21
1006.7003979515021
 31
0.0
  0
TEXT
  5
2CE
  8
DIMNSIONS
 62
     7
 10
666.04166666666652
 20
1010.805555555555
 30
0.0
 40
28.222222222222229
  1
115
 41
0.7
 11
666.04166666666652
 21
1039.0277777777781
 31
0.0
 73
     3
  0
LINE
  5
2CF
  8
DIMNSIONS
 62
     7
 10
770.0
 20
1091.0
 30
0.0
 11
770.0
 21
905.0
 31
0.0
  0
LINE
  5
2D0
  8
DIMNSIONS
 62
     7
 10
229.9999999999994
 20
1091.0
 30
0.0
 11
229.9999999999994
 21
905.0
 31
0.0
  0
LINE
  5
2D1
  8
DIMNSIONS
 62
     7
 10
770.0
 20
925.0
 30
0.0
 11
229.9999999999994
 21
925.0
 31
0.0
  0
LINE
  5
2D2
  8
DIMNSIONS
 62
     7
 10
770.0
 20
925.0
 30
0.0
 11
744.99377441406239
 21
918.2996020484976
 31
0.0
  0
LINE
  5
2D3
  8
DIMNSIONS
 62
     7
 10
770.0
 20
925.0
 30
0.0
 11
744.99377441406239
 21
931.70039795150228
 31
0.0
  0
LINE
  5
2D4
  8
DIMNSIONS
 62
     7
 10
229.9999999999994
 20
925.0
 30
0.0
 11
255.0062255859371
 21
931.70039795150228
 31
0.0
  0
LINE
  5
2D5
  8
DIMNSIONS
 62
     7
 10
229.9999999999994
 20
925.0
 30
0.0
 11
255.0062255859371
 21
918.2996020484976
 31
0.0
  0
TEXT
  5
2D6
  8
DIMNSIONS
 62
     7
 10
473.54166666666629
 20
935.80555555555554
 30
0.0
 40
28.222222222222229
  1
540
 41
0.7
 11
473.54166666666629
 21
964.02777777777794
 31
0.0
 73
     3
  0
LINE
  5
2D7
  8
DIMNSIONS
 62
     7
 10
229.9999999999994
 20
1091.0
 30
0.0
 11
229.9999999999994
 21
905.0
 31
0.0
  0
LINE
  5
2D8
  8
DIMNSIONS
 62
     7
 10
199.81413395599969
 20
1082.5
 30
0.0
 11
199.81413395599969
 21
905.0
 31
0.0
  0
LINE
  5
2D9
  8
DIMNSIONS
 62
     7
 10
199.81413395599969
 20
925.0
 30
0.0
 11
229.9999999999994
 21
925.0
 31
0.0
  0
LINE
  5
2DA
  8
DIMNSIONS
 62
     7
 10
229.9999999999994
 20
925.0
 30
0.0
 11
279.99999999999949
 21
925.0
 31
0.0
  0
LINE
  5
2DB
  8
DIMNSIONS
 62
     7
 10
229.9999999999994
 20
925.0
 30
0.0
 11
255.0062255859371
 21
931.70039795150228
 31
0.0
  0
LINE
  5
2DC
  8
DIMNSIONS
 62
     7
 10
229.9999999999994
 20
925.0
 30
0.0
 11
255.0062255859371
 21
918.2996020484976
 31
0.0
  0
LINE
  5
2DD
  8
DIMNSIONS
 62
     7
 10
199.81413395599969
 20
925.0
 30
0.0
 11
104.4444444444444
 21
925.0
 31
0.0
  0
LINE
  5
2DE
  8
DIMNSIONS
 62
     7
 10
199.81413395599969
 20
925.0
 30
0.0
 11
174.80790837006219
 21
918.2996020484976
 31
0.0
  0
LINE
  5
2DF
  8
DIMNSIONS
 62
     7
 10
199.81413395599969
 20
925.0
 30
0.0
 11
174.80790837006219
 21
931.70039795150228
 31
0.0
  0
TEXT
  5
2E0
  8
DIMNSIONS
 62
     7
 10
104.4444444444444
 20
935.80555555555554
 30
0.0
 40
28.222222222222229
  1
30.2
 41
0.7
 11
104.4444444444444
 21
964.02777777777794
 31
0.0
 73
     3
  0
LINE
  5
2E1
  8
DIMNSIONS
 62
     7
 10
199.81413395599969
 20
1082.5
 30
0.0
 11
199.81413395599969
 21
855.0
 31
0.0
  0
LINE
  5
2E2
  8
DIMNSIONS
 62
     7
 10
800.18586604400014
 20
1082.5
 30
0.0
 11
800.18586604400014
 21
855.0
 31
0.0
  0
LINE
  5
2E3
  8
DIMNSIONS
 62
     7
 10
199.81413395599969
 20
875.0
 30
0.0
 11
800.18586604400014
 21
875.0
 31
0.0
  0
LINE
  5
2E4
  8
DIMNSIONS
 62
     7
 10
199.81413395599969
 20
875.0
 30
0.0
 11
224.82035954193731
 21
881.70039795150228
 31
0.0
  0
LINE
  5
2E5
  8
DIMNSIONS
 62
     7
 10
199.81413395599969
 20
875.0
 30
0.0
 11
224.82035954193731
 21
868.2996020484976
 31
0.0
  0
LINE
  5
2E6
  8
DIMNSIONS
 62
     7
 10
800.18586604400014
 20
875.0
 30
0.0
 11
775.17964045806275
 21
868.2996020484976
 31
0.0
  0
LINE
  5
2E7
  8
DIMNSIONS
 62
     7
 10
800.18586604400014
 20
875.0
 30
0.0
 11
775.17964045806275
 21
881.70039795150228
 31
0.0
  0
TEXT
  5
2E8
  8
DIMNSIONS
 62
     7
 10
455.90277777777771
 20
885.80555555555554
 30
0.0
 40
28.222222222222229
  1
600.4
 41
0.7
 11
455.90277777777771
 21
914.02777777777794
 31
0.0
 73
     3
  0
LINE
  5
2E9
  8
DIMNSIONS
 62
     7
 10
239.55268085977329
 20
-154.6007428660576
 30
0.0
 11
350.0
 21
75.467411879522984
 31
0.0
  0
LINE
  5
2EA
  8
DIMNSIONS
 62
     7
 10
239.55268085977329
 20
-154.6007428660576
 30
0.0
 11
243.50323988049459
 21
-134.27687859067811
 31
0.0
  0
LINE
  5
2EB
  8
DIMNSIONS
 62
     7
 10
239.55268085977329
 20
-154.6007428660576
 30
0.0
 11
253.1358974685574
 21
-138.97503961087261
 31
0.0
  0
LINE
  5
2EC
  8
DIMNSIONS
 62
     7
 10
-322.27244961494131
 20
-216.55777712948509
 30
0.0
 11
-300.0
 21
-375.0
 31
0.0
  0
LINE
  5
2ED
  8
DIMNSIONS
 62
     7
 10
-322.27244961494131
 20
-216.55777712948509
 30
0.0
 11
-314.18265080182061
 21
-235.61614880241359
 31
0.0
  0
LINE
  5
2EE
  8
DIMNSIONS
 62
     7
 10
-322.27244961494131
 20
-216.55777712948509
 30
0.0
 11
-324.79566416773781
 21
-237.10771055956721
 31
0.0
  0
LINE
  5
2EF
  8
DIMNSIONS
 62
     7
 10
-375.0
 20
100.0
 30
0.0
 11
25.0
 21
100.0
 31
0.0
  0
LINE
  5
2F0
  8
DIMNSIONS
 62
     7
 10
-300.0
 20
-375.0
 30
0.0
 11
-25.0
 21
-375.0
 31
0.0
  0
TEXT
  5
2F1
  8
DIMNSIONS
 62
     7
 10
-278.12500150998397
 20
-362.70000000000022
 30
0.0
 40
25.399999999999999
  1
角度固定ねじ
 41
0.7
  0
TEXT
  5
2F2
  8
DIMNSIONS
 62
     7
 10
-275.0
 20
-412.69999999999987
 30
0.0
 40
25.399999999999999
  1
Ｍ６→Ｍ５変更
 41
0.7
  0
TEXT
  5
2F3
  8
DIMNSIONS
 62
     7
 10
-350.0
 20
112.3
 30
0.0
 40
25.399999999999999
  1
文字・矢印　マーキング
 41
0.7
  0
LINE
  5
2F4
  8
DIMNSIONS
 62
     7
 10
350.0
 20
75.467411879522984
 30
0.0
 11
600.0
 21
75.467411879522984
 31
0.0
  0
TEXT
  5
2F5
  8
DIMNSIONS
 62
     7
 10
375.0
 20
87.767411879522996
 30
0.0
 40
25.399999999999999
  1
文字　スリット
 41
0.7
  0
TEXT
  5
2F6
  8
DIMNSIONS
 62
     7
 10
375.0
 20
37.767411879523003
 30
0.0
 40
25.399999999999999
  1
矢印　穴抜き
 41
0.7
  0
LINE
  5
2F7
  8
DIMNSIONS
 62
     7
 10
-390.90239949220808
 20
-101.4263908678746
 30
0.0
 11
-375.0
 21
100.0
 31
0.0
  0
LINE
  5
2F8
  8
DIMNSIONS
 62
     7
 10
-390.90239949220808
 20
-101.4263908678746
 30
0.0
 11
-394.49765648394549
 21
-81.036675253780942
 31
0.0
  0
LINE
  5
2F9
  8
DIMNSIONS
 62
     7
 10
-390.90239949220808
 20
-101.4263908678746
 30
0.0
 11
-383.82112557313951
 21
-81.970750674260572
 31
0.0
  0
LINE
  5
2FA
  8
DIMNSIONS
 62
     7
 10
-300.0
 20
-82.5
 30
0.0
 11
-300.0
 21
45.0
 31
0.0
  0
LINE
  5
2FB
  8
DIMNSIONS
 62
     7
 10
-562.10000000000014
 20
-145.96743318299991
 30
0.0
 11
-562.10000000000014
 21
45.0
 31
0.0
  0
LINE
  5
2FC
  8
DIMNSIONS
 62
     7
 10
-300.0
 20
25.0
 30
0.0
 11
-562.10000000000014
 21
25.0
 31
0.0
  0
LINE
  5
2FD
  8
DIMNSIONS
 62
     7
 10
-300.0
 20
25.0
 30
0.0
 11
-325.0062255859375
 21
18.299602048497562
 31
0.0
  0
LINE
  5
2FE
  8
DIMNSIONS
 62
     7
 10
-300.0
 20
25.0
 30
0.0
 11
-325.0062255859375
 21
31.700397951502438
 31
0.0
  0
LINE
  5
2FF
  8
DIMNSIONS
 62
     7
 10
-562.10000000000014
 20
25.0
 30
0.0
 11
-537.09377441406252
 21
31.700397951502431
 31
0.0
  0
LINE
  5
300
  8
DIMNSIONS
 62
     7
 10
-562.10000000000014
 20
25.0
 30
0.0
 11
-537.09377441406252
 21
18.299602048497569
 31
0.0
  0
TEXT
  5
301
  8
DIMNSIONS
 62
     7
 10
-475.14722222222218
 20
35.805555555555543
 30
0.0
 40
28.222222222222229
  1
262.1
 41
0.7
 11
-475.14722222222218
 21
64.027777777777771
 31
0.0
 73
     3
  0
LINE
  5
302
  8
DIMNSIONS
 62
     7
 10
182.414133956
 20
-300.09999999999991
 30
0.0
 11
105.0
 21
-300.09999999999991
 31
0.0
  0
LINE
  5
303
  8
DIMNSIONS
 62
     7
 10
182.414133956
 20
-99.899999999999864
 30
0.0
 11
105.0
 21
-99.899999999999864
 31
0.0
  0
LINE
  5
304
  8
DIMNSIONS
 62
     7
 10
125.0
 20
-300.09999999999991
 30
0.0
 11
125.0
 21
-99.899999999999864
 31
0.0
  0
LINE
  5
305
  8
DIMNSIONS
 62
     7
 10
125.0
 20
-300.09999999999991
 30
0.0
 11
118.2996020484976
 21
-275.09377441406241
 31
0.0
  0
LINE
  5
306
  8
DIMNSIONS
 62
     7
 10
125.0
 20
-300.09999999999991
 30
0.0
 11
131.7003979515024
 21
-275.09377441406241
 31
0.0
  0
LINE
  5
307
  8
DIMNSIONS
 62
     7
 10
125.0
 20
-99.899999999999864
 30
0.0
 11
131.7003979515024
 21
-124.90622558593731
 31
0.0
  0
LINE
  5
308
  8
DIMNSIONS
 62
     7
 10
125.0
 20
-99.899999999999864
 30
0.0
 11
118.2996020484976
 21
-124.90622558593731
 31
0.0
  0
TEXT
  5
309
  8
DIMNSIONS
 62
     7
 10
114.1944444444444
 20
-244.09722222222209
 30
0.0
 40
28.222222222222229
  1
200.2
 50
90.0
 41
0.7
 11
85.972222222222229
 21
-244.09722222222209
 31
0.0
 73
     3
  0
LINE
  5
30A
  8
DIMNSIONS
 62
     7
 10
199.81413395599969
 20
-317.5
 30
0.0
 11
199.81413395599969
 21
-620.0
 31
0.0
  0
LINE
  5
30B
  8
DIMNSIONS
 62
     7
 10
800.18586604400014
 20
-317.5
 30
0.0
 11
800.18586604400014
 21
-620.0
 31
0.0
  0
LINE
  5
30C
  8
DIMNSIONS
 62
     7
 10
199.81413395599969
 20
-600.0
 30
0.0
 11
800.18586604400014
 21
-600.0
 31
0.0
  0
LINE
  5
30D
  8
DIMNSIONS
 62
     7
 10
199.81413395599969
 20
-600.0
 30
0.0
 11
224.82035954193731
 21
-593.2996020484976
 31
0.0
  0
LINE
  5
30E
  8
DIMNSIONS
 62
     7
 10
199.81413395599969
 20
-600.0
 30
0.0
 11
224.82035954193731
 21
-606.7003979515024
 31
0.0
  0
LINE
  5
30F
  8
DIMNSIONS
 62
     7
 10
800.18586604400014
 20
-600.0
 30
0.0
 11
775.17964045806275
 21
-606.7003979515024
 31
0.0
  0
LINE
  5
310
  8
DIMNSIONS
 62
     7
 10
800.18586604400014
 20
-600.0
 30
0.0
 11
775.17964045806275
 21
-593.2996020484976
 31
0.0
  0
TEXT
  5
311
  8
DIMNSIONS
 62
     7
 10
455.90277777777771
 20
-589.19444444444434
 30
0.0
 40
28.222222222222229
  1
600.4
 41
0.7
 11
455.90277777777771
 21
-560.97222222222194
 31
0.0
 73
     3
  0
LINE
  5
312
  8
DIMNSIONS
 62
     7
 10
205.5000000000002
 20
544.10000000000014
 30
0.0
 11
55.0
 21
544.10000000000014
 31
0.0
  0
LINE
  5
313
  8
DIMNSIONS
 62
     7
 10
179.81413395599969
 20
147.5
 30
0.0
 11
55.0
 21
147.5
 31
0.0
  0
LINE
  5
314
  8
DIMNSIONS
 62
     7
 10
74.999999999999986
 20
544.10000000000014
 30
0.0
 11
74.999999999999986
 21
147.5
 31
0.0
  0
LINE
  5
315
  8
DIMNSIONS
 62
     7
 10
74.999999999999986
 20
544.10000000000014
 30
0.0
 11
81.70039795150241
 21
519.09377441406252
 31
0.0
  0
LINE
  5
316
  8
DIMNSIONS
 62
     7
 10
74.999999999999986
 20
544.10000000000014
 30
0.0
 11
68.299602048497562
 21
519.09377441406252
 31
0.0
  0
LINE
  5
317
  8
DIMNSIONS
 62
     7
 10
74.999999999999986
 20
147.5
 30
0.0
 11
68.299602048497533
 21
172.5062255859375
 31
0.0
  0
LINE
  5
318
  8
DIMNSIONS
 62
     7
 10
74.999999999999986
 20
147.5
 30
0.0
 11
81.700397951502424
 21
172.5062255859375
 31
0.0
  0
TEXT
  5
319
  8
DIMNSIONS
 62
     7
 10
64.194444444444443
 20
331.51846151076552
 30
0.0
 40
28.222222222222229
  1
396.6
 50
90.0
 41
0.7
 11
35.972222222222207
 21
331.51846151076552
 31
0.0
 73
     3
  0
LINE
  5
31A
  8
DIMNSIONS
 62
     7
 10
230.77064527231241
 20
-288.95415415561979
 30
0.0
 11
250.0
 21
-450.0
 31
0.0
  0
LINE
  5
31B
  8
DIMNSIONS
 62
     7
 10
230.77064527231241
 20
-288.95415415561979
 30
0.0
 11
240.04820007538461
 21
-313.12301072020068
 31
0.0
  0
LINE
  5
31C
  8
DIMNSIONS
 62
     7
 10
230.77064527231241
 20
-288.95415415561979
 30
0.0
 11
226.72081513448481
 21
-314.52377532250517
 31
0.0
  0
LINE
  5
31D
  8
DIMNSIONS
 62
     7
 10
250.0
 20
-450.0
 30
0.0
 11
375.83333333333331
 21
-450.0
 31
0.0
  0
TEXT
  5
31E
  8
DIMNSIONS
 62
     7
 10
270.0
 20
-439.19444444444417
 30
0.0
 40
28.222222222222229
  1
4-\U+03C613
 41
0.7
 11
270.0
 21
-410.972222222222
 31
0.0
 73
     3
  0
LINE
  5
31F
  8
DIMNSIONS
 62
     7
 10
365.94087313838918
 20
-287.0027500194351
 30
0.0
 11
400.0
 21
-450.0
 31
0.0
  0
LINE
  5
320
  8
DIMNSIONS
 62
     7
 10
365.94087313838918
 20
-287.0027500194351
 30
0.0
 11
377.28957868971321
 21
-310.27104460826672
 31
0.0
  0
LINE
  5
321
  8
DIMNSIONS
 62
     7
 10
365.94087313838918
 20
-287.0027500194351
 30
0.0
 11
364.13499315148943
 21
-312.82803701176499
 31
0.0
  0
LINE
  5
322
  8
DIMNSIONS
 62
     7
 10
400.0
 20
-450.0
 30
0.0
 11
561.1111111111112
 21
-450.0
 31
0.0
  0
TEXT
  5
323
  8
DIMNSIONS
 62
     7
 10
420.00000000000011
 20
-439.19444444444417
 30
0.0
 40
28.222222222222229
  1
10-\U+03C69.2
 41
0.7
 11
420.00000000000011
 21
-410.972222222222
 31
0.0
 73
     3
  0
LINE
  5
324
  8
DIMNSIONS
 62
     7
 10
203.5
 20
-392.5
 30
0.0
 11
203.5
 21
-570.0
 31
0.0
  0
LINE
  5
325
  8
DIMNSIONS
 62
     7
 10
796.49999999999989
 20
-392.5
 30
0.0
 11
796.49999999999989
 21
-570.0
 31
0.0
  0
LINE
  5
326
  8
DIMNSIONS
 62
     7
 10
203.5
 20
-550.0
 30
0.0
 11
796.49999999999989
 21
-550.0
 31
0.0
  0
LINE
  5
327
  8
DIMNSIONS
 62
     7
 10
203.5
 20
-550.0
 30
0.0
 11
228.5062255859375
 21
-543.2996020484976
 31
0.0
  0
LINE
  5
328
  8
DIMNSIONS
 62
     7
 10
203.5
 20
-550.0
 30
0.0
 11
228.5062255859375
 21
-556.7003979515024
 31
0.0
  0
LINE
  5
329
  8
DIMNSIONS
 62
     7
 10
796.49999999999989
 20
-550.0
 30
0.0
 11
771.4937744140625
 21
-556.7003979515024
 31
0.0
  0
LINE
  5
32A
  8
DIMNSIONS
 62
     7
 10
796.49999999999989
 20
-550.0
 30
0.0
 11
771.4937744140625
 21
-543.2996020484976
 31
0.0
  0
TEXT
  5
32B
  8
DIMNSIONS
 62
     7
 10
473.54166666666652
 20
-537.94444444444434
 30
0.0
 40
28.222222222222229
  1
593
 41
0.7
 11
473.54166666666652
 21
-509.722222222222
 31
0.0
 73
     3
  0
LINE
  5
32C
  8
DIMNSIONS
 62
     7
 10
-300.0
 20
-582.5
 30
0.0
 11
-300.0
 21
-480.0
 31
0.0
  0
LINE
  5
32D
  8
DIMNSIONS
 62
     7
 10
-562.10000000000014
 20
-645.96743318299991
 30
0.0
 11
-562.10000000000014
 21
-480.0
 31
0.0
  0
LINE
  5
32E
  8
DIMNSIONS
 62
     7
 10
-300.0
 20
-500.0
 30
0.0
 11
-562.10000000000014
 21
-500.0
 31
0.0
  0
LINE
  5
32F
  8
DIMNSIONS
 62
     7
 10
-300.0
 20
-500.0
 30
0.0
 11
-325.0062255859375
 21
-506.7003979515024
 31
0.0
  0
LINE
  5
330
  8
DIMNSIONS
 62
     7
 10
-300.0
 20
-500.0
 30
0.0
 11
-325.0062255859375
 21
-493.2996020484976
 31
0.0
  0
LINE
  5
331
  8
DIMNSIONS
 62
     7
 10
-562.10000000000014
 20
-500.0
 30
0.0
 11
-537.09377441406252
 21
-493.2996020484976
 31
0.0
  0
LINE
  5
332
  8
DIMNSIONS
 62
     7
 10
-562.10000000000014
 20
-500.0
 30
0.0
 11
-537.09377441406252
 21
-506.7003979515024
 31
0.0
  0
TEXT
  5
333
  8
DIMNSIONS
 62
     7
 10
-475.14722222222218
 20
-489.19444444444417
 30
0.0
 40
28.222222222222229
  1
262.1
 41
0.7
 11
-475.14722222222218
 21
-460.972222222222
 31
0.0
 73
     3
  0
LINE
  5
334
  8
DIMNSIONS
 62
     7
 10
198.5
 20
-12.5
 30
0.0
 11
55.0
 21
-12.5
 31
0.0
  0
LINE
  5
335
  8
DIMNSIONS
 62
     7
 10
198.5
 20
-387.5
 30
0.0
 11
55.0
 21
-387.5
 31
0.0
  0
LINE
  5
336
  8
DIMNSIONS
 62
     7
 10
74.999999999999986
 20
-12.5
 30
0.0
 11
74.999999999999986
 21
-387.5
 31
0.0
  0
LINE
  5
337
  8
DIMNSIONS
 62
     7
 10
74.999999999999986
 20
-12.5
 30
0.0
 11
81.70039795150241
 21
-37.5062255859375
 31
0.0
  0
LINE
  5
338
  8
DIMNSIONS
 62
     7
 10
74.999999999999986
 20
-12.5
 30
0.0
 11
68.299602048497562
 21
-37.5062255859375
 31
0.0
  0
LINE
  5
339
  8
DIMNSIONS
 62
     7
 10
74.999999999999986
 20
-387.5
 30
0.0
 11
68.299602048497533
 21
-362.4937744140625
 31
0.0
  0
LINE
  5
33A
  8
DIMNSIONS
 62
     7
 10
74.999999999999986
 20
-387.5
 30
0.0
 11
81.700397951502424
 21
-362.4937744140625
 31
0.0
  0
TEXT
  5
33B
  8
DIMNSIONS
 62
     7
 10
62.944444444444443
 20
-226.4583333333334
 30
0.0
 40
28.222222222222229
  1
375
 50
90.0
 41
0.7
 11
34.722222222222207
 21
-226.4583333333334
 31
0.0
 73
     3
  0
LINE
  5
33C
  8
DIMNSIONS
 62
     7
 10
-562.10000000000014
 20
-645.96743318299991
 30
0.0
 11
-562.10000000000014
 21
-480.0
 31
0.0
  0
LINE
  5
33D
  8
DIMNSIONS
 62
     7
 10
-741.01349803699566
 20
-682.05800844200007
 30
0.0
 11
-741.01349803699566
 21
-480.0
 31
0.0
  0
LINE
  5
33E
  8
DIMNSIONS
 62
     7
 10
-562.10000000000014
 20
-500.0
 30
0.0
 11
-741.01349803699566
 21
-500.0
 31
0.0
  0
LINE
  5
33F
  8
DIMNSIONS
 62
     7
 10
-562.10000000000014
 20
-500.0
 30
0.0
 11
-587.10622558593764
 21
-506.7003979515024
 31
0.0
  0
LINE
  5
340
  8
DIMNSIONS
 62
     7
 10
-562.10000000000014
 20
-500.0
 30
0.0
 11
-587.10622558593764
 21
-493.2996020484976
 31
0.0
  0
LINE
  5
341
  8
DIMNSIONS
 62
     7
 10
-741.01349803699566
 20
-500.0
 30
0.0
 11
-716.00727245105838
 21
-493.2996020484976
 31
0.0
  0
LINE
  5
342
  8
DIMNSIONS
 62
     7
 10
-741.01349803699566
 20
-500.0
 30
0.0
 11
-716.00727245105838
 21
-506.7003979515024
 31
0.0
  0
TEXT
  5
343
  8
DIMNSIONS
 62
     7
 10
-695.65397124072001
 20
-487.94444444444429
 30
0.0
 40
28.222222222222229
  1
178.9
 41
0.7
 11
-695.65397124072001
 21
-459.722222222222
 31
0.0
 73
     3
  0
LINE
  5
344
  8
DIMNSIONS
 62
     7
 10
-562.10000000000014
 20
-145.96743318299991
 30
0.0
 11
-562.10000000000014
 21
45.0
 31
0.0
  0
LINE
  5
345
  8
DIMNSIONS
 62
     7
 10
-696.60000000000014
 20
-180.0
 30
0.0
 11
-696.60000000000014
 21
45.0
 31
0.0
  0
LINE
  5
346
  8
DIMNSIONS
 62
     7
 10
-562.10000000000014
 20
25.0
 30
0.0
 11
-696.60000000000014
 21
25.0
 31
0.0
  0
LINE
  5
347
  8
DIMNSIONS
 62
     7
 10
-562.10000000000014
 20
25.0
 30
0.0
 11
-587.10622558593764
 21
18.299602048497562
 31
0.0
  0
LINE
  5
348
  8
DIMNSIONS
 62
     7
 10
-562.10000000000014
 20
25.0
 30
0.0
 11
-587.10622558593764
 21
31.700397951502438
 31
0.0
  0
LINE
  5
349
  8
DIMNSIONS
 62
     7
 10
-696.60000000000014
 20
25.0
 30
0.0
 11
-671.59377441406241
 21
31.700397951502431
 31
0.0
  0
LINE
  5
34A
  8
DIMNSIONS
 62
     7
 10
-696.60000000000014
 20
25.0
 30
0.0
 11
-671.59377441406241
 21
18.299602048497569
 31
0.0
  0
TEXT
  5
34B
  8
DIMNSIONS
 62
     7
 10
-673.44722222222231
 20
37.055555555555543
 30
0.0
 40
28.222222222222229
  1
134.5
 41
0.7
 11
-673.44722222222231
 21
65.277777777777771
 31
0.0
 73
     3
  0
LINE
  5
34C
  8
DIMNSIONS
 62
     7
 10
-651.10000000000014
 20
-12.499999999999879
 30
0.0
 11
-770.0
 21
-12.499999999999879
 31
0.0
  0
LINE
  5
34D
  8
DIMNSIONS
 62
     7
 10
-651.10000000000014
 20
-387.5
 30
0.0
 11
-770.0
 21
-387.5
 31
0.0
  0
LINE
  5
34E
  8
DIMNSIONS
 62
     7
 10
-750.0
 20
-12.499999999999879
 30
0.0
 11
-750.0
 21
-387.5
 31
0.0
  0
LINE
  5
34F
  8
DIMNSIONS
 62
     7
 10
-750.0
 20
-12.499999999999879
 30
0.0
 11
-743.2996020484976
 21
-37.506225585937401
 31
0.0
  0
LINE
  5
350
  8
DIMNSIONS
 62
     7
 10
-750.0
 20
-12.499999999999879
 30
0.0
 11
-756.7003979515024
 21
-37.506225585937401
 31
0.0
  0
LINE
  5
351
  8
DIMNSIONS
 62
     7
 10
-750.0
 20
-387.5
 30
0.0
 11
-756.7003979515024
 21
-362.49377441406227
 31
0.0
  0
LINE
  5
352
  8
DIMNSIONS
 62
     7
 10
-750.0
 20
-387.5
 30
0.0
 11
-743.2996020484976
 21
-362.49377441406227
 31
0.0
  0
TEXT
  5
353
  8
DIMNSIONS
 62
     7
 10
-762.05555555555543
 20
-226.4583333333332
 30
0.0
 40
28.222222222222229
  1
375
 50
90.0
 41
0.7
 11
-790.27777777777771
 21
-226.4583333333332
 31
0.0
 73
     3
  0
LINE
  5
354
  8
DIMNSIONS
 62
     7
 10
-282.59999999999991
 20
-599.9000000000002
 30
0.0
 11
-180.0
 21
-599.9000000000002
 31
0.0
  0
LINE
  5
355
  8
DIMNSIONS
 62
     7
 10
-282.59999999999991
 20
-800.10000000000014
 30
0.0
 11
-180.0
 21
-800.10000000000014
 31
0.0
  0
LINE
  5
356
  8
DIMNSIONS
 62
     7
 10
-200.0
 20
-599.9000000000002
 30
0.0
 11
-200.0
 21
-800.10000000000014
 31
0.0
  0
LINE
  5
357
  8
DIMNSIONS
 62
     7
 10
-200.0
 20
-599.9000000000002
 30
0.0
 11
-193.2996020484976
 21
-624.90622558593736
 31
0.0
  0
LINE
  5
358
  8
DIMNSIONS
 62
     7
 10
-200.0
 20
-599.9000000000002
 30
0.0
 11
-206.7003979515024
 21
-624.90622558593736
 31
0.0
  0
LINE
  5
359
  8
DIMNSIONS
 62
     7
 10
-200.0
 20
-800.10000000000014
 30
0.0
 11
-206.7003979515024
 21
-775.09377441406252
 31
0.0
  0
LINE
  5
35A
  8
DIMNSIONS
 62
     7
 10
-200.0
 20
-800.10000000000014
 30
0.0
 11
-193.29960204849741
 21
-775.09377441406252
 31
0.0
  0
TEXT
  5
35B
  8
DIMNSIONS
 62
     7
 10
-212.0555555555556
 20
-744.0972222222224
 30
0.0
 40
28.222222222222229
  1
200.2
 50
90.0
 41
0.7
 11
-240.2777777777778
 21
-744.0972222222224
 31
0.0
 73
     3
  0
LINE
  5
35C
  8
DIMNSIONS
 62
     7
 10
-447.52989215700018
 20
-538.02649682139884
 30
0.0
 11
-180.0
 21
-538.02649682139884
 31
0.0
  0
LINE
  5
35D
  8
DIMNSIONS
 62
     7
 10
-282.59999999999991
 20
-599.9000000000002
 30
0.0
 11
-180.0
 21
-599.9000000000002
 31
0.0
  0
LINE
  5
35E
  8
DIMNSIONS
 62
     7
 10
-200.0
 20
-538.02649682139884
 30
0.0
 11
-200.0
 21
-454.44444444444429
 31
0.0
  0
LINE
  5
35F
  8
DIMNSIONS
 62
     7
 10
-200.0
 20
-538.02649682139884
 30
0.0
 11
-200.0
 21
-599.9000000000002
 31
0.0
  0
LINE
  5
360
  8
DIMNSIONS
 62
     7
 10
-200.0
 20
-538.02649682139884
 30
0.0
 11
-193.2996020484976
 21
-563.03272240733634
 31
0.0
  0
LINE
  5
361
  8
DIMNSIONS
 62
     7
 10
-200.0
 20
-538.02649682139884
 30
0.0
 11
-206.7003979515024
 21
-563.03272240733634
 31
0.0
  0
LINE
  5
362
  8
DIMNSIONS
 62
     7
 10
-200.0
 20
-599.9000000000002
 30
0.0
 11
-206.7003979515024
 21
-574.89377441406248
 31
0.0
  0
LINE
  5
363
  8
DIMNSIONS
 62
     7
 10
-200.0
 20
-599.9000000000002
 30
0.0
 11
-193.29960204849741
 21
-574.89377441406248
 31
0.0
  0
TEXT
  5
364
  8
DIMNSIONS
 62
     7
 10
-212.0555555555556
 20
-525.0
 30
0.0
 40
28.222222222222229
  1
61.9
 50
90.0
 41
0.7
 11
-240.2777777777778
 21
-525.0
 31
0.0
 73
     3
  0
LINE
  5
365
  8
DIMNSIONS
 62
     7
 10
-282.59999999999991
 20
-800.10000000000014
 30
0.0
 11
-180.0
 21
-800.10000000000014
 31
0.0
  0
LINE
  5
366
  8
DIMNSIONS
 62
     7
 10
-492.88896111000031
 20
-972.00870895800006
 30
0.0
 11
-180.0
 21
-972.00870895800006
 31
0.0
  0
LINE
  5
367
  8
DIMNSIONS
 62
     7
 10
-200.0
 20
-800.10000000000014
 30
0.0
 11
-200.0
 21
-972.00870895800006
 31
0.0
  0
LINE
  5
368
  8
DIMNSIONS
 62
     7
 10
-200.0
 20
-800.10000000000014
 30
0.0
 11
-193.2996020484976
 21
-825.10622558593752
 31
0.0
  0
LINE
  5
369
  8
DIMNSIONS
 62
     7
 10
-200.0
 20
-800.10000000000014
 30
0.0
 11
-206.7003979515024
 21
-825.10622558593752
 31
0.0
  0
LINE
  5
36A
  8
DIMNSIONS
 62
     7
 10
-200.0
 20
-972.00870895800006
 30
0.0
 11
-206.7003979515024
 21
-947.00248337206256
 31
0.0
  0
LINE
  5
36B
  8
DIMNSIONS
 62
     7
 10
-200.0
 20
-972.00870895800006
 30
0.0
 11
-193.29960204849741
 21
-947.00248337206256
 31
0.0
  0
TEXT
  5
36C
  8
DIMNSIONS
 62
     7
 10
-212.0555555555556
 20
-930.15157670122221
 30
0.0
 40
28.222222222222229
  1
171.9
 50
90.0
 41
0.7
 11
-240.2777777777778
 21
-930.15157670122221
 31
0.0
 73
     3
  0
LINE
  5
36D
  8
DIMNSIONS
 62
     7
 10
220.78868085499991
 20
196.09999999999999
 30
0.0
 11
105.0
 21
196.09999999999999
 31
0.0
  0
LINE
  5
36E
  8
DIMNSIONS
 62
     7
 10
179.81413395600009
 20
147.5
 30
0.0
 11
105.0
 21
147.5
 31
0.0
  0
LINE
  5
36F
  8
DIMNSIONS
 62
     7
 10
125.0
 20
147.5
 30
0.0
 11
125.0
 21
196.09999999999999
 31
0.0
  0
LINE
  5
370
  8
DIMNSIONS
 62
     7
 10
125.0
 20
196.09999999999999
 30
0.0
 11
125.0
 21
246.09999999999999
 31
0.0
  0
LINE
  5
371
  8
DIMNSIONS
 62
     7
 10
125.0
 20
196.09999999999999
 30
0.0
 11
118.2996020484976
 21
221.10622558593749
 31
0.0
  0
LINE
  5
372
  8
DIMNSIONS
 62
     7
 10
125.0
 20
196.09999999999999
 30
0.0
 11
131.7003979515024
 21
221.10622558593749
 31
0.0
  0
LINE
  5
373
  8
DIMNSIONS
 62
     7
 10
125.0
 20
147.5
 30
0.0
 11
125.0
 21
58.69381838369938
 31
0.0
  0
LINE
  5
374
  8
DIMNSIONS
 62
     7
 10
125.0
 20
147.5
 30
0.0
 11
131.7003979515024
 21
122.4937744140625
 31
0.0
  0
LINE
  5
375
  8
DIMNSIONS
 62
     7
 10
125.0
 20
147.5
 30
0.0
 11
118.2996020484976
 21
122.4937744140625
 31
0.0
  0
TEXT
  5
376
  8
DIMNSIONS
 62
     7
 10
112.9444444444444
 20
58.69381838369938
 30
0.0
 40
28.222222222222229
  1
48.6
 50
90.0
 41
0.7
 11
84.722222222222229
 21
58.69381838369938
 31
0.0
 73
     3
  0
LINE
  5
377
  8
DIMNSIONS
 62
     7
 10
220.78868085499991
 20
196.09999999999999
 30
0.0
 11
105.0
 21
196.09999999999999
 31
0.0
  0
LINE
  5
378
  8
DIMNSIONS
 62
     7
 10
205.5000000000002
 20
544.10000000000014
 30
0.0
 11
105.0
 21
544.10000000000014
 31
0.0
  0
LINE
  5
379
  8
DIMNSIONS
 62
     7
 10
125.0
 20
196.09999999999999
 30
0.0
 11
125.0
 21
544.10000000000014
 31
0.0
  0
LINE
  5
37A
  8
DIMNSIONS
 62
     7
 10
125.0
 20
196.09999999999999
 30
0.0
 11
118.2996020484976
 21
221.10622558593749
 31
0.0
  0
LINE
  5
37B
  8
DIMNSIONS
 62
     7
 10
125.0
 20
196.09999999999999
 30
0.0
 11
131.7003979515024
 21
221.10622558593749
 31
0.0
  0
LINE
  5
37C
  8
DIMNSIONS
 62
     7
 10
125.0
 20
544.10000000000014
 30
0.0
 11
131.7003979515024
 21
519.09377441406252
 31
0.0
  0
LINE
  5
37D
  8
DIMNSIONS
 62
     7
 10
125.0
 20
544.10000000000014
 30
0.0
 11
118.2996020484976
 21
519.09377441406252
 31
0.0
  0
TEXT
  5
37E
  8
DIMNSIONS
 62
     7
 10
112.9444444444444
 20
343.64166666666682
 30
0.0
 40
28.222222222222229
  1
348
 50
90.0
 41
0.7
 11
84.722222222222229
 21
343.64166666666682
 31
0.0
 73
     3
  0
ARC
  5
37F
  8
BRACKET
 62
     7
 10
269.81413395600021
 20
1150.0
 30
0.0
 40
10.0
 50
180.0
 51
270.0
  0
LINE
  5
380
  8
BRACKET
 62
     7
 10
259.81413395600009
 20
1150.0
 30
0.0
 11
259.81413395600009
 21
1250.0
 31
0.0
  0
ARC
  5
381
  8
BRACKET
 62
     7
 10
269.81413395600021
 20
1250.0
 30
0.0
 40
10.0
 50
90.0
 51
180.0
  0
ARC
  5
382
  8
BRACKET
 62
     7
 10
730.18586604400048
 20
1150.0
 30
0.0
 40
10.0
 50
270.0
 51
0.0
  0
LINE
  5
383
  8
BRACKET
 62
     7
 10
740.1858660440007
 20
1150.0
 30
0.0
 11
740.1858660440007
 21
1250.0
 31
0.0
  0
ARC
  5
384
  8
BRACKET
 62
     7
 10
730.18586604400048
 20
1250.0
 30
0.0
 40
10.0
 50
0.0
 51
90.0
  0
LINE
  5
385
  8
BRACKET
 62
     7
 10
269.81413395600021
 20
1140.0
 30
0.0
 11
730.18586604400048
 21
1140.0
 31
0.0
  0
LINE
  5
386
  8
BRACKET
 62
     7
 10
269.81413395600021
 20
1260.0
 30
0.0
 11
730.18586604400048
 21
1260.0
 31
0.0
  0
LINE
  5
387
  8
BRACKET
 62
     7
 10
224.4500000000003
 20
1217.5000042649999
 30
0.0
 11
229.4500000000003
 21
1217.5000042649999
 31
0.0
  0
LINE
  5
388
  8
BRACKET
 62
     7
 10
224.4500000000003
 20
1217.5000042649999
 30
0.0
 11
234.4500000000003
 21
1227.5000042649999
 31
0.0
  0
LINE
  5
389
  8
BRACKET
 62
     7
 10
229.4500000000003
 20
1212.5000042649999
 30
0.0
 11
229.4500000000003
 21
1217.5000042649999
 31
0.0
  0
LINE
  5
38A
  8
BRACKET
 62
     7
 10
234.4500000000003
 20
1227.5000042649999
 30
0.0
 11
244.4500000000003
 21
1217.5000042649999
 31
0.0
  0
LINE
  5
38B
  8
BRACKET
 62
     7
 10
239.4500000000003
 20
1212.5000042649999
 30
0.0
 11
239.4500000000003
 21
1217.5000042649999
 31
0.0
  0
LINE
  5
38C
  8
BRACKET
 62
     7
 10
239.4500000000003
 20
1217.5000042649999
 30
0.0
 11
244.4500000000003
 21
1217.5000042649999
 31
0.0
  0
LINE
  5
38D
  8
BRACKET
 62
     7
 10
229.4500000000003
 20
1212.5000042649999
 30
0.0
 11
239.4500000000003
 21
1212.5000042649999
 31
0.0
  0
LINE
  5
38E
  8
BRACKET
 62
     7
 10
246.4324218750003
 20
1243.2187542649999
 30
0.0
 11
246.4324218750003
 21
1235.6015667649999
 31
0.0
  0
LINE
  5
38F
  8
BRACKET
 62
     7
 10
237.9949218750003
 20
1235.6015667649999
 30
0.0
 11
237.9949218750003
 21
1243.2187542649999
 31
0.0
  0
LINE
  5
390
  8
BRACKET
 62
     7
 10
230.9050781250003
 20
1243.2187542649999
 30
0.0
 11
230.9050781250003
 21
1231.5000042649999
 31
0.0
  0
LINE
  5
391
  8
BRACKET
 62
     7
 10
225.6316406250003
 20
1243.2187542649999
 30
0.0
 11
229.9050781250003
 21
1243.2187542649999
 31
0.0
  0
LINE
  5
392
  8
BRACKET
 62
     7
 10
229.9050781250003
 20
1236.7734417649999
 30
0.0
 11
225.6316406250003
 21
1236.7734417649999
 31
0.0
  0
POLYLINE
  5
393
  8
BRACKET
 62
     7
 66
     1
 10
0.0
 20
0.0
 30
0.0
 70
   128
  0
VERTEX
  5
998
  8
BRACKET
 62
     7
 10
225.6316406250003
 20
1236.7734417649999
 30
0.0
 42
-0.0243765490000398
  0
VERTEX
  5
999
  8
BRACKET
 62
     7
 10
225.37759159500001
 20
1236.8129395779999
 30
0.0
  0
VERTEX
  5
99A
  8
BRACKET
 62
     7
 10
225.37759159500001
 20
1236.8129395779999
 30
0.0
  0
VERTEX
  5
99B
  8
BRACKET
 62
     7
 10
225.37759159500001
 20
1236.8129395779999
 30
0.0
 42
-0.0242086420002816
  0
VERTEX
  5
99C
  8
BRACKET
 62
     7
 10
225.12765409600021
 20
1236.8771135229999
 30
0.0
  0
VERTEX
  5
99D
  8
BRACKET
 62
     7
 10
225.12765409600021
 20
1236.8771135229999
 30
0.0
  0
VERTEX
  5
99E
  8
BRACKET
 62
     7
 10
225.12765409600021
 20
1236.8771135229999
 30
0.0
 42
-0.0239653980002691
  0
VERTEX
  5
99F
  8
BRACKET
 62
     7
 10
224.88376566700029
 20
1236.965466118
 30
0.0
  0
VERTEX
  5
9A0
  8
BRACKET
 62
     7
 10
224.88376566700029
 20
1236.965466118
 30
0.0
  0
VERTEX
  5
9A1
  8
BRACKET
 62
     7
 10
224.88376566700029
 20
1236.965466118
 30
0.0
 42
-0.0236586450004708
  0
VERTEX
  5
9A2
  8
BRACKET
 62
     7
 10
224.64781695200011
 20
1237.077312445
 30
0.0
  0
VERTEX
  5
9A3
  8
BRACKET
 62
     7
 10
224.64781695200011
 20
1237.077312445
 30
0.0
  0
VERTEX
  5
9A4
  8
BRACKET
 62
     7
 10
224.64781695199881
 20
1237.0773124450011
 30
0.0
 42
-0.0233024819997309
  0
VERTEX
  5
9A5
  8
BRACKET
 62
     7
 10
224.42163704900031
 20
1237.2117854610001
 30
0.0
  0
VERTEX
  5
9A6
  8
BRACKET
 62
     7
 10
224.42163704900031
 20
1237.2117854610001
 30
0.0
  0
VERTEX
  5
9A7
  8
BRACKET
 62
     7
 10
224.42163704899789
 20
1237.2117854610019
 30
0.0
 42
-0.0229121639995094
  0
VERTEX
  5
9A8
  8
BRACKET
 62
     7
 10
224.20697932200031
 20
1237.36784272
 30
0.0
  0
VERTEX
  5
9A9
  8
BRACKET
 62
     7
 10
224.20697932200031
 20
1237.36784272
 30
0.0
  0
VERTEX
  5
9AA
  8
BRACKET
 62
     7
 10
224.20697932200031
 20
1237.36784272
 30
0.0
 42
-0.0225030649999554
  0
VERTEX
  5
9AB
  8
BRACKET
 62
     7
 10
224.0055078200003
 20
1237.5442744510001
 30
0.0
  0
VERTEX
  5
9AC
  8
BRACKET
 62
     7
 10
224.0055078200003
 20
1237.5442744510001
 30
0.0
  0
VERTEX
  5
9AD
  8
BRACKET
 62
     7
 10
224.0055078200003
 20
1237.5442744510001
 30
0.0
 42
-0.0220898390002665
  0
VERTEX
  5
9AE
  8
BRACKET
 62
     7
 10
223.81878436700029
 20
1237.7397129399999
 30
0.0
  0
VERTEX
  5
9AF
  8
BRACKET
 62
     7
 10
223.81878436700029
 20
1237.7397129399999
 30
0.0
  0
VERTEX
  5
9B0
  8
BRACKET
 62
     7
 10
223.8187843669983
 20
1237.7397129400019
 30
0.0
 42
-0.0216858179998972
  0
VERTEX
  5
9B1
  8
BRACKET
 62
     7
 10
223.64825645900009
 20
1237.9526431300001
 30
0.0
  0
VERTEX
  5
9B2
  8
BRACKET
 62
     7
 10
223.64825645900009
 20
1237.9526431300001
 30
0.0
  0
VERTEX
  5
9B3
  8
BRACKET
 62
     7
 10
223.6482564589999
 20
1237.9526431300001
 30
0.0
 42
-0.021302656999491
  0
VERTEX
  5
9B4
  8
BRACKET
 62
     7
 10
223.4952460460004
 20
1238.1814143659999
 30
0.0
  0
VERTEX
  5
9B5
  8
BRACKET
 62
     7
 10
223.4952460460004
 20
1238.1814143659999
 30
0.0
  0
VERTEX
  5
9B6
  8
BRACKET
 62
     7
 10
223.4952460460004
 20
1238.1814143659999
 30
0.0
 42
-0.0209501920000329
  0
VERTEX
  5
9B7
  8
BRACKET
 62
     7
 10
223.3609392770004
 20
1238.4242531949999
 30
0.0
  0
VERTEX
  5
9B8
  8
BRACKET
 62
     7
 10
223.3609392770004
 20
1238.4242531949999
 30
0.0
  0
VERTEX
  5
9B9
  8
BRACKET
 62
     7
 10
223.3609392770004
 20
1238.4242531949999
 30
0.0
 42
-0.0206364630008551
  0
VERTEX
  5
9BA
  8
BRACKET
 62
     7
 10
223.2463773100003
 20
1238.679277106
 30
0.0
  0
VERTEX
  5
9BB
  8
BRACKET
 62
     7
 10
223.2463773100003
 20
1238.679277106
 30
0.0
  0
VERTEX
  5
9BC
  8
BRACKET
 62
     7
 10
223.2463773100003
 20
1238.679277106
 30
0.0
 42
-0.0203678370002485
  0
VERTEX
  5
9BD
  8
BRACKET
 62
     7
 10
223.152448241
 20
1238.9445091319999
 30
0.0
  0
VERTEX
  5
9BE
  8
BRACKET
 62
     7
 10
223.152448241
 20
1238.9445091319999
 30
0.0
  0
VERTEX
  5
9BF
  8
BRACKET
 62
     7
 10
223.15244824099889
 20
1238.944509132004
 30
0.0
 42
-0.0201491929994281
  0
VERTEX
  5
9C0
  8
BRACKET
 62
     7
 10
223.07988021600019
 20
1239.21789317
 30
0.0
  0
VERTEX
  5
9C1
  8
BRACKET
 62
     7
 10
223.07988021600019
 20
1239.21789317
 30
0.0
  0
VERTEX
  5
9C2
  8
BRACKET
 62
     7
 10
223.07988021599931
 20
1239.2178931700039
 30
0.0
 42
-0.0199841259993239
  0
VERTEX
  5
9C3
  8
BRACKET
 62
     7
 10
223.02923578800031
 20
1239.4973099230001
 30
0.0
  0
VERTEX
  5
9C4
  8
BRACKET
 62
     7
 10
223.02923578800031
 20
1239.4973099230001
 30
0.0
  0
SEQEND
  5
9C5
  8
BRACKET
 62
     7
  0
POLYLINE
  5
3C2
  8
BRACKET
 62
     7
 66
     1
 10
0.0
 20
0.0
 30
0.0
 70
   128
  0
VERTEX
  5
9C6
  8
BRACKET
 62
     7
 10
223.02923578800031
 20
1240.4948861089999
 30
0.0
 42
-0.0199515440007326
  0
VERTEX
  5
9C7
  8
BRACKET
 62
     7
 10
223.07988021600019
 20
1240.774302861
 30
0.0
  0
VERTEX
  5
9C8
  8
BRACKET
 62
     7
 10
223.07988021600019
 20
1240.774302861
 30
0.0
  0
VERTEX
  5
9C9
  8
BRACKET
 62
     7
 10
223.0798802160013
 20
1240.7743028610039
 30
0.0
 42
-0.0201027889991158
  0
VERTEX
  5
9CA
  8
BRACKET
 62
     7
 10
223.152448241
 20
1241.0476868989999
 30
0.0
  0
VERTEX
  5
9CB
  8
BRACKET
 62
     7
 10
223.152448241
 20
1241.0476868989999
 30
0.0
  0
VERTEX
  5
9CC
  8
BRACKET
 62
     7
 10
223.152448241
 20
1241.0476868989999
 30
0.0
 42
-0.0203083290001158
  0
VERTEX
  5
9CD
  8
BRACKET
 62
     7
 10
223.24637731100029
 20
1241.3129189250001
 30
0.0
  0
VERTEX
  5
9CE
  8
BRACKET
 62
     7
 10
223.24637731100029
 20
1241.3129189250001
 30
0.0
  0
VERTEX
  5
9CF
  8
BRACKET
 62
     7
 10
223.24637731100029
 20
1241.3129189250001
 30
0.0
 42
-0.0205648640002859
  0
VERTEX
  5
9D0
  8
BRACKET
 62
     7
 10
223.3609392770004
 20
1241.5679428359999
 30
0.0
  0
VERTEX
  5
9D1
  8
BRACKET
 62
     7
 10
223.3609392770004
 20
1241.5679428359999
 30
0.0
  0
VERTEX
  5
9D2
  8
BRACKET
 62
     7
 10
223.36093927700159
 20
1241.567942836002
 30
0.0
 42
-0.0208678529994955
  0
VERTEX
  5
9D3
  8
BRACKET
 62
     7
 10
223.4952460460004
 20
1241.8107816649999
 30
0.0
  0
VERTEX
  5
9D4
  8
BRACKET
 62
     7
 10
223.4952460460004
 20
1241.8107816649999
 30
0.0
  0
VERTEX
  5
9D5
  8
BRACKET
 62
     7
 10
223.49524604600271
 20
1241.810781665004
 30
0.0
 42
-0.0212113189998748
  0
VERTEX
  5
9D6
  8
BRACKET
 62
     7
 10
223.64825646000011
 20
1242.039552901
 30
0.0
  0
VERTEX
  5
9D7
  8
BRACKET
 62
     7
 10
223.64825646000011
 20
1242.039552901
 30
0.0
  0
VERTEX
  5
9D8
  8
BRACKET
 62
     7
 10
223.64825646000091
 20
1242.0395529010009
 30
0.0
 42
-0.0215876559994742
  0
VERTEX
  5
9D9
  8
BRACKET
 62
     7
 10
223.81878436700029
 20
1242.2524830909999
 30
0.0
  0
VERTEX
  5
9DA
  8
BRACKET
 62
     7
 10
223.81878436700029
 20
1242.2524830909999
 30
0.0
  0
VERTEX
  5
9DB
  8
BRACKET
 62
     7
 10
223.8187843670012
 20
1242.2524830910011
 30
0.0
 42
-0.0219874849998438
  0
VERTEX
  5
9DC
  8
BRACKET
 62
     7
 10
224.00550782100029
 20
1242.44792158
 30
0.0
  0
VERTEX
  5
9DD
  8
BRACKET
 62
     7
 10
224.00550782100029
 20
1242.44792158
 30
0.0
  0
VERTEX
  5
9DE
  8
BRACKET
 62
     7
 10
224.00550782100029
 20
1242.44792158
 30
0.0
 42
-0.0223995980001533
  0
VERTEX
  5
9DF
  8
BRACKET
 62
     7
 10
224.2069793230003
 20
1242.624353311
 30
0.0
  0
VERTEX
  5
9E0
  8
BRACKET
 62
     7
 10
224.2069793230003
 20
1242.624353311
 30
0.0
  0
VERTEX
  5
9E1
  8
BRACKET
 62
     7
 10
224.2069793230003
 20
1242.624353311
 30
0.0
 42
-0.0228110599999253
  0
VERTEX
  5
9E2
  8
BRACKET
 62
     7
 10
224.42163704900031
 20
1242.780410569
 30
0.0
  0
VERTEX
  5
9E3
  8
BRACKET
 62
     7
 10
224.42163704900031
 20
1242.780410569
 30
0.0
  0
VERTEX
  5
9E4
  8
BRACKET
 62
     7
 10
224.4216370490017
 20
1242.7804105690011
 30
0.0
 42
-0.0232074989998712
  0
VERTEX
  5
9E5
  8
BRACKET
 62
     7
 10
224.6478169530001
 20
1242.9148835860001
 30
0.0
  0
VERTEX
  5
9E6
  8
BRACKET
 62
     7
 10
224.6478169530001
 20
1242.9148835860001
 30
0.0
  0
VERTEX
  5
9E7
  8
BRACKET
 62
     7
 10
224.64781695300351
 20
1242.9148835860019
 30
0.0
 42
-0.0235736519995331
  0
VERTEX
  5
9E8
  8
BRACKET
 62
     7
 10
224.88376566700029
 20
1243.0267299120001
 30
0.0
  0
VERTEX
  5
9E9
  8
BRACKET
 62
     7
 10
224.88376566700029
 20
1243.0267299120001
 30
0.0
  0
VERTEX
  5
9EA
  8
BRACKET
 62
     7
 10
224.88376566700231
 20
1243.026729912001
 30
0.0
 42
-0.0238941429995849
  0
VERTEX
  5
9EB
  8
BRACKET
 62
     7
 10
225.12765409600021
 20
1243.1150825069999
 30
0.0
  0
VERTEX
  5
9EC
  8
BRACKET
 62
     7
 10
225.12765409600021
 20
1243.1150825069999
 30
0.0
  0
VERTEX
  5
9ED
  8
BRACKET
 62
     7
 10
225.12765409600021
 20
1243.1150825069999
 30
0.0
 42
-0.0241544809996064
  0
VERTEX
  5
9EE
  8
BRACKET
 62
     7
 10
225.37759159500001
 20
1243.1792564519999
 30
0.0
  0
VERTEX
  5
9EF
  8
BRACKET
 62
     7
 10
225.37759159500001
 20
1243.1792564519999
 30
0.0
  0
VERTEX
  5
9F0
  8
BRACKET
 62
     7
 10
225.37759159500021
 20
1243.1792564519999
 30
0.0
 42
-0.0243421660000238
  0
VERTEX
  5
9F1
  8
BRACKET
 62
     7
 10
225.6316406250003
 20
1243.2187542649999
 30
0.0
  0
VERTEX
  5
9F2
  8
BRACKET
 62
     7
 10
225.6316406250003
 20
1243.2187542649999
 30
0.0
  0
SEQEND
  5
9F3
  8
BRACKET
 62
     7
  0
POLYLINE
  5
3F1
  8
BRACKET
 62
     7
 66
     1
 10
0.0
 20
0.0
 30
0.0
 70
   128
  0
VERTEX
  5
9F4
  8
BRACKET
 62
     7
 10
246.43242187499951
 20
1235.6015667649931
 30
0.0
 42
-0.0199078939994821
  0
VERTEX
  5
9F5
  8
BRACKET
 62
     7
 10
246.36643359800021
 20
1235.1919936859999
 30
0.0
  0
VERTEX
  5
9F6
  8
BRACKET
 62
     7
 10
246.36643359800021
 20
1235.1919936859999
 30
0.0
  0
VERTEX
  5
9F7
  8
BRACKET
 62
     7
 10
246.3664335979999
 20
1235.1919936859981
 30
0.0
 42
-0.0200452240000458
  0
VERTEX
  5
9F8
  8
BRACKET
 62
     7
 10
246.26830162200031
 20
1234.790450129
 30
0.0
  0
VERTEX
  5
9F9
  8
BRACKET
 62
     7
 10
246.26830162200031
 20
1234.790450129
 30
0.0
  0
VERTEX
  5
9FA
  8
BRACKET
 62
     7
 10
246.26830162200031
 20
1234.790450129
 30
0.0
 42
-0.0202373670000244
  0
VERTEX
  5
9FB
  8
BRACKET
 62
     7
 10
246.13878552200049
 20
1234.400044169
 30
0.0
  0
VERTEX
  5
9FC
  8
BRACKET
 62
     7
 10
246.13878552200049
 20
1234.400044169
 30
0.0
  0
VERTEX
  5
9FD
  8
BRACKET
 62
     7
 10
246.13878552200049
 20
1234.400044169
 30
0.0
 42
-0.020481309000011
  0
VERTEX
  5
9FE
  8
BRACKET
 62
     7
 10
245.97888779100001
 20
1234.023797672
 30
0.0
  0
VERTEX
  5
9FF
  8
BRACKET
 62
     7
 10
245.97888779100001
 20
1234.023797672
 30
0.0
  0
VERTEX
  5
A00
  8
BRACKET
 62
     7
 10
245.97888779100001
 20
1234.023797672
 30
0.0
 42
-0.020772845000413
  0
VERTEX
  5
A01
  8
BRACKET
 62
     7
 10
245.7898460910001
 20
1233.664622906
 30
0.0
  0
VERTEX
  5
A02
  8
BRACKET
 62
     7
 10
245.7898460910001
 20
1233.664622906
 30
0.0
  0
VERTEX
  5
A03
  8
BRACKET
 62
     7
 10
245.7898460910001
 20
1233.664622906
 30
0.0
 42
-0.02110639000024
  0
VERTEX
  5
A04
  8
BRACKET
 62
     7
 10
245.57312366300039
 20
1233.325299999
 30
0.0
  0
VERTEX
  5
A05
  8
BRACKET
 62
     7
 10
245.57312366300039
 20
1233.325299999
 30
0.0
  0
VERTEX
  5
A06
  8
BRACKET
 62
     7
 10
245.57312366299911
 20
1233.3252999989979
 30
0.0
 42
-0.0214747809997085
  0
VERTEX
  5
A07
  8
BRACKET
 62
     7
 10
245.33039800900039
 20
1233.0084554170001
 30
0.0
  0
VERTEX
  5
A08
  8
BRACKET
 62
     7
 10
245.33039800900039
 20
1233.0084554170001
 30
0.0
  0
VERTEX
  5
A09
  8
BRACKET
 62
     7
 10
245.33039800900039
 20
1233.0084554170001
 30
0.0
 42
-0.0218691170000962
  0
VERTEX
  5
A0A
  8
BRACKET
 62
     7
 10
245.06354790200021
 20
1232.7165416390001
 30
0.0
  0
VERTEX
  5
A0B
  8
BRACKET
 62
     7
 10
245.06354790200021
 20
1232.7165416390001
 30
0.0
  0
VERTEX
  5
A0C
  8
BRACKET
 62
     7
 10
245.0635479019962
 20
1232.716541638996
 30
0.0
 42
-0.0222786789993036
  0
VERTEX
  5
A0D
  8
BRACKET
 62
     7
 10
244.77463884599999
 20
1232.451818169
 30
0.0
  0
VERTEX
  5
A0E
  8
BRACKET
 62
     7
 10
244.77463884599999
 20
1232.451818169
 30
0.0
  0
VERTEX
  5
A0F
  8
BRACKET
 62
     7
 10
244.77463884599609
 20
1232.4518181689971
 30
0.0
 42
-0.0226909799995411
  0
VERTEX
  5
A10
  8
BRACKET
 62
     7
 10
244.46590709100019
 20
1232.2163340530001
 30
0.0
  0
VERTEX
  5
A11
  8
BRACKET
 62
     7
 10
244.46590709100019
 20
1232.2163340530001
 30
0.0
  0
VERTEX
  5
A12
  8
BRACKET
 62
     7
 10
244.4659070909974
 20
1232.216334052998
 30
0.0
 42
-0.0230920159994958
  0
VERTEX
  5
A13
  8
BRACKET
 62
     7
 10
244.13974231900011
 20
1232.011912012
 30
0.0
  0
VERTEX
  5
A14
  8
BRACKET
 62
     7
 10
244.13974231900011
 20
1232.011912012
 30
0.0
  0
VERTEX
  5
A15
  8
BRACKET
 62
     7
 10
244.13974231900011
 20
1232.011912012
 30
0.0
 42
-0.0234667270002576
  0
VERTEX
  5
A16
  8
BRACKET
 62
     7
 10
243.79866914700011
 20
1231.8401343370001
 30
0.0
  0
VERTEX
  5
A17
  8
BRACKET
 62
     7
 10
243.79866914700011
 20
1231.8401343370001
 30
0.0
  0
VERTEX
  5
A18
  8
BRACKET
 62
     7
 10
243.79866914699701
 20
1231.840134336999
 30
0.0
 42
-0.0237997270002445
  0
VERTEX
  5
A19
  8
BRACKET
 62
     7
 10
243.4453275920005
 20
1231.7023306430001
 30
0.0
  0
VERTEX
  5
A1A
  8
BRACKET
 62
     7
 10
243.4453275920005
 20
1231.7023306430001
 30
0.0
  0
VERTEX
  5
A1B
  8
BRACKET
 62
     7
 10
243.44532759199549
 20
1231.702330642998
 30
0.0
 42
-0.0240762409993878
  0
VERTEX
  5
A1C
  8
BRACKET
 62
     7
 10
243.08245263000029
 20
1231.599567575
 30
0.0
  0
VERTEX
  5
A1D
  8
BRACKET
 62
     7
 10
243.08245263000029
 20
1231.599567575
 30
0.0
  0
VERTEX
  5
A1E
  8
BRACKET
 62
     7
 10
243.0824526300012
 20
1231.599567575
 30
0.0
 42
-0.0242831960005353
  0
VERTEX
  5
A1F
  8
BRACKET
 62
     7
 10
242.7128530280001
 20
1231.53264055
 30
0.0
  0
VERTEX
  5
A20
  8
BRACKET
 62
     7
 10
242.7128530280001
 20
1231.53264055
 30
0.0
  0
SEQEND
  5
A21
  8
BRACKET
 62
     7
  0
POLYLINE
  5
420
  8
BRACKET
 62
     7
 66
     1
 10
0.0
 20
0.0
 30
0.0
 70
   128
  0
VERTEX
  5
A22
  8
BRACKET
 62
     7
 10
241.71449072200039
 20
1231.53264055
 30
0.0
 42
-0.0243227860001485
  0
VERTEX
  5
A23
  8
BRACKET
 62
     7
 10
241.34489112000031
 20
1231.599567575
 30
0.0
  0
VERTEX
  5
A24
  8
BRACKET
 62
     7
 10
241.34489112000031
 20
1231.599567575
 30
0.0
  0
VERTEX
  5
A25
  8
BRACKET
 62
     7
 10
241.34489112000031
 20
1231.599567575
 30
0.0
 42
-0.0241349580001524
  0
VERTEX
  5
A26
  8
BRACKET
 62
     7
 10
240.98201615800011
 20
1231.7023306430001
 30
0.0
  0
VERTEX
  5
A27
  8
BRACKET
 62
     7
 10
240.98201615800011
 20
1231.7023306430001
 30
0.0
  0
VERTEX
  5
A28
  8
BRACKET
 62
     7
 10
240.98201615800011
 20
1231.7023306430001
 30
0.0
 42
-0.0238746990002323
  0
VERTEX
  5
A29
  8
BRACKET
 62
     7
 10
240.62867460300009
 20
1231.8401343370001
 30
0.0
  0
VERTEX
  5
A2A
  8
BRACKET
 62
     7
 10
240.62867460300009
 20
1231.8401343370001
 30
0.0
  0
VERTEX
  5
A2B
  8
BRACKET
 62
     7
 10
240.62867460300041
 20
1231.8401343370001
 30
0.0
 42
-0.023554483000446
  0
VERTEX
  5
A2C
  8
BRACKET
 62
     7
 10
240.28760143100041
 20
1232.011912012
 30
0.0
  0
VERTEX
  5
A2D
  8
BRACKET
 62
     7
 10
240.28760143100041
 20
1232.011912012
 30
0.0
  0
VERTEX
  5
A2E
  8
BRACKET
 62
     7
 10
240.28760143099859
 20
1232.0119120120009
 30
0.0
 42
-0.023188763999821
  0
VERTEX
  5
A2F
  8
BRACKET
 62
     7
 10
239.96143665900041
 20
1232.2163340530001
 30
0.0
  0
VERTEX
  5
A30
  8
BRACKET
 62
     7
 10
239.96143665900041
 20
1232.2163340530001
 30
0.0
  0
VERTEX
  5
A31
  8
BRACKET
 62
     7
 10
239.96143665899999
 20
1232.2163340530001
 30
0.0
 42
-0.0227928699999012
  0
VERTEX
  5
A32
  8
BRACKET
 62
     7
 10
239.6527049040001
 20
1232.451818169
 30
0.0
  0
VERTEX
  5
A33
  8
BRACKET
 62
     7
 10
239.6527049040001
 20
1232.451818169
 30
0.0
  0
VERTEX
  5
A34
  8
BRACKET
 62
     7
 10
239.6527049039988
 20
1232.4518181690009
 30
0.0
 42
-0.0223820209993671
  0
VERTEX
  5
A35
  8
BRACKET
 62
     7
 10
239.36379584800031
 20
1232.7165416390001
 30
0.0
  0
VERTEX
  5
A36
  8
BRACKET
 62
     7
 10
239.36379584800031
 20
1232.7165416390001
 30
0.0
  0
VERTEX
  5
A37
  8
BRACKET
 62
     7
 10
239.36379584800031
 20
1232.7165416390001
 30
0.0
 42
-0.0219705390002933
  0
VERTEX
  5
A38
  8
BRACKET
 62
     7
 10
239.0969457410001
 20
1233.0084554170001
 30
0.0
  0
VERTEX
  5
A39
  8
BRACKET
 62
     7
 10
239.0969457410001
 20
1233.0084554170001
 30
0.0
  0
VERTEX
  5
A3A
  8
BRACKET
 62
     7
 10
239.09694574099939
 20
1233.008455417001
 30
0.0
 42
-0.0215713209993426
  0
VERTEX
  5
A3B
  8
BRACKET
 62
     7
 10
238.85422008700019
 20
1233.325299999
 30
0.0
  0
VERTEX
  5
A3C
  8
BRACKET
 62
     7
 10
238.85422008700019
 20
1233.325299999
 30
0.0
  0
VERTEX
  5
A3D
  8
BRACKET
 62
     7
 10
238.85422008700019
 20
1233.325299999
 30
0.0
 42
-0.0211955380001485
  0
VERTEX
  5
A3E
  8
BRACKET
 62
     7
 10
238.6374976590005
 20
1233.664622906
 30
0.0
  0
VERTEX
  5
A3F
  8
BRACKET
 62
     7
 10
238.6374976590005
 20
1233.664622906
 30
0.0
  0
VERTEX
  5
A40
  8
BRACKET
 62
     7
 10
238.6374976590005
 20
1233.664622906
 30
0.0
 42
-0.0208525440002035
  0
VERTEX
  5
A41
  8
BRACKET
 62
     7
 10
238.44845595900011
 20
1234.023797672
 30
0.0
  0
VERTEX
  5
A42
  8
BRACKET
 62
     7
 10
238.44845595900011
 20
1234.023797672
 30
0.0
  0
VERTEX
  5
A43
  8
BRACKET
 62
     7
 10
238.4484559589973
 20
1234.0237976720059
 30
0.0
 42
-0.0205499239991757
  0
VERTEX
  5
A44
  8
BRACKET
 62
     7
 10
238.28855822800011
 20
1234.400044169
 30
0.0
  0
VERTEX
  5
A45
  8
BRACKET
 62
     7
 10
238.28855822800011
 20
1234.400044169
 30
0.0
  0
VERTEX
  5
A46
  8
BRACKET
 62
     7
 10
238.28855822800011
 20
1234.400044169
 30
0.0
 42
-0.0202936390004093
  0
VERTEX
  5
A47
  8
BRACKET
 62
     7
 10
238.15904212800021
 20
1234.790450129
 30
0.0
  0
VERTEX
  5
A48
  8
BRACKET
 62
     7
 10
238.15904212800021
 20
1234.790450129
 30
0.0
  0
VERTEX
  5
A49
  8
BRACKET
 62
     7
 10
238.15904212800021
 20
1234.790450129
 30
0.0
 42
-0.0200882200001593
  0
VERTEX
  5
A4A
  8
BRACKET
 62
     7
 10
238.06091015200039
 20
1235.1919936859999
 30
0.0
  0
VERTEX
  5
A4B
  8
BRACKET
 62
     7
 10
238.06091015200039
 20
1235.1919936859999
 30
0.0
  0
VERTEX
  5
A4C
  8
BRACKET
 62
     7
 10
238.06091015200039
 20
1235.1919936859999
 30
0.0
 42
-0.0199369620005823
  0
VERTEX
  5
A4D
  8
BRACKET
 62
     7
 10
237.9949218750003
 20
1235.6015667649999
 30
0.0
  0
VERTEX
  5
A4E
  8
BRACKET
 62
     7
 10
237.9949218750003
 20
1235.6015667649999
 30
0.0
  0
SEQEND
  5
A4F
  8
BRACKET
 62
     7
  0
CIRCLE
  5
44F
  8
BRACKET
 62
     7
 10
230.00000000000051
 20
1282.5
 30
0.0
 40
6.5
  0
CIRCLE
  5
450
  8
BRACKET
 62
     7
 10
770.0
 20
1282.5
 30
0.0
 40
6.5
  0
CIRCLE
  5
451
  8
BRACKET
 62
     7
 10
365.00000000000051
 20
1282.5
 30
0.0
 40
4.5999999999999091
  0
CIRCLE
  5
452
  8
BRACKET
 62
     7
 10
250.0000000000004
 20
1282.5
 30
0.0
 40
4.5999999999999091
  0
CIRCLE
  5
453
  8
BRACKET
 62
     7
 10
500.0000000000004
 20
1282.5
 30
0.0
 40
4.5999999999999091
  0
CIRCLE
  5
454
  8
BRACKET
 62
     7
 10
635.0
 20
1282.5
 30
0.0
 40
4.5999999999999091
  0
CIRCLE
  5
455
  8
BRACKET
 62
     7
 10
750.0
 20
1282.5
 30
0.0
 40
4.5999999999999091
  0
LINE
  5
456
  8
BRACKET
 62
     7
 10
797.58586604400034
 20
1297.5
 30
0.0
 11
800.18586604400014
 21
1297.5
 31
0.0
  0
LINE
  5
457
  8
BRACKET
 62
     7
 10
797.58586604400034
 20
1297.5
 30
0.0
 11
797.58586604400034
 21
1300.0999999999999
 31
0.0
  0
LINE
  5
458
  8
BRACKET
 62
     7
 10
202.41413395600009
 20
1300.0999999999999
 30
0.0
 11
797.58586604400034
 21
1300.0999999999999
 31
0.0
  0
LINE
  5
459
  8
BRACKET
 62
     7
 10
202.41413395600009
 20
1297.5
 30
0.0
 11
797.58586604400034
 21
1297.5
 31
0.0
  0
LINE
  5
45A
  8
BRACKET
 62
     7
 10
202.41413395600009
 20
1297.5
 30
0.0
 11
202.41413395600009
 21
1300.0999999999999
 31
0.0
  0
LINE
  5
45B
  8
BRACKET
 62
     7
 10
199.81413395600021
 20
1297.5
 30
0.0
 11
202.41413395600009
 21
1297.5
 31
0.0
  0
LINE
  5
45C
  8
BRACKET
 62
     7
 10
199.81413395600021
 20
1102.5
 30
0.0
 11
199.81413395600021
 21
1297.5
 31
0.0
  0
LINE
  5
45D
  8
BRACKET
 62
     7
 10
202.41413395600009
 20
1102.5
 30
0.0
 11
202.41413395600009
 21
1297.5
 31
0.0
  0
LINE
  5
45E
  8
BRACKET
 62
     7
 10
199.81413395600021
 20
1102.5
 30
0.0
 11
202.41413395600009
 21
1102.5
 31
0.0
  0
LINE
  5
45F
  8
BRACKET
 62
     7
 10
202.41413395600009
 20
1099.9000000000001
 30
0.0
 11
202.41413395600009
 21
1102.5
 31
0.0
  0
LINE
  5
460
  8
BRACKET
 62
     7
 10
202.41413395600009
 20
1250.0
 30
0.0
 11
205.01413395599999
 21
1250.0
 31
0.0
  0
LINE
  5
461
  8
BRACKET
 62
     7
 10
202.41413395600009
 20
1150.0
 30
0.0
 11
205.01413395599999
 21
1150.0
 31
0.0
  0
LINE
  5
462
  8
BRACKET
 62
     7
 10
202.41413395600009
 20
1250.0
 30
0.0
 11
202.41413395600009
 21
1150.0
 31
0.0
  0
LINE
  5
463
  8
BRACKET
 62
     7
 10
205.01413395599999
 20
1250.0
 30
0.0
 11
205.01413395599999
 21
1150.0
 31
0.0
  0
LINE
  5
464
  8
BRACKET
 62
     7
 10
800.18586604400014
 20
1102.5
 30
0.0
 11
800.18586604400014
 21
1297.5
 31
0.0
  0
LINE
  5
465
  8
BRACKET
 62
     7
 10
797.58586604400034
 20
1102.5
 30
0.0
 11
797.58586604400034
 21
1297.5
 31
0.0
  0
POLYLINE
  5
466
  8
BRACKET
 62
     7
 66
     1
 10
0.0
 20
0.0
 30
0.0
  0
VERTEX
  5
A50
  8
BRACKET
 62
     7
 10
797.58586604400034
 20
1099.9000000000001
 30
0.0
  0
VERTEX
  5
A51
  8
BRACKET
 62
     7
 10
797.58586604400034
 20
1102.5
 30
0.0
  0
VERTEX
  5
A52
  8
BRACKET
 62
     7
 10
800.18586604400014
 20
1102.5
 30
0.0
  0
SEQEND
  5
A53
  8
BRACKET
 62
     7
  0
LINE
  5
46B
  8
BRACKET
 62
     7
 10
797.58586604400034
 20
1250.0
 30
0.0
 11
794.98586604400043
 21
1250.0
 31
0.0
  0
LINE
  5
46C
  8
BRACKET
 62
     7
 10
797.58586604400034
 20
1150.0
 30
0.0
 11
794.98586604400043
 21
1150.0
 31
0.0
  0
LINE
  5
46D
  8
BRACKET
 62
     7
 10
797.58586604400034
 20
1250.0
 30
0.0
 11
797.58586604400034
 21
1150.0
 31
0.0
  0
LINE
  5
46E
  8
BRACKET
 62
     7
 10
794.98586604400043
 20
1250.0
 30
0.0
 11
794.98586604400043
 21
1150.0
 31
0.0
  0
CIRCLE
  5
46F
  8
BRACKET
 62
     7
 10
230.00000000000051
 20
1117.5
 30
0.0
 40
6.5
  0
CIRCLE
  5
470
  8
BRACKET
 62
     7
 10
770.0
 20
1117.5
 30
0.0
 40
6.5
  0
CIRCLE
  5
471
  8
BRACKET
 62
     7
 10
750.0
 20
1117.5
 30
0.0
 40
4.5999999999999091
  0
CIRCLE
  5
472
  8
BRACKET
 62
     7
 10
635.0
 20
1117.5
 30
0.0
 40
4.5999999999999091
  0
CIRCLE
  5
473
  8
BRACKET
 62
     7
 10
500.0000000000004
 20
1117.5
 30
0.0
 40
4.5999999999999091
  0
CIRCLE
  5
474
  8
BRACKET
 62
     7
 10
365.00000000000051
 20
1117.5
 30
0.0
 40
4.5999999999999091
  0
CIRCLE
  5
475
  8
BRACKET
 62
     7
 10
250.0000000000004
 20
1117.5
 30
0.0
 40
4.5999999999999091
  0
LINE
  5
476
  8
BRACKET
 62
     7
 10
202.41413395600009
 20
1099.9000000000001
 30
0.0
 11
797.58586604400034
 21
1099.9000000000001
 31
0.0
  0
LINE
  5
477
  8
BRACKET
 62
     7
 10
202.41413395600009
 20
1102.5
 30
0.0
 11
797.58586604400034
 21
1102.5
 31
0.0
  0
CIRCLE
  5
478
  8
BRACKET
 62
     7
 10
-594.60000000000014
 20
-200.0
 30
0.0
 40
3.0999999999999082
  0
LINE
  5
479
  8
BRACKET
 62
     7
 10
-608.60000000000014
 20
-250.0
 30
0.0
 11
-608.60000000000014
 21
-150.0
 31
0.0
  0
LINE
  5
47A
  8
BRACKET
 62
     7
 10
-608.60000000000014
 20
-150.0
 30
0.0
 11
-553.65760605134233
 21
-157.52503923434219
 31
0.0
  0
LINE
  5
47B
  8
BRACKET
 62
     7
 10
-608.60000000000014
 20
-250.0
 30
0.0
 11
-552.44214165667745
 21
-242.30848790926299
 31
0.0
  0
CIRCLE
  5
47C
  8
BRACKET
 62
     7
 10
-564.18577760546702
 20
-783.56238925924993
 30
0.0
 40
3.1000000000000481
  0
LINE
  5
47D
  8
BRACKET
 62
     7
 10
-542.77101932480559
 20
-830.86363795081024
 30
0.0
 11
-607.04978029345955
 21
-754.25919363891251
 31
0.0
  0
LINE
  5
47E
  8
BRACKET
 62
     7
 10
-607.04978029345955
 20
-754.25919363891251
 30
0.0
 11
-560.1244627351964
 21
-724.70741805191835
 31
0.0
  0
LINE
  5
47F
  8
BRACKET
 62
     7
 10
-542.77101932480559
 20
-830.86363795081024
 30
0.0
 11
-504.69561267512029
 21
-788.8740223248991
 31
0.0
  0
ARC
  5
480
  8
BRACKET
 62
     7
 10
-528.94773322200001
 20
-753.99415921399986
 30
0.0
 40
3.1000000000000481
 50
220.00000000000159
 51
40.000000000001648
  0
ARC
  5
481
  8
BRACKET
 62
     7
 10
-464.60000000000031
 20
-700.0
 30
0.0
 40
87.099999999999696
 50
180.0
 51
220.00000000000011
  0
ARC
  5
482
  8
BRACKET
 62
     7
 10
-548.60000000000014
 20
-700.0
 30
0.0
 40
3.0999999999999082
 50
0.0
 51
180.0
  0
ARC
  5
483
  8
BRACKET
 62
     7
 10
-464.60000000000031
 20
-700.0
 30
0.0
 40
80.899999999999864
 50
180.0
 51
220.0000000000002
  0
CIRCLE
  5
484
  8
BRACKET
 62
     7
 10
-384.60000000000031
 20
-700.0
 30
0.0
 40
3.100000000000362
  0
CIRCLE
  5
485
  8
BRACKET
 62
     7
 10
-369.61446896000001
 20
-698.34202138799992
 30
0.0
 40
3.0999999999999082
  0
CIRCLE
  5
486
  8
BRACKET
 62
     7
 10
-354.66700902800039
 20
-696.16105536299995
 30
0.0
 40
3.100000000000362
  0
CIRCLE
  5
487
  8
BRACKET
 62
     7
 10
-339.77130815599998
 20
-693.45800546999976
 30
0.0
 40
3.0999999999999082
  0
CIRCLE
  5
488
  8
BRACKET
 62
     7
 10
-324.94103296400039
 20
-690.23409367599993
 30
0.0
 40
3.100000000000362
  0
CIRCLE
  5
489
  8
BRACKET
 62
     7
 10
-384.90442415299998
 20
-693.02754058000005
 30
0.0
 40
3.0999999999999082
  0
CIRCLE
  5
48A
  8
BRACKET
 62
     7
 10
-370.12041993999992
 20
-690.06979598999999
 30
0.0
 40
3.0999999999999082
  0
CIRCLE
  5
48B
  8
BRACKET
 62
     7
 10
-355.41992331900019
 20
-686.5943722249998
 30
0.0
 40
3.0999999999999082
  0
CIRCLE
  5
48C
  8
BRACKET
 62
     7
 10
-340.81649140700023
 20
-682.60336238000002
 30
0.0
 40
3.100000000000362
  0
CIRCLE
  5
48D
  8
BRACKET
 62
     7
 10
-326.32363231700037
 20
-678.09917489399982
 30
0.0
 40
3.100000000000362
  0
CIRCLE
  5
48E
  8
BRACKET
 62
     7
 10
-385.81537975900022
 20
-686.10814578700001
 30
0.0
 40
3.100000000000362
  0
CIRCLE
  5
48F
  8
BRACKET
 62
     7
 10
-371.34541757199997
 20
-681.87314543899981
 30
0.0
 40
3.0999999999999082
  0
CIRCLE
  5
490
  8
BRACKET
 62
     7
 10
-357.00376391900051
 20
-677.1297140099997
 30
0.0
 40
3.100000000000362
  0
CIRCLE
  5
491
  8
BRACKET
 62
     7
 10
-342.80374190200018
 20
-671.88111820699976
 30
0.0
 40
3.0999999999999082
  0
CIRCLE
  5
492
  8
BRACKET
 62
     7
 10
-328.75859832100008
 20
-666.13093461599999
 30
0.0
 40
3.0999999999999082
  0
CIRCLE
  5
493
  8
BRACKET
 62
     7
 10
-387.32593389700008
 20
-679.29447639199975
 30
0.0
 40
3.0999999999999082
  0
CIRCLE
  5
494
  8
BRACKET
 62
     7
 10
-373.28013888600032
 20
-673.81445119699981
 30
0.0
 40
3.0999999999999082
  0
CIRCLE
  5
495
  8
BRACKET
 62
     7
 10
-359.40647684400022
 20
-667.83911247999981
 30
0.0
 40
3.100000000000362
  0
CIRCLE
  5
496
  8
BRACKET
 62
     7
 10
-345.71793546300017
 20
-661.37287570299975
 30
0.0
 40
3.0999999999999082
  0
CIRCLE
  5
497
  8
BRACKET
 62
     7
 10
-332.22739941600008
 20
-654.42045837599994
 30
0.0
 40
3.0999999999999082
  0
CIRCLE
  5
498
  8
BRACKET
 62
     7
 10
-389.42459033700021
 20
-672.63838853399977
 30
0.0
 40
3.0999999999999082
  0
CIRCLE
  5
499
  8
BRACKET
 62
     7
 10
-375.9098594830001
 20
-665.95504479299996
 30
0.0
 40
3.0999999999999082
  0
CIRCLE
  5
49A
  8
BRACKET
 62
     7
 10
-362.60977599800032
 20
-658.79327472399984
 30
0.0
 40
3.100000000000362
  0
CIRCLE
  5
49B
  8
BRACKET
 62
     7
 10
-349.5368933180003
 20
-651.15860893900003
 30
0.0
 40
3.0999999999999082
  0
CIRCLE
  5
49C
  8
BRACKET
 62
     7
 10
-336.70363593000002
 20
-643.05686996899999
 30
0.0
 40
3.0999999999999082
  0
CIRCLE
  5
49D
  8
BRACKET
 62
     7
 10
-392.09537703700022
 20
-666.19053906099998
 30
0.0
 40
3.0999999999999082
  0
CIRCLE
  5
49E
  8
BRACKET
 62
     7
 10
-379.21456560200022
 20
-658.35474105499975
 30
0.0
 40
3.100000000000362
  0
CIRCLE
  5
49F
  8
BRACKET
 62
     7
 10
-366.58928233900042
 20
-650.06104502899996
 30
0.0
 40
3.100000000000362
  0
CIRCLE
  5
4A0
  8
BRACKET
 62
     7
 10
-354.23155089300002
 20
-641.31605465199993
 30
0.0
 40
3.0999999999999082
  0
CIRCLE
  5
4A1
  8
BRACKET
 62
     7
 10
-342.15324099999998
 20
-632.12665316599998
 30
0.0
 40
3.0999999999999082
  0
CIRCLE
  5
4A2
  8
BRACKET
 62
     7
 10
-395.31796769700031
 20
-660.0
 30
0.0
 40
3.100000000000362
  0
CIRCLE
  5
4A3
  8
BRACKET
 62
     7
 10
-383.1691064330002
 20
-651.07138288400006
 30
0.0
 40
3.0999999999999082
  0
CIRCLE
  5
4A4
  8
BRACKET
 62
     7
 10
-371.31470942300029
 20
-641.70888093400004
 30
0.0
 40
3.0999999999999082
  0
CIRCLE
  5
4A5
  8
BRACKET
 62
     7
 10
-359.76617900700001
 20
-631.92012062299978
 30
0.0
 40
3.0999999999999082
  0
CIRCLE
  5
4A6
  8
BRACKET
 62
     7
 10
-348.53473984200002
 20
-621.712993514
 30
0.0
 40
3.0999999999999082
  0
CIRCLE
  5
4A7
  8
BRACKET
 62
     7
 10
-399.06783645700028
 20
-654.11388509199992
 30
0.0
 40
3.100000000000362
  0
CIRCLE
  5
4A8
  8
BRACKET
 62
     7
 10
-387.74338553400008
 20
-644.16040103199975
 30
0.0
 40
3.0999999999999082
  0
CIRCLE
  5
4A9
  8
BRACKET
 62
     7
 10
-376.75009389500008
 20
-633.80034745299974
 30
0.0
 40
3.0999999999999082
  0
CIRCLE
  5
4AA
  8
BRACKET
 62
     7
 10
-366.09865579900003
 20
-623.04231558399999
 30
0.0
 40
3.0999999999999082
  0
CIRCLE
  5
4AB
  8
BRACKET
 62
     7
 10
-355.79956539600022
 20
-611.89514525300001
 30
0.0
 40
3.0999999999999082
  0
CIRCLE
  5
4AC
  8
BRACKET
 62
     7
 10
-403.31644455000003
 20
-648.5769912249998
 30
0.0
 40
3.0999999999999082
  0
LINE
  5
4AD
  8
BRACKET
 62
     7
 10
-300.0
 20
-797.5
 30
0.0
 11
-464.59999460500001
 21
-797.5
 31
0.0
  0
ARC
  5
4AE
  8
BRACKET
 62
     7
 10
-464.60000000000031
 20
-700.0
 30
0.0
 40
3.0999999999996
 50
179.99990028699941
 51
0.0000997130004805
  0
LINE
  5
4AF
  8
BRACKET
 62
     7
 10
-562.10000000000014
 20
-665.96743318299968
 30
0.0
 11
-538.16473317700024
 21
-642.03216636000002
 31
0.0
  0
LINE
  5
4B0
  8
BRACKET
 62
     7
 10
-538.16473317700024
 20
-642.03216636000002
 30
0.0
 11
-490.6647331769999
 21
-642.03216636000002
 31
0.0
  0
LINE
  5
4B1
  8
BRACKET
 62
     7
 10
-467.70000000000022
 20
-664.99689953699999
 30
0.0
 11
-490.6647331769999
 21
-642.03216636000002
 31
0.0
  0
LINE
  5
4B2
  8
BRACKET
 62
     7
 10
-467.70000000000022
 20
-699.99999460499987
 30
0.0
 11
-467.70000000000022
 21
-664.99689953699999
 31
0.0
  0
LINE
  5
4B3
  8
BRACKET
 62
     7
 10
-461.5
 20
-699.99999460499987
 30
0.0
 11
-461.5
 21
-664.99689953699999
 31
0.0
  0
LINE
  5
4B4
  8
BRACKET
 62
     7
 10
-562.10000000000014
 20
-700.0
 30
0.0
 11
-562.10000000000014
 21
-665.96743318299968
 31
0.0
  0
ARC
  5
4B5
  8
BRACKET
 62
     7
 10
-464.60000000000031
 20
-700.0
 30
0.0
 40
97.499999999999787
 50
180.0
 51
270.0
  0
LINE
  5
4B6
  8
BRACKET
 62
     7
 10
-300.0
 20
-602.5
 30
0.0
 11
-399.00310046300001
 21
-602.5
 31
0.0
  0
LINE
  5
4B7
  8
BRACKET
 62
     7
 10
-461.5
 20
-664.99689953699999
 30
0.0
 11
-399.00310046300001
 21
-602.5
 31
0.0
  0
LINE
  5
4B8
  8
BRACKET
 62
     7
 10
-397.94894377400033
 20
-611.04999573499981
 30
0.0
 11
-395.44894377400033
 21
-611.04999573499981
 31
0.0
  0
LINE
  5
4B9
  8
BRACKET
 62
     7
 10
-397.94894377400033
 20
-611.04999573499981
 30
0.0
 11
-392.94894377400033
 21
-606.04999573499981
 31
0.0
  0
LINE
  5
4BA
  8
BRACKET
 62
     7
 10
-395.44894377400033
 20
-613.54999573499981
 30
0.0
 11
-395.44894377400033
 21
-611.04999573499981
 31
0.0
  0
LINE
  5
4BB
  8
BRACKET
 62
     7
 10
-392.94894377400033
 20
-606.04999573499981
 30
0.0
 11
-387.94894377400033
 21
-611.04999573499981
 31
0.0
  0
LINE
  5
4BC
  8
BRACKET
 62
     7
 10
-390.44894377400033
 20
-613.54999573499981
 30
0.0
 11
-390.44894377400033
 21
-611.04999573499981
 31
0.0
  0
LINE
  5
4BD
  8
BRACKET
 62
     7
 10
-390.44894377400033
 20
-611.04999573499981
 30
0.0
 11
-387.94894377400033
 21
-611.04999573499981
 31
0.0
  0
LINE
  5
4BE
  8
BRACKET
 62
     7
 10
-395.44894377400033
 20
-613.54999573499981
 30
0.0
 11
-390.44894377400033
 21
-613.54999573499981
 31
0.0
  0
TEXT
  5
4BF
  8
BRACKET
 62
     7
 10
-397.34894377399991
 20
-622.24999573499997
 30
0.0
 40
5.0
  1
ＵＰ
 41
0.7
  0
TEXT
  5
4C0
  8
BRACKET
 62
     7
 10
-412.438333432592
 20
-653.37842927368922
 30
0.0
 40
4.2333333333333316
  1
40
 41
0.7
 11
-412.438333432592
 21
-649.14509594035576
 31
0.0
 73
     3
  0
TEXT
  5
4C1
  8
BRACKET
 62
     7
 10
-408.45526334499482
 20
-658.56926727367318
 30
0.0
 40
4.2333333333333316
  1
35
 41
0.7
 11
-408.45526334499482
 21
-654.33593394033994
 31
0.0
 73
     3
  0
TEXT
  5
4C2
  8
BRACKET
 62
     7
 10
-404.9397613828317
 20
-664.08749999999884
 30
0.0
 40
4.2333333333333316
  1
30
 41
0.7
 11
-404.9397613828317
 21
-659.85416666666549
 31
0.0
 73
     3
  0
TEXT
  5
4C3
  8
BRACKET
 62
     7
 10
-401.91858263881687
 20
-669.89113036967012
 30
0.0
 40
4.2333333333333316
  1
25
 41
0.7
 11
-401.91858263881687
 21
-665.65779703633666
 31
0.0
 73
     3
  0
TEXT
  5
4C4
  8
BRACKET
 62
     7
 10
-399.41472010769297
 20
-675.93598925065726
 30
0.0
 40
4.2333333333333316
  1
20
 41
0.7
 11
-399.41472010769297
 21
-671.70265591732402
 31
0.0
 73
     3
  0
TEXT
  5
4C5
  8
BRACKET
 62
     7
 10
-397.4472296949466
 20
-682.17607161745775
 30
0.0
 40
4.2333333333333316
  1
15
 41
0.7
 11
-397.4472296949466
 21
-677.9427382841244
 31
0.0
 73
     3
  0
TEXT
  5
4C6
  8
BRACKET
 62
     7
 10
-396.49998097647091
 20
-688.64656565347707
 30
0.0
 40
4.2333333333333316
  1
10
 41
0.7
 11
-396.49998097647091
 21
-684.41323232014383
 31
0.0
 73
     3
  0
TEXT
  5
4C7
  8
BRACKET
 62
     7
 10
-392.53123097647079
 20
-695.05081929372375
 30
0.0
 40
4.2333333333333316
  1
5
 41
0.7
 11
-392.53123097647079
 21
-690.81748596039051
 31
0.0
 73
     3
  0
TEXT
  5
4C8
  8
BRACKET
 62
     7
 10
-392.24583333333339
 20
-701.58749999999975
 30
0.0
 40
4.2333333333333316
  1
0
 41
0.7
 11
-392.24583333333339
 21
-697.3541666666664
 31
0.0
 73
     3
  0
TEXT
  5
4C9
  8
BRACKET
 62
     7
 10
-369.79155229333361
 20
-707.12452138800006
 30
0.0
 40
4.2333333333333316
  1
1
 41
0.7
 11
-369.79155229333361
 21
-702.89118805466671
 31
0.0
 73
     3
  0
TEXT
  5
4CA
  8
BRACKET
 62
     7
 10
-354.84409236133348
 20
-704.94355536299975
 30
0.0
 40
4.2333333333333316
  1
2
 41
0.7
 11
-354.84409236133348
 21
-700.7102220296664
 31
0.0
 73
     3
  0
TEXT
  5
4CB
  8
BRACKET
 62
     7
 10
-339.94839148933352
 20
-702.2405054699999
 30
0.0
 40
4.2333333333333316
  1
3
 41
0.7
 11
-339.94839148933352
 21
-698.00717213666655
 31
0.0
 73
     3
  0
TEXT
  5
4CC
  8
BRACKET
 62
     7
 10
-325.11811629733347
 20
-699.01659367599984
 30
0.0
 40
4.2333333333333316
  1
4
 41
0.7
 11
-325.11811629733347
 21
-694.78326034266649
 31
0.0
 73
     3
  0
LINE
  5
4CD
  8
BRACKET
 62
     7
 10
-302.59999999999991
 20
-602.5
 30
0.0
 11
-302.59999999999991
 21
-797.5
 31
0.0
  0
LINE
  5
4CE
  8
BRACKET
 62
     7
 10
-302.59999999999991
 20
-800.10000000000014
 30
0.0
 11
-315.0
 21
-800.10000000000014
 31
0.0
  0
ARC
  5
4CF
  8
BRACKET
 62
     7
 10
-302.59999999999991
 20
-797.5
 30
0.0
 40
2.600000000000021
 50
270.0
 51
0.0
  0
LINE
  5
4D0
  8
BRACKET
 62
     7
 10
-315.0
 20
-797.5
 30
0.0
 11
-315.0
 21
-800.10000000000014
 31
0.0
  0
LINE
  5
4D1
  8
BRACKET
 62
     7
 10
-315.0
 20
-599.9000000000002
 30
0.0
 11
-315.0
 21
-602.5
 31
0.0
  0
LINE
  5
4D2
  8
BRACKET
 62
     7
 10
-302.59999999999991
 20
-599.9000000000002
 30
0.0
 11
-315.0
 21
-599.9000000000002
 31
0.0
  0
LINE
  5
4D3
  8
BRACKET
 62
     7
 10
-300.0
 20
-602.5
 30
0.0
 11
-300.0
 21
-797.5
 31
0.0
  0
ARC
  5
4D4
  8
BRACKET
 62
     7
 10
-302.59999999999991
 20
-602.5
 30
0.0
 40
2.5999999999999082
 50
0.0
 51
90.0
  0
ARC
  5
4D5
  8
BRACKET
 62
     7
 10
-528.94773322200001
 20
-253.99415921400001
 30
0.0
 40
3.1000000000000481
 50
220.00000000000159
 51
40.000000000001648
  0
ARC
  5
4D6
  8
BRACKET
 62
     7
 10
-464.60000000000031
 20
-200.0
 30
0.0
 40
87.099999999999696
 50
180.0
 51
220.00000000000011
  0
ARC
  5
4D7
  8
BRACKET
 62
     7
 10
-548.60000000000014
 20
-200.0
 30
0.0
 40
3.0999999999999082
 50
0.0
 51
180.0
  0
ARC
  5
4D8
  8
BRACKET
 62
     7
 10
-464.60000000000031
 20
-200.0
 30
0.0
 40
80.899999999999864
 50
180.0
 51
220.0000000000002
  0
CIRCLE
  5
4D9
  8
BRACKET
 62
     7
 10
-384.60000000000031
 20
-200.0
 30
0.0
 40
3.100000000000362
  0
CIRCLE
  5
4DA
  8
BRACKET
 62
     7
 10
-369.61446896000001
 20
-198.34202138799981
 30
0.0
 40
3.0999999999999082
  0
CIRCLE
  5
4DB
  8
BRACKET
 62
     7
 10
-354.66700902800039
 20
-196.16105536299989
 30
0.0
 40
3.100000000000362
  0
CIRCLE
  5
4DC
  8
BRACKET
 62
     7
 10
-339.77130815599998
 20
-193.4580054699999
 30
0.0
 40
3.0999999999999082
  0
CIRCLE
  5
4DD
  8
BRACKET
 62
     7
 10
-324.94103296400039
 20
-190.2340936759999
 30
0.0
 40
3.100000000000362
  0
CIRCLE
  5
4DE
  8
BRACKET
 62
     7
 10
-384.90442415299998
 20
-193.02754057999991
 30
0.0
 40
3.0999999999999082
  0
CIRCLE
  5
4DF
  8
BRACKET
 62
     7
 10
-370.12041993999992
 20
-190.06979598999999
 30
0.0
 40
3.0999999999999082
  0
CIRCLE
  5
4E0
  8
BRACKET
 62
     7
 10
-355.41992331900019
 20
-186.59437222499989
 30
0.0
 40
3.0999999999999082
  0
CIRCLE
  5
4E1
  8
BRACKET
 62
     7
 10
-340.81649140700023
 20
-182.60336237999999
 30
0.0
 40
3.100000000000362
  0
CIRCLE
  5
4E2
  8
BRACKET
 62
     7
 10
-326.32363231700037
 20
-178.0991748939999
 30
0.0
 40
3.100000000000362
  0
CIRCLE
  5
4E3
  8
BRACKET
 62
     7
 10
-385.81537975900022
 20
-186.10814578700001
 30
0.0
 40
3.100000000000362
  0
CIRCLE
  5
4E4
  8
BRACKET
 62
     7
 10
-371.34541757199997
 20
-181.8731454389999
 30
0.0
 40
3.0999999999999082
  0
CIRCLE
  5
4E5
  8
BRACKET
 62
     7
 10
-357.00376391900051
 20
-177.1297140099999
 30
0.0
 40
3.100000000000362
  0
CIRCLE
  5
4E6
  8
BRACKET
 62
     7
 10
-342.80374190200018
 20
-171.88111820699999
 30
0.0
 40
3.0999999999999082
  0
CIRCLE
  5
4E7
  8
BRACKET
 62
     7
 10
-328.75859832100008
 20
-166.13093461599999
 30
0.0
 40
3.0999999999999082
  0
CIRCLE
  5
4E8
  8
BRACKET
 62
     7
 10
-387.32593389700008
 20
-179.29447639200001
 30
0.0
 40
3.0999999999999082
  0
CIRCLE
  5
4E9
  8
BRACKET
 62
     7
 10
-373.28013888600032
 20
-173.8144511969999
 30
0.0
 40
3.0999999999999082
  0
CIRCLE
  5
4EA
  8
BRACKET
 62
     7
 10
-359.40647684400022
 20
-167.8391124799999
 30
0.0
 40
3.100000000000362
  0
CIRCLE
  5
4EB
  8
BRACKET
 62
     7
 10
-345.71793546300017
 20
-161.37287570300001
 30
0.0
 40
3.0999999999999082
  0
CIRCLE
  5
4EC
  8
BRACKET
 62
     7
 10
-332.22739941600008
 20
-154.42045837599991
 30
0.0
 40
3.0999999999999082
  0
CIRCLE
  5
4ED
  8
BRACKET
 62
     7
 10
-389.42459033700021
 20
-172.638388534
 30
0.0
 40
3.0999999999999082
  0
CIRCLE
  5
4EE
  8
BRACKET
 62
     7
 10
-375.9098594830001
 20
-165.9550447929999
 30
0.0
 40
3.0999999999999082
  0
CIRCLE
  5
4EF
  8
BRACKET
 62
     7
 10
-362.60977599800032
 20
-158.7932747239999
 30
0.0
 40
3.100000000000362
  0
CIRCLE
  5
4F0
  8
BRACKET
 62
     7
 10
-349.5368933180003
 20
-151.158608939
 30
0.0
 40
3.0999999999999082
  0
CIRCLE
  5
4F1
  8
BRACKET
 62
     7
 10
-336.70363593000002
 20
-143.05686996899999
 30
0.0
 40
3.0999999999999082
  0
CIRCLE
  5
4F2
  8
BRACKET
 62
     7
 10
-392.09537703700022
 20
-166.19053906100001
 30
0.0
 40
3.0999999999999082
  0
CIRCLE
  5
4F3
  8
BRACKET
 62
     7
 10
-379.21456560200022
 20
-158.35474105500001
 30
0.0
 40
3.100000000000362
  0
CIRCLE
  5
4F4
  8
BRACKET
 62
     7
 10
-366.58928233900042
 20
-150.0610450289999
 30
0.0
 40
3.100000000000362
  0
CIRCLE
  5
4F5
  8
BRACKET
 62
     7
 10
-354.23155089300002
 20
-141.31605465199991
 30
0.0
 40
3.0999999999999082
  0
CIRCLE
  5
4F6
  8
BRACKET
 62
     7
 10
-342.15324099999998
 20
-132.12665316600001
 30
0.0
 40
3.0999999999999082
  0
CIRCLE
  5
4F7
  8
BRACKET
 62
     7
 10
-395.31796769700031
 20
-160.0
 30
0.0
 40
3.100000000000362
  0
CIRCLE
  5
4F8
  8
BRACKET
 62
     7
 10
-383.1691064330002
 20
-151.07138288399989
 30
0.0
 40
3.0999999999999082
  0
CIRCLE
  5
4F9
  8
BRACKET
 62
     7
 10
-371.31470942300029
 20
-141.70888093400001
 30
0.0
 40
3.0999999999999082
  0
CIRCLE
  5
4FA
  8
BRACKET
 62
     7
 10
-359.76617900700001
 20
-131.920120623
 30
0.0
 40
3.0999999999999082
  0
CIRCLE
  5
4FB
  8
BRACKET
 62
     7
 10
-348.53473984200002
 20
-121.712993514
 30
0.0
 40
3.0999999999999082
  0
CIRCLE
  5
4FC
  8
BRACKET
 62
     7
 10
-399.06783645700028
 20
-154.1138850919998
 30
0.0
 40
3.100000000000362
  0
CIRCLE
  5
4FD
  8
BRACKET
 62
     7
 10
-387.74338553400008
 20
-144.16040103200001
 30
0.0
 40
3.0999999999999082
  0
CIRCLE
  5
4FE
  8
BRACKET
 62
     7
 10
-376.75009389500008
 20
-133.800347453
 30
0.0
 40
3.0999999999999082
  0
CIRCLE
  5
4FF
  8
BRACKET
 62
     7
 10
-366.09865579900003
 20
-123.04231558399999
 30
0.0
 40
3.0999999999999082
  0
CIRCLE
  5
500
  8
BRACKET
 62
     7
 10
-355.79956539600022
 20
-111.895145253
 30
0.0
 40
3.0999999999999082
  0
CIRCLE
  5
501
  8
BRACKET
 62
     7
 10
-403.31644455000003
 20
-148.5769912249998
 30
0.0
 40
3.0999999999999082
  0
LINE
  5
502
  8
BRACKET
 62
     7
 10
-300.0
 20
-297.5
 30
0.0
 11
-464.59999460500001
 21
-297.5
 31
0.0
  0
ARC
  5
503
  8
BRACKET
 62
     7
 10
-464.60000000000031
 20
-200.0
 30
0.0
 40
3.0999999999996
 50
179.99990028699941
 51
0.0000997130004805
  0
LINE
  5
504
  8
BRACKET
 62
     7
 10
-562.10000000000014
 20
-165.96743318299991
 30
0.0
 11
-538.16473317700024
 21
-142.03216635999999
 31
0.0
  0
LINE
  5
505
  8
BRACKET
 62
     7
 10
-538.16473317700024
 20
-142.03216635999999
 30
0.0
 11
-490.6647331769999
 21
-142.03216635999999
 31
0.0
  0
LINE
  5
506
  8
BRACKET
 62
     7
 10
-467.70000000000022
 20
-164.99689953699999
 30
0.0
 11
-490.6647331769999
 21
-142.03216635999999
 31
0.0
  0
LINE
  5
507
  8
BRACKET
 62
     7
 10
-467.70000000000022
 20
-199.99999460500001
 30
0.0
 11
-467.70000000000022
 21
-164.99689953699999
 31
0.0
  0
LINE
  5
508
  8
BRACKET
 62
     7
 10
-461.5
 20
-199.99999460500001
 30
0.0
 11
-461.5
 21
-164.99689953699999
 31
0.0
  0
LINE
  5
509
  8
BRACKET
 62
     7
 10
-562.10000000000014
 20
-200.0
 30
0.0
 11
-562.10000000000014
 21
-165.96743318299991
 31
0.0
  0
ARC
  5
50A
  8
BRACKET
 62
     7
 10
-464.60000000000031
 20
-200.0
 30
0.0
 40
97.499999999999787
 50
180.0
 51
270.0
  0
LINE
  5
50B
  8
BRACKET
 62
     7
 10
-300.0
 20
-102.5
 30
0.0
 11
-399.00310046300001
 21
-102.5
 31
0.0
  0
LINE
  5
50C
  8
BRACKET
 62
     7
 10
-461.5
 20
-164.99689953699999
 30
0.0
 11
-399.00310046300001
 21
-102.5
 31
0.0
  0
LINE
  5
50D
  8
BRACKET
 62
     7
 10
-397.94894377400033
 20
-111.0499957349999
 30
0.0
 11
-395.44894377400033
 21
-111.0499957349999
 31
0.0
  0
LINE
  5
50E
  8
BRACKET
 62
     7
 10
-397.94894377400033
 20
-111.0499957349999
 30
0.0
 11
-392.94894377400033
 21
-106.0499957349999
 31
0.0
  0
LINE
  5
50F
  8
BRACKET
 62
     7
 10
-395.44894377400033
 20
-113.5499957349999
 30
0.0
 11
-395.44894377400033
 21
-111.0499957349999
 31
0.0
  0
LINE
  5
510
  8
BRACKET
 62
     7
 10
-392.94894377400033
 20
-106.0499957349999
 30
0.0
 11
-387.94894377400033
 21
-111.0499957349999
 31
0.0
  0
LINE
  5
511
  8
BRACKET
 62
     7
 10
-390.44894377400033
 20
-113.5499957349999
 30
0.0
 11
-390.44894377400033
 21
-111.0499957349999
 31
0.0
  0
LINE
  5
512
  8
BRACKET
 62
     7
 10
-390.44894377400033
 20
-111.0499957349999
 30
0.0
 11
-387.94894377400033
 21
-111.0499957349999
 31
0.0
  0
LINE
  5
513
  8
BRACKET
 62
     7
 10
-395.44894377400033
 20
-113.5499957349999
 30
0.0
 11
-390.44894377400033
 21
-113.5499957349999
 31
0.0
  0
TEXT
  5
514
  8
BRACKET
 62
     7
 10
-397.34894377399991
 20
-122.2499957349999
 30
0.0
 40
5.0
  1
ＵＰ
 41
0.7
  0
TEXT
  5
515
  8
BRACKET
 62
     7
 10
-412.438333432592
 20
-153.37842927368931
 30
0.0
 40
4.2333333333333316
  1
40
 41
0.7
 11
-412.438333432592
 21
-149.14509594035599
 31
0.0
 73
     3
  0
TEXT
  5
516
  8
BRACKET
 62
     7
 10
-408.45526334499482
 20
-158.56926727367309
 30
0.0
 40
4.2333333333333316
  1
35
 41
0.7
 11
-408.45526334499482
 21
-154.3359339403398
 31
0.0
 73
     3
  0
TEXT
  5
517
  8
BRACKET
 62
     7
 10
-404.9397613828317
 20
-164.08749999999881
 30
0.0
 40
4.2333333333333316
  1
30
 41
0.7
 11
-404.9397613828317
 21
-159.85416666666549
 31
0.0
 73
     3
  0
TEXT
  5
518
  8
BRACKET
 62
     7
 10
-401.91858263881687
 20
-169.89113036967021
 30
0.0
 40
4.2333333333333316
  1
25
 41
0.7
 11
-401.91858263881687
 21
-165.65779703633689
 31
0.0
 73
     3
  0
TEXT
  5
519
  8
BRACKET
 62
     7
 10
-399.41472010769297
 20
-175.93598925065729
 30
0.0
 40
4.2333333333333316
  1
20
 41
0.7
 11
-399.41472010769297
 21
-171.70265591732399
 31
0.0
 73
     3
  0
TEXT
  5
51A
  8
BRACKET
 62
     7
 10
-397.4472296949466
 20
-182.17607161745769
 30
0.0
 40
4.2333333333333316
  1
15
 41
0.7
 11
-397.4472296949466
 21
-177.9427382841244
 31
0.0
 73
     3
  0
TEXT
  5
51B
  8
BRACKET
 62
     7
 10
-396.49998097647091
 20
-188.6465656534771
 30
0.0
 40
4.2333333333333316
  1
10
 41
0.7
 11
-396.49998097647091
 21
-184.41323232014381
 31
0.0
 73
     3
  0
TEXT
  5
51C
  8
BRACKET
 62
     7
 10
-392.53123097647079
 20
-195.05081929372381
 30
0.0
 40
4.2333333333333316
  1
5
 41
0.7
 11
-392.53123097647079
 21
-190.81748596039051
 31
0.0
 73
     3
  0
TEXT
  5
51D
  8
BRACKET
 62
     7
 10
-392.24583333333339
 20
-201.58749999999989
 30
0.0
 40
4.2333333333333316
  1
0
 41
0.7
 11
-392.24583333333339
 21
-197.3541666666666
 31
0.0
 73
     3
  0
TEXT
  5
51E
  8
BRACKET
 62
     7
 10
-369.79155229333361
 20
-207.12452138800001
 30
0.0
 40
4.2333333333333316
  1
1
 41
0.7
 11
-369.79155229333361
 21
-202.89118805466671
 31
0.0
 73
     3
  0
TEXT
  5
51F
  8
BRACKET
 62
     7
 10
-354.84409236133348
 20
-204.94355536299989
 30
0.0
 40
4.2333333333333316
  1
2
 41
0.7
 11
-354.84409236133348
 21
-200.7102220296666
 31
0.0
 73
     3
  0
TEXT
  5
520
  8
BRACKET
 62
     7
 10
-339.94839148933352
 20
-202.2405054699999
 30
0.0
 40
4.2333333333333316
  1
3
 41
0.7
 11
-339.94839148933352
 21
-198.00717213666661
 31
0.0
 73
     3
  0
TEXT
  5
521
  8
BRACKET
 62
     7
 10
-325.11811629733347
 20
-199.0165936759999
 30
0.0
 40
4.2333333333333316
  1
4
 41
0.7
 11
-325.11811629733347
 21
-194.78326034266649
 31
0.0
 73
     3
  0
LINE
  5
522
  8
BRACKET
 62
     7
 10
-302.59999999999991
 20
-102.5
 30
0.0
 11
-302.59999999999991
 21
-297.5
 31
0.0
  0
LINE
  5
523
  8
BRACKET
 62
     7
 10
-302.59999999999991
 20
-300.10000000000002
 30
0.0
 11
-315.0
 21
-300.10000000000002
 31
0.0
  0
ARC
  5
524
  8
BRACKET
 62
     7
 10
-302.59999999999991
 20
-297.5
 30
0.0
 40
2.600000000000021
 50
270.0
 51
0.0
  0
LINE
  5
525
  8
BRACKET
 62
     7
 10
-315.0
 20
-297.5
 30
0.0
 11
-315.0
 21
-300.10000000000002
 31
0.0
  0
LINE
  5
526
  8
BRACKET
 62
     7
 10
-315.0
 20
-99.900000000000091
 30
0.0
 11
-315.0
 21
-102.5
 31
0.0
  0
LINE
  5
527
  8
BRACKET
 62
     7
 10
-302.59999999999991
 20
-99.900000000000091
 30
0.0
 11
-315.0
 21
-99.900000000000091
 31
0.0
  0
LINE
  5
528
  8
BRACKET
 62
     7
 10
-300.0
 20
-102.5
 30
0.0
 11
-300.0
 21
-297.5
 31
0.0
  0
ARC
  5
529
  8
BRACKET
 62
     7
 10
-302.59999999999991
 20
-102.5
 30
0.0
 40
2.5999999999999082
 50
0.0
 51
90.0
  0
INSERT
  5
52A
  8
BRACKET
 62
     7
  2
*U2
 10
100.0
 20
140.0
 30
0.0
  0
CIRCLE
  5
52C
  8
BRACKET
 62
     7
 10
-548.60000000073535
 20
-200.0000000001408
 30
0.0
 40
3.0000000000000151
  0
CIRCLE
  5
52D
  8
BRACKET
 62
     7
 10
-464.60000000051849
 20
-199.99999999989109
 30
0.0
 40
2.9999999999999409
  0
CIRCLE
  5
52E
  8
BRACKET
 62
     7
 10
-528.94773322246715
 20
-753.99415921424952
 30
0.0
 40
3.0000000000001119
  0
CIRCLE
  5
52F
  8
BRACKET
 62
     7
 10
-464.60000000046739
 20
-700.00000000024966
 30
0.0
 40
3.0
  0
TEXT
  5
530
  8
DATA
 62
     7
 10
-699.99999999999989
 20
-1084.563664999999
 30
0.0
 40
16.93333333333333
  1
仕様および外観は予告なく変更されることがありますので、ご了承ください。
 41
0.7
 11
-699.99999999999989
 21
-1067.6303316666661
 31
0.0
 73
     3
  0
TEXT
  5
531
  8
DATA
 62
     7
 10
599.99999999999989
 20
-996.2505219024016
 30
0.0
 40
25.399999999999999
  1
(CONTROL 30 壁用)
 41
0.7
 11
599.99999999999989
 21
-970.85052190240174
 31
0.0
 73
     3
  0
TEXT
  5
532
  8
DATA
 62
     7
 10
599.99999999999989
 20
-942.49976499999991
 30
0.0
 40
25.399999999999999
  1
JBL-30-1金具装着図
 41
0.7
 11
599.99999999999989
 21
-917.09976500000005
 31
0.0
 73
     3
  0
TEXT
  5
533
  8
DATA
 62
     7
 10
394.16666666666652
 20
817.06250000000011
 30
0.0
 40
21.166666666666671
  1
金具取付け面(壁)
 41
0.7
 11
394.16666666666652
 21
838.22916666666674
 31
0.0
 73
     3
  0
LINE
  5
534
  8
DATA
 62
     7
 10
375.0
 20
800.0
 30
0.0
 11
625.0
 21
800.0
 31
0.0
  0
ARC
  5
539
  8
DATA
 62
     7
 10
-464.60000000000031
 20
-700.0
 30
0.0
 40
161.9999999999998
 50
315.19001404900001
 51
113.858959411
  0
ARC
  5
53A
  8
DATA
 62
     7
 10
-464.60000000000002
 20
-199.99999999999989
 30
0.0
 40
162.0
 50
293.79943838999998
 51
73.428160401999975
  0
LINE
  5
7AE
  8
DATA
  6
CONTINUOUS
 62
     7
 10
774.5
 20
544.10000000000014
 30
0.0
 11
225.50000000000011
 21
544.10000000000014
 31
0.0
  0
LINE
  5
7AF
  8
DATA
  6
CONTINUOUS
 62
     7
 10
796.50000000000011
 20
477.60000000000019
 30
0.0
 11
796.50000000000011
 21
478.60000000000019
 31
0.0
  0
LINE
  5
7B0
  8
DATA
  6
CONTINUOUS
 62
     7
 10
240.78868085499991
 20
196.10000000000011
 30
0.0
 11
759.21131914500006
 21
196.10000000000011
 31
0.0
  0
LINE
  5
7B1
  8
DATA
  6
CONTINUOUS
 62
     7
 10
203.50000000000011
 20
478.60000000000019
 30
0.0
 11
203.50000000000011
 21
477.60000000000019
 31
0.0
  0
LINE
  5
7B2
  8
DATA
  6
CONTINUOUS
 62
     7
 10
796.50000000000011
 20
478.60000000000019
 30
0.0
 11
203.50000000000011
 21
478.60000000000019
 31
0.0
  0
LINE
  5
7B3
  8
DATA
  6
CONTINUOUS
 62
     7
 10
215.43275431899991
 20
526.10000000000014
 30
0.0
 11
784.56724568100003
 21
526.10000000000014
 31
0.0
  0
LINE
  5
7B4
  8
DATA
  6
CONTINUOUS
 62
     7
 10
795.5
 20
497.60000000000008
 30
0.0
 11
204.50000000000011
 21
497.60000000000008
 31
0.0
  0
LINE
  5
7B5
  8
DATA
  6
CONTINUOUS
 62
     7
 10
796.50000000000011
 20
477.60000000000019
 30
0.0
 11
203.50000000000011
 21
477.60000000000019
 31
0.0
  0
LINE
  5
7B6
  8
DATA
  6
CONTINUOUS
 62
     7
 10
795.5
 20
457.10000000000019
 30
0.0
 11
204.50000000000011
 21
457.10000000000019
 31
0.0
  0
LINE
  5
7B7
  8
DATA
  6
CONTINUOUS
 62
     7
 10
203.50000000000011
 20
478.60000000000019
 30
0.0
 11
204.50000000000011
 21
497.60000000000008
 31
0.0
  0
LINE
  5
7B8
  8
DATA
  6
CONTINUOUS
 62
     7
 10
206.50000000000011
 20
497.60000000000008
 30
0.0
 11
209.02839143099999
 21
535.10447289300021
 31
0.0
  0
LINE
  5
7B9
  8
DATA
  6
CONTINUOUS
 62
     7
 10
221.50000000000011
 20
540.20035087699989
 30
0.0
 11
221.50000000000011
 21
526.10000000000014
 31
0.0
  0
ARC
  5
7BA
  8
DATA
  6
CONTINUOUS
 62
     7
 10
216.5114060039997
 20
534.60000000000014
 30
0.0
 40
7.5000000000000187
 50
66.51685973799853
 51
176.14319901399921
  0
LINE
  5
7BB
  8
DATA
  6
CONTINUOUS
 62
     7
 10
219.5000000000002
 20
541.47883027299997
 30
0.0
 11
221.50000000000011
 21
540.20035087699989
 31
0.0
  0
ARC
  5
7BC
  8
DATA
  6
CONTINUOUS
 62
     7
 10
215.43275431899991
 20
518.60000000000014
 30
0.0
 40
7.5
 50
90.0
 51
176.14319901399921
  0
LINE
  5
7BD
  8
DATA
  6
CONTINUOUS
 62
     7
 10
796.50000000000011
 20
478.60000000000019
 30
0.0
 11
795.5
 21
497.60000000000008
 31
0.0
  0
LINE
  5
7BE
  8
DATA
  6
CONTINUOUS
 62
     7
 10
793.50000000000011
 20
497.60000000000008
 30
0.0
 11
790.97160856899995
 21
535.10447289300021
 31
0.0
  0
LINE
  5
7BF
  8
DATA
  6
CONTINUOUS
 62
     7
 10
778.50000000000011
 20
540.20035087699989
 30
0.0
 11
778.50000000000011
 21
526.10000000000014
 31
0.0
  0
ARC
  5
7C0
  8
DATA
  6
CONTINUOUS
 62
     7
 10
783.48859399600019
 20
534.60000000000014
 30
0.0
 40
7.499999999999968
 50
3.8568009859990982
 51
113.4831402620015
  0
LINE
  5
7C1
  8
DATA
  6
CONTINUOUS
 62
     7
 10
780.50000000000011
 20
541.47883027299997
 30
0.0
 11
778.50000000000011
 21
540.20035087699989
 31
0.0
  0
ARC
  5
7C2
  8
DATA
  6
CONTINUOUS
 62
     7
 10
784.56724568100003
 20
518.60000000000014
 30
0.0
 40
7.499999999999968
 50
3.8568009859990982
 51
90.0
  0
LINE
  5
7C3
  8
DATA
  6
CONTINUOUS
 62
     7
 10
203.50000000000011
 20
477.60000000000019
 30
0.0
 11
204.50000000000011
 21
457.10000000000019
 31
0.0
  0
LINE
  5
7C4
  8
DATA
  6
CONTINUOUS
 62
     7
 10
206.50000000000011
 20
457.10000000000019
 30
0.0
 11
228.3362471289999
 21
207.51055321600009
 31
0.0
  0
LINE
  5
7C5
  8
DATA
  6
CONTINUOUS
 62
     7
 10
796.50000000000011
 20
477.60000000000019
 30
0.0
 11
795.5
 21
457.10000000000019
 31
0.0
  0
LINE
  5
7C6
  8
DATA
  6
CONTINUOUS
 62
     7
 10
793.50000000000011
 20
457.10000000000019
 30
0.0
 11
771.66375287099993
 21
207.51055321600009
 31
0.0
  0
ARC
  5
7C7
  8
DATA
  6
CONTINUOUS
 62
     7
 10
240.78868085499991
 20
208.60000000000011
 30
0.0
 40
12.50000000000003
 50
184.9999999999998
 51
270.0
  0
ARC
  5
7C8
  8
DATA
  6
CONTINUOUS
 62
     7
 10
759.21131914500006
 20
208.60000000000011
 30
0.0
 40
12.5
 50
270.0
 51
355.00000000000023
  0
LINE
  5
7C9
  8
DATA
  6
CONTINUOUS
 62
     7
 10
206.50000000000011
 20
457.10000000000019
 30
0.0
 11
206.50000000000011
 21
272.10000000000008
 31
0.0
  0
ARC
  5
7CA
  8
DATA
  6
CONTINUOUS
 62
     7
 10
204.623772739
 20
251.0279594480001
 30
0.0
 40
21.15540407899999
 50
25.393237820999421
 51
84.911875554999725
  0
LINE
  5
7CB
  8
DATA
  6
CONTINUOUS
 62
     7
 10
793.50000000000011
 20
457.10000000000019
 30
0.0
 11
793.50000000000011
 21
272.10000000000008
 31
0.0
  0
ARC
  5
7CC
  8
DATA
  6
CONTINUOUS
 62
     7
 10
795.37622726100005
 20
251.0279594480001
 30
0.0
 40
21.15540407899999
 50
95.088124445000261
 51
154.60676217900061
  0
LINE
  5
7CD
  8
DATA
  6
CONTINUOUS
 62
     7
 10
206.50000000000011
 20
446.60000000000008
 30
0.0
 11
205.50000000000011
 21
446.60000000000008
 31
0.0
  0
LINE
  5
7CE
  8
DATA
  6
CONTINUOUS
 62
     7
 10
205.50000000000011
 20
437.60000000000019
 30
0.0
 11
206.50000000000011
 21
437.60000000000019
 31
0.0
  0
LINE
  5
7CF
  8
DATA
  6
CONTINUOUS
 62
     7
 10
205.50000000000011
 20
446.60000000000008
 30
0.0
 11
205.50000000000011
 21
437.60000000000019
 31
0.0
  0
ARC
  5
7D0
  8
DATA
  6
CONTINUOUS
 62
     7
 10
215.12500000000011
 20
442.10000000000019
 30
0.0
 40
10.625000000000259
 50
154.9423845820001
 51
205.0576154179999
  0
LINE
  5
7D1
  8
DATA
  6
CONTINUOUS
 62
     7
 10
206.50000000000011
 20
400.60000000000008
 30
0.0
 11
205.50000000000011
 21
400.60000000000008
 31
0.0
  0
LINE
  5
7D2
  8
DATA
  6
CONTINUOUS
 62
     7
 10
205.50000000000011
 20
391.60000000000008
 30
0.0
 11
206.50000000000011
 21
391.60000000000008
 31
0.0
  0
LINE
  5
7D3
  8
DATA
  6
CONTINUOUS
 62
     7
 10
205.50000000000011
 20
400.60000000000008
 30
0.0
 11
205.50000000000011
 21
391.60000000000008
 31
0.0
  0
ARC
  5
7D4
  8
DATA
  6
CONTINUOUS
 62
     7
 10
215.12500000000011
 20
396.10000000000019
 30
0.0
 40
10.625000000000259
 50
154.9423845820001
 51
205.0576154179999
  0
LINE
  5
7D5
  8
DATA
  6
CONTINUOUS
 62
     7
 10
206.50000000000011
 20
316.60000000000019
 30
0.0
 11
205.50000000000011
 21
316.60000000000019
 31
0.0
  0
LINE
  5
7D6
  8
DATA
  6
CONTINUOUS
 62
     7
 10
205.50000000000011
 20
307.60000000000019
 30
0.0
 11
206.50000000000011
 21
307.60000000000019
 31
0.0
  0
LINE
  5
7D7
  8
DATA
  6
CONTINUOUS
 62
     7
 10
205.50000000000011
 20
316.60000000000019
 30
0.0
 11
205.50000000000011
 21
307.60000000000019
 31
0.0
  0
ARC
  5
7D8
  8
DATA
  6
CONTINUOUS
 62
     7
 10
215.12500000000011
 20
312.10000000000019
 30
0.0
 40
10.625000000000259
 50
154.9423845820001
 51
205.0576154179999
  0
LINE
  5
7D9
  8
DATA
  6
CONTINUOUS
 62
     7
 10
793.50000000000011
 20
446.60000000000008
 30
0.0
 11
794.50000000000011
 21
446.60000000000008
 31
0.0
  0
LINE
  5
7DA
  8
DATA
  6
CONTINUOUS
 62
     7
 10
794.50000000000011
 20
437.60000000000019
 30
0.0
 11
793.50000000000011
 21
437.60000000000019
 31
0.0
  0
LINE
  5
7DB
  8
DATA
  6
CONTINUOUS
 62
     7
 10
794.50000000000011
 20
446.60000000000008
 30
0.0
 11
794.50000000000011
 21
437.60000000000019
 31
0.0
  0
ARC
  5
7DC
  8
DATA
  6
CONTINUOUS
 62
     7
 10
784.87500000000011
 20
442.10000000000019
 30
0.0
 40
10.624999999999851
 50
334.9423845820001
 51
25.057615418000228
  0
LINE
  5
7DD
  8
DATA
  6
CONTINUOUS
 62
     7
 10
793.50000000000011
 20
400.60000000000008
 30
0.0
 11
794.50000000000011
 21
400.60000000000008
 31
0.0
  0
LINE
  5
7DE
  8
DATA
  6
CONTINUOUS
 62
     7
 10
794.50000000000011
 20
391.60000000000008
 30
0.0
 11
793.50000000000011
 21
391.60000000000008
 31
0.0
  0
LINE
  5
7DF
  8
DATA
  6
CONTINUOUS
 62
     7
 10
794.50000000000011
 20
400.60000000000008
 30
0.0
 11
794.50000000000011
 21
391.60000000000008
 31
0.0
  0
ARC
  5
7E0
  8
DATA
  6
CONTINUOUS
 62
     7
 10
784.87500000000011
 20
396.10000000000019
 30
0.0
 40
10.624999999999851
 50
334.9423845820001
 51
25.057615418000228
  0
LINE
  5
7E1
  8
DATA
  6
CONTINUOUS
 62
     7
 10
793.50000000000011
 20
316.60000000000019
 30
0.0
 11
794.50000000000011
 21
316.60000000000019
 31
0.0
  0
LINE
  5
7E2
  8
DATA
  6
CONTINUOUS
 62
     7
 10
794.50000000000011
 20
307.60000000000019
 30
0.0
 11
793.50000000000011
 21
307.60000000000019
 31
0.0
  0
LINE
  5
7E3
  8
DATA
  6
CONTINUOUS
 62
     7
 10
794.50000000000011
 20
316.60000000000019
 30
0.0
 11
794.50000000000011
 21
307.60000000000019
 31
0.0
  0
ARC
  5
7E4
  8
DATA
  6
CONTINUOUS
 62
     7
 10
784.87500000000011
 20
312.10000000000019
 30
0.0
 40
10.624999999999851
 50
334.9423845820001
 51
25.057615418000228
  0
CIRCLE
  5
7E5
  8
DATA
  6
CONTINUOUS
 62
     7
 10
501.48586604399969
 20
432.10000000000019
 30
0.0
 40
3.0
  0
CIRCLE
  5
7E6
  8
DATA
  6
CONTINUOUS
 62
     7
 10
501.48586604399969
 20
305.10000000000019
 30
0.0
 40
3.0
  0
LINE
  5
7E7
  8
DATA
  6
CONTINUOUS
 62
     7
 10
223.50000000000011
 20
542.10000000000014
 30
0.0
 11
223.50000000000011
 21
526.10000000000014
 31
0.0
  0
LINE
  5
7E8
  8
DATA
  6
CONTINUOUS
 62
     7
 10
774.5
 20
530.52999999999997
 30
0.0
 11
225.50000000000011
 21
530.52999999999997
 31
0.0
  0
LINE
  5
7E9
  8
DATA
  6
CONTINUOUS
 62
     7
 10
776.50000000000011
 20
542.10000000000014
 30
0.0
 11
776.50000000000011
 21
526.10000000000014
 31
0.0
  0
ARC
  5
7EA
  8
DATA
  6
CONTINUOUS
 62
     7
 10
774.5
 20
542.10000000000014
 30
0.0
 40
2.0
 50
0.0
 51
90.0
  0
ARC
  5
7EB
  8
DATA
  6
CONTINUOUS
 62
     7
 10
774.5
 20
528.53000000000009
 30
0.0
 40
2.0
 50
0.0
 51
90.0
  0
ARC
  5
7EC
  8
DATA
  6
CONTINUOUS
 62
     7
 10
225.50000000000011
 20
528.53000000000009
 30
0.0
 40
2.0
 50
90.0
 51
180.0
  0
ARC
  5
7ED
  8
DATA
  6
CONTINUOUS
 62
     7
 10
225.50000000000011
 20
542.10000000000014
 30
0.0
 40
2.0
 50
90.0
 51
180.0
  0
LINE
  5
7EE
  8
DATA
  6
CONTINUOUS
 62
     7
 10
395.3345411799998
 20
196.10000000000011
 30
0.0
 11
395.3345411799998
 21
191.10000000000011
 31
0.0
  0
LINE
  5
7EF
  8
DATA
  6
CONTINUOUS
 62
     7
 10
411.3345411799998
 20
191.10000000000011
 30
0.0
 11
411.3345411799998
 21
196.10000000000011
 31
0.0
  0
LINE
  5
7F0
  8
DATA
  6
CONTINUOUS
 62
     7
 10
411.3345411799998
 20
191.10000000000011
 30
0.0
 11
395.3345411799998
 21
191.10000000000011
 31
0.0
  0
LINE
  5
7F3
  8
DATA
  6
CONTINUOUS
 62
     7
 10
-631.10000000000014
 20
-12.49999999999986
 30
0.0
 11
-630.10000000000014
 21
-12.49999999999986
 31
0.0
  0
LINE
  5
7F4
  8
DATA
  6
CONTINUOUS
 62
     7
 10
-630.10000000000014
 20
-387.49999999999977
 30
0.0
 11
-631.10000000000014
 21
-387.49999999999977
 31
0.0
  0
LINE
  5
7F5
  8
DATA
  6
CONTINUOUS
 62
     7
 10
-609.60000000000014
 20
-16.999999999999861
 30
0.0
 11
-380.28353236700002
 21
-65.742719894000004
 31
0.0
  0
LINE
  5
7F6
  8
DATA
  6
CONTINUOUS
 62
     7
 10
-380.28353236700002
 20
-334.25728010599988
 30
0.0
 11
-609.60000000000014
 21
-382.99999999999977
 31
0.0
  0
LINE
  5
7F7
  8
DATA
  6
CONTINUOUS
 62
     7
 10
-631.10000000000014
 20
-387.49999999999977
 30
0.0
 11
-631.10000000000014
 21
-12.49999999999986
 31
0.0
  0
LINE
  5
7F8
  8
DATA
  6
CONTINUOUS
 62
     7
 10
-671.48236097400013
 20
-20.438597688999891
 30
0.0
 11
-650.10000000000014
 21
-17.249999999999861
 31
0.0
  0
LINE
  5
7F9
  8
DATA
  6
CONTINUOUS
 62
     7
 10
-671.48236097400013
 20
-379.56140231099988
 30
0.0
 11
-650.10000000000014
 21
-382.74999999999989
 31
0.0
  0
LINE
  5
7FA
  8
DATA
  6
CONTINUOUS
 62
     7
 10
-650.10000000000014
 20
-384.99999999999989
 30
0.0
 11
-650.10000000000014
 21
-14.999999999999851
 31
0.0
  0
LINE
  5
7FB
  8
DATA
  6
CONTINUOUS
 62
     7
 10
-631.10000000000014
 20
-12.49999999999986
 30
0.0
 11
-650.10000000000014
 21
-14.999999999999851
 31
0.0
  0
LINE
  5
7FC
  8
DATA
  6
CONTINUOUS
 62
     7
 10
-650.10000000000014
 20
-384.99999999999989
 30
0.0
 11
-631.10000000000014
 21
-387.49999999999977
 31
0.0
  0
LINE
  5
7FD
  8
DATA
  6
CONTINUOUS
 62
     7
 10
-630.10000000000014
 20
-387.49999999999977
 30
0.0
 11
-630.10000000000014
 21
-12.49999999999986
 31
0.0
  0
LINE
  5
7FE
  8
DATA
  6
CONTINUOUS
 62
     7
 10
-609.60000000000014
 20
-385.49999999999989
 30
0.0
 11
-609.60000000000014
 21
-14.49999999999986
 31
0.0
  0
LINE
  5
7FF
  8
DATA
  6
CONTINUOUS
 62
     7
 10
-630.10000000000014
 20
-12.49999999999986
 30
0.0
 11
-609.60000000000014
 21
-14.49999999999986
 31
0.0
  0
LINE
  5
800
  8
DATA
  6
CONTINUOUS
 62
     7
 10
-630.10000000000014
 20
-387.49999999999977
 30
0.0
 11
-609.60000000000014
 21
-385.49999999999989
 31
0.0
  0
ARC
  5
801
  8
DATA
  6
CONTINUOUS
 62
     7
 10
-388.60000000000008
 20
-104.868623924
 30
0.0
 40
40.000000000000007
 50
3.3947897915227041
 51
78.000000000000554
  0
ARC
  5
802
  8
DATA
  6
CONTINUOUS
 62
     7
 10
-388.60000000000008
 20
-295.13137607599992
 30
0.0
 40
40.0
 50
281.99999999999937
 51
356.60521020847727
  0
ARC
  5
803
  8
DATA
  6
CONTINUOUS
 62
     7
 10
309.09531249999958
 20
-199.99999999999989
 30
0.0
 40
1003.6953125
 50
170.16872979699929
 51
189.83127020300071
  0
ARC
  5
804
  8
DATA
  6
CONTINUOUS
 62
     7
 10
-670.00744207000014
 20
-30.32923033999981
 30
0.0
 40
10.000000000000011
 50
98.481605793999805
 51
170.16872979699929
  0
ARC
  5
805
  8
DATA
  6
CONTINUOUS
 62
     7
 10
-670.00744207000014
 20
-369.67076965999991
 30
0.0
 40
9.9999999999998561
 50
189.83127020300071
 51
261.51839420600021
  0
ARC
  5
806
  8
DATA
  6
CONTINUOUS
 62
     7
 10
-475.85000000000008
 20
-199.99999999999989
 30
0.0
 40
51.250000000000092
 50
61.556162985093721
 51
77.319616507999982
  0
LINE
  5
807
  8
DATA
  6
CONTINUOUS
 62
     7
 10
-464.60000000000008
 20
-149.99999999999989
 30
0.0
 11
-486.46708694054189
 21
-146.2298125964582
 31
0.0
  0
LINE
  5
808
  8
DATA
  6
CONTINUOUS
 62
     7
 10
-510.8134351119993
 20
-142.03216635999999
 30
0.0
 11
-609.60000000000014
 21
-124.9999999999999
 31
0.0
  0
LINE
  5
809
  8
DATA
  6
CONTINUOUS
 62
     7
 10
-609.60000000000014
 20
-274.99999999999977
 30
0.0
 11
-539.13823821372398
 21
-262.85142038167629
 31
0.0
  0
ARC
  5
80A
  8
DATA
  6
CONTINUOUS
 62
     7
 10
-470.3908653850001
 20
-199.99999999999989
 30
0.0
 40
57.790865384999961
 50
63.632644722338583
 51
84.249092631999844
  0
LINE
  5
80B
  8
DATA
  6
CONTINUOUS
 62
     7
 10
-609.60000000000014
 20
-124.9999999999999
 30
0.0
 11
-464.60000000000008
 21
-142.49999999999989
 31
0.0
  0
LINE
  5
80C
  8
DATA
  6
CONTINUOUS
 62
     7
 10
-536.23145750564902
 20
-266.14517590585399
 30
0.0
 11
-609.60000000000014
 21
-274.99999999999977
 31
0.0
  0
CIRCLE
  5
80D
  8
DATA
  6
CONTINUOUS
 62
     7
 10
-594.60000000000014
 20
-199.99999999999989
 30
0.0
 40
3.0
  0
ARC
  5
80E
  8
DATA
  6
CONTINUOUS
 62
     7
 10
307.09531249999958
 20
-199.99999999999989
 30
0.0
 40
1003.6953125
 50
170.56698842800009
 51
189.4330115719998
  0
LINE
  5
80F
  8
DATA
  6
CONTINUOUS
 62
     7
 10
-683.0279274730002
 20
-35.499999999999893
 30
0.0
 11
-681.02792747299998
 21
-35.499999999999893
 31
0.0
  0
LINE
  5
810
  8
DATA
  6
CONTINUOUS
 62
     7
 10
-683.0279274730002
 20
-364.5
 30
0.0
 11
-681.02792747299998
 21
-364.5
 31
0.0
  0
LINE
  5
811
  8
DATA
  6
CONTINUOUS
 62
     7
 10
-712.66907659600042
 20
-663.39080392800008
 30
0.0
 11
-711.90303215200015
 21
-662.74801631800005
 31
0.0
  0
LINE
  5
812
  8
DATA
  6
CONTINUOUS
 62
     7
 10
-470.85767852000021
 20
-950.01468248800006
 30
0.0
 11
-471.62372296300038
 21
-950.65747009799986
 31
0.0
  0
LINE
  5
813
  8
DATA
  6
CONTINUOUS
 62
     7
 10
-436.88811443200029
 20
-552.56177526699992
 30
0.0
 11
-394.98496847707469
 21
-602.5
 31
0.0
  0
LINE
  5
814
  8
DATA
  6
CONTINUOUS
 62
     7
 10
-693.30657682500032
 20
-653.01807031399994
 30
0.0
 11
-486.30875466900039
 21
-542.95537593999995
 31
0.0
  0
LINE
  5
815
  8
DATA
  6
CONTINUOUS
 62
     7
 10
-351.87714499475328
 20
-797.5
 30
0.0
 11
-458.0463116800002
 21
-933.39033649500004
 31
0.0
  0
LINE
  5
816
  8
DATA
  6
CONTINUOUS
 62
     7
 10
-471.62372296300038
 20
-950.65747009799986
 30
0.0
 11
-712.66907659600042
 21
-663.39080392800008
 31
0.0
  0
LINE
  5
817
  8
DATA
  6
CONTINUOUS
 62
     7
 10
-738.50092758700043
 20
-695.429403858
 30
0.0
 11
-724.17067986900042
 21
-679.24247961699984
 31
0.0
  0
LINE
  5
818
  8
DATA
  6
CONTINUOUS
 62
     7
 10
-507.6612384200003
 20
-970.53343273600012
 30
0.0
 11
-489.23180852800039
 21
-959.2317235769998
 31
0.0
  0
LINE
  5
819
  8
DATA
  6
CONTINUOUS
 62
     7
 10
-487.78553640700011
 20
-960.95532357399986
 30
0.0
 11
-725.61695199100029
 21
-677.51887962000001
 31
0.0
  0
LINE
  5
81A
  8
DATA
  6
CONTINUOUS
 62
     7
 10
-712.66907659600042
 20
-663.39080392800008
 30
0.0
 11
-725.61695199100029
 21
-677.51887962000001
 31
0.0
  0
LINE
  5
81B
  8
DATA
  6
CONTINUOUS
 62
     7
 10
-487.78553640700011
 20
-960.95532357399986
 30
0.0
 11
-471.62372296300038
 21
-950.65747009799986
 31
0.0
  0
LINE
  5
81C
  8
DATA
  6
CONTINUOUS
 62
     7
 10
-470.85767852000021
 20
-950.01468248800006
 30
0.0
 11
-711.90303215200015
 21
-662.74801631800005
 31
0.0
  0
LINE
  5
81D
  8
DATA
  6
CONTINUOUS
 62
     7
 10
-456.43934265500042
 20
-935.30544760299995
 30
0.0
 11
-694.91354584900034
 21
-651.10295920600004
 31
0.0
  0
LINE
  5
81E
  8
DATA
  6
CONTINUOUS
 62
     7
 10
-711.90303215200015
 20
-662.74801631800005
 30
0.0
 11
-694.91354584900034
 21
-651.10295920600004
 31
0.0
  0
LINE
  5
81F
  8
DATA
  6
CONTINUOUS
 62
     7
 10
-470.85767852000021
 20
-950.01468248800006
 30
0.0
 11
-456.43934265500042
 21
-935.30544760299995
 31
0.0
  0
ARC
  5
820
  8
DATA
  6
CONTINUOUS
 62
     7
 10
-467.52989215700029
 20
-578.27327965399991
 30
0.0
 40
39.999999999999957
 50
40.000000000000092
 51
117.9999999999997
  0
ARC
  5
821
  8
DATA
  6
CONTINUOUS
 62
     7
 10
128.08499480799949
 20
-202.67823945200021
 30
0.0
 40
1003.6953125
 50
210.16872979700011
 51
229.83127020299969
  0
ARC
  5
822
  8
DATA
  6
CONTINUOUS
 62
     7
 10
-731.01349803700043
 20
-702.05800844199985
 30
0.0
 40
9.9999999999999112
 50
138.48160579399919
 51
210.16872979700011
  0
ARC
  5
823
  8
DATA
  6
CONTINUOUS
 62
     7
 10
-512.88896111000042
 20
-962.00870895800006
 30
0.0
 40
9.9999999999997762
 50
229.83127020299909
 51
301.51839420600049
  0
ARC
  5
824
  8
DATA
  6
CONTINUOUS
 62
     7
 10
-473.21799998500029
 20
-707.23136060900003
 30
0.0
 40
51.24999999999995
 50
69.900383489275384
 51
93.787734448126741
  0
LINE
  5
825
  8
DATA
  6
CONTINUOUS
 62
     7
 10
-496.73938048400038
 20
-661.69777784400014
 30
0.0
 11
-496.73938048472598
 21
-661.69777784442238
 31
0.0
  0
LINE
  5
826
  8
DATA
  6
CONTINUOUS
 62
     7
 10
-562.10000000000014
 20
-699.76543920698543
 30
0.0
 11
-623.88551497900005
 21
-735.75087017100009
 31
0.0
  0
LINE
  5
827
  8
DATA
  6
CONTINUOUS
 62
     7
 10
-527.46737352600019
 20
-850.65753663800012
 30
0.0
 11
-481.29948891136547
 21
-796.05923729709207
 31
0.0
  0
ARC
  5
828
  8
DATA
  6
CONTINUOUS
 62
     7
 10
-469.03606024900029
 20
-703.72229651899977
 30
0.0
 40
57.79086538499989
 50
67.434109807967303
 51
105.6478124448932
  0
LINE
  5
829
  8
DATA
  6
CONTINUOUS
 62
     7
 10
-623.88551497900005
 20
-735.75087017100009
 30
0.0
 11
-562.10000000000014
 21
-695.44530992634384
 31
0.0
  0
LINE
  5
82A
  8
DATA
  6
CONTINUOUS
 62
     7
 10
-476.95558046232969
 20
-796.71395779017041
 30
0.0
 11
-527.46737352600019
 21
-850.65753663800012
 31
0.0
  0
CIRCLE
  5
82B
  8
DATA
  6
CONTINUOUS
 62
     7
 10
-564.18577760500045
 20
-783.56238925899993
 30
0.0
 40
3.0
  0
ARC
  5
82C
  8
DATA
  6
CONTINUOUS
 62
     7
 10
126.5529059219997
 20
-203.96381467200001
 30
0.0
 40
1003.6953125
 50
210.56698842800051
 51
229.43301157199949
  0
LINE
  5
82D
  8
DATA
  6
CONTINUOUS
 62
     7
 10
-737.66406185600033
 20
-714.38845449600001
 30
0.0
 11
-736.13197297000033
 21
-713.10287927699983
 31
0.0
  0
LINE
  5
82E
  8
DATA
  6
CONTINUOUS
 62
     7
 10
-526.18693826900028
 20
-966.41707628199993
 30
0.0
 11
-524.6548493830004
 21
-965.13150106299997
 31
0.0
  0
LINE
  5
82F
  8
DATA
  6
CONTINUOUS
 62
     7
 10
206.5
 20
-368.0
 30
0.0
 11
206.5
 21
-300.09999999999991
 31
0.0
  0
LINE
  5
830
  8
DATA
  6
CONTINUOUS
 62
     7
 10
206.5
 20
-99.899999999999892
 30
0.0
 11
206.5
 21
-32.0
 31
0.0
  0
LINE
  5
831
  8
DATA
  6
CONTINUOUS
 62
     7
 10
781.5
 20
-387.5
 30
0.0
 11
218.5
 21
-387.5
 31
0.0
  0
LINE
  5
832
  8
DATA
  6
CONTINUOUS
 62
     7
 10
796.49999999999977
 20
-27.5
 30
0.0
 11
796.49999999999977
 21
-99.899999999999892
 31
0.0
  0
LINE
  5
833
  8
DATA
  6
CONTINUOUS
 62
     7
 10
796.49999999999977
 20
-300.09999999999991
 30
0.0
 11
796.49999999999977
 21
-372.5
 31
0.0
  0
LINE
  5
834
  8
DATA
  6
CONTINUOUS
 62
     7
 10
218.5
 20
-12.5
 30
0.0
 11
781.5
 21
-12.5
 31
0.0
  0
LINE
  5
835
  8
DATA
  6
CONTINUOUS
 62
     7
 10
203.5
 20
-372.5
 30
0.0
 11
203.5
 21
-300.09999999999991
 31
0.0
  0
LINE
  5
836
  8
DATA
  6
CONTINUOUS
 62
     7
 10
203.5
 20
-99.899999999999892
 30
0.0
 11
203.5
 21
-27.5
 31
0.0
  0
LINE
  5
837
  8
DATA
  6
CONTINUOUS
 62
     7
 10
755.6654588199998
 20
-327.522737404
 30
0.0
 11
244.33454118000009
 21
-327.522737404
 31
0.0
  0
LINE
  5
838
  8
DATA
  6
CONTINUOUS
 62
     7
 10
244.33454118000009
 20
-72.477262596000088
 30
0.0
 11
755.6654588199998
 21
-72.477262596000088
 31
0.0
  0
LINE
  5
839
  8
DATA
  6
CONTINUOUS
 62
     7
 10
229.33454118000009
 20
-87.477262596000088
 30
0.0
 11
229.33454118000009
 21
-99.899999999999892
 31
0.0
  0
LINE
  5
83A
  8
DATA
  6
CONTINUOUS
 62
     7
 10
229.33454118000009
 20
-300.09999999999991
 30
0.0
 11
229.33454118000009
 21
-312.522737404
 31
0.0
  0
LINE
  5
83B
  8
DATA
  6
CONTINUOUS
 62
     7
 10
770.6654588199998
 20
-87.477262596000088
 30
0.0
 11
770.6654588199998
 21
-99.899999999999892
 31
0.0
  0
LINE
  5
83C
  8
DATA
  6
CONTINUOUS
 62
     7
 10
770.6654588199998
 20
-300.09999999999991
 30
0.0
 11
770.6654588199998
 21
-312.522737404
 31
0.0
  0
LINE
  5
83D
  8
DATA
  6
CONTINUOUS
 62
     7
 10
232.0735684299998
 20
-321.16383381700001
 30
0.0
 11
208.60136541600011
 21
-375.65671116499999
 31
0.0
  0
LINE
  5
83E
  8
DATA
  6
CONTINUOUS
 62
     7
 10
232.0735684299998
 20
-78.836166183000103
 30
0.0
 11
208.60136541600011
 21
-24.34328883500001
 31
0.0
  0
LINE
  5
83F
  8
DATA
  6
CONTINUOUS
 62
     7
 10
791.39863458399975
 20
-24.34328883500001
 30
0.0
 11
767.9264315700002
 21
-78.836166183000103
 31
0.0
  0
LINE
  5
840
  8
DATA
  6
CONTINUOUS
 62
     7
 10
791.39863458399975
 20
-375.65671116499999
 30
0.0
 11
767.9264315700002
 21
-321.16383381700001
 31
0.0
  0
ARC
  5
841
  8
DATA
  6
CONTINUOUS
 62
     7
 10
218.5
 20
-372.5
 30
0.0
 40
15.0
 50
180.0
 51
270.0
  0
ARC
  5
842
  8
DATA
  6
CONTINUOUS
 62
     7
 10
218.5
 20
-27.5
 30
0.0
 40
15.0
 50
90.0
 51
180.0
  0
ARC
  5
843
  8
DATA
  6
CONTINUOUS
 62
     7
 10
781.5
 20
-27.5
 30
0.0
 40
15.0
 50
0.0
 51
90.0
  0
ARC
  5
844
  8
DATA
  6
CONTINUOUS
 62
     7
 10
781.5
 20
-372.5
 30
0.0
 40
15.0
 50
270.0
 51
0.0
  0
LINE
  5
845
  8
DATA
  6
CONTINUOUS
 62
     7
 10
221.5
 20
-383.0
 30
0.0
 11
778.5
 21
-383.0
 31
0.0
  0
LINE
  5
846
  8
DATA
  6
CONTINUOUS
 62
     7
 10
221.5
 20
-17.0
 30
0.0
 11
778.5
 21
-17.0
 31
0.0
  0
LINE
  5
847
  8
DATA
  6
CONTINUOUS
 62
     7
 10
793.5
 20
-368.0
 30
0.0
 11
793.5
 21
-300.09999999999991
 31
0.0
  0
LINE
  5
848
  8
DATA
  6
CONTINUOUS
 62
     7
 10
793.5
 20
-99.899999999999892
 30
0.0
 11
793.5
 21
-32.0
 31
0.0
  0
ARC
  5
849
  8
DATA
  6
CONTINUOUS
 62
     7
 10
221.5
 20
-368.0
 30
0.0
 40
15.0
 50
180.0
 51
270.0
  0
ARC
  5
84A
  8
DATA
  6
CONTINUOUS
 62
     7
 10
221.5
 20
-32.0
 30
0.0
 40
15.0
 50
90.0
 51
180.0
  0
ARC
  5
84B
  8
DATA
  6
CONTINUOUS
 62
     7
 10
778.5
 20
-32.0
 30
0.0
 40
15.0
 50
0.0
 51
90.0
  0
ARC
  5
84C
  8
DATA
  6
CONTINUOUS
 62
     7
 10
778.5
 20
-368.0
 30
0.0
 40
15.0
 50
270.0
 51
0.0
  0
ARC
  5
84D
  8
DATA
  6
CONTINUOUS
 62
     7
 10
244.33454118000009
 20
-312.522737404
 30
0.0
 40
15.0
 50
180.0
 51
270.0
  0
ARC
  5
84E
  8
DATA
  6
CONTINUOUS
 62
     7
 10
244.33454118000009
 20
-87.477262596000088
 30
0.0
 40
15.0
 50
90.0
 51
180.0
  0
ARC
  5
84F
  8
DATA
  6
CONTINUOUS
 62
     7
 10
755.6654588199998
 20
-87.477262596000088
 30
0.0
 40
15.0
 50
0.0
 51
90.0
  0
ARC
  5
850
  8
DATA
  6
CONTINUOUS
 62
     7
 10
755.6654588199998
 20
-312.522737404
 30
0.0
 40
15.0
 50
270.0
 51
0.0
  0
CIRCLE
  5
851
  8
DATA
  6
CONTINUOUS
 62
     7
 10
501.48586604399981
 20
-377.68608595800009
 30
0.0
 40
3.0
  0
CIRCLE
  5
852
  8
DATA
  6
CONTINUOUS
 62
     7
 10
501.48586604399981
 20
-350.05373294100002
 30
0.0
 40
3.0
  0
CIRCLE
  5
853
  8
DATA
  6
CONTINUOUS
 62
     7
 10
501.48586604399981
 20
-22.313914042000022
 30
0.0
 40
3.0
  0
CIRCLE
  5
854
  8
DATA
  6
CONTINUOUS
 62
     7
 10
501.48586604399981
 20
-49.946267059000093
 30
0.0
 40
3.0
  0
CIRCLE
  5
855
  8
DATA
  6
CONTINUOUS
 62
     7
 10
629.33454117999986
 20
-200.0
 30
0.0
 40
2.25
  0
LINE
  5
856
  8
DATA
  6
CONTINUOUS
 62
     7
 10
284.33454118000009
 20
-228.5
 30
0.0
 11
284.33454118000009
 21
-171.5
 31
0.0
  0
LINE
  5
857
  8
DATA
  6
CONTINUOUS
 62
     7
 10
356.33454118000009
 20
-228.5
 30
0.0
 11
356.33454118000009
 21
-171.5
 31
0.0
  0
LINE
  5
858
  8
DATA
  6
CONTINUOUS
 62
     7
 10
284.33454118000009
 20
-228.5
 30
0.0
 11
356.33454118000009
 21
-228.5
 31
0.0
  0
LINE
  5
859
  8
DATA
  6
CONTINUOUS
 62
     7
 10
356.33454118000009
 20
-171.5
 30
0.0
 11
284.33454118000009
 21
-171.5
 31
0.0
  0
LINE
  5
85A
  8
DATA
  6
CONTINUOUS
 62
     7
 10
641.83454117999986
 20
-236.0
 30
0.0
 11
616.83454117999986
 21
-236.0
 31
0.0
  0
LINE
  5
85B
  8
DATA
  6
CONTINUOUS
 62
     7
 10
641.83454117999986
 20
-164.0
 30
0.0
 11
641.83454117999986
 21
-236.0
 31
0.0
  0
LINE
  5
85C
  8
DATA
  6
CONTINUOUS
 62
     7
 10
616.83454117999986
 20
-164.0
 30
0.0
 11
641.83454117999986
 21
-164.0
 31
0.0
  0
LINE
  5
85D
  8
DATA
  6
CONTINUOUS
 62
     7
 10
616.83454117999986
 20
-236.0
 30
0.0
 11
616.83454117999986
 21
-164.0
 31
0.0
  0
LINE
  5
85E
  8
DATA
  6
CONTINUOUS
 62
     7
 10
629.33454117999986
 20
-197.75
 30
0.0
 11
629.33454117999986
 21
-195.75
 31
0.0
  0
LINE
  5
85F
  8
DATA
  6
CONTINUOUS
 62
     7
 10
629.33454117999986
 20
-204.25
 30
0.0
 11
629.33454117999986
 21
-202.25
 31
0.0
  0
LINE
  5
860
  8
DATA
  6
CONTINUOUS
 62
     7
 10
627.08454117999986
 20
-200.0
 30
0.0
 11
616.83454117999986
 21
-200.0
 31
0.0
  0
LINE
  5
861
  8
DATA
  6
CONTINUOUS
 62
     7
 10
631.58454117999986
 20
-200.0
 30
0.0
 11
641.83454117999986
 21
-200.0
 31
0.0
  0
LINE
  5
862
  8
DATA
  6
CONTINUOUS
 62
     7
 10
628.20957362499985
 20
-198.05142411000011
 30
0.0
 11
626.88074117999975
 21
-195.75
 31
0.0
  0
LINE
  5
863
  8
DATA
  6
CONTINUOUS
 62
     7
 10
631.78834117999975
 20
-204.25
 30
0.0
 11
630.45950873499987
 21
-201.94857589
 31
0.0
  0
LINE
  5
864
  8
DATA
  6
CONTINUOUS
 62
     7
 10
627.38597321999987
 20
-198.87501871000001
 30
0.0
 11
624.60764117999986
 21
-197.27090000000001
 31
0.0
  0
LINE
  5
865
  8
DATA
  6
CONTINUOUS
 62
     7
 10
634.0614411800002
 20
-202.72909999999999
 30
0.0
 11
631.2831091410003
 21
-201.12498128999999
 31
0.0
  0
LINE
  5
866
  8
DATA
  6
CONTINUOUS
 62
     7
 10
630.45950873499987
 20
-198.05142411000011
 30
0.0
 11
631.78834117999975
 21
-195.75
 31
0.0
  0
LINE
  5
867
  8
DATA
  6
CONTINUOUS
 62
     7
 10
626.88074117999975
 20
-204.25
 30
0.0
 11
628.20957362499985
 21
-201.94857589
 31
0.0
  0
LINE
  5
868
  8
DATA
  6
CONTINUOUS
 62
     7
 10
631.52828227700002
 20
-200.5
 30
0.0
 11
636.33454118000009
 21
-200.5
 31
0.0
  0
LINE
  5
869
  8
DATA
  6
CONTINUOUS
 62
     7
 10
622.33454118000009
 20
-199.5
 30
0.0
 11
627.14080008300004
 21
-199.5
 31
0.0
  0
LINE
  5
86A
  8
DATA
  6
CONTINUOUS
 62
     7
 10
622.33454118000009
 20
-199.5
 30
0.0
 11
622.33454118000009
 21
-195.75
 31
0.0
  0
LINE
  5
86B
  8
DATA
  6
CONTINUOUS
 62
     7
 10
624.60764117999986
 20
-197.27090000000001
 30
0.0
 11
624.60764117999986
 21
-195.75
 31
0.0
  0
LINE
  5
86C
  8
DATA
  6
CONTINUOUS
 62
     7
 10
636.33454118000009
 20
-200.5
 30
0.0
 11
636.33454118000009
 21
-204.25
 31
0.0
  0
LINE
  5
86D
  8
DATA
  6
CONTINUOUS
 62
     7
 10
634.0614411800002
 20
-202.72909999999999
 30
0.0
 11
634.0614411800002
 21
-204.25
 31
0.0
  0
LINE
  5
86E
  8
DATA
  6
CONTINUOUS
 62
     7
 10
295.83454118000009
 20
-228.5
 30
0.0
 11
295.83454118000009
 21
-171.5
 31
0.0
  0
LINE
  5
86F
  8
DATA
  6
CONTINUOUS
 62
     7
 10
344.83454118000009
 20
-228.5
 30
0.0
 11
344.83454118000009
 21
-171.5
 31
0.0
  0
LINE
  5
870
  8
DATA
  6
CONTINUOUS
 62
     7
 10
434.33454117999997
 20
-177.0
 30
0.0
 11
434.33454117999997
 21
-223.0
 31
0.0
  0
CIRCLE
  5
871
  8
DATA
  6
CONTINUOUS
 62
     7
 10
428.58454118000009
 20
-222.25
 30
0.0
 40
2.5
  0
LINE
  5
872
  8
DATA
  6
CONTINUOUS
 62
     7
 10
428.58454118000009
 20
-223.25
 30
0.0
 11
428.58454118000009
 21
-221.25
 31
0.0
  0
LINE
  5
873
  8
DATA
  6
CONTINUOUS
 62
     7
 10
378.33454118000009
 20
-223.0
 30
0.0
 11
378.33454118000009
 21
-177.0
 31
0.0
  0
CIRCLE
  5
874
  8
DATA
  6
CONTINUOUS
 62
     7
 10
384.08454118000009
 20
-222.25
 30
0.0
 40
2.5
  0
LINE
  5
875
  8
DATA
  6
CONTINUOUS
 62
     7
 10
384.08454118000009
 20
-223.25
 30
0.0
 11
384.08454118000009
 21
-221.25
 31
0.0
  0
LINE
  5
876
  8
DATA
  6
CONTINUOUS
 62
     7
 10
429.33454117999997
 20
-228.0
 30
0.0
 11
383.33454118000009
 21
-228.0
 31
0.0
  0
ARC
  5
877
  8
DATA
  6
CONTINUOUS
 62
     7
 10
429.33454117999997
 20
-223.0
 30
0.0
 40
5.0
 50
270.0
 51
0.0
  0
ARC
  5
878
  8
DATA
  6
CONTINUOUS
 62
     7
 10
383.33454118000009
 20
-223.0
 30
0.0
 40
5.0
 50
180.0
 51
270.0
  0
LINE
  5
879
  8
DATA
  6
CONTINUOUS
 62
     7
 10
383.33454118000009
 20
-172.0
 30
0.0
 11
429.33454117999997
 21
-172.0
 31
0.0
  0
LINE
  5
87A
  8
DATA
  6
CONTINUOUS
 62
     7
 10
429.58454118000009
 20
-222.25
 30
0.0
 11
427.58454117999997
 21
-222.25
 31
0.0
  0
ARC
  5
87B
  8
DATA
  6
CONTINUOUS
 62
     7
 10
429.33454117999997
 20
-176.99990000000011
 30
0.0
 40
5.0
 50
0.0
 51
90.0
  0
CIRCLE
  5
87C
  8
DATA
  6
CONTINUOUS
 62
     7
 10
428.58454118000009
 20
-177.75
 30
0.0
 40
2.5
  0
LINE
  5
87D
  8
DATA
  6
CONTINUOUS
 62
     7
 10
428.58454118000009
 20
-178.75
 30
0.0
 11
428.58454118000009
 21
-176.75
 31
0.0
  0
LINE
  5
87E
  8
DATA
  6
CONTINUOUS
 62
     7
 10
429.58454118000009
 20
-177.75
 30
0.0
 11
427.58454117999997
 21
-177.75
 31
0.0
  0
LINE
  5
87F
  8
DATA
  6
CONTINUOUS
 62
     7
 10
390.33454118000009
 20
-219.0
 30
0.0
 11
390.33454118000009
 21
-181.0
 31
0.0
  0
LINE
  5
880
  8
DATA
  6
CONTINUOUS
 62
     7
 10
422.33454118000009
 20
-181.0
 30
0.0
 11
422.33454118000009
 21
-219.0
 31
0.0
  0
CIRCLE
  5
881
  8
DATA
  6
CONTINUOUS
 62
     7
 10
403.33454117999997
 20
-209.75
 30
0.0
 40
3.0
  0
LINE
  5
882
  8
DATA
  6
CONTINUOUS
 62
     7
 10
405.45584117999982
 20
-211.87129999999999
 30
0.0
 11
401.2132411800003
 21
-207.62870000000001
 31
0.0
  0
LINE
  5
883
  8
DATA
  6
CONTINUOUS
 62
     7
 10
404.39524118000008
 20
-208.6893
 30
0.0
 11
402.27384117999998
 21
-210.8107
 31
0.0
  0
LINE
  5
884
  8
DATA
  6
CONTINUOUS
 62
     7
 10
398.83454118000009
 20
-214.25
 30
0.0
 11
398.83454118000009
 21
-205.25
 31
0.0
  0
LINE
  5
885
  8
DATA
  6
CONTINUOUS
 62
     7
 10
407.83454117999997
 20
-205.25
 30
0.0
 11
407.83454117999997
 21
-214.25
 31
0.0
  0
CIRCLE
  5
886
  8
DATA
  6
CONTINUOUS
 62
     7
 10
418.83454118000009
 20
-209.75
 30
0.0
 40
2.5
  0
LINE
  5
887
  8
DATA
  6
CONTINUOUS
 62
     7
 10
418.83454118000009
 20
-211.75
 30
0.0
 11
418.83454118000009
 21
-207.75
 31
0.0
  0
LINE
  5
888
  8
DATA
  6
CONTINUOUS
 62
     7
 10
422.33454118000009
 20
-219.0
 30
0.0
 11
390.33454118000009
 21
-219.0
 31
0.0
  0
LINE
  5
889
  8
DATA
  6
CONTINUOUS
 62
     7
 10
411.33454118000009
 20
-216.0
 30
0.0
 11
395.33454118000009
 21
-216.0
 31
0.0
  0
LINE
  5
88A
  8
DATA
  6
CONTINUOUS
 62
     7
 10
411.33454118000009
 20
-214.5
 30
0.0
 11
395.33454118000009
 21
-214.5
 31
0.0
  0
LINE
  5
88B
  8
DATA
  6
CONTINUOUS
 62
     7
 10
395.33454118000009
 20
-216.0
 30
0.0
 11
395.33454118000009
 21
-214.5
 31
0.0
  0
LINE
  5
88C
  8
DATA
  6
CONTINUOUS
 62
     7
 10
411.33454118000009
 20
-214.5
 30
0.0
 11
411.33454118000009
 21
-216.0
 31
0.0
  0
LINE
  5
88D
  8
DATA
  6
CONTINUOUS
 62
     7
 10
407.83454117999997
 20
-214.25
 30
0.0
 11
398.83454118000009
 21
-214.25
 31
0.0
  0
LINE
  5
88E
  8
DATA
  6
CONTINUOUS
 62
     7
 10
385.08454118000009
 20
-222.25
 30
0.0
 11
383.08454118000009
 21
-222.25
 31
0.0
  0
LINE
  5
88F
  8
DATA
  6
CONTINUOUS
 62
     7
 10
411.33454118000009
 20
-205.0
 30
0.0
 11
395.33454118000009
 21
-205.0
 31
0.0
  0
LINE
  5
890
  8
DATA
  6
CONTINUOUS
 62
     7
 10
411.33454118000009
 20
-203.5
 30
0.0
 11
395.33454118000009
 21
-203.5
 31
0.0
  0
LINE
  5
891
  8
DATA
  6
CONTINUOUS
 62
     7
 10
395.33454118000009
 20
-205.0
 30
0.0
 11
395.33454118000009
 21
-203.5
 31
0.0
  0
LINE
  5
892
  8
DATA
  6
CONTINUOUS
 62
     7
 10
411.33454118000009
 20
-203.5
 30
0.0
 11
411.33454118000009
 21
-205.0
 31
0.0
  0
LINE
  5
893
  8
DATA
  6
CONTINUOUS
 62
     7
 10
398.83454118000009
 20
-205.25
 30
0.0
 11
407.83454117999997
 21
-205.25
 31
0.0
  0
LINE
  5
894
  8
DATA
  6
CONTINUOUS
 62
     7
 10
418.83454118000009
 20
-192.25
 30
0.0
 11
418.83454118000009
 21
-188.25
 31
0.0
  0
LINE
  5
895
  8
DATA
  6
CONTINUOUS
 62
     7
 10
420.83454117999997
 20
-190.2499
 30
0.0
 11
416.83454117999997
 21
-190.2499
 31
0.0
  0
LINE
  5
896
  8
DATA
  6
CONTINUOUS
 62
     7
 10
385.08454118000009
 20
-177.75
 30
0.0
 11
383.08454118000009
 21
-177.75
 31
0.0
  0
LINE
  5
897
  8
DATA
  6
CONTINUOUS
 62
     7
 10
384.08454118000009
 20
-178.75
 30
0.0
 11
384.08454118000009
 21
-176.75
 31
0.0
  0
CIRCLE
  5
898
  8
DATA
  6
CONTINUOUS
 62
     7
 10
384.08454118000009
 20
-177.75
 30
0.0
 40
2.5
  0
ARC
  5
899
  8
DATA
  6
CONTINUOUS
 62
     7
 10
383.33454118000009
 20
-176.99990000000011
 30
0.0
 40
5.0
 50
90.0
 51
180.0
  0
LINE
  5
89A
  8
DATA
  6
CONTINUOUS
 62
     7
 10
390.33454118000009
 20
-181.0
 30
0.0
 11
422.33454118000009
 21
-181.0
 31
0.0
  0
LINE
  5
89B
  8
DATA
  6
CONTINUOUS
 62
     7
 10
395.33454118000009
 20
-184.0
 30
0.0
 11
411.33454118000009
 21
-184.0
 31
0.0
  0
LINE
  5
89C
  8
DATA
  6
CONTINUOUS
 62
     7
 10
395.33454118000009
 20
-185.5
 30
0.0
 11
411.33454118000009
 21
-185.5
 31
0.0
  0
LINE
  5
89D
  8
DATA
  6
CONTINUOUS
 62
     7
 10
395.33454118000009
 20
-195.0
 30
0.0
 11
411.33454118000009
 21
-195.0
 31
0.0
  0
LINE
  5
89E
  8
DATA
  6
CONTINUOUS
 62
     7
 10
395.33454118000009
 20
-196.5
 30
0.0
 11
411.33454118000009
 21
-196.5
 31
0.0
  0
LINE
  5
89F
  8
DATA
  6
CONTINUOUS
 62
     7
 10
395.33454118000009
 20
-196.5
 30
0.0
 11
395.33454118000009
 21
-195.0
 31
0.0
  0
LINE
  5
8A0
  8
DATA
  6
CONTINUOUS
 62
     7
 10
395.33454118000009
 20
-185.5
 30
0.0
 11
395.33454118000009
 21
-184.0
 31
0.0
  0
LINE
  5
8A1
  8
DATA
  6
CONTINUOUS
 62
     7
 10
411.33454118000009
 20
-184.0
 30
0.0
 11
411.33454118000009
 21
-185.5
 31
0.0
  0
LINE
  5
8A2
  8
DATA
  6
CONTINUOUS
 62
     7
 10
411.33454118000009
 20
-195.0
 30
0.0
 11
411.33454118000009
 21
-196.5
 31
0.0
  0
CIRCLE
  5
8A3
  8
DATA
  6
CONTINUOUS
 62
     7
 10
403.33454117999997
 20
-190.25
 30
0.0
 40
3.0
  0
LINE
  5
8A4
  8
DATA
  6
CONTINUOUS
 62
     7
 10
405.45584117999982
 20
-192.37129999999999
 30
0.0
 11
401.2132411800003
 21
-188.12870000000001
 31
0.0
  0
LINE
  5
8A5
  8
DATA
  6
CONTINUOUS
 62
     7
 10
404.39524118000008
 20
-189.1893
 30
0.0
 11
402.27384117999998
 21
-191.3107
 31
0.0
  0
LINE
  5
8A6
  8
DATA
  6
CONTINUOUS
 62
     7
 10
407.83454117999997
 20
-194.75
 30
0.0
 11
398.83454118000009
 21
-194.75
 31
0.0
  0
LINE
  5
8A7
  8
DATA
  6
CONTINUOUS
 62
     7
 10
398.83454118000009
 20
-194.75
 30
0.0
 11
398.83454118000009
 21
-185.75
 31
0.0
  0
LINE
  5
8A8
  8
DATA
  6
CONTINUOUS
 62
     7
 10
398.83454118000009
 20
-185.75
 30
0.0
 11
407.83454117999997
 21
-185.75
 31
0.0
  0
LINE
  5
8A9
  8
DATA
  6
CONTINUOUS
 62
     7
 10
407.83454117999997
 20
-185.75
 30
0.0
 11
407.83454117999997
 21
-194.75
 31
0.0
  0
CIRCLE
  5
8AA
  8
DATA
  6
CONTINUOUS
 62
     7
 10
418.83454118000009
 20
-190.25
 30
0.0
 40
2.5
  0
LINE
  5
8AB
  8
DATA
  6
CONTINUOUS
 62
     7
 10
604.33454117999986
 20
-260.0
 30
0.0
 11
464.33454118000009
 21
-260.0
 31
0.0
  0
LINE
  5
8AC
  8
DATA
  6
CONTINUOUS
 62
     7
 10
604.33454117999986
 20
-140.0
 30
0.0
 11
604.33454117999986
 21
-260.0
 31
0.0
  0
LINE
  5
8AD
  8
DATA
  6
CONTINUOUS
 62
     7
 10
464.33454118000009
 20
-140.0
 30
0.0
 11
604.33454117999986
 21
-140.0
 31
0.0
  0
LINE
  5
8AE
  8
DATA
  6
CONTINUOUS
 62
     7
 10
464.33454118000009
 20
-260.0
 30
0.0
 11
464.33454118000009
 21
-140.0
 31
0.0
  0
CIRCLE
  5
8AF
  8
DATA
  6
CONTINUOUS
 62
     7
 10
540.33454118000009
 20
-200.0
 30
0.0
 40
34.0
  0
CIRCLE
  5
8B0
  8
DATA
  6
CONTINUOUS
 62
     7
 10
540.33454118000009
 20
-200.0
 30
0.0
 40
30.0
  0
LINE
  5
8B1
  8
DATA
  6
CONTINUOUS
 62
     7
 10
542.83454118000009
 20
-207.0
 30
0.0
 11
537.83454117999986
 21
-207.0
 31
0.0
  0
LINE
  5
8B2
  8
DATA
  6
CONTINUOUS
 62
     7
 10
542.83454118000009
 20
-193.0
 30
0.0
 11
542.83454118000009
 21
-207.0
 31
0.0
  0
LINE
  5
8B3
  8
DATA
  6
CONTINUOUS
 62
     7
 10
537.83454117999986
 20
-193.0
 30
0.0
 11
542.83454118000009
 21
-193.0
 31
0.0
  0
LINE
  5
8B4
  8
DATA
  6
CONTINUOUS
 62
     7
 10
537.83454117999986
 20
-207.0
 30
0.0
 11
537.83454117999986
 21
-193.0
 31
0.0
  0
LINE
  5
8B5
  8
DATA
  6
CONTINUOUS
 62
     7
 10
593.83454118000009
 20
-215.0
 30
0.0
 11
587.83454117999986
 21
-215.0
 31
0.0
  0
LINE
  5
8B6
  8
DATA
  6
CONTINUOUS
 62
     7
 10
593.83454118000009
 20
-185.0
 30
0.0
 11
593.83454118000009
 21
-215.0
 31
0.0
  0
LINE
  5
8B7
  8
DATA
  6
CONTINUOUS
 62
     7
 10
587.83454117999986
 20
-185.0
 30
0.0
 11
593.83454118000009
 21
-185.0
 31
0.0
  0
LINE
  5
8B8
  8
DATA
  6
CONTINUOUS
 62
     7
 10
587.83454117999986
 20
-215.0
 30
0.0
 11
587.83454117999986
 21
-185.0
 31
0.0
  0
ARC
  5
8B9
  8
DATA
  6
CONTINUOUS
 62
     7
 10
590.83454117999997
 20
-200.0
 30
0.0
 40
9.5000000000000888
 50
108.408480171002
 51
251.591519828998
  0
ARC
  5
8BA
  8
DATA
  6
CONTINUOUS
 62
     7
 10
590.83454117999997
 20
-200.0
 30
0.0
 40
9.4999999999999432
 50
288.40848017099921
 51
71.591519829000859
  0
LINE
  5
8BB
  8
BRACKET
  6
CONTINUOUS
 62
     7
 10
199.81413395600009
 20
147.5
 30
0.0
 11
800.18586604399991
 21
147.5
 31
0.0
  0
LINE
  5
8BC
  8
BRACKET
  6
CONTINUOUS
 62
     7
 10
199.81413395600009
 20
412.09999999999951
 30
0.0
 11
199.81413395600009
 21
147.5
 31
0.0
  0
LINE
  5
8BD
  8
BRACKET
  6
CONTINUOUS
 62
     7
 10
199.81413395600009
 20
412.09999999999951
 30
0.0
 11
202.414133956
 21
412.09999999999951
 31
0.0
  0
LINE
  5
8BE
  8
BRACKET
  6
CONTINUOUS
 62
     7
 10
800.18586604399991
 20
412.09999999999951
 30
0.0
 11
800.18586604399991
 21
147.5
 31
0.0
  0
LINE
  5
8BF
  8
BRACKET
  6
CONTINUOUS
 62
     7
 10
797.58586604399989
 20
412.09999999999951
 30
0.0
 11
800.18586604399991
 21
412.09999999999951
 31
0.0
  0
LINE
  5
8C0
  8
BRACKET
  6
CONTINUOUS
 62
     7
 10
202.414133956
 20
412.09999999999951
 30
0.0
 11
202.414133956
 21
147.5
 31
0.0
  0
LINE
  5
8C1
  8
BRACKET
  6
STYLE_01
 62
     7
 10
202.414133956
 20
150.10000000000011
 30
0.0
 11
797.58586604399989
 21
150.10000000000011
 31
0.0
  0
LINE
  5
8C2
  8
BRACKET
  6
CONTINUOUS
 62
     7
 10
202.414133956
 20
162.5
 30
0.0
 11
797.58586604399989
 21
162.5
 31
0.0
  0
LINE
  5
8C3
  8
BRACKET
  6
CONTINUOUS
 62
     7
 10
797.58586604399989
 20
412.09999999999951
 30
0.0
 11
797.58586604399989
 21
147.5
 31
0.0
  0
POLYLINE
  5
8C4
  8
BRACKET
  6
CONTINUOUS
 62
     7
 66
     1
 10
0.0
 20
0.0
 30
0.0
 70
     1
  0
VERTEX
  5
A90
  8
BRACKET
  6
CONTINUOUS
 62
     7
 10
202.414133956
 20
456.09999999999951
 30
0.0
  0
VERTEX
  5
A91
  8
BRACKET
  6
CONTINUOUS
 62
     7
 10
205.01413395599991
 20
456.09999999999951
 30
0.0
  0
VERTEX
  5
A92
  8
BRACKET
  6
CONTINUOUS
 62
     7
 10
205.01413395599991
 20
161.10000000000011
 30
0.0
  0
VERTEX
  5
A93
  8
BRACKET
  6
CONTINUOUS
 62
     7
 10
202.414133956
 20
161.10000000000011
 30
0.0
  0
SEQEND
  5
A94
  8
BRACKET
  6
CONTINUOUS
 62
     7
  0
POLYLINE
  5
8C5
  8
BRACKET
  6
CONTINUOUS
 62
     7
 66
     1
 10
0.0
 20
0.0
 30
0.0
 70
     1
  0
VERTEX
  5
A95
  8
BRACKET
  6
CONTINUOUS
 62
     7
 10
794.98586604400009
 20
456.09999999999951
 30
0.0
  0
VERTEX
  5
A96
  8
BRACKET
  6
CONTINUOUS
 62
     7
 10
797.58586604399989
 20
456.09999999999951
 30
0.0
  0
VERTEX
  5
A97
  8
BRACKET
  6
CONTINUOUS
 62
     7
 10
797.58586604399989
 20
161.10000000000011
 30
0.0
  0
VERTEX
  5
A98
  8
BRACKET
  6
CONTINUOUS
 62
     7
 10
794.98586604400009
 20
161.10000000000011
 30
0.0
  0
SEQEND
  5
A99
  8
BRACKET
  6
CONTINUOUS
 62
     7
  0
ENDSEC
  0
EOF
