  0
SECTION
  2
HEADER
  9
$ACADVER
  1
AC1009
  9
$INSBASE
 10
0.0
 20
0.0
 30
0.0
  9
$EXTMIN
 10
-900.05492744973708
 20
-1351.219136395556
 30
-0.0015258207003583
  9
$EXTMAX
 10
900.05493583164025
 20
1325.081507570083
 30
0.0000000349246037
  9
$LIMMIN
 10
0.0
 20
0.0
  9
$LIMMAX
 10
0.0
 20
0.0
  9
$ORTHOMODE
 70
     0
  9
$REGENMODE
 70
     1
  9
$FILLMODE
 70
     1
  9
$QTEXTMODE
 70
     0
  9
$MIRRTEXT
 70
     1
  9
$DRAGMODE
 70
     2
  9
$LTSCALE
 40
127.0
  9
$OSMODE
 70
   231
  9
$ATTMODE
 70
     1
  9
$TEXTSIZE
 40
0.0
  9
$TRACEWID
 40
1.0
  9
$TEXTSTYLE
  7
STANDARD
  9
$CLAYER
  8
DATA
  9
$CELTYPE
  6
BYLAYER
  9
$CECOLOR
 62
   256
  9
$DIMSCALE
 40
1.0
  9
$DIMASZ
 40
0.18
  9
$DIMEXO
 40
0.0625
  9
$DIMDLI
 40
0.38
  9
$DIMRND
 40
0.0
  9
$DIMDLE
 40
0.0
  9
$DIMEXE
 40
0.18
  9
$DIMTP
 40
0.0
  9
$DIMTM
 40
0.0
  9
$DIMTXT
 40
0.18
  9
$DIMCEN
 40
0.09
  9
$DIMTSZ
 40
0.0
  9
$DIMTOL
 70
     0
  9
$DIMLIM
 70
     0
  9
$DIMTIH
 70
     1
  9
$DIMTOH
 70
     1
  9
$DIMSE1
 70
     0
  9
$DIMSE2
 70
     0
  9
$DIMTAD
 70
     0
  9
$DIMZIN
 70
     0
  9
$DIMBLK
  1

  9
$DIMASO
 70
     1
  9
$DIMSHO
 70
     1
  9
$DIMPOST
  1

  9
$DIMAPOST
  1

  9
$DIMALT
 70
     0
  9
$DIMALTD
 70
     2
  9
$DIMALTF
 40
25.399999999999999
  9
$DIMLFAC
 40
1.0
  9
$DIMTOFL
 70
     0
  9
$DIMTVP
 40
0.0
  9
$DIMTIX
 70
     0
  9
$DIMSOXD
 70
     0
  9
$DIMSAH
 70
     0
  9
$DIMBLK1
  1

  9
$DIMBLK2
  1

  9
$DIMSTYLE
  2
STANDARD
  9
$DIMCLRD
 70
     0
  9
$DIMCLRE
 70
     0
  9
$DIMCLRT
 70
     0
  9
$DIMTFAC
 40
1.0
  9
$DIMGAP
 40
0.09
  9
$LUNITS
 70
     2
  9
$LUPREC
 70
     4
  9
$SKETCHINC
 40
0.1
  9
$FILLETRAD
 40
0.0
  9
$AUNITS
 70
     0
  9
$AUPREC
 70
     0
  9
$MENU
  1
acad
  9
$ELEVATION
 40
0.0
  9
$PELEVATION
 40
0.0
  9
$THICKNESS
 40
0.0
  9
$LIMCHECK
 70
     0
  9
$BLIPMODE
 70
     0
  9
$CHAMFERA
 40
0.0
  9
$CHAMFERB
 40
0.0
  9
$SKPOLY
 70
     0
  9
$TDCREATE
 40
2456269.448020834
  9
$TDUPDATE
 40
2456269.4497937621
  9
$TDINDWG
 40
0.0005604398
  9
$TDUSRTIMER
 40
0.0005603935
  9
$USRTIMER
 70
     1
  9
$ANGBASE
 50
0.0
  9
$ANGDIR
 70
     0
  9
$PDMODE
 70
     1
  9
$PDSIZE
 40
-2.0
  9
$PLINEWID
 40
0.0
  9
$COORDS
 70
     2
  9
$SPLFRAME
 70
     0
  9
$SPLINETYPE
 70
     6
  9
$SPLINESEGS
 70
     8
  9
$ATTDIA
 70
     0
  9
$ATTREQ
 70
     1
  9
$HANDLING
 70
     1
  9
$HANDSEED
  5
72C
  9
$SURFTAB1
 70
     6
  9
$SURFTAB2
 70
     6
  9
$SURFTYPE
 70
     6
  9
$SURFU
 70
     6
  9
$SURFV
 70
     6
  9
$UCSNAME
  2

  9
$UCSORG
 10
0.0
 20
0.0
 30
0.0
  9
$UCSXDIR
 10
1.0
 20
0.0
 30
0.0
  9
$UCSYDIR
 10
0.0
 20
1.0
 30
0.0
  9
$PUCSNAME
  2

  9
$PUCSORG
 10
0.0
 20
0.0
 30
0.0
  9
$PUCSXDIR
 10
1.0
 20
0.0
 30
0.0
  9
$PUCSYDIR
 10
0.0
 20
1.0
 30
0.0
  9
$USERI1
 70
     0
  9
$USERI2
 70
     0
  9
$USERI3
 70
     0
  9
$USERI4
 70
     0
  9
$USERI5
 70
     0
  9
$USERR1
 40
0.0
  9
$USERR2
 40
0.0
  9
$USERR3
 40
0.0
  9
$USERR4
 40
0.0
  9
$USERR5
 40
0.0
  9
$WORLDVIEW
 70
     1
  9
$SHADEDGE
 70
     3
  9
$SHADEDIF
 70
    70
  9
$TILEMODE
 70
     1
  9
$MAXACTVP
 70
    64
  9
$PLIMCHECK
 70
     0
  9
$PEXTMIN
 10
1.0000000000000000E+020
 20
1.0000000000000000E+020
 30
1.0000000000000000E+020
  9
$PEXTMAX
 10
-1.0000000000000000E+020
 20
-1.0000000000000000E+020
 30
-1.0000000000000000E+020
  9
$PLIMMIN
 10
0.0
 20
0.0
  9
$PLIMMAX
 10
12.0
 20
9.0
  9
$UNITMODE
 70
     0
  9
$VISRETAIN
 70
     0
  9
$PLINEGEN
 70
     1
  9
$PSLTSCALE
 70
     0
  0
ENDSEC
  0
SECTION
  2
TABLES
  0
TABLE
  2
VPORT
 70
     1
  0
VPORT
  2
*ACTIVE
 70
     0
 10
0.0
 20
0.0
 11
1.0
 21
1.0
 12
0.0000041909515858
 22
-13.06881441273663
 13
0.0
 23
0.0
 14
1.0
 24
1.0
 15
0.0
 25
0.0
 16
0.0
 26
0.0
 36
1.0
 17
0.0
 27
0.0
 37
0.0
 40
2699.9498396413301
 41
2.3525073746312679
 42
50.0
 43
0.0
 44
0.0
 50
0.0
 51
0.0
 71
     0
 72
  2000
 73
     1
 74
     1
 75
     0
 76
     0
 77
     0
 78
     0
  0
ENDTAB
  0
TABLE
  2
LTYPE
 70
    13
  0
LTYPE
  2
CONTINUOUS
 70
     0
  3
Solid line
 72
    65
 73
     0
 40
0.0
  0
LTYPE
  2
PHANTOM2
 70
     0
  3
___ _ _ ___ _ _ ___ _ _ ___ _ _
 72
    65
 73
     6
 40
1.25
 49
0.625
 49
-0.125
 49
0.125
 49
-0.125
 49
0.125
 49
-0.125
  0
LTYPE
  2
STYLE_11
 70
     0
  3

 72
    65
 73
     4
 40
2.2047244094488181
 49
1.3779527559055109
 49
-0.2755905511811023
 49
0.2755905511811023
 49
-0.2755905511811025
  0
ENDTAB
  0
TABLE
  2
LAYER
 70
     5
  0
LAYER
  2
0
 70
     0
 62
     7
  6
CONTINUOUS
  0
LAYER
  2
DATA
 70
     0
 62
     7
  6
CONTINUOUS
  0
LAYER
  2
HIBINO-BASE
 70
     0
 62
     7
  6
CONTINUOUS
  0
LAYER
  2
SPEC
 70
     0
 62
     7
  6
CONTINUOUS
  0
LAYER
  2
DIMNSIONS
 70
     0
 62
     7
  6
CONTINUOUS
  0
ENDTAB
  0
TABLE
  2
STYLE
 70
     3
  0
STYLE
  2
STANDARD
 70
     0
 40
0.0
 41
1.0
 50
0.0
 71
     0
 42
0.0
  3
txt
  4
BIGFONT.SHX
  0
ENDTAB
  0
TABLE
  2
VIEW
 70
     0
  0
ENDTAB
  0
TABLE
  2
UCS
 70
     0
  0
ENDTAB
  0
TABLE
  2
APPID
 70
     4
  0
APPID
  2
ACAD
 70
     0
  0
APPID
  2
ACADANNOTATIVE
 70
     0
  0
APPID
  2
ACAD_NAV_VCDISPLAY
 70
     0
  0
APPID
  2
ACAD_MLEADERVER
 70
     0
  0
ENDTAB
  0
TABLE
  2
DIMSTYLE
 70
     2
  0
DIMSTYLE
  2
STANDARD
 70
     0
  3

  4

  5

  6

  7

 40
1.0
 41
0.18
 42
0.0625
 43
0.38
 44
0.18
 45
0.0
 46
0.0
 47
0.0
 48
0.0
140
0.18
141
0.09
142
0.0
143
25.399999999999999
144
1.0
145
0.0
146
1.0
147
0.09
 71
     0
 72
     0
 73
     1
 74
     1
 75
     0
 76
     0
 77
     0
 78
     0
170
     0
171
     2
172
     0
173
     0
174
     0
175
     0
176
     0
177
     0
178
     0
  0
ENDTAB
  0
ENDSEC
  0
SECTION
  2
BLOCKS
  0
BLOCK
  8
0
  2
$MODEL_SPACE
 70
     0
 10
0.0
 20
0.0
 30
0.0
  3
$MODEL_SPACE
  1

  0
ENDBLK
  5
615
  8
0
  0
BLOCK
 67
     1
  8
0
  2
$PAPER_SPACE
 70
     0
 10
0.0
 20
0.0
 30
0.0
  3
$PAPER_SPACE
  1

  0
ENDBLK
  5
611
 67
     1
  8
0
  0
ENDSEC
  0
SECTION
  2
ENTITIES
  0
LINE
  5
2D
  8
HIBINO-BASE
  6
CONTINUOUS
 62
     7
 10
-899.99999999999955
 20
1325.0
 30
0.0
 11
900.0
 21
1325.0
 31
0.0
  0
LINE
  5
2E
  8
HIBINO-BASE
  6
CONTINUOUS
 62
     7
 10
900.0
 20
-1275.0
 30
0.0
 11
-899.99999999999955
 21
-1275.0
 31
0.0
  0
LINE
  5
2F
  8
HIBINO-BASE
  6
CONTINUOUS
 62
     7
 10
-899.99999999999955
 20
-1275.0
 30
0.0
 11
-899.99999999999955
 21
1325.0
 31
0.0
  0
LINE
  5
30
  8
HIBINO-BASE
  6
CONTINUOUS
 62
     7
 10
900.0
 20
1325.0
 30
0.0
 11
900.0
 21
-1275.0
 31
0.0
  0
LINE
  5
31
  8
HIBINO-BASE
  6
CONTINUOUS
 62
     7
 10
0.0000000000001847
 20
-1050.0
 30
0.0
 11
900.0
 21
-1050.0
 31
0.0
  0
LINE
  5
32
  8
HIBINO-BASE
  6
CONTINUOUS
 62
     7
 10
0.0000000000001847
 20
-1275.0
 30
0.0
 11
0.0000000000001847
 21
-1050.0
 31
0.0
  0
TEXT
  5
33
  8
HIBINO-BASE
 62
     7
 10
9.0000000000002398
 20
-1075.086933333333
 30
0.0
 40
16.288411458333329
  1
NOTE
 41
0.7
 11
9.0000000000002416
 21
-1058.798521875
 31
0.0
 73
     3
  0
LINE
  5
34
  8
HIBINO-BASE
  6
CONTINUOUS
 62
     7
 10
350.0000000000004
 20
-1275.0
 30
0.0
 11
350.0000000000004
 21
-1050.0
 31
0.0
  0
TEXT
  5
35
  8
HIBINO-BASE
 62
     7
 10
359.00000000000011
 20
-1075.086933333333
 30
0.0
 40
16.288411458333329
  1
TITLE
 41
0.7
 11
359.00000000000011
 21
-1058.798521875
 31
0.0
 73
     3
  0
LINE
  5
36
  8
HIBINO-BASE
  6
CONTINUOUS
 62
     7
 10
0.0000000000001847
 20
-1175.0
 30
0.0
 11
900.0
 21
-1175.0
 31
0.0
  0
TEXT
  5
37
  8
HIBINO-BASE
 62
     7
 10
484.0
 20
-1199.523733333333
 30
0.0
 40
16.288411458333329
  1
DRAWN
 41
0.7
 11
484.0
 21
-1183.235321874999
 31
0.0
 73
     3
  0
TEXT
  5
38
  8
HIBINO-BASE
 62
     7
 10
234.00000000000011
 20
-1199.523733333333
 30
0.0
 40
16.288411458333329
  1
DATE
 41
0.7
 11
234.00000000000011
 21
-1183.235321874999
 31
0.0
 73
     3
  0
TEXT
  5
39
  8
HIBINO-BASE
 62
     7
 10
134.00000000000011
 20
-1199.523733333333
 30
0.0
 40
16.288411458333329
  1
SCALE
 41
0.7
 11
134.00000000000011
 21
-1183.235321874999
 31
0.0
 73
     3
  0
TEXT
  5
3A
  8
HIBINO-BASE
 62
     7
 10
359.00000000000011
 20
-1199.523733333333
 30
0.0
 40
16.288411458333329
  1
DESIGN
 41
0.7
 11
359.00000000000011
 21
-1183.235321874999
 31
0.0
 73
     3
  0
TEXT
  5
3B
  8
HIBINO-BASE
 62
     7
 10
734.0
 20
-1199.523733333333
 30
0.0
 40
16.288411458333329
  1
DRAWING NO.
 41
0.7
 11
734.0
 21
-1183.235321874999
 31
0.0
 73
     3
  0
TEXT
  5
3C
  8
HIBINO-BASE
 62
     7
 10
609.0
 20
-1199.523733333333
 30
0.0
 40
16.288411458333329
  1
CHECK
 41
0.7
 11
609.0
 21
-1183.235321874999
 31
0.0
 73
     3
  0
LINE
  5
3D
  8
HIBINO-BASE
  6
CONTINUOUS
 62
     7
 10
143.75000000000011
 20
-1262.5
 30
0.0
 11
181.25000000000031
 21
-1225.0
 31
0.0
  0
TEXT
  5
3E
  8
HIBINO-BASE
 62
     7
 10
137.50000000000011
 20
-1236.0894333333331
 30
0.0
 40
16.288411458333329
  1
1
 41
0.7
 11
137.50000000000011
 21
-1219.8010218750001
 31
0.0
 73
     3
  0
LINE
  5
3F
  8
HIBINO-BASE
  6
CONTINUOUS
 62
     7
 10
125.0000000000001
 20
-1275.0
 30
0.0
 11
125.0000000000001
 21
-1175.0
 31
0.0
  0
LINE
  5
40
  8
HIBINO-BASE
  6
CONTINUOUS
 62
     7
 10
225.00000000000011
 20
-1275.0
 30
0.0
 11
225.00000000000011
 21
-1175.0
 31
0.0
  0
LINE
  5
41
  8
HIBINO-BASE
  6
CONTINUOUS
 62
     7
 10
475.0
 20
-1175.0
 30
0.0
 11
475.0
 21
-1275.0
 31
0.0
  0
LINE
  5
42
  8
HIBINO-BASE
  6
CONTINUOUS
 62
     7
 10
725.0
 20
-1175.0
 30
0.0
 11
725.0
 21
-1275.0
 31
0.0
  0
LINE
  5
43
  8
HIBINO-BASE
  6
CONTINUOUS
 62
     7
 10
600.0
 20
-1275.0
 30
0.0
 11
600.0
 21
-1175.0
 31
0.0
  0
TEXT
  5
44
  8
HIBINO-BASE
 62
     7
 10
233.5654000000003
 20
-1246.363533333332
 30
0.0
 40
16.288411458333329
  1
'12.12.
 41
0.7
 11
233.5654000000003
 21
-1230.075121874999
 31
0.0
 73
     3
  0
TEXT
  5
45
  8
HIBINO-BASE
 62
     7
 10
175.00000000000011
 20
-1254.8394333333331
 30
0.0
 40
16.288411458333329
  1
10
 41
0.7
 11
175.00000000000011
 21
-1238.5510218750001
 31
0.0
 73
     3
  0
TEXT
  5
46
  8
HIBINO-BASE
 62
     7
 10
490.05810011034629
 20
-1246.363533333332
 30
0.0
 40
16.288411458333329
  1
N.Sasaki
 41
0.7
 11
490.05810011034629
 21
-1230.075121874999
 31
0.0
 73
     3
  0
TEXT
  5
47
  8
HIBINO-BASE
 62
     7
 10
38.833333333333727
 20
-1255.24
 30
0.0
 40
32.576822916666671
  1
A4
 41
0.7
 11
38.833333333333727
 21
-1222.663177083333
 31
0.0
 73
     3
  0
TEXT
  5
48
  8
HIBINO-BASE
 62
     7
 10
9.5833333333334672
 20
-1201.1945499999999
 30
0.0
 40
16.288411458333329
  1
PAPER SIZE
 41
0.7
 11
9.5833333333334707
 21
-1184.906138541666
 31
0.0
 73
     3
  0
TEXT
  5
49
  8
HIBINO-BASE
 62
     7
 10
-828.15999999999974
 20
-1339.0867780000001
 30
0.0
 40
36.000441796874988
  1
Hibino Corporation
 41
0.7
 11
-828.15999999999974
 21
-1303.086336203125
 31
0.0
 73
     3
  0
TEXT
  5
4A
  8
HIBINO-BASE
 62
     7
 10
500.68390000000022
 20
-1339.0867780000001
 30
0.0
 40
36.000441796874988
  1
ヒビノ株式会社
 41
0.7
 11
500.68390000000022
 21
-1303.086336203125
 31
0.0
 73
     3
  0
LINE
  5
4B
  8
SPEC
  6
CONTINUOUS
 62
     7
 10
-824.99999999999955
 20
1225.0
 30
0.0
 11
650.0
 21
1225.0
 31
0.0
  0
LINE
  5
4C
  8
SPEC
  6
CONTINUOUS
 62
     7
 10
-824.99999999999955
 20
1187.5
 30
0.0
 11
650.0
 21
1187.5
 31
0.0
  0
LINE
  5
4D
  8
SPEC
  6
CONTINUOUS
 62
     7
 10
-824.99999999999955
 20
1150.0
 30
0.0
 11
650.0
 21
1150.0
 31
0.0
  0
LINE
  5
4E
  8
SPEC
  6
CONTINUOUS
 62
     7
 10
-824.99999999999955
 20
1112.5
 30
0.0
 11
650.0
 21
1112.5
 31
0.0
  0
LINE
  5
4F
  8
SPEC
  6
CONTINUOUS
 62
     7
 10
-824.99999999999955
 20
1225.0
 30
0.0
 11
-824.99999999999955
 21
775.0
 31
0.0
  0
TEXT
  5
50
  8
SPEC
 62
     7
 10
-812.49999999999955
 20
1238.9326999999989
 30
0.0
 40
24.4326171875
  1
仕様
 41
0.7
 11
-812.49999999999955
 21
1263.3653171874989
 31
0.0
 73
     3
  0
LINE
  5
51
  8
SPEC
  6
CONTINUOUS
 62
     7
 10
-400.0
 20
1225.0
 30
0.0
 11
-400.0
 21
775.0
 31
0.0
  0
LINE
  5
52
  8
SPEC
  6
CONTINUOUS
 62
     7
 10
650.0
 20
1225.0
 30
0.0
 11
650.0
 21
775.0
 31
0.0
  0
TEXT
  5
53
  8
SPEC
 62
     7
 10
-816.0
 20
1195.3791777777781
 30
0.0
 40
19.003146701388889
  1
形式
 41
0.7
 11
-816.0
 21
1214.3823244791661
 31
0.0
 73
     3
  0
LINE
  5
54
  8
SPEC
  6
CONTINUOUS
 62
     7
 10
-824.99999999999955
 20
1075.0
 30
0.0
 11
650.0
 21
1075.0
 31
0.0
  0
TEXT
  5
55
  8
SPEC
 62
     7
 10
-391.0
 20
1195.3791999999989
 30
0.0
 40
19.003146701388889
  1
2-Wayバイアンプ・スタ ジオモニタ ー
 41
0.7
 11
-391.0
 21
1214.382346701389
 31
0.0
 73
     3
  0
TEXT
  5
56
  8
SPEC
 62
     7
 10
-816.0
 20
1157.8791999999989
 30
0.0
 40
19.003146701388889
  1
周波数特性
 41
0.7
 11
-816.0
 21
1176.8823467013881
 31
0.0
 73
     3
  0
TEXT
  5
57
  8
SPEC
 62
     7
 10
-391.0
 20
1157.8791777777769
 30
0.0
 40
19.003146701388889
  1
55Hz～20kHz(\U+00B11.5dB)
 41
0.7
 11
-391.0
 21
1176.8823244791661
 31
0.0
 73
     3
  0
TEXT
  5
58
  8
SPEC
 62
     7
 10
-816.0
 20
1120.3791999999989
 30
0.0
 40
19.003146701388889
  1
最大音圧(1m)
 41
0.7
 11
-816.0
 21
1139.3823467013881
 31
0.0
 73
     3
  0
TEXT
  5
59
  8
SPEC
 62
     7
 10
-391.0
 20
1120.3791777777781
 30
0.0
 40
19.003146701388889
  1
106dB SPL
 41
0.7
 11
-391.0
 21
1139.3823244791661
 31
0.0
 73
     3
  0
TEXT
  5
5A
  8
SPEC
 62
     7
 10
-816.0
 20
1082.8791777777781
 30
0.0
 40
19.003146701388889
  1
ドライバー構成
 41
0.7
 11
-816.0
 21
1101.8823244791661
 31
0.0
 73
     3
  0
TEXT
  5
5B
  8
SPEC
 62
     7
 10
-391.0
 20
1082.8791777777781
 30
0.0
 40
19.003146701388889
  1
LF:203mm\U+00D71(438H)、HF:25mm\U+00D71(431G)
 41
0.7
 11
-391.0
 21
1101.8823244791661
 31
0.0
 73
     3
  0
TEXT
  5
5C
  8
SPEC
 62
     7
 10
-816.0
 20
1045.3791777777781
 30
0.0
 40
19.003146701388889
  1
パワーアンプ出力(＜0.1%%%THD)
 41
0.7
 11
-816.0
 21
1064.382324479167
 31
0.0
 73
     3
  0
TEXT
  5
5D
  8
SPEC
 62
     7
 10
-391.0
 20
1045.3791777777781
 30
0.0
 40
19.003146701388889
  1
LF:150W(＜0.1%%%THD)、HF:70W
 41
0.7
 11
-391.0
 21
1064.382324479167
 31
0.0
 73
     3
  0
LINE
  5
5E
  8
SPEC
  6
CONTINUOUS
 62
     7
 10
-824.99999999999955
 20
1037.5
 30
0.0
 11
650.0
 21
1037.5
 31
0.0
  0
TEXT
  5
5F
  8
SPEC
 62
     7
 10
-816.0
 20
1007.879177777778
 30
0.0
 40
19.003146701388889
  1
アナログ　入力コネクター
 41
0.7
 11
-816.0
 21
1026.8823244791661
 31
0.0
 73
     3
  0
TEXT
  5
60
  8
SPEC
 62
     7
 10
-391.0
 20
1007.879177777778
 30
0.0
 40
19.003146701388889
  1
XLR\U+00D71、フォーンジャック\U+00D71
 41
0.7
 11
-391.0
 21
1026.8823244791661
 31
0.0
 73
     3
  0
LINE
  5
61
  8
SPEC
  6
CONTINUOUS
 62
     7
 10
-824.99999999999955
 20
1000.0
 30
0.0
 11
650.0
 21
1000.0
 31
0.0
  0
TEXT
  5
62
  8
SPEC
 62
     7
 10
-816.0
 20
970.37917777777784
 30
0.0
 40
19.003146701388889
  1
デジタル　入出力コネクター
 41
0.7
 11
-816.0
 21
989.38232447916675
 31
0.0
 73
     3
  0
TEXT
  5
63
  8
SPEC
 62
     7
 10
-391.0
 20
970.37917777777784
 30
0.0
 40
19.003146701388889
  1
XLR:AES/EBU、RCA:S/PDIF
 41
0.7
 11
-391.0
 21
989.38232447916675
 31
0.0
 73
     3
  0
LINE
  5
64
  8
SPEC
  6
CONTINUOUS
 62
     7
 10
-824.99999999999955
 20
962.5
 30
0.0
 11
650.0
 21
962.5
 31
0.0
  0
LINE
  5
65
  8
SPEC
  6
CONTINUOUS
 62
     7
 10
-824.99999999999955
 20
925.0
 30
0.0
 11
650.0
 21
925.0
 31
0.0
  0
LINE
  5
66
  8
SPEC
  6
CONTINUOUS
 62
     7
 10
-824.99999999999955
 20
887.5
 30
0.0
 11
650.0
 21
887.5
 31
0.0
  0
LINE
  5
67
  8
SPEC
  6
CONTINUOUS
 62
     7
 10
-824.99999999999955
 20
850.0
 30
0.0
 11
650.0
 21
850.0
 31
0.0
  0
TEXT
  5
68
  8
SPEC
 62
     7
 10
-816.0
 20
857.87917777777784
 30
0.0
 40
19.003146701388889
  1
質量
 41
0.7
 11
-816.0
 21
876.88232447916675
 31
0.0
 73
     3
  0
TEXT
  5
69
  8
SPEC
 62
     7
 10
-391.0
 20
895.37917777777784
 30
0.0
 40
19.003146701388889
  1
267(W)\U+00D7438(H)\U+00D7298(D)mm(突起部は除く)
 41
0.7
 11
-391.0
 21
914.38232447916675
 31
0.0
 73
     3
  0
TEXT
  5
6A
  8
SPEC
 62
     7
 10
-391.0
 20
857.87917777777784
 30
0.0
 40
19.003146701388889
  1
約15kg
 41
0.7
 11
-391.0
 21
876.88232447916675
 31
0.0
 73
     3
  0
TEXT
  5
6B
  8
SPEC
 62
     7
 10
-816.0
 20
820.37917777777784
 30
0.0
 40
19.003146701388889
  1
付属品
 41
0.7
 11
-816.0
 21
839.38232447916675
 31
0.0
 73
     3
  0
TEXT
  5
6C
  8
SPEC
 62
     7
 10
-816.0
 20
932.87917777777784
 30
0.0
 40
19.003146701388889
  1
接続端子
 41
0.7
 11
-816.0
 21
951.88232447916675
 31
0.0
 73
     3
  0
TEXT
  5
6D
  8
SPEC
 62
     7
 10
-391.0
 20
932.87917777777784
 30
0.0
 40
19.003146701388889
  1
1/8インチフォーン(RMC専用マイク入力)、USB、RJ45(Harman HiQnet)
 41
0.7
 11
-391.0
 21
951.88232447916675
 31
0.0
 73
     3
  0
TEXT
  5
6E
  8
SPEC
 62
     7
 10
-816.0
 20
895.37917777777784
 30
0.0
 40
19.003146701388889
  1
寸法(W\U+00D7H\U+00D7D)
 41
0.7
 11
-816.0
 21
914.38232447916675
 31
0.0
 73
     3
  0
TEXT
  5
6F
  8
SPEC
 62
     7
 10
-391.0
 20
820.37917777777784
 30
0.0
 40
19.003146701388889
  1
アクセサリーキット［内容:リモートコントローラー、CD-ROM、測定用マイクロホン、
 41
0.7
 11
-391.0
 21
839.38232447916675
 31
0.0
 73
     3
  0
TEXT
  5
70
  8
SPEC
 62
     7
 10
-391.0
 20
782.87917777777784
 30
0.0
 40
19.003146701388889
  1
単4乾電池\U+00D72、CAT5ケーブル(約7.3m)、USBケーブル(約4.8m)］
 41
0.7
 11
-391.0
 21
801.88232447916675
 31
0.0
 73
     3
  0
LINE
  5
71
  8
SPEC
  6
CONTINUOUS
 62
     7
 10
-824.99999999999955
 20
775.0
 30
0.0
 11
650.0
 21
775.0
 31
0.0
  0
TEXT
  5
72
  8
DIMNSIONS
 62
     7
 10
-199.9999999999998
 20
-1152.3050999999989
 30
0.0
 40
24.4326171875
  1
(単位：mm)
 41
0.7
 11
-199.9999999999998
 21
-1127.8724828124989
 31
0.0
 73
     3
  0
LINE
  5
73
  8
DIMNSIONS
  6
CONTINUOUS
 62
     7
 10
-650.0
 20
-564.0
 30
0.0
 11
-650.0
 21
-645.0
 31
0.0
  0
LINE
  5
74
  8
DIMNSIONS
  6
CONTINUOUS
 62
     7
 10
-383.30000000000001
 20
-564.0
 30
0.0
 11
-383.30000000000001
 21
-645.0
 31
0.0
  0
LINE
  5
75
  8
DIMNSIONS
  6
CONTINUOUS
 62
     7
 10
-650.0
 20
-625.0
 30
0.0
 11
-383.30000000000001
 21
-625.0
 31
0.0
  0
LINE
  5
76
  8
DIMNSIONS
  6
CONTINUOUS
 62
     7
 10
-650.0
 20
-625.0
 30
0.0
 11
-624.99377441406239
 21
-618.2996020484976
 31
0.0
  0
LINE
  5
77
  8
DIMNSIONS
  6
CONTINUOUS
 62
     7
 10
-650.0
 20
-625.0
 30
0.0
 11
-624.99377441406239
 21
-631.7003979515024
 31
0.0
  0
LINE
  5
78
  8
DIMNSIONS
  6
CONTINUOUS
 62
     7
 10
-383.30000000000001
 20
-625.0
 30
0.0
 11
-408.30622558593751
 21
-631.7003979515024
 31
0.0
  0
LINE
  5
79
  8
DIMNSIONS
  6
CONTINUOUS
 62
     7
 10
-383.30000000000001
 20
-625.0
 30
0.0
 11
-408.30622558593751
 21
-618.2996020484976
 31
0.0
  0
TEXT
  5
7A
  8
DIMNSIONS
 62
     7
 10
-543.10835351943956
 20
-615.06110728416047
 30
0.0
 40
27.147373465971629
  1
267
 41
0.7
 11
-543.10835351943956
 21
-587.91373381818869
 31
0.0
 73
     3
  0
LINE
  5
7B
  8
DIMNSIONS
  6
CONTINUOUS
 62
     7
 10
-200.0
 20
-555.42500000000075
 30
0.0
 11
-200.0
 21
-645.0
 31
0.0
  0
LINE
  5
7C
  8
DIMNSIONS
  6
CONTINUOUS
 62
     7
 10
98.0
 20
-564.0
 30
0.0
 11
98.0
 21
-645.0
 31
0.0
  0
LINE
  5
7D
  8
DIMNSIONS
  6
CONTINUOUS
 62
     7
 10
-200.0
 20
-625.0
 30
0.0
 11
98.0
 21
-625.0
 31
0.0
  0
LINE
  5
7E
  8
DIMNSIONS
  6
CONTINUOUS
 62
     7
 10
-200.0
 20
-625.0
 30
0.0
 11
-174.9937744140625
 21
-618.2996020484976
 31
0.0
  0
LINE
  5
7F
  8
DIMNSIONS
  6
CONTINUOUS
 62
     7
 10
-200.0
 20
-625.0
 30
0.0
 11
-174.9937744140625
 21
-631.7003979515024
 31
0.0
  0
LINE
  5
80
  8
DIMNSIONS
  6
CONTINUOUS
 62
     7
 10
98.0
 20
-625.0
 30
0.0
 11
72.9937744140625
 21
-631.7003979515024
 31
0.0
  0
LINE
  5
81
  8
DIMNSIONS
  6
CONTINUOUS
 62
     7
 10
98.0
 20
-625.0
 30
0.0
 11
72.9937744140625
 21
-618.2996020484976
 31
0.0
  0
TEXT
  5
82
  8
DIMNSIONS
 62
     7
 10
-77.458353519439711
 20
-615.06110728416047
 30
0.0
 40
27.147373465971629
  1
298
 41
0.7
 11
-77.458353519439711
 21
-587.91373381818869
 31
0.0
 73
     3
  0
LINE
  5
83
  8
DIMNSIONS
  6
CONTINUOUS
 62
     7
 10
-664.0
 20
-550.0
 30
0.0
 11
-770.0
 21
-550.0
 31
0.0
  0
LINE
  5
84
  8
DIMNSIONS
  6
CONTINUOUS
 62
     7
 10
-664.0
 20
-111.84999999999999
 30
0.0
 11
-770.0
 21
-111.84999999999999
 31
0.0
  0
LINE
  5
85
  8
DIMNSIONS
  6
CONTINUOUS
 62
     7
 10
-750.0
 20
-550.0
 30
0.0
 11
-750.0
 21
-111.84999999999999
 31
0.0
  0
LINE
  5
86
  8
DIMNSIONS
  6
CONTINUOUS
 62
     7
 10
-750.0
 20
-550.0
 30
0.0
 11
-756.7003979515024
 21
-524.99377441406239
 31
0.0
  0
LINE
  5
87
  8
DIMNSIONS
  6
CONTINUOUS
 62
     7
 10
-750.0
 20
-550.0
 30
0.0
 11
-743.2996020484976
 21
-524.99377441406239
 31
0.0
  0
LINE
  5
88
  8
DIMNSIONS
  6
CONTINUOUS
 62
     7
 10
-750.0
 20
-111.84999999999999
 30
0.0
 11
-743.2996020484976
 21
-136.85622558593749
 31
0.0
  0
LINE
  5
89
  8
DIMNSIONS
  6
CONTINUOUS
 62
     7
 10
-750.0
 20
-111.84999999999999
 30
0.0
 11
-756.7003979515024
 21
-136.85622558593749
 31
0.0
  0
TEXT
  5
8A
  8
DIMNSIONS
 62
     7
 10
-759.93889271583976
 20
-357.38335351943971
 30
0.0
 40
27.147373465971629
  1
438
 50
90.0
 41
0.7
 11
-787.08626618181142
 21
-357.38335351943971
 31
0.0
 73
     3
  0
LINE
  5
8B
  8
DIMNSIONS
  6
CONTINUOUS
 62
     7
 10
-655.6500000000002
 20
-271.0000000000004
 30
0.0
 11
-655.6500000000002
 21
-645.0
 31
0.0
  0
LINE
  5
8C
  8
DIMNSIONS
  6
CONTINUOUS
 62
     7
 10
-650.0
 20
-564.0
 30
0.0
 11
-650.0
 21
-645.0
 31
0.0
  0
LINE
  5
8D
  8
DIMNSIONS
  6
CONTINUOUS
 62
     7
 10
-650.0
 20
-625.0
 30
0.0
 11
-655.6500000000002
 21
-625.0
 31
0.0
  0
LINE
  5
8E
  8
DIMNSIONS
  6
CONTINUOUS
 62
     7
 10
-655.6500000000002
 20
-625.0
 30
0.0
 11
-710.4474913362119
 21
-625.0
 31
0.0
  0
LINE
  5
8F
  8
DIMNSIONS
  6
CONTINUOUS
 62
     7
 10
-655.6500000000002
 20
-625.0
 30
0.0
 11
-680.65622558593759
 21
-631.7003979515024
 31
0.0
  0
LINE
  5
90
  8
DIMNSIONS
  6
CONTINUOUS
 62
     7
 10
-655.6500000000002
 20
-625.0
 30
0.0
 11
-680.65622558593759
 21
-618.2996020484976
 31
0.0
  0
LINE
  5
91
  8
DIMNSIONS
  6
CONTINUOUS
 62
     7
 10
-650.0
 20
-625.0
 30
0.0
 11
-600.0
 21
-625.0
 31
0.0
  0
LINE
  5
92
  8
DIMNSIONS
  6
CONTINUOUS
 62
     7
 10
-650.0
 20
-625.0
 30
0.0
 11
-624.99377441406239
 21
-618.2996020484976
 31
0.0
  0
LINE
  5
93
  8
DIMNSIONS
  6
CONTINUOUS
 62
     7
 10
-650.0
 20
-625.0
 30
0.0
 11
-624.99377441406239
 21
-631.7003979515024
 31
0.0
  0
TEXT
  5
94
  8
DIMNSIONS
 62
     7
 10
-710.44749133621212
 20
-615.06110728416047
 30
0.0
 40
27.147373465971629
  1
6
 41
0.7
 11
-710.44749133621212
 21
-587.91373381818869
 31
0.0
 73
     3
  0
LINE
  5
95
  8
DIMNSIONS
  6
CONTINUOUS
 62
     7
 10
-542.04999999999995
 20
-885.5
 30
0.0
 11
-542.04999999999995
 21
-1120.0
 31
0.0
  0
LINE
  5
96
  8
DIMNSIONS
  6
CONTINUOUS
 62
     7
 10
-491.25
 20
-885.5
 30
0.0
 11
-491.25
 21
-1120.0
 31
0.0
  0
LINE
  5
97
  8
DIMNSIONS
  6
CONTINUOUS
 62
     7
 10
-491.25
 20
-1100.0
 30
0.0
 11
-542.04999999999995
 21
-1100.0
 31
0.0
  0
LINE
  5
98
  8
DIMNSIONS
  6
CONTINUOUS
 62
     7
 10
-542.04999999999995
 20
-1100.0
 30
0.0
 11
-635.27782151434155
 21
-1100.0
 31
0.0
  0
LINE
  5
99
  8
DIMNSIONS
  6
CONTINUOUS
 62
     7
 10
-542.04999999999995
 20
-1100.0
 30
0.0
 11
-567.05622558593745
 21
-1106.7003979515021
 31
0.0
  0
LINE
  5
9A
  8
DIMNSIONS
  6
CONTINUOUS
 62
     7
 10
-542.04999999999995
 20
-1100.0
 30
0.0
 11
-567.05622558593745
 21
-1093.299602048497
 31
0.0
  0
LINE
  5
9B
  8
DIMNSIONS
  6
CONTINUOUS
 62
     7
 10
-491.25
 20
-1100.0
 30
0.0
 11
-441.25
 21
-1100.0
 31
0.0
  0
LINE
  5
9C
  8
DIMNSIONS
  6
CONTINUOUS
 62
     7
 10
-491.25
 20
-1100.0
 30
0.0
 11
-466.2437744140625
 21
-1093.299602048497
 31
0.0
  0
LINE
  5
9D
  8
DIMNSIONS
  6
CONTINUOUS
 62
     7
 10
-491.25
 20
-1100.0
 30
0.0
 11
-466.2437744140625
 21
-1106.7003979515021
 31
0.0
  0
TEXT
  5
9E
  8
DIMNSIONS
 62
     7
 10
-635.27782151434155
 20
-1090.0611051498979
 30
0.0
 40
27.147385197268498
  1
50.8
 41
0.7
 11
-635.27782151434155
 21
-1062.913719952629
 31
0.0
 73
     3
  0
LINE
  5
9F
  8
DIMNSIONS
  6
CONTINUOUS
 62
     7
 10
-485.70036143083672
 20
-760.63609976372391
 30
0.0
 11
-325.0
 21
-850.0
 31
0.0
  0
LINE
  5
A0
  8
DIMNSIONS
  6
CONTINUOUS
 62
     7
 10
-485.70036143083672
 20
-760.63609976372391
 30
0.0
 11
-460.58100634583519
 21
-766.89905839977621
 31
0.0
  0
LINE
  5
A1
  8
DIMNSIONS
  6
CONTINUOUS
 62
     7
 10
-485.70036143083672
 20
-760.63609976372391
 30
0.0
 11
-467.07784111856972
 21
-778.61965858789722
 31
0.0
  0
LINE
  5
A2
  8
DIMNSIONS
  6
CONTINUOUS
 62
     7
 10
-325.0
 20
-850.0
 30
0.0
 11
150.0
 21
-850.0
 31
0.0
  0
LINE
  5
A3
  8
DIMNSIONS
  6
CONTINUOUS
 62
     7
 10
98.0
 20
-564.0
 30
0.0
 11
98.0
 21
-645.0
 31
0.0
  0
LINE
  5
A4
  8
DIMNSIONS
  6
CONTINUOUS
 62
     7
 10
115.5
 20
-369.0
 30
0.0
 11
115.5
 21
-645.0
 31
0.0
  0
LINE
  5
A5
  8
DIMNSIONS
  6
CONTINUOUS
 62
     7
 10
115.5
 20
-625.0
 30
0.0
 11
98.0
 21
-625.0
 31
0.0
  0
LINE
  5
A6
  8
DIMNSIONS
  6
CONTINUOUS
 62
     7
 10
98.0
 20
-625.0
 30
0.0
 11
48.0
 21
-625.0
 31
0.0
  0
LINE
  5
A7
  8
DIMNSIONS
  6
CONTINUOUS
 62
     7
 10
98.0
 20
-625.0
 30
0.0
 11
72.9937744140625
 21
-631.7003979515024
 31
0.0
  0
LINE
  5
A8
  8
DIMNSIONS
  6
CONTINUOUS
 62
     7
 10
98.0
 20
-625.0
 30
0.0
 11
72.9937744140625
 21
-618.2996020484976
 31
0.0
  0
LINE
  5
A9
  8
DIMNSIONS
  6
CONTINUOUS
 62
     7
 10
115.5
 20
-625.0
 30
0.0
 11
181.75
 21
-625.0
 31
0.0
  0
LINE
  5
AA
  8
DIMNSIONS
  6
CONTINUOUS
 62
     7
 10
115.5
 20
-625.0
 30
0.0
 11
140.5062255859375
 21
-618.2996020484976
 31
0.0
  0
LINE
  5
AB
  8
DIMNSIONS
  6
CONTINUOUS
 62
     7
 10
115.5
 20
-625.0
 30
0.0
 11
140.5062255859375
 21
-631.7003979515024
 31
0.0
  0
TEXT
  5
AC
  8
DIMNSIONS
 62
     7
 10
146.47217848565839
 20
-615.0611051498978
 30
0.0
 40
27.147385197268498
  1
18
 41
0.7
 11
146.47217848565839
 21
-587.91371995262944
 31
0.0
 73
     3
  0
LINE
  5
AD
  8
DIMNSIONS
  6
CONTINUOUS
 62
     7
 10
-377.64999999999992
 20
-271.0000000000004
 30
0.0
 11
-377.64999999999992
 21
-645.0
 31
0.0
  0
LINE
  5
AE
  8
DIMNSIONS
  6
CONTINUOUS
 62
     7
 10
-383.30000000000001
 20
-564.0
 30
0.0
 11
-383.30000000000001
 21
-645.0
 31
0.0
  0
LINE
  5
AF
  8
DIMNSIONS
  6
CONTINUOUS
 62
     7
 10
-383.30000000000001
 20
-625.0
 30
0.0
 11
-377.64999999999992
 21
-625.0
 31
0.0
  0
LINE
  5
B0
  8
DIMNSIONS
  6
CONTINUOUS
 62
     7
 10
-377.64999999999992
 20
-625.0
 30
0.0
 11
-325.0
 21
-625.0
 31
0.0
  0
LINE
  5
B1
  8
DIMNSIONS
  6
CONTINUOUS
 62
     7
 10
-377.64999999999992
 20
-625.0
 30
0.0
 11
-352.64377441406242
 21
-618.2996020484976
 31
0.0
  0
LINE
  5
B2
  8
DIMNSIONS
  6
CONTINUOUS
 62
     7
 10
-377.64999999999992
 20
-625.0
 30
0.0
 11
-352.64377441406242
 21
-631.7003979515024
 31
0.0
  0
LINE
  5
B3
  8
DIMNSIONS
  6
CONTINUOUS
 62
     7
 10
-383.30000000000001
 20
-625.0
 30
0.0
 11
-433.30000000000001
 21
-625.0
 31
0.0
  0
LINE
  5
B4
  8
DIMNSIONS
  6
CONTINUOUS
 62
     7
 10
-383.30000000000001
 20
-625.0
 30
0.0
 11
-408.30622558593751
 21
-631.7003979515024
 31
0.0
  0
LINE
  5
B5
  8
DIMNSIONS
  6
CONTINUOUS
 62
     7
 10
-383.30000000000001
 20
-625.0
 30
0.0
 11
-408.30622558593751
 21
-618.2996020484976
 31
0.0
  0
TEXT
  5
B6
  8
DIMNSIONS
 62
     7
 10
-342.63891075717078
 20
-615.0611051498978
 30
0.0
 40
27.147385197268498
  1
6
 41
0.7
 11
-342.63891075717078
 21
-587.91371995262944
 31
0.0
 73
     3
  0
LINE
  5
B7
  8
DIMNSIONS
  6
CONTINUOUS
 62
     7
 10
-562.04999999999995
 20
-757.54999999999984
 30
0.0
 11
-770.0
 21
-757.54999999999984
 31
0.0
  0
LINE
  5
B8
  8
DIMNSIONS
  6
CONTINUOUS
 62
     7
 10
-562.04999999999995
 20
-865.49999999999989
 30
0.0
 11
-770.0
 21
-865.49999999999989
 31
0.0
  0
LINE
  5
B9
  8
DIMNSIONS
  6
CONTINUOUS
 62
     7
 10
-750.0
 20
-757.54999999999984
 30
0.0
 11
-750.0
 21
-865.49999999999989
 31
0.0
  0
LINE
  5
BA
  8
DIMNSIONS
  6
CONTINUOUS
 62
     7
 10
-750.0
 20
-757.54999999999984
 30
0.0
 11
-743.2996020484976
 21
-782.55622558593745
 31
0.0
  0
LINE
  5
BB
  8
DIMNSIONS
  6
CONTINUOUS
 62
     7
 10
-750.0
 20
-757.54999999999984
 30
0.0
 11
-756.7003979515024
 21
-782.55622558593745
 31
0.0
  0
LINE
  5
BC
  8
DIMNSIONS
  6
CONTINUOUS
 62
     7
 10
-750.0
 20
-865.49999999999989
 30
0.0
 11
-756.7003979515024
 21
-840.4937744140625
 31
0.0
  0
LINE
  5
BD
  8
DIMNSIONS
  6
CONTINUOUS
 62
     7
 10
-750.0
 20
-865.49999999999989
 30
0.0
 11
-743.2996020484976
 21
-840.4937744140625
 31
0.0
  0
TEXT
  5
BE
  8
DIMNSIONS
 62
     7
 10
-759.93889485010197
 20
-864.44173058933688
 30
0.0
 40
27.147385197268498
  1
107.95
 50
90.0
 41
0.7
 11
-787.08628004737045
 21
-864.44173058933688
 31
0.0
 73
     3
  0
LINE
  5
BF
  8
DIMNSIONS
  6
CONTINUOUS
 62
     7
 10
-562.04999999999995
 20
-865.49999999999989
 30
0.0
 11
-770.0
 21
-865.49999999999989
 31
0.0
  0
LINE
  5
C0
  8
DIMNSIONS
  6
CONTINUOUS
 62
     7
 10
-670.0
 20
-992.0
 30
0.0
 11
-770.0
 21
-992.0
 31
0.0
  0
LINE
  5
C1
  8
DIMNSIONS
  6
CONTINUOUS
 62
     7
 10
-750.0
 20
-865.49999999999989
 30
0.0
 11
-750.0
 21
-992.0
 31
0.0
  0
LINE
  5
C2
  8
DIMNSIONS
  6
CONTINUOUS
 62
     7
 10
-750.0
 20
-865.49999999999989
 30
0.0
 11
-743.2996020484976
 21
-890.5062255859375
 31
0.0
  0
LINE
  5
C3
  8
DIMNSIONS
  6
CONTINUOUS
 62
     7
 10
-750.0
 20
-865.49999999999989
 30
0.0
 11
-756.7003979515024
 21
-890.5062255859375
 31
0.0
  0
LINE
  5
C4
  8
DIMNSIONS
  6
CONTINUOUS
 62
     7
 10
-750.0
 20
-992.0
 30
0.0
 11
-756.7003979515024
 21
-966.99377441406227
 31
0.0
  0
LINE
  5
C5
  8
DIMNSIONS
  6
CONTINUOUS
 62
     7
 10
-750.0
 20
-992.0
 30
0.0
 11
-743.2996020484976
 21
-966.99377441406227
 31
0.0
  0
TEXT
  5
C6
  8
DIMNSIONS
 62
     7
 10
-759.93889485010197
 20
-972.84727605183934
 30
0.0
 40
27.147385197268498
  1
126.5
 50
90.0
 41
0.7
 11
-787.08628004737045
 21
-972.84727605183934
 31
0.0
 73
     3
  0
TEXT
  5
C7
  8
DIMNSIONS
 62
     7
 10
-305.0
 20
-804.7833333333333
 30
0.0
 40
27.147352430555561
  1
1/4インチ
 41
0.7
 11
-305.0
 21
-777.63598090277765
 31
0.0
 73
     3
  0
TEXT
  5
C8
  8
DIMNSIONS
 62
     7
 10
-305.0
 20
-840.06111111111113
 30
0.0
 40
27.147352430555561
  1
マウンテング用ナット埋込
 41
0.7
 11
-305.0
 21
-812.91375868055547
 31
0.0
 73
     3
  0
LINE
  5
C9
  8
DIMNSIONS
  6
CONTINUOUS
 62
     7
 10
-200.0
 20
-555.42500000000075
 30
0.0
 11
-200.0
 21
-645.0
 31
0.0
  0
LINE
  5
CA
  8
DIMNSIONS
  6
CONTINUOUS
 62
     7
 10
-202.5
 20
-529.49999999999989
 30
0.0
 11
-202.5
 21
-645.0
 31
0.0
  0
LINE
  5
CB
  8
DIMNSIONS
  6
CONTINUOUS
 62
     7
 10
-202.5
 20
-625.0
 30
0.0
 11
-200.0
 21
-625.0
 31
0.0
  0
LINE
  5
CC
  8
DIMNSIONS
  6
CONTINUOUS
 62
     7
 10
-200.0
 20
-625.0
 30
0.0
 11
-150.0
 21
-625.0
 31
0.0
  0
LINE
  5
CD
  8
DIMNSIONS
  6
CONTINUOUS
 62
     7
 10
-200.0
 20
-625.0
 30
0.0
 11
-174.9937744140625
 21
-618.2996020484976
 31
0.0
  0
LINE
  5
CE
  8
DIMNSIONS
  6
CONTINUOUS
 62
     7
 10
-200.0
 20
-625.0
 30
0.0
 11
-174.9937744140625
 21
-631.7003979515024
 31
0.0
  0
LINE
  5
CF
  8
DIMNSIONS
  6
CONTINUOUS
 62
     7
 10
-202.5
 20
-625.0
 30
0.0
 11
-260.06945537858542
 21
-625.0
 31
0.0
  0
LINE
  5
D0
  8
DIMNSIONS
  6
CONTINUOUS
 62
     7
 10
-202.5
 20
-625.0
 30
0.0
 11
-227.5062255859375
 21
-631.7003979515024
 31
0.0
  0
LINE
  5
D1
  8
DIMNSIONS
  6
CONTINUOUS
 62
     7
 10
-202.5
 20
-625.0
 30
0.0
 11
-227.5062255859375
 21
-618.2996020484976
 31
0.0
  0
TEXT
  5
D2
  8
DIMNSIONS
 62
     7
 10
-260.06945537858542
 20
-614.84860514989737
 30
0.0
 40
27.147385197268498
  1
3
 41
0.7
 11
-260.06945537858542
 21
-587.701219952629
 31
0.0
 73
     3
  0
TEXT
  5
D3
  8
DATA
 62
     7
 10
500.0
 20
-1163.6911
 30
0.0
 40
24.4326171875
  1
LSR4328P
 41
0.7
 11
500.0
 21
-1139.2584828125
 31
0.0
 73
     3
  0
TEXT
  5
D4
  8
DATA
 62
     7
 10
500.0
 20
-1091.1911
 30
0.0
 40
24.4326171875
  1
JBL
 41
0.7
 11
500.0
 21
-1066.7584828125
 31
0.0
 73
     3
  0
TEXT
  5
D5
  8
DATA
 62
     7
 10
-874.99999999999955
 20
-1196.237222222222
 30
0.0
 40
19.003146701388889
  1
※仕様及び外観は予告なく変更されることがあります。
 41
0.7
 11
-874.99999999999955
 21
-1177.2340755208329
 31
0.0
 73
     3
  0
TEXT
  5
D6
  8
DATA
 62
     7
 10
-874.99999999999955
 20
-1220.9316666666659
 30
0.0
 40
19.003146701388889
  1
　また、同一商品でも若干の個体差があることがあります。ご了承ください。
 41
0.7
 11
-874.99999999999955
 21
-1201.928519965277
 31
0.0
 73
     3
  0
LINE
  5
D7
  8
DATA
  6
CONTINUOUS
 62
     7
 10
-650.0
 20
-544.0
 30
0.0
 11
-650.0
 21
-117.84999999999999
 31
0.0
  0
LINE
  5
D8
  8
DATA
  6
CONTINUOUS
 62
     7
 10
-389.30000000000001
 20
-550.0
 30
0.0
 11
-644.0
 21
-550.0
 31
0.0
  0
LINE
  5
D9
  8
DATA
  6
CONTINUOUS
 62
     7
 10
-383.30000000000001
 20
-117.84999999999999
 30
0.0
 11
-383.30000000000001
 21
-544.0
 31
0.0
  0
LINE
  5
DA
  8
DATA
  6
CONTINUOUS
 62
     7
 10
-644.0
 20
-111.84999999999999
 30
0.0
 11
-389.30000000000001
 21
-111.84999999999999
 31
0.0
  0
LINE
  5
DB
  8
DATA
  6
CONTINUOUS
 62
     7
 10
-625.64999999999986
 20
-530.42499999999995
 30
0.0
 11
-625.64999999999986
 21
-131.4249999999999
 31
0.0
  0
LINE
  5
DC
  8
DATA
  6
CONTINUOUS
 62
     7
 10
-407.64999999999998
 20
-131.4249999999999
 30
0.0
 11
-407.64999999999998
 21
-530.42499999999995
 31
0.0
  0
LINE
  5
DD
  8
DATA
  6
CONTINUOUS
 62
     7
 10
-650.0
 20
-17.0
 30
0.0
 11
-650.0
 21
242.0
 31
0.0
  0
LINE
  5
DE
  8
DATA
  6
CONTINUOUS
 62
     7
 10
-383.30000000000001
 20
242.0
 30
0.0
 11
-383.30000000000001
 21
-17.0
 31
0.0
  0
LINE
  5
DF
  8
DATA
  6
CONTINUOUS
 62
     7
 10
-644.0
 20
248.0
 30
0.0
 11
-389.30000000000001
 21
248.0
 31
0.0
  0
LINE
  5
E0
  8
DATA
  6
CONTINUOUS
 62
     7
 10
-383.30000000000013
 20
-13.0
 30
0.0
 11
-650.0
 21
-13.0
 31
0.0
  0
LINE
  5
E1
  8
DATA
  6
CONTINUOUS
 62
     7
 10
-383.30000000000013
 20
-12.0
 30
0.0
 11
-650.0
 21
-12.0
 31
0.0
  0
LINE
  5
E2
  8
DATA
  6
CONTINUOUS
 62
     7
 10
-383.30000000000001
 20
-17.0
 30
0.0
 11
-650.0
 21
-17.0
 31
0.0
  0
ARC
  5
E3
  8
DATA
  6
CONTINUOUS
 62
     7
 10
-516.64999999999998
 20
745.81666666666661
 30
0.0
 40
795.81666666666661
 50
262.12766777462002
 51
277.87233222537998
  0
ARC
  5
E4
  8
DATA
  6
CONTINUOUS
 62
     7
 10
-516.64999999999998
 20
-1317.0250000000001
 30
0.0
 40
1190.5999999999999
 50
84.747188723418503
 51
95.252811276581497
  0
ARC
  5
E5
  8
DATA
  6
CONTINUOUS
 62
     7
 10
-516.64999999999998
 20
655.17500000000007
 30
0.0
 40
1190.5999999999999
 50
264.74718872341862
 51
275.25281127658161
  0
CIRCLE
  5
E6
  8
DATA
  6
CONTINUOUS
 62
     7
 10
-516.64999999999998
 20
-192.0
 30
0.0
 40
10.0
  0
CIRCLE
  5
E7
  8
DATA
  6
CONTINUOUS
 62
     7
 10
-516.64999999999998
 20
-192.0
 30
0.0
 40
12.5
  0
LINE
  5
E8
  8
DATA
  6
CONTINUOUS
 62
     7
 10
-599.39999999999986
 20
-227.0201556659058
 30
0.0
 11
-599.39999999999986
 21
-156.97984433409411
 31
0.0
  0
LINE
  5
E9
  8
DATA
  6
CONTINUOUS
 62
     7
 10
-433.89999999999992
 20
-156.97984433409411
 30
0.0
 11
-433.89999999999992
 21
-227.0201556659058
 31
0.0
  0
ARC
  5
EA
  8
DATA
  6
CONTINUOUS
 62
     7
 10
-516.64999999999998
 20
-417.15249999999992
 30
0.0
 40
280.15249999999997
 50
74.377838446464111
 51
105.6221615535358
  0
ARC
  5
EB
  8
DATA
  6
CONTINUOUS
 62
     7
 10
-589.39999999999998
 20
-156.97984433409411
 30
0.0
 40
9.9999999999999485
 50
105.6221615535358
 51
180.0
  0
ARC
  5
EC
  8
DATA
  6
CONTINUOUS
 62
     7
 10
-443.89999999999992
 20
-156.97984433409411
 30
0.0
 40
9.9999999999999432
 50
0.0
 51
74.377838446464523
  0
ARC
  5
ED
  8
DATA
  6
CONTINUOUS
 62
     7
 10
-516.64999999999998
 20
33.152500000000032
 30
0.0
 40
280.15249999999997
 50
254.3778384464641
 51
285.62216155353588
  0
ARC
  5
EE
  8
DATA
  6
CONTINUOUS
 62
     7
 10
-589.39999999999998
 20
-227.0201556659058
 30
0.0
 40
10.0
 50
180.0
 51
254.37783844646421
  0
ARC
  5
EF
  8
DATA
  6
CONTINUOUS
 62
     7
 10
-443.89999999999992
 20
-227.0201556659058
 30
0.0
 40
9.9999999999999343
 50
285.62216155353559
 51
0.0
  0
CIRCLE
  5
F0
  8
DATA
  6
CONTINUOUS
 62
     7
 10
-516.64999999999998
 20
-369.0
 30
0.0
 40
107.0
  0
CIRCLE
  5
F1
  8
DATA
  6
CONTINUOUS
 62
     7
 10
-516.64999999999998
 20
-369.0
 30
0.0
 40
90.0
  0
CIRCLE
  5
F2
  8
DATA
  6
CONTINUOUS
 62
     7
 10
-516.64999999999998
 20
-369.0
 30
0.0
 40
75.0
  0
CIRCLE
  5
F3
  8
DATA
  6
CONTINUOUS
 62
     7
 10
-516.64999999999998
 20
-369.0
 30
0.0
 40
32.5
  0
CIRCLE
  5
F4
  8
DATA
  6
CONTINUOUS
 62
     7
 10
-585.0
 20
-510.0
 30
0.0
 40
4.0
  0
CIRCLE
  5
F5
  8
DATA
  6
CONTINUOUS
 62
     7
 10
-585.0
 20
-510.0
 30
0.0
 40
5.75
  0
CIRCLE
  5
F6
  8
DATA
  6
CONTINUOUS
 62
     7
 10
-562.5
 20
-510.0
 30
0.0
 40
4.0
  0
CIRCLE
  5
F7
  8
DATA
  6
CONTINUOUS
 62
     7
 10
-562.5
 20
-510.0
 30
0.0
 40
5.75
  0
CIRCLE
  5
F8
  8
DATA
  6
CONTINUOUS
 62
     7
 10
-543.0
 20
-510.0
 30
0.0
 40
4.0
  0
CIRCLE
  5
F9
  8
DATA
  6
CONTINUOUS
 62
     7
 10
-543.0
 20
-510.0
 30
0.0
 40
5.75
  0
CIRCLE
  5
FA
  8
DATA
  6
CONTINUOUS
 62
     7
 10
-524.0
 20
-510.0
 30
0.0
 40
4.0
  0
CIRCLE
  5
FB
  8
DATA
  6
CONTINUOUS
 62
     7
 10
-524.0
 20
-510.0
 30
0.0
 40
5.75
  0
CIRCLE
  5
FC
  8
DATA
  6
CONTINUOUS
 62
     7
 10
-505.0
 20
-510.0
 30
0.0
 40
4.0
  0
CIRCLE
  5
FD
  8
DATA
  6
CONTINUOUS
 62
     7
 10
-505.0
 20
-510.0
 30
0.0
 40
5.75
  0
CIRCLE
  5
FE
  8
DATA
  6
CONTINUOUS
 62
     7
 10
-486.0
 20
-510.0
 30
0.0
 40
4.0
  0
CIRCLE
  5
FF
  8
DATA
  6
CONTINUOUS
 62
     7
 10
-486.0
 20
-510.0
 30
0.0
 40
5.75
  0
CIRCLE
  5
100
  8
DATA
  6
CONTINUOUS
 62
     7
 10
-466.5
 20
-510.0
 30
0.0
 40
4.0
  0
CIRCLE
  5
101
  8
DATA
  6
CONTINUOUS
 62
     7
 10
-466.5
 20
-510.0
 30
0.0
 40
5.75
  0
CIRCLE
  5
102
  8
DATA
  6
CONTINUOUS
 62
     7
 10
-447.5
 20
-510.0
 30
0.0
 40
4.0
  0
CIRCLE
  5
103
  8
DATA
  6
CONTINUOUS
 62
     7
 10
-447.5
 20
-510.0
 30
0.0
 40
5.75
  0
POLYLINE
  5
104
  8
DATA
  6
CONTINUOUS
 62
     7
 66
     1
 10
0.0
 20
0.0
 30
0.0
 70
     1
  0
VERTEX
  5
646
  8
DATA
  6
CONTINUOUS
 62
     7
 10
-615.0
 20
-500.75
 30
0.0
  0
VERTEX
  5
647
  8
DATA
  6
CONTINUOUS
 62
     7
 10
-596.49999999999989
 20
-500.75
 30
0.0
  0
VERTEX
  5
648
  8
DATA
  6
CONTINUOUS
 62
     7
 10
-596.49999999999989
 20
-519.24999999999989
 30
0.0
  0
VERTEX
  5
649
  8
DATA
  6
CONTINUOUS
 62
     7
 10
-615.0
 20
-519.24999999999989
 30
0.0
  0
SEQEND
  5
64A
  8
DATA
  6
CONTINUOUS
 62
     7
  0
LINE
  5
10B
  8
DATA
  6
CONTINUOUS
 62
     7
 10
-615.0
 20
-516.25
 30
0.0
 11
-596.49999999999989
 21
-516.25
 31
0.0
  0
ARC
  5
10C
  8
DATA
  6
CONTINUOUS
 62
     7
 10
-605.46153118185612
 20
-510.64731357287661
 30
0.0
 40
0.1912698688910515
 50
307.64190249761589
 51
354.26701928940417
  0
LINE
  5
10D
  8
DATA
  6
CONTINUOUS
 62
     7
 10
-610.37453000000005
 20
-507.63321000000002
 30
0.0
 11
-609.47785399999998
 21
-505.49668200000002
 31
0.0
  0
LINE
  5
10E
  8
DATA
  6
CONTINUOUS
 62
     7
 10
-610.37453000000005
 20
-507.63321000000002
 30
0.0
 11
-611.26014199999986
 21
-505.49668200000002
 31
0.0
  0
LINE
  5
10F
  8
DATA
  6
CONTINUOUS
 62
     7
 10
-603.5774899999999
 20
-511.49668200000002
 30
0.0
 11
-603.5774899999999
 21
-505.49668200000002
 31
0.0
  0
LINE
  5
110
  8
DATA
  6
CONTINUOUS
 62
     7
 10
-602.426198
 20
-505.49668200000002
 30
0.0
 11
-602.426198
 21
-510.57786599999991
 31
0.0
  0
LINE
  5
111
  8
DATA
  6
CONTINUOUS
 62
     7
 10
-609.05718799999988
 20
-505.49668200000002
 30
0.0
 11
-609.05718799999988
 21
-510.57786599999991
 31
0.0
  0
LINE
  5
112
  8
DATA
  6
CONTINUOUS
 62
     7
 10
-607.95017600000017
 20
-505.49668200000002
 30
0.0
 11
-607.95017600000017
 21
-510.57786599999991
 31
0.0
  0
LINE
  5
113
  8
DATA
  6
CONTINUOUS
 62
     7
 10
-607.37453000000005
 20
-505.49668200000002
 30
0.0
 11
-607.37453000000005
 21
-511.49668200000002
 31
0.0
  0
LINE
  5
114
  8
DATA
  6
CONTINUOUS
 62
     7
 10
-606.36714800000004
 20
-506.06125200000002
 30
0.0
 11
-606.36714800000004
 21
-507.98745600000001
 31
0.0
  0
LINE
  5
115
  8
DATA
  6
CONTINUOUS
 62
     7
 10
-604.20799999999986
 20
-507.87599999999992
 30
0.0
 11
-604.20799999999986
 21
-506.47085399999992
 31
0.0
  0
LINE
  5
116
  8
DATA
  6
CONTINUOUS
 62
     7
 10
-605.27121799999998
 20
-506.32693799999998
 30
0.0
 11
-605.27121799999998
 21
-507.72177599999992
 31
0.0
  0
ARC
  5
117
  8
DATA
  6
CONTINUOUS
 62
     7
 10
-609.27933199999995
 20
-509.95600200000001
 30
0.0
 40
1.5473120551006869
 50
264.69085622153341
 51
323.99119915424131
  0
LINE
  5
118
  8
DATA
  6
CONTINUOUS
 62
     7
 10
-609.89851399999986
 20
-509.61475799999999
 30
0.0
 11
-609.89851399999986
 21
-510.577854
 31
0.0
  0
LINE
  5
119
  8
DATA
  6
CONTINUOUS
 62
     7
 10
-609.89851399999986
 20
-509.61475799999999
 30
0.0
 11
-610.89482599999997
 21
-509.61475799999999
 31
0.0
  0
LINE
  5
11A
  8
DATA
  6
CONTINUOUS
 62
     7
 10
-610.89482599999997
 20
-509.61475799999999
 30
0.0
 11
-610.89482599999997
 21
-510.577854
 31
0.0
  0
ARC
  5
11B
  8
DATA
  6
CONTINUOUS
 62
     7
 10
-609.47574199999985
 20
-510.59083800000002
 30
0.0
 40
0.4187572957454401
 50
269.71184879274722
 51
1.7759870056882501
  0
ARC
  5
11C
  8
DATA
  6
CONTINUOUS
 62
     7
 10
-609.47995999999989
 20
-510.59083800000002
 30
0.0
 40
0.4187551544757101
 50
178.22401299431681
 51
270.28815120724312
  0
ARC
  5
11D
  8
DATA
  6
CONTINUOUS
 62
     7
 10
-609.56566999999995
 20
-509.95600200000001
 30
0.0
 40
1.5473095421679559
 50
216.00880084575709
 51
275.30914377846238
  0
ARC
  5
11E
  8
DATA
  6
CONTINUOUS
 62
     7
 10
-610.195562
 20
-510.54393599999997
 30
0.0
 40
0.7000801249056988
 50
182.7769954499914
 51
207.3596066671424
  0
CIRCLE
  5
11F
  8
DATA
  6
CONTINUOUS
 62
     7
 10
-610.31364199999985
 20
-508.46347200000002
 30
0.0
 40
0.5701080000000048
  0
LINE
  5
120
  8
DATA
  6
CONTINUOUS
 62
     7
 10
-600.57749000000001
 20
-511.49667599999992
 30
0.0
 11
-603.5774899999999
 21
-511.49667599999992
 31
0.0
  0
LINE
  5
121
  8
DATA
  6
CONTINUOUS
 62
     7
 10
-600.57749000000001
 20
-511.49667599999992
 30
0.0
 11
-600.57749000000001
 21
-509.61475200000001
 31
0.0
  0
LINE
  5
122
  8
DATA
  6
CONTINUOUS
 62
     7
 10
-600.57749000000001
 20
-509.61475799999999
 30
0.0
 11
-601.58486600000003
 21
-509.61475799999999
 31
0.0
  0
LINE
  5
123
  8
DATA
  6
CONTINUOUS
 62
     7
 10
-601.58486600000003
 20
-509.61475799999999
 30
0.0
 11
-601.58486600000003
 21
-510.577854
 31
0.0
  0
LINE
  5
124
  8
DATA
  6
CONTINUOUS
 62
     7
 10
-607.37453000000005
 20
-511.49667599999992
 30
0.0
 11
-605.27121799999998
 21
-511.49666999999999
 31
0.0
  0
LINE
  5
125
  8
DATA
  6
CONTINUOUS
 62
     7
 10
-606.36715400000003
 20
-510.93209999999999
 30
0.0
 11
-605.82471799999985
 21
-510.93209999999999
 31
0.0
  0
LINE
  5
126
  8
DATA
  6
CONTINUOUS
 62
     7
 10
-606.36714800000004
 20
-510.93209999999999
 30
0.0
 11
-606.36714800000004
 21
-508.56309599999992
 31
0.0
  0
LINE
  5
127
  8
DATA
  6
CONTINUOUS
 62
     7
 10
-606.36715400000003
 20
-508.56309599999992
 30
0.0
 11
-605.82471799999985
 21
-508.56309599999992
 31
0.0
  0
LINE
  5
128
  8
DATA
  6
CONTINUOUS
 62
     7
 10
-605.27121799999998
 20
-510.6664199999999
 30
0.0
 11
-605.27121799999998
 21
-508.828776
 31
0.0
  0
ARC
  5
129
  8
DATA
  6
CONTINUOUS
 62
     7
 10
-608.64944000000003
 20
-510.54393599999997
 30
0.0
 40
0.7000791287190019
 50
332.64039333285132
 51
357.22300455001312
  0
ARC
  5
12A
  8
DATA
  6
CONTINUOUS
 62
     7
 10
-602.00342599999999
 20
-510.59083800000002
 30
0.0
 40
0.4187572957454401
 50
269.71184879274722
 51
1.7759870056882501
  0
ARC
  5
12B
  8
DATA
  6
CONTINUOUS
 62
     7
 10
-602.00763800000004
 20
-510.59083800000002
 30
0.0
 40
0.4187551544757101
 50
178.22401299431681
 51
270.28815120725858
  0
LINE
  5
12C
  8
DATA
  6
CONTINUOUS
 62
     7
 10
-604.20848599999999
 20
-510.53357399999999
 30
0.0
 11
-604.20848599999999
 21
-508.939482
 31
0.0
  0
LINE
  5
12D
  8
DATA
  6
CONTINUOUS
 62
     7
 10
-606.36715400000003
 20
-507.98745600000001
 30
0.0
 11
-605.82471799999985
 21
-507.98745600000001
 31
0.0
  0
ARC
  5
12E
  8
DATA
  6
CONTINUOUS
 62
     7
 10
-605.34748999999999
 20
-510.35765400000003
 30
0.0
 40
1.1415668470308391
 50
273.83098160911578
 51
351.13514730980222
  0
LINE
  5
12F
  8
DATA
  6
CONTINUOUS
 62
     7
 10
-609.05718799999988
 20
-505.49668200000002
 30
0.0
 11
-607.95017600000017
 21
-505.49668200000002
 31
0.0
  0
LINE
  5
130
  8
DATA
  6
CONTINUOUS
 62
     7
 10
-611.26014199999986
 20
-505.49668200000002
 30
0.0
 11
-609.47785399999998
 21
-505.49668200000002
 31
0.0
  0
LINE
  5
131
  8
DATA
  6
CONTINUOUS
 62
     7
 10
-603.5774899999999
 20
-505.49668200000002
 30
0.0
 11
-602.426198
 21
-505.49668200000002
 31
0.0
  0
LINE
  5
132
  8
DATA
  6
CONTINUOUS
 62
     7
 10
-607.37453000000005
 20
-505.49668200000002
 30
0.0
 11
-605.25965592311195
 21
-505.49668685624408
 31
0.0
  0
LINE
  5
133
  8
DATA
  6
CONTINUOUS
 62
     7
 10
-606.36715400000003
 20
-506.0612579999999
 30
0.0
 11
-605.82471799999985
 21
-506.0612579999999
 31
0.0
  0
ARC
  5
134
  8
DATA
  6
CONTINUOUS
 62
     7
 10
-605.33610799999997
 20
-506.63395800000001
 30
0.0
 40
1.1398379597469039
 50
8.2269238590146152
 51
86.154126692152346
  0
ARC
  5
135
  8
DATA
  6
CONTINUOUS
 62
     7
 10
-605.81831272243801
 20
-509.87988722364781
 30
0.0
 40
1.0522322720289869
 50
269.65121993761642
 51
282.8264828068734
  0
ARC
  5
136
  8
DATA
  6
CONTINUOUS
 62
     7
 10
-605.70013038351999
 20
-510.32475018673631
 30
0.0
 40
0.5924627422158862
 50
281.23310362266398
 51
306.86200889407178
  0
ARC
  5
137
  8
DATA
  6
CONTINUOUS
 62
     7
 10
-605.46153118185612
 20
-508.84788242712341
 30
0.0
 40
0.1912698688911479
 50
5.7329807106295547
 51
52.358097502404938
  0
ARC
  5
138
  8
DATA
  6
CONTINUOUS
 62
     7
 10
-605.81831272243801
 20
-509.61530877635209
 30
0.0
 40
1.052232272029088
 50
77.173517193128006
 51
90.348780062383597
  0
ARC
  5
139
  8
DATA
  6
CONTINUOUS
 62
     7
 10
-605.70013038351999
 20
-509.17044581326371
 30
0.0
 40
0.5924627422159853
 50
53.137991105934752
 51
78.766896377338114
  0
ARC
  5
13A
  8
DATA
  6
CONTINUOUS
 62
     7
 10
-604.78909399999998
 20
-508.9787280000001
 30
0.0
 40
0.5819328983482417
 50
3.8670063598268238
 51
88.361634567895067
  0
ARC
  5
13B
  8
DATA
  6
CONTINUOUS
 62
     7
 10
-604.78962799999988
 20
-507.81477599999999
 30
0.0
 40
0.582511163968464
 50
271.68928210464469
 51
356.07828298265821
  0
ARC
  5
13C
  8
DATA
  6
CONTINUOUS
 62
     7
 10
-605.46153118185612
 20
-507.70266957287652
 30
0.0
 40
0.1912698688911415
 50
307.64190249759508
 51
354.2670192894044
  0
ARC
  5
13D
  8
DATA
  6
CONTINUOUS
 62
     7
 10
-605.81831272243801
 20
-506.93524322364777
 30
0.0
 40
1.0522322720289869
 50
269.65121993761642
 51
282.82648280687198
  0
ARC
  5
13E
  8
DATA
  6
CONTINUOUS
 62
     7
 10
-605.70013038351999
 20
-507.38010618673621
 30
0.0
 40
0.5924627422159976
 50
281.23310362266199
 51
306.8620088940653
  0
ARC
  5
13F
  8
DATA
  6
CONTINUOUS
 62
     7
 10
-605.46153118185612
 20
-506.34604442712339
 30
0.0
 40
0.1912698688911365
 50
5.7329807105956707
 51
52.358097502404938
  0
ARC
  5
140
  8
DATA
  6
CONTINUOUS
 62
     7
 10
-605.81831272243801
 20
-507.11347077635207
 30
0.0
 40
1.052232272029088
 50
77.173517193128006
 51
90.348780062383597
  0
ARC
  5
141
  8
DATA
  6
CONTINUOUS
 62
     7
 10
-605.70013038351999
 20
-506.66860781326369
 30
0.0
 40
0.5924627422159853
 50
53.137991105934752
 51
78.766896377338114
  0
TEXT
  5
142
  8
DATA
 62
     7
 10
-611.85494791666667
 20
-518.51953125
 30
0.0
 40
1.5390625
  1
PROFESSIONAL
 41
0.7
 72
     1
 11
-605.75
 21
-517.75
 31
0.0
 73
     2
  0
LINE
  5
143
  8
DATA
  6
CONTINUOUS
 62
     7
 10
-448.14999999999992
 20
-502.0
 30
0.0
 11
-585.14999999999986
 21
-502.0
 31
0.0
  0
LINE
  5
144
  8
DATA
  6
CONTINUOUS
 62
     7
 10
-585.14999999999986
 20
-493.0
 30
0.0
 11
-448.14999999999992
 21
-493.0
 31
0.0
  0
ARC
  5
145
  8
DATA
  6
CONTINUOUS
 62
     7
 10
-585.14999999999986
 20
-497.5
 30
0.0
 40
4.5
 50
90.0
 51
270.0
  0
ARC
  5
146
  8
DATA
  6
CONTINUOUS
 62
     7
 10
-448.14999999999992
 20
-497.5
 30
0.0
 40
4.5
 50
270.0
 51
90.0
  0
LINE
  5
147
  8
DATA
  6
CONTINUOUS
 62
     7
 10
-583.14999999999998
 20
-498.0
 30
0.0
 11
-583.14999999999998
 21
-501.0
 31
0.0
  0
LINE
  5
148
  8
DATA
  6
CONTINUOUS
 62
     7
 10
-572.14999999999986
 20
-498.0
 30
0.0
 11
-572.14999999999986
 21
-501.0
 31
0.0
  0
LINE
  5
149
  8
DATA
  6
CONTINUOUS
 62
     7
 10
-541.64999999999998
 20
-498.0
 30
0.0
 11
-541.64999999999998
 21
-501.0
 31
0.0
  0
LINE
  5
14A
  8
DATA
  6
CONTINUOUS
 62
     7
 10
-521.14999999999998
 20
-498.0
 30
0.0
 11
-521.14999999999998
 21
-501.0
 31
0.0
  0
LINE
  5
14B
  8
DATA
  6
CONTINUOUS
 62
     7
 10
-500.64999999999992
 20
-498.0
 30
0.0
 11
-500.64999999999992
 21
-501.0
 31
0.0
  0
LINE
  5
14C
  8
DATA
  6
CONTINUOUS
 62
     7
 10
-479.64999999999992
 20
-498.0
 30
0.0
 11
-479.64999999999992
 21
-501.0
 31
0.0
  0
LINE
  5
14D
  8
DATA
  6
CONTINUOUS
 62
     7
 10
-459.14999999999992
 20
-498.0
 30
0.0
 11
-459.14999999999992
 21
-501.0
 31
0.0
  0
TEXT
  5
14E
  8
DATA
 62
     7
 10
-584.49667968749998
 20
-497.26953124999989
 30
0.0
 40
1.5390625
  1
-60
 41
0.7
 72
     1
 11
-583.14999999999998
 21
-496.49999999999989
 31
0.0
 73
     2
  0
TEXT
  5
14F
  8
DATA
 62
     7
 10
-573.49667968749986
 20
-497.26953124999989
 30
0.0
 40
1.5390625
  1
-30
 41
0.7
 72
     1
 11
-572.14999999999986
 21
-496.49999999999989
 31
0.0
 73
     2
  0
TEXT
  5
150
  8
DATA
 62
     7
 10
-542.99667968749998
 20
-497.26953124999989
 30
0.0
 40
1.5390625
  1
-20
 41
0.7
 72
     1
 11
-541.64999999999998
 21
-496.49999999999989
 31
0.0
 73
     2
  0
TEXT
  5
151
  8
DATA
 62
     7
 10
-522.40690104166663
 20
-497.26953124999989
 30
0.0
 40
1.5390625
  1
-15
 41
0.7
 72
     1
 11
-521.14999999999998
 21
-496.49999999999989
 31
0.0
 73
     2
  0
TEXT
  5
152
  8
DATA
 62
     7
 10
-501.81712239583328
 20
-497.26953124999989
 30
0.0
 40
1.5390625
  1
-10
 41
0.7
 72
     1
 11
-500.64999999999992
 21
-496.49999999999989
 31
0.0
 73
     2
  0
TEXT
  5
153
  8
DATA
 62
     7
 10
-480.54778645833318
 20
-497.26953124999989
 30
0.0
 40
1.5390625
  1
-5
 41
0.7
 72
     1
 11
-479.64999999999992
 21
-496.49999999999989
 31
0.0
 73
     2
  0
TEXT
  5
154
  8
DATA
 62
     7
 10
-459.41933593749991
 20
-497.26953124999989
 30
0.0
 40
1.5390625
  1
0
 41
0.7
 72
     1
 11
-459.14999999999992
 21
-496.49999999999989
 31
0.0
 73
     2
  0
ARC
  5
155
  8
DATA
  6
CONTINUOUS
 62
     7
 10
-585.0
 20
-510.0
 30
0.0
 40
1.7500000000001421
 50
124.8499045790432
 51
55.150095420956752
  0
LINE
  5
156
  8
DATA
  6
CONTINUOUS
 62
     7
 10
-585.0
 20
-511.0
 30
0.0
 11
-585.0
 21
-508.0
 31
0.0
  0
TEXT
  5
157
  8
DATA
 62
     7
 10
-564.96891276041663
 20
-510.9619140625
 30
0.0
 40
1.923828125
  1
SOLO
 41
0.7
 72
     1
 11
-562.5
 21
-510.0
 31
0.0
 73
     2
  0
TEXT
  5
158
  8
DATA
 62
     7
 10
-544.79557291666663
 20
-510.9619140625
 30
0.0
 40
1.923828125
  1
RMC
 41
0.7
 72
     1
 11
-543.0
 21
-510.0
 31
0.0
 73
     2
  0
TEXT
  5
159
  8
DATA
 62
     7
 10
-526.87291666666658
 20
-510.9619140625
 30
0.0
 40
1.923828125
  1
EQ ON
 41
0.7
 72
     1
 11
-524.0
 21
-510.0
 31
0.0
 73
     2
  0
TEXT
  5
15A
  8
DATA
 62
     7
 10
-506.12223307291657
 20
-510.9619140625
 30
0.0
 40
1.923828125
  1
LF
 41
0.7
 72
     1
 11
-505.0
 21
-510.0
 31
0.0
 73
     2
  0
TEXT
  5
15B
  8
DATA
 62
     7
 10
-487.12223307291669
 20
-510.9619140625
 30
0.0
 40
1.923828125
  1
HF
 41
0.7
 72
     1
 11
-486.0
 21
-510.0
 31
0.0
 73
     2
  0
TEXT
  5
15C
  8
DATA
 62
     7
 10
-469.64225260416669
 20
-510.9619140625
 30
0.0
 40
1.923828125
  1
RESET
 41
0.7
 72
     1
 11
-466.5
 21
-510.0
 31
0.0
 73
     2
  0
TEXT
  5
15D
  8
DATA
 62
     7
 10
-450.41780598958331
 20
-510.9619140625
 30
0.0
 40
1.923828125
  1
INPUT
 41
0.7
 72
     1
 11
-447.5
 21
-510.0
 31
0.0
 73
     2
  0
CIRCLE
  5
15E
  8
DATA
  6
CONTINUOUS
 62
     7
 10
-424.5
 20
-509.49999999999989
 30
0.0
 40
4.0
  0
CIRCLE
  5
15F
  8
DATA
  6
CONTINUOUS
 62
     7
 10
-424.5
 20
-509.49999999999989
 30
0.0
 40
5.75
  0
CIRCLE
  5
160
  8
DATA
  6
CONTINUOUS
 62
     7
 10
-424.5
 20
-491.5
 30
0.0
 40
4.0
  0
CIRCLE
  5
161
  8
DATA
  6
CONTINUOUS
 62
     7
 10
-424.5
 20
-491.5
 30
0.0
 40
5.75
  0
LINE
  5
162
  8
DATA
  6
CONTINUOUS
 62
     7
 10
-426.49999999999989
 20
-509.49999999999989
 30
0.0
 11
-422.49999999999989
 21
-509.49999999999989
 31
0.0
  0
LINE
  5
163
  8
DATA
  6
CONTINUOUS
 62
     7
 10
-426.49999999999989
 20
-491.5
 30
0.0
 11
-422.49999999999989
 21
-491.5
 31
0.0
  0
LINE
  5
164
  8
DATA
  6
CONTINUOUS
 62
     7
 10
-424.5
 20
-493.5
 30
0.0
 11
-424.5
 21
-489.5
 31
0.0
  0
LINE
  5
165
  8
DATA
  6
CONTINUOUS
 62
     7
 10
-424.5
 20
-497.25
 30
0.0
 11
-424.5
 21
-503.75
 31
0.0
  0
LINE
  5
166
  8
DATA
  6
CONTINUOUS
 62
     7
 10
-453.24999999999989
 20
-510.0
 30
0.0
 11
-460.74999999999989
 21
-510.0
 31
0.0
  0
LINE
  5
167
  8
DATA
  6
CONTINUOUS
 62
     7
 10
-472.25
 20
-510.0
 30
0.0
 11
-480.25
 21
-510.0
 31
0.0
  0
LINE
  5
168
  8
DATA
  6
CONTINUOUS
 62
     7
 10
-491.75
 20
-510.0
 30
0.0
 11
-499.24999999999989
 21
-510.0
 31
0.0
  0
LINE
  5
169
  8
DATA
  6
CONTINUOUS
 62
     7
 10
-510.74999999999989
 20
-510.0
 30
0.0
 11
-518.25
 21
-510.0
 31
0.0
  0
LINE
  5
16A
  8
DATA
  6
CONTINUOUS
 62
     7
 10
-529.75
 20
-510.0
 30
0.0
 11
-537.25
 21
-510.0
 31
0.0
  0
LINE
  5
16B
  8
DATA
  6
CONTINUOUS
 62
     7
 10
-548.74999999999989
 20
-510.0
 30
0.0
 11
-556.74999999999989
 21
-510.0
 31
0.0
  0
LINE
  5
16C
  8
DATA
  6
CONTINUOUS
 62
     7
 10
-579.25
 20
-510.0
 30
0.0
 11
-568.25
 21
-510.0
 31
0.0
  0
LINE
  5
16D
  8
DATA
  6
CONTINUOUS
 62
     7
 10
-381.80000000000001
 20
-196.0
 30
0.0
 11
-383.30000000000001
 21
-196.0
 31
0.0
  0
LINE
  5
16E
  8
DATA
  6
CONTINUOUS
 62
     7
 10
-381.80000000000001
 20
-301.0
 30
0.0
 11
-383.30000000000001
 21
-301.0
 31
0.0
  0
ARC
  5
16F
  8
DATA
  6
CONTINUOUS
 62
     7
 10
-680.92981927710161
 20
-251.0
 30
0.0
 40
303.27981927710192
 50
350.51065142110991
 51
360.0
  0
LINE
  5
170
  8
DATA
  6
CONTINUOUS
 62
     7
 10
-377.84248320188482
 20
-240.00000000000111
 30
0.0
 11
-377.64999999999992
 21
-251.0000000000004
 31
0.0
  0
ARC
  5
171
  8
DATA
  6
CONTINUOUS
 62
     7
 10
-718.92277128723686
 20
-248.5
 30
0.0
 40
341.18618512534579
 50
1.4275622509859429
 51
8.8515516595627126
  0
LINE
  5
172
  8
DATA
  6
CONTINUOUS
 62
     7
 10
-651.5
 20
-196.0
 30
0.0
 11
-650.0
 21
-196.0
 31
0.0
  0
LINE
  5
173
  8
DATA
  6
CONTINUOUS
 62
     7
 10
-651.5
 20
-301.0
 30
0.0
 11
-650.0
 21
-301.0
 31
0.0
  0
ARC
  5
174
  8
DATA
  6
CONTINUOUS
 62
     7
 10
-352.37018072289823
 20
-251.0
 30
0.0
 40
303.27981927710192
 50
180.0
 51
189.4893485788902
  0
LINE
  5
175
  8
DATA
  6
CONTINUOUS
 62
     7
 10
-655.45751679811519
 20
-240.00000000000111
 30
0.0
 11
-655.6500000000002
 21
-251.0000000000004
 31
0.0
  0
ARC
  5
176
  8
DATA
  6
CONTINUOUS
 62
     7
 10
-314.37722871276293
 20
-248.5
 30
0.0
 40
341.18618512534579
 50
171.14844834043731
 51
178.57243774901411
  0
ARC
  5
177
  8
DATA
  6
CONTINUOUS
 62
     7
 10
-644.0
 20
-117.84999999999999
 30
0.0
 40
6.0
 50
90.0
 51
180.0
  0
ARC
  5
178
  8
DATA
  6
CONTINUOUS
 62
     7
 10
-389.30000000000001
 20
-117.84999999999999
 30
0.0
 40
6.0
 50
0.0
 51
90.0
  0
ARC
  5
179
  8
DATA
  6
CONTINUOUS
 62
     7
 10
-389.30000000000001
 20
-544.0
 30
0.0
 40
6.0
 50
270.0
 51
0.0
  0
ARC
  5
17A
  8
DATA
  6
CONTINUOUS
 62
     7
 10
-644.0
 20
-544.0
 30
0.0
 40
6.0
 50
180.0
 51
270.0
  0
ARC
  5
17B
  8
DATA
  6
CONTINUOUS
 62
     7
 10
-644.0
 20
242.0
 30
0.0
 40
6.0
 50
90.0
 51
180.0
  0
ARC
  5
17C
  8
DATA
  6
CONTINUOUS
 62
     7
 10
-389.30000000000001
 20
242.0
 30
0.0
 40
6.0
 50
0.0
 51
90.0
  0
ARC
  5
17D
  8
DATA
  6
CONTINUOUS
 62
     7
 10
-389.29999999999978
 20
-17.0
 30
0.0
 40
5.9999999999997726
 50
328.72091247045711
 51
0.0
  0
ARC
  5
17E
  8
DATA
  6
CONTINUOUS
 62
     7
 10
-437.97924060375368
 20
12.814915163633909
 30
0.0
 40
63.08409209270112
 50
298.73601645883338
 51
328.53321724974222
  0
ARC
  5
17F
  8
DATA
  6
CONTINUOUS
 62
     7
 10
-644.00000000000045
 20
-17.0
 30
0.0
 40
5.9999999999997717
 50
180.0
 51
211.2790875295434
  0
ARC
  5
180
  8
DATA
  6
CONTINUOUS
 62
     7
 10
-595.32075939624644
 20
12.814915163633909
 30
0.0
 40
63.084092092701063
 50
211.46678275025781
 51
241.2639835411666
  0
LINE
  5
181
  8
DATA
  6
CONTINUOUS
 62
     7
 10
-381.80000000000001
 20
191.00000000000091
 30
0.0
 11
-383.30000000000001
 21
191.00000000000091
 31
0.0
  0
LINE
  5
182
  8
DATA
  6
CONTINUOUS
 62
     7
 10
-381.80000000000001
 20
31.999999999999041
 30
0.0
 11
-383.30000000000001
 21
31.999999999999041
 31
0.0
  0
ARC
  5
183
  8
DATA
  6
CONTINUOUS
 62
     7
 10
-1141.2009036144591
 20
111.5
 30
0.0
 40
763.55090361445923
 50
354.02360104471109
 51
5.9763989552887429
  0
LINE
  5
184
  8
DATA
  6
CONTINUOUS
 62
     7
 10
-651.5
 20
191.00000000000091
 30
0.0
 11
-650.0
 21
191.00000000000091
 31
0.0
  0
LINE
  5
185
  8
DATA
  6
CONTINUOUS
 62
     7
 10
-651.5
 20
31.999999999999041
 30
0.0
 11
-650.0
 21
31.999999999999041
 31
0.0
  0
ARC
  5
186
  8
DATA
  6
CONTINUOUS
 62
     7
 10
107.9009036144591
 20
111.5
 30
0.0
 40
763.55090361445923
 50
174.0236010447112
 51
185.97639895528869
  0
LINE
  5
187
  8
DATA
  6
CONTINUOUS
 62
     7
 10
92.0
 20
-550.0
 30
0.0
 11
-167.0
 21
-550.0
 31
0.0
  0
LINE
  5
188
  8
DATA
  6
CONTINUOUS
 62
     7
 10
98.0
 20
-117.84999999999999
 30
0.0
 11
98.0
 21
-544.0
 31
0.0
  0
LINE
  5
189
  8
DATA
  6
CONTINUOUS
 62
     7
 10
-167.0
 20
-111.84999999999999
 30
0.0
 11
92.0
 21
-111.84999999999999
 31
0.0
  0
LINE
  5
18A
  8
DATA
  6
CONTINUOUS
 62
     7
 10
-163.0
 20
-550.0
 30
0.0
 11
-163.0
 21
-111.84999999999999
 31
0.0
  0
LINE
  5
18B
  8
DATA
  6
CONTINUOUS
 62
     7
 10
-162.0
 20
-550.0
 30
0.0
 11
-162.0
 21
-111.84999999999999
 31
0.0
  0
LINE
  5
18C
  8
DATA
  6
CONTINUOUS
 62
     7
 10
-167.0
 20
-550.0
 30
0.0
 11
-167.0
 21
-111.84999999999999
 31
0.0
  0
LINE
  5
18D
  8
DATA
  6
CONTINUOUS
 62
     7
 10
-200.0
 20
-126.42500000000079
 30
0.0
 11
-200.0
 21
-535.42500000000075
 31
0.0
  0
ARC
  5
18E
  8
DATA
  6
CONTINUOUS
 62
     7
 10
-138.3809863141941
 20
-197.70020506419399
 30
0.0
 40
90.494782467899824
 50
108.43631749912269
 51
132.91497736256389
  0
ARC
  5
18F
  8
DATA
  6
CONTINUOUS
 62
     7
 10
-37.634593545568208
 20
-278.4419407186295
 30
0.0
 40
0.5738096066731436
 50
307.64190249757729
 51
354.26701928939087
  0
LINE
  5
190
  8
DATA
  6
CONTINUOUS
 62
     7
 10
-52.373589999999993
 20
-269.39963
 30
0.0
 11
-49.683562000000002
 21
-262.99004600000001
 31
0.0
  0
LINE
  5
191
  8
DATA
  6
CONTINUOUS
 62
     7
 10
-52.373589999999993
 20
-269.39963
 30
0.0
 11
-55.030426000000013
 21
-262.99004600000001
 31
0.0
  0
LINE
  5
192
  8
DATA
  6
CONTINUOUS
 62
     7
 10
-31.982469999999989
 20
-280.99004600000001
 30
0.0
 11
-31.982469999999989
 21
-262.99004600000001
 31
0.0
  0
LINE
  5
193
  8
DATA
  6
CONTINUOUS
 62
     7
 10
-28.528593999999998
 20
-262.99004600000001
 30
0.0
 11
-28.528593999999998
 21
-278.23359799999997
 31
0.0
  0
LINE
  5
194
  8
DATA
  6
CONTINUOUS
 62
     7
 10
-48.421563999999996
 20
-262.99004600000001
 30
0.0
 11
-48.421563999999996
 21
-278.23359799999997
 31
0.0
  0
LINE
  5
195
  8
DATA
  6
CONTINUOUS
 62
     7
 10
-45.10052799999999
 20
-262.99004600000001
 30
0.0
 11
-45.10052799999999
 21
-278.23359799999997
 31
0.0
  0
LINE
  5
196
  8
DATA
  6
CONTINUOUS
 62
     7
 10
-43.373589999999993
 20
-262.99004600000001
 30
0.0
 11
-43.373589999999993
 21
-280.99004600000001
 31
0.0
  0
LINE
  5
197
  8
DATA
  6
CONTINUOUS
 62
     7
 10
-40.351444000000001
 20
-264.68375600000002
 30
0.0
 11
-40.351444000000001
 21
-270.46236800000003
 31
0.0
  0
LINE
  5
198
  8
DATA
  6
CONTINUOUS
 62
     7
 10
-33.873999999999988
 20
-270.1280000000001
 30
0.0
 11
-33.873999999999988
 21
-265.91256199999998
 31
0.0
  0
LINE
  5
199
  8
DATA
  6
CONTINUOUS
 62
     7
 10
-37.063654
 20
-265.48081400000001
 30
0.0
 11
-37.063654
 21
-269.66532799999999
 31
0.0
  0
ARC
  5
19A
  8
DATA
  6
CONTINUOUS
 62
     7
 10
-49.087995999999997
 20
-276.36800599999998
 30
0.0
 40
4.6419361653021607
 50
264.69085622153551
 51
323.99119915424222
  0
LINE
  5
19B
  8
DATA
  6
CONTINUOUS
 62
     7
 10
-50.94554200000001
 20
-275.34427399999998
 30
0.0
 11
-50.94554200000001
 21
-278.23356200000001
 31
0.0
  0
LINE
  5
19C
  8
DATA
  6
CONTINUOUS
 62
     7
 10
-50.94554200000001
 20
-275.34427399999998
 30
0.0
 11
-53.934477999999999
 21
-275.34427399999998
 31
0.0
  0
LINE
  5
19D
  8
DATA
  6
CONTINUOUS
 62
     7
 10
-53.934477999999999
 20
-275.34427399999998
 30
0.0
 11
-53.934477999999999
 21
-278.23356200000001
 31
0.0
  0
ARC
  5
19E
  8
DATA
  6
CONTINUOUS
 62
     7
 10
-49.67722599999999
 20
-278.272514
 30
0.0
 40
1.256271887236206
 50
269.71184879275052
 51
1.775987005688364
  0
ARC
  5
19F
  8
DATA
  6
CONTINUOUS
 62
     7
 10
-49.689880000000002
 20
-278.272514
 30
0.0
 40
1.256265463427219
 50
178.22401299431181
 51
270.2881512072496
  0
ARC
  5
1A0
  8
DATA
  6
CONTINUOUS
 62
     7
 10
-49.947010000000013
 20
-276.36800599999998
 30
0.0
 40
4.6419286265038231
 50
216.00880084575749
 51
275.30914377846477
  0
ARC
  5
1A1
  8
DATA
  6
CONTINUOUS
 62
     7
 10
-51.836686
 20
-278.13180799999998
 30
0.0
 40
2.1002403747171439
 50
182.77699544999439
 51
207.35960666714971
  0
CIRCLE
  5
1A2
  8
DATA
  6
CONTINUOUS
 62
     7
 10
-52.19092599999999
 20
-271.89041600000002
 30
0.0
 40
1.7103239999999851
  0
LINE
  5
1A3
  8
DATA
  6
CONTINUOUS
 62
     7
 10
-22.98247000000001
 20
-280.990028
 30
0.0
 11
-31.982469999999989
 21
-280.990028
 31
0.0
  0
LINE
  5
1A4
  8
DATA
  6
CONTINUOUS
 62
     7
 10
-22.98247000000001
 20
-280.990028
 30
0.0
 11
-22.98247000000001
 21
-275.34425599999997
 31
0.0
  0
LINE
  5
1A5
  8
DATA
  6
CONTINUOUS
 62
     7
 10
-22.98247000000001
 20
-275.34427399999998
 30
0.0
 11
-26.004598000000001
 21
-275.34427399999998
 31
0.0
  0
LINE
  5
1A6
  8
DATA
  6
CONTINUOUS
 62
     7
 10
-26.004598000000001
 20
-275.34427399999998
 30
0.0
 11
-26.004598000000001
 21
-278.23356200000001
 31
0.0
  0
LINE
  5
1A7
  8
DATA
  6
CONTINUOUS
 62
     7
 10
-43.373589999999993
 20
-280.990028
 30
0.0
 11
-37.063654
 21
-280.99000999999998
 31
0.0
  0
LINE
  5
1A8
  8
DATA
  6
CONTINUOUS
 62
     7
 10
-40.351461999999991
 20
-279.29629999999997
 30
0.0
 11
-38.724153999999999
 21
-279.29629999999997
 31
0.0
  0
LINE
  5
1A9
  8
DATA
  6
CONTINUOUS
 62
     7
 10
-40.351444000000001
 20
-279.29629999999997
 30
0.0
 11
-40.351444000000001
 21
-272.18928799999998
 31
0.0
  0
LINE
  5
1AA
  8
DATA
  6
CONTINUOUS
 62
     7
 10
-40.351461999999991
 20
-272.18928799999998
 30
0.0
 11
-38.724153999999999
 21
-272.18928799999998
 31
0.0
  0
LINE
  5
1AB
  8
DATA
  6
CONTINUOUS
 62
     7
 10
-37.063654
 20
-278.49926000000011
 30
0.0
 11
-37.063654
 21
-272.98632800000001
 31
0.0
  0
ARC
  5
1AC
  8
DATA
  6
CONTINUOUS
 62
     7
 10
-47.198320000000002
 20
-278.13180799999998
 30
0.0
 40
2.1002373861571209
 50
332.64039333284938
 51
357.22300455000669
  0
ARC
  5
1AD
  8
DATA
  6
CONTINUOUS
 62
     7
 10
-27.26027800000001
 20
-278.272514
 30
0.0
 40
1.256271887236206
 50
269.7118487927512
 51
1.7759870056884199
  0
ARC
  5
1AE
  8
DATA
  6
CONTINUOUS
 62
     7
 10
-27.272914
 20
-278.272514
 30
0.0
 40
1.256265463427219
 50
178.22401299431181
 51
270.2881512072488
  0
LINE
  5
1AF
  8
DATA
  6
CONTINUOUS
 62
     7
 10
-33.875458000000002
 20
-278.10072200000002
 30
0.0
 11
-33.875458000000002
 21
-273.31844599999999
 31
0.0
  0
LINE
  5
1B0
  8
DATA
  6
CONTINUOUS
 62
     7
 10
-40.351461999999991
 20
-270.46236800000003
 30
0.0
 11
-38.724153999999999
 21
-270.46236800000003
 31
0.0
  0
ARC
  5
1B1
  8
DATA
  6
CONTINUOUS
 62
     7
 10
-37.292470000000002
 20
-277.57296200000002
 30
0.0
 40
3.424700541092629
 50
273.83098160911482
 51
351.13514730980211
  0
LINE
  5
1B2
  8
DATA
  6
CONTINUOUS
 62
     7
 10
-48.421563999999996
 20
-262.99004600000001
 30
0.0
 11
-45.10052799999999
 21
-262.99004600000001
 31
0.0
  0
LINE
  5
1B3
  8
DATA
  6
CONTINUOUS
 62
     7
 10
-55.030426000000013
 20
-262.99004600000001
 30
0.0
 11
-49.683562000000002
 21
-262.99004600000001
 31
0.0
  0
LINE
  5
1B4
  8
DATA
  6
CONTINUOUS
 62
     7
 10
-31.982469999999989
 20
-262.99004600000001
 30
0.0
 11
-28.528593999999998
 21
-262.99004600000001
 31
0.0
  0
LINE
  5
1B5
  8
DATA
  6
CONTINUOUS
 62
     7
 10
-43.373589999999993
 20
-262.99004600000001
 30
0.0
 11
-37.028967769336013
 21
-262.9900605687327
 31
0.0
  0
LINE
  5
1B6
  8
DATA
  6
CONTINUOUS
 62
     7
 10
-40.351461999999991
 20
-264.68377400000003
 30
0.0
 11
-38.724153999999999
 21
-264.68377400000003
 31
0.0
  0
ARC
  5
1B7
  8
DATA
  6
CONTINUOUS
 62
     7
 10
-37.258324000000002
 20
-266.40187400000002
 30
0.0
 40
3.419513879240744
 50
8.2269238590164662
 51
86.154126692153156
  0
ARC
  5
1B8
  8
DATA
  6
CONTINUOUS
 62
     7
 10
-38.704938167314182
 20
-276.1396616709435
 30
0.0
 40
3.156696816087075
 50
269.65121993761721
 51
282.82648280687317
  0
ARC
  5
1B9
  8
DATA
  6
CONTINUOUS
 62
     7
 10
-38.350391150559972
 20
-277.47425056020882
 30
0.0
 40
1.7773882266477421
 50
281.2331036226588
 51
306.86200889406308
  0
ARC
  5
1BA
  8
DATA
  6
CONTINUOUS
 62
     7
 10
-37.634593545568208
 20
-273.04364728137051
 30
0.0
 40
0.5738096066732088
 50
5.7329807106090911
 51
52.358097502422723
  0
ARC
  5
1BB
  8
DATA
  6
CONTINUOUS
 62
     7
 10
-38.704938167314182
 20
-275.34592632905651
 30
0.0
 40
3.156696816087158
 50
77.173517193127296
 51
90.348780062382843
  0
ARC
  5
1BC
  8
DATA
  6
CONTINUOUS
 62
     7
 10
-38.350391150559972
 20
-274.01133743979119
 30
0.0
 40
1.7773882266477621
 50
53.137991105936948
 51
78.766896377341865
  0
ARC
  5
1BD
  8
DATA
  6
CONTINUOUS
 62
     7
 10
-35.61728200000001
 20
-273.43618400000003
 30
0.0
 40
1.745798695044773
 50
3.8670063598229749
 51
88.361634567898236
  0
ARC
  5
1BE
  8
DATA
  6
CONTINUOUS
 62
     7
 10
-35.618884000000008
 20
-269.94432799999998
 30
0.0
 40
1.747533491905622
 50
271.68928210464873
 51
356.07828298265798
  0
ARC
  5
1BF
  8
DATA
  6
CONTINUOUS
 62
     7
 10
-37.634593545568208
 20
-269.60800871862949
 30
0.0
 40
0.5738096066731436
 50
307.64190249757729
 51
354.26701928939087
  0
ARC
  5
1C0
  8
DATA
  6
CONTINUOUS
 62
     7
 10
-38.704938167314182
 20
-267.30572967094338
 30
0.0
 40
3.156696816087075
 50
269.65121993761721
 51
282.82648280687272
  0
ARC
  5
1C1
  8
DATA
  6
CONTINUOUS
 62
     7
 10
-38.350391150559972
 20
-268.64031856020881
 30
0.0
 40
1.7773882266478529
 50
281.23310362265818
 51
306.86200889406308
  0
ARC
  5
1C2
  8
DATA
  6
CONTINUOUS
 62
     7
 10
-37.634593545568208
 20
-265.53813328137039
 30
0.0
 40
0.5738096066732088
 50
5.7329807106090911
 51
52.358097502429658
  0
ARC
  5
1C3
  8
DATA
  6
CONTINUOUS
 62
     7
 10
-38.704938167314182
 20
-267.84041232905662
 30
0.0
 40
3.156696816087158
 50
77.173517193127296
 51
90.348780062382843
  0
ARC
  5
1C4
  8
DATA
  6
CONTINUOUS
 62
     7
 10
-38.350391150559972
 20
-266.50582343979119
 30
0.0
 40
1.7773882266478529
 50
53.13799110593915
 51
78.766896377341865
  0
ARC
  5
1C5
  8
DATA
  6
CONTINUOUS
 62
     7
 10
-38.5
 20
-48.5
 30
0.0
 40
252.5
 50
256.6831890950786
 51
283.3168109049214
  0
ARC
  5
1C6
  8
DATA
  6
CONTINUOUS
 62
     7
 10
-58.999999999999048
 20
-240.00000000000111
 30
0.0
 40
100.0
 50
332.22203753681617
 51
15.24837531865626
  0
ARC
  5
1C7
  8
DATA
  6
CONTINUOUS
 62
     7
 10
16.204625070079331
 20
-279.61394158713603
 30
0.0
 40
14.999999999999909
 50
283.31681090492202
 51
332.22203753681691
  0
ARC
  5
1C8
  8
DATA
  6
CONTINUOUS
 62
     7
 10
-18.000000000000959
 20
-240.00000000000111
 30
0.0
 40
100.0
 50
164.751624681344
 51
207.7779624631838
  0
ARC
  5
1C9
  8
DATA
  6
CONTINUOUS
 62
     7
 10
-93.204625070079345
 20
-279.61394158713603
 30
0.0
 40
15.000000000000041
 50
207.7779624631832
 51
256.68318909507798
  0
ARC
  5
1CA
  8
DATA
  6
CONTINUOUS
 62
     7
 10
-38.499999999999048
 20
-499.00000000000011
 30
0.0
 40
303.00000000000011
 50
77.668477039750229
 51
102.3315229602501
  0
ARC
  5
1CB
  8
DATA
  6
CONTINUOUS
 62
     7
 10
-100.0075564669618
 20
-217.64467217153421
 30
0.0
 40
15.00000000000002
 50
102.3315229602502
 51
164.75162468134391
  0
ARC
  5
1CC
  8
DATA
  6
CONTINUOUS
 62
     7
 10
23.00755646696161
 20
-217.6446721715341
 30
0.0
 40
15.00000000000019
 50
15.24837531865678
 51
77.668477039749845
  0
ARC
  5
1CD
  8
DATA
  6
CONTINUOUS
 62
     7
 10
-38.5
 20
-513.54166666666652
 30
0.0
 40
302.54166666666657
 50
82.187243335358218
 51
97.812756664641725
  0
ARC
  5
1CE
  8
DATA
  6
CONTINUOUS
 62
     7
 10
-38.5
 20
51.541666666666629
 30
0.0
 40
302.54166666666657
 50
262.18724333535818
 51
277.81275666464182
  0
ARC
  5
1CF
  8
DATA
  6
CONTINUOUS
 62
     7
 10
-38.5
 20
-476.04166666666657
 30
0.0
 40
261.54166666666652
 50
80.723559237092445
 51
99.276440762907626
  0
ARC
  5
1D0
  8
DATA
  6
CONTINUOUS
 62
     7
 10
-38.5
 20
14.041666666666631
 30
0.0
 40
261.54166666666657
 50
260.72355923709239
 51
279.2764407629075
  0
ARC
  5
1D1
  8
DATA
  6
CONTINUOUS
 62
     7
 10
-17.0
 20
-231.0
 30
0.0
 40
26.0
 50
335.4752696723092
 51
24.524730327691369
  0
ARC
  5
1D2
  8
DATA
  6
CONTINUOUS
 62
     7
 10
-34.5625
 20
-231.0
 30
0.0
 40
46.5625
 50
348.50780229639707
 51
11.492197703602979
  0
ARC
  5
1D3
  8
DATA
  6
CONTINUOUS
 62
     7
 10
-60.000000000000092
 20
-231.0
 30
0.0
 40
26.0
 50
155.4752696723086
 51
204.5247303276914
  0
ARC
  5
1D4
  8
DATA
  6
CONTINUOUS
 62
     7
 10
-42.437500000000092
 20
-231.0
 30
0.0
 40
46.562499999999972
 50
168.50780229639699
 51
191.49219770360321
  0
ARC
  5
1D5
  8
DATA
  6
CONTINUOUS
 62
     7
 10
1.2669893187439381
 20
-238.28451106169871
 30
0.0
 40
10.00000000000003
 50
277.81275666464188
 51
348.50780229639719
  0
ARC
  5
1D6
  8
DATA
  6
CONTINUOUS
 62
     7
 10
-78.266989318743782
 20
-238.28451106169871
 30
0.0
 40
10.0
 50
191.4921977036029
 51
262.18724333535818
  0
ARC
  5
1D7
  8
DATA
  6
CONTINUOUS
 62
     7
 10
1.2669893187439381
 20
-223.71548893830129
 30
0.0
 40
10.000000000000011
 50
11.492197703602891
 51
82.187243335358147
  0
ARC
  5
1D8
  8
DATA
  6
CONTINUOUS
 62
     7
 10
-78.266989318743782
 20
-223.71548893830129
 30
0.0
 40
10.00000000000003
 50
97.812756664641796
 51
168.5078022963971
  0
ARC
  5
1D9
  8
DATA
  6
CONTINUOUS
 62
     7
 10
-80.015208265387741
 20
-221.8681087340486
 30
0.0
 40
4.0000000000000284
 50
99.276440762907313
 51
155.47526967230789
  0
ARC
  5
1DA
  8
DATA
  6
CONTINUOUS
 62
     7
 10
-80.015208265387813
 20
-240.1318912659512
 30
0.0
 40
3.999999999999964
 50
204.5247303276941
 51
260.72355923709409
  0
ARC
  5
1DB
  8
DATA
  6
CONTINUOUS
 62
     7
 10
3.015208265387642
 20
-240.1318912659512
 30
0.0
 40
4.0000000000000364
 50
279.2764407629079
 51
335.47526967230982
  0
ARC
  5
1DC
  8
DATA
  6
CONTINUOUS
 62
     7
 10
3.0152082653879329
 20
-221.86810873404821
 30
0.0
 40
3.9999999999995421
 50
24.524730327687902
 51
80.723559237095984
  0
ARC
  5
1DD
  8
DATA
  6
CONTINUOUS
 62
     7
 10
92.0
 20
-117.84999999999999
 30
0.0
 40
6.0
 50
0.0
 51
90.0
  0
ARC
  5
1DE
  8
DATA
  6
CONTINUOUS
 62
     7
 10
92.0
 20
-544.0
 30
0.0
 40
6.0
 50
270.0
 51
0.0
  0
ARC
  5
1DF
  8
DATA
  6
CONTINUOUS
 62
     7
 10
-167.0
 20
-117.8500000000024
 30
0.0
 40
6.0000000000023874
 50
90.0
 51
101.7229586059884
  0
ARC
  5
1E0
  8
DATA
  6
CONTINUOUS
 62
     7
 10
-152.8321354062775
 20
-187.9914335634308
 30
0.0
 40
77.55793442357772
 50
101.4429951645451
 51
127.45679272638181
  0
ARC
  5
1E1
  8
DATA
  6
CONTINUOUS
 62
     7
 10
-138.3809863141941
 20
-464.1497949358058
 30
0.0
 40
90.494782467899824
 50
227.08502263743611
 51
251.56368250087729
  0
ARC
  5
1E2
  8
DATA
  6
CONTINUOUS
 62
     7
 10
-167.0
 20
-543.9999999999975
 30
0.0
 40
6.0000000000023324
 50
258.27704139401141
 51
270.0
  0
ARC
  5
1E3
  8
DATA
  6
CONTINUOUS
 62
     7
 10
-152.8321354062775
 20
-473.85856643656888
 30
0.0
 40
77.557934423577791
 50
232.54320727361821
 51
258.5570048354549
  0
LINE
  5
1E4
  8
DATA
  6
CONTINUOUS
 62
     7
 10
99.500000000000014
 20
-507.0
 30
0.0
 11
98.0
 21
-507.0
 31
0.0
  0
LINE
  5
1E5
  8
DATA
  6
CONTINUOUS
 62
     7
 10
99.500000000000014
 20
-152.0
 30
0.0
 11
98.0
 21
-152.0
 31
0.0
  0
LINE
  5
1E6
  8
DATA
  6
CONTINUOUS
 62
     7
 10
101.0
 20
-505.49999999999989
 30
0.0
 11
101.0
 21
-153.5
 31
0.0
  0
LINE
  5
1E7
  8
DATA
  6
CONTINUOUS
 62
     7
 10
102.5
 20
-161.75
 30
0.0
 11
101.0
 21
-161.75
 31
0.0
  0
LINE
  5
1E8
  8
DATA
  6
CONTINUOUS
 62
     7
 10
102.5
 20
-170.25
 30
0.0
 11
101.0
 21
-170.25
 31
0.0
  0
ARC
  5
1E9
  8
DATA
  6
CONTINUOUS
 62
     7
 10
97.229166666666643
 20
-166.0
 30
0.0
 40
6.770833333333341
 50
321.11993034364758
 51
38.880069656352362
  0
LINE
  5
1EA
  8
DATA
  6
CONTINUOUS
 62
     7
 10
102.5
 20
-321.25
 30
0.0
 11
101.0
 21
-321.25
 31
0.0
  0
LINE
  5
1EB
  8
DATA
  6
CONTINUOUS
 62
     7
 10
102.5
 20
-329.75
 30
0.0
 11
101.0
 21
-329.75
 31
0.0
  0
ARC
  5
1EC
  8
DATA
  6
CONTINUOUS
 62
     7
 10
97.229166666666643
 20
-325.5
 30
0.0
 40
6.770833333333341
 50
321.11993034364758
 51
38.880069656352362
  0
LINE
  5
1ED
  8
DATA
  6
CONTINUOUS
 62
     7
 10
102.5
 20
-493.25
 30
0.0
 11
101.0
 21
-493.25
 31
0.0
  0
LINE
  5
1EE
  8
DATA
  6
CONTINUOUS
 62
     7
 10
102.5
 20
-501.75
 30
0.0
 11
101.0
 21
-501.75
 31
0.0
  0
ARC
  5
1EF
  8
DATA
  6
CONTINUOUS
 62
     7
 10
97.229166666666643
 20
-497.5
 30
0.0
 40
6.770833333333341
 50
321.11993034364758
 51
38.880069656352362
  0
LINE
  5
1F0
  8
DATA
  6
CONTINUOUS
 62
     7
 10
115.5
 20
-349.0
 30
0.0
 11
115.5
 21
-193.0
 31
0.0
  0
LINE
  5
1F1
  8
DATA
  6
CONTINUOUS
 62
     7
 10
106.9833716837903
 20
-170.0
 30
0.0
 11
102.6921497370942
 21
-170.0
 31
0.0
  0
LINE
  5
1F2
  8
DATA
  6
CONTINUOUS
 62
     7
 10
106.9833716837903
 20
-372.0
 30
0.0
 11
101.0
 21
-372.0
 31
0.0
  0
ARC
  5
1F3
  8
DATA
  6
CONTINUOUS
 62
     7
 10
34.040533489013328
 20
-207.115507422804
 30
0.0
 40
82.673407054855275
 50
9.8307414225634577
 51
26.024683653804559
  0
ARC
  5
1F4
  8
DATA
  6
CONTINUOUS
 62
     7
 10
106.9833716837903
 20
-171.5
 30
0.0
 40
1.499999999999996
 50
26.024683653804281
 51
90.0
  0
ARC
  5
1F5
  8
DATA
  6
CONTINUOUS
 62
     7
 10
34.040533489013328
 20
-334.88449257719611
 30
0.0
 40
82.673407054855275
 50
333.97531634619543
 51
350.16925857743661
  0
ARC
  5
1F6
  8
DATA
  6
CONTINUOUS
 62
     7
 10
106.9833716837903
 20
-370.5
 30
0.0
 40
1.5
 50
270.0
 51
333.97531634619372
  0
LINE
  5
1F7
  8
DATA
  6
CONTINUOUS
 62
     7
 10
250.0
 20
-544.0
 30
0.0
 11
250.0
 21
-117.84999999999999
 31
0.0
  0
LINE
  5
1F8
  8
DATA
  6
CONTINUOUS
 62
     7
 10
510.69999999999999
 20
-550.0
 30
0.0
 11
256.0
 21
-550.0
 31
0.0
  0
LINE
  5
1F9
  8
DATA
  6
CONTINUOUS
 62
     7
 10
516.70000000000005
 20
-117.84999999999999
 30
0.0
 11
516.70000000000005
 21
-544.0
 31
0.0
  0
LINE
  5
1FA
  8
DATA
  6
CONTINUOUS
 62
     7
 10
256.0
 20
-111.84999999999999
 30
0.0
 11
510.69999999999999
 21
-111.84999999999999
 31
0.0
  0
LINE
  5
1FB
  8
DATA
  6
CONTINUOUS
 62
     7
 10
518.20000000000005
 20
-196.0
 30
0.0
 11
516.70000000000005
 21
-196.0
 31
0.0
  0
LINE
  5
1FC
  8
DATA
  6
CONTINUOUS
 62
     7
 10
518.20000000000005
 20
-301.0
 30
0.0
 11
516.70000000000005
 21
-301.0
 31
0.0
  0
ARC
  5
1FD
  8
DATA
  6
CONTINUOUS
 62
     7
 10
219.0701807228981
 20
-251.0
 30
0.0
 40
303.27981927710209
 50
350.51065142110991
 51
360.0
  0
LINE
  5
1FE
  8
DATA
  6
CONTINUOUS
 62
     7
 10
522.15751679811513
 20
-240.00000000000111
 30
0.0
 11
522.35000000000014
 21
-251.0000000000004
 31
0.0
  0
ARC
  5
1FF
  8
DATA
  6
CONTINUOUS
 62
     7
 10
181.0772287127628
 20
-248.5
 30
0.0
 40
341.18618512534579
 50
1.4275622509859429
 51
8.8515516595627126
  0
LINE
  5
200
  8
DATA
  6
CONTINUOUS
 62
     7
 10
248.5
 20
-196.0
 30
0.0
 11
250.0
 21
-196.0
 31
0.0
  0
LINE
  5
201
  8
DATA
  6
CONTINUOUS
 62
     7
 10
248.5
 20
-301.0
 30
0.0
 11
250.0
 21
-301.0
 31
0.0
  0
ARC
  5
202
  8
DATA
  6
CONTINUOUS
 62
     7
 10
547.62981927710166
 20
-251.0
 30
0.0
 40
303.27981927710209
 50
180.0
 51
189.4893485788902
  0
LINE
  5
203
  8
DATA
  6
CONTINUOUS
 62
     7
 10
244.54248320188489
 20
-240.00000000000111
 30
0.0
 11
244.34999999999991
 21
-251.0000000000004
 31
0.0
  0
ARC
  5
204
  8
DATA
  6
CONTINUOUS
 62
     7
 10
585.62277128723713
 20
-248.5
 30
0.0
 40
341.1861851253459
 50
171.14844834043731
 51
178.57243774901411
  0
ARC
  5
205
  8
DATA
  6
CONTINUOUS
 62
     7
 10
256.0
 20
-117.84999999999999
 30
0.0
 40
6.0
 50
90.0
 51
180.0
  0
ARC
  5
206
  8
DATA
  6
CONTINUOUS
 62
     7
 10
510.69999999999999
 20
-117.84999999999999
 30
0.0
 40
6.000000000000056
 50
0.0
 51
90.0
  0
ARC
  5
207
  8
DATA
  6
CONTINUOUS
 62
     7
 10
510.69999999999999
 20
-544.0
 30
0.0
 40
6.0
 50
270.0
 51
0.0
  0
ARC
  5
208
  8
DATA
  6
CONTINUOUS
 62
     7
 10
256.0
 20
-544.0
 30
0.0
 40
6.0
 50
180.0
 51
270.0
  0
LINE
  5
209
  8
DATA
  6
CONTINUOUS
 62
     7
 10
283.35000000000002
 20
-502.0
 30
0.0
 11
283.35000000000002
 21
-157.0
 31
0.0
  0
LINE
  5
20A
  8
DATA
  6
CONTINUOUS
 62
     7
 10
478.35000000000002
 20
-507.0
 30
0.0
 11
288.35000000000002
 21
-507.0
 31
0.0
  0
LINE
  5
20B
  8
DATA
  6
CONTINUOUS
 62
     7
 10
483.34999999999991
 20
-157.0
 30
0.0
 11
483.34999999999991
 21
-502.0
 31
0.0
  0
LINE
  5
20C
  8
DATA
  6
CONTINUOUS
 62
     7
 10
288.35000000000002
 20
-152.0
 30
0.0
 11
478.35000000000002
 21
-152.0
 31
0.0
  0
LINE
  5
20D
  8
DATA
  6
CONTINUOUS
 62
     7
 10
300.85000000000002
 20
-480.0
 30
0.0
 11
300.85000000000002
 21
-410.0
 31
0.0
  0
LINE
  5
20E
  8
DATA
  6
CONTINUOUS
 62
     7
 10
455.85000000000002
 20
-490.0
 30
0.0
 11
310.85000000000002
 21
-490.0
 31
0.0
  0
LINE
  5
20F
  8
DATA
  6
CONTINUOUS
 62
     7
 10
465.85000000000002
 20
-410.0
 30
0.0
 11
465.85000000000002
 21
-480.0
 31
0.0
  0
LINE
  5
210
  8
DATA
  6
CONTINUOUS
 62
     7
 10
310.85000000000002
 20
-400.0
 30
0.0
 11
455.85000000000002
 21
-400.0
 31
0.0
  0
LINE
  5
211
  8
DATA
  6
CONTINUOUS
 62
     7
 10
305.85000000000002
 20
-476.49999999999989
 30
0.0
 11
305.85000000000002
 21
-413.49999999999989
 31
0.0
  0
LINE
  5
212
  8
DATA
  6
CONTINUOUS
 62
     7
 10
454.85000000000002
 20
-482.5
 30
0.0
 11
311.85000000000002
 21
-482.5
 31
0.0
  0
LINE
  5
213
  8
DATA
  6
CONTINUOUS
 62
     7
 10
460.85000000000002
 20
-413.49999999999989
 30
0.0
 11
460.85000000000002
 21
-476.49999999999989
 31
0.0
  0
LINE
  5
214
  8
DATA
  6
CONTINUOUS
 62
     7
 10
311.85000000000002
 20
-407.5
 30
0.0
 11
454.85000000000002
 21
-407.5
 31
0.0
  0
LINE
  5
215
  8
DATA
  6
CONTINUOUS
 62
     7
 10
461.80000000000001
 20
-372.0
 30
0.0
 11
457.30000000000001
 21
-372.0
 31
0.0
  0
LINE
  5
216
  8
DATA
  6
CONTINUOUS
 62
     7
 10
449.0999999999998
 20
-372.0
 30
0.0
 11
444.5999999999998
 21
-372.0
 31
0.0
  0
LINE
  5
217
  8
DATA
  6
CONTINUOUS
 62
     7
 10
436.39999999999981
 20
-372.0
 30
0.0
 11
431.89999999999992
 21
-372.0
 31
0.0
  0
LINE
  5
218
  8
DATA
  6
CONTINUOUS
 62
     7
 10
423.69999999999999
 20
-372.0
 30
0.0
 11
419.19999999999987
 21
-372.0
 31
0.0
  0
LINE
  5
219
  8
DATA
  6
CONTINUOUS
 62
     7
 10
411.0
 20
-372.0
 30
0.0
 11
406.49999999999989
 21
-372.0
 31
0.0
  0
LINE
  5
21A
  8
DATA
  6
CONTINUOUS
 62
     7
 10
398.30000000000001
 20
-372.0
 30
0.0
 11
393.80000000000001
 21
-372.0
 31
0.0
  0
LINE
  5
21B
  8
DATA
  6
CONTINUOUS
 62
     7
 10
385.60000000000002
 20
-372.0
 30
0.0
 11
381.10000000000002
 21
-372.0
 31
0.0
  0
LINE
  5
21C
  8
DATA
  6
CONTINUOUS
 62
     7
 10
372.89999999999998
 20
-372.0
 30
0.0
 11
368.39999999999998
 21
-372.0
 31
0.0
  0
LINE
  5
21D
  8
DATA
  6
CONTINUOUS
 62
     7
 10
360.19999999999999
 20
-372.0
 30
0.0
 11
355.69999999999999
 21
-372.0
 31
0.0
  0
LINE
  5
21E
  8
DATA
  6
CONTINUOUS
 62
     7
 10
347.5
 20
-372.0
 30
0.0
 11
343.0
 21
-372.0
 31
0.0
  0
LINE
  5
21F
  8
DATA
  6
CONTINUOUS
 62
     7
 10
334.80000000000001
 20
-372.0
 30
0.0
 11
330.30000000000001
 21
-372.0
 31
0.0
  0
LINE
  5
220
  8
DATA
  6
CONTINUOUS
 62
     7
 10
322.10000000000002
 20
-372.0
 30
0.0
 11
317.60000000000002
 21
-372.0
 31
0.0
  0
LINE
  5
221
  8
DATA
  6
CONTINUOUS
 62
     7
 10
309.40000000000009
 20
-372.0
 30
0.0
 11
304.90000000000009
 21
-372.0
 31
0.0
  0
LINE
  5
222
  8
DATA
  6
CONTINUOUS
 62
     7
 10
304.90000000000009
 20
-170.0
 30
0.0
 11
309.40000000000009
 21
-170.0
 31
0.0
  0
LINE
  5
223
  8
DATA
  6
CONTINUOUS
 62
     7
 10
317.60000000000002
 20
-170.0
 30
0.0
 11
322.10000000000002
 21
-170.0
 31
0.0
  0
LINE
  5
224
  8
DATA
  6
CONTINUOUS
 62
     7
 10
330.30000000000013
 20
-170.0
 30
0.0
 11
334.80000000000001
 21
-170.0
 31
0.0
  0
LINE
  5
225
  8
DATA
  6
CONTINUOUS
 62
     7
 10
343.0
 20
-170.0
 30
0.0
 11
347.5
 21
-170.0
 31
0.0
  0
LINE
  5
226
  8
DATA
  6
CONTINUOUS
 62
     7
 10
355.69999999999999
 20
-170.0
 30
0.0
 11
360.19999999999999
 21
-170.0
 31
0.0
  0
LINE
  5
227
  8
DATA
  6
CONTINUOUS
 62
     7
 10
368.39999999999998
 20
-170.0
 30
0.0
 11
372.89999999999998
 21
-170.0
 31
0.0
  0
LINE
  5
228
  8
DATA
  6
CONTINUOUS
 62
     7
 10
381.10000000000002
 20
-170.0
 30
0.0
 11
385.60000000000002
 21
-170.0
 31
0.0
  0
LINE
  5
229
  8
DATA
  6
CONTINUOUS
 62
     7
 10
393.80000000000001
 20
-170.0
 30
0.0
 11
398.30000000000001
 21
-170.0
 31
0.0
  0
LINE
  5
22A
  8
DATA
  6
CONTINUOUS
 62
     7
 10
406.49999999999989
 20
-170.0
 30
0.0
 11
411.0
 21
-170.0
 31
0.0
  0
LINE
  5
22B
  8
DATA
  6
CONTINUOUS
 62
     7
 10
419.19999999999987
 20
-170.0
 30
0.0
 11
423.69999999999987
 21
-170.0
 31
0.0
  0
LINE
  5
22C
  8
DATA
  6
CONTINUOUS
 62
     7
 10
431.89999999999992
 20
-170.0
 30
0.0
 11
436.39999999999981
 21
-170.0
 31
0.0
  0
LINE
  5
22D
  8
DATA
  6
CONTINUOUS
 62
     7
 10
444.5999999999998
 20
-170.0
 30
0.0
 11
449.0999999999998
 21
-170.0
 31
0.0
  0
LINE
  5
22E
  8
DATA
  6
CONTINUOUS
 62
     7
 10
457.30000000000001
 20
-170.0
 30
0.0
 11
461.80000000000001
 21
-170.0
 31
0.0
  0
LINE
  5
22F
  8
DATA
  6
CONTINUOUS
 62
     7
 10
309.40000000000009
 20
-170.0
 30
0.0
 11
309.40000000000009
 21
-372.0
 31
0.0
  0
LINE
  5
230
  8
DATA
  6
CONTINUOUS
 62
     7
 10
304.90000000000009
 20
-170.0
 30
0.0
 11
304.90000000000009
 21
-372.0
 31
0.0
  0
LINE
  5
231
  8
DATA
  6
CONTINUOUS
 62
     7
 10
457.30000000000001
 20
-372.0
 30
0.0
 11
457.30000000000001
 21
-170.0
 31
0.0
  0
LINE
  5
232
  8
DATA
  6
CONTINUOUS
 62
     7
 10
461.80000000000001
 20
-372.0
 30
0.0
 11
461.80000000000001
 21
-170.0
 31
0.0
  0
LINE
  5
233
  8
DATA
  6
CONTINUOUS
 62
     7
 10
322.10000000000002
 20
-170.0
 30
0.0
 11
322.10000000000002
 21
-372.0
 31
0.0
  0
LINE
  5
234
  8
DATA
  6
CONTINUOUS
 62
     7
 10
317.60000000000002
 20
-170.0
 30
0.0
 11
317.60000000000002
 21
-372.0
 31
0.0
  0
LINE
  5
235
  8
DATA
  6
CONTINUOUS
 62
     7
 10
449.0999999999998
 20
-170.0
 30
0.0
 11
449.0999999999998
 21
-372.0
 31
0.0
  0
LINE
  5
236
  8
DATA
  6
CONTINUOUS
 62
     7
 10
444.5999999999998
 20
-170.0
 30
0.0
 11
444.5999999999998
 21
-372.0
 31
0.0
  0
CIRCLE
  5
237
  8
DATA
  6
CONTINUOUS
 62
     7
 10
383.35000000000002
 20
-255.0
 30
0.0
 40
54.0
  0
LINE
  5
238
  8
DATA
  6
CONTINUOUS
 62
     7
 10
334.80000000000001
 20
-170.0
 30
0.0
 11
334.80000000000001
 21
-223.2683517604269
 31
0.0
  0
LINE
  5
239
  8
DATA
  6
CONTINUOUS
 62
     7
 10
334.80000000000001
 20
-286.73164823957308
 30
0.0
 11
334.80000000000001
 21
-372.0
 31
0.0
  0
LINE
  5
23A
  8
DATA
  6
CONTINUOUS
 62
     7
 10
330.30000000000001
 20
-170.0
 30
0.0
 11
330.30000000000001
 21
-231.55437140957829
 31
0.0
  0
LINE
  5
23B
  8
DATA
  6
CONTINUOUS
 62
     7
 10
330.30000000000001
 20
-278.44562859042168
 30
0.0
 11
330.30000000000001
 21
-372.0
 31
0.0
  0
LINE
  5
23C
  8
DATA
  6
CONTINUOUS
 62
     7
 10
347.5
 20
-170.0
 30
0.0
 11
347.5
 21
-209.40638750877491
 31
0.0
  0
LINE
  5
23D
  8
DATA
  6
CONTINUOUS
 62
     7
 10
347.5
 20
-300.5936124912252
 30
0.0
 11
347.5
 21
-372.0
 31
0.0
  0
LINE
  5
23E
  8
DATA
  6
CONTINUOUS
 62
     7
 10
343.0
 20
-170.0
 30
0.0
 11
343.0
 21
-213.33613676097721
 31
0.0
  0
LINE
  5
23F
  8
DATA
  6
CONTINUOUS
 62
     7
 10
343.0
 20
-296.66386323902282
 30
0.0
 11
343.0
 21
-372.0
 31
0.0
  0
LINE
  5
240
  8
DATA
  6
CONTINUOUS
 62
     7
 10
360.19999999999999
 20
-170.0
 30
0.0
 11
360.19999999999999
 21
-201.8203281318886
 31
0.0
  0
LINE
  5
241
  8
DATA
  6
CONTINUOUS
 62
     7
 10
360.19999999999999
 20
-308.17967186811143
 30
0.0
 11
360.19999999999999
 21
-372.0
 31
0.0
  0
LINE
  5
242
  8
DATA
  6
CONTINUOUS
 62
     7
 10
355.69999999999999
 20
-170.0
 30
0.0
 11
355.69999999999999
 21
-204.01492865553681
 31
0.0
  0
LINE
  5
243
  8
DATA
  6
CONTINUOUS
 62
     7
 10
355.69999999999999
 20
-305.98507134446322
 30
0.0
 11
355.69999999999999
 21
-372.0
 31
0.0
  0
LINE
  5
244
  8
DATA
  6
CONTINUOUS
 62
     7
 10
372.89999999999998
 20
-170.0
 30
0.0
 11
372.89999999999998
 21
-197.94916740309569
 31
0.0
  0
LINE
  5
245
  8
DATA
  6
CONTINUOUS
 62
     7
 10
372.89999999999998
 20
-312.05083259690429
 30
0.0
 11
372.89999999999998
 21
-372.0
 31
0.0
  0
LINE
  5
246
  8
DATA
  6
CONTINUOUS
 62
     7
 10
368.39999999999998
 20
-170.0
 30
0.0
 11
368.39999999999998
 21
-198.95985813722459
 31
0.0
  0
LINE
  5
247
  8
DATA
  6
CONTINUOUS
 62
     7
 10
368.39999999999998
 20
-311.0401418627755
 30
0.0
 11
368.39999999999998
 21
-372.0
 31
0.0
  0
LINE
  5
248
  8
DATA
  6
CONTINUOUS
 62
     7
 10
385.60000000000002
 20
-170.0
 30
0.0
 11
385.60000000000002
 21
-197.04365867310111
 31
0.0
  0
LINE
  5
249
  8
DATA
  6
CONTINUOUS
 62
     7
 10
385.60000000000002
 20
-312.95634132689878
 30
0.0
 11
385.60000000000002
 21
-372.0
 31
0.0
  0
LINE
  5
24A
  8
DATA
  6
CONTINUOUS
 62
     7
 10
381.10000000000002
 20
-170.0
 30
0.0
 11
381.10000000000002
 21
-197.04365867310111
 31
0.0
  0
LINE
  5
24B
  8
DATA
  6
CONTINUOUS
 62
     7
 10
381.10000000000002
 20
-312.95634132689878
 30
0.0
 11
381.10000000000002
 21
-372.0
 31
0.0
  0
LINE
  5
24C
  8
DATA
  6
CONTINUOUS
 62
     7
 10
398.30000000000001
 20
-170.0
 30
0.0
 11
398.30000000000001
 21
-198.9598581372245
 31
0.0
  0
LINE
  5
24D
  8
DATA
  6
CONTINUOUS
 62
     7
 10
398.30000000000001
 20
-311.0401418627755
 30
0.0
 11
398.30000000000001
 21
-372.0
 31
0.0
  0
LINE
  5
24E
  8
DATA
  6
CONTINUOUS
 62
     7
 10
393.80000000000001
 20
-170.0
 30
0.0
 11
393.80000000000001
 21
-197.94916740309569
 31
0.0
  0
LINE
  5
24F
  8
DATA
  6
CONTINUOUS
 62
     7
 10
393.80000000000001
 20
-312.0508325969044
 30
0.0
 11
393.80000000000001
 21
-372.0
 31
0.0
  0
LINE
  5
250
  8
DATA
  6
CONTINUOUS
 62
     7
 10
411.0
 20
-170.0
 30
0.0
 11
411.0
 21
-204.01492865553681
 31
0.0
  0
LINE
  5
251
  8
DATA
  6
CONTINUOUS
 62
     7
 10
411.0
 20
-305.98507134446322
 30
0.0
 11
411.0
 21
-372.0
 31
0.0
  0
LINE
  5
252
  8
DATA
  6
CONTINUOUS
 62
     7
 10
406.5
 20
-170.0
 30
0.0
 11
406.5
 21
-201.82032813188849
 31
0.0
  0
LINE
  5
253
  8
DATA
  6
CONTINUOUS
 62
     7
 10
406.5
 20
-308.17967186811143
 30
0.0
 11
406.5
 21
-372.0
 31
0.0
  0
LINE
  5
254
  8
DATA
  6
CONTINUOUS
 62
     7
 10
423.69999999999987
 20
-170.0
 30
0.0
 11
423.69999999999987
 21
-213.3361367609771
 31
0.0
  0
LINE
  5
255
  8
DATA
  6
CONTINUOUS
 62
     7
 10
423.69999999999987
 20
-296.66386323902287
 30
0.0
 11
423.69999999999987
 21
-372.0
 31
0.0
  0
LINE
  5
256
  8
DATA
  6
CONTINUOUS
 62
     7
 10
419.19999999999987
 20
-170.0
 30
0.0
 11
419.19999999999987
 21
-209.4063875087748
 31
0.0
  0
LINE
  5
257
  8
DATA
  6
CONTINUOUS
 62
     7
 10
419.19999999999987
 20
-300.5936124912252
 30
0.0
 11
419.19999999999987
 21
-372.0
 31
0.0
  0
LINE
  5
258
  8
DATA
  6
CONTINUOUS
 62
     7
 10
436.39999999999981
 20
-170.0
 30
0.0
 11
436.39999999999981
 21
-231.5543714095781
 31
0.0
  0
LINE
  5
259
  8
DATA
  6
CONTINUOUS
 62
     7
 10
436.39999999999981
 20
-278.4456285904219
 30
0.0
 11
436.39999999999981
 21
-372.0
 31
0.0
  0
LINE
  5
25A
  8
DATA
  6
CONTINUOUS
 62
     7
 10
431.89999999999992
 20
-170.0
 30
0.0
 11
431.89999999999992
 21
-223.26835176042681
 31
0.0
  0
LINE
  5
25B
  8
DATA
  6
CONTINUOUS
 62
     7
 10
431.89999999999992
 20
-286.73164823957319
 30
0.0
 11
431.89999999999992
 21
-372.0
 31
0.0
  0
ARC
  5
25C
  8
DATA
  6
CONTINUOUS
 62
     7
 10
383.35000000000008
 20
-255.0
 30
0.0
 40
58.000000000000142
 50
203.84319566382811
 51
213.1681083312979
  0
ARC
  5
25D
  8
DATA
  6
CONTINUOUS
 62
     7
 10
383.35000000000008
 20
-255.0
 30
0.0
 40
58.000000000000107
 50
225.9178006814796
 51
231.8222298926211
  0
ARC
  5
25E
  8
DATA
  6
CONTINUOUS
 62
     7
 10
383.35000000000008
 20
-255.0
 30
0.0
 40
58.000000000000142
 50
241.52833204236319
 51
246.47570255942631
  0
ARC
  5
25F
  8
DATA
  6
CONTINUOUS
 62
     7
 10
383.35000000000008
 20
-255.0
 30
0.0
 40
58.000000000000142
 50
255.06289191173761
 51
259.62019742083328
  0
ARC
  5
260
  8
DATA
  6
CONTINUOUS
 62
     7
 10
383.35000000000008
 20
-255.0
 30
0.0
 40
58.000000000000142
 50
267.77676103305521
 51
272.22323896694428
  0
ARC
  5
261
  8
DATA
  6
CONTINUOUS
 62
     7
 10
383.35000000000008
 20
-255.0
 30
0.0
 40
58.000000000000142
 50
280.3798025791661
 51
284.93710808826188
  0
ARC
  5
262
  8
DATA
  6
CONTINUOUS
 62
     7
 10
383.35000000000008
 20
-255.0
 30
0.0
 40
58.000000000000142
 50
293.52429744057298
 51
298.47166795763638
  0
ARC
  5
263
  8
DATA
  6
CONTINUOUS
 62
     7
 10
383.35000000000008
 20
-255.0
 30
0.0
 40
58.000000000000142
 50
308.17777010737842
 51
314.08219931851988
  0
ARC
  5
264
  8
DATA
  6
CONTINUOUS
 62
     7
 10
383.35000000000008
 20
-255.0
 30
0.0
 40
58.000000000000142
 50
326.83189166870119
 51
336.15680433617069
  0
ARC
  5
265
  8
DATA
  6
CONTINUOUS
 62
     7
 10
383.35000000000008
 20
-255.0
 30
0.0
 40
58.000000000000142
 50
23.84319566382927
 51
33.16810833129864
  0
ARC
  5
266
  8
DATA
  6
CONTINUOUS
 62
     7
 10
383.35000000000008
 20
-255.0
 30
0.0
 40
58.000000000000142
 50
45.917800681480117
 51
51.82222989262165
  0
ARC
  5
267
  8
DATA
  6
CONTINUOUS
 62
     7
 10
383.35000000000008
 20
-255.0
 30
0.0
 40
58.000000000000171
 50
61.528332042363672
 51
66.475702559426779
  0
ARC
  5
268
  8
DATA
  6
CONTINUOUS
 62
     7
 10
383.35000000000008
 20
-255.0
 30
0.0
 40
58.000000000000171
 50
75.062891911738092
 51
79.620197420833875
  0
ARC
  5
269
  8
DATA
  6
CONTINUOUS
 62
     7
 10
383.35000000000008
 20
-255.0
 30
0.0
 40
58.000000000000178
 50
87.776761033055706
 51
92.223238966944663
  0
ARC
  5
26A
  8
DATA
  6
CONTINUOUS
 62
     7
 10
383.35000000000008
 20
-255.0
 30
0.0
 40
58.000000000000171
 50
100.37980257916649
 51
104.93710808826221
  0
ARC
  5
26B
  8
DATA
  6
CONTINUOUS
 62
     7
 10
383.35000000000008
 20
-255.0
 30
0.0
 40
58.000000000000178
 50
113.5242974405736
 51
118.4716679576367
  0
ARC
  5
26C
  8
DATA
  6
CONTINUOUS
 62
     7
 10
383.35000000000008
 20
-255.0
 30
0.0
 40
58.000000000000178
 50
128.17777010737879
 51
134.08219931852031
  0
ARC
  5
26D
  8
DATA
  6
CONTINUOUS
 62
     7
 10
383.35000000000008
 20
-255.0
 30
0.0
 40
58.000000000000142
 50
146.83189166870201
 51
156.1568043361718
  0
CIRCLE
  5
26E
  8
DATA
  6
CONTINUOUS
 62
     7
 10
383.35000000000002
 20
-255.0
 30
0.0
 40
25.0
  0
TEXT
  5
26F
  8
DATA
 62
     7
 10
325.0
 20
-378.0338888888889
 30
0.0
 40
2.7147352430555549
  1
LSR4328P
 41
0.7
 11
325.0
 21
-375.3191536458333
 31
0.0
 73
     3
  0
CIRCLE
  5
270
  8
DATA
  6
CONTINUOUS
 62
     7
 10
292.85000000000002
 20
-166.0
 30
0.0
 40
4.25
  0
LINE
  5
271
  8
DATA
  6
CONTINUOUS
 62
     7
 10
295.35000000000002
 20
-166.0
 30
0.0
 11
290.35000000000002
 21
-166.0
 31
0.0
  0
LINE
  5
272
  8
DATA
  6
CONTINUOUS
 62
     7
 10
292.85000000000002
 20
-163.5
 30
0.0
 11
292.85000000000002
 21
-168.5
 31
0.0
  0
CIRCLE
  5
273
  8
DATA
  6
CONTINUOUS
 62
     7
 10
473.85000000000002
 20
-166.0
 30
0.0
 40
4.25
  0
LINE
  5
274
  8
DATA
  6
CONTINUOUS
 62
     7
 10
476.35000000000002
 20
-166.0
 30
0.0
 11
471.35000000000002
 21
-166.0
 31
0.0
  0
LINE
  5
275
  8
DATA
  6
CONTINUOUS
 62
     7
 10
473.85000000000002
 20
-163.5
 30
0.0
 11
473.85000000000002
 21
-168.5
 31
0.0
  0
CIRCLE
  5
276
  8
DATA
  6
CONTINUOUS
 62
     7
 10
292.85000000000002
 20
-325.5
 30
0.0
 40
4.25
  0
LINE
  5
277
  8
DATA
  6
CONTINUOUS
 62
     7
 10
295.35000000000002
 20
-325.5
 30
0.0
 11
290.35000000000002
 21
-325.5
 31
0.0
  0
LINE
  5
278
  8
DATA
  6
CONTINUOUS
 62
     7
 10
292.85000000000002
 20
-323.0
 30
0.0
 11
292.85000000000002
 21
-328.0
 31
0.0
  0
CIRCLE
  5
279
  8
DATA
  6
CONTINUOUS
 62
     7
 10
473.85000000000002
 20
-325.5
 30
0.0
 40
4.25
  0
LINE
  5
27A
  8
DATA
  6
CONTINUOUS
 62
     7
 10
476.35000000000002
 20
-325.5
 30
0.0
 11
471.35000000000002
 21
-325.5
 31
0.0
  0
LINE
  5
27B
  8
DATA
  6
CONTINUOUS
 62
     7
 10
473.85000000000002
 20
-323.0
 30
0.0
 11
473.85000000000002
 21
-328.0
 31
0.0
  0
ARC
  5
27C
  8
DATA
  6
CONTINUOUS
 62
     7
 10
310.85000000000002
 20
-410.0
 30
0.0
 40
10.0
 50
90.0
 51
180.0
  0
ARC
  5
27D
  8
DATA
  6
CONTINUOUS
 62
     7
 10
455.85000000000002
 20
-410.0
 30
0.0
 40
10.0
 50
0.0
 51
90.0
  0
ARC
  5
27E
  8
DATA
  6
CONTINUOUS
 62
     7
 10
455.85000000000002
 20
-480.0
 30
0.0
 40
10.0
 50
270.0
 51
0.0
  0
ARC
  5
27F
  8
DATA
  6
CONTINUOUS
 62
     7
 10
310.85000000000002
 20
-480.0
 30
0.0
 40
10.0
 50
180.0
 51
270.0
  0
ARC
  5
280
  8
DATA
  6
CONTINUOUS
 62
     7
 10
454.85000000000002
 20
-413.49999999999989
 30
0.0
 40
6.0
 50
0.0
 51
90.0
  0
ARC
  5
281
  8
DATA
  6
CONTINUOUS
 62
     7
 10
454.85000000000002
 20
-476.49999999999989
 30
0.0
 40
6.0
 50
270.0
 51
0.0
  0
CIRCLE
  5
282
  8
DATA
  6
CONTINUOUS
 62
     7
 10
327.5
 20
-425.0
 30
0.0
 40
3.0000000000000151
  0
LINE
  5
283
  8
DATA
  6
CONTINUOUS
 62
     7
 10
329.0
 20
-425.0
 30
0.0
 11
326.0
 21
-425.0
 31
0.0
  0
LINE
  5
284
  8
DATA
  6
CONTINUOUS
 62
     7
 10
327.5
 20
-423.5
 30
0.0
 11
327.5
 21
-426.49999999999989
 31
0.0
  0
CIRCLE
  5
285
  8
DATA
  6
CONTINUOUS
 62
     7
 10
318.0
 20
-433.0
 30
0.0
 40
4.1000000000000609
  0
CIRCLE
  5
286
  8
DATA
  6
CONTINUOUS
 62
     7
 10
318.0
 20
-419.0
 30
0.0
 40
4.1000000000000068
  0
CIRCLE
  5
287
  8
DATA
  6
CONTINUOUS
 62
     7
 10
318.0
 20
-419.0
 30
0.0
 40
1.750000000000012
  0
CIRCLE
  5
288
  8
DATA
  6
CONTINUOUS
 62
     7
 10
318.0
 20
-433.0
 30
0.0
 40
1.750000000000008
  0
ARC
  5
289
  8
DATA
  6
CONTINUOUS
 62
     7
 10
311.85000000000002
 20
-476.49999999999989
 30
0.0
 40
6.0
 50
180.0
 51
270.0
  0
ARC
  5
28A
  8
DATA
  6
CONTINUOUS
 62
     7
 10
311.85000000000002
 20
-413.49999999999989
 30
0.0
 40
6.0
 50
90.0
 51
180.0
  0
LINE
  5
28B
  8
DATA
  6
CONTINUOUS
 62
     7
 10
356.5
 20
-473.0
 30
0.0
 11
356.5
 21
-445.0
 31
0.0
  0
LINE
  5
28C
  8
DATA
  6
CONTINUOUS
 62
     7
 10
368.5
 20
-477.0
 30
0.0
 11
368.5
 21
-445.0
 31
0.0
  0
LINE
  5
28D
  8
DATA
  6
CONTINUOUS
 62
     7
 10
368.5
 20
-477.0
 30
0.0
 11
309.5
 21
-477.0
 31
0.0
  0
LINE
  5
28E
  8
DATA
  6
CONTINUOUS
 62
     7
 10
398.0
 20
-445.0
 30
0.0
 11
381.5
 21
-445.0
 31
0.0
  0
LINE
  5
28F
  8
DATA
  6
CONTINUOUS
 62
     7
 10
378.5
 20
-445.0
 30
0.0
 11
308.0
 21
-445.0
 31
0.0
  0
LINE
  5
290
  8
DATA
  6
CONTINUOUS
 62
     7
 10
326.0
 20
-443.5
 30
0.0
 11
326.0
 21
-413.0
 31
0.0
  0
LINE
  5
291
  8
DATA
  6
CONTINUOUS
 62
     7
 10
308.0
 20
-475.49999999999989
 30
0.0
 11
308.0
 21
-410.5
 31
0.0
  0
LINE
  5
292
  8
DATA
  6
CONTINUOUS
 62
     7
 10
399.5
 20
-409.0
 30
0.0
 11
309.5
 21
-409.0
 31
0.0
  0
CIRCLE
  5
293
  8
DATA
  6
CONTINUOUS
 62
     7
 10
343.0
 20
-428.0
 30
0.0
 40
9.7499999990250465
  0
CIRCLE
  5
294
  8
DATA
  6
CONTINUOUS
 62
     7
 10
343.0
 20
-428.0
 30
0.0
 40
9.0499999990949203
  0
ARC
  5
295
  8
DATA
  6
CONTINUOUS
 62
     7
 10
343.0
 20
-428.0
 30
0.0
 40
8.1499999991849954
 50
141.14183400000019
 51
128.74059600000049
  0
CIRCLE
  5
296
  8
DATA
  6
CONTINUOUS
 62
     7
 10
347.49999999955008
 20
-428.0
 30
0.0
 40
1.1749999998825149
  0
CIRCLE
  5
297
  8
DATA
  6
CONTINUOUS
 62
     7
 10
333.10000000000002
 20
-418.10000000000002
 30
0.0
 40
3.0
  0
CIRCLE
  5
298
  8
DATA
  6
CONTINUOUS
 62
     7
 10
338.50000000044997
 20
-428.0
 30
0.0
 40
1.174999999882459
  0
CIRCLE
  5
299
  8
DATA
  6
CONTINUOUS
 62
     7
 10
343.0
 20
-431.94999999960498
 30
0.0
 40
1.1749999998825149
  0
ARC
  5
29A
  8
DATA
  6
CONTINUOUS
 62
     7
 10
337.42250533389108
 20
-422.4110486672256
 30
0.0
 40
0.9041666665762047
 50
58.139898999998991
 51
211.74253200000479
  0
LINE
  5
29B
  8
DATA
  6
CONTINUOUS
 62
     7
 10
340.65000000023508
 20
-418.53744220719921
 30
0.0
 11
340.65000000023508
 21
-419.26043479429768
 31
0.0
  0
LINE
  5
29C
  8
DATA
  6
CONTINUOUS
 62
     7
 10
345.34999999976492
 20
-418.53744220719921
 30
0.0
 11
345.34999999976492
 21
-419.26043479429768
 31
0.0
  0
LINE
  5
29D
  8
DATA
  6
STYLE_11
 62
     7
 10
333.10000000000002
 20
-419.60000000000002
 30
0.0
 11
333.10000000000002
 21
-416.60000000000002
 31
0.0
  0
LINE
  5
29E
  8
DATA
  6
STYLE_11
 62
     7
 10
331.60000000000002
 20
-418.10000000000002
 30
0.0
 11
334.60000000000002
 21
-418.10000000000002
 31
0.0
  0
CIRCLE
  5
29F
  8
DATA
  6
CONTINUOUS
 62
     7
 10
352.90000000000009
 20
-437.89999999999992
 30
0.0
 40
3.0
  0
LINE
  5
2A0
  8
DATA
  6
STYLE_11
 62
     7
 10
352.90000000000009
 20
-439.39999999999998
 30
0.0
 11
352.90000000000009
 21
-436.39999999999992
 31
0.0
  0
LINE
  5
2A1
  8
DATA
  6
STYLE_11
 62
     7
 10
351.40000000000009
 20
-437.89999999999992
 30
0.0
 11
354.40000000000009
 21
-437.89999999999992
 31
0.0
  0
CIRCLE
  5
2A2
  8
DATA
  6
CONTINUOUS
 62
     7
 10
359.10000000000002
 20
-418.10000000000002
 30
0.0
 40
3.0
  0
LINE
  5
2A3
  8
DATA
  6
STYLE_11
 62
     7
 10
359.10000000000002
 20
-419.60000000000002
 30
0.0
 11
359.10000000000002
 21
-416.60000000000002
 31
0.0
  0
LINE
  5
2A4
  8
DATA
  6
STYLE_11
 62
     7
 10
357.60000000000002
 20
-418.10000000000002
 30
0.0
 11
360.60000000000002
 21
-418.10000000000002
 31
0.0
  0
CIRCLE
  5
2A5
  8
DATA
  6
CONTINUOUS
 62
     7
 10
378.89999999999998
 20
-437.89999999999992
 30
0.0
 40
3.0
  0
LINE
  5
2A6
  8
DATA
  6
STYLE_11
 62
     7
 10
378.89999999999998
 20
-439.39999999999998
 30
0.0
 11
378.89999999999998
 21
-436.39999999999992
 31
0.0
  0
LINE
  5
2A7
  8
DATA
  6
STYLE_11
 62
     7
 10
377.39999999999998
 20
-437.89999999999992
 30
0.0
 11
380.39999999999998
 21
-437.89999999999992
 31
0.0
  0
CIRCLE
  5
2A8
  8
DATA
  6
CONTINUOUS
 62
     7
 10
369.0
 20
-428.0
 30
0.0
 40
9.0499999990949203
  0
ARC
  5
2A9
  8
DATA
  6
CONTINUOUS
 62
     7
 10
369.0
 20
-428.0
 30
0.0
 40
8.1499999991849368
 50
51.259403999999492
 51
38.858165999999827
  0
ARC
  5
2AA
  8
DATA
  6
CONTINUOUS
 62
     7
 10
369.0
 20
-428.0
 30
0.0
 40
9.0499999990949895
 50
128.10492499999981
 51
74.949605999999804
  0
CIRCLE
  5
2AB
  8
DATA
  6
CONTINUOUS
 62
     7
 10
364.50000000044997
 20
-428.0
 30
0.0
 40
1.1749999998825149
  0
CIRCLE
  5
2AC
  8
DATA
  6
CONTINUOUS
 62
     7
 10
373.49999999955003
 20
-428.0
 30
0.0
 40
1.174999999882459
  0
CIRCLE
  5
2AD
  8
DATA
  6
CONTINUOUS
 62
     7
 10
369.0
 20
-431.94999999960498
 30
0.0
 40
1.1749999998825149
  0
ARC
  5
2AE
  8
DATA
  6
CONTINUOUS
 62
     7
 10
374.57749466610892
 20
-422.4110486672256
 30
0.0
 40
0.9041666665762559
 50
328.2574679999953
 51
121.8601010000009
  0
LINE
  5
2AF
  8
DATA
  6
CONTINUOUS
 62
     7
 10
399.5
 20
-413.0
 30
0.0
 11
308.0
 21
-413.0
 31
0.0
  0
LINE
  5
2B0
  8
DATA
  6
CONTINUOUS
 62
     7
 10
368.5
 20
-473.0
 30
0.0
 11
308.0
 21
-473.0
 31
0.0
  0
CIRCLE
  5
2B1
  8
DATA
  6
CONTINUOUS
 62
     7
 10
327.0
 20
-459.0
 30
0.0
 40
9.7499999990250465
  0
CIRCLE
  5
2B2
  8
DATA
  6
CONTINUOUS
 62
     7
 10
327.0
 20
-459.0
 30
0.0
 40
9.0499999990949203
  0
ARC
  5
2B3
  8
DATA
  6
CONTINUOUS
 62
     7
 10
327.0
 20
-459.0
 30
0.0
 40
8.1499999991849954
 50
141.14183400000019
 51
128.74059600000049
  0
CIRCLE
  5
2B4
  8
DATA
  6
CONTINUOUS
 62
     7
 10
331.49999999955008
 20
-459.0
 30
0.0
 40
1.1749999998825149
  0
CIRCLE
  5
2B5
  8
DATA
  6
CONTINUOUS
 62
     7
 10
317.10000000000002
 20
-449.10000000000002
 30
0.0
 40
3.0
  0
CIRCLE
  5
2B6
  8
DATA
  6
CONTINUOUS
 62
     7
 10
322.50000000044997
 20
-459.0
 30
0.0
 40
1.174999999882459
  0
CIRCLE
  5
2B7
  8
DATA
  6
CONTINUOUS
 62
     7
 10
327.0
 20
-462.9499999996051
 30
0.0
 40
1.1749999998825149
  0
ARC
  5
2B8
  8
DATA
  6
CONTINUOUS
 62
     7
 10
321.42250533389108
 20
-453.4110486672256
 30
0.0
 40
0.9041666665762047
 50
58.139898999998991
 51
211.74253200000479
  0
LINE
  5
2B9
  8
DATA
  6
CONTINUOUS
 62
     7
 10
324.65000000023508
 20
-449.53744220719921
 30
0.0
 11
324.65000000023508
 21
-450.26043479429768
 31
0.0
  0
LINE
  5
2BA
  8
DATA
  6
CONTINUOUS
 62
     7
 10
329.34999999976492
 20
-449.53744220719921
 30
0.0
 11
329.34999999976492
 21
-450.26043479429768
 31
0.0
  0
LINE
  5
2BB
  8
DATA
  6
STYLE_11
 62
     7
 10
317.10000000000002
 20
-450.60000000000002
 30
0.0
 11
317.10000000000002
 21
-447.59999999999991
 31
0.0
  0
LINE
  5
2BC
  8
DATA
  6
STYLE_11
 62
     7
 10
315.60000000000002
 20
-449.10000000000002
 30
0.0
 11
318.60000000000002
 21
-449.10000000000002
 31
0.0
  0
CIRCLE
  5
2BD
  8
DATA
  6
CONTINUOUS
 62
     7
 10
336.89999999999998
 20
-468.89999999999998
 30
0.0
 40
3.0
  0
LINE
  5
2BE
  8
DATA
  6
STYLE_11
 62
     7
 10
336.89999999999998
 20
-470.39999999999992
 30
0.0
 11
336.89999999999998
 21
-467.39999999999992
 31
0.0
  0
LINE
  5
2BF
  8
DATA
  6
STYLE_11
 62
     7
 10
335.39999999999998
 20
-468.89999999999998
 30
0.0
 11
338.39999999999998
 21
-468.89999999999998
 31
0.0
  0
ARC
  5
2C0
  8
DATA
  6
CONTINUOUS
 62
     7
 10
309.5
 20
-410.5
 30
0.0
 40
1.5
 50
90.0
 51
180.0
  0
ARC
  5
2C1
  8
DATA
  6
CONTINUOUS
 62
     7
 10
309.5
 20
-475.49999999999989
 30
0.0
 40
1.5
 50
180.0
 51
270.0
  0
ARC
  5
2C2
  8
DATA
  6
CONTINUOUS
 62
     7
 10
324.5
 20
-443.5
 30
0.0
 40
1.5
 50
270.0
 51
0.0
  0
ARC
  5
2C3
  8
DATA
  6
CONTINUOUS
 62
     7
 10
327.5
 20
-443.5
 30
0.0
 40
1.5
 50
180.0
 51
270.0
  0
ARC
  5
2C4
  8
DATA
  6
CONTINUOUS
 62
     7
 10
378.5
 20
-443.5
 30
0.0
 40
1.5
 50
270.0
 51
0.0
  0
ARC
  5
2C5
  8
DATA
  6
CONTINUOUS
 62
     7
 10
381.5
 20
-443.5
 30
0.0
 40
1.5
 50
180.0
 51
270.0
  0
ARC
  5
2C6
  8
DATA
  6
CONTINUOUS
 62
     7
 10
398.0
 20
-443.5
 30
0.0
 40
1.5
 50
270.0
 51
0.0
  0
LINE
  5
2C7
  8
DATA
  6
CONTINUOUS
 62
     7
 10
386.5
 20
-416.5
 30
0.0
 11
386.5
 21
-417.49999999999989
 31
0.0
  0
LINE
  5
2C8
  8
DATA
  6
CONTINUOUS
 62
     7
 10
386.5
 20
-417.49999999999989
 30
0.0
 11
383.5
 21
-417.49999999999989
 31
0.0
  0
LINE
  5
2C9
  8
DATA
  6
CONTINUOUS
 62
     7
 10
383.5
 20
-417.49999999999989
 30
0.0
 11
383.5
 21
-425.0
 31
0.0
  0
LINE
  5
2CA
  8
DATA
  6
CONTINUOUS
 62
     7
 10
393.0
 20
-416.5
 30
0.0
 11
393.0
 21
-417.49999999999989
 31
0.0
  0
LINE
  5
2CB
  8
DATA
  6
CONTINUOUS
 62
     7
 10
393.0
 20
-417.49999999999989
 30
0.0
 11
396.0
 21
-417.49999999999989
 31
0.0
  0
LINE
  5
2CC
  8
DATA
  6
CONTINUOUS
 62
     7
 10
396.0
 20
-417.49999999999989
 30
0.0
 11
396.0
 21
-425.0
 31
0.0
  0
LINE
  5
2CD
  8
DATA
  6
CONTINUOUS
 62
     7
 10
383.5
 20
-425.0
 30
0.0
 11
396.0
 21
-425.0
 31
0.0
  0
LINE
  5
2CE
  8
DATA
  6
CONTINUOUS
 62
     7
 10
393.25
 20
-417.25
 30
0.0
 11
396.0
 21
-417.25
 31
0.0
  0
LINE
  5
2CF
  8
DATA
  6
CONTINUOUS
 62
     7
 10
393.25
 20
-417.25
 30
0.0
 11
393.25
 21
-416.24999999999989
 31
0.0
  0
LINE
  5
2D0
  8
DATA
  6
CONTINUOUS
 62
     7
 10
396.0
 20
-417.25
 30
0.0
 11
396.0
 21
-416.24999999999989
 31
0.0
  0
LINE
  5
2D1
  8
DATA
  6
CONTINUOUS
 62
     7
 10
396.0
 20
-416.24999999999989
 30
0.0
 11
393.25
 21
-416.24999999999989
 31
0.0
  0
LINE
  5
2D2
  8
DATA
  6
CONTINUOUS
 62
     7
 10
386.25
 20
-417.25
 30
0.0
 11
383.5
 21
-417.25
 31
0.0
  0
LINE
  5
2D3
  8
DATA
  6
CONTINUOUS
 62
     7
 10
386.25
 20
-417.25
 30
0.0
 11
386.25
 21
-416.24999999999989
 31
0.0
  0
LINE
  5
2D4
  8
DATA
  6
CONTINUOUS
 62
     7
 10
383.5
 20
-417.25
 30
0.0
 11
383.5
 21
-416.24999999999989
 31
0.0
  0
LINE
  5
2D5
  8
DATA
  6
CONTINUOUS
 62
     7
 10
383.5
 20
-416.24999999999989
 30
0.0
 11
386.25
 21
-416.24999999999989
 31
0.0
  0
LINE
  5
2D6
  8
DATA
  6
CONTINUOUS
 62
     7
 10
393.0
 20
-416.5
 30
0.0
 11
392.0
 21
-416.5
 31
0.0
  0
LINE
  5
2D7
  8
DATA
  6
CONTINUOUS
 62
     7
 10
386.5
 20
-416.5
 30
0.0
 11
387.5
 21
-416.5
 31
0.0
  0
LINE
  5
2D8
  8
DATA
  6
CONTINUOUS
 62
     7
 10
387.5
 20
-416.5
 30
0.0
 11
387.5
 21
-415.5
 31
0.0
  0
LINE
  5
2D9
  8
DATA
  6
CONTINUOUS
 62
     7
 10
392.0
 20
-416.5
 30
0.0
 11
392.0
 21
-415.5
 31
0.0
  0
LINE
  5
2DA
  8
DATA
  6
CONTINUOUS
 62
     7
 10
392.0
 20
-415.5
 30
0.0
 11
387.5
 21
-415.5
 31
0.0
  0
LINE
  5
2DB
  8
DATA
  6
CONTINUOUS
 62
     7
 10
393.0
 20
-439.5
 30
0.0
 11
393.0
 21
-438.49999999999989
 31
0.0
  0
LINE
  5
2DC
  8
DATA
  6
CONTINUOUS
 62
     7
 10
393.0
 20
-438.49999999999989
 30
0.0
 11
396.0
 21
-438.49999999999989
 31
0.0
  0
LINE
  5
2DD
  8
DATA
  6
CONTINUOUS
 62
     7
 10
396.0
 20
-438.49999999999989
 30
0.0
 11
396.0
 21
-431.0
 31
0.0
  0
LINE
  5
2DE
  8
DATA
  6
CONTINUOUS
 62
     7
 10
386.5
 20
-439.5
 30
0.0
 11
386.5
 21
-438.49999999999989
 31
0.0
  0
LINE
  5
2DF
  8
DATA
  6
CONTINUOUS
 62
     7
 10
386.5
 20
-438.49999999999989
 30
0.0
 11
383.5
 21
-438.49999999999989
 31
0.0
  0
LINE
  5
2E0
  8
DATA
  6
CONTINUOUS
 62
     7
 10
383.5
 20
-438.49999999999989
 30
0.0
 11
383.5
 21
-431.0
 31
0.0
  0
LINE
  5
2E1
  8
DATA
  6
CONTINUOUS
 62
     7
 10
396.0
 20
-431.0
 30
0.0
 11
383.5
 21
-431.0
 31
0.0
  0
LINE
  5
2E2
  8
DATA
  6
CONTINUOUS
 62
     7
 10
386.25
 20
-438.75
 30
0.0
 11
383.5
 21
-438.75
 31
0.0
  0
LINE
  5
2E3
  8
DATA
  6
CONTINUOUS
 62
     7
 10
386.25
 20
-438.75
 30
0.0
 11
386.25
 21
-439.74999999999989
 31
0.0
  0
LINE
  5
2E4
  8
DATA
  6
CONTINUOUS
 62
     7
 10
383.5
 20
-438.75
 30
0.0
 11
383.5
 21
-439.74999999999989
 31
0.0
  0
LINE
  5
2E5
  8
DATA
  6
CONTINUOUS
 62
     7
 10
383.5
 20
-439.74999999999989
 30
0.0
 11
386.25
 21
-439.74999999999989
 31
0.0
  0
LINE
  5
2E6
  8
DATA
  6
CONTINUOUS
 62
     7
 10
393.25
 20
-438.75
 30
0.0
 11
396.0
 21
-438.75
 31
0.0
  0
LINE
  5
2E7
  8
DATA
  6
CONTINUOUS
 62
     7
 10
393.25
 20
-438.75
 30
0.0
 11
393.25
 21
-439.74999999999989
 31
0.0
  0
LINE
  5
2E8
  8
DATA
  6
CONTINUOUS
 62
     7
 10
396.0
 20
-438.75
 30
0.0
 11
396.0
 21
-439.74999999999989
 31
0.0
  0
LINE
  5
2E9
  8
DATA
  6
CONTINUOUS
 62
     7
 10
396.0
 20
-439.74999999999989
 30
0.0
 11
393.25
 21
-439.74999999999989
 31
0.0
  0
LINE
  5
2EA
  8
DATA
  6
CONTINUOUS
 62
     7
 10
386.5
 20
-439.5
 30
0.0
 11
387.5
 21
-439.5
 31
0.0
  0
LINE
  5
2EB
  8
DATA
  6
CONTINUOUS
 62
     7
 10
393.0
 20
-439.5
 30
0.0
 11
392.0
 21
-439.5
 31
0.0
  0
LINE
  5
2EC
  8
DATA
  6
CONTINUOUS
 62
     7
 10
392.0
 20
-439.5
 30
0.0
 11
392.0
 21
-440.5
 31
0.0
  0
LINE
  5
2ED
  8
DATA
  6
CONTINUOUS
 62
     7
 10
387.5
 20
-439.5
 30
0.0
 11
387.5
 21
-440.5
 31
0.0
  0
LINE
  5
2EE
  8
DATA
  6
CONTINUOUS
 62
     7
 10
387.5
 20
-440.5
 30
0.0
 11
392.0
 21
-440.5
 31
0.0
  0
LINE
  5
2EF
  8
DATA
  6
CONTINUOUS
 62
     7
 10
380.0
 20
-443.5
 30
0.0
 11
380.0
 21
-413.0
 31
0.0
  0
LINE
  5
2F0
  8
DATA
  6
CONTINUOUS
 62
     7
 10
399.5
 20
-443.5
 30
0.0
 11
399.5
 21
-409.0
 31
0.0
  0
LINE
  5
2F1
  8
DATA
  6
CONTINUOUS
 62
     7
 10
402.0
 20
-440.37250292482662
 30
0.0
 11
402.0
 21
-429.7725029248266
 31
0.0
  0
LINE
  5
2F2
  8
DATA
  6
CONTINUOUS
 62
     7
 10
414.0
 20
-440.37250292482662
 30
0.0
 11
402.0
 21
-440.37250292482662
 31
0.0
  0
LINE
  5
2F3
  8
DATA
  6
CONTINUOUS
 62
     7
 10
414.0
 20
-429.7725029248266
 30
0.0
 11
414.0
 21
-440.37250292482662
 31
0.0
  0
LINE
  5
2F4
  8
DATA
  6
CONTINUOUS
 62
     7
 10
402.0
 20
-429.7725029248266
 30
0.0
 11
414.0
 21
-429.7725029248266
 31
0.0
  0
LINE
  5
2F5
  8
DATA
  6
CONTINUOUS
 62
     7
 10
412.60000000000002
 20
-438.97250292482659
 30
0.0
 11
403.39999999999992
 21
-438.97250292482659
 31
0.0
  0
LINE
  5
2F6
  8
DATA
  6
CONTINUOUS
 62
     7
 10
403.39999999999992
 20
-438.97250292482659
 30
0.0
 11
403.39999999999992
 21
-432.37250292482651
 31
0.0
  0
LINE
  5
2F7
  8
DATA
  6
CONTINUOUS
 62
     7
 10
412.60000000000002
 20
-432.37250292482662
 30
0.0
 11
412.60000000000002
 21
-438.97250292482659
 31
0.0
  0
LINE
  5
2F8
  8
DATA
  6
CONTINUOUS
 62
     7
 10
404.60000000000002
 20
-431.17250292482657
 30
0.0
 11
411.40000000000009
 21
-431.17250292482657
 31
0.0
  0
LINE
  5
2F9
  8
DATA
  6
CONTINUOUS
 62
     7
 10
403.39999999999992
 20
-432.37250292482662
 30
0.0
 11
404.60000000000002
 21
-431.17250292482657
 31
0.0
  0
LINE
  5
2FA
  8
DATA
  6
CONTINUOUS
 62
     7
 10
412.60000000000002
 20
-432.37250292482662
 30
0.0
 11
411.39999999999981
 21
-431.17250292482657
 31
0.0
  0
POLYLINE
  5
2FB
  8
DATA
  6
CONTINUOUS
 62
     7
 66
     1
 10
0.0
 20
0.0
 30
0.0
 70
     1
  0
VERTEX
  5
64B
  8
DATA
  6
CONTINUOUS
 62
     7
 10
404.99999999999989
 20
-433.39999999999992
 30
0.0
  0
VERTEX
  5
64C
  8
DATA
  6
CONTINUOUS
 62
     7
 10
411.0
 20
-433.39999999999992
 30
0.0
  0
VERTEX
  5
64D
  8
DATA
  6
CONTINUOUS
 62
     7
 10
411.0
 20
-436.60000000000002
 30
0.0
  0
VERTEX
  5
64E
  8
DATA
  6
CONTINUOUS
 62
     7
 10
404.99999999999989
 20
-436.60000000000002
 30
0.0
  0
SEQEND
  5
64F
  8
DATA
  6
CONTINUOUS
 62
     7
  0
TEXT
  5
302
  8
DATA
 62
     7
 10
313.69062500000001
 20
-412.154296875
 30
0.0
 40
2.30859375
  1
S/PDIF
 41
0.7
 72
     1
 11
318.0
 21
-411.0
 31
0.0
 73
     2
  0
TEXT
  5
303
  8
DATA
 62
     7
 10
347.61328125
 20
-412.154296875
 30
0.0
 40
2.30859375
  1
AES/EBU
 41
0.7
 72
     1
 11
353.0
 21
-411.0
 31
0.0
 73
     2
  0
TEXT
  5
304
  8
DATA
 62
     7
 10
387.23909251974061
 20
-412.154296875
 30
0.0
 40
2.30859375
  1
HiQnet
 41
0.7
 72
     1
 11
391.27913158224061
 21
-411.0
 31
0.0
 73
     2
  0
TEXT
  5
305
  8
DATA
 62
     7
 10
315.84531249999998
 20
-440.654296875
 30
0.0
 40
2.30859375
  1
OUT
 41
0.7
 72
     1
 11
318.0
 21
-439.5
 31
0.0
 73
     2
  0
TEXT
  5
306
  8
DATA
 62
     7
 10
316.92265624999999
 20
-426.654296875
 30
0.0
 40
2.30859375
  1
IN
 41
0.7
 72
     1
 11
318.0
 21
-425.49999999999989
 31
0.0
 73
     2
  0
TEXT
  5
307
  8
DATA
 62
     7
 10
341.92265624999999
 20
-440.654296875
 30
0.0
 40
2.30859375
  1
IN
 41
0.7
 72
     1
 11
343.0
 21
-439.5
 31
0.0
 73
     2
  0
TEXT
  5
308
  8
DATA
 62
     7
 10
366.84531249999998
 20
-440.654296875
 30
0.0
 40
2.30859375
  1
OUT
 41
0.7
 72
     1
 11
369.0
 21
-439.5
 31
0.0
 73
     2
  0
POLYLINE
  5
309
  8
DATA
  6
CONTINUOUS
 62
     7
 66
     1
 10
0.0
 20
0.0
 30
0.0
 70
     1
  0
VERTEX
  5
650
  8
DATA
  6
CONTINUOUS
 62
     7
 10
310.5
 20
-462.5
 30
0.0
  0
VERTEX
  5
651
  8
DATA
  6
CONTINUOUS
 62
     7
 10
315.5
 20
-462.5
 30
0.0
  0
VERTEX
  5
652
  8
DATA
  6
CONTINUOUS
 62
     7
 10
315.5
 20
-467.49999999999989
 30
0.0
  0
VERTEX
  5
653
  8
DATA
  6
CONTINUOUS
 62
     7
 10
310.5
 20
-467.49999999999989
 30
0.0
  0
SEQEND
  5
654
  8
DATA
  6
CONTINUOUS
 62
     7
  0
TEXT
  5
310
  8
DATA
 62
     7
 10
310.03730468750001
 20
-461.76953125
 30
0.0
 40
1.5390625
  1
-10dbV
 41
0.7
 72
     1
 11
313.0
 21
-461.0
 31
0.0
 73
     2
  0
TEXT
  5
311
  8
DATA
 62
     7
 10
309.94752604166672
 20
-459.76953124999989
 30
0.0
 40
1.5390625
  1
+4dBu/
 41
0.7
 72
     1
 11
313.0
 21
-459.0
 31
0.0
 73
     2
  0
TEXT
  5
312
  8
DATA
 62
     7
 10
325.83980468750002
 20
-476.15429687499989
 30
0.0
 40
2.30859375
  1
ANALOG IN
 41
0.7
 72
     1
 11
332.25
 21
-475.0
 31
0.0
 73
     2
  0
CIRCLE
  5
313
  8
DATA
  6
CONTINUOUS
 62
     7
 10
362.5
 20
-469.5
 30
0.0
 40
3.0
  0
CIRCLE
  5
314
  8
DATA
  6
CONTINUOUS
 62
     7
 10
362.5
 20
-469.5
 30
0.0
 40
1.5
  0
TEXT
  5
315
  8
DATA
 62
     7
 10
360.52486979166667
 20
-466.26953125
 30
0.0
 40
1.5390625
  1
+15V
 41
0.7
 72
     1
 11
362.5
 21
-465.5
 31
0.0
 73
     2
  0
CIRCLE
  5
316
  8
DATA
  6
CONTINUOUS
 62
     7
 10
347.0
 20
-466.0
 30
0.0
 40
5.5
  0
CIRCLE
  5
317
  8
DATA
  6
CONTINUOUS
 62
     7
 10
347.0
 20
-466.0
 30
0.0
 40
3.25
  0
POLYLINE
  5
318
  8
DATA
  6
CONTINUOUS
 62
     7
 66
     1
 10
0.0
 20
0.0
 30
0.0
 70
     1
  0
VERTEX
  5
655
  8
DATA
  6
CONTINUOUS
 62
     7
 10
339.27259338968747
 20
-463.92944763917978
 30
0.0
  0
VERTEX
  5
656
  8
DATA
  6
CONTINUOUS
 62
     7
 10
341.34314575050769
 20
-471.65685424949231
 30
0.0
  0
VERTEX
  5
657
  8
DATA
  6
CONTINUOUS
 62
     7
 10
349.07055236082022
 20
-473.72740661031253
 30
0.0
  0
VERTEX
  5
658
  8
DATA
  6
CONTINUOUS
 62
     7
 10
354.72740661031241
 20
-468.0705523608201
 30
0.0
  0
VERTEX
  5
659
  8
DATA
  6
CONTINUOUS
 62
     7
 10
352.65685424949231
 20
-460.34314575050757
 30
0.0
  0
VERTEX
  5
65A
  8
DATA
  6
CONTINUOUS
 62
     7
 10
344.92944763917978
 20
-458.27259338968742
 30
0.0
  0
SEQEND
  5
65B
  8
DATA
  6
CONTINUOUS
 62
     7
  0
TEXT
  5
321
  8
DATA
 62
     7
 10
357.70582031250001
 20
-476.15429687499989
 30
0.0
 40
2.30859375
  1
RMC MIC
 41
0.7
 72
     1
 11
362.5
 21
-475.0
 31
0.0
 73
     2
  0
CIRCLE
  5
322
  8
DATA
  6
CONTINUOUS
 62
     7
 10
375.0
 20
-469.0
 30
0.0
 40
1.5
  0
CIRCLE
  5
323
  8
DATA
  6
CONTINUOUS
 62
     7
 10
380.25
 20
-469.0
 30
0.0
 40
1.5
  0
CIRCLE
  5
324
  8
DATA
  6
CONTINUOUS
 62
     7
 10
385.5
 20
-469.0
 30
0.0
 40
1.5
  0
CIRCLE
  5
325
  8
DATA
  6
CONTINUOUS
 62
     7
 10
390.75
 20
-469.0
 30
0.0
 40
1.5
  0
CIRCLE
  5
326
  8
DATA
  6
CONTINUOUS
 62
     7
 10
396.0
 20
-469.0
 30
0.0
 40
1.5
  0
TEXT
  5
327
  8
DATA
 62
     7
 10
405.84531249999998
 20
-427.92679979982671
 30
0.0
 40
2.30859375
  1
USB
 41
0.7
 72
     1
 11
408.0
 21
-426.7725029248266
 31
0.0
 73
     2
  0
TEXT
  5
328
  8
DATA
 62
     7
 10
373.5
 20
-474.57999999999998
 30
0.0
 40
2.30859375
  1
ACTIVE INPUT
 41
0.7
 11
373.5
 21
-472.27140624999993
 31
0.0
 73
     3
  0
POLYLINE
  5
329
  8
DATA
  6
CONTINUOUS
 62
     7
 66
     1
 10
0.0
 20
0.0
 30
0.0
 70
     1
  0
VERTEX
  5
65C
  8
DATA
  6
CONTINUOUS
 62
     7
 10
416.5
 20
-433.0
 30
0.0
  0
VERTEX
  5
65D
  8
DATA
  6
CONTINUOUS
 62
     7
 10
437.5
 20
-433.0
 30
0.0
  0
VERTEX
  5
65E
  8
DATA
  6
CONTINUOUS
 62
     7
 10
437.5
 20
-440.0
 30
0.0
  0
VERTEX
  5
65F
  8
DATA
  6
CONTINUOUS
 62
     7
 10
416.5
 20
-440.0
 30
0.0
  0
SEQEND
  5
660
  8
DATA
  6
CONTINUOUS
 62
     7
  0
POLYLINE
  5
330
  8
DATA
  6
CONTINUOUS
 62
     7
 66
     1
 10
0.0
 20
0.0
 30
0.0
 70
     1
  0
VERTEX
  5
661
  8
DATA
  6
CONTINUOUS
 62
     7
 10
418.0
 20
-435.0
 30
0.0
  0
VERTEX
  5
662
  8
DATA
  6
CONTINUOUS
 62
     7
 10
419.0
 20
-435.0
 30
0.0
  0
VERTEX
  5
663
  8
DATA
  6
CONTINUOUS
 62
     7
 10
419.0
 20
-438.0
 30
0.0
  0
VERTEX
  5
664
  8
DATA
  6
CONTINUOUS
 62
     7
 10
418.0
 20
-438.0
 30
0.0
  0
SEQEND
  5
665
  8
DATA
  6
CONTINUOUS
 62
     7
  0
POLYLINE
  5
337
  8
DATA
  6
CONTINUOUS
 62
     7
 66
     1
 10
0.0
 20
0.0
 30
0.0
 70
     1
  0
VERTEX
  5
666
  8
DATA
  6
CONTINUOUS
 62
     7
 10
420.42857142857127
 20
-435.0
 30
0.0
  0
VERTEX
  5
667
  8
DATA
  6
CONTINUOUS
 62
     7
 10
421.42857142857127
 20
-435.0
 30
0.0
  0
VERTEX
  5
668
  8
DATA
  6
CONTINUOUS
 62
     7
 10
421.42857142857127
 20
-438.0
 30
0.0
  0
VERTEX
  5
669
  8
DATA
  6
CONTINUOUS
 62
     7
 10
420.42857142857127
 20
-438.0
 30
0.0
  0
SEQEND
  5
66A
  8
DATA
  6
CONTINUOUS
 62
     7
  0
POLYLINE
  5
33E
  8
DATA
  6
CONTINUOUS
 62
     7
 66
     1
 10
0.0
 20
0.0
 30
0.0
 70
     1
  0
VERTEX
  5
66B
  8
DATA
  6
CONTINUOUS
 62
     7
 10
422.85714285714272
 20
-435.0
 30
0.0
  0
VERTEX
  5
66C
  8
DATA
  6
CONTINUOUS
 62
     7
 10
423.85714285714272
 20
-435.0
 30
0.0
  0
VERTEX
  5
66D
  8
DATA
  6
CONTINUOUS
 62
     7
 10
423.85714285714272
 20
-438.0
 30
0.0
  0
VERTEX
  5
66E
  8
DATA
  6
CONTINUOUS
 62
     7
 10
422.85714285714272
 20
-438.0
 30
0.0
  0
SEQEND
  5
66F
  8
DATA
  6
CONTINUOUS
 62
     7
  0
POLYLINE
  5
345
  8
DATA
  6
CONTINUOUS
 62
     7
 66
     1
 10
0.0
 20
0.0
 30
0.0
 70
     1
  0
VERTEX
  5
670
  8
DATA
  6
CONTINUOUS
 62
     7
 10
425.28571428571428
 20
-435.0
 30
0.0
  0
VERTEX
  5
671
  8
DATA
  6
CONTINUOUS
 62
     7
 10
426.28571428571428
 20
-435.0
 30
0.0
  0
VERTEX
  5
672
  8
DATA
  6
CONTINUOUS
 62
     7
 10
426.28571428571428
 20
-438.0
 30
0.0
  0
VERTEX
  5
673
  8
DATA
  6
CONTINUOUS
 62
     7
 10
425.28571428571428
 20
-438.0
 30
0.0
  0
SEQEND
  5
674
  8
DATA
  6
CONTINUOUS
 62
     7
  0
POLYLINE
  5
34C
  8
DATA
  6
CONTINUOUS
 62
     7
 66
     1
 10
0.0
 20
0.0
 30
0.0
 70
     1
  0
VERTEX
  5
675
  8
DATA
  6
CONTINUOUS
 62
     7
 10
427.71428571428561
 20
-435.0
 30
0.0
  0
VERTEX
  5
676
  8
DATA
  6
CONTINUOUS
 62
     7
 10
428.71428571428561
 20
-435.0
 30
0.0
  0
VERTEX
  5
677
  8
DATA
  6
CONTINUOUS
 62
     7
 10
428.71428571428561
 20
-438.0
 30
0.0
  0
VERTEX
  5
678
  8
DATA
  6
CONTINUOUS
 62
     7
 10
427.71428571428561
 20
-438.0
 30
0.0
  0
SEQEND
  5
679
  8
DATA
  6
CONTINUOUS
 62
     7
  0
POLYLINE
  5
353
  8
DATA
  6
CONTINUOUS
 62
     7
 66
     1
 10
0.0
 20
0.0
 30
0.0
 70
     1
  0
VERTEX
  5
67A
  8
DATA
  6
CONTINUOUS
 62
     7
 10
430.14285714285722
 20
-435.0
 30
0.0
  0
VERTEX
  5
67B
  8
DATA
  6
CONTINUOUS
 62
     7
 10
431.14285714285722
 20
-435.0
 30
0.0
  0
VERTEX
  5
67C
  8
DATA
  6
CONTINUOUS
 62
     7
 10
431.14285714285722
 20
-438.0
 30
0.0
  0
VERTEX
  5
67D
  8
DATA
  6
CONTINUOUS
 62
     7
 10
430.14285714285722
 20
-438.0
 30
0.0
  0
SEQEND
  5
67E
  8
DATA
  6
CONTINUOUS
 62
     7
  0
POLYLINE
  5
35A
  8
DATA
  6
CONTINUOUS
 62
     7
 66
     1
 10
0.0
 20
0.0
 30
0.0
 70
     1
  0
VERTEX
  5
67F
  8
DATA
  6
CONTINUOUS
 62
     7
 10
432.5714285714285
 20
-435.0
 30
0.0
  0
VERTEX
  5
680
  8
DATA
  6
CONTINUOUS
 62
     7
 10
433.5714285714285
 20
-435.0
 30
0.0
  0
VERTEX
  5
681
  8
DATA
  6
CONTINUOUS
 62
     7
 10
433.5714285714285
 20
-438.0
 30
0.0
  0
VERTEX
  5
682
  8
DATA
  6
CONTINUOUS
 62
     7
 10
432.5714285714285
 20
-438.0
 30
0.0
  0
SEQEND
  5
683
  8
DATA
  6
CONTINUOUS
 62
     7
  0
POLYLINE
  5
361
  8
DATA
  6
CONTINUOUS
 62
     7
 66
     1
 10
0.0
 20
0.0
 30
0.0
 70
     1
  0
VERTEX
  5
684
  8
DATA
  6
CONTINUOUS
 62
     7
 10
435.0
 20
-435.0
 30
0.0
  0
VERTEX
  5
685
  8
DATA
  6
CONTINUOUS
 62
     7
 10
436.0
 20
-435.0
 30
0.0
  0
VERTEX
  5
686
  8
DATA
  6
CONTINUOUS
 62
     7
 10
436.0
 20
-438.0
 30
0.0
  0
VERTEX
  5
687
  8
DATA
  6
CONTINUOUS
 62
     7
 10
435.0
 20
-438.0
 30
0.0
  0
SEQEND
  5
688
  8
DATA
  6
CONTINUOUS
 62
     7
  0
LINE
  5
368
  8
DATA
  6
CONTINUOUS
 62
     7
 10
418.0
 20
-436.0
 30
0.0
 11
419.0
 21
-436.0
 31
0.0
  0
LINE
  5
369
  8
DATA
  6
CONTINUOUS
 62
     7
 10
420.42857142857127
 20
-437.0
 30
0.0
 11
421.42857142857139
 21
-437.0
 31
0.0
  0
LINE
  5
36A
  8
DATA
  6
CONTINUOUS
 62
     7
 10
422.85714285714278
 20
-437.0
 30
0.0
 11
423.85714285714272
 21
-437.0
 31
0.0
  0
LINE
  5
36B
  8
DATA
  6
CONTINUOUS
 62
     7
 10
425.28571428571422
 20
-437.0
 30
0.0
 11
426.28571428571428
 21
-437.0
 31
0.0
  0
LINE
  5
36C
  8
DATA
  6
CONTINUOUS
 62
     7
 10
427.71428571428561
 20
-437.0
 30
0.0
 11
428.71428571428572
 21
-437.0
 31
0.0
  0
LINE
  5
36D
  8
DATA
  6
CONTINUOUS
 62
     7
 10
430.14285714285722
 20
-437.0
 30
0.0
 11
431.14285714285722
 21
-437.0
 31
0.0
  0
LINE
  5
36E
  8
DATA
  6
CONTINUOUS
 62
     7
 10
432.5714285714285
 20
-437.0
 30
0.0
 11
433.57142857142861
 21
-437.0
 31
0.0
  0
LINE
  5
36F
  8
DATA
  6
CONTINUOUS
 62
     7
 10
435.0
 20
-437.0
 30
0.0
 11
436.0
 21
-437.0
 31
0.0
  0
TEXT
  5
370
  8
DATA
 62
     7
 10
419.26953124999989
 20
-432.0
 30
0.0
 40
1.5390625
  1
Left
 50
90.0
 41
0.7
 11
418.5
 21
-432.0
 31
0.0
 73
     2
  0
TEXT
  5
371
  8
DATA
 62
     7
 10
421.69810267857127
 20
-432.0
 30
0.0
 40
1.5390625
  1
Right
 50
90.0
 41
0.7
 11
420.92857142857127
 21
-432.0
 31
0.0
 73
     2
  0
TEXT
  5
372
  8
DATA
 62
     7
 10
424.12667410714272
 20
-432.0
 30
0.0
 40
1.5390625
  1
Center
 50
90.0
 41
0.7
 11
423.35714285714272
 21
-432.0
 31
0.0
 73
     2
  0
TEXT
  5
373
  8
DATA
 62
     7
 10
426.55524553571428
 20
-432.0
 30
0.0
 40
1.5390625
  1
L Surround
 50
90.0
 41
0.7
 11
425.78571428571428
 21
-432.0
 31
0.0
 73
     2
  0
TEXT
  5
374
  8
DATA
 62
     7
 10
428.98381696428561
 20
-432.0
 30
0.0
 40
1.5390625
  1
R Surround
 50
90.0
 41
0.7
 11
428.21428571428561
 21
-432.0
 31
0.0
 73
     2
  0
TEXT
  5
375
  8
DATA
 62
     7
 10
431.41238839285722
 20
-432.0
 30
0.0
 40
1.5390625
  1
C Surround
 50
90.0
 41
0.7
 11
430.64285714285722
 21
-432.0
 31
0.0
 73
     2
  0
TEXT
  5
376
  8
DATA
 62
     7
 10
433.8409598214285
 20
-432.0
 30
0.0
 40
1.5390625
  1
Left Extra
 50
90.0
 41
0.7
 11
433.0714285714285
 21
-432.0
 31
0.0
 73
     2
  0
TEXT
  5
377
  8
DATA
 62
     7
 10
436.26953125
 20
-432.0
 30
0.0
 40
1.5390625
  1
Right Extra
 50
90.0
 41
0.7
 11
435.5
 21
-432.0
 31
0.0
 73
     2
  0
TEXT
  5
378
  8
DATA
 62
     7
 10
418.36533203124992
 20
-439.5771484375
 30
0.0
 40
1.154296875
  1
1
 41
0.7
 72
     1
 11
418.5
 21
-439.0
 31
0.0
 73
     2
  0
TEXT
  5
379
  8
DATA
 62
     7
 10
420.65923549107129
 20
-439.5771484375
 30
0.0
 40
1.154296875
  1
2
 41
0.7
 72
     1
 11
420.92857142857127
 21
-439.0
 31
0.0
 73
     2
  0
TEXT
  5
37A
  8
DATA
 62
     7
 10
435.23066406250001
 20
-439.5771484375
 30
0.0
 40
1.154296875
  1
8
 41
0.7
 72
     1
 11
435.5
 21
-439.0
 31
0.0
 73
     2
  0
TEXT
  5
37B
  8
DATA
 62
     7
 10
423.08780691964267
 20
-439.5771484375
 30
0.0
 40
1.154296875
  1
3
 41
0.7
 72
     1
 11
423.35714285714272
 21
-439.0
 31
0.0
 73
     2
  0
TEXT
  5
37C
  8
DATA
 62
     7
 10
425.51637834821429
 20
-439.5771484375
 30
0.0
 40
1.154296875
  1
4
 41
0.7
 72
     1
 11
425.78571428571428
 21
-439.0
 31
0.0
 73
     2
  0
TEXT
  5
37D
  8
DATA
 62
     7
 10
427.94494977678562
 20
-439.5771484375
 30
0.0
 40
1.154296875
  1
5
 41
0.7
 72
     1
 11
428.21428571428561
 21
-439.0
 31
0.0
 73
     2
  0
TEXT
  5
37E
  8
DATA
 62
     7
 10
430.37352120535718
 20
-439.5771484375
 30
0.0
 40
1.154296875
  1
6
 41
0.7
 72
     1
 11
430.64285714285722
 21
-439.0
 31
0.0
 73
     2
  0
TEXT
  5
37F
  8
DATA
 62
     7
 10
432.80209263392851
 20
-439.5771484375
 30
0.0
 40
1.154296875
  1
7
 41
0.7
 72
     1
 11
433.0714285714285
 21
-439.0
 31
0.0
 73
     2
  0
TEXT
  5
380
  8
DATA
 62
     7
 10
416.5
 20
-444.43999999999988
 30
0.0
 40
3.078125
  1
SPEAKER ID
 41
0.7
 11
416.5
 21
-441.361875
 31
0.0
 73
     3
  0
TEXT
  5
381
  8
DATA
 62
     7
 10
376.09945551779617
 20
-466.5010028600617
 30
0.0
 40
2.30859375
  1
ANALOG
 50
90.0
 41
0.7
 11
374.94515864279617
 21
-466.5010028600617
 31
0.0
 73
     2
  0
TEXT
  5
382
  8
DATA
 62
     7
 10
381.34945551779617
 20
-466.5010028600617
 30
0.0
 40
2.30859375
  1
S/PDIF
 50
90.0
 41
0.7
 11
380.19515864279617
 21
-466.5010028600617
 31
0.0
 73
     2
  0
TEXT
  5
383
  8
DATA
 62
     7
 10
386.654296875
 20
-466.5
 30
0.0
 40
2.30859375
  1
AES/EBU
 50
90.0
 41
0.7
 11
385.5
 21
-466.5
 31
0.0
 73
     2
  0
TEXT
  5
384
  8
DATA
 62
     7
 10
391.90429687500011
 20
-466.5
 30
0.0
 40
2.30859375
  1
Ch.A
 50
90.0
 41
0.7
 11
390.75
 21
-466.5
 31
0.0
 73
     2
  0
TEXT
  5
385
  8
DATA
 62
     7
 10
397.154296875
 20
-466.5
 30
0.0
 40
2.30859375
  1
Ch.B
 50
90.0
 41
0.7
 11
396.0
 21
-466.5
 31
0.0
 73
     2
  0
TEXT
  5
386
  8
DATA
 62
     7
 10
440.9249997284677
 20
-439.57999999999998
 30
0.0
 40
2.30859375
  1
120V～,60Hz
 41
0.7
 11
440.9249997284677
 21
-437.27140624999998
 31
0.0
 73
     3
  0
TEXT
  5
387
  8
DATA
 62
     7
 10
440.9249997284677
 20
-443.57999999999993
 30
0.0
 40
2.30859375
  1
130 Watts
 41
0.7
 11
440.9249997284677
 21
-441.27140624999998
 31
0.0
 73
     3
  0
LINE
  5
388
  8
DATA
  6
CONTINUOUS
 62
     7
 10
406.5
 20
-474.0
 30
0.0
 11
406.5
 21
-452.0
 31
0.0
  0
LINE
  5
389
  8
DATA
  6
CONTINUOUS
 62
     7
 10
450.49999999999989
 20
-479.0
 30
0.0
 11
411.5
 21
-479.0
 31
0.0
  0
LINE
  5
38A
  8
DATA
  6
CONTINUOUS
 62
     7
 10
455.49999999999989
 20
-452.0
 30
0.0
 11
455.49999999999989
 21
-474.0
 31
0.0
  0
LINE
  5
38B
  8
DATA
  6
CONTINUOUS
 62
     7
 10
411.5
 20
-447.0
 30
0.0
 11
450.49999999999989
 21
-447.0
 31
0.0
  0
ARC
  5
38C
  8
DATA
  6
CONTINUOUS
 62
     7
 10
411.5
 20
-474.0
 30
0.0
 40
5.0
 50
180.0
 51
270.0
  0
ARC
  5
38D
  8
DATA
  6
CONTINUOUS
 62
     7
 10
411.5
 20
-452.0
 30
0.0
 40
5.0
 50
90.0
 51
180.0
  0
ARC
  5
38E
  8
DATA
  6
CONTINUOUS
 62
     7
 10
450.49999999999989
 20
-452.0
 30
0.0
 40
5.0
 50
0.0
 51
90.0
  0
ARC
  5
38F
  8
DATA
  6
CONTINUOUS
 62
     7
 10
450.49999999999989
 20
-474.0
 30
0.0
 40
5.0
 50
270.0
 51
0.0
  0
POLYLINE
  5
390
  8
DATA
  6
CONTINUOUS
 62
     7
 66
     1
 10
0.0
 20
0.0
 30
0.0
 70
     1
  0
VERTEX
  5
689
  8
DATA
  6
CONTINUOUS
 62
     7
 10
416.0
 20
-450.49999999999989
 30
0.0
  0
VERTEX
  5
68A
  8
DATA
  6
CONTINUOUS
 62
     7
 10
446.0
 20
-450.49999999999989
 30
0.0
  0
VERTEX
  5
68B
  8
DATA
  6
CONTINUOUS
 62
     7
 10
446.0
 20
-475.49999999999989
 30
0.0
  0
VERTEX
  5
68C
  8
DATA
  6
CONTINUOUS
 62
     7
 10
416.0
 20
-475.49999999999989
 30
0.0
  0
SEQEND
  5
68D
  8
DATA
  6
CONTINUOUS
 62
     7
  0
CIRCLE
  5
397
  8
DATA
  6
CONTINUOUS
 62
     7
 10
411.0
 20
-463.0
 30
0.0
 40
3.0
  0
LINE
  5
398
  8
DATA
  6
STYLE_11
 62
     7
 10
411.0
 20
-464.5
 30
0.0
 11
411.0
 21
-461.5
 31
0.0
  0
LINE
  5
399
  8
DATA
  6
STYLE_11
 62
     7
 10
409.49999999999989
 20
-463.0
 30
0.0
 11
412.5
 21
-463.0
 31
0.0
  0
CIRCLE
  5
39A
  8
DATA
  6
CONTINUOUS
 62
     7
 10
451.0
 20
-463.0
 30
0.0
 40
3.0
  0
LINE
  5
39B
  8
DATA
  6
STYLE_11
 62
     7
 10
451.0
 20
-464.5
 30
0.0
 11
451.0
 21
-461.5
 31
0.0
  0
LINE
  5
39C
  8
DATA
  6
STYLE_11
 62
     7
 10
449.5
 20
-463.0
 30
0.0
 11
452.5
 21
-463.0
 31
0.0
  0
LINE
  5
39D
  8
DATA
  6
CONTINUOUS
 62
     7
 10
418.0
 20
-469.0
 30
0.0
 11
418.0
 21
-457.0
 31
0.0
  0
LINE
  5
39E
  8
DATA
  6
CONTINUOUS
 62
     7
 10
431.0
 20
-474.0
 30
0.0
 11
423.0
 21
-474.0
 31
0.0
  0
LINE
  5
39F
  8
DATA
  6
CONTINUOUS
 62
     7
 10
423.0
 20
-474.0
 30
0.0
 11
418.0
 21
-469.0
 31
0.0
  0
LINE
  5
3A0
  8
DATA
  6
CONTINUOUS
 62
     7
 10
433.0
 20
-454.0
 30
0.0
 11
433.0
 21
-472.0
 31
0.0
  0
LINE
  5
3A1
  8
DATA
  6
CONTINUOUS
 62
     7
 10
423.0
 20
-452.0
 30
0.0
 11
431.0
 21
-452.0
 31
0.0
  0
LINE
  5
3A2
  8
DATA
  6
CONTINUOUS
 62
     7
 10
423.0
 20
-452.0
 30
0.0
 11
418.0
 21
-457.0
 31
0.0
  0
POLYLINE
  5
3A3
  8
DATA
  6
CONTINUOUS
 62
     7
 66
     1
 10
0.0
 20
0.0
 30
0.0
 70
     1
  0
VERTEX
  5
68E
  8
DATA
  6
CONTINUOUS
 62
     7
 10
425.75
 20
-454.75
 30
0.0
  0
VERTEX
  5
68F
  8
DATA
  6
CONTINUOUS
 62
     7
 10
429.75
 20
-454.75
 30
0.0
  0
VERTEX
  5
690
  8
DATA
  6
CONTINUOUS
 62
     7
 10
429.75
 20
-456.74999999999989
 30
0.0
  0
VERTEX
  5
691
  8
DATA
  6
CONTINUOUS
 62
     7
 10
425.75
 20
-456.74999999999989
 30
0.0
  0
SEQEND
  5
692
  8
DATA
  6
CONTINUOUS
 62
     7
  0
POLYLINE
  5
3AA
  8
DATA
  6
CONTINUOUS
 62
     7
 66
     1
 10
0.0
 20
0.0
 30
0.0
 70
     1
  0
VERTEX
  5
693
  8
DATA
  6
CONTINUOUS
 62
     7
 10
425.75
 20
-469.24999999999989
 30
0.0
  0
VERTEX
  5
694
  8
DATA
  6
CONTINUOUS
 62
     7
 10
429.75
 20
-469.24999999999989
 30
0.0
  0
VERTEX
  5
695
  8
DATA
  6
CONTINUOUS
 62
     7
 10
429.75
 20
-471.25
 30
0.0
  0
VERTEX
  5
696
  8
DATA
  6
CONTINUOUS
 62
     7
 10
425.75
 20
-471.25
 30
0.0
  0
SEQEND
  5
697
  8
DATA
  6
CONTINUOUS
 62
     7
  0
POLYLINE
  5
3B1
  8
DATA
  6
CONTINUOUS
 62
     7
 66
     1
 10
0.0
 20
0.0
 30
0.0
 70
     1
  0
VERTEX
  5
698
  8
DATA
  6
CONTINUOUS
 62
     7
 10
421.25
 20
-462.0
 30
0.0
  0
VERTEX
  5
699
  8
DATA
  6
CONTINUOUS
 62
     7
 10
425.25
 20
-462.0
 30
0.0
  0
VERTEX
  5
69A
  8
DATA
  6
CONTINUOUS
 62
     7
 10
425.25
 20
-464.0
 30
0.0
  0
VERTEX
  5
69B
  8
DATA
  6
CONTINUOUS
 62
     7
 10
421.25
 20
-464.0
 30
0.0
  0
SEQEND
  5
69C
  8
DATA
  6
CONTINUOUS
 62
     7
  0
ARC
  5
3B8
  8
DATA
  6
CONTINUOUS
 62
     7
 10
431.0
 20
-454.0
 30
0.0
 40
2.0
 50
0.0
 51
90.0
  0
ARC
  5
3B9
  8
DATA
  6
CONTINUOUS
 62
     7
 10
431.0
 20
-472.0
 30
0.0
 40
2.0
 50
270.0
 51
0.0
  0
ARC
  5
3BA
  8
DATA
  6
CONTINUOUS
 62
     7
 10
288.35000000000002
 20
-157.0
 30
0.0
 40
5.0
 50
90.0
 51
180.0
  0
ARC
  5
3BB
  8
DATA
  6
CONTINUOUS
 62
     7
 10
478.35000000000002
 20
-157.0
 30
0.0
 40
5.0
 50
0.0
 51
90.0
  0
ARC
  5
3BC
  8
DATA
  6
CONTINUOUS
 62
     7
 10
478.35000000000002
 20
-502.0
 30
0.0
 40
5.0
 50
270.0
 51
0.0
  0
ARC
  5
3BD
  8
DATA
  6
CONTINUOUS
 62
     7
 10
288.35000000000002
 20
-502.0
 30
0.0
 40
5.0
 50
180.0
 51
270.0
  0
CIRCLE
  5
3BE
  8
DATA
  6
CONTINUOUS
 62
     7
 10
292.85000000000002
 20
-497.5
 30
0.0
 40
4.25
  0
LINE
  5
3BF
  8
DATA
  6
CONTINUOUS
 62
     7
 10
295.35000000000002
 20
-497.5
 30
0.0
 11
290.35000000000002
 21
-497.5
 31
0.0
  0
LINE
  5
3C0
  8
DATA
  6
CONTINUOUS
 62
     7
 10
292.85000000000002
 20
-495.0
 30
0.0
 11
292.85000000000002
 21
-500.0
 31
0.0
  0
CIRCLE
  5
3C1
  8
DATA
  6
CONTINUOUS
 62
     7
 10
473.85000000000002
 20
-497.5
 30
0.0
 40
4.25
  0
LINE
  5
3C2
  8
DATA
  6
CONTINUOUS
 62
     7
 10
476.35000000000002
 20
-497.5
 30
0.0
 11
471.35000000000002
 21
-497.5
 31
0.0
  0
LINE
  5
3C3
  8
DATA
  6
CONTINUOUS
 62
     7
 10
473.85000000000002
 20
-495.0
 30
0.0
 11
473.85000000000002
 21
-500.0
 31
0.0
  0
LINE
  5
3C4
  8
DATA
  6
CONTINUOUS
 62
     7
 10
-430.39999999999998
 20
252.5
 30
0.0
 11
-430.39999999999998
 21
251.0
 31
0.0
  0
LINE
  5
3C5
  8
DATA
  6
CONTINUOUS
 62
     7
 10
-421.89999999999992
 20
252.5
 30
0.0
 11
-421.89999999999992
 21
251.0
 31
0.0
  0
ARC
  5
3C6
  8
DATA
  6
CONTINUOUS
 62
     7
 10
-426.14999999999992
 20
247.22916666666671
 30
0.0
 40
6.7708333333332726
 50
51.119930343647198
 51
128.88006965635279
  0
LINE
  5
3C7
  8
DATA
  6
CONTINUOUS
 62
     7
 10
-590.8499999999998
 20
265.50000000000011
 30
0.0
 11
-594.8499999999998
 21
265.50000000000011
 31
0.0
  0
LINE
  5
3C8
  8
DATA
  6
CONTINUOUS
 62
     7
 10
-616.65000000000009
 20
249.50000000000011
 30
0.0
 11
-616.65000000000009
 21
248.0
 31
0.0
  0
LINE
  5
3C9
  8
DATA
  6
CONTINUOUS
 62
     7
 10
-416.64999999999998
 20
249.50000000000011
 30
0.0
 11
-416.64999999999998
 21
248.0
 31
0.0
  0
ARC
  5
3CA
  8
DATA
  6
CONTINUOUS
 62
     7
 10
99.500000000000014
 20
-153.5
 30
0.0
 40
1.5
 50
0.0
 51
90.0
  0
ARC
  5
3CB
  8
DATA
  6
CONTINUOUS
 62
     7
 10
99.500000000000014
 20
-505.49999999999989
 30
0.0
 40
1.5
 50
270.0
 51
0.0
  0
LINE
  5
3CC
  8
DATA
  6
CONTINUOUS
 62
     7
 10
-418.14999999999992
 20
251.00000000000011
 30
0.0
 11
-615.1500000000002
 21
251.00000000000011
 31
0.0
  0
ARC
  5
3CD
  8
DATA
  6
CONTINUOUS
 62
     7
 10
-615.1500000000002
 20
249.50000000000011
 30
0.0
 40
1.5
 50
90.0
 51
180.0
  0
ARC
  5
3CE
  8
DATA
  6
CONTINUOUS
 62
     7
 10
-418.14999999999992
 20
249.50000000000011
 30
0.0
 40
1.5
 50
0.0
 51
90.0
  0
LINE
  5
3CF
  8
DATA
  6
CONTINUOUS
 62
     7
 10
-611.4000000000002
 20
252.5
 30
0.0
 11
-611.4000000000002
 21
251.0
 31
0.0
  0
LINE
  5
3D0
  8
DATA
  6
CONTINUOUS
 62
     7
 10
-602.9000000000002
 20
252.5
 30
0.0
 11
-602.9000000000002
 21
251.0
 31
0.0
  0
ARC
  5
3D1
  8
DATA
  6
CONTINUOUS
 62
     7
 10
-607.1500000000002
 20
247.22916666666671
 30
0.0
 40
6.7708333333332726
 50
51.119930343647198
 51
128.88006965635279
  0
LINE
  5
3D2
  8
DATA
  6
CONTINUOUS
 62
     7
 10
-594.8499999999998
 20
265.50000000000011
 30
0.0
 11
-595.10000000000002
 21
251.00000000000011
 31
0.0
  0
LINE
  5
3D3
  8
DATA
  6
CONTINUOUS
 62
     7
 10
-590.8499999999998
 20
265.50000000000011
 30
0.0
 11
-590.59999999999968
 21
251.00000000000011
 31
0.0
  0
LINE
  5
3D4
  8
DATA
  6
CONTINUOUS
 62
     7
 10
-578.14999999999975
 20
265.50000000000011
 30
0.0
 11
-582.14999999999975
 21
265.50000000000011
 31
0.0
  0
LINE
  5
3D5
  8
DATA
  6
CONTINUOUS
 62
     7
 10
-582.14999999999975
 20
265.50000000000011
 30
0.0
 11
-582.39999999999986
 21
251.00000000000011
 31
0.0
  0
LINE
  5
3D6
  8
DATA
  6
CONTINUOUS
 62
     7
 10
-578.14999999999975
 20
265.50000000000011
 30
0.0
 11
-577.89999999999986
 21
251.00000000000011
 31
0.0
  0
LINE
  5
3D7
  8
DATA
  6
CONTINUOUS
 62
     7
 10
-565.4499999999997
 20
265.50000000000011
 30
0.0
 11
-569.4499999999997
 21
265.50000000000011
 31
0.0
  0
LINE
  5
3D8
  8
DATA
  6
CONTINUOUS
 62
     7
 10
-569.4499999999997
 20
265.50000000000011
 30
0.0
 11
-569.69999999999982
 21
251.00000000000011
 31
0.0
  0
LINE
  5
3D9
  8
DATA
  6
CONTINUOUS
 62
     7
 10
-565.4499999999997
 20
265.50000000000011
 30
0.0
 11
-565.19999999999982
 21
251.00000000000011
 31
0.0
  0
LINE
  5
3DA
  8
DATA
  6
CONTINUOUS
 62
     7
 10
-552.74999999999989
 20
265.50000000000011
 30
0.0
 11
-556.74999999999989
 21
265.50000000000011
 31
0.0
  0
LINE
  5
3DB
  8
DATA
  6
CONTINUOUS
 62
     7
 10
-556.74999999999989
 20
265.50000000000011
 30
0.0
 11
-557.00000000000011
 21
251.00000000000011
 31
0.0
  0
LINE
  5
3DC
  8
DATA
  6
CONTINUOUS
 62
     7
 10
-552.74999999999989
 20
265.50000000000011
 30
0.0
 11
-552.5
 21
251.00000000000011
 31
0.0
  0
LINE
  5
3DD
  8
DATA
  6
CONTINUOUS
 62
     7
 10
-540.04999999999995
 20
265.50000000000011
 30
0.0
 11
-544.04999999999995
 21
265.50000000000011
 31
0.0
  0
LINE
  5
3DE
  8
DATA
  6
CONTINUOUS
 62
     7
 10
-544.04999999999995
 20
265.50000000000011
 30
0.0
 11
-544.29999999999995
 21
251.00000000000011
 31
0.0
  0
LINE
  5
3DF
  8
DATA
  6
CONTINUOUS
 62
     7
 10
-540.04999999999995
 20
265.50000000000011
 30
0.0
 11
-539.79999999999995
 21
251.00000000000011
 31
0.0
  0
LINE
  5
3E0
  8
DATA
  6
CONTINUOUS
 62
     7
 10
-527.34999999999991
 20
265.50000000000011
 30
0.0
 11
-531.34999999999991
 21
265.50000000000011
 31
0.0
  0
LINE
  5
3E1
  8
DATA
  6
CONTINUOUS
 62
     7
 10
-531.34999999999991
 20
265.50000000000011
 30
0.0
 11
-531.60000000000002
 21
251.00000000000011
 31
0.0
  0
LINE
  5
3E2
  8
DATA
  6
CONTINUOUS
 62
     7
 10
-527.34999999999991
 20
265.50000000000011
 30
0.0
 11
-527.09999999999991
 21
251.00000000000011
 31
0.0
  0
LINE
  5
3E3
  8
DATA
  6
CONTINUOUS
 62
     7
 10
-514.64999999999986
 20
265.50000000000011
 30
0.0
 11
-518.64999999999986
 21
265.50000000000011
 31
0.0
  0
LINE
  5
3E4
  8
DATA
  6
CONTINUOUS
 62
     7
 10
-518.64999999999986
 20
265.50000000000011
 30
0.0
 11
-518.89999999999998
 21
251.00000000000011
 31
0.0
  0
LINE
  5
3E5
  8
DATA
  6
CONTINUOUS
 62
     7
 10
-514.64999999999986
 20
265.50000000000011
 30
0.0
 11
-514.39999999999998
 21
251.00000000000011
 31
0.0
  0
LINE
  5
3E6
  8
DATA
  6
CONTINUOUS
 62
     7
 10
-501.94999999999987
 20
265.50000000000011
 30
0.0
 11
-505.94999999999987
 21
265.50000000000011
 31
0.0
  0
LINE
  5
3E7
  8
DATA
  6
CONTINUOUS
 62
     7
 10
-505.94999999999987
 20
265.50000000000011
 30
0.0
 11
-506.20000000000022
 21
251.00000000000011
 31
0.0
  0
LINE
  5
3E8
  8
DATA
  6
CONTINUOUS
 62
     7
 10
-501.94999999999987
 20
265.50000000000011
 30
0.0
 11
-501.69999999999999
 21
251.00000000000011
 31
0.0
  0
LINE
  5
3E9
  8
DATA
  6
CONTINUOUS
 62
     7
 10
-489.25
 20
265.50000000000011
 30
0.0
 11
-493.25
 21
265.50000000000011
 31
0.0
  0
LINE
  5
3EA
  8
DATA
  6
CONTINUOUS
 62
     7
 10
-493.25
 20
265.50000000000011
 30
0.0
 11
-493.5
 21
251.00000000000011
 31
0.0
  0
LINE
  5
3EB
  8
DATA
  6
CONTINUOUS
 62
     7
 10
-489.25
 20
265.50000000000011
 30
0.0
 11
-489.0
 21
251.00000000000011
 31
0.0
  0
LINE
  5
3EC
  8
DATA
  6
CONTINUOUS
 62
     7
 10
-476.55000000000001
 20
265.50000000000011
 30
0.0
 11
-480.55000000000001
 21
265.50000000000011
 31
0.0
  0
LINE
  5
3ED
  8
DATA
  6
CONTINUOUS
 62
     7
 10
-480.55000000000001
 20
265.50000000000011
 30
0.0
 11
-480.80000000000001
 21
251.00000000000011
 31
0.0
  0
LINE
  5
3EE
  8
DATA
  6
CONTINUOUS
 62
     7
 10
-476.55000000000001
 20
265.50000000000011
 30
0.0
 11
-476.2999999999999
 21
251.00000000000011
 31
0.0
  0
LINE
  5
3EF
  8
DATA
  6
CONTINUOUS
 62
     7
 10
-463.85000000000002
 20
265.50000000000011
 30
0.0
 11
-467.85000000000002
 21
265.50000000000011
 31
0.0
  0
LINE
  5
3F0
  8
DATA
  6
CONTINUOUS
 62
     7
 10
-467.85000000000002
 20
265.50000000000011
 30
0.0
 11
-468.10000000000008
 21
251.00000000000011
 31
0.0
  0
LINE
  5
3F1
  8
DATA
  6
CONTINUOUS
 62
     7
 10
-463.85000000000002
 20
265.50000000000011
 30
0.0
 11
-463.60000000000002
 21
251.00000000000011
 31
0.0
  0
LINE
  5
3F2
  8
DATA
  6
CONTINUOUS
 62
     7
 10
-451.14999999999992
 20
265.50000000000011
 30
0.0
 11
-455.14999999999992
 21
265.50000000000011
 31
0.0
  0
LINE
  5
3F3
  8
DATA
  6
CONTINUOUS
 62
     7
 10
-455.14999999999992
 20
265.50000000000011
 30
0.0
 11
-455.40000000000009
 21
251.00000000000011
 31
0.0
  0
LINE
  5
3F4
  8
DATA
  6
CONTINUOUS
 62
     7
 10
-451.14999999999992
 20
265.50000000000011
 30
0.0
 11
-450.89999999999992
 21
251.00000000000011
 31
0.0
  0
LINE
  5
3F5
  8
DATA
  6
CONTINUOUS
 62
     7
 10
-438.44999999999999
 20
265.50000000000011
 30
0.0
 11
-442.44999999999999
 21
265.50000000000011
 31
0.0
  0
LINE
  5
3F6
  8
DATA
  6
CONTINUOUS
 62
     7
 10
-442.44999999999999
 20
265.50000000000011
 30
0.0
 11
-442.7000000000001
 21
251.00000000000011
 31
0.0
  0
LINE
  5
3F7
  8
DATA
  6
CONTINUOUS
 62
     7
 10
-438.44999999999999
 20
265.50000000000011
 30
0.0
 11
-438.2000000000001
 21
251.00000000000011
 31
0.0
  0
LINE
  5
3F8
  8
DATA
  6
CONTINUOUS
 62
     7
 10
-650.0
 20
-733.0
 30
0.0
 11
-650.0
 21
-992.0
 31
0.0
  0
LINE
  5
3F9
  8
DATA
  6
CONTINUOUS
 62
     7
 10
-383.30000000000001
 20
-992.0
 30
0.0
 11
-383.30000000000001
 21
-733.0
 31
0.0
  0
LINE
  5
3FA
  8
DATA
  6
CONTINUOUS
 62
     7
 10
-644.0
 20
-998.0
 30
0.0
 11
-389.30000000000001
 21
-998.0
 31
0.0
  0
LINE
  5
3FB
  8
DATA
  6
CONTINUOUS
 62
     7
 10
-383.30000000000013
 20
-737.0
 30
0.0
 11
-650.0
 21
-737.0
 31
0.0
  0
LINE
  5
3FC
  8
DATA
  6
CONTINUOUS
 62
     7
 10
-383.30000000000013
 20
-738.0
 30
0.0
 11
-650.0
 21
-738.0
 31
0.0
  0
LINE
  5
3FD
  8
DATA
  6
CONTINUOUS
 62
     7
 10
-383.30000000000001
 20
-733.0
 30
0.0
 11
-650.0
 21
-733.0
 31
0.0
  0
ARC
  5
3FE
  8
DATA
  6
CONTINUOUS
 62
     7
 10
-516.64999999999998
 20
-1495.8166666666671
 30
0.0
 40
795.81666666666661
 50
82.127667774619994
 51
97.872332225380021
  0
ARC
  5
3FF
  8
DATA
  6
CONTINUOUS
 62
     7
 10
-644.0
 20
-992.0
 30
0.0
 40
6.0
 50
180.0
 51
270.0
  0
ARC
  5
400
  8
DATA
  6
CONTINUOUS
 62
     7
 10
-389.30000000000001
 20
-992.0
 30
0.0
 40
6.0
 50
270.0
 51
0.0
  0
ARC
  5
401
  8
DATA
  6
CONTINUOUS
 62
     7
 10
-389.29999999999978
 20
-733.0
 30
0.0
 40
5.9999999999997717
 50
0.0
 51
31.279087529542949
  0
ARC
  5
402
  8
DATA
  6
CONTINUOUS
 62
     7
 10
-437.97924060375368
 20
-762.81491516363383
 30
0.0
 40
63.08409209270112
 50
31.466782750257821
 51
61.263983541166589
  0
ARC
  5
403
  8
DATA
  6
CONTINUOUS
 62
     7
 10
-644.00000000000045
 20
-733.0
 30
0.0
 40
5.9999999999996758
 50
148.72091247045651
 51
180.0
  0
ARC
  5
404
  8
DATA
  6
CONTINUOUS
 62
     7
 10
-595.32075939624644
 20
-762.81491516363383
 30
0.0
 40
63.084092092701141
 50
118.7360164588334
 51
148.53321724974219
  0
LINE
  5
405
  8
DATA
  6
CONTINUOUS
 62
     7
 10
-381.80000000000001
 20
-941.00000000000102
 30
0.0
 11
-383.30000000000001
 21
-941.00000000000102
 31
0.0
  0
LINE
  5
406
  8
DATA
  6
CONTINUOUS
 62
     7
 10
-381.80000000000001
 20
-781.99999999999886
 30
0.0
 11
-383.30000000000001
 21
-781.99999999999886
 31
0.0
  0
ARC
  5
407
  8
DATA
  6
CONTINUOUS
 62
     7
 10
-1141.2009036144591
 20
-861.5
 30
0.0
 40
763.55090361445923
 50
354.02360104471109
 51
5.9763989552887429
  0
LINE
  5
408
  8
DATA
  6
CONTINUOUS
 62
     7
 10
-651.5
 20
-941.00000000000102
 30
0.0
 11
-650.0
 21
-941.00000000000102
 31
0.0
  0
LINE
  5
409
  8
DATA
  6
CONTINUOUS
 62
     7
 10
-651.5
 20
-781.99999999999886
 30
0.0
 11
-650.0
 21
-781.99999999999886
 31
0.0
  0
ARC
  5
40A
  8
DATA
  6
CONTINUOUS
 62
     7
 10
107.9009036144591
 20
-861.5
 30
0.0
 40
763.55090361445923
 50
174.0236010447112
 51
185.97639895528869
  0
LINE
  5
40B
  8
DATA
  6
CONTINUOUS
 62
     7
 10
-430.39999999999998
 20
-1002.5
 30
0.0
 11
-430.39999999999998
 21
-1001.0
 31
0.0
  0
LINE
  5
40C
  8
DATA
  6
CONTINUOUS
 62
     7
 10
-421.89999999999992
 20
-1002.5
 30
0.0
 11
-421.89999999999992
 21
-1001.0
 31
0.0
  0
ARC
  5
40D
  8
DATA
  6
CONTINUOUS
 62
     7
 10
-426.14999999999992
 20
-997.22916666666686
 30
0.0
 40
6.7708333333332726
 50
231.11993034364721
 51
308.88006965635282
  0
LINE
  5
40E
  8
DATA
  6
CONTINUOUS
 62
     7
 10
-590.8499999999998
 20
-1015.5
 30
0.0
 11
-594.8499999999998
 21
-1015.5
 31
0.0
  0
LINE
  5
40F
  8
DATA
  6
CONTINUOUS
 62
     7
 10
-616.65000000000009
 20
-999.5
 30
0.0
 11
-616.65000000000009
 21
-998.0
 31
0.0
  0
LINE
  5
410
  8
DATA
  6
CONTINUOUS
 62
     7
 10
-416.64999999999998
 20
-999.5
 30
0.0
 11
-416.64999999999998
 21
-998.0
 31
0.0
  0
LINE
  5
411
  8
DATA
  6
CONTINUOUS
 62
     7
 10
-418.14999999999992
 20
-1001.0
 30
0.0
 11
-615.1500000000002
 21
-1001.0
 31
0.0
  0
ARC
  5
412
  8
DATA
  6
CONTINUOUS
 62
     7
 10
-615.1500000000002
 20
-999.5
 30
0.0
 40
1.5
 50
180.0
 51
270.0
  0
ARC
  5
413
  8
DATA
  6
CONTINUOUS
 62
     7
 10
-418.14999999999992
 20
-999.5
 30
0.0
 40
1.5
 50
270.0
 51
0.0
  0
LINE
  5
414
  8
DATA
  6
CONTINUOUS
 62
     7
 10
-611.4000000000002
 20
-1002.5
 30
0.0
 11
-611.4000000000002
 21
-1001.0
 31
0.0
  0
LINE
  5
415
  8
DATA
  6
CONTINUOUS
 62
     7
 10
-602.9000000000002
 20
-1002.5
 30
0.0
 11
-602.9000000000002
 21
-1001.0
 31
0.0
  0
ARC
  5
416
  8
DATA
  6
CONTINUOUS
 62
     7
 10
-607.1500000000002
 20
-997.22916666666686
 30
0.0
 40
6.7708333333332726
 50
231.11993034364721
 51
308.88006965635282
  0
LINE
  5
417
  8
DATA
  6
CONTINUOUS
 62
     7
 10
-594.8499999999998
 20
-1015.5
 30
0.0
 11
-595.10000000000002
 21
-1001.0
 31
0.0
  0
LINE
  5
418
  8
DATA
  6
CONTINUOUS
 62
     7
 10
-590.8499999999998
 20
-1015.5
 30
0.0
 11
-590.59999999999968
 21
-1001.0
 31
0.0
  0
LINE
  5
419
  8
DATA
  6
CONTINUOUS
 62
     7
 10
-578.14999999999975
 20
-1015.5
 30
0.0
 11
-582.14999999999975
 21
-1015.5
 31
0.0
  0
LINE
  5
41A
  8
DATA
  6
CONTINUOUS
 62
     7
 10
-582.14999999999975
 20
-1015.5
 30
0.0
 11
-582.39999999999986
 21
-1001.0
 31
0.0
  0
LINE
  5
41B
  8
DATA
  6
CONTINUOUS
 62
     7
 10
-578.14999999999975
 20
-1015.5
 30
0.0
 11
-577.89999999999986
 21
-1001.0
 31
0.0
  0
LINE
  5
41C
  8
DATA
  6
CONTINUOUS
 62
     7
 10
-565.4499999999997
 20
-1015.5
 30
0.0
 11
-569.4499999999997
 21
-1015.5
 31
0.0
  0
LINE
  5
41D
  8
DATA
  6
CONTINUOUS
 62
     7
 10
-569.4499999999997
 20
-1015.5
 30
0.0
 11
-569.69999999999982
 21
-1001.0
 31
0.0
  0
LINE
  5
41E
  8
DATA
  6
CONTINUOUS
 62
     7
 10
-565.4499999999997
 20
-1015.5
 30
0.0
 11
-565.19999999999982
 21
-1001.0
 31
0.0
  0
LINE
  5
41F
  8
DATA
  6
CONTINUOUS
 62
     7
 10
-552.74999999999989
 20
-1015.5
 30
0.0
 11
-556.74999999999989
 21
-1015.5
 31
0.0
  0
LINE
  5
420
  8
DATA
  6
CONTINUOUS
 62
     7
 10
-556.74999999999989
 20
-1015.5
 30
0.0
 11
-557.00000000000011
 21
-1001.0
 31
0.0
  0
LINE
  5
421
  8
DATA
  6
CONTINUOUS
 62
     7
 10
-552.74999999999989
 20
-1015.5
 30
0.0
 11
-552.5
 21
-1001.0
 31
0.0
  0
LINE
  5
422
  8
DATA
  6
CONTINUOUS
 62
     7
 10
-540.04999999999995
 20
-1015.5
 30
0.0
 11
-544.04999999999995
 21
-1015.5
 31
0.0
  0
LINE
  5
423
  8
DATA
  6
CONTINUOUS
 62
     7
 10
-544.04999999999995
 20
-1015.5
 30
0.0
 11
-544.29999999999995
 21
-1001.0
 31
0.0
  0
LINE
  5
424
  8
DATA
  6
CONTINUOUS
 62
     7
 10
-540.04999999999995
 20
-1015.5
 30
0.0
 11
-539.79999999999995
 21
-1001.0
 31
0.0
  0
LINE
  5
425
  8
DATA
  6
CONTINUOUS
 62
     7
 10
-527.34999999999991
 20
-1015.5
 30
0.0
 11
-531.34999999999991
 21
-1015.5
 31
0.0
  0
LINE
  5
426
  8
DATA
  6
CONTINUOUS
 62
     7
 10
-531.34999999999991
 20
-1015.5
 30
0.0
 11
-531.60000000000002
 21
-1001.0
 31
0.0
  0
LINE
  5
427
  8
DATA
  6
CONTINUOUS
 62
     7
 10
-527.34999999999991
 20
-1015.5
 30
0.0
 11
-527.09999999999991
 21
-1001.0
 31
0.0
  0
LINE
  5
428
  8
DATA
  6
CONTINUOUS
 62
     7
 10
-514.64999999999986
 20
-1015.5
 30
0.0
 11
-518.64999999999986
 21
-1015.5
 31
0.0
  0
LINE
  5
429
  8
DATA
  6
CONTINUOUS
 62
     7
 10
-518.64999999999986
 20
-1015.5
 30
0.0
 11
-518.89999999999998
 21
-1001.0
 31
0.0
  0
LINE
  5
42A
  8
DATA
  6
CONTINUOUS
 62
     7
 10
-514.64999999999986
 20
-1015.5
 30
0.0
 11
-514.39999999999998
 21
-1001.0
 31
0.0
  0
LINE
  5
42B
  8
DATA
  6
CONTINUOUS
 62
     7
 10
-501.94999999999987
 20
-1015.5
 30
0.0
 11
-505.94999999999987
 21
-1015.5
 31
0.0
  0
LINE
  5
42C
  8
DATA
  6
CONTINUOUS
 62
     7
 10
-505.94999999999987
 20
-1015.5
 30
0.0
 11
-506.20000000000022
 21
-1001.0
 31
0.0
  0
LINE
  5
42D
  8
DATA
  6
CONTINUOUS
 62
     7
 10
-501.94999999999987
 20
-1015.5
 30
0.0
 11
-501.69999999999999
 21
-1001.0
 31
0.0
  0
LINE
  5
42E
  8
DATA
  6
CONTINUOUS
 62
     7
 10
-489.25
 20
-1015.5
 30
0.0
 11
-493.25
 21
-1015.5
 31
0.0
  0
LINE
  5
42F
  8
DATA
  6
CONTINUOUS
 62
     7
 10
-493.25
 20
-1015.5
 30
0.0
 11
-493.5
 21
-1001.0
 31
0.0
  0
LINE
  5
430
  8
DATA
  6
CONTINUOUS
 62
     7
 10
-489.25
 20
-1015.5
 30
0.0
 11
-489.0
 21
-1001.0
 31
0.0
  0
LINE
  5
431
  8
DATA
  6
CONTINUOUS
 62
     7
 10
-476.55000000000001
 20
-1015.5
 30
0.0
 11
-480.55000000000001
 21
-1015.5
 31
0.0
  0
LINE
  5
432
  8
DATA
  6
CONTINUOUS
 62
     7
 10
-480.55000000000001
 20
-1015.5
 30
0.0
 11
-480.80000000000001
 21
-1001.0
 31
0.0
  0
LINE
  5
433
  8
DATA
  6
CONTINUOUS
 62
     7
 10
-476.55000000000001
 20
-1015.5
 30
0.0
 11
-476.2999999999999
 21
-1001.0
 31
0.0
  0
LINE
  5
434
  8
DATA
  6
CONTINUOUS
 62
     7
 10
-463.85000000000002
 20
-1015.5
 30
0.0
 11
-467.85000000000002
 21
-1015.5
 31
0.0
  0
LINE
  5
435
  8
DATA
  6
CONTINUOUS
 62
     7
 10
-467.85000000000002
 20
-1015.5
 30
0.0
 11
-468.10000000000008
 21
-1001.0
 31
0.0
  0
LINE
  5
436
  8
DATA
  6
CONTINUOUS
 62
     7
 10
-463.85000000000002
 20
-1015.5
 30
0.0
 11
-463.60000000000002
 21
-1001.0
 31
0.0
  0
LINE
  5
437
  8
DATA
  6
CONTINUOUS
 62
     7
 10
-451.14999999999992
 20
-1015.5
 30
0.0
 11
-455.14999999999992
 21
-1015.5
 31
0.0
  0
LINE
  5
438
  8
DATA
  6
CONTINUOUS
 62
     7
 10
-455.14999999999992
 20
-1015.5
 30
0.0
 11
-455.40000000000009
 21
-1001.0
 31
0.0
  0
LINE
  5
439
  8
DATA
  6
CONTINUOUS
 62
     7
 10
-451.14999999999992
 20
-1015.5
 30
0.0
 11
-450.89999999999992
 21
-1001.0
 31
0.0
  0
LINE
  5
43A
  8
DATA
  6
CONTINUOUS
 62
     7
 10
-438.44999999999999
 20
-1015.5
 30
0.0
 11
-442.44999999999999
 21
-1015.5
 31
0.0
  0
LINE
  5
43B
  8
DATA
  6
CONTINUOUS
 62
     7
 10
-442.44999999999999
 20
-1015.5
 30
0.0
 11
-442.7000000000001
 21
-1001.0
 31
0.0
  0
LINE
  5
43C
  8
DATA
  6
CONTINUOUS
 62
     7
 10
-438.44999999999999
 20
-1015.5
 30
0.0
 11
-438.2000000000001
 21
-1001.0
 31
0.0
  0
CIRCLE
  5
43D
  8
DATA
  6
CONTINUOUS
 62
     7
 10
-542.04999999999995
 20
-865.49999999999989
 30
0.0
 40
6.5
  0
CIRCLE
  5
43E
  8
DATA
  6
CONTINUOUS
 62
     7
 10
-542.04999999999995
 20
-865.49999999999989
 30
0.0
 40
4.5
  0
LINE
  5
43F
  8
DATA
  6
CONTINUOUS
 62
     7
 10
-542.04999999999995
 20
-862.74999999999989
 30
0.0
 11
-542.04999999999995
 21
-868.25
 31
0.0
  0
LINE
  5
440
  8
DATA
  6
CONTINUOUS
 62
     7
 10
-544.79999999999995
 20
-865.49999999999989
 30
0.0
 11
-539.29999999999995
 21
-865.49999999999989
 31
0.0
  0
CIRCLE
  5
441
  8
DATA
  6
CONTINUOUS
 62
     7
 10
-491.25
 20
-865.49999999999989
 30
0.0
 40
6.5
  0
CIRCLE
  5
442
  8
DATA
  6
CONTINUOUS
 62
     7
 10
-491.25
 20
-865.49999999999989
 30
0.0
 40
4.5
  0
LINE
  5
443
  8
DATA
  6
CONTINUOUS
 62
     7
 10
-491.25
 20
-862.74999999999989
 30
0.0
 11
-491.25
 21
-868.25
 31
0.0
  0
LINE
  5
444
  8
DATA
  6
CONTINUOUS
 62
     7
 10
-494.0
 20
-865.49999999999989
 30
0.0
 11
-488.49999999999989
 21
-865.49999999999989
 31
0.0
  0
CIRCLE
  5
445
  8
DATA
  6
CONTINUOUS
 62
     7
 10
-542.04999999999995
 20
-757.54999999999984
 30
0.0
 40
6.5
  0
CIRCLE
  5
446
  8
DATA
  6
CONTINUOUS
 62
     7
 10
-542.04999999999995
 20
-757.54999999999984
 30
0.0
 40
4.5
  0
LINE
  5
447
  8
DATA
  6
CONTINUOUS
 62
     7
 10
-542.04999999999995
 20
-754.79999999999984
 30
0.0
 11
-542.04999999999995
 21
-760.29999999999984
 31
0.0
  0
LINE
  5
448
  8
DATA
  6
CONTINUOUS
 62
     7
 10
-544.79999999999995
 20
-757.54999999999984
 30
0.0
 11
-539.29999999999995
 21
-757.54999999999984
 31
0.0
  0
CIRCLE
  5
449
  8
DATA
  6
CONTINUOUS
 62
     7
 10
-491.25
 20
-757.54999999999984
 30
0.0
 40
6.5
  0
CIRCLE
  5
44A
  8
DATA
  6
CONTINUOUS
 62
     7
 10
-491.25
 20
-757.54999999999984
 30
0.0
 40
4.5
  0
LINE
  5
44B
  8
DATA
  6
CONTINUOUS
 62
     7
 10
-491.25
 20
-754.79999999999984
 30
0.0
 11
-491.25
 21
-760.29999999999984
 31
0.0
  0
LINE
  5
44C
  8
DATA
  6
CONTINUOUS
 62
     7
 10
-494.0
 20
-757.54999999999984
 30
0.0
 11
-488.49999999999989
 21
-757.54999999999984
 31
0.0
  0
ARC
  5
44D
  8
DATA
  6
CONTINUOUS
 62
     7
 10
-194.63749999999999
 20
-491.5
 30
0.0
 40
7.862500000000006
 50
133.00286864809581
 51
226.9971313519041
  0
ARC
  5
44E
  8
DATA
  6
CONTINUOUS
 62
     7
 10
-194.63749999999999
 20
-509.49999999999989
 30
0.0
 40
7.862500000000006
 50
133.00286864809581
 51
226.9971313519041
  0
ARC
  5
44F
  8
DATA
  6
CONTINUOUS
 62
     7
 10
-425.12783372649278
 20
-710.75978352180528
 30
0.0
 40
7.9315043593918784
 50
36.475223670877597
 51
130.22569042435671
  0
ARC
  5
450
  8
DATA
  6
CONTINUOUS
 62
     7
 10
-447.96636744363161
 20
-708.37776330599627
 30
0.0
 40
7.8815945594516998
 50
37.93399124634746
 51
132.0960983700655
  0
ARC
  5
451
  8
DATA
  6
CONTINUOUS
 62
     7
 10
-466.83614068075161
 20
-706.92600398609045
 30
0.0
 40
7.851478965050096
 50
39.180594789378368
 51
133.59320828806889
  0
ARC
  5
452
  8
DATA
  6
CONTINUOUS
 62
     7
 10
-486.20455886137842
 20
-705.91848436350631
 30
0.0
 40
7.830712142492378
 50
40.499564747734638
 51
135.08586065139039
  0
ARC
  5
453
  8
DATA
  6
CONTINUOUS
 62
     7
 10
-505.07758276606683
 20
-705.40506354912338
 30
0.0
 40
7.8201713667406434
 50
41.823817896110398
 51
136.49856681381601
  0
ARC
  5
454
  8
DATA
  6
CONTINUOUS
 62
     7
 10
-523.95106379232561
 20
-705.35289094727909
 30
0.0
 40
7.8191018111819579
 50
43.187325807502482
 51
137.87106107587829
  0
ARC
  5
455
  8
DATA
  6
CONTINUOUS
 62
     7
 10
-542.82425657772171
 20
-705.76187302852566
 30
0.0
 40
7.8274938552123743
 50
44.590855889608392
 51
139.20413690941851
  0
ARC
  5
456
  8
DATA
  6
CONTINUOUS
 62
     7
 10
-562.19302628543085
 20
-706.66191115664708
 30
0.0
 40
7.8460249993229132
 50
46.073865081849718
 51
140.53201795541841
  0
ARC
  5
457
  8
DATA
  6
CONTINUOUS
 62
     7
 10
-584.53916651026304
 20
-708.30724806359683
 30
0.0
 40
7.8801265071741078
 50
47.839999844699094
 51
142.0142812239996
  0
ARC
  5
458
  8
DATA
  6
CONTINUOUS
 62
     7
 10
-425.12783372649278
 20
-39.240216478194853
 30
0.0
 40
7.9315043593918544
 50
229.77430957564329
 51
323.5247763291224
  0
ARC
  5
459
  8
DATA
  6
CONTINUOUS
 62
     7
 10
-447.96636744363161
 20
-41.622236694003718
 30
0.0
 40
7.8815945594516981
 50
227.9039016299345
 51
322.06600875365251
  0
ARC
  5
45A
  8
DATA
  6
CONTINUOUS
 62
     7
 10
-466.83614068075161
 20
-43.073996013909657
 30
0.0
 40
7.8514789650501147
 50
226.40679171193111
 51
320.8194052106216
  0
ARC
  5
45B
  8
DATA
  6
CONTINUOUS
 62
     7
 10
-486.20455886137842
 20
-44.081515636493819
 30
0.0
 40
7.8307121424923798
 50
224.9141393486095
 51
319.50043525226528
  0
ARC
  5
45C
  8
DATA
  6
CONTINUOUS
 62
     7
 10
-505.07758276606683
 20
-44.594936450876503
 30
0.0
 40
7.8201713667406088
 50
223.5014331861839
 51
318.17618210388957
  0
ARC
  5
45D
  8
DATA
  6
CONTINUOUS
 62
     7
 10
-523.95106379232561
 20
-44.647109052721007
 30
0.0
 40
7.8191018111819046
 50
222.12893892412171
 51
316.81267419249752
  0
ARC
  5
45E
  8
DATA
  6
CONTINUOUS
 62
     7
 10
-542.82425657772171
 20
-44.238126971474323
 30
0.0
 40
7.8274938552123263
 50
220.79586309058141
 51
315.40914411039159
  0
ARC
  5
45F
  8
DATA
  6
CONTINUOUS
 62
     7
 10
-562.19302628543085
 20
-43.338088843352921
 30
0.0
 40
7.8460249993228572
 50
219.46798204458159
 51
313.92613491815041
  0
ARC
  5
460
  8
DATA
  6
CONTINUOUS
 62
     7
 10
-584.53916651026304
 20
-41.692751936403162
 30
0.0
 40
7.8801265071741531
 50
217.9857187760004
 51
312.16000015530091
  0
TEXT
  5
461
  8
DATA
 62
     7
 10
105.9721953074138
 20
487.30000000000013
 30
0.0
 40
27.147352430555561
  1
コネクターパネル拡大図
 41
0.7
 11
105.9721953074138
 21
514.4473524305555
 31
0.0
 73
     3
  0
LINE
  5
462
  8
DATA
  6
CONTINUOUS
 62
     7
 10
100.0
 20
475.0
 30
0.0
 11
525.0
 21
475.0
 31
0.0
  0
TEXT
  5
463
  8
DATA
 62
     7
 10
475.0
 20
-1125.96065
 30
0.0
 40
16.288411458333329
  1
2-Wayバイアンプ・スタ ジオモニタ ー
 41
0.7
 11
475.0
 21
-1109.672238541667
 31
0.0
 73
     3
  0
LINE
  5
464
  8
DATA
  6
CONTINUOUS
 62
     7
 10
-165.0
 20
36.0
 30
0.0
 11
-165.0
 21
414.0
 31
0.0
  0
LINE
  5
465
  8
DATA
  6
CONTINUOUS
 62
     7
 10
729.0
 20
0.0
 30
0.0
 11
-129.0
 21
0.0
 31
0.0
  0
LINE
  5
466
  8
DATA
  6
CONTINUOUS
 62
     7
 10
765.0
 20
414.0
 30
0.0
 11
765.0
 21
36.0
 31
0.0
  0
LINE
  5
467
  8
DATA
  6
CONTINUOUS
 62
     7
 10
-129.0
 20
450.0
 30
0.0
 11
729.0
 21
450.0
 31
0.0
  0
ARC
  5
468
  8
DATA
  6
CONTINUOUS
 62
     7
 10
729.0
 20
414.0
 30
0.0
 40
36.0
 50
0.0
 51
90.0
  0
ARC
  5
469
  8
DATA
  6
CONTINUOUS
 62
     7
 10
729.0
 20
36.0
 30
0.0
 40
36.0
 50
270.0
 51
0.0
  0
CIRCLE
  5
46A
  8
DATA
  6
CONTINUOUS
 62
     7
 10
-35.099999999999447
 20
345.0
 30
0.0
 40
17.999999999998732
  0
LINE
  5
46B
  8
DATA
  6
CONTINUOUS
 62
     7
 10
-26.099999999999451
 20
345.0
 30
0.0
 11
-44.099999999999447
 21
345.0
 31
0.0
  0
LINE
  5
46C
  8
DATA
  6
CONTINUOUS
 62
     7
 10
-35.099999999999447
 20
354.0
 30
0.0
 11
-35.099999999999447
 21
336.0
 31
0.0
  0
CIRCLE
  5
46D
  8
DATA
  6
CONTINUOUS
 62
     7
 10
-92.09999999999944
 20
297.0
 30
0.0
 40
24.599999999999021
  0
CIRCLE
  5
46E
  8
DATA
  6
CONTINUOUS
 62
     7
 10
-92.09999999999944
 20
381.0
 30
0.0
 40
24.599999999999358
  0
CIRCLE
  5
46F
  8
DATA
  6
CONTINUOUS
 62
     7
 10
-92.09999999999944
 20
381.0
 30
0.0
 40
10.49999999999905
  0
CIRCLE
  5
470
  8
DATA
  6
CONTINUOUS
 62
     7
 10
-92.09999999999944
 20
297.0
 30
0.0
 40
10.499999999999369
  0
ARC
  5
471
  8
DATA
  6
CONTINUOUS
 62
     7
 10
-129.0
 20
36.0
 30
0.0
 40
36.0
 50
180.0
 51
270.0
  0
ARC
  5
472
  8
DATA
  6
CONTINUOUS
 62
     7
 10
-129.0
 20
414.0
 30
0.0
 40
36.0
 50
90.0
 51
180.0
  0
LINE
  5
473
  8
DATA
  6
CONTINUOUS
 62
     7
 10
138.90000000000049
 20
57.0
 30
0.0
 11
138.90000000000049
 21
225.0
 31
0.0
  0
LINE
  5
474
  8
DATA
  6
CONTINUOUS
 62
     7
 10
210.90000000000049
 20
33.0
 30
0.0
 11
210.90000000000049
 21
225.0
 31
0.0
  0
LINE
  5
475
  8
DATA
  6
CONTINUOUS
 62
     7
 10
210.90000000000049
 20
33.0
 30
0.0
 11
-143.0999999999994
 21
33.0
 31
0.0
  0
LINE
  5
476
  8
DATA
  6
CONTINUOUS
 62
     7
 10
387.90000000000049
 20
225.0
 30
0.0
 11
288.90000000000049
 21
225.0
 31
0.0
  0
LINE
  5
477
  8
DATA
  6
CONTINUOUS
 62
     7
 10
270.90000000000049
 20
225.0
 30
0.0
 11
-152.0999999999994
 21
225.0
 31
0.0
  0
LINE
  5
478
  8
DATA
  6
CONTINUOUS
 62
     7
 10
-44.099999999999447
 20
234.0
 30
0.0
 11
-44.099999999999447
 21
417.0
 31
0.0
  0
LINE
  5
479
  8
DATA
  6
CONTINUOUS
 62
     7
 10
-152.0999999999994
 20
42.0
 30
0.0
 11
-152.0999999999994
 21
432.0
 31
0.0
  0
LINE
  5
47A
  8
DATA
  6
CONTINUOUS
 62
     7
 10
396.9000000000006
 20
441.0
 30
0.0
 11
-143.0999999999994
 21
441.0
 31
0.0
  0
CIRCLE
  5
47B
  8
DATA
  6
CONTINUOUS
 62
     7
 10
57.900000000000553
 20
327.0
 30
0.0
 40
58.499999994150429
  0
CIRCLE
  5
47C
  8
DATA
  6
CONTINUOUS
 62
     7
 10
57.900000000000553
 20
327.0
 30
0.0
 40
54.299999994569781
  0
ARC
  5
47D
  8
DATA
  6
CONTINUOUS
 62
     7
 10
57.900000000000553
 20
327.0
 30
0.0
 40
48.899999995111017
 50
141.1418340000011
 51
128.74059600000149
  0
CIRCLE
  5
47E
  8
DATA
  6
CONTINUOUS
 62
     7
 10
84.899999997299346
 20
327.0
 30
0.0
 40
7.049999999294414
  0
CIRCLE
  5
47F
  8
DATA
  6
CONTINUOUS
 62
     7
 10
-1.5
 20
386.39999999999992
 30
0.0
 40
18.0
  0
CIRCLE
  5
480
  8
DATA
  6
CONTINUOUS
 62
     7
 10
30.90000000269902
 20
327.0
 30
0.0
 40
7.049999999294414
  0
CIRCLE
  5
481
  8
DATA
  6
CONTINUOUS
 62
     7
 10
57.900000000000553
 20
303.30000000236942
 30
0.0
 40
7.0499999992957774
  0
ARC
  5
482
  8
DATA
  6
CONTINUOUS
 62
     7
 10
24.435032003346361
 20
360.5337079966464
 30
0.0
 40
5.4249999994570484
 50
58.139899000002082
 51
211.74253200000319
  0
LINE
  5
483
  8
DATA
  6
CONTINUOUS
 62
     7
 10
43.800000001410353
 20
383.77534675680403
 30
0.0
 11
43.800000001410353
 21
379.43739123421392
 31
0.0
  0
LINE
  5
484
  8
DATA
  6
CONTINUOUS
 62
     7
 10
71.999999998589374
 20
383.77534675680403
 30
0.0
 11
71.999999998589374
 21
379.43739123421392
 31
0.0
  0
LINE
  5
485
  8
DATA
  6
STYLE_11
 62
     7
 10
-1.5
 20
377.39999999999992
 30
0.0
 11
-1.5
 21
395.39999999999992
 31
0.0
  0
LINE
  5
486
  8
DATA
  6
STYLE_11
 62
     7
 10
-10.5
 20
386.39999999999992
 30
0.0
 11
7.5
 21
386.39999999999992
 31
0.0
  0
CIRCLE
  5
487
  8
DATA
  6
CONTINUOUS
 62
     7
 10
117.2999999999997
 20
267.5999999999998
 30
0.0
 40
18.0
  0
LINE
  5
488
  8
DATA
  6
STYLE_11
 62
     7
 10
117.2999999999997
 20
258.5999999999998
 30
0.0
 11
117.2999999999997
 21
276.5999999999998
 31
0.0
  0
LINE
  5
489
  8
DATA
  6
STYLE_11
 62
     7
 10
108.2999999999997
 20
267.5999999999998
 30
0.0
 11
126.2999999999997
 21
267.5999999999998
 31
0.0
  0
CIRCLE
  5
48A
  8
DATA
  6
CONTINUOUS
 62
     7
 10
154.5
 20
386.39999999999992
 30
0.0
 40
18.0
  0
LINE
  5
48B
  8
DATA
  6
STYLE_11
 62
     7
 10
154.5
 20
377.39999999999992
 30
0.0
 11
154.5
 21
395.39999999999992
 31
0.0
  0
LINE
  5
48C
  8
DATA
  6
STYLE_11
 62
     7
 10
145.5
 20
386.39999999999992
 30
0.0
 11
163.5
 21
386.39999999999992
 31
0.0
  0
CIRCLE
  5
48D
  8
DATA
  6
CONTINUOUS
 62
     7
 10
273.29999999999973
 20
267.5999999999998
 30
0.0
 40
18.0
  0
LINE
  5
48E
  8
DATA
  6
STYLE_11
 62
     7
 10
273.29999999999973
 20
258.5999999999998
 30
0.0
 11
273.29999999999973
 21
276.5999999999998
 31
0.0
  0
LINE
  5
48F
  8
DATA
  6
STYLE_11
 62
     7
 10
264.29999999999973
 20
267.5999999999998
 30
0.0
 11
282.29999999999973
 21
267.5999999999998
 31
0.0
  0
CIRCLE
  5
490
  8
DATA
  6
CONTINUOUS
 62
     7
 10
213.9000000000006
 20
327.0
 30
0.0
 40
54.299999994569419
  0
ARC
  5
491
  8
DATA
  6
CONTINUOUS
 62
     7
 10
213.9000000000006
 20
327.0
 30
0.0
 40
48.899999995109411
 50
51.259403999999812
 51
38.858166000000807
  0
ARC
  5
492
  8
DATA
  6
CONTINUOUS
 62
     7
 10
213.9000000000006
 20
327.0
 30
0.0
 40
54.299999994569937
 50
128.10492499999981
 51
74.949606000000045
  0
CIRCLE
  5
493
  8
DATA
  6
CONTINUOUS
 62
     7
 10
186.90000000269899
 20
327.0
 30
0.0
 40
7.0499999992957774
  0
CIRCLE
  5
494
  8
DATA
  6
CONTINUOUS
 62
     7
 10
240.89999999729929
 20
327.0
 30
0.0
 40
7.0499999992957774
  0
CIRCLE
  5
495
  8
DATA
  6
CONTINUOUS
 62
     7
 10
213.9000000000006
 20
303.30000000236942
 30
0.0
 40
7.049999999294414
  0
ARC
  5
496
  8
DATA
  6
CONTINUOUS
 62
     7
 10
247.36496799665341
 20
360.5337079966464
 30
0.0
 40
5.4249999994578246
 50
328.25746799999712
 51
121.8601009999982
  0
LINE
  5
497
  8
DATA
  6
CONTINUOUS
 62
     7
 10
396.9000000000006
 20
417.0
 30
0.0
 11
-152.0999999999994
 21
417.0
 31
0.0
  0
LINE
  5
498
  8
DATA
  6
CONTINUOUS
 62
     7
 10
210.90000000000049
 20
57.0
 30
0.0
 11
-152.0999999999994
 21
57.0
 31
0.0
  0
CIRCLE
  5
499
  8
DATA
  6
CONTINUOUS
 62
     7
 10
-38.099999999999447
 20
141.0
 30
0.0
 40
58.499999994150429
  0
CIRCLE
  5
49A
  8
DATA
  6
CONTINUOUS
 62
     7
 10
-38.099999999999447
 20
141.0
 30
0.0
 40
54.299999994569781
  0
ARC
  5
49B
  8
DATA
  6
CONTINUOUS
 62
     7
 10
-38.099999999999447
 20
141.0
 30
0.0
 40
48.899999995111017
 50
141.1418340000011
 51
128.74059600000149
  0
CIRCLE
  5
49C
  8
DATA
  6
CONTINUOUS
 62
     7
 10
-11.10000000270065
 20
141.0
 30
0.0
 40
7.049999999294414
  0
CIRCLE
  5
49D
  8
DATA
  6
CONTINUOUS
 62
     7
 10
-97.5
 20
200.39999999999981
 30
0.0
 40
18.0
  0
CIRCLE
  5
49E
  8
DATA
  6
CONTINUOUS
 62
     7
 10
-65.099999997300984
 20
141.0
 30
0.0
 40
7.049999999294414
  0
CIRCLE
  5
49F
  8
DATA
  6
CONTINUOUS
 62
     7
 10
-38.099999999999447
 20
117.3000000023694
 30
0.0
 40
7.0499999992957774
  0
ARC
  5
4A0
  8
DATA
  6
CONTINUOUS
 62
     7
 10
-71.56496799665365
 20
174.5337079966464
 30
0.0
 40
5.4249999994570484
 50
58.139899000002082
 51
211.74253200000319
  0
LINE
  5
4A1
  8
DATA
  6
CONTINUOUS
 62
     7
 10
-52.199999998589647
 20
197.77534675680411
 30
0.0
 11
-52.199999998589647
 21
193.43739123421389
 31
0.0
  0
LINE
  5
4A2
  8
DATA
  6
CONTINUOUS
 62
     7
 10
-24.00000000141063
 20
197.77534675680411
 30
0.0
 11
-24.00000000141063
 21
193.43739123421389
 31
0.0
  0
LINE
  5
4A3
  8
DATA
  6
STYLE_11
 62
     7
 10
-97.5
 20
191.39999999999981
 30
0.0
 11
-97.5
 21
209.39999999999981
 31
0.0
  0
LINE
  5
4A4
  8
DATA
  6
STYLE_11
 62
     7
 10
-106.5
 20
200.39999999999981
 30
0.0
 11
-88.499999999999986
 21
200.39999999999981
 31
0.0
  0
CIRCLE
  5
4A5
  8
DATA
  6
CONTINUOUS
 62
     7
 10
21.299999999999731
 20
81.599999999999795
 30
0.0
 40
18.0
  0
LINE
  5
4A6
  8
DATA
  6
STYLE_11
 62
     7
 10
21.299999999999731
 20
72.599999999999795
 30
0.0
 11
21.299999999999731
 21
90.599999999999795
 31
0.0
  0
LINE
  5
4A7
  8
DATA
  6
STYLE_11
 62
     7
 10
12.29999999999972
 20
81.599999999999795
 30
0.0
 11
30.299999999999731
 21
81.599999999999795
 31
0.0
  0
ARC
  5
4A8
  8
DATA
  6
CONTINUOUS
 62
     7
 10
-143.0999999999994
 20
432.0
 30
0.0
 40
9.0
 50
90.0
 51
180.0
  0
ARC
  5
4A9
  8
DATA
  6
CONTINUOUS
 62
     7
 10
-143.0999999999994
 20
42.0
 30
0.0
 40
9.0
 50
180.0
 51
270.0
  0
ARC
  5
4AA
  8
DATA
  6
CONTINUOUS
 62
     7
 10
-53.099999999999447
 20
234.0
 30
0.0
 40
9.0
 50
270.0
 51
0.0
  0
ARC
  5
4AB
  8
DATA
  6
CONTINUOUS
 62
     7
 10
-35.099999999999447
 20
234.0
 30
0.0
 40
9.0
 50
180.0
 51
270.0
  0
ARC
  5
4AC
  8
DATA
  6
CONTINUOUS
 62
     7
 10
270.90000000000049
 20
234.0
 30
0.0
 40
9.0
 50
270.0
 51
0.0
  0
ARC
  5
4AD
  8
DATA
  6
CONTINUOUS
 62
     7
 10
288.90000000000049
 20
234.0
 30
0.0
 40
9.0
 50
180.0
 51
270.0
  0
ARC
  5
4AE
  8
DATA
  6
CONTINUOUS
 62
     7
 10
387.90000000000049
 20
234.0
 30
0.0
 40
9.0
 50
270.0
 51
0.0
  0
LINE
  5
4AF
  8
DATA
  6
CONTINUOUS
 62
     7
 10
318.90000000000049
 20
396.0
 30
0.0
 11
318.90000000000049
 21
390.0
 31
0.0
  0
LINE
  5
4B0
  8
DATA
  6
CONTINUOUS
 62
     7
 10
318.90000000000049
 20
390.0
 30
0.0
 11
300.90000000000049
 21
390.0
 31
0.0
  0
LINE
  5
4B1
  8
DATA
  6
CONTINUOUS
 62
     7
 10
300.90000000000049
 20
390.0
 30
0.0
 11
300.90000000000049
 21
345.0
 31
0.0
  0
LINE
  5
4B2
  8
DATA
  6
CONTINUOUS
 62
     7
 10
357.90000000000049
 20
396.0
 30
0.0
 11
357.90000000000049
 21
390.0
 31
0.0
  0
LINE
  5
4B3
  8
DATA
  6
CONTINUOUS
 62
     7
 10
357.90000000000049
 20
390.0
 30
0.0
 11
375.9000000000006
 21
390.0
 31
0.0
  0
LINE
  5
4B4
  8
DATA
  6
CONTINUOUS
 62
     7
 10
375.9000000000006
 20
390.0
 30
0.0
 11
375.9000000000006
 21
345.0
 31
0.0
  0
LINE
  5
4B5
  8
DATA
  6
CONTINUOUS
 62
     7
 10
300.90000000000049
 20
345.0
 30
0.0
 11
375.9000000000006
 21
345.0
 31
0.0
  0
LINE
  5
4B6
  8
DATA
  6
CONTINUOUS
 62
     7
 10
359.4000000000006
 20
391.5
 30
0.0
 11
375.9000000000006
 21
391.5
 31
0.0
  0
LINE
  5
4B7
  8
DATA
  6
CONTINUOUS
 62
     7
 10
359.4000000000006
 20
391.5
 30
0.0
 11
359.4000000000006
 21
397.5
 31
0.0
  0
LINE
  5
4B8
  8
DATA
  6
CONTINUOUS
 62
     7
 10
375.9000000000006
 20
391.5
 30
0.0
 11
375.9000000000006
 21
397.5
 31
0.0
  0
LINE
  5
4B9
  8
DATA
  6
CONTINUOUS
 62
     7
 10
375.9000000000006
 20
397.5
 30
0.0
 11
359.4000000000006
 21
397.5
 31
0.0
  0
LINE
  5
4BA
  8
DATA
  6
CONTINUOUS
 62
     7
 10
317.40000000000049
 20
391.5
 30
0.0
 11
300.90000000000049
 21
391.5
 31
0.0
  0
LINE
  5
4BB
  8
DATA
  6
CONTINUOUS
 62
     7
 10
317.40000000000049
 20
391.5
 30
0.0
 11
317.40000000000049
 21
397.5
 31
0.0
  0
LINE
  5
4BC
  8
DATA
  6
CONTINUOUS
 62
     7
 10
300.90000000000049
 20
391.5
 30
0.0
 11
300.90000000000049
 21
397.5
 31
0.0
  0
LINE
  5
4BD
  8
DATA
  6
CONTINUOUS
 62
     7
 10
300.90000000000049
 20
397.5
 30
0.0
 11
317.40000000000049
 21
397.5
 31
0.0
  0
LINE
  5
4BE
  8
DATA
  6
CONTINUOUS
 62
     7
 10
357.90000000000049
 20
396.0
 30
0.0
 11
351.90000000000049
 21
396.0
 31
0.0
  0
LINE
  5
4BF
  8
DATA
  6
CONTINUOUS
 62
     7
 10
318.90000000000049
 20
396.0
 30
0.0
 11
324.90000000000049
 21
396.0
 31
0.0
  0
LINE
  5
4C0
  8
DATA
  6
CONTINUOUS
 62
     7
 10
324.90000000000049
 20
396.0
 30
0.0
 11
324.90000000000049
 21
402.0
 31
0.0
  0
LINE
  5
4C1
  8
DATA
  6
CONTINUOUS
 62
     7
 10
351.90000000000049
 20
396.0
 30
0.0
 11
351.90000000000049
 21
402.0
 31
0.0
  0
LINE
  5
4C2
  8
DATA
  6
CONTINUOUS
 62
     7
 10
351.90000000000049
 20
402.0
 30
0.0
 11
324.90000000000049
 21
402.0
 31
0.0
  0
LINE
  5
4C3
  8
DATA
  6
CONTINUOUS
 62
     7
 10
357.90000000000049
 20
258.0
 30
0.0
 11
357.90000000000049
 21
264.0
 31
0.0
  0
LINE
  5
4C4
  8
DATA
  6
CONTINUOUS
 62
     7
 10
357.90000000000049
 20
264.0
 30
0.0
 11
375.9000000000006
 21
264.0
 31
0.0
  0
LINE
  5
4C5
  8
DATA
  6
CONTINUOUS
 62
     7
 10
375.9000000000006
 20
264.0
 30
0.0
 11
375.9000000000006
 21
309.0
 31
0.0
  0
LINE
  5
4C6
  8
DATA
  6
CONTINUOUS
 62
     7
 10
318.90000000000049
 20
258.0
 30
0.0
 11
318.90000000000049
 21
264.0
 31
0.0
  0
LINE
  5
4C7
  8
DATA
  6
CONTINUOUS
 62
     7
 10
318.90000000000049
 20
264.0
 30
0.0
 11
300.90000000000049
 21
264.0
 31
0.0
  0
LINE
  5
4C8
  8
DATA
  6
CONTINUOUS
 62
     7
 10
300.90000000000049
 20
264.0
 30
0.0
 11
300.90000000000049
 21
309.0
 31
0.0
  0
LINE
  5
4C9
  8
DATA
  6
CONTINUOUS
 62
     7
 10
375.9000000000006
 20
309.0
 30
0.0
 11
300.90000000000049
 21
309.0
 31
0.0
  0
LINE
  5
4CA
  8
DATA
  6
CONTINUOUS
 62
     7
 10
317.40000000000049
 20
262.5
 30
0.0
 11
300.90000000000049
 21
262.5
 31
0.0
  0
LINE
  5
4CB
  8
DATA
  6
CONTINUOUS
 62
     7
 10
317.40000000000049
 20
262.5
 30
0.0
 11
317.40000000000049
 21
256.5
 31
0.0
  0
LINE
  5
4CC
  8
DATA
  6
CONTINUOUS
 62
     7
 10
300.90000000000049
 20
262.5
 30
0.0
 11
300.90000000000049
 21
256.5
 31
0.0
  0
LINE
  5
4CD
  8
DATA
  6
CONTINUOUS
 62
     7
 10
300.90000000000049
 20
256.5
 30
0.0
 11
317.40000000000049
 21
256.5
 31
0.0
  0
LINE
  5
4CE
  8
DATA
  6
CONTINUOUS
 62
     7
 10
359.4000000000006
 20
262.5
 30
0.0
 11
375.9000000000006
 21
262.5
 31
0.0
  0
LINE
  5
4CF
  8
DATA
  6
CONTINUOUS
 62
     7
 10
359.4000000000006
 20
262.5
 30
0.0
 11
359.4000000000006
 21
256.5
 31
0.0
  0
LINE
  5
4D0
  8
DATA
  6
CONTINUOUS
 62
     7
 10
375.9000000000006
 20
262.5
 30
0.0
 11
375.9000000000006
 21
256.5
 31
0.0
  0
LINE
  5
4D1
  8
DATA
  6
CONTINUOUS
 62
     7
 10
375.9000000000006
 20
256.5
 30
0.0
 11
359.4000000000006
 21
256.5
 31
0.0
  0
LINE
  5
4D2
  8
DATA
  6
CONTINUOUS
 62
     7
 10
318.90000000000049
 20
258.0
 30
0.0
 11
324.90000000000049
 21
258.0
 31
0.0
  0
LINE
  5
4D3
  8
DATA
  6
CONTINUOUS
 62
     7
 10
357.90000000000049
 20
258.0
 30
0.0
 11
351.90000000000049
 21
258.0
 31
0.0
  0
LINE
  5
4D4
  8
DATA
  6
CONTINUOUS
 62
     7
 10
351.90000000000049
 20
258.0
 30
0.0
 11
351.90000000000049
 21
252.0
 31
0.0
  0
LINE
  5
4D5
  8
DATA
  6
CONTINUOUS
 62
     7
 10
324.90000000000049
 20
258.0
 30
0.0
 11
324.90000000000049
 21
252.0
 31
0.0
  0
LINE
  5
4D6
  8
DATA
  6
CONTINUOUS
 62
     7
 10
324.90000000000049
 20
252.0
 30
0.0
 11
351.90000000000049
 21
252.0
 31
0.0
  0
LINE
  5
4D7
  8
DATA
  6
CONTINUOUS
 62
     7
 10
279.9000000000006
 20
234.0
 30
0.0
 11
279.9000000000006
 21
417.0
 31
0.0
  0
LINE
  5
4D8
  8
DATA
  6
CONTINUOUS
 62
     7
 10
396.9000000000006
 20
234.0
 30
0.0
 11
396.9000000000006
 21
441.0
 31
0.0
  0
LINE
  5
4D9
  8
DATA
  6
CONTINUOUS
 62
     7
 10
411.90000000000049
 20
252.76498245104
 30
0.0
 11
411.90000000000049
 21
316.36498245104008
 31
0.0
  0
LINE
  5
4DA
  8
DATA
  6
CONTINUOUS
 62
     7
 10
483.90000000000049
 20
252.76498245104
 30
0.0
 11
411.90000000000049
 21
252.76498245104
 31
0.0
  0
LINE
  5
4DB
  8
DATA
  6
CONTINUOUS
 62
     7
 10
483.90000000000049
 20
316.36498245104008
 30
0.0
 11
483.90000000000049
 21
252.76498245104
 31
0.0
  0
LINE
  5
4DC
  8
DATA
  6
CONTINUOUS
 62
     7
 10
411.90000000000049
 20
316.36498245104008
 30
0.0
 11
483.90000000000049
 21
316.36498245104008
 31
0.0
  0
LINE
  5
4DD
  8
DATA
  6
CONTINUOUS
 62
     7
 10
475.49999999999989
 20
261.16498245104009
 30
0.0
 11
420.29999999999961
 21
261.16498245104009
 31
0.0
  0
LINE
  5
4DE
  8
DATA
  6
CONTINUOUS
 62
     7
 10
420.29999999999961
 20
261.16498245104009
 30
0.0
 11
420.29999999999961
 21
300.76498245104028
 31
0.0
  0
LINE
  5
4DF
  8
DATA
  6
CONTINUOUS
 62
     7
 10
475.49999999999989
 20
300.76498245103988
 30
0.0
 11
475.49999999999989
 21
261.16498245104009
 31
0.0
  0
LINE
  5
4E0
  8
DATA
  6
CONTINUOUS
 62
     7
 10
427.5
 20
307.96498245104021
 30
0.0
 11
468.30000000000109
 21
307.96498245104021
 31
0.0
  0
LINE
  5
4E1
  8
DATA
  6
CONTINUOUS
 62
     7
 10
420.29999999999961
 20
300.76498245103988
 30
0.0
 11
427.5
 21
307.96498245104021
 31
0.0
  0
LINE
  5
4E2
  8
DATA
  6
CONTINUOUS
 62
     7
 10
475.49999999999989
 20
300.76498245103988
 30
0.0
 11
468.29999999999973
 21
307.96498245104021
 31
0.0
  0
POLYLINE
  5
4E3
  8
DATA
  6
CONTINUOUS
 62
     7
 66
     1
 10
0.0
 20
0.0
 30
0.0
 70
     1
  0
VERTEX
  5
69D
  8
DATA
  6
CONTINUOUS
 62
     7
 10
429.89999999999912
 20
294.60000000000008
 30
0.0
  0
VERTEX
  5
69E
  8
DATA
  6
CONTINUOUS
 62
     7
 10
465.90000000000049
 20
294.60000000000008
 30
0.0
  0
VERTEX
  5
69F
  8
DATA
  6
CONTINUOUS
 62
     7
 10
465.90000000000049
 20
275.4000000000002
 30
0.0
  0
VERTEX
  5
6A0
  8
DATA
  6
CONTINUOUS
 62
     7
 10
429.89999999999912
 20
275.4000000000002
 30
0.0
  0
SEQEND
  5
6A1
  8
DATA
  6
CONTINUOUS
 62
     7
  0
TEXT
  5
4EA
  8
DATA
 62
     7
 10
-117.9562499999994
 20
422.07421874999989
 30
0.0
 40
13.8515625
  1
S/PDIF
 41
0.7
 72
     1
 11
-92.09999999999944
 21
429.0
 31
0.0
 73
     2
  0
TEXT
  5
4EB
  8
DATA
 62
     7
 10
85.579687500000546
 20
422.07421874999989
 30
0.0
 40
13.8515625
  1
AES/EBU
 41
0.7
 72
     1
 11
117.9000000000005
 21
429.0
 31
0.0
 73
     2
  0
TEXT
  5
4EC
  8
DATA
 62
     7
 10
323.3345551184438
 20
422.07421874999989
 30
0.0
 40
13.8515625
  1
HiQnet
 41
0.7
 72
     1
 11
347.57478949344392
 21
429.0
 31
0.0
 73
     2
  0
TEXT
  5
4ED
  8
DATA
 62
     7
 10
-105.02812499999941
 20
251.07421875
 30
0.0
 40
13.8515625
  1
OUT
 41
0.7
 72
     1
 11
-92.09999999999944
 21
258.0
 31
0.0
 73
     2
  0
TEXT
  5
4EE
  8
DATA
 62
     7
 10
-98.564062499999437
 20
335.07421875
 30
0.0
 40
13.8515625
  1
IN
 41
0.7
 72
     1
 11
-92.09999999999944
 21
342.0
 31
0.0
 73
     2
  0
TEXT
  5
4EF
  8
DATA
 62
     7
 10
51.435937500000549
 20
251.07421875
 30
0.0
 40
13.8515625
  1
IN
 41
0.7
 72
     1
 11
57.900000000000553
 21
258.0
 31
0.0
 73
     2
  0
TEXT
  5
4F0
  8
DATA
 62
     7
 10
200.97187500000049
 20
251.07421875
 30
0.0
 40
13.8515625
  1
OUT
 41
0.7
 72
     1
 11
213.9000000000006
 21
258.0
 31
0.0
 73
     2
  0
POLYLINE
  5
4F1
  8
DATA
  6
CONTINUOUS
 62
     7
 66
     1
 10
0.0
 20
0.0
 30
0.0
 70
     1
  0
VERTEX
  5
6A2
  8
DATA
  6
CONTINUOUS
 62
     7
 10
-137.0999999999994
 20
120.0
 30
0.0
  0
VERTEX
  5
6A3
  8
DATA
  6
CONTINUOUS
 62
     7
 10
-107.0999999999994
 20
120.0
 30
0.0
  0
VERTEX
  5
6A4
  8
DATA
  6
CONTINUOUS
 62
     7
 10
-107.0999999999994
 20
90.0
 30
0.0
  0
VERTEX
  5
6A5
  8
DATA
  6
CONTINUOUS
 62
     7
 10
-137.0999999999994
 20
90.0
 30
0.0
  0
SEQEND
  5
6A6
  8
DATA
  6
CONTINUOUS
 62
     7
  0
TEXT
  5
4F8
  8
DATA
 62
     7
 10
-139.87617187499939
 20
124.3828125
 30
0.0
 40
9.2343750000000036
  1
-10dbV
 41
0.7
 72
     1
 11
-122.0999999999994
 21
129.0
 31
0.0
 73
     2
  0
TEXT
  5
4F9
  8
DATA
 62
     7
 10
-140.41484374999939
 20
136.3828125
 30
0.0
 40
9.2343750000000036
  1
+4dBu/
 41
0.7
 72
     1
 11
-122.0999999999994
 21
141.0
 31
0.0
 73
     2
  0
TEXT
  5
4FA
  8
DATA
 62
     7
 10
-45.061171874999452
 20
38.07421875
 30
0.0
 40
13.8515625
  1
ANALOG IN
 41
0.7
 72
     1
 11
-6.5999999999994543
 21
45.0
 31
0.0
 73
     2
  0
CIRCLE
  5
4FB
  8
DATA
  6
CONTINUOUS
 62
     7
 10
174.9000000000006
 20
78.0
 30
0.0
 40
18.0
  0
CIRCLE
  5
4FC
  8
DATA
  6
CONTINUOUS
 62
     7
 10
174.9000000000006
 20
78.0
 30
0.0
 40
9.0
  0
TEXT
  5
4FD
  8
DATA
 62
     7
 10
163.04921875000051
 20
97.3828125
 30
0.0
 40
9.2343750000000036
  1
+15V
 41
0.7
 72
     1
 11
174.9000000000006
 21
102.0
 31
0.0
 73
     2
  0
CIRCLE
  5
4FE
  8
DATA
  6
CONTINUOUS
 62
     7
 10
81.900000000000546
 20
99.0
 30
0.0
 40
33.0
  0
CIRCLE
  5
4FF
  8
DATA
  6
CONTINUOUS
 62
     7
 10
81.900000000000546
 20
99.0
 30
0.0
 40
19.5
  0
POLYLINE
  5
500
  8
DATA
  6
CONTINUOUS
 62
     7
 66
     1
 10
0.0
 20
0.0
 30
0.0
 70
     1
  0
VERTEX
  5
6A7
  8
DATA
  6
CONTINUOUS
 62
     7
 10
35.535560338124007
 20
111.4233141649206
 30
0.0
  0
VERTEX
  5
6A8
  8
DATA
  6
CONTINUOUS
 62
     7
 10
47.95887450304599
 20
65.058874503046127
 30
0.0
  0
VERTEX
  5
6A9
  8
DATA
  6
CONTINUOUS
 62
     7
 10
94.323314164919793
 20
52.635560338124492
 30
0.0
  0
VERTEX
  5
6AA
  8
DATA
  6
CONTINUOUS
 62
     7
 10
128.26443966187429
 20
86.576685835078678
 30
0.0
  0
VERTEX
  5
6AB
  8
DATA
  6
CONTINUOUS
 62
     7
 10
115.84112549695369
 20
132.94112549695379
 30
0.0
  0
VERTEX
  5
6AC
  8
DATA
  6
CONTINUOUS
 62
     7
 10
69.47668583507857
 20
145.3644396618748
 30
0.0
  0
SEQEND
  5
6AD
  8
DATA
  6
CONTINUOUS
 62
     7
  0
TEXT
  5
509
  8
DATA
 62
     7
 10
146.13492187500049
 20
38.07421875
 30
0.0
 40
13.8515625
  1
RMC MIC
 41
0.7
 72
     1
 11
174.9000000000006
 21
45.0
 31
0.0
 73
     2
  0
CIRCLE
  5
50A
  8
DATA
  6
CONTINUOUS
 62
     7
 10
249.90000000000049
 20
81.0
 30
0.0
 40
9.0
  0
CIRCLE
  5
50B
  8
DATA
  6
CONTINUOUS
 62
     7
 10
281.40000000000049
 20
81.0
 30
0.0
 40
9.0
  0
CIRCLE
  5
50C
  8
DATA
  6
CONTINUOUS
 62
     7
 10
312.90000000000049
 20
81.0
 30
0.0
 40
9.0
  0
CIRCLE
  5
50D
  8
DATA
  6
CONTINUOUS
 62
     7
 10
344.4000000000006
 20
81.0
 30
0.0
 40
9.0
  0
CIRCLE
  5
50E
  8
DATA
  6
CONTINUOUS
 62
     7
 10
375.9000000000006
 20
81.0
 30
0.0
 40
9.0
  0
TEXT
  5
50F
  8
DATA
 62
     7
 10
434.97187500000052
 20
327.43920120104008
 30
0.0
 40
13.8515625
  1
USB
 41
0.7
 72
     1
 11
447.90000000000049
 21
334.36498245104008
 31
0.0
 73
     2
  0
TEXT
  5
510
  8
DATA
 62
     7
 10
240.9000000000006
 20
47.520000000000003
 30
0.0
 40
13.8515625
  1
ACTIVE INPUT
 41
0.7
 11
240.9000000000006
 21
61.371562500000003
 31
0.0
 73
     3
  0
POLYLINE
  5
511
  8
DATA
  6
CONTINUOUS
 62
     7
 66
     1
 10
0.0
 20
0.0
 30
0.0
 70
     1
  0
VERTEX
  5
6AE
  8
DATA
  6
CONTINUOUS
 62
     7
 10
498.90000000000049
 20
297.0
 30
0.0
  0
VERTEX
  5
6AF
  8
DATA
  6
CONTINUOUS
 62
     7
 10
624.90000000000055
 20
297.0
 30
0.0
  0
VERTEX
  5
6B0
  8
DATA
  6
CONTINUOUS
 62
     7
 10
624.90000000000055
 20
255.0
 30
0.0
  0
VERTEX
  5
6B1
  8
DATA
  6
CONTINUOUS
 62
     7
 10
498.90000000000049
 20
255.0
 30
0.0
  0
SEQEND
  5
6B2
  8
DATA
  6
CONTINUOUS
 62
     7
  0
POLYLINE
  5
518
  8
DATA
  6
CONTINUOUS
 62
     7
 66
     1
 10
0.0
 20
0.0
 30
0.0
 70
     1
  0
VERTEX
  5
6B3
  8
DATA
  6
CONTINUOUS
 62
     7
 10
507.90000000000049
 20
285.0
 30
0.0
  0
VERTEX
  5
6B4
  8
DATA
  6
CONTINUOUS
 62
     7
 10
513.90000000000055
 20
285.0
 30
0.0
  0
VERTEX
  5
6B5
  8
DATA
  6
CONTINUOUS
 62
     7
 10
513.90000000000055
 20
267.0
 30
0.0
  0
VERTEX
  5
6B6
  8
DATA
  6
CONTINUOUS
 62
     7
 10
507.90000000000049
 20
267.0
 30
0.0
  0
SEQEND
  5
6B7
  8
DATA
  6
CONTINUOUS
 62
     7
  0
POLYLINE
  5
51F
  8
DATA
  6
CONTINUOUS
 62
     7
 66
     1
 10
0.0
 20
0.0
 30
0.0
 70
     1
  0
VERTEX
  5
6B8
  8
DATA
  6
CONTINUOUS
 62
     7
 10
522.47142857142853
 20
285.0
 30
0.0
  0
VERTEX
  5
6B9
  8
DATA
  6
CONTINUOUS
 62
     7
 10
528.47142857142853
 20
285.0
 30
0.0
  0
VERTEX
  5
6BA
  8
DATA
  6
CONTINUOUS
 62
     7
 10
528.47142857142853
 20
267.0
 30
0.0
  0
VERTEX
  5
6BB
  8
DATA
  6
CONTINUOUS
 62
     7
 10
522.47142857142853
 20
267.0
 30
0.0
  0
SEQEND
  5
6BC
  8
DATA
  6
CONTINUOUS
 62
     7
  0
POLYLINE
  5
526
  8
DATA
  6
CONTINUOUS
 62
     7
 66
     1
 10
0.0
 20
0.0
 30
0.0
 70
     1
  0
VERTEX
  5
6BD
  8
DATA
  6
CONTINUOUS
 62
     7
 10
537.04285714285652
 20
285.0
 30
0.0
  0
VERTEX
  5
6BE
  8
DATA
  6
CONTINUOUS
 62
     7
 10
543.04285714285641
 20
285.0
 30
0.0
  0
VERTEX
  5
6BF
  8
DATA
  6
CONTINUOUS
 62
     7
 10
543.04285714285641
 20
267.0
 30
0.0
  0
VERTEX
  5
6C0
  8
DATA
  6
CONTINUOUS
 62
     7
 10
537.04285714285652
 20
267.0
 30
0.0
  0
SEQEND
  5
6C1
  8
DATA
  6
CONTINUOUS
 62
     7
  0
POLYLINE
  5
52D
  8
DATA
  6
CONTINUOUS
 62
     7
 66
     1
 10
0.0
 20
0.0
 30
0.0
 70
     1
  0
VERTEX
  5
6C2
  8
DATA
  6
CONTINUOUS
 62
     7
 10
551.61428571428576
 20
285.0
 30
0.0
  0
VERTEX
  5
6C3
  8
DATA
  6
CONTINUOUS
 62
     7
 10
557.61428571428576
 20
285.0
 30
0.0
  0
VERTEX
  5
6C4
  8
DATA
  6
CONTINUOUS
 62
     7
 10
557.61428571428576
 20
267.0
 30
0.0
  0
VERTEX
  5
6C5
  8
DATA
  6
CONTINUOUS
 62
     7
 10
551.61428571428576
 20
267.0
 30
0.0
  0
SEQEND
  5
6C6
  8
DATA
  6
CONTINUOUS
 62
     7
  0
POLYLINE
  5
534
  8
DATA
  6
CONTINUOUS
 62
     7
 66
     1
 10
0.0
 20
0.0
 30
0.0
 70
     1
  0
VERTEX
  5
6C7
  8
DATA
  6
CONTINUOUS
 62
     7
 10
566.18571428571374
 20
285.0
 30
0.0
  0
VERTEX
  5
6C8
  8
DATA
  6
CONTINUOUS
 62
     7
 10
572.18571428571374
 20
285.0
 30
0.0
  0
VERTEX
  5
6C9
  8
DATA
  6
CONTINUOUS
 62
     7
 10
572.18571428571374
 20
267.0
 30
0.0
  0
VERTEX
  5
6CA
  8
DATA
  6
CONTINUOUS
 62
     7
 10
566.18571428571374
 20
267.0
 30
0.0
  0
SEQEND
  5
6CB
  8
DATA
  6
CONTINUOUS
 62
     7
  0
POLYLINE
  5
53B
  8
DATA
  6
CONTINUOUS
 62
     7
 66
     1
 10
0.0
 20
0.0
 30
0.0
 70
     1
  0
VERTEX
  5
6CC
  8
DATA
  6
CONTINUOUS
 62
     7
 10
580.75714285714309
 20
285.0
 30
0.0
  0
VERTEX
  5
6CD
  8
DATA
  6
CONTINUOUS
 62
     7
 10
586.75714285714321
 20
285.0
 30
0.0
  0
VERTEX
  5
6CE
  8
DATA
  6
CONTINUOUS
 62
     7
 10
586.75714285714321
 20
267.0
 30
0.0
  0
VERTEX
  5
6CF
  8
DATA
  6
CONTINUOUS
 62
     7
 10
580.75714285714309
 20
267.0
 30
0.0
  0
SEQEND
  5
6D0
  8
DATA
  6
CONTINUOUS
 62
     7
  0
POLYLINE
  5
542
  8
DATA
  6
CONTINUOUS
 62
     7
 66
     1
 10
0.0
 20
0.0
 30
0.0
 70
     1
  0
VERTEX
  5
6D1
  8
DATA
  6
CONTINUOUS
 62
     7
 10
595.32857142857108
 20
285.0
 30
0.0
  0
VERTEX
  5
6D2
  8
DATA
  6
CONTINUOUS
 62
     7
 10
601.32857142857119
 20
285.0
 30
0.0
  0
VERTEX
  5
6D3
  8
DATA
  6
CONTINUOUS
 62
     7
 10
601.32857142857119
 20
267.0
 30
0.0
  0
VERTEX
  5
6D4
  8
DATA
  6
CONTINUOUS
 62
     7
 10
595.32857142857108
 20
267.0
 30
0.0
  0
SEQEND
  5
6D5
  8
DATA
  6
CONTINUOUS
 62
     7
  0
POLYLINE
  5
549
  8
DATA
  6
CONTINUOUS
 62
     7
 66
     1
 10
0.0
 20
0.0
 30
0.0
 70
     1
  0
VERTEX
  5
6D6
  8
DATA
  6
CONTINUOUS
 62
     7
 10
609.90000000000055
 20
285.0
 30
0.0
  0
VERTEX
  5
6D7
  8
DATA
  6
CONTINUOUS
 62
     7
 10
615.90000000000055
 20
285.0
 30
0.0
  0
VERTEX
  5
6D8
  8
DATA
  6
CONTINUOUS
 62
     7
 10
615.90000000000055
 20
267.0
 30
0.0
  0
VERTEX
  5
6D9
  8
DATA
  6
CONTINUOUS
 62
     7
 10
609.90000000000055
 20
267.0
 30
0.0
  0
SEQEND
  5
6DA
  8
DATA
  6
CONTINUOUS
 62
     7
  0
LINE
  5
550
  8
DATA
  6
CONTINUOUS
 62
     7
 10
507.90000000000049
 20
279.0
 30
0.0
 11
513.89999999999918
 21
279.0
 31
0.0
  0
LINE
  5
551
  8
DATA
  6
CONTINUOUS
 62
     7
 10
522.47142857142853
 20
273.0
 30
0.0
 11
528.47142857142853
 21
273.0
 31
0.0
  0
LINE
  5
552
  8
DATA
  6
CONTINUOUS
 62
     7
 10
537.04285714285652
 20
273.0
 30
0.0
 11
543.04285714285641
 21
273.0
 31
0.0
  0
LINE
  5
553
  8
DATA
  6
CONTINUOUS
 62
     7
 10
551.61428571428576
 20
273.0
 30
0.0
 11
557.61428571428576
 21
273.0
 31
0.0
  0
LINE
  5
554
  8
DATA
  6
CONTINUOUS
 62
     7
 10
566.18571428571374
 20
273.0
 30
0.0
 11
572.18571428571522
 21
273.0
 31
0.0
  0
LINE
  5
555
  8
DATA
  6
CONTINUOUS
 62
     7
 10
580.75714285714309
 20
273.0
 30
0.0
 11
586.75714285714321
 21
273.0
 31
0.0
  0
LINE
  5
556
  8
DATA
  6
CONTINUOUS
 62
     7
 10
595.32857142857108
 20
273.0
 30
0.0
 11
601.32857142857119
 21
273.0
 31
0.0
  0
LINE
  5
557
  8
DATA
  6
CONTINUOUS
 62
     7
 10
609.90000000000055
 20
273.0
 30
0.0
 11
615.90000000000055
 21
273.0
 31
0.0
  0
TEXT
  5
558
  8
DATA
 62
     7
 10
515.51718750000055
 20
303.0
 30
0.0
 40
9.2343750000000036
  1
Left
 50
90.0
 41
0.7
 11
510.90000000000049
 21
303.0
 31
0.0
 73
     2
  0
TEXT
  5
559
  8
DATA
 62
     7
 10
530.08861607142853
 20
303.0
 30
0.0
 40
9.2343750000000036
  1
Right
 50
90.0
 41
0.7
 11
525.47142857142853
 21
303.0
 31
0.0
 73
     2
  0
TEXT
  5
55A
  8
DATA
 62
     7
 10
544.66004464285652
 20
303.0
 30
0.0
 40
9.2343750000000036
  1
Center
 50
90.0
 41
0.7
 11
540.04285714285652
 21
303.0
 31
0.0
 73
     2
  0
TEXT
  5
55B
  8
DATA
 62
     7
 10
559.23147321428576
 20
303.0
 30
0.0
 40
9.2343750000000036
  1
L Surround
 50
90.0
 41
0.7
 11
554.61428571428576
 21
303.0
 31
0.0
 73
     2
  0
TEXT
  5
55C
  8
DATA
 62
     7
 10
573.80290178571374
 20
303.0
 30
0.0
 40
9.2343750000000036
  1
R Surround
 50
90.0
 41
0.7
 11
569.18571428571374
 21
303.0
 31
0.0
 73
     2
  0
TEXT
  5
55D
  8
DATA
 62
     7
 10
588.37433035714309
 20
303.0
 30
0.0
 40
9.2343750000000036
  1
C Surround
 50
90.0
 41
0.7
 11
583.75714285714321
 21
303.0
 31
0.0
 73
     2
  0
TEXT
  5
55E
  8
DATA
 62
     7
 10
602.94575892857119
 20
303.0
 30
0.0
 40
9.2343750000000036
  1
Left Extra
 50
90.0
 41
0.7
 11
598.32857142857108
 21
303.0
 31
0.0
 73
     2
  0
TEXT
  5
55F
  8
DATA
 62
     7
 10
617.51718750000055
 20
303.0
 30
0.0
 40
9.2343750000000036
  1
Right Extra
 50
90.0
 41
0.7
 11
612.90000000000055
 21
303.0
 31
0.0
 73
     2
  0
TEXT
  5
560
  8
DATA
 62
     7
 10
510.09199218750041
 20
257.537109375
 30
0.0
 40
6.92578125
  1
1
 41
0.7
 72
     1
 11
510.90000000000049
 21
261.0
 31
0.0
 73
     2
  0
TEXT
  5
561
  8
DATA
 62
     7
 10
523.85541294642849
 20
257.537109375
 30
0.0
 40
6.92578125
  1
2
 41
0.7
 72
     1
 11
525.47142857142853
 21
261.0
 31
0.0
 73
     2
  0
TEXT
  5
562
  8
DATA
 62
     7
 10
611.2839843750005
 20
257.537109375
 30
0.0
 40
6.92578125
  1
8
 41
0.7
 72
     1
 11
612.90000000000055
 21
261.0
 31
0.0
 73
     2
  0
TEXT
  5
563
  8
DATA
 62
     7
 10
538.42684151785636
 20
257.537109375
 30
0.0
 40
6.92578125
  1
3
 41
0.7
 72
     1
 11
540.04285714285652
 21
261.0
 31
0.0
 73
     2
  0
TEXT
  5
564
  8
DATA
 62
     7
 10
552.99827008928571
 20
257.537109375
 30
0.0
 40
6.92578125
  1
4
 41
0.7
 72
     1
 11
554.61428571428576
 21
261.0
 31
0.0
 73
     2
  0
TEXT
  5
565
  8
DATA
 62
     7
 10
567.56969866071381
 20
257.537109375
 30
0.0
 40
6.92578125
  1
5
 41
0.7
 72
     1
 11
569.18571428571374
 21
261.0
 31
0.0
 73
     2
  0
TEXT
  5
566
  8
DATA
 62
     7
 10
582.14112723214305
 20
257.537109375
 30
0.0
 40
6.92578125
  1
6
 41
0.7
 72
     1
 11
583.75714285714321
 21
261.0
 31
0.0
 73
     2
  0
TEXT
  5
567
  8
DATA
 62
     7
 10
596.71255580357115
 20
257.537109375
 30
0.0
 40
6.92578125
  1
7
 41
0.7
 72
     1
 11
598.32857142857108
 21
261.0
 31
0.0
 73
     2
  0
TEXT
  5
568
  8
DATA
 62
     7
 10
498.90000000000049
 20
228.36000000000001
 30
0.0
 40
18.46875
  1
SPEAKER ID
 41
0.7
 11
498.90000000000049
 21
246.82875000000001
 31
0.0
 73
     3
  0
TEXT
  5
569
  8
DATA
 62
     7
 10
256.4967331067769
 20
95.993982839629084
 30
0.0
 40
13.8515625
  1
ANALOG
 50
90.0
 41
0.7
 11
249.5709518567769
 21
95.993982839629084
 31
0.0
 73
     2
  0
TEXT
  5
56A
  8
DATA
 62
     7
 10
287.9967331067769
 20
95.993982839629084
 30
0.0
 40
13.8515625
  1
S/PDIF
 50
90.0
 41
0.7
 11
281.0709518567769
 21
95.993982839629084
 31
0.0
 73
     2
  0
TEXT
  5
56B
  8
DATA
 62
     7
 10
319.82578125000049
 20
96.0
 30
0.0
 40
13.8515625
  1
AES/EBU
 50
90.0
 41
0.7
 11
312.90000000000049
 21
96.0
 31
0.0
 73
     2
  0
TEXT
  5
56C
  8
DATA
 62
     7
 10
351.32578125000049
 20
96.0
 30
0.0
 40
13.8515625
  1
Ch.A
 50
90.0
 41
0.7
 11
344.4000000000006
 21
96.0
 31
0.0
 73
     2
  0
TEXT
  5
56D
  8
DATA
 62
     7
 10
382.8257812500006
 20
96.0
 30
0.0
 40
13.8515625
  1
Ch.B
 50
90.0
 41
0.7
 11
375.9000000000006
 21
96.0
 31
0.0
 73
     2
  0
TEXT
  5
56E
  8
DATA
 62
     7
 10
645.44999837080616
 20
257.51999999999998
 30
0.0
 40
13.8515625
  1
120V～,60Hz
 41
0.7
 11
645.44999837080616
 21
271.37156249999998
 31
0.0
 73
     3
  0
TEXT
  5
56F
  8
DATA
 62
     7
 10
645.44999837080616
 20
233.52000000000001
 30
0.0
 40
13.8515625
  1
130 Watts
 41
0.7
 11
645.44999837080616
 21
247.37156250000001
 31
0.0
 73
     3
  0
LINE
  5
570
  8
DATA
  6
CONTINUOUS
 62
     7
 10
438.90000000000049
 20
51.0
 30
0.0
 11
438.90000000000049
 21
183.0
 31
0.0
  0
LINE
  5
571
  8
DATA
  6
CONTINUOUS
 62
     7
 10
702.90000000000043
 20
21.0
 30
0.0
 11
468.90000000000049
 21
21.0
 31
0.0
  0
LINE
  5
572
  8
DATA
  6
CONTINUOUS
 62
     7
 10
732.90000000000043
 20
183.0
 30
0.0
 11
732.90000000000043
 21
51.0
 31
0.0
  0
LINE
  5
573
  8
DATA
  6
CONTINUOUS
 62
     7
 10
468.90000000000049
 20
213.0
 30
0.0
 11
702.90000000000043
 21
213.0
 31
0.0
  0
ARC
  5
574
  8
DATA
  6
CONTINUOUS
 62
     7
 10
468.90000000000049
 20
51.0
 30
0.0
 40
30.0
 50
180.0
 51
270.0
  0
ARC
  5
575
  8
DATA
  6
CONTINUOUS
 62
     7
 10
468.90000000000049
 20
183.0
 30
0.0
 40
30.0
 50
90.0
 51
180.0
  0
ARC
  5
576
  8
DATA
  6
CONTINUOUS
 62
     7
 10
702.90000000000043
 20
183.0
 30
0.0
 40
30.0
 50
0.0
 51
90.0
  0
ARC
  5
577
  8
DATA
  6
CONTINUOUS
 62
     7
 10
702.90000000000043
 20
51.0
 30
0.0
 40
30.0
 50
270.0
 51
0.0
  0
POLYLINE
  5
578
  8
DATA
  6
CONTINUOUS
 62
     7
 66
     1
 10
0.0
 20
0.0
 30
0.0
 70
     1
  0
VERTEX
  5
6DB
  8
DATA
  6
CONTINUOUS
 62
     7
 10
495.90000000000049
 20
192.0
 30
0.0
  0
VERTEX
  5
6DC
  8
DATA
  6
CONTINUOUS
 62
     7
 10
675.90000000000055
 20
192.0
 30
0.0
  0
VERTEX
  5
6DD
  8
DATA
  6
CONTINUOUS
 62
     7
 10
675.90000000000055
 20
42.0
 30
0.0
  0
VERTEX
  5
6DE
  8
DATA
  6
CONTINUOUS
 62
     7
 10
495.90000000000049
 20
42.0
 30
0.0
  0
SEQEND
  5
6DF
  8
DATA
  6
CONTINUOUS
 62
     7
  0
CIRCLE
  5
57F
  8
DATA
  6
CONTINUOUS
 62
     7
 10
465.90000000000049
 20
117.0
 30
0.0
 40
18.0
  0
LINE
  5
580
  8
DATA
  6
STYLE_11
 62
     7
 10
465.90000000000049
 20
108.0
 30
0.0
 11
465.90000000000049
 21
126.0
 31
0.0
  0
LINE
  5
581
  8
DATA
  6
STYLE_11
 62
     7
 10
456.90000000000049
 20
117.0
 30
0.0
 11
474.90000000000049
 21
117.0
 31
0.0
  0
CIRCLE
  5
582
  8
DATA
  6
CONTINUOUS
 62
     7
 10
705.90000000000043
 20
117.0
 30
0.0
 40
18.0
  0
LINE
  5
583
  8
DATA
  6
STYLE_11
 62
     7
 10
705.90000000000043
 20
108.0
 30
0.0
 11
705.90000000000043
 21
126.0
 31
0.0
  0
LINE
  5
584
  8
DATA
  6
STYLE_11
 62
     7
 10
696.90000000000043
 20
117.0
 30
0.0
 11
714.90000000000043
 21
117.0
 31
0.0
  0
LINE
  5
585
  8
DATA
  6
CONTINUOUS
 62
     7
 10
507.90000000000049
 20
81.0
 30
0.0
 11
507.90000000000049
 21
153.0
 31
0.0
  0
LINE
  5
586
  8
DATA
  6
CONTINUOUS
 62
     7
 10
585.90000000000055
 20
51.0
 30
0.0
 11
537.90000000000055
 21
51.0
 31
0.0
  0
LINE
  5
587
  8
DATA
  6
CONTINUOUS
 62
     7
 10
537.90000000000055
 20
51.0
 30
0.0
 11
507.90000000000049
 21
81.0
 31
0.0
  0
LINE
  5
588
  8
DATA
  6
CONTINUOUS
 62
     7
 10
597.90000000000055
 20
171.0
 30
0.0
 11
597.90000000000055
 21
63.0
 31
0.0
  0
LINE
  5
589
  8
DATA
  6
CONTINUOUS
 62
     7
 10
537.90000000000055
 20
183.0
 30
0.0
 11
585.90000000000055
 21
183.0
 31
0.0
  0
LINE
  5
58A
  8
DATA
  6
CONTINUOUS
 62
     7
 10
537.90000000000055
 20
183.0
 30
0.0
 11
507.90000000000049
 21
153.0
 31
0.0
  0
POLYLINE
  5
58B
  8
DATA
  6
CONTINUOUS
 62
     7
 66
     1
 10
0.0
 20
0.0
 30
0.0
 70
     1
  0
VERTEX
  5
6E0
  8
DATA
  6
CONTINUOUS
 62
     7
 10
554.40000000000055
 20
166.5
 30
0.0
  0
VERTEX
  5
6E1
  8
DATA
  6
CONTINUOUS
 62
     7
 10
578.40000000000055
 20
166.5
 30
0.0
  0
VERTEX
  5
6E2
  8
DATA
  6
CONTINUOUS
 62
     7
 10
578.40000000000055
 20
154.5
 30
0.0
  0
VERTEX
  5
6E3
  8
DATA
  6
CONTINUOUS
 62
     7
 10
554.40000000000055
 20
154.5
 30
0.0
  0
SEQEND
  5
6E4
  8
DATA
  6
CONTINUOUS
 62
     7
  0
POLYLINE
  5
592
  8
DATA
  6
CONTINUOUS
 62
     7
 66
     1
 10
0.0
 20
0.0
 30
0.0
 70
     1
  0
VERTEX
  5
6E5
  8
DATA
  6
CONTINUOUS
 62
     7
 10
554.40000000000055
 20
79.5
 30
0.0
  0
VERTEX
  5
6E6
  8
DATA
  6
CONTINUOUS
 62
     7
 10
578.40000000000055
 20
79.5
 30
0.0
  0
VERTEX
  5
6E7
  8
DATA
  6
CONTINUOUS
 62
     7
 10
578.40000000000055
 20
67.5
 30
0.0
  0
VERTEX
  5
6E8
  8
DATA
  6
CONTINUOUS
 62
     7
 10
554.40000000000055
 20
67.5
 30
0.0
  0
SEQEND
  5
6E9
  8
DATA
  6
CONTINUOUS
 62
     7
  0
POLYLINE
  5
599
  8
DATA
  6
CONTINUOUS
 62
     7
 66
     1
 10
0.0
 20
0.0
 30
0.0
 70
     1
  0
VERTEX
  5
6EA
  8
DATA
  6
CONTINUOUS
 62
     7
 10
527.40000000000055
 20
123.0
 30
0.0
  0
VERTEX
  5
6EB
  8
DATA
  6
CONTINUOUS
 62
     7
 10
551.40000000000055
 20
123.0
 30
0.0
  0
VERTEX
  5
6EC
  8
DATA
  6
CONTINUOUS
 62
     7
 10
551.40000000000055
 20
111.0
 30
0.0
  0
VERTEX
  5
6ED
  8
DATA
  6
CONTINUOUS
 62
     7
 10
527.40000000000055
 20
111.0
 30
0.0
  0
SEQEND
  5
6EE
  8
DATA
  6
CONTINUOUS
 62
     7
  0
ARC
  5
5A0
  8
DATA
  6
CONTINUOUS
 62
     7
 10
585.90000000000055
 20
171.0
 30
0.0
 40
12.0
 50
0.0
 51
90.0
  0
ARC
  5
5A1
  8
DATA
  6
CONTINUOUS
 62
     7
 10
585.90000000000055
 20
63.0
 30
0.0
 40
12.0
 50
270.0
 51
0.0
  0
ENDSEC
  0
EOF
