  0
SECTION
  2
HEADER
  9
$ACADVER
  1
AC1009
  9
$INSBASE
 10
0.0
 20
0.0
 30
0.0
  9
$EXTMIN
 10
-150.10985489947501
 20
-5195.3337877911117
 30
-0.0015258207003583
  9
$EXTMAX
 10
3450.10987166328
 20
157.26750014016579
 30
0.0000000349246037
  9
$LIMMIN
 10
0.0
 20
0.0
  9
$LIMMAX
 10
0.0
 20
0.0
  9
$ORTHOMODE
 70
     0
  9
$REGENMODE
 70
     1
  9
$FILLMODE
 70
     1
  9
$QTEXTMODE
 70
     0
  9
$MIRRTEXT
 70
     1
  9
$DRAGMODE
 70
     2
  9
$LTSCALE
 40
101.59999999999999
  9
$OSMODE
 70
   231
  9
$ATTMODE
 70
     1
  9
$TEXTSIZE
 40
0.0
  9
$TRACEWID
 40
1.0
  9
$TEXTSTYLE
  7
STANDARD
  9
$CLAYER
  8
DATA
  9
$CELTYPE
  6
CONTINUOUS
  9
$CECOLOR
 62
   256
  9
$DIMSCALE
 40
1.0
  9
$DIMASZ
 40
0.18
  9
$DIMEXO
 40
0.0625
  9
$DIMDLI
 40
0.38
  9
$DIMRND
 40
0.0
  9
$DIMDLE
 40
0.0
  9
$DIMEXE
 40
0.18
  9
$DIMTP
 40
0.0
  9
$DIMTM
 40
0.0
  9
$DIMTXT
 40
0.18
  9
$DIMCEN
 40
0.09
  9
$DIMTSZ
 40
0.0
  9
$DIMTOL
 70
     0
  9
$DIMLIM
 70
     0
  9
$DIMTIH
 70
     1
  9
$DIMTOH
 70
     1
  9
$DIMSE1
 70
     0
  9
$DIMSE2
 70
     0
  9
$DIMTAD
 70
     0
  9
$DIMZIN
 70
     0
  9
$DIMBLK
  1

  9
$DIMASO
 70
     1
  9
$DIMSHO
 70
     1
  9
$DIMPOST
  1

  9
$DIMAPOST
  1

  9
$DIMALT
 70
     0
  9
$DIMALTD
 70
     2
  9
$DIMALTF
 40
25.399999999999999
  9
$DIMLFAC
 40
1.0
  9
$DIMTOFL
 70
     0
  9
$DIMTVP
 40
0.0
  9
$DIMTIX
 70
     0
  9
$DIMSOXD
 70
     0
  9
$DIMSAH
 70
     0
  9
$DIMBLK1
  1

  9
$DIMBLK2
  1

  9
$DIMSTYLE
  2
STANDARD
  9
$DIMCLRD
 70
     0
  9
$DIMCLRE
 70
     0
  9
$DIMCLRT
 70
     0
  9
$DIMTFAC
 40
1.0
  9
$DIMGAP
 40
0.09
  9
$LUNITS
 70
     2
  9
$LUPREC
 70
     4
  9
$SKETCHINC
 40
0.1
  9
$FILLETRAD
 40
0.0
  9
$AUNITS
 70
     0
  9
$AUPREC
 70
     0
  9
$MENU
  1
acad
  9
$ELEVATION
 40
0.0
  9
$PELEVATION
 40
0.0
  9
$THICKNESS
 40
0.0
  9
$LIMCHECK
 70
     0
  9
$BLIPMODE
 70
     0
  9
$CHAMFERA
 40
0.0
  9
$CHAMFERB
 40
0.0
  9
$SKPOLY
 70
     0
  9
$TDCREATE
 40
2453685.770081019
  9
$TDUPDATE
 40
2453685.7748622452
  9
$TDINDWG
 40
0.0002795139
  9
$TDUSRTIMER
 40
0.0002795139
  9
$USRTIMER
 70
     1
  9
$ANGBASE
 50
0.0
  9
$ANGDIR
 70
     0
  9
$PDMODE
 70
     1
  9
$PDSIZE
 40
-2.0
  9
$PLINEWID
 40
0.0
  9
$COORDS
 70
     2
  9
$SPLFRAME
 70
     0
  9
$SPLINETYPE
 70
     6
  9
$SPLINESEGS
 70
     8
  9
$ATTDIA
 70
     0
  9
$ATTREQ
 70
     1
  9
$HANDLING
 70
     1
  9
$HANDSEED
  5
72F
  9
$SURFTAB1
 70
     6
  9
$SURFTAB2
 70
     6
  9
$SURFTYPE
 70
     6
  9
$SURFU
 70
     6
  9
$SURFV
 70
     6
  9
$UCSNAME
  2

  9
$UCSORG
 10
0.0
 20
0.0
 30
0.0
  9
$UCSXDIR
 10
1.0
 20
0.0
 30
0.0
  9
$UCSYDIR
 10
0.0
 20
1.0
 30
0.0
  9
$PUCSNAME
  2

  9
$PUCSORG
 10
0.0
 20
0.0
 30
0.0
  9
$PUCSXDIR
 10
1.0
 20
0.0
 30
0.0
  9
$PUCSYDIR
 10
0.0
 20
1.0
 30
0.0
  9
$USERI1
 70
     0
  9
$USERI2
 70
     0
  9
$USERI3
 70
     0
  9
$USERI4
 70
     0
  9
$USERI5
 70
     0
  9
$USERR1
 40
0.0
  9
$USERR2
 40
0.0
  9
$USERR3
 40
0.0
  9
$USERR4
 40
0.0
  9
$USERR5
 40
0.0
  9
$WORLDVIEW
 70
     1
  9
$SHADEDGE
 70
     3
  9
$SHADEDIF
 70
    70
  9
$TILEMODE
 70
     1
  9
$MAXACTVP
 70
    64
  9
$PLIMCHECK
 70
     0
  9
$PEXTMIN
 10
1.0000000000000000E+020
 20
1.0000000000000000E+020
 30
1.0000000000000000E+020
  9
$PEXTMAX
 10
-1.0000000000000000E+020
 20
-1.0000000000000000E+020
 30
-1.0000000000000000E+020
  9
$PLIMMIN
 10
0.0
 20
0.0
  9
$PLIMMAX
 10
12.0
 20
9.0
  9
$UNITMODE
 70
     0
  9
$VISRETAIN
 70
     0
  9
$PLINEGEN
 70
     1
  9
$PSLTSCALE
 70
     0
  0
ENDSEC
  0
SECTION
  2
TABLES
  0
TABLE
  2
VPORT
 70
     2
  0
VPORT
  2
*ACTIVE
 70
     0
 10
0.0
 20
0.0
 11
1.0
 21
1.0
 12
1650.000008381902
 22
-2519.0331438254739
 13
0.0
 23
0.0
 14
1.0
 24
1.0
 15
0.0
 25
0.0
 16
0.0
 26
0.0
 36
1.0
 17
0.0
 27
0.0
 37
0.0
 40
5396.8986779003644
 41
1.665745856353591
 42
50.0
 43
0.0
 44
0.0
 50
0.0
 51
0.0
 71
     0
 72
  2000
 73
     1
 74
     1
 75
     0
 76
     0
 77
     0
 78
     0
  0
ENDTAB
  0
TABLE
  2
LTYPE
 70
    12
  0
LTYPE
  2
CONTINUOUS
 70
     0
  3
Solid line
 72
    65
 73
     0
 40
0.0
  0
ENDTAB
  0
TABLE
  2
LAYER
 70
     6
  0
LAYER
  2
0
 70
     0
 62
     7
  6
CONTINUOUS
  0
LAYER
  2
DATA
 70
     0
 62
     7
  6
CONTINUOUS
  0
LAYER
  2
HIBINO-BASE
 70
     0
 62
     7
  6
CONTINUOUS
  0
LAYER
  2
SPEC
 70
     0
 62
     7
  6
CONTINUOUS
  0
LAYER
  2
PATTERN_FILL
 70
     0
 62
     7
  6
CONTINUOUS
  0
LAYER
  2
DIMNSIONS
 70
     0
 62
     7
  6
CONTINUOUS
  0
ENDTAB
  0
TABLE
  2
STYLE
 70
     2
  0
STYLE
  2
STANDARD
 70
     0
 40
0.0
 41
1.0
 50
0.0
 71
     0
 42
0.0
  3
txt
  4
BIGFONT.SHX
  0
ENDTAB
  0
TABLE
  2
VIEW
 70
     0
  0
ENDTAB
  0
TABLE
  2
UCS
 70
     0
  0
ENDTAB
  0
TABLE
  2
APPID
 70
     1
  0
APPID
  2
ACAD
 70
     0
  0
ENDTAB
  0
TABLE
  2
DIMSTYLE
 70
     1
  0
DIMSTYLE
  2
STANDARD
 70
     0
  3

  4

  5

  6

  7

 40
1.0
 41
0.18
 42
0.0625
 43
0.38
 44
0.18
 45
0.0
 46
0.0
 47
0.0
 48
0.0
140
0.18
141
0.09
142
0.0
143
25.399999999999999
144
1.0
145
0.0
146
1.0
147
0.09
 71
     0
 72
     0
 73
     1
 74
     1
 75
     0
 76
     0
 77
     0
 78
     0
170
     0
171
     2
172
     0
173
     0
174
     0
175
     0
176
     0
177
     0
178
     0
  0
ENDTAB
  0
ENDSEC
  0
SECTION
  2
BLOCKS
  0
BLOCK
  8
0
  2
$MODEL_SPACE
 70
     0
 10
0.0
 20
0.0
 30
0.0
  3
$MODEL_SPACE
  1

  0
ENDBLK
  5
6E7
  8
0
  0
BLOCK
 67
     1
  8
0
  2
$PAPER_SPACE
 70
     0
 10
0.0
 20
0.0
 30
0.0
  3
$PAPER_SPACE
  1

  0
ENDBLK
  5
6E3
 67
     1
  8
0
  0
ENDSEC
  0
SECTION
  2
ENTITIES
  0
LINE
  5
2E
  8
HIBINO-BASE
  6
CONTINUOUS
 62
     7
 10
-150.0
 20
157.1044850000003
 30
0.0
 11
3449.9999999999991
 21
157.1044850000003
 31
0.0
  0
LINE
  5
2F
  8
HIBINO-BASE
  6
CONTINUOUS
 62
     7
 10
3449.9999999999991
 20
-5042.8955150000002
 30
0.0
 11
-150.0
 21
-5042.8955150000002
 31
0.0
  0
LINE
  5
30
  8
HIBINO-BASE
  6
CONTINUOUS
 62
     7
 10
-150.0
 20
-5042.8955150000002
 30
0.0
 11
-150.0
 21
157.1044850000003
 31
0.0
  0
TEXT
  5
31
  8
HIBINO-BASE
 62
     7
 10
-6.3199999999999399
 20
-5171.0690709999981
 30
0.0
 40
72.000883593749975
  1
Hibino Corporation
 41
0.8
 11
-6.3199999999999363
 21
-5099.0681874062493
 31
0.0
 73
     3
  0
LINE
  5
32
  8
HIBINO-BASE
  6
CONTINUOUS
 62
     7
 10
3449.9999999999991
 20
157.1044850000003
 30
0.0
 11
3449.9999999999991
 21
-5042.8955150000002
 31
0.0
  0
LINE
  5
33
  8
HIBINO-BASE
  6
CONTINUOUS
 62
     7
 10
1649.9999999999991
 20
-4592.8955150000002
 30
0.0
 11
3449.9999999999991
 21
-4592.8955150000002
 31
0.0
  0
LINE
  5
34
  8
HIBINO-BASE
  6
CONTINUOUS
 62
     7
 10
1649.9999999999991
 20
-5042.8955150000002
 30
0.0
 11
1649.9999999999991
 21
-4592.8955150000002
 31
0.0
  0
TEXT
  5
35
  8
HIBINO-BASE
 62
     7
 10
1668.0
 20
-4646.895579
 30
0.0
 40
36.000518749999998
  1
NOTE
 41
0.8
 11
1668.0
 21
-4610.8950602499999
 31
0.0
 73
     3
  0
LINE
  5
36
  8
HIBINO-BASE
  6
CONTINUOUS
 62
     7
 10
2350.0
 20
-5042.8955150000002
 30
0.0
 11
2350.0
 21
-4592.8955150000002
 31
0.0
  0
TEXT
  5
37
  8
HIBINO-BASE
 62
     7
 10
2368.0
 20
-4646.895579
 30
0.0
 40
36.000518749999998
  1
TITLE
 41
0.8
 11
2368.0
 21
-4610.8950602499999
 31
0.0
 73
     3
  0
TEXT
  5
38
  8
HIBINO-BASE
 62
     7
 10
2651.3678
 20
-5171.0690709999981
 30
0.0
 40
72.000883593749975
  1
ヒビノ株式会社
 41
0.8
 11
2651.3678
 21
-5099.0681874062493
 31
0.0
 73
     3
  0
LINE
  5
39
  8
HIBINO-BASE
  6
CONTINUOUS
 62
     7
 10
1649.9999999999991
 20
-4842.8955150000002
 30
0.0
 11
3449.9999999999991
 21
-4842.8955150000002
 31
0.0
  0
TEXT
  5
3A
  8
HIBINO-BASE
 62
     7
 10
2618.0
 20
-4895.7691789999999
 30
0.0
 40
36.000518749999998
  1
DRAWN
 41
0.8
 11
2618.0
 21
-4859.7686602499998
 31
0.0
 73
     3
  0
TEXT
  5
3B
  8
HIBINO-BASE
 62
     7
 10
2118.0
 20
-4895.7691789999999
 30
0.0
 40
36.000518749999998
  1
DATE
 41
0.8
 11
2118.0
 21
-4859.7686602499998
 31
0.0
 73
     3
  0
TEXT
  5
3C
  8
HIBINO-BASE
 62
     7
 10
1672.0
 20
-4895.2846390000004
 30
0.0
 40
32.57687421875
  1
図面サイズ
 41
0.8
 11
1672.0
 21
-4862.7077647812512
 31
0.0
 73
     3
  0
TEXT
  5
3D
  8
HIBINO-BASE
 62
     7
 10
1918.0
 20
-4895.7691789999999
 30
0.0
 40
36.000518749999998
  1
SCALE
 41
0.8
 11
1918.0
 21
-4859.7686602499998
 31
0.0
 73
     3
  0
TEXT
  5
3E
  8
HIBINO-BASE
 62
     7
 10
2368.0
 20
-4895.7691789999999
 30
0.0
 40
36.000518749999998
  1
DESIGN
 41
0.8
 11
2368.0
 21
-4859.7686602499998
 31
0.0
 73
     3
  0
TEXT
  5
3F
  8
HIBINO-BASE
 62
     7
 10
3118.0
 20
-4895.7691789999999
 30
0.0
 40
36.000518749999998
  1
DRAWING NO.
 41
0.8
 11
3118.0
 21
-4859.7686602499998
 31
0.0
 73
     3
  0
TEXT
  5
40
  8
HIBINO-BASE
 62
     7
 10
2868.0
 20
-4895.7691789999999
 30
0.0
 40
36.000518749999998
  1
CHECK
 41
0.8
 11
2868.0
 21
-4859.7686602499998
 31
0.0
 73
     3
  0
LINE
  5
41
  8
HIBINO-BASE
  6
CONTINUOUS
 62
     7
 10
1937.5
 20
-5017.8955150000002
 30
0.0
 11
2012.5
 21
-4942.8955150000002
 31
0.0
  0
TEXT
  5
42
  8
HIBINO-BASE
 62
     7
 10
1925.0
 20
-4977.2098989999986
 30
0.0
 40
43.4357296875
  1
1
 41
0.8
 11
1925.0
 21
-4933.774169312499
 31
0.0
 73
     3
  0
LINE
  5
43
  8
HIBINO-BASE
  6
CONTINUOUS
 62
     7
 10
1900.0
 20
-5042.8955150000002
 30
0.0
 11
1900.0
 21
-4842.8955150000002
 31
0.0
  0
LINE
  5
44
  8
HIBINO-BASE
  6
CONTINUOUS
 62
     7
 10
2100.0
 20
-5042.8955150000002
 30
0.0
 11
2100.0
 21
-4842.8955150000002
 31
0.0
  0
LINE
  5
45
  8
HIBINO-BASE
  6
CONTINUOUS
 62
     7
 10
2600.0
 20
-4842.8955150000002
 30
0.0
 11
2600.0
 21
-5042.8955150000002
 31
0.0
  0
LINE
  5
46
  8
HIBINO-BASE
  6
CONTINUOUS
 62
     7
 10
3100.0
 20
-4842.8955150000002
 30
0.0
 11
3100.0
 21
-5042.8955150000002
 31
0.0
  0
LINE
  5
47
  8
HIBINO-BASE
  6
CONTINUOUS
 62
     7
 10
2850.0
 20
-5042.8955150000002
 30
0.0
 11
2850.0
 21
-4842.8955150000002
 31
0.0
  0
TEXT
  5
48
  8
HIBINO-BASE
 62
     7
 10
1728.217799999999
 20
-4992.9263909999991
 30
0.0
 40
65.153594531249993
  1
A4
 41
0.8
 11
1728.217799999999
 21
-4927.7727964687492
 31
0.0
 73
     3
  0
TEXT
  5
49
  8
HIBINO-BASE
 62
     7
 10
2117.1307999999999
 20
-4989.4487789999994
 30
0.0
 40
36.000518749999998
  1
'04.11.
 41
0.8
 11
2117.1307999999999
 21
-4953.4482602499993
 31
0.0
 73
     3
  0
TEXT
  5
4A
  8
HIBINO-BASE
 62
     7
 10
2000.0
 20
-5014.7098989999986
 30
0.0
 40
43.4357296875
  1
20
 41
0.8
 11
2000.0
 21
-4971.274169312499
 31
0.0
 73
     3
  0
TEXT
  5
4B
  8
HIBINO-BASE
 62
     7
 10
2630.1162002206929
 20
-4989.4487789999994
 30
0.0
 40
36.000518749999998
  1
N.Sasaki
 41
0.8
 11
2630.1162002206929
 21
-4953.4482602499993
 31
0.0
 73
     3
  0
TEXT
  5
4C
  8
HIBINO-BASE
 62
     7
 10
2880.116200220692
 20
-4985.6225816666674
 30
0.0
 40
32.576822916666671
  1
T.Taki
 41
0.8
 11
2880.116200220692
 21
-4953.0457587499995
 31
0.0
 73
     3
  0
LINE
  5
4D
  8
SPEC
  6
CONTINUOUS
 62
     7
 10
0.0
 20
0.0
 30
0.0
 11
2550.0
 21
0.0
 31
0.0
  0
LINE
  5
4E
  8
SPEC
  6
CONTINUOUS
 62
     7
 10
0.0
 20
-75.0
 30
0.0
 11
2550.0
 21
-75.0
 31
0.0
  0
LINE
  5
4F
  8
SPEC
  6
CONTINUOUS
 62
     7
 10
0.0
 20
-375.0
 30
0.0
 11
2550.0
 21
-375.0
 31
0.0
  0
LINE
  5
50
  8
SPEC
  6
CONTINUOUS
 62
     7
 10
0.0
 20
-300.0
 30
0.0
 11
2550.0
 21
-300.0
 31
0.0
  0
LINE
  5
51
  8
SPEC
  6
CONTINUOUS
 62
     7
 10
0.0
 20
-225.0
 30
0.0
 11
2550.0
 21
-225.0
 31
0.0
  0
LINE
  5
52
  8
SPEC
  6
CONTINUOUS
 62
     7
 10
0.0
 20
-450.0
 30
0.0
 11
2550.0
 21
-450.0
 31
0.0
  0
LINE
  5
53
  8
SPEC
  6
CONTINUOUS
 62
     7
 10
0.0
 20
-150.0
 30
0.0
 11
2550.0
 21
-150.0
 31
0.0
  0
LINE
  5
54
  8
SPEC
  6
CONTINUOUS
 62
     7
 10
-0.0000000000002274
 20
0.0
 30
0.0
 11
-0.0000000000002274
 21
-1265.0044849999999
 31
0.0
  0
TEXT
  5
55
  8
SPEC
 62
     7
 10
25.0
 20
27.865400000000118
 30
0.0
 40
48.865234375000007
  1
仕様
 41
0.8
 11
25.0
 21
76.730634375000122
 31
0.0
 73
     3
  0
LINE
  5
56
  8
SPEC
  6
CONTINUOUS
 62
     7
 10
649.99999999999977
 20
0.0
 30
0.0
 11
649.99999999999977
 21
-1265.0044849999999
 31
0.0
  0
LINE
  5
57
  8
SPEC
  6
CONTINUOUS
 62
     7
 10
2550.0
 20
0.0
 30
0.0
 11
2550.0
 21
-1265.0044849999999
 31
0.0
  0
TEXT
  5
58
  8
SPEC
 62
     7
 10
667.99999999999977
 20
-59.241555555555749
 30
0.0
 40
38.006293402777771
  1
サブウーファ (18" high-power subwoofer)
 41
0.8
 11
667.99999999999977
 21
-21.235262152777981
 31
0.0
 73
     3
  0
TEXT
  5
59
  8
SPEC
 62
     7
 10
667.99999999999977
 20
-284.24155555555581
 30
0.0
 40
38.006293402777771
  1
2268H(口径:18インチ)
 41
0.8
 11
667.99999999999977
 21
-246.23526215277801
 31
0.0
 73
     3
  0
TEXT
  5
5A
  8
SPEC
 62
     7
 10
667.99999999999977
 20
-359.24155555555581
 30
0.0
 40
38.006293402777771
  1
95dB SPL
 41
0.8
 11
667.99999999999977
 21
-321.23526215277798
 31
0.0
 73
     3
  0
TEXT
  5
5B
  8
SPEC
 62
     7
 10
667.99999999999977
 20
-134.24155555555569
 30
0.0
 40
38.006293402777771
  1
31Hz～220Hz
 41
0.8
 11
667.99999999999977
 21
-96.235262152777963
 31
0.0
 73
     3
  0
TEXT
  5
5C
  8
SPEC
 62
     7
 10
667.99999999999977
 20
-209.24155555555569
 30
0.0
 40
38.006293402777771
  1
34Hz～220Hz
 41
0.8
 11
667.99999999999977
 21
-171.23526215277801
 31
0.0
 73
     3
  0
TEXT
  5
5D
  8
SPEC
 62
     7
 10
17.99999999999249
 20
-359.24155555555581
 30
0.0
 40
38.006293402777771
  1
音圧レベル (1W/1m)
 41
0.8
 11
17.9999999999925
 21
-321.23526215277798
 31
0.0
 73
     3
  0
TEXT
  5
5E
  8
SPEC
 62
     7
 10
17.999999999987939
 20
-284.24155555555762
 30
0.0
 40
38.006293402777771
  1
低域ユニット
 41
0.8
 11
17.999999999987949
 21
-246.2352621527798
 31
0.0
 73
     3
  0
TEXT
  5
5F
  8
SPEC
 62
     7
 10
17.999999999997041
 20
-134.24155555555569
 30
0.0
 40
38.006293402777771
  1
周波数レンジ(-10dB)
 41
0.8
 11
17.999999999997051
 21
-96.235262152777963
 31
0.0
 73
     3
  0
TEXT
  5
60
  8
SPEC
 62
     7
 10
17.999999999997041
 20
-209.24155555555569
 30
0.0
 40
38.006293402777771
  1
周波数特性(±3dB)
 41
0.8
 11
17.999999999997051
 21
-171.23526215277801
 31
0.0
 73
     3
  0
TEXT
  5
61
  8
SPEC
 62
     7
 10
17.999999999998401
 20
-59.241555555555749
 30
0.0
 40
38.006293402777771
  1
形式
 41
0.8
 11
17.999999999998408
 21
-21.235262152777981
 31
0.0
 73
     3
  0
TEXT
  5
62
  8
SPEC
 62
     7
 10
667.99999999999977
 20
-509.24155555555592
 30
0.0
 40
38.006293402777771
  1
8Ω
 41
0.8
 11
667.99999999999977
 21
-471.23526215277809
 31
0.0
 73
     3
  0
TEXT
  5
63
  8
SPEC
 62
     7
 10
17.99999999999249
 20
-509.24155555555592
 30
0.0
 40
38.006293402777771
  1
公称インピーダンス
 41
0.8
 11
17.9999999999925
 21
-471.23526215277809
 31
0.0
 73
     3
  0
TEXT
  5
64
  8
SPEC
 62
     7
 10
667.99999999999977
 20
-584.24155555555603
 30
0.0
 40
38.006293402777771
  1
IEC:800W,Peak:3200W
 41
0.8
 11
667.99999999999977
 21
-546.2352621527782
 31
0.0
 73
     3
  0
TEXT
  5
65
  8
SPEC
 62
     7
 10
17.99999999999249
 20
-584.24155555555603
 30
0.0
 40
38.006293402777771
  1
許容入力
 41
0.8
 11
17.9999999999925
 21
-546.2352621527782
 31
0.0
 73
     3
  0
TEXT
  5
66
  8
SPEC
 62
     7
 10
667.99999999999977
 20
-659.24155555555603
 30
0.0
 40
38.006293402777771
  1
HPF:80Hz,24dB/oct、LPF:80Hz,24dB/oct
 41
0.8
 11
667.99999999999977
 21
-621.2352621527782
 31
0.0
 73
     3
  0
TEXT
  5
67
  8
SPEC
 62
     7
 10
17.99999999999249
 20
-659.24155555555603
 30
0.0
 40
38.006293402777771
  1
推奨クロスオーバー
 41
0.8
 11
17.9999999999925
 21
-621.2352621527782
 31
0.0
 73
     3
  0
LINE
  5
68
  8
SPEC
  6
CONTINUOUS
 62
     7
 10
0.0
 20
-825.0
 30
0.0
 11
2550.0
 21
-825.0
 31
0.0
  0
TEXT
  5
69
  8
SPEC
 62
     7
 10
667.99999999999977
 20
-809.24155555555558
 30
0.0
 40
38.006293402777771
  1
黒のデュラフレックス塗装
 41
0.8
 11
667.99999999999977
 21
-771.23526215277775
 31
0.0
 73
     3
  0
TEXT
  5
6A
  8
SPEC
 62
     7
 10
17.99999999999249
 20
-809.24155555555558
 30
0.0
 40
38.006293402777771
  1
仕上げ
 41
0.8
 11
17.9999999999925
 21
-771.23526215277775
 31
0.0
 73
     3
  0
TEXT
  5
6B
  8
SPEC
 62
     7
 10
667.99999999999977
 20
-884.24155555555558
 30
0.0
 40
38.006293402777771
  1
M20--(SS4-BK取付用)×1
 41
0.8
 11
667.99999999999977
 21
-846.23526215277775
 31
0.0
 73
     3
  0
TEXT
  5
6C
  8
SPEC
 62
     7
 10
667.99999999999966
 20
-1099.240040555555
 30
0.0
 40
38.006293402777771
  1
＊ ±1:LF,±2:N/C(スイッチにより±1/±2切替可能)
 41
0.8
 11
667.99999999999966
 21
-1061.2337471527769
 31
0.0
 73
     3
  0
TEXT
  5
6D
  8
SPEC
 62
     7
 10
667.99999999999977
 20
-1034.2415555555549
 30
0.0
 40
38.006293402777771
  1
NEUTRIK NL4×2(IN,THRU)
 41
0.8
 11
667.99999999999977
 21
-996.23526215277764
 31
0.0
 73
     3
  0
TEXT
  5
6E
  8
SPEC
 62
     7
 10
17.999999999987939
 20
-884.24155555555558
 30
0.0
 40
38.006293402777771
  1
金具用取付穴
 41
0.8
 11
17.999999999987949
 21
-846.23526215277775
 31
0.0
 73
     3
  0
TEXT
  5
6F
  8
SPEC
 62
     7
 10
17.999999999987939
 20
-1034.2415555555549
 30
0.0
 40
38.006293402777771
  1
コネクター
 41
0.8
 11
17.999999999987949
 21
-996.23526215277764
 31
0.0
 73
     3
  0
LINE
  5
70
  8
SPEC
  6
CONTINUOUS
 62
     7
 10
0.0000000000002274
 20
-1190.0044849999999
 30
0.0
 11
2550.0
 21
-1190.0044849999999
 31
0.0
  0
TEXT
  5
71
  8
SPEC
 62
     7
 10
668.0
 20
-1174.2460405555551
 30
0.0
 40
38.006293402777771
  1
597(W)×508(H)×749(D)mm (ゴム足、突起は含まず)
 41
0.8
 11
668.0
 21
-1136.239747152777
 31
0.0
 73
     3
  0
TEXT
  5
72
  8
SPEC
 62
     7
 10
668.0
 20
-1249.2460405555551
 30
0.0
 40
38.006293402777771
  1
約36kg
 41
0.8
 11
668.0
 21
-1211.239747152777
 31
0.0
 73
     3
  0
TEXT
  5
73
  8
SPEC
 62
     7
 10
17.999999999987939
 20
-1174.246040555556
 30
0.0
 40
38.006293402777771
  1
寸法
 41
0.8
 11
17.999999999987949
 21
-1136.2397471527779
 31
0.0
 73
     3
  0
TEXT
  5
74
  8
SPEC
 62
     7
 10
17.999999999998401
 20
-1249.2460405555551
 30
0.0
 40
38.006293402777771
  1
重量
 41
0.8
 11
17.999999999998408
 21
-1211.239747152777
 31
0.0
 73
     3
  0
LINE
  5
75
  8
SPEC
  6
CONTINUOUS
 62
     7
 10
0.0000000000002274
 20
-1265.0044849999999
 30
0.0
 11
2550.0
 21
-1265.0044849999999
 31
0.0
  0
LINE
  5
76
  8
SPEC
  6
CONTINUOUS
 62
     7
 10
0.0
 20
-525.0
 30
0.0
 11
2550.0
 21
-525.0
 31
0.0
  0
TEXT
  5
77
  8
SPEC
 62
     7
 10
667.99999999999977
 20
-434.24155555555569
 30
0.0
 40
38.006293402777771
  1
130dB SPL peak(計算値)
 41
0.8
 11
667.99999999999977
 21
-396.23526215277798
 31
0.0
 73
     3
  0
TEXT
  5
78
  8
SPEC
 62
     7
 10
17.99999999999249
 20
-434.24155555555569
 30
0.0
 40
38.006293402777771
  1
最大音圧 (＠/1m)
 41
0.8
 11
17.9999999999925
 21
-396.23526215277798
 31
0.0
 73
     3
  0
LINE
  5
79
  8
SPEC
  6
CONTINUOUS
 62
     7
 10
0.0
 20
-600.0
 30
0.0
 11
2550.0
 21
-600.0
 31
0.0
  0
LINE
  5
7A
  8
SPEC
  6
CONTINUOUS
 62
     7
 10
0.0
 20
-975.0
 30
0.0
 11
2550.0
 21
-975.0
 31
0.0
  0
TEXT
  5
7B
  8
SPEC
 62
     7
 10
667.99999999999977
 20
-959.24155555555535
 30
0.0
 40
38.006293402777771
  1
SPユニットは前面側で交換
 41
0.8
 11
667.99999999999977
 21
-921.23526215277764
 31
0.0
 73
     3
  0
TEXT
  5
7C
  8
SPEC
 62
     7
 10
17.999999999987939
 20
-959.24155555555535
 30
0.0
 40
38.006293402777771
  1
メンテナンス
 41
0.8
 11
17.999999999987949
 21
-921.23526215277764
 31
0.0
 73
     3
  0
LINE
  5
7D
  8
SPEC
  6
CONTINUOUS
 62
     7
 10
1750.0
 20
-300.0
 30
0.0
 11
1750.0
 21
-225.0
 31
0.0
  0
TEXT
  5
7E
  8
SPEC
 62
     7
 10
1772.6593098601579
 20
-284.24155555555581
 30
0.0
 40
38.006293402777771
  1
振動板交換パーツ:C8R2268
 41
0.8
 11
1772.6593098601579
 21
-246.23526215277801
 31
0.0
 73
     3
  0
LINE
  5
7F
  8
SPEC
  6
CONTINUOUS
 62
     7
 10
0.0
 20
-750.0
 30
0.0
 11
2550.0
 21
-750.0
 31
0.0
  0
LINE
  5
80
  8
SPEC
  6
CONTINUOUS
 62
     7
 10
0.0
 20
-900.0
 30
0.0
 11
2550.0
 21
-900.0
 31
0.0
  0
LINE
  5
81
  8
SPEC
  6
CONTINUOUS
 62
     7
 10
0.0
 20
-1115.0
 30
0.0
 11
2550.0
 21
-1115.0
 31
0.0
  0
LINE
  5
82
  8
SPEC
  6
CONTINUOUS
 62
     7
 10
0.0
 20
-675.0
 30
0.0
 11
2550.0
 21
-675.0
 31
0.0
  0
TEXT
  5
83
  8
SPEC
 62
     7
 10
667.99999999999977
 20
-734.24155555555603
 30
0.0
 40
38.006293402777771
  1
正相
 41
0.8
 11
667.99999999999977
 21
-696.23526215277832
 31
0.0
 73
     3
  0
TEXT
  5
84
  8
SPEC
 62
     7
 10
17.99999999999249
 20
-734.24155555555603
 30
0.0
 40
38.006293402777771
  1
極性
 41
0.8
 11
17.9999999999925
 21
-696.23526215277832
 31
0.0
 73
     3
  0
CIRCLE
  5
85
  8
PATTERN_FILL
  6
CONTINUOUS
 62
     7
 10
704.49999999999955
 20
-2850.0044849999999
 30
0.0
 40
3.25
  0
CIRCLE
  5
86
  8
PATTERN_FILL
  6
CONTINUOUS
 62
     7
 10
720.49999999999955
 20
-2850.0044849999999
 30
0.0
 40
3.25
  0
CIRCLE
  5
87
  8
PATTERN_FILL
  6
CONTINUOUS
 62
     7
 10
736.49999999999955
 20
-2850.0044849999999
 30
0.0
 40
3.25
  0
CIRCLE
  5
88
  8
PATTERN_FILL
  6
CONTINUOUS
 62
     7
 10
752.49999999999955
 20
-2850.0044849999999
 30
0.0
 40
3.25
  0
CIRCLE
  5
89
  8
PATTERN_FILL
  6
CONTINUOUS
 62
     7
 10
768.5
 20
-2850.0044849999999
 30
0.0
 40
3.25
  0
CIRCLE
  5
8A
  8
PATTERN_FILL
  6
CONTINUOUS
 62
     7
 10
784.49999999999989
 20
-2850.0044849999999
 30
0.0
 40
3.25
  0
CIRCLE
  5
8B
  8
PATTERN_FILL
  6
CONTINUOUS
 62
     7
 10
544.49999999999966
 20
-2850.0044849999999
 30
0.0
 40
3.25
  0
CIRCLE
  5
8C
  8
PATTERN_FILL
  6
CONTINUOUS
 62
     7
 10
528.49999999999966
 20
-2850.0044849999999
 30
0.0
 40
3.25
  0
CIRCLE
  5
8D
  8
PATTERN_FILL
  6
CONTINUOUS
 62
     7
 10
512.49999999999977
 20
-2850.0044849999999
 30
0.0
 40
3.25
  0
CIRCLE
  5
8E
  8
PATTERN_FILL
  6
CONTINUOUS
 62
     7
 10
496.49999999999977
 20
-2850.0044849999999
 30
0.0
 40
3.25
  0
CIRCLE
  5
8F
  8
PATTERN_FILL
  6
CONTINUOUS
 62
     7
 10
480.49999999999972
 20
-2850.0044849999999
 30
0.0
 40
3.25
  0
CIRCLE
  5
90
  8
PATTERN_FILL
  6
CONTINUOUS
 62
     7
 10
464.49999999999972
 20
-2850.0044849999999
 30
0.0
 40
3.25
  0
CIRCLE
  5
91
  8
PATTERN_FILL
  6
CONTINUOUS
 62
     7
 10
448.49999999999972
 20
-2850.0044849999999
 30
0.0
 40
3.25
  0
CIRCLE
  5
92
  8
PATTERN_FILL
  6
CONTINUOUS
 62
     7
 10
432.49999999999972
 20
-2850.0044849999999
 30
0.0
 40
3.25
  0
CIRCLE
  5
93
  8
PATTERN_FILL
  6
CONTINUOUS
 62
     7
 10
416.49999999999972
 20
-2850.0044849999999
 30
0.0
 40
3.25
  0
CIRCLE
  5
94
  8
PATTERN_FILL
  6
CONTINUOUS
 62
     7
 10
400.49999999999977
 20
-2850.0044849999999
 30
0.0
 40
3.25
  0
CIRCLE
  5
95
  8
PATTERN_FILL
  6
CONTINUOUS
 62
     7
 10
800.5
 20
-2850.0044849999999
 30
0.0
 40
3.25
  0
CIRCLE
  5
96
  8
PATTERN_FILL
  6
CONTINUOUS
 62
     7
 10
816.5
 20
-2850.0044849999999
 30
0.0
 40
3.25
  0
CIRCLE
  5
97
  8
PATTERN_FILL
  6
CONTINUOUS
 62
     7
 10
832.49999999999989
 20
-2850.0044849999999
 30
0.0
 40
3.25
  0
CIRCLE
  5
98
  8
PATTERN_FILL
  6
CONTINUOUS
 62
     7
 10
848.49999999999989
 20
-2850.0044849999999
 30
0.0
 40
3.25
  0
CIRCLE
  5
99
  8
PATTERN_FILL
  6
CONTINUOUS
 62
     7
 10
864.49999999999989
 20
-2850.0044849999999
 30
0.0
 40
3.25
  0
CIRCLE
  5
9A
  8
PATTERN_FILL
  6
CONTINUOUS
 62
     7
 10
880.49999999999989
 20
-2850.0044849999999
 30
0.0
 40
3.25
  0
CIRCLE
  5
9B
  8
PATTERN_FILL
  6
CONTINUOUS
 62
     7
 10
896.49999999999989
 20
-2850.0044849999999
 30
0.0
 40
3.25
  0
CIRCLE
  5
9C
  8
PATTERN_FILL
  6
CONTINUOUS
 62
     7
 10
560.49999999999966
 20
-2850.0044849999999
 30
0.0
 40
3.25
  0
CIRCLE
  5
9D
  8
PATTERN_FILL
  6
CONTINUOUS
 62
     7
 10
576.49999999999966
 20
-2850.0044849999999
 30
0.0
 40
3.25
  0
CIRCLE
  5
9E
  8
PATTERN_FILL
  6
CONTINUOUS
 62
     7
 10
592.49999999999977
 20
-2850.0044849999999
 30
0.0
 40
3.25
  0
CIRCLE
  5
9F
  8
PATTERN_FILL
  6
CONTINUOUS
 62
     7
 10
704.49999999999955
 20
-2822.0044849999999
 30
0.0
 40
3.25
  0
CIRCLE
  5
A0
  8
PATTERN_FILL
  6
CONTINUOUS
 62
     7
 10
720.49999999999955
 20
-2822.0044849999999
 30
0.0
 40
3.25
  0
CIRCLE
  5
A1
  8
PATTERN_FILL
  6
CONTINUOUS
 62
     7
 10
736.49999999999955
 20
-2822.0044849999999
 30
0.0
 40
3.25
  0
CIRCLE
  5
A2
  8
PATTERN_FILL
  6
CONTINUOUS
 62
     7
 10
752.49999999999955
 20
-2822.0044849999999
 30
0.0
 40
3.25
  0
CIRCLE
  5
A3
  8
PATTERN_FILL
  6
CONTINUOUS
 62
     7
 10
768.5
 20
-2822.0044849999999
 30
0.0
 40
3.25
  0
CIRCLE
  5
A4
  8
PATTERN_FILL
  6
CONTINUOUS
 62
     7
 10
784.49999999999989
 20
-2822.0044849999999
 30
0.0
 40
3.25
  0
CIRCLE
  5
A5
  8
PATTERN_FILL
  6
CONTINUOUS
 62
     7
 10
544.49999999999966
 20
-2822.0044849999999
 30
0.0
 40
3.25
  0
CIRCLE
  5
A6
  8
PATTERN_FILL
  6
CONTINUOUS
 62
     7
 10
528.49999999999966
 20
-2822.0044849999999
 30
0.0
 40
3.25
  0
CIRCLE
  5
A7
  8
PATTERN_FILL
  6
CONTINUOUS
 62
     7
 10
512.49999999999977
 20
-2822.0044849999999
 30
0.0
 40
3.25
  0
CIRCLE
  5
A8
  8
PATTERN_FILL
  6
CONTINUOUS
 62
     7
 10
496.49999999999977
 20
-2822.0044849999999
 30
0.0
 40
3.25
  0
CIRCLE
  5
A9
  8
PATTERN_FILL
  6
CONTINUOUS
 62
     7
 10
480.49999999999972
 20
-2822.0044849999999
 30
0.0
 40
3.25
  0
CIRCLE
  5
AA
  8
PATTERN_FILL
  6
CONTINUOUS
 62
     7
 10
464.49999999999972
 20
-2822.0044849999999
 30
0.0
 40
3.25
  0
CIRCLE
  5
AB
  8
PATTERN_FILL
  6
CONTINUOUS
 62
     7
 10
448.49999999999972
 20
-2822.0044849999999
 30
0.0
 40
3.25
  0
CIRCLE
  5
AC
  8
PATTERN_FILL
  6
CONTINUOUS
 62
     7
 10
432.49999999999972
 20
-2822.0044849999999
 30
0.0
 40
3.25
  0
CIRCLE
  5
AD
  8
PATTERN_FILL
  6
CONTINUOUS
 62
     7
 10
416.49999999999972
 20
-2822.0044849999999
 30
0.0
 40
3.25
  0
CIRCLE
  5
AE
  8
PATTERN_FILL
  6
CONTINUOUS
 62
     7
 10
400.49999999999977
 20
-2822.0044849999999
 30
0.0
 40
3.25
  0
CIRCLE
  5
AF
  8
PATTERN_FILL
  6
CONTINUOUS
 62
     7
 10
800.5
 20
-2822.0044849999999
 30
0.0
 40
3.25
  0
CIRCLE
  5
B0
  8
PATTERN_FILL
  6
CONTINUOUS
 62
     7
 10
816.5
 20
-2822.0044849999999
 30
0.0
 40
3.25
  0
CIRCLE
  5
B1
  8
PATTERN_FILL
  6
CONTINUOUS
 62
     7
 10
832.49999999999989
 20
-2822.0044849999999
 30
0.0
 40
3.25
  0
CIRCLE
  5
B2
  8
PATTERN_FILL
  6
CONTINUOUS
 62
     7
 10
848.49999999999989
 20
-2822.0044849999999
 30
0.0
 40
3.25
  0
CIRCLE
  5
B3
  8
PATTERN_FILL
  6
CONTINUOUS
 62
     7
 10
864.49999999999989
 20
-2822.0044849999999
 30
0.0
 40
3.25
  0
CIRCLE
  5
B4
  8
PATTERN_FILL
  6
CONTINUOUS
 62
     7
 10
880.49999999999989
 20
-2822.0044849999999
 30
0.0
 40
3.25
  0
CIRCLE
  5
B5
  8
PATTERN_FILL
  6
CONTINUOUS
 62
     7
 10
896.49999999999989
 20
-2822.0044849999999
 30
0.0
 40
3.25
  0
CIRCLE
  5
B6
  8
PATTERN_FILL
  6
CONTINUOUS
 62
     7
 10
560.49999999999966
 20
-2822.0044849999999
 30
0.0
 40
3.25
  0
CIRCLE
  5
B7
  8
PATTERN_FILL
  6
CONTINUOUS
 62
     7
 10
576.49999999999966
 20
-2822.0044849999999
 30
0.0
 40
3.25
  0
CIRCLE
  5
B8
  8
PATTERN_FILL
  6
CONTINUOUS
 62
     7
 10
592.49999999999977
 20
-2822.0044849999999
 30
0.0
 40
3.25
  0
CIRCLE
  5
B9
  8
PATTERN_FILL
  6
CONTINUOUS
 62
     7
 10
704.49999999999955
 20
-2808.0044849999999
 30
0.0
 40
3.25
  0
CIRCLE
  5
BA
  8
PATTERN_FILL
  6
CONTINUOUS
 62
     7
 10
720.49999999999955
 20
-2808.0044849999999
 30
0.0
 40
3.25
  0
CIRCLE
  5
BB
  8
PATTERN_FILL
  6
CONTINUOUS
 62
     7
 10
736.49999999999955
 20
-2808.0044849999999
 30
0.0
 40
3.25
  0
CIRCLE
  5
BC
  8
PATTERN_FILL
  6
CONTINUOUS
 62
     7
 10
752.49999999999955
 20
-2808.0044849999999
 30
0.0
 40
3.25
  0
CIRCLE
  5
BD
  8
PATTERN_FILL
  6
CONTINUOUS
 62
     7
 10
768.5
 20
-2808.0044849999999
 30
0.0
 40
3.25
  0
CIRCLE
  5
BE
  8
PATTERN_FILL
  6
CONTINUOUS
 62
     7
 10
784.49999999999989
 20
-2808.0044849999999
 30
0.0
 40
3.25
  0
CIRCLE
  5
BF
  8
PATTERN_FILL
  6
CONTINUOUS
 62
     7
 10
544.49999999999966
 20
-2808.0044849999999
 30
0.0
 40
3.25
  0
CIRCLE
  5
C0
  8
PATTERN_FILL
  6
CONTINUOUS
 62
     7
 10
528.49999999999966
 20
-2808.0044849999999
 30
0.0
 40
3.25
  0
CIRCLE
  5
C1
  8
PATTERN_FILL
  6
CONTINUOUS
 62
     7
 10
512.49999999999977
 20
-2808.0044849999999
 30
0.0
 40
3.25
  0
CIRCLE
  5
C2
  8
PATTERN_FILL
  6
CONTINUOUS
 62
     7
 10
496.49999999999977
 20
-2808.0044849999999
 30
0.0
 40
3.25
  0
CIRCLE
  5
C3
  8
PATTERN_FILL
  6
CONTINUOUS
 62
     7
 10
480.49999999999972
 20
-2808.0044849999999
 30
0.0
 40
3.25
  0
CIRCLE
  5
C4
  8
PATTERN_FILL
  6
CONTINUOUS
 62
     7
 10
464.49999999999972
 20
-2808.0044849999999
 30
0.0
 40
3.25
  0
CIRCLE
  5
C5
  8
PATTERN_FILL
  6
CONTINUOUS
 62
     7
 10
448.49999999999972
 20
-2808.0044849999999
 30
0.0
 40
3.25
  0
CIRCLE
  5
C6
  8
PATTERN_FILL
  6
CONTINUOUS
 62
     7
 10
432.49999999999972
 20
-2808.0044849999999
 30
0.0
 40
3.25
  0
CIRCLE
  5
C7
  8
PATTERN_FILL
  6
CONTINUOUS
 62
     7
 10
416.49999999999972
 20
-2808.0044849999999
 30
0.0
 40
3.25
  0
CIRCLE
  5
C8
  8
PATTERN_FILL
  6
CONTINUOUS
 62
     7
 10
400.49999999999977
 20
-2808.0044849999999
 30
0.0
 40
3.25
  0
CIRCLE
  5
C9
  8
PATTERN_FILL
  6
CONTINUOUS
 62
     7
 10
800.5
 20
-2808.0044849999999
 30
0.0
 40
3.25
  0
CIRCLE
  5
CA
  8
PATTERN_FILL
  6
CONTINUOUS
 62
     7
 10
816.5
 20
-2808.0044849999999
 30
0.0
 40
3.25
  0
CIRCLE
  5
CB
  8
PATTERN_FILL
  6
CONTINUOUS
 62
     7
 10
832.49999999999989
 20
-2808.0044849999999
 30
0.0
 40
3.25
  0
CIRCLE
  5
CC
  8
PATTERN_FILL
  6
CONTINUOUS
 62
     7
 10
848.49999999999989
 20
-2808.0044849999999
 30
0.0
 40
3.25
  0
CIRCLE
  5
CD
  8
PATTERN_FILL
  6
CONTINUOUS
 62
     7
 10
864.49999999999989
 20
-2808.0044849999999
 30
0.0
 40
3.25
  0
CIRCLE
  5
CE
  8
PATTERN_FILL
  6
CONTINUOUS
 62
     7
 10
880.49999999999989
 20
-2808.0044849999999
 30
0.0
 40
3.25
  0
CIRCLE
  5
CF
  8
PATTERN_FILL
  6
CONTINUOUS
 62
     7
 10
896.49999999999989
 20
-2808.0044849999999
 30
0.0
 40
3.25
  0
CIRCLE
  5
D0
  8
PATTERN_FILL
  6
CONTINUOUS
 62
     7
 10
560.49999999999966
 20
-2808.0044849999999
 30
0.0
 40
3.25
  0
CIRCLE
  5
D1
  8
PATTERN_FILL
  6
CONTINUOUS
 62
     7
 10
576.49999999999966
 20
-2808.0044849999999
 30
0.0
 40
3.25
  0
CIRCLE
  5
D2
  8
PATTERN_FILL
  6
CONTINUOUS
 62
     7
 10
592.49999999999977
 20
-2808.0044849999999
 30
0.0
 40
3.25
  0
CIRCLE
  5
D3
  8
PATTERN_FILL
  6
CONTINUOUS
 62
     7
 10
704.49999999999955
 20
-2794.0044849999999
 30
0.0
 40
3.25
  0
CIRCLE
  5
D4
  8
PATTERN_FILL
  6
CONTINUOUS
 62
     7
 10
720.49999999999955
 20
-2794.0044849999999
 30
0.0
 40
3.25
  0
CIRCLE
  5
D5
  8
PATTERN_FILL
  6
CONTINUOUS
 62
     7
 10
736.49999999999955
 20
-2794.0044849999999
 30
0.0
 40
3.25
  0
CIRCLE
  5
D6
  8
PATTERN_FILL
  6
CONTINUOUS
 62
     7
 10
752.49999999999955
 20
-2794.0044849999999
 30
0.0
 40
3.25
  0
CIRCLE
  5
D7
  8
PATTERN_FILL
  6
CONTINUOUS
 62
     7
 10
768.5
 20
-2794.0044849999999
 30
0.0
 40
3.25
  0
CIRCLE
  5
D8
  8
PATTERN_FILL
  6
CONTINUOUS
 62
     7
 10
784.49999999999989
 20
-2794.0044849999999
 30
0.0
 40
3.25
  0
CIRCLE
  5
D9
  8
PATTERN_FILL
  6
CONTINUOUS
 62
     7
 10
544.49999999999966
 20
-2794.0044849999999
 30
0.0
 40
3.25
  0
CIRCLE
  5
DA
  8
PATTERN_FILL
  6
CONTINUOUS
 62
     7
 10
528.49999999999966
 20
-2794.0044849999999
 30
0.0
 40
3.25
  0
CIRCLE
  5
DB
  8
PATTERN_FILL
  6
CONTINUOUS
 62
     7
 10
512.49999999999977
 20
-2794.0044849999999
 30
0.0
 40
3.25
  0
CIRCLE
  5
DC
  8
PATTERN_FILL
  6
CONTINUOUS
 62
     7
 10
496.49999999999977
 20
-2794.0044849999999
 30
0.0
 40
3.25
  0
CIRCLE
  5
DD
  8
PATTERN_FILL
  6
CONTINUOUS
 62
     7
 10
480.49999999999972
 20
-2794.0044849999999
 30
0.0
 40
3.25
  0
CIRCLE
  5
DE
  8
PATTERN_FILL
  6
CONTINUOUS
 62
     7
 10
464.49999999999972
 20
-2794.0044849999999
 30
0.0
 40
3.25
  0
CIRCLE
  5
DF
  8
PATTERN_FILL
  6
CONTINUOUS
 62
     7
 10
448.49999999999972
 20
-2794.0044849999999
 30
0.0
 40
3.25
  0
CIRCLE
  5
E0
  8
PATTERN_FILL
  6
CONTINUOUS
 62
     7
 10
432.49999999999972
 20
-2794.0044849999999
 30
0.0
 40
3.25
  0
CIRCLE
  5
E1
  8
PATTERN_FILL
  6
CONTINUOUS
 62
     7
 10
416.49999999999972
 20
-2794.0044849999999
 30
0.0
 40
3.25
  0
CIRCLE
  5
E2
  8
PATTERN_FILL
  6
CONTINUOUS
 62
     7
 10
400.49999999999977
 20
-2794.0044849999999
 30
0.0
 40
3.25
  0
CIRCLE
  5
E3
  8
PATTERN_FILL
  6
CONTINUOUS
 62
     7
 10
800.5
 20
-2794.0044849999999
 30
0.0
 40
3.25
  0
CIRCLE
  5
E4
  8
PATTERN_FILL
  6
CONTINUOUS
 62
     7
 10
816.5
 20
-2794.0044849999999
 30
0.0
 40
3.25
  0
CIRCLE
  5
E5
  8
PATTERN_FILL
  6
CONTINUOUS
 62
     7
 10
832.49999999999989
 20
-2794.0044849999999
 30
0.0
 40
3.25
  0
CIRCLE
  5
E6
  8
PATTERN_FILL
  6
CONTINUOUS
 62
     7
 10
848.49999999999989
 20
-2794.0044849999999
 30
0.0
 40
3.25
  0
CIRCLE
  5
E7
  8
PATTERN_FILL
  6
CONTINUOUS
 62
     7
 10
864.49999999999989
 20
-2794.0044849999999
 30
0.0
 40
3.25
  0
CIRCLE
  5
E8
  8
PATTERN_FILL
  6
CONTINUOUS
 62
     7
 10
880.49999999999989
 20
-2794.0044849999999
 30
0.0
 40
3.25
  0
CIRCLE
  5
E9
  8
PATTERN_FILL
  6
CONTINUOUS
 62
     7
 10
896.49999999999989
 20
-2794.0044849999999
 30
0.0
 40
3.25
  0
CIRCLE
  5
EA
  8
PATTERN_FILL
  6
CONTINUOUS
 62
     7
 10
560.49999999999966
 20
-2794.0044849999999
 30
0.0
 40
3.25
  0
CIRCLE
  5
EB
  8
PATTERN_FILL
  6
CONTINUOUS
 62
     7
 10
576.49999999999966
 20
-2794.0044849999999
 30
0.0
 40
3.25
  0
CIRCLE
  5
EC
  8
PATTERN_FILL
  6
CONTINUOUS
 62
     7
 10
592.49999999999977
 20
-2794.0044849999999
 30
0.0
 40
3.25
  0
CIRCLE
  5
ED
  8
PATTERN_FILL
  6
CONTINUOUS
 62
     7
 10
608.49999999999977
 20
-2794.0044849999999
 30
0.0
 40
3.25
  0
CIRCLE
  5
EE
  8
PATTERN_FILL
  6
CONTINUOUS
 62
     7
 10
624.49999999999966
 20
-2794.0044849999999
 30
0.0
 40
3.25
  0
CIRCLE
  5
EF
  8
PATTERN_FILL
  6
CONTINUOUS
 62
     7
 10
640.49999999999966
 20
-2794.0044849999999
 30
0.0
 40
3.25
  0
CIRCLE
  5
F0
  8
PATTERN_FILL
  6
CONTINUOUS
 62
     7
 10
656.49999999999966
 20
-2794.0044849999999
 30
0.0
 40
3.25
  0
CIRCLE
  5
F1
  8
PATTERN_FILL
  6
CONTINUOUS
 62
     7
 10
672.49999999999966
 20
-2794.0044849999999
 30
0.0
 40
3.25
  0
CIRCLE
  5
F2
  8
PATTERN_FILL
  6
CONTINUOUS
 62
     7
 10
688.49999999999966
 20
-2794.0044849999999
 30
0.0
 40
3.25
  0
CIRCLE
  5
F3
  8
PATTERN_FILL
  6
CONTINUOUS
 62
     7
 10
704.49999999999955
 20
-2780.0044849999999
 30
0.0
 40
3.25
  0
CIRCLE
  5
F4
  8
PATTERN_FILL
  6
CONTINUOUS
 62
     7
 10
720.49999999999955
 20
-2780.0044849999999
 30
0.0
 40
3.25
  0
CIRCLE
  5
F5
  8
PATTERN_FILL
  6
CONTINUOUS
 62
     7
 10
736.49999999999955
 20
-2780.0044849999999
 30
0.0
 40
3.25
  0
CIRCLE
  5
F6
  8
PATTERN_FILL
  6
CONTINUOUS
 62
     7
 10
752.49999999999955
 20
-2780.0044849999999
 30
0.0
 40
3.25
  0
CIRCLE
  5
F7
  8
PATTERN_FILL
  6
CONTINUOUS
 62
     7
 10
768.5
 20
-2780.0044849999999
 30
0.0
 40
3.25
  0
CIRCLE
  5
F8
  8
PATTERN_FILL
  6
CONTINUOUS
 62
     7
 10
784.49999999999989
 20
-2780.0044849999999
 30
0.0
 40
3.25
  0
CIRCLE
  5
F9
  8
PATTERN_FILL
  6
CONTINUOUS
 62
     7
 10
544.49999999999966
 20
-2780.0044849999999
 30
0.0
 40
3.25
  0
CIRCLE
  5
FA
  8
PATTERN_FILL
  6
CONTINUOUS
 62
     7
 10
528.49999999999966
 20
-2780.0044849999999
 30
0.0
 40
3.25
  0
CIRCLE
  5
FB
  8
PATTERN_FILL
  6
CONTINUOUS
 62
     7
 10
512.49999999999977
 20
-2780.0044849999999
 30
0.0
 40
3.25
  0
CIRCLE
  5
FC
  8
PATTERN_FILL
  6
CONTINUOUS
 62
     7
 10
496.49999999999977
 20
-2780.0044849999999
 30
0.0
 40
3.25
  0
CIRCLE
  5
FD
  8
PATTERN_FILL
  6
CONTINUOUS
 62
     7
 10
480.49999999999972
 20
-2780.0044849999999
 30
0.0
 40
3.25
  0
CIRCLE
  5
FE
  8
PATTERN_FILL
  6
CONTINUOUS
 62
     7
 10
464.49999999999972
 20
-2780.0044849999999
 30
0.0
 40
3.25
  0
CIRCLE
  5
FF
  8
PATTERN_FILL
  6
CONTINUOUS
 62
     7
 10
448.49999999999972
 20
-2780.0044849999999
 30
0.0
 40
3.25
  0
CIRCLE
  5
100
  8
PATTERN_FILL
  6
CONTINUOUS
 62
     7
 10
432.49999999999972
 20
-2780.0044849999999
 30
0.0
 40
3.25
  0
CIRCLE
  5
101
  8
PATTERN_FILL
  6
CONTINUOUS
 62
     7
 10
416.49999999999972
 20
-2780.0044849999999
 30
0.0
 40
3.25
  0
CIRCLE
  5
102
  8
PATTERN_FILL
  6
CONTINUOUS
 62
     7
 10
400.49999999999977
 20
-2780.0044849999999
 30
0.0
 40
3.25
  0
CIRCLE
  5
103
  8
PATTERN_FILL
  6
CONTINUOUS
 62
     7
 10
800.5
 20
-2780.0044849999999
 30
0.0
 40
3.25
  0
CIRCLE
  5
104
  8
PATTERN_FILL
  6
CONTINUOUS
 62
     7
 10
816.5
 20
-2780.0044849999999
 30
0.0
 40
3.25
  0
CIRCLE
  5
105
  8
PATTERN_FILL
  6
CONTINUOUS
 62
     7
 10
832.49999999999989
 20
-2780.0044849999999
 30
0.0
 40
3.25
  0
CIRCLE
  5
106
  8
PATTERN_FILL
  6
CONTINUOUS
 62
     7
 10
848.49999999999989
 20
-2780.0044849999999
 30
0.0
 40
3.25
  0
CIRCLE
  5
107
  8
PATTERN_FILL
  6
CONTINUOUS
 62
     7
 10
864.49999999999989
 20
-2780.0044849999999
 30
0.0
 40
3.25
  0
CIRCLE
  5
108
  8
PATTERN_FILL
  6
CONTINUOUS
 62
     7
 10
880.49999999999989
 20
-2780.0044849999999
 30
0.0
 40
3.25
  0
CIRCLE
  5
109
  8
PATTERN_FILL
  6
CONTINUOUS
 62
     7
 10
896.49999999999989
 20
-2780.0044849999999
 30
0.0
 40
3.25
  0
CIRCLE
  5
10A
  8
PATTERN_FILL
  6
CONTINUOUS
 62
     7
 10
560.49999999999966
 20
-2780.0044849999999
 30
0.0
 40
3.25
  0
CIRCLE
  5
10B
  8
PATTERN_FILL
  6
CONTINUOUS
 62
     7
 10
576.49999999999966
 20
-2780.0044849999999
 30
0.0
 40
3.25
  0
CIRCLE
  5
10C
  8
PATTERN_FILL
  6
CONTINUOUS
 62
     7
 10
592.49999999999977
 20
-2780.0044849999999
 30
0.0
 40
3.25
  0
CIRCLE
  5
10D
  8
PATTERN_FILL
  6
CONTINUOUS
 62
     7
 10
608.49999999999977
 20
-2780.0044849999999
 30
0.0
 40
3.25
  0
CIRCLE
  5
10E
  8
PATTERN_FILL
  6
CONTINUOUS
 62
     7
 10
624.49999999999966
 20
-2780.0044849999999
 30
0.0
 40
3.25
  0
CIRCLE
  5
10F
  8
PATTERN_FILL
  6
CONTINUOUS
 62
     7
 10
640.49999999999966
 20
-2780.0044849999999
 30
0.0
 40
3.25
  0
CIRCLE
  5
110
  8
PATTERN_FILL
  6
CONTINUOUS
 62
     7
 10
656.49999999999966
 20
-2780.0044849999999
 30
0.0
 40
3.25
  0
CIRCLE
  5
111
  8
PATTERN_FILL
  6
CONTINUOUS
 62
     7
 10
672.49999999999966
 20
-2780.0044849999999
 30
0.0
 40
3.25
  0
CIRCLE
  5
112
  8
PATTERN_FILL
  6
CONTINUOUS
 62
     7
 10
688.49999999999966
 20
-2780.0044849999999
 30
0.0
 40
3.25
  0
CIRCLE
  5
113
  8
PATTERN_FILL
  6
CONTINUOUS
 62
     7
 10
704.49999999999955
 20
-2766.0044849999999
 30
0.0
 40
3.25
  0
CIRCLE
  5
114
  8
PATTERN_FILL
  6
CONTINUOUS
 62
     7
 10
720.49999999999955
 20
-2766.0044849999999
 30
0.0
 40
3.25
  0
CIRCLE
  5
115
  8
PATTERN_FILL
  6
CONTINUOUS
 62
     7
 10
736.49999999999955
 20
-2766.0044849999999
 30
0.0
 40
3.25
  0
CIRCLE
  5
116
  8
PATTERN_FILL
  6
CONTINUOUS
 62
     7
 10
752.49999999999955
 20
-2766.0044849999999
 30
0.0
 40
3.25
  0
CIRCLE
  5
117
  8
PATTERN_FILL
  6
CONTINUOUS
 62
     7
 10
768.5
 20
-2766.0044849999999
 30
0.0
 40
3.25
  0
CIRCLE
  5
118
  8
PATTERN_FILL
  6
CONTINUOUS
 62
     7
 10
784.49999999999989
 20
-2766.0044849999999
 30
0.0
 40
3.25
  0
CIRCLE
  5
119
  8
PATTERN_FILL
  6
CONTINUOUS
 62
     7
 10
544.49999999999966
 20
-2766.0044849999999
 30
0.0
 40
3.25
  0
CIRCLE
  5
11A
  8
PATTERN_FILL
  6
CONTINUOUS
 62
     7
 10
528.49999999999966
 20
-2766.0044849999999
 30
0.0
 40
3.25
  0
CIRCLE
  5
11B
  8
PATTERN_FILL
  6
CONTINUOUS
 62
     7
 10
512.49999999999977
 20
-2766.0044849999999
 30
0.0
 40
3.25
  0
CIRCLE
  5
11C
  8
PATTERN_FILL
  6
CONTINUOUS
 62
     7
 10
496.49999999999977
 20
-2766.0044849999999
 30
0.0
 40
3.25
  0
CIRCLE
  5
11D
  8
PATTERN_FILL
  6
CONTINUOUS
 62
     7
 10
480.49999999999972
 20
-2766.0044849999999
 30
0.0
 40
3.25
  0
CIRCLE
  5
11E
  8
PATTERN_FILL
  6
CONTINUOUS
 62
     7
 10
464.49999999999972
 20
-2766.0044849999999
 30
0.0
 40
3.25
  0
CIRCLE
  5
11F
  8
PATTERN_FILL
  6
CONTINUOUS
 62
     7
 10
448.49999999999972
 20
-2766.0044849999999
 30
0.0
 40
3.25
  0
CIRCLE
  5
120
  8
PATTERN_FILL
  6
CONTINUOUS
 62
     7
 10
432.49999999999972
 20
-2766.0044849999999
 30
0.0
 40
3.25
  0
CIRCLE
  5
121
  8
PATTERN_FILL
  6
CONTINUOUS
 62
     7
 10
416.49999999999972
 20
-2766.0044849999999
 30
0.0
 40
3.25
  0
CIRCLE
  5
122
  8
PATTERN_FILL
  6
CONTINUOUS
 62
     7
 10
400.49999999999977
 20
-2766.0044849999999
 30
0.0
 40
3.25
  0
CIRCLE
  5
123
  8
PATTERN_FILL
  6
CONTINUOUS
 62
     7
 10
800.5
 20
-2766.0044849999999
 30
0.0
 40
3.25
  0
CIRCLE
  5
124
  8
PATTERN_FILL
  6
CONTINUOUS
 62
     7
 10
816.5
 20
-2766.0044849999999
 30
0.0
 40
3.25
  0
CIRCLE
  5
125
  8
PATTERN_FILL
  6
CONTINUOUS
 62
     7
 10
832.49999999999989
 20
-2766.0044849999999
 30
0.0
 40
3.25
  0
CIRCLE
  5
126
  8
PATTERN_FILL
  6
CONTINUOUS
 62
     7
 10
848.49999999999989
 20
-2766.0044849999999
 30
0.0
 40
3.25
  0
CIRCLE
  5
127
  8
PATTERN_FILL
  6
CONTINUOUS
 62
     7
 10
864.49999999999989
 20
-2766.0044849999999
 30
0.0
 40
3.25
  0
CIRCLE
  5
128
  8
PATTERN_FILL
  6
CONTINUOUS
 62
     7
 10
880.49999999999989
 20
-2766.0044849999999
 30
0.0
 40
3.25
  0
CIRCLE
  5
129
  8
PATTERN_FILL
  6
CONTINUOUS
 62
     7
 10
896.49999999999989
 20
-2766.0044849999999
 30
0.0
 40
3.25
  0
CIRCLE
  5
12A
  8
PATTERN_FILL
  6
CONTINUOUS
 62
     7
 10
560.49999999999966
 20
-2766.0044849999999
 30
0.0
 40
3.25
  0
CIRCLE
  5
12B
  8
PATTERN_FILL
  6
CONTINUOUS
 62
     7
 10
576.49999999999966
 20
-2766.0044849999999
 30
0.0
 40
3.25
  0
CIRCLE
  5
12C
  8
PATTERN_FILL
  6
CONTINUOUS
 62
     7
 10
592.49999999999977
 20
-2766.0044849999999
 30
0.0
 40
3.25
  0
CIRCLE
  5
12D
  8
PATTERN_FILL
  6
CONTINUOUS
 62
     7
 10
608.49999999999977
 20
-2766.0044849999999
 30
0.0
 40
3.25
  0
CIRCLE
  5
12E
  8
PATTERN_FILL
  6
CONTINUOUS
 62
     7
 10
624.49999999999966
 20
-2766.0044849999999
 30
0.0
 40
3.25
  0
CIRCLE
  5
12F
  8
PATTERN_FILL
  6
CONTINUOUS
 62
     7
 10
640.49999999999966
 20
-2766.0044849999999
 30
0.0
 40
3.25
  0
CIRCLE
  5
130
  8
PATTERN_FILL
  6
CONTINUOUS
 62
     7
 10
656.49999999999966
 20
-2766.0044849999999
 30
0.0
 40
3.25
  0
CIRCLE
  5
131
  8
PATTERN_FILL
  6
CONTINUOUS
 62
     7
 10
672.49999999999966
 20
-2766.0044849999999
 30
0.0
 40
3.25
  0
CIRCLE
  5
132
  8
PATTERN_FILL
  6
CONTINUOUS
 62
     7
 10
688.49999999999966
 20
-2766.0044849999999
 30
0.0
 40
3.25
  0
CIRCLE
  5
133
  8
PATTERN_FILL
  6
CONTINUOUS
 62
     7
 10
704.49999999999955
 20
-2752.0044849999999
 30
0.0
 40
3.25
  0
CIRCLE
  5
134
  8
PATTERN_FILL
  6
CONTINUOUS
 62
     7
 10
720.49999999999955
 20
-2752.0044849999999
 30
0.0
 40
3.25
  0
CIRCLE
  5
135
  8
PATTERN_FILL
  6
CONTINUOUS
 62
     7
 10
736.49999999999955
 20
-2752.0044849999999
 30
0.0
 40
3.25
  0
CIRCLE
  5
136
  8
PATTERN_FILL
  6
CONTINUOUS
 62
     7
 10
752.49999999999955
 20
-2752.0044849999999
 30
0.0
 40
3.25
  0
CIRCLE
  5
137
  8
PATTERN_FILL
  6
CONTINUOUS
 62
     7
 10
768.5
 20
-2752.0044849999999
 30
0.0
 40
3.25
  0
CIRCLE
  5
138
  8
PATTERN_FILL
  6
CONTINUOUS
 62
     7
 10
784.49999999999989
 20
-2752.0044849999999
 30
0.0
 40
3.25
  0
CIRCLE
  5
139
  8
PATTERN_FILL
  6
CONTINUOUS
 62
     7
 10
544.49999999999966
 20
-2752.0044849999999
 30
0.0
 40
3.25
  0
CIRCLE
  5
13A
  8
PATTERN_FILL
  6
CONTINUOUS
 62
     7
 10
528.49999999999966
 20
-2752.0044849999999
 30
0.0
 40
3.25
  0
CIRCLE
  5
13B
  8
PATTERN_FILL
  6
CONTINUOUS
 62
     7
 10
512.49999999999977
 20
-2752.0044849999999
 30
0.0
 40
3.25
  0
CIRCLE
  5
13C
  8
PATTERN_FILL
  6
CONTINUOUS
 62
     7
 10
496.49999999999977
 20
-2752.0044849999999
 30
0.0
 40
3.25
  0
CIRCLE
  5
13D
  8
PATTERN_FILL
  6
CONTINUOUS
 62
     7
 10
480.49999999999972
 20
-2752.0044849999999
 30
0.0
 40
3.25
  0
CIRCLE
  5
13E
  8
PATTERN_FILL
  6
CONTINUOUS
 62
     7
 10
464.49999999999972
 20
-2752.0044849999999
 30
0.0
 40
3.25
  0
CIRCLE
  5
13F
  8
PATTERN_FILL
  6
CONTINUOUS
 62
     7
 10
448.49999999999972
 20
-2752.0044849999999
 30
0.0
 40
3.25
  0
CIRCLE
  5
140
  8
PATTERN_FILL
  6
CONTINUOUS
 62
     7
 10
432.49999999999972
 20
-2752.0044849999999
 30
0.0
 40
3.25
  0
CIRCLE
  5
141
  8
PATTERN_FILL
  6
CONTINUOUS
 62
     7
 10
416.49999999999972
 20
-2752.0044849999999
 30
0.0
 40
3.25
  0
CIRCLE
  5
142
  8
PATTERN_FILL
  6
CONTINUOUS
 62
     7
 10
400.49999999999977
 20
-2752.0044849999999
 30
0.0
 40
3.25
  0
CIRCLE
  5
143
  8
PATTERN_FILL
  6
CONTINUOUS
 62
     7
 10
800.5
 20
-2752.0044849999999
 30
0.0
 40
3.25
  0
CIRCLE
  5
144
  8
PATTERN_FILL
  6
CONTINUOUS
 62
     7
 10
816.5
 20
-2752.0044849999999
 30
0.0
 40
3.25
  0
CIRCLE
  5
145
  8
PATTERN_FILL
  6
CONTINUOUS
 62
     7
 10
832.49999999999989
 20
-2752.0044849999999
 30
0.0
 40
3.25
  0
CIRCLE
  5
146
  8
PATTERN_FILL
  6
CONTINUOUS
 62
     7
 10
848.49999999999989
 20
-2752.0044849999999
 30
0.0
 40
3.25
  0
CIRCLE
  5
147
  8
PATTERN_FILL
  6
CONTINUOUS
 62
     7
 10
864.49999999999989
 20
-2752.0044849999999
 30
0.0
 40
3.25
  0
CIRCLE
  5
148
  8
PATTERN_FILL
  6
CONTINUOUS
 62
     7
 10
880.49999999999989
 20
-2752.0044849999999
 30
0.0
 40
3.25
  0
CIRCLE
  5
149
  8
PATTERN_FILL
  6
CONTINUOUS
 62
     7
 10
896.49999999999989
 20
-2752.0044849999999
 30
0.0
 40
3.25
  0
CIRCLE
  5
14A
  8
PATTERN_FILL
  6
CONTINUOUS
 62
     7
 10
560.49999999999966
 20
-2752.0044849999999
 30
0.0
 40
3.25
  0
CIRCLE
  5
14B
  8
PATTERN_FILL
  6
CONTINUOUS
 62
     7
 10
576.49999999999966
 20
-2752.0044849999999
 30
0.0
 40
3.25
  0
CIRCLE
  5
14C
  8
PATTERN_FILL
  6
CONTINUOUS
 62
     7
 10
592.49999999999977
 20
-2752.0044849999999
 30
0.0
 40
3.25
  0
CIRCLE
  5
14D
  8
PATTERN_FILL
  6
CONTINUOUS
 62
     7
 10
608.49999999999977
 20
-2752.0044849999999
 30
0.0
 40
3.25
  0
CIRCLE
  5
14E
  8
PATTERN_FILL
  6
CONTINUOUS
 62
     7
 10
624.49999999999966
 20
-2752.0044849999999
 30
0.0
 40
3.25
  0
CIRCLE
  5
14F
  8
PATTERN_FILL
  6
CONTINUOUS
 62
     7
 10
640.49999999999966
 20
-2752.0044849999999
 30
0.0
 40
3.25
  0
CIRCLE
  5
150
  8
PATTERN_FILL
  6
CONTINUOUS
 62
     7
 10
656.49999999999966
 20
-2752.0044849999999
 30
0.0
 40
3.25
  0
CIRCLE
  5
151
  8
PATTERN_FILL
  6
CONTINUOUS
 62
     7
 10
672.49999999999966
 20
-2752.0044849999999
 30
0.0
 40
3.25
  0
CIRCLE
  5
152
  8
PATTERN_FILL
  6
CONTINUOUS
 62
     7
 10
688.49999999999966
 20
-2752.0044849999999
 30
0.0
 40
3.25
  0
CIRCLE
  5
153
  8
PATTERN_FILL
  6
CONTINUOUS
 62
     7
 10
704.49999999999955
 20
-2738.0044849999999
 30
0.0
 40
3.25
  0
CIRCLE
  5
154
  8
PATTERN_FILL
  6
CONTINUOUS
 62
     7
 10
720.49999999999955
 20
-2738.0044849999999
 30
0.0
 40
3.25
  0
CIRCLE
  5
155
  8
PATTERN_FILL
  6
CONTINUOUS
 62
     7
 10
736.49999999999955
 20
-2738.0044849999999
 30
0.0
 40
3.25
  0
CIRCLE
  5
156
  8
PATTERN_FILL
  6
CONTINUOUS
 62
     7
 10
752.49999999999955
 20
-2738.0044849999999
 30
0.0
 40
3.25
  0
CIRCLE
  5
157
  8
PATTERN_FILL
  6
CONTINUOUS
 62
     7
 10
768.5
 20
-2738.0044849999999
 30
0.0
 40
3.25
  0
CIRCLE
  5
158
  8
PATTERN_FILL
  6
CONTINUOUS
 62
     7
 10
784.49999999999989
 20
-2738.0044849999999
 30
0.0
 40
3.25
  0
CIRCLE
  5
159
  8
PATTERN_FILL
  6
CONTINUOUS
 62
     7
 10
544.49999999999966
 20
-2738.0044849999999
 30
0.0
 40
3.25
  0
CIRCLE
  5
15A
  8
PATTERN_FILL
  6
CONTINUOUS
 62
     7
 10
528.49999999999966
 20
-2738.0044849999999
 30
0.0
 40
3.25
  0
CIRCLE
  5
15B
  8
PATTERN_FILL
  6
CONTINUOUS
 62
     7
 10
512.49999999999977
 20
-2738.0044849999999
 30
0.0
 40
3.25
  0
CIRCLE
  5
15C
  8
PATTERN_FILL
  6
CONTINUOUS
 62
     7
 10
496.49999999999977
 20
-2738.0044849999999
 30
0.0
 40
3.25
  0
CIRCLE
  5
15D
  8
PATTERN_FILL
  6
CONTINUOUS
 62
     7
 10
480.49999999999972
 20
-2738.0044849999999
 30
0.0
 40
3.25
  0
CIRCLE
  5
15E
  8
PATTERN_FILL
  6
CONTINUOUS
 62
     7
 10
464.49999999999972
 20
-2738.0044849999999
 30
0.0
 40
3.25
  0
CIRCLE
  5
15F
  8
PATTERN_FILL
  6
CONTINUOUS
 62
     7
 10
448.49999999999972
 20
-2738.0044849999999
 30
0.0
 40
3.25
  0
CIRCLE
  5
160
  8
PATTERN_FILL
  6
CONTINUOUS
 62
     7
 10
432.49999999999972
 20
-2738.0044849999999
 30
0.0
 40
3.25
  0
CIRCLE
  5
161
  8
PATTERN_FILL
  6
CONTINUOUS
 62
     7
 10
416.49999999999972
 20
-2738.0044849999999
 30
0.0
 40
3.25
  0
CIRCLE
  5
162
  8
PATTERN_FILL
  6
CONTINUOUS
 62
     7
 10
400.49999999999977
 20
-2738.0044849999999
 30
0.0
 40
3.25
  0
CIRCLE
  5
163
  8
PATTERN_FILL
  6
CONTINUOUS
 62
     7
 10
800.5
 20
-2738.0044849999999
 30
0.0
 40
3.25
  0
CIRCLE
  5
164
  8
PATTERN_FILL
  6
CONTINUOUS
 62
     7
 10
816.5
 20
-2738.0044849999999
 30
0.0
 40
3.25
  0
CIRCLE
  5
165
  8
PATTERN_FILL
  6
CONTINUOUS
 62
     7
 10
832.49999999999989
 20
-2738.0044849999999
 30
0.0
 40
3.25
  0
CIRCLE
  5
166
  8
PATTERN_FILL
  6
CONTINUOUS
 62
     7
 10
848.49999999999989
 20
-2738.0044849999999
 30
0.0
 40
3.25
  0
CIRCLE
  5
167
  8
PATTERN_FILL
  6
CONTINUOUS
 62
     7
 10
864.49999999999989
 20
-2738.0044849999999
 30
0.0
 40
3.25
  0
CIRCLE
  5
168
  8
PATTERN_FILL
  6
CONTINUOUS
 62
     7
 10
880.49999999999989
 20
-2738.0044849999999
 30
0.0
 40
3.25
  0
CIRCLE
  5
169
  8
PATTERN_FILL
  6
CONTINUOUS
 62
     7
 10
896.49999999999989
 20
-2738.0044849999999
 30
0.0
 40
3.25
  0
CIRCLE
  5
16A
  8
PATTERN_FILL
  6
CONTINUOUS
 62
     7
 10
560.49999999999966
 20
-2738.0044849999999
 30
0.0
 40
3.25
  0
CIRCLE
  5
16B
  8
PATTERN_FILL
  6
CONTINUOUS
 62
     7
 10
576.49999999999966
 20
-2738.0044849999999
 30
0.0
 40
3.25
  0
CIRCLE
  5
16C
  8
PATTERN_FILL
  6
CONTINUOUS
 62
     7
 10
592.49999999999977
 20
-2738.0044849999999
 30
0.0
 40
3.25
  0
CIRCLE
  5
16D
  8
PATTERN_FILL
  6
CONTINUOUS
 62
     7
 10
608.49999999999977
 20
-2738.0044849999999
 30
0.0
 40
3.25
  0
CIRCLE
  5
16E
  8
PATTERN_FILL
  6
CONTINUOUS
 62
     7
 10
624.49999999999966
 20
-2738.0044849999999
 30
0.0
 40
3.25
  0
CIRCLE
  5
16F
  8
PATTERN_FILL
  6
CONTINUOUS
 62
     7
 10
640.49999999999966
 20
-2738.0044849999999
 30
0.0
 40
3.25
  0
CIRCLE
  5
170
  8
PATTERN_FILL
  6
CONTINUOUS
 62
     7
 10
656.49999999999966
 20
-2738.0044849999999
 30
0.0
 40
3.25
  0
CIRCLE
  5
171
  8
PATTERN_FILL
  6
CONTINUOUS
 62
     7
 10
672.49999999999966
 20
-2738.0044849999999
 30
0.0
 40
3.25
  0
CIRCLE
  5
172
  8
PATTERN_FILL
  6
CONTINUOUS
 62
     7
 10
688.49999999999966
 20
-2738.0044849999999
 30
0.0
 40
3.25
  0
CIRCLE
  5
173
  8
PATTERN_FILL
  6
CONTINUOUS
 62
     7
 10
704.49999999999955
 20
-2724.0044849999999
 30
0.0
 40
3.25
  0
CIRCLE
  5
174
  8
PATTERN_FILL
  6
CONTINUOUS
 62
     7
 10
720.49999999999955
 20
-2724.0044849999999
 30
0.0
 40
3.25
  0
CIRCLE
  5
175
  8
PATTERN_FILL
  6
CONTINUOUS
 62
     7
 10
736.49999999999955
 20
-2724.0044849999999
 30
0.0
 40
3.25
  0
CIRCLE
  5
176
  8
PATTERN_FILL
  6
CONTINUOUS
 62
     7
 10
752.49999999999955
 20
-2724.0044849999999
 30
0.0
 40
3.25
  0
CIRCLE
  5
177
  8
PATTERN_FILL
  6
CONTINUOUS
 62
     7
 10
768.5
 20
-2724.0044849999999
 30
0.0
 40
3.25
  0
CIRCLE
  5
178
  8
PATTERN_FILL
  6
CONTINUOUS
 62
     7
 10
784.49999999999989
 20
-2724.0044849999999
 30
0.0
 40
3.25
  0
CIRCLE
  5
179
  8
PATTERN_FILL
  6
CONTINUOUS
 62
     7
 10
544.49999999999966
 20
-2724.0044849999999
 30
0.0
 40
3.25
  0
CIRCLE
  5
17A
  8
PATTERN_FILL
  6
CONTINUOUS
 62
     7
 10
528.49999999999966
 20
-2724.0044849999999
 30
0.0
 40
3.25
  0
CIRCLE
  5
17B
  8
PATTERN_FILL
  6
CONTINUOUS
 62
     7
 10
512.49999999999977
 20
-2724.0044849999999
 30
0.0
 40
3.25
  0
CIRCLE
  5
17C
  8
PATTERN_FILL
  6
CONTINUOUS
 62
     7
 10
496.49999999999977
 20
-2724.0044849999999
 30
0.0
 40
3.25
  0
CIRCLE
  5
17D
  8
PATTERN_FILL
  6
CONTINUOUS
 62
     7
 10
480.49999999999972
 20
-2724.0044849999999
 30
0.0
 40
3.25
  0
CIRCLE
  5
17E
  8
PATTERN_FILL
  6
CONTINUOUS
 62
     7
 10
464.49999999999972
 20
-2724.0044849999999
 30
0.0
 40
3.25
  0
CIRCLE
  5
17F
  8
PATTERN_FILL
  6
CONTINUOUS
 62
     7
 10
448.49999999999972
 20
-2724.0044849999999
 30
0.0
 40
3.25
  0
CIRCLE
  5
180
  8
PATTERN_FILL
  6
CONTINUOUS
 62
     7
 10
432.49999999999972
 20
-2724.0044849999999
 30
0.0
 40
3.25
  0
CIRCLE
  5
181
  8
PATTERN_FILL
  6
CONTINUOUS
 62
     7
 10
416.49999999999972
 20
-2724.0044849999999
 30
0.0
 40
3.25
  0
CIRCLE
  5
182
  8
PATTERN_FILL
  6
CONTINUOUS
 62
     7
 10
400.49999999999977
 20
-2724.0044849999999
 30
0.0
 40
3.25
  0
CIRCLE
  5
183
  8
PATTERN_FILL
  6
CONTINUOUS
 62
     7
 10
800.5
 20
-2724.0044849999999
 30
0.0
 40
3.25
  0
CIRCLE
  5
184
  8
PATTERN_FILL
  6
CONTINUOUS
 62
     7
 10
816.5
 20
-2724.0044849999999
 30
0.0
 40
3.25
  0
CIRCLE
  5
185
  8
PATTERN_FILL
  6
CONTINUOUS
 62
     7
 10
832.49999999999989
 20
-2724.0044849999999
 30
0.0
 40
3.25
  0
CIRCLE
  5
186
  8
PATTERN_FILL
  6
CONTINUOUS
 62
     7
 10
848.49999999999989
 20
-2724.0044849999999
 30
0.0
 40
3.25
  0
CIRCLE
  5
187
  8
PATTERN_FILL
  6
CONTINUOUS
 62
     7
 10
864.49999999999989
 20
-2724.0044849999999
 30
0.0
 40
3.25
  0
CIRCLE
  5
188
  8
PATTERN_FILL
  6
CONTINUOUS
 62
     7
 10
880.49999999999989
 20
-2724.0044849999999
 30
0.0
 40
3.25
  0
CIRCLE
  5
189
  8
PATTERN_FILL
  6
CONTINUOUS
 62
     7
 10
896.49999999999989
 20
-2724.0044849999999
 30
0.0
 40
3.25
  0
CIRCLE
  5
18A
  8
PATTERN_FILL
  6
CONTINUOUS
 62
     7
 10
560.49999999999966
 20
-2724.0044849999999
 30
0.0
 40
3.25
  0
CIRCLE
  5
18B
  8
PATTERN_FILL
  6
CONTINUOUS
 62
     7
 10
576.49999999999966
 20
-2724.0044849999999
 30
0.0
 40
3.25
  0
CIRCLE
  5
18C
  8
PATTERN_FILL
  6
CONTINUOUS
 62
     7
 10
592.49999999999977
 20
-2724.0044849999999
 30
0.0
 40
3.25
  0
CIRCLE
  5
18D
  8
PATTERN_FILL
  6
CONTINUOUS
 62
     7
 10
608.49999999999977
 20
-2724.0044849999999
 30
0.0
 40
3.25
  0
CIRCLE
  5
18E
  8
PATTERN_FILL
  6
CONTINUOUS
 62
     7
 10
624.49999999999966
 20
-2724.0044849999999
 30
0.0
 40
3.25
  0
CIRCLE
  5
18F
  8
PATTERN_FILL
  6
CONTINUOUS
 62
     7
 10
640.49999999999966
 20
-2724.0044849999999
 30
0.0
 40
3.25
  0
CIRCLE
  5
190
  8
PATTERN_FILL
  6
CONTINUOUS
 62
     7
 10
656.49999999999966
 20
-2724.0044849999999
 30
0.0
 40
3.25
  0
CIRCLE
  5
191
  8
PATTERN_FILL
  6
CONTINUOUS
 62
     7
 10
672.49999999999966
 20
-2724.0044849999999
 30
0.0
 40
3.25
  0
CIRCLE
  5
192
  8
PATTERN_FILL
  6
CONTINUOUS
 62
     7
 10
688.49999999999966
 20
-2724.0044849999999
 30
0.0
 40
3.25
  0
CIRCLE
  5
193
  8
PATTERN_FILL
  6
CONTINUOUS
 62
     7
 10
704.49999999999955
 20
-2710.0044849999999
 30
0.0
 40
3.25
  0
CIRCLE
  5
194
  8
PATTERN_FILL
  6
CONTINUOUS
 62
     7
 10
720.49999999999955
 20
-2710.0044849999999
 30
0.0
 40
3.25
  0
CIRCLE
  5
195
  8
PATTERN_FILL
  6
CONTINUOUS
 62
     7
 10
736.49999999999955
 20
-2710.0044849999999
 30
0.0
 40
3.25
  0
CIRCLE
  5
196
  8
PATTERN_FILL
  6
CONTINUOUS
 62
     7
 10
752.49999999999955
 20
-2710.0044849999999
 30
0.0
 40
3.25
  0
CIRCLE
  5
197
  8
PATTERN_FILL
  6
CONTINUOUS
 62
     7
 10
768.5
 20
-2710.0044849999999
 30
0.0
 40
3.25
  0
CIRCLE
  5
198
  8
PATTERN_FILL
  6
CONTINUOUS
 62
     7
 10
784.49999999999989
 20
-2710.0044849999999
 30
0.0
 40
3.25
  0
CIRCLE
  5
199
  8
PATTERN_FILL
  6
CONTINUOUS
 62
     7
 10
544.49999999999966
 20
-2710.0044849999999
 30
0.0
 40
3.25
  0
CIRCLE
  5
19A
  8
PATTERN_FILL
  6
CONTINUOUS
 62
     7
 10
528.49999999999966
 20
-2710.0044849999999
 30
0.0
 40
3.25
  0
CIRCLE
  5
19B
  8
PATTERN_FILL
  6
CONTINUOUS
 62
     7
 10
512.49999999999977
 20
-2710.0044849999999
 30
0.0
 40
3.25
  0
CIRCLE
  5
19C
  8
PATTERN_FILL
  6
CONTINUOUS
 62
     7
 10
496.49999999999977
 20
-2710.0044849999999
 30
0.0
 40
3.25
  0
CIRCLE
  5
19D
  8
PATTERN_FILL
  6
CONTINUOUS
 62
     7
 10
480.49999999999972
 20
-2710.0044849999999
 30
0.0
 40
3.25
  0
CIRCLE
  5
19E
  8
PATTERN_FILL
  6
CONTINUOUS
 62
     7
 10
464.49999999999972
 20
-2710.0044849999999
 30
0.0
 40
3.25
  0
CIRCLE
  5
19F
  8
PATTERN_FILL
  6
CONTINUOUS
 62
     7
 10
448.49999999999972
 20
-2710.0044849999999
 30
0.0
 40
3.25
  0
CIRCLE
  5
1A0
  8
PATTERN_FILL
  6
CONTINUOUS
 62
     7
 10
432.49999999999972
 20
-2710.0044849999999
 30
0.0
 40
3.25
  0
CIRCLE
  5
1A1
  8
PATTERN_FILL
  6
CONTINUOUS
 62
     7
 10
416.49999999999972
 20
-2710.0044849999999
 30
0.0
 40
3.25
  0
CIRCLE
  5
1A2
  8
PATTERN_FILL
  6
CONTINUOUS
 62
     7
 10
400.49999999999977
 20
-2710.0044849999999
 30
0.0
 40
3.25
  0
CIRCLE
  5
1A3
  8
PATTERN_FILL
  6
CONTINUOUS
 62
     7
 10
800.5
 20
-2710.0044849999999
 30
0.0
 40
3.25
  0
CIRCLE
  5
1A4
  8
PATTERN_FILL
  6
CONTINUOUS
 62
     7
 10
816.5
 20
-2710.0044849999999
 30
0.0
 40
3.25
  0
CIRCLE
  5
1A5
  8
PATTERN_FILL
  6
CONTINUOUS
 62
     7
 10
832.49999999999989
 20
-2710.0044849999999
 30
0.0
 40
3.25
  0
CIRCLE
  5
1A6
  8
PATTERN_FILL
  6
CONTINUOUS
 62
     7
 10
848.49999999999989
 20
-2710.0044849999999
 30
0.0
 40
3.25
  0
CIRCLE
  5
1A7
  8
PATTERN_FILL
  6
CONTINUOUS
 62
     7
 10
864.49999999999989
 20
-2710.0044849999999
 30
0.0
 40
3.25
  0
CIRCLE
  5
1A8
  8
PATTERN_FILL
  6
CONTINUOUS
 62
     7
 10
880.49999999999989
 20
-2710.0044849999999
 30
0.0
 40
3.25
  0
CIRCLE
  5
1A9
  8
PATTERN_FILL
  6
CONTINUOUS
 62
     7
 10
896.49999999999989
 20
-2710.0044849999999
 30
0.0
 40
3.25
  0
CIRCLE
  5
1AA
  8
PATTERN_FILL
  6
CONTINUOUS
 62
     7
 10
560.49999999999966
 20
-2710.0044849999999
 30
0.0
 40
3.25
  0
CIRCLE
  5
1AB
  8
PATTERN_FILL
  6
CONTINUOUS
 62
     7
 10
576.49999999999966
 20
-2710.0044849999999
 30
0.0
 40
3.25
  0
CIRCLE
  5
1AC
  8
PATTERN_FILL
  6
CONTINUOUS
 62
     7
 10
592.49999999999977
 20
-2710.0044849999999
 30
0.0
 40
3.25
  0
CIRCLE
  5
1AD
  8
PATTERN_FILL
  6
CONTINUOUS
 62
     7
 10
608.49999999999977
 20
-2710.0044849999999
 30
0.0
 40
3.25
  0
CIRCLE
  5
1AE
  8
PATTERN_FILL
  6
CONTINUOUS
 62
     7
 10
624.49999999999966
 20
-2710.0044849999999
 30
0.0
 40
3.25
  0
CIRCLE
  5
1AF
  8
PATTERN_FILL
  6
CONTINUOUS
 62
     7
 10
640.49999999999966
 20
-2710.0044849999999
 30
0.0
 40
3.25
  0
CIRCLE
  5
1B0
  8
PATTERN_FILL
  6
CONTINUOUS
 62
     7
 10
656.49999999999966
 20
-2710.0044849999999
 30
0.0
 40
3.25
  0
CIRCLE
  5
1B1
  8
PATTERN_FILL
  6
CONTINUOUS
 62
     7
 10
672.49999999999966
 20
-2710.0044849999999
 30
0.0
 40
3.25
  0
CIRCLE
  5
1B2
  8
PATTERN_FILL
  6
CONTINUOUS
 62
     7
 10
688.49999999999966
 20
-2710.0044849999999
 30
0.0
 40
3.25
  0
CIRCLE
  5
1B3
  8
PATTERN_FILL
  6
CONTINUOUS
 62
     7
 10
704.49999999999955
 20
-2696.0044849999999
 30
0.0
 40
3.25
  0
CIRCLE
  5
1B4
  8
PATTERN_FILL
  6
CONTINUOUS
 62
     7
 10
720.49999999999955
 20
-2696.0044849999999
 30
0.0
 40
3.25
  0
CIRCLE
  5
1B5
  8
PATTERN_FILL
  6
CONTINUOUS
 62
     7
 10
736.49999999999955
 20
-2696.0044849999999
 30
0.0
 40
3.25
  0
CIRCLE
  5
1B6
  8
PATTERN_FILL
  6
CONTINUOUS
 62
     7
 10
752.49999999999955
 20
-2696.0044849999999
 30
0.0
 40
3.25
  0
CIRCLE
  5
1B7
  8
PATTERN_FILL
  6
CONTINUOUS
 62
     7
 10
768.5
 20
-2696.0044849999999
 30
0.0
 40
3.25
  0
CIRCLE
  5
1B8
  8
PATTERN_FILL
  6
CONTINUOUS
 62
     7
 10
784.49999999999989
 20
-2696.0044849999999
 30
0.0
 40
3.25
  0
CIRCLE
  5
1B9
  8
PATTERN_FILL
  6
CONTINUOUS
 62
     7
 10
544.49999999999966
 20
-2696.0044849999999
 30
0.0
 40
3.25
  0
CIRCLE
  5
1BA
  8
PATTERN_FILL
  6
CONTINUOUS
 62
     7
 10
528.49999999999966
 20
-2696.0044849999999
 30
0.0
 40
3.25
  0
CIRCLE
  5
1BB
  8
PATTERN_FILL
  6
CONTINUOUS
 62
     7
 10
512.49999999999977
 20
-2696.0044849999999
 30
0.0
 40
3.25
  0
CIRCLE
  5
1BC
  8
PATTERN_FILL
  6
CONTINUOUS
 62
     7
 10
496.49999999999977
 20
-2696.0044849999999
 30
0.0
 40
3.25
  0
CIRCLE
  5
1BD
  8
PATTERN_FILL
  6
CONTINUOUS
 62
     7
 10
480.49999999999972
 20
-2696.0044849999999
 30
0.0
 40
3.25
  0
CIRCLE
  5
1BE
  8
PATTERN_FILL
  6
CONTINUOUS
 62
     7
 10
464.49999999999972
 20
-2696.0044849999999
 30
0.0
 40
3.25
  0
CIRCLE
  5
1BF
  8
PATTERN_FILL
  6
CONTINUOUS
 62
     7
 10
448.49999999999972
 20
-2696.0044849999999
 30
0.0
 40
3.25
  0
CIRCLE
  5
1C0
  8
PATTERN_FILL
  6
CONTINUOUS
 62
     7
 10
432.49999999999972
 20
-2696.0044849999999
 30
0.0
 40
3.25
  0
CIRCLE
  5
1C1
  8
PATTERN_FILL
  6
CONTINUOUS
 62
     7
 10
416.49999999999972
 20
-2696.0044849999999
 30
0.0
 40
3.25
  0
CIRCLE
  5
1C2
  8
PATTERN_FILL
  6
CONTINUOUS
 62
     7
 10
400.49999999999977
 20
-2696.0044849999999
 30
0.0
 40
3.25
  0
CIRCLE
  5
1C3
  8
PATTERN_FILL
  6
CONTINUOUS
 62
     7
 10
800.5
 20
-2696.0044849999999
 30
0.0
 40
3.25
  0
CIRCLE
  5
1C4
  8
PATTERN_FILL
  6
CONTINUOUS
 62
     7
 10
816.5
 20
-2696.0044849999999
 30
0.0
 40
3.25
  0
CIRCLE
  5
1C5
  8
PATTERN_FILL
  6
CONTINUOUS
 62
     7
 10
832.49999999999989
 20
-2696.0044849999999
 30
0.0
 40
3.25
  0
CIRCLE
  5
1C6
  8
PATTERN_FILL
  6
CONTINUOUS
 62
     7
 10
848.49999999999989
 20
-2696.0044849999999
 30
0.0
 40
3.25
  0
CIRCLE
  5
1C7
  8
PATTERN_FILL
  6
CONTINUOUS
 62
     7
 10
864.49999999999989
 20
-2696.0044849999999
 30
0.0
 40
3.25
  0
CIRCLE
  5
1C8
  8
PATTERN_FILL
  6
CONTINUOUS
 62
     7
 10
880.49999999999989
 20
-2696.0044849999999
 30
0.0
 40
3.25
  0
CIRCLE
  5
1C9
  8
PATTERN_FILL
  6
CONTINUOUS
 62
     7
 10
896.49999999999989
 20
-2696.0044849999999
 30
0.0
 40
3.25
  0
CIRCLE
  5
1CA
  8
PATTERN_FILL
  6
CONTINUOUS
 62
     7
 10
560.49999999999966
 20
-2696.0044849999999
 30
0.0
 40
3.25
  0
CIRCLE
  5
1CB
  8
PATTERN_FILL
  6
CONTINUOUS
 62
     7
 10
576.49999999999966
 20
-2696.0044849999999
 30
0.0
 40
3.25
  0
CIRCLE
  5
1CC
  8
PATTERN_FILL
  6
CONTINUOUS
 62
     7
 10
592.49999999999977
 20
-2696.0044849999999
 30
0.0
 40
3.25
  0
CIRCLE
  5
1CD
  8
PATTERN_FILL
  6
CONTINUOUS
 62
     7
 10
608.49999999999977
 20
-2696.0044849999999
 30
0.0
 40
3.25
  0
CIRCLE
  5
1CE
  8
PATTERN_FILL
  6
CONTINUOUS
 62
     7
 10
624.49999999999966
 20
-2696.0044849999999
 30
0.0
 40
3.25
  0
CIRCLE
  5
1CF
  8
PATTERN_FILL
  6
CONTINUOUS
 62
     7
 10
640.49999999999966
 20
-2696.0044849999999
 30
0.0
 40
3.25
  0
CIRCLE
  5
1D0
  8
PATTERN_FILL
  6
CONTINUOUS
 62
     7
 10
656.49999999999966
 20
-2696.0044849999999
 30
0.0
 40
3.25
  0
CIRCLE
  5
1D1
  8
PATTERN_FILL
  6
CONTINUOUS
 62
     7
 10
672.49999999999966
 20
-2696.0044849999999
 30
0.0
 40
3.25
  0
CIRCLE
  5
1D2
  8
PATTERN_FILL
  6
CONTINUOUS
 62
     7
 10
688.49999999999966
 20
-2696.0044849999999
 30
0.0
 40
3.25
  0
CIRCLE
  5
1D3
  8
PATTERN_FILL
  6
CONTINUOUS
 62
     7
 10
704.49999999999955
 20
-2682.0044849999999
 30
0.0
 40
3.25
  0
CIRCLE
  5
1D4
  8
PATTERN_FILL
  6
CONTINUOUS
 62
     7
 10
720.49999999999955
 20
-2682.0044849999999
 30
0.0
 40
3.25
  0
CIRCLE
  5
1D5
  8
PATTERN_FILL
  6
CONTINUOUS
 62
     7
 10
736.49999999999955
 20
-2682.0044849999999
 30
0.0
 40
3.25
  0
CIRCLE
  5
1D6
  8
PATTERN_FILL
  6
CONTINUOUS
 62
     7
 10
752.49999999999955
 20
-2682.0044849999999
 30
0.0
 40
3.25
  0
CIRCLE
  5
1D7
  8
PATTERN_FILL
  6
CONTINUOUS
 62
     7
 10
768.5
 20
-2682.0044849999999
 30
0.0
 40
3.25
  0
CIRCLE
  5
1D8
  8
PATTERN_FILL
  6
CONTINUOUS
 62
     7
 10
784.49999999999989
 20
-2682.0044849999999
 30
0.0
 40
3.25
  0
CIRCLE
  5
1D9
  8
PATTERN_FILL
  6
CONTINUOUS
 62
     7
 10
544.49999999999966
 20
-2682.0044849999999
 30
0.0
 40
3.25
  0
CIRCLE
  5
1DA
  8
PATTERN_FILL
  6
CONTINUOUS
 62
     7
 10
528.49999999999966
 20
-2682.0044849999999
 30
0.0
 40
3.25
  0
CIRCLE
  5
1DB
  8
PATTERN_FILL
  6
CONTINUOUS
 62
     7
 10
512.49999999999977
 20
-2682.0044849999999
 30
0.0
 40
3.25
  0
CIRCLE
  5
1DC
  8
PATTERN_FILL
  6
CONTINUOUS
 62
     7
 10
496.49999999999977
 20
-2682.0044849999999
 30
0.0
 40
3.25
  0
CIRCLE
  5
1DD
  8
PATTERN_FILL
  6
CONTINUOUS
 62
     7
 10
480.49999999999972
 20
-2682.0044849999999
 30
0.0
 40
3.25
  0
CIRCLE
  5
1DE
  8
PATTERN_FILL
  6
CONTINUOUS
 62
     7
 10
464.49999999999972
 20
-2682.0044849999999
 30
0.0
 40
3.25
  0
CIRCLE
  5
1DF
  8
PATTERN_FILL
  6
CONTINUOUS
 62
     7
 10
448.49999999999972
 20
-2682.0044849999999
 30
0.0
 40
3.25
  0
CIRCLE
  5
1E0
  8
PATTERN_FILL
  6
CONTINUOUS
 62
     7
 10
432.49999999999972
 20
-2682.0044849999999
 30
0.0
 40
3.25
  0
CIRCLE
  5
1E1
  8
PATTERN_FILL
  6
CONTINUOUS
 62
     7
 10
416.49999999999972
 20
-2682.0044849999999
 30
0.0
 40
3.25
  0
CIRCLE
  5
1E2
  8
PATTERN_FILL
  6
CONTINUOUS
 62
     7
 10
400.49999999999977
 20
-2682.0044849999999
 30
0.0
 40
3.25
  0
CIRCLE
  5
1E3
  8
PATTERN_FILL
  6
CONTINUOUS
 62
     7
 10
800.5
 20
-2682.0044849999999
 30
0.0
 40
3.25
  0
CIRCLE
  5
1E4
  8
PATTERN_FILL
  6
CONTINUOUS
 62
     7
 10
816.5
 20
-2682.0044849999999
 30
0.0
 40
3.25
  0
CIRCLE
  5
1E5
  8
PATTERN_FILL
  6
CONTINUOUS
 62
     7
 10
832.49999999999989
 20
-2682.0044849999999
 30
0.0
 40
3.25
  0
CIRCLE
  5
1E6
  8
PATTERN_FILL
  6
CONTINUOUS
 62
     7
 10
848.49999999999989
 20
-2682.0044849999999
 30
0.0
 40
3.25
  0
CIRCLE
  5
1E7
  8
PATTERN_FILL
  6
CONTINUOUS
 62
     7
 10
864.49999999999989
 20
-2682.0044849999999
 30
0.0
 40
3.25
  0
CIRCLE
  5
1E8
  8
PATTERN_FILL
  6
CONTINUOUS
 62
     7
 10
880.49999999999989
 20
-2682.0044849999999
 30
0.0
 40
3.25
  0
CIRCLE
  5
1E9
  8
PATTERN_FILL
  6
CONTINUOUS
 62
     7
 10
896.49999999999989
 20
-2682.0044849999999
 30
0.0
 40
3.25
  0
CIRCLE
  5
1EA
  8
PATTERN_FILL
  6
CONTINUOUS
 62
     7
 10
560.49999999999966
 20
-2682.0044849999999
 30
0.0
 40
3.25
  0
CIRCLE
  5
1EB
  8
PATTERN_FILL
  6
CONTINUOUS
 62
     7
 10
576.49999999999966
 20
-2682.0044849999999
 30
0.0
 40
3.25
  0
CIRCLE
  5
1EC
  8
PATTERN_FILL
  6
CONTINUOUS
 62
     7
 10
592.49999999999977
 20
-2682.0044849999999
 30
0.0
 40
3.25
  0
CIRCLE
  5
1ED
  8
PATTERN_FILL
  6
CONTINUOUS
 62
     7
 10
608.49999999999977
 20
-2682.0044849999999
 30
0.0
 40
3.25
  0
CIRCLE
  5
1EE
  8
PATTERN_FILL
  6
CONTINUOUS
 62
     7
 10
624.49999999999966
 20
-2682.0044849999999
 30
0.0
 40
3.25
  0
CIRCLE
  5
1EF
  8
PATTERN_FILL
  6
CONTINUOUS
 62
     7
 10
640.49999999999966
 20
-2682.0044849999999
 30
0.0
 40
3.25
  0
CIRCLE
  5
1F0
  8
PATTERN_FILL
  6
CONTINUOUS
 62
     7
 10
656.49999999999966
 20
-2682.0044849999999
 30
0.0
 40
3.25
  0
CIRCLE
  5
1F1
  8
PATTERN_FILL
  6
CONTINUOUS
 62
     7
 10
672.49999999999966
 20
-2682.0044849999999
 30
0.0
 40
3.25
  0
CIRCLE
  5
1F2
  8
PATTERN_FILL
  6
CONTINUOUS
 62
     7
 10
688.49999999999966
 20
-2682.0044849999999
 30
0.0
 40
3.25
  0
CIRCLE
  5
1F3
  8
PATTERN_FILL
  6
CONTINUOUS
 62
     7
 10
704.49999999999955
 20
-2668.0044849999999
 30
0.0
 40
3.25
  0
CIRCLE
  5
1F4
  8
PATTERN_FILL
  6
CONTINUOUS
 62
     7
 10
720.49999999999955
 20
-2668.0044849999999
 30
0.0
 40
3.25
  0
CIRCLE
  5
1F5
  8
PATTERN_FILL
  6
CONTINUOUS
 62
     7
 10
736.49999999999955
 20
-2668.0044849999999
 30
0.0
 40
3.25
  0
CIRCLE
  5
1F6
  8
PATTERN_FILL
  6
CONTINUOUS
 62
     7
 10
752.49999999999955
 20
-2668.0044849999999
 30
0.0
 40
3.25
  0
CIRCLE
  5
1F7
  8
PATTERN_FILL
  6
CONTINUOUS
 62
     7
 10
768.5
 20
-2668.0044849999999
 30
0.0
 40
3.25
  0
CIRCLE
  5
1F8
  8
PATTERN_FILL
  6
CONTINUOUS
 62
     7
 10
784.49999999999989
 20
-2668.0044849999999
 30
0.0
 40
3.25
  0
CIRCLE
  5
1F9
  8
PATTERN_FILL
  6
CONTINUOUS
 62
     7
 10
544.49999999999966
 20
-2668.0044849999999
 30
0.0
 40
3.25
  0
CIRCLE
  5
1FA
  8
PATTERN_FILL
  6
CONTINUOUS
 62
     7
 10
528.49999999999966
 20
-2668.0044849999999
 30
0.0
 40
3.25
  0
CIRCLE
  5
1FB
  8
PATTERN_FILL
  6
CONTINUOUS
 62
     7
 10
512.49999999999977
 20
-2668.0044849999999
 30
0.0
 40
3.25
  0
CIRCLE
  5
1FC
  8
PATTERN_FILL
  6
CONTINUOUS
 62
     7
 10
496.49999999999977
 20
-2668.0044849999999
 30
0.0
 40
3.25
  0
CIRCLE
  5
1FD
  8
PATTERN_FILL
  6
CONTINUOUS
 62
     7
 10
480.49999999999972
 20
-2668.0044849999999
 30
0.0
 40
3.25
  0
CIRCLE
  5
1FE
  8
PATTERN_FILL
  6
CONTINUOUS
 62
     7
 10
464.49999999999972
 20
-2668.0044849999999
 30
0.0
 40
3.25
  0
CIRCLE
  5
1FF
  8
PATTERN_FILL
  6
CONTINUOUS
 62
     7
 10
448.49999999999972
 20
-2668.0044849999999
 30
0.0
 40
3.25
  0
CIRCLE
  5
200
  8
PATTERN_FILL
  6
CONTINUOUS
 62
     7
 10
432.49999999999972
 20
-2668.0044849999999
 30
0.0
 40
3.25
  0
CIRCLE
  5
201
  8
PATTERN_FILL
  6
CONTINUOUS
 62
     7
 10
416.49999999999972
 20
-2668.0044849999999
 30
0.0
 40
3.25
  0
CIRCLE
  5
202
  8
PATTERN_FILL
  6
CONTINUOUS
 62
     7
 10
400.49999999999977
 20
-2668.0044849999999
 30
0.0
 40
3.25
  0
CIRCLE
  5
203
  8
PATTERN_FILL
  6
CONTINUOUS
 62
     7
 10
800.5
 20
-2668.0044849999999
 30
0.0
 40
3.25
  0
CIRCLE
  5
204
  8
PATTERN_FILL
  6
CONTINUOUS
 62
     7
 10
816.5
 20
-2668.0044849999999
 30
0.0
 40
3.25
  0
CIRCLE
  5
205
  8
PATTERN_FILL
  6
CONTINUOUS
 62
     7
 10
832.49999999999989
 20
-2668.0044849999999
 30
0.0
 40
3.25
  0
CIRCLE
  5
206
  8
PATTERN_FILL
  6
CONTINUOUS
 62
     7
 10
848.49999999999989
 20
-2668.0044849999999
 30
0.0
 40
3.25
  0
CIRCLE
  5
207
  8
PATTERN_FILL
  6
CONTINUOUS
 62
     7
 10
864.49999999999989
 20
-2668.0044849999999
 30
0.0
 40
3.25
  0
CIRCLE
  5
208
  8
PATTERN_FILL
  6
CONTINUOUS
 62
     7
 10
880.49999999999989
 20
-2668.0044849999999
 30
0.0
 40
3.25
  0
CIRCLE
  5
209
  8
PATTERN_FILL
  6
CONTINUOUS
 62
     7
 10
896.49999999999989
 20
-2668.0044849999999
 30
0.0
 40
3.25
  0
CIRCLE
  5
20A
  8
PATTERN_FILL
  6
CONTINUOUS
 62
     7
 10
560.49999999999966
 20
-2668.0044849999999
 30
0.0
 40
3.25
  0
CIRCLE
  5
20B
  8
PATTERN_FILL
  6
CONTINUOUS
 62
     7
 10
576.49999999999966
 20
-2668.0044849999999
 30
0.0
 40
3.25
  0
CIRCLE
  5
20C
  8
PATTERN_FILL
  6
CONTINUOUS
 62
     7
 10
592.49999999999977
 20
-2668.0044849999999
 30
0.0
 40
3.25
  0
CIRCLE
  5
20D
  8
PATTERN_FILL
  6
CONTINUOUS
 62
     7
 10
608.49999999999977
 20
-2668.0044849999999
 30
0.0
 40
3.25
  0
CIRCLE
  5
20E
  8
PATTERN_FILL
  6
CONTINUOUS
 62
     7
 10
624.49999999999966
 20
-2668.0044849999999
 30
0.0
 40
3.25
  0
CIRCLE
  5
20F
  8
PATTERN_FILL
  6
CONTINUOUS
 62
     7
 10
640.49999999999966
 20
-2668.0044849999999
 30
0.0
 40
3.25
  0
CIRCLE
  5
210
  8
PATTERN_FILL
  6
CONTINUOUS
 62
     7
 10
656.49999999999966
 20
-2668.0044849999999
 30
0.0
 40
3.25
  0
CIRCLE
  5
211
  8
PATTERN_FILL
  6
CONTINUOUS
 62
     7
 10
672.49999999999966
 20
-2668.0044849999999
 30
0.0
 40
3.25
  0
CIRCLE
  5
212
  8
PATTERN_FILL
  6
CONTINUOUS
 62
     7
 10
688.49999999999966
 20
-2668.0044849999999
 30
0.0
 40
3.25
  0
CIRCLE
  5
213
  8
PATTERN_FILL
  6
CONTINUOUS
 62
     7
 10
704.49999999999955
 20
-2654.0044849999999
 30
0.0
 40
3.25
  0
CIRCLE
  5
214
  8
PATTERN_FILL
  6
CONTINUOUS
 62
     7
 10
720.49999999999955
 20
-2654.0044849999999
 30
0.0
 40
3.25
  0
CIRCLE
  5
215
  8
PATTERN_FILL
  6
CONTINUOUS
 62
     7
 10
736.49999999999955
 20
-2654.0044849999999
 30
0.0
 40
3.25
  0
CIRCLE
  5
216
  8
PATTERN_FILL
  6
CONTINUOUS
 62
     7
 10
752.49999999999955
 20
-2654.0044849999999
 30
0.0
 40
3.25
  0
CIRCLE
  5
217
  8
PATTERN_FILL
  6
CONTINUOUS
 62
     7
 10
768.5
 20
-2654.0044849999999
 30
0.0
 40
3.25
  0
CIRCLE
  5
218
  8
PATTERN_FILL
  6
CONTINUOUS
 62
     7
 10
784.49999999999989
 20
-2654.0044849999999
 30
0.0
 40
3.25
  0
CIRCLE
  5
219
  8
PATTERN_FILL
  6
CONTINUOUS
 62
     7
 10
544.49999999999966
 20
-2654.0044849999999
 30
0.0
 40
3.25
  0
CIRCLE
  5
21A
  8
PATTERN_FILL
  6
CONTINUOUS
 62
     7
 10
528.49999999999966
 20
-2654.0044849999999
 30
0.0
 40
3.25
  0
CIRCLE
  5
21B
  8
PATTERN_FILL
  6
CONTINUOUS
 62
     7
 10
512.49999999999977
 20
-2654.0044849999999
 30
0.0
 40
3.25
  0
CIRCLE
  5
21C
  8
PATTERN_FILL
  6
CONTINUOUS
 62
     7
 10
496.49999999999977
 20
-2654.0044849999999
 30
0.0
 40
3.25
  0
CIRCLE
  5
21D
  8
PATTERN_FILL
  6
CONTINUOUS
 62
     7
 10
480.49999999999972
 20
-2654.0044849999999
 30
0.0
 40
3.25
  0
CIRCLE
  5
21E
  8
PATTERN_FILL
  6
CONTINUOUS
 62
     7
 10
464.49999999999972
 20
-2654.0044849999999
 30
0.0
 40
3.25
  0
CIRCLE
  5
21F
  8
PATTERN_FILL
  6
CONTINUOUS
 62
     7
 10
448.49999999999972
 20
-2654.0044849999999
 30
0.0
 40
3.25
  0
CIRCLE
  5
220
  8
PATTERN_FILL
  6
CONTINUOUS
 62
     7
 10
432.49999999999972
 20
-2654.0044849999999
 30
0.0
 40
3.25
  0
CIRCLE
  5
221
  8
PATTERN_FILL
  6
CONTINUOUS
 62
     7
 10
416.49999999999972
 20
-2654.0044849999999
 30
0.0
 40
3.25
  0
CIRCLE
  5
222
  8
PATTERN_FILL
  6
CONTINUOUS
 62
     7
 10
400.49999999999977
 20
-2654.0044849999999
 30
0.0
 40
3.25
  0
CIRCLE
  5
223
  8
PATTERN_FILL
  6
CONTINUOUS
 62
     7
 10
800.5
 20
-2654.0044849999999
 30
0.0
 40
3.25
  0
CIRCLE
  5
224
  8
PATTERN_FILL
  6
CONTINUOUS
 62
     7
 10
816.5
 20
-2654.0044849999999
 30
0.0
 40
3.25
  0
CIRCLE
  5
225
  8
PATTERN_FILL
  6
CONTINUOUS
 62
     7
 10
832.49999999999989
 20
-2654.0044849999999
 30
0.0
 40
3.25
  0
CIRCLE
  5
226
  8
PATTERN_FILL
  6
CONTINUOUS
 62
     7
 10
848.49999999999989
 20
-2654.0044849999999
 30
0.0
 40
3.25
  0
CIRCLE
  5
227
  8
PATTERN_FILL
  6
CONTINUOUS
 62
     7
 10
864.49999999999989
 20
-2654.0044849999999
 30
0.0
 40
3.25
  0
CIRCLE
  5
228
  8
PATTERN_FILL
  6
CONTINUOUS
 62
     7
 10
880.49999999999989
 20
-2654.0044849999999
 30
0.0
 40
3.25
  0
CIRCLE
  5
229
  8
PATTERN_FILL
  6
CONTINUOUS
 62
     7
 10
896.49999999999989
 20
-2654.0044849999999
 30
0.0
 40
3.25
  0
CIRCLE
  5
22A
  8
PATTERN_FILL
  6
CONTINUOUS
 62
     7
 10
560.49999999999966
 20
-2654.0044849999999
 30
0.0
 40
3.25
  0
CIRCLE
  5
22B
  8
PATTERN_FILL
  6
CONTINUOUS
 62
     7
 10
576.49999999999966
 20
-2654.0044849999999
 30
0.0
 40
3.25
  0
CIRCLE
  5
22C
  8
PATTERN_FILL
  6
CONTINUOUS
 62
     7
 10
592.49999999999977
 20
-2654.0044849999999
 30
0.0
 40
3.25
  0
CIRCLE
  5
22D
  8
PATTERN_FILL
  6
CONTINUOUS
 62
     7
 10
608.49999999999977
 20
-2654.0044849999999
 30
0.0
 40
3.25
  0
CIRCLE
  5
22E
  8
PATTERN_FILL
  6
CONTINUOUS
 62
     7
 10
624.49999999999966
 20
-2654.0044849999999
 30
0.0
 40
3.25
  0
CIRCLE
  5
22F
  8
PATTERN_FILL
  6
CONTINUOUS
 62
     7
 10
640.49999999999966
 20
-2654.0044849999999
 30
0.0
 40
3.25
  0
CIRCLE
  5
230
  8
PATTERN_FILL
  6
CONTINUOUS
 62
     7
 10
656.49999999999966
 20
-2654.0044849999999
 30
0.0
 40
3.25
  0
CIRCLE
  5
231
  8
PATTERN_FILL
  6
CONTINUOUS
 62
     7
 10
672.49999999999966
 20
-2654.0044849999999
 30
0.0
 40
3.25
  0
CIRCLE
  5
232
  8
PATTERN_FILL
  6
CONTINUOUS
 62
     7
 10
688.49999999999966
 20
-2654.0044849999999
 30
0.0
 40
3.25
  0
CIRCLE
  5
233
  8
PATTERN_FILL
  6
CONTINUOUS
 62
     7
 10
704.49999999999955
 20
-2640.0044849999999
 30
0.0
 40
3.25
  0
CIRCLE
  5
234
  8
PATTERN_FILL
  6
CONTINUOUS
 62
     7
 10
720.49999999999955
 20
-2640.0044849999999
 30
0.0
 40
3.25
  0
CIRCLE
  5
235
  8
PATTERN_FILL
  6
CONTINUOUS
 62
     7
 10
736.49999999999955
 20
-2640.0044849999999
 30
0.0
 40
3.25
  0
CIRCLE
  5
236
  8
PATTERN_FILL
  6
CONTINUOUS
 62
     7
 10
752.49999999999955
 20
-2640.0044849999999
 30
0.0
 40
3.25
  0
CIRCLE
  5
237
  8
PATTERN_FILL
  6
CONTINUOUS
 62
     7
 10
768.5
 20
-2640.0044849999999
 30
0.0
 40
3.25
  0
CIRCLE
  5
238
  8
PATTERN_FILL
  6
CONTINUOUS
 62
     7
 10
784.49999999999989
 20
-2640.0044849999999
 30
0.0
 40
3.25
  0
CIRCLE
  5
239
  8
PATTERN_FILL
  6
CONTINUOUS
 62
     7
 10
544.49999999999966
 20
-2640.0044849999999
 30
0.0
 40
3.25
  0
CIRCLE
  5
23A
  8
PATTERN_FILL
  6
CONTINUOUS
 62
     7
 10
528.49999999999966
 20
-2640.0044849999999
 30
0.0
 40
3.25
  0
CIRCLE
  5
23B
  8
PATTERN_FILL
  6
CONTINUOUS
 62
     7
 10
512.49999999999977
 20
-2640.0044849999999
 30
0.0
 40
3.25
  0
CIRCLE
  5
23C
  8
PATTERN_FILL
  6
CONTINUOUS
 62
     7
 10
496.49999999999977
 20
-2640.0044849999999
 30
0.0
 40
3.25
  0
CIRCLE
  5
23D
  8
PATTERN_FILL
  6
CONTINUOUS
 62
     7
 10
480.49999999999972
 20
-2640.0044849999999
 30
0.0
 40
3.25
  0
CIRCLE
  5
23E
  8
PATTERN_FILL
  6
CONTINUOUS
 62
     7
 10
464.49999999999972
 20
-2640.0044849999999
 30
0.0
 40
3.25
  0
CIRCLE
  5
23F
  8
PATTERN_FILL
  6
CONTINUOUS
 62
     7
 10
448.49999999999972
 20
-2640.0044849999999
 30
0.0
 40
3.25
  0
CIRCLE
  5
240
  8
PATTERN_FILL
  6
CONTINUOUS
 62
     7
 10
432.49999999999972
 20
-2640.0044849999999
 30
0.0
 40
3.25
  0
CIRCLE
  5
241
  8
PATTERN_FILL
  6
CONTINUOUS
 62
     7
 10
416.49999999999972
 20
-2640.0044849999999
 30
0.0
 40
3.25
  0
CIRCLE
  5
242
  8
PATTERN_FILL
  6
CONTINUOUS
 62
     7
 10
400.49999999999977
 20
-2640.0044849999999
 30
0.0
 40
3.25
  0
CIRCLE
  5
243
  8
PATTERN_FILL
  6
CONTINUOUS
 62
     7
 10
800.5
 20
-2640.0044849999999
 30
0.0
 40
3.25
  0
CIRCLE
  5
244
  8
PATTERN_FILL
  6
CONTINUOUS
 62
     7
 10
816.5
 20
-2640.0044849999999
 30
0.0
 40
3.25
  0
CIRCLE
  5
245
  8
PATTERN_FILL
  6
CONTINUOUS
 62
     7
 10
832.49999999999989
 20
-2640.0044849999999
 30
0.0
 40
3.25
  0
CIRCLE
  5
246
  8
PATTERN_FILL
  6
CONTINUOUS
 62
     7
 10
848.49999999999989
 20
-2640.0044849999999
 30
0.0
 40
3.25
  0
CIRCLE
  5
247
  8
PATTERN_FILL
  6
CONTINUOUS
 62
     7
 10
864.49999999999989
 20
-2640.0044849999999
 30
0.0
 40
3.25
  0
CIRCLE
  5
248
  8
PATTERN_FILL
  6
CONTINUOUS
 62
     7
 10
880.49999999999989
 20
-2640.0044849999999
 30
0.0
 40
3.25
  0
CIRCLE
  5
249
  8
PATTERN_FILL
  6
CONTINUOUS
 62
     7
 10
896.49999999999989
 20
-2640.0044849999999
 30
0.0
 40
3.25
  0
CIRCLE
  5
24A
  8
PATTERN_FILL
  6
CONTINUOUS
 62
     7
 10
560.49999999999966
 20
-2640.0044849999999
 30
0.0
 40
3.25
  0
CIRCLE
  5
24B
  8
PATTERN_FILL
  6
CONTINUOUS
 62
     7
 10
576.49999999999966
 20
-2640.0044849999999
 30
0.0
 40
3.25
  0
CIRCLE
  5
24C
  8
PATTERN_FILL
  6
CONTINUOUS
 62
     7
 10
592.49999999999977
 20
-2640.0044849999999
 30
0.0
 40
3.25
  0
CIRCLE
  5
24D
  8
PATTERN_FILL
  6
CONTINUOUS
 62
     7
 10
608.49999999999977
 20
-2640.0044849999999
 30
0.0
 40
3.25
  0
CIRCLE
  5
24E
  8
PATTERN_FILL
  6
CONTINUOUS
 62
     7
 10
624.49999999999966
 20
-2640.0044849999999
 30
0.0
 40
3.25
  0
CIRCLE
  5
24F
  8
PATTERN_FILL
  6
CONTINUOUS
 62
     7
 10
640.49999999999966
 20
-2640.0044849999999
 30
0.0
 40
3.25
  0
CIRCLE
  5
250
  8
PATTERN_FILL
  6
CONTINUOUS
 62
     7
 10
656.49999999999966
 20
-2640.0044849999999
 30
0.0
 40
3.25
  0
CIRCLE
  5
251
  8
PATTERN_FILL
  6
CONTINUOUS
 62
     7
 10
672.49999999999966
 20
-2640.0044849999999
 30
0.0
 40
3.25
  0
CIRCLE
  5
252
  8
PATTERN_FILL
  6
CONTINUOUS
 62
     7
 10
688.49999999999966
 20
-2640.0044849999999
 30
0.0
 40
3.25
  0
CIRCLE
  5
253
  8
PATTERN_FILL
  6
CONTINUOUS
 62
     7
 10
704.49999999999955
 20
-2626.0044849999999
 30
0.0
 40
3.25
  0
CIRCLE
  5
254
  8
PATTERN_FILL
  6
CONTINUOUS
 62
     7
 10
720.49999999999955
 20
-2626.0044849999999
 30
0.0
 40
3.25
  0
CIRCLE
  5
255
  8
PATTERN_FILL
  6
CONTINUOUS
 62
     7
 10
736.49999999999955
 20
-2626.0044849999999
 30
0.0
 40
3.25
  0
CIRCLE
  5
256
  8
PATTERN_FILL
  6
CONTINUOUS
 62
     7
 10
752.49999999999955
 20
-2626.0044849999999
 30
0.0
 40
3.25
  0
CIRCLE
  5
257
  8
PATTERN_FILL
  6
CONTINUOUS
 62
     7
 10
768.5
 20
-2626.0044849999999
 30
0.0
 40
3.25
  0
CIRCLE
  5
258
  8
PATTERN_FILL
  6
CONTINUOUS
 62
     7
 10
784.49999999999989
 20
-2626.0044849999999
 30
0.0
 40
3.25
  0
CIRCLE
  5
259
  8
PATTERN_FILL
  6
CONTINUOUS
 62
     7
 10
544.49999999999966
 20
-2626.0044849999999
 30
0.0
 40
3.25
  0
CIRCLE
  5
25A
  8
PATTERN_FILL
  6
CONTINUOUS
 62
     7
 10
528.49999999999966
 20
-2626.0044849999999
 30
0.0
 40
3.25
  0
CIRCLE
  5
25B
  8
PATTERN_FILL
  6
CONTINUOUS
 62
     7
 10
512.49999999999977
 20
-2626.0044849999999
 30
0.0
 40
3.25
  0
CIRCLE
  5
25C
  8
PATTERN_FILL
  6
CONTINUOUS
 62
     7
 10
496.49999999999977
 20
-2626.0044849999999
 30
0.0
 40
3.25
  0
CIRCLE
  5
25D
  8
PATTERN_FILL
  6
CONTINUOUS
 62
     7
 10
480.49999999999972
 20
-2626.0044849999999
 30
0.0
 40
3.25
  0
CIRCLE
  5
25E
  8
PATTERN_FILL
  6
CONTINUOUS
 62
     7
 10
464.49999999999972
 20
-2626.0044849999999
 30
0.0
 40
3.25
  0
CIRCLE
  5
25F
  8
PATTERN_FILL
  6
CONTINUOUS
 62
     7
 10
448.49999999999972
 20
-2626.0044849999999
 30
0.0
 40
3.25
  0
CIRCLE
  5
260
  8
PATTERN_FILL
  6
CONTINUOUS
 62
     7
 10
432.49999999999972
 20
-2626.0044849999999
 30
0.0
 40
3.25
  0
CIRCLE
  5
261
  8
PATTERN_FILL
  6
CONTINUOUS
 62
     7
 10
416.49999999999972
 20
-2626.0044849999999
 30
0.0
 40
3.25
  0
CIRCLE
  5
262
  8
PATTERN_FILL
  6
CONTINUOUS
 62
     7
 10
400.49999999999977
 20
-2626.0044849999999
 30
0.0
 40
3.25
  0
CIRCLE
  5
263
  8
PATTERN_FILL
  6
CONTINUOUS
 62
     7
 10
800.5
 20
-2626.0044849999999
 30
0.0
 40
3.25
  0
CIRCLE
  5
264
  8
PATTERN_FILL
  6
CONTINUOUS
 62
     7
 10
816.5
 20
-2626.0044849999999
 30
0.0
 40
3.25
  0
CIRCLE
  5
265
  8
PATTERN_FILL
  6
CONTINUOUS
 62
     7
 10
832.49999999999989
 20
-2626.0044849999999
 30
0.0
 40
3.25
  0
CIRCLE
  5
266
  8
PATTERN_FILL
  6
CONTINUOUS
 62
     7
 10
848.49999999999989
 20
-2626.0044849999999
 30
0.0
 40
3.25
  0
CIRCLE
  5
267
  8
PATTERN_FILL
  6
CONTINUOUS
 62
     7
 10
864.49999999999989
 20
-2626.0044849999999
 30
0.0
 40
3.25
  0
CIRCLE
  5
268
  8
PATTERN_FILL
  6
CONTINUOUS
 62
     7
 10
880.49999999999989
 20
-2626.0044849999999
 30
0.0
 40
3.25
  0
CIRCLE
  5
269
  8
PATTERN_FILL
  6
CONTINUOUS
 62
     7
 10
896.49999999999989
 20
-2626.0044849999999
 30
0.0
 40
3.25
  0
CIRCLE
  5
26A
  8
PATTERN_FILL
  6
CONTINUOUS
 62
     7
 10
560.49999999999966
 20
-2626.0044849999999
 30
0.0
 40
3.25
  0
CIRCLE
  5
26B
  8
PATTERN_FILL
  6
CONTINUOUS
 62
     7
 10
576.49999999999966
 20
-2626.0044849999999
 30
0.0
 40
3.25
  0
CIRCLE
  5
26C
  8
PATTERN_FILL
  6
CONTINUOUS
 62
     7
 10
592.49999999999977
 20
-2626.0044849999999
 30
0.0
 40
3.25
  0
CIRCLE
  5
26D
  8
PATTERN_FILL
  6
CONTINUOUS
 62
     7
 10
608.49999999999977
 20
-2626.0044849999999
 30
0.0
 40
3.25
  0
CIRCLE
  5
26E
  8
PATTERN_FILL
  6
CONTINUOUS
 62
     7
 10
624.49999999999966
 20
-2626.0044849999999
 30
0.0
 40
3.25
  0
CIRCLE
  5
26F
  8
PATTERN_FILL
  6
CONTINUOUS
 62
     7
 10
640.49999999999966
 20
-2626.0044849999999
 30
0.0
 40
3.25
  0
CIRCLE
  5
270
  8
PATTERN_FILL
  6
CONTINUOUS
 62
     7
 10
656.49999999999966
 20
-2626.0044849999999
 30
0.0
 40
3.25
  0
CIRCLE
  5
271
  8
PATTERN_FILL
  6
CONTINUOUS
 62
     7
 10
672.49999999999966
 20
-2626.0044849999999
 30
0.0
 40
3.25
  0
CIRCLE
  5
272
  8
PATTERN_FILL
  6
CONTINUOUS
 62
     7
 10
688.49999999999966
 20
-2626.0044849999999
 30
0.0
 40
3.25
  0
CIRCLE
  5
273
  8
PATTERN_FILL
  6
CONTINUOUS
 62
     7
 10
704.49999999999955
 20
-2864.0044849999999
 30
0.0
 40
3.25
  0
CIRCLE
  5
274
  8
PATTERN_FILL
  6
CONTINUOUS
 62
     7
 10
720.49999999999955
 20
-2864.0044849999999
 30
0.0
 40
3.25
  0
CIRCLE
  5
275
  8
PATTERN_FILL
  6
CONTINUOUS
 62
     7
 10
736.49999999999955
 20
-2864.0044849999999
 30
0.0
 40
3.25
  0
CIRCLE
  5
276
  8
PATTERN_FILL
  6
CONTINUOUS
 62
     7
 10
752.49999999999955
 20
-2864.0044849999999
 30
0.0
 40
3.25
  0
CIRCLE
  5
277
  8
PATTERN_FILL
  6
CONTINUOUS
 62
     7
 10
768.5
 20
-2864.0044849999999
 30
0.0
 40
3.25
  0
CIRCLE
  5
278
  8
PATTERN_FILL
  6
CONTINUOUS
 62
     7
 10
784.49999999999989
 20
-2864.0044849999999
 30
0.0
 40
3.25
  0
CIRCLE
  5
279
  8
PATTERN_FILL
  6
CONTINUOUS
 62
     7
 10
544.49999999999966
 20
-2864.0044849999999
 30
0.0
 40
3.25
  0
CIRCLE
  5
27A
  8
PATTERN_FILL
  6
CONTINUOUS
 62
     7
 10
528.49999999999966
 20
-2864.0044849999999
 30
0.0
 40
3.25
  0
CIRCLE
  5
27B
  8
PATTERN_FILL
  6
CONTINUOUS
 62
     7
 10
512.49999999999977
 20
-2864.0044849999999
 30
0.0
 40
3.25
  0
CIRCLE
  5
27C
  8
PATTERN_FILL
  6
CONTINUOUS
 62
     7
 10
496.49999999999977
 20
-2864.0044849999999
 30
0.0
 40
3.25
  0
CIRCLE
  5
27D
  8
PATTERN_FILL
  6
CONTINUOUS
 62
     7
 10
480.49999999999972
 20
-2864.0044849999999
 30
0.0
 40
3.25
  0
CIRCLE
  5
27E
  8
PATTERN_FILL
  6
CONTINUOUS
 62
     7
 10
464.49999999999972
 20
-2864.0044849999999
 30
0.0
 40
3.25
  0
CIRCLE
  5
27F
  8
PATTERN_FILL
  6
CONTINUOUS
 62
     7
 10
448.49999999999972
 20
-2864.0044849999999
 30
0.0
 40
3.25
  0
CIRCLE
  5
280
  8
PATTERN_FILL
  6
CONTINUOUS
 62
     7
 10
432.49999999999972
 20
-2864.0044849999999
 30
0.0
 40
3.25
  0
CIRCLE
  5
281
  8
PATTERN_FILL
  6
CONTINUOUS
 62
     7
 10
416.49999999999972
 20
-2864.0044849999999
 30
0.0
 40
3.25
  0
CIRCLE
  5
282
  8
PATTERN_FILL
  6
CONTINUOUS
 62
     7
 10
400.49999999999977
 20
-2864.0044849999999
 30
0.0
 40
3.25
  0
CIRCLE
  5
283
  8
PATTERN_FILL
  6
CONTINUOUS
 62
     7
 10
800.5
 20
-2864.0044849999999
 30
0.0
 40
3.25
  0
CIRCLE
  5
284
  8
PATTERN_FILL
  6
CONTINUOUS
 62
     7
 10
816.5
 20
-2864.0044849999999
 30
0.0
 40
3.25
  0
CIRCLE
  5
285
  8
PATTERN_FILL
  6
CONTINUOUS
 62
     7
 10
832.49999999999989
 20
-2864.0044849999999
 30
0.0
 40
3.25
  0
CIRCLE
  5
286
  8
PATTERN_FILL
  6
CONTINUOUS
 62
     7
 10
848.49999999999989
 20
-2864.0044849999999
 30
0.0
 40
3.25
  0
CIRCLE
  5
287
  8
PATTERN_FILL
  6
CONTINUOUS
 62
     7
 10
864.49999999999989
 20
-2864.0044849999999
 30
0.0
 40
3.25
  0
CIRCLE
  5
288
  8
PATTERN_FILL
  6
CONTINUOUS
 62
     7
 10
880.49999999999989
 20
-2864.0044849999999
 30
0.0
 40
3.25
  0
CIRCLE
  5
289
  8
PATTERN_FILL
  6
CONTINUOUS
 62
     7
 10
896.49999999999989
 20
-2864.0044849999999
 30
0.0
 40
3.25
  0
CIRCLE
  5
28A
  8
PATTERN_FILL
  6
CONTINUOUS
 62
     7
 10
560.49999999999966
 20
-2864.0044849999999
 30
0.0
 40
3.25
  0
CIRCLE
  5
28B
  8
PATTERN_FILL
  6
CONTINUOUS
 62
     7
 10
576.49999999999966
 20
-2864.0044849999999
 30
0.0
 40
3.25
  0
CIRCLE
  5
28C
  8
PATTERN_FILL
  6
CONTINUOUS
 62
     7
 10
592.49999999999977
 20
-2864.0044849999999
 30
0.0
 40
3.25
  0
CIRCLE
  5
28D
  8
PATTERN_FILL
  6
CONTINUOUS
 62
     7
 10
704.49999999999955
 20
-2878.0044849999999
 30
0.0
 40
3.25
  0
CIRCLE
  5
28E
  8
PATTERN_FILL
  6
CONTINUOUS
 62
     7
 10
720.49999999999955
 20
-2878.0044849999999
 30
0.0
 40
3.25
  0
CIRCLE
  5
28F
  8
PATTERN_FILL
  6
CONTINUOUS
 62
     7
 10
736.49999999999955
 20
-2878.0044849999999
 30
0.0
 40
3.25
  0
CIRCLE
  5
290
  8
PATTERN_FILL
  6
CONTINUOUS
 62
     7
 10
752.49999999999955
 20
-2878.0044849999999
 30
0.0
 40
3.25
  0
CIRCLE
  5
291
  8
PATTERN_FILL
  6
CONTINUOUS
 62
     7
 10
768.5
 20
-2878.0044849999999
 30
0.0
 40
3.25
  0
CIRCLE
  5
292
  8
PATTERN_FILL
  6
CONTINUOUS
 62
     7
 10
784.49999999999989
 20
-2878.0044849999999
 30
0.0
 40
3.25
  0
CIRCLE
  5
293
  8
PATTERN_FILL
  6
CONTINUOUS
 62
     7
 10
544.49999999999966
 20
-2878.0044849999999
 30
0.0
 40
3.25
  0
CIRCLE
  5
294
  8
PATTERN_FILL
  6
CONTINUOUS
 62
     7
 10
528.49999999999966
 20
-2878.0044849999999
 30
0.0
 40
3.25
  0
CIRCLE
  5
295
  8
PATTERN_FILL
  6
CONTINUOUS
 62
     7
 10
512.49999999999977
 20
-2878.0044849999999
 30
0.0
 40
3.25
  0
CIRCLE
  5
296
  8
PATTERN_FILL
  6
CONTINUOUS
 62
     7
 10
496.49999999999977
 20
-2878.0044849999999
 30
0.0
 40
3.25
  0
CIRCLE
  5
297
  8
PATTERN_FILL
  6
CONTINUOUS
 62
     7
 10
480.49999999999972
 20
-2878.0044849999999
 30
0.0
 40
3.25
  0
CIRCLE
  5
298
  8
PATTERN_FILL
  6
CONTINUOUS
 62
     7
 10
464.49999999999972
 20
-2878.0044849999999
 30
0.0
 40
3.25
  0
CIRCLE
  5
299
  8
PATTERN_FILL
  6
CONTINUOUS
 62
     7
 10
448.49999999999972
 20
-2878.0044849999999
 30
0.0
 40
3.25
  0
CIRCLE
  5
29A
  8
PATTERN_FILL
  6
CONTINUOUS
 62
     7
 10
432.49999999999972
 20
-2878.0044849999999
 30
0.0
 40
3.25
  0
CIRCLE
  5
29B
  8
PATTERN_FILL
  6
CONTINUOUS
 62
     7
 10
416.49999999999972
 20
-2878.0044849999999
 30
0.0
 40
3.25
  0
CIRCLE
  5
29C
  8
PATTERN_FILL
  6
CONTINUOUS
 62
     7
 10
400.49999999999977
 20
-2878.0044849999999
 30
0.0
 40
3.25
  0
CIRCLE
  5
29D
  8
PATTERN_FILL
  6
CONTINUOUS
 62
     7
 10
800.5
 20
-2878.0044849999999
 30
0.0
 40
3.25
  0
CIRCLE
  5
29E
  8
PATTERN_FILL
  6
CONTINUOUS
 62
     7
 10
816.5
 20
-2878.0044849999999
 30
0.0
 40
3.25
  0
CIRCLE
  5
29F
  8
PATTERN_FILL
  6
CONTINUOUS
 62
     7
 10
832.49999999999989
 20
-2878.0044849999999
 30
0.0
 40
3.25
  0
CIRCLE
  5
2A0
  8
PATTERN_FILL
  6
CONTINUOUS
 62
     7
 10
848.49999999999989
 20
-2878.0044849999999
 30
0.0
 40
3.25
  0
CIRCLE
  5
2A1
  8
PATTERN_FILL
  6
CONTINUOUS
 62
     7
 10
864.49999999999989
 20
-2878.0044849999999
 30
0.0
 40
3.25
  0
CIRCLE
  5
2A2
  8
PATTERN_FILL
  6
CONTINUOUS
 62
     7
 10
880.49999999999989
 20
-2878.0044849999999
 30
0.0
 40
3.25
  0
CIRCLE
  5
2A3
  8
PATTERN_FILL
  6
CONTINUOUS
 62
     7
 10
896.49999999999989
 20
-2878.0044849999999
 30
0.0
 40
3.25
  0
CIRCLE
  5
2A4
  8
PATTERN_FILL
  6
CONTINUOUS
 62
     7
 10
560.49999999999966
 20
-2878.0044849999999
 30
0.0
 40
3.25
  0
CIRCLE
  5
2A5
  8
PATTERN_FILL
  6
CONTINUOUS
 62
     7
 10
576.49999999999966
 20
-2878.0044849999999
 30
0.0
 40
3.25
  0
CIRCLE
  5
2A6
  8
PATTERN_FILL
  6
CONTINUOUS
 62
     7
 10
592.49999999999977
 20
-2878.0044849999999
 30
0.0
 40
3.25
  0
CIRCLE
  5
2A7
  8
PATTERN_FILL
  6
CONTINUOUS
 62
     7
 10
608.49999999999977
 20
-2878.0044849999999
 30
0.0
 40
3.25
  0
CIRCLE
  5
2A8
  8
PATTERN_FILL
  6
CONTINUOUS
 62
     7
 10
624.49999999999966
 20
-2878.0044849999999
 30
0.0
 40
3.25
  0
CIRCLE
  5
2A9
  8
PATTERN_FILL
  6
CONTINUOUS
 62
     7
 10
640.49999999999966
 20
-2878.0044849999999
 30
0.0
 40
3.25
  0
CIRCLE
  5
2AA
  8
PATTERN_FILL
  6
CONTINUOUS
 62
     7
 10
656.49999999999966
 20
-2878.0044849999999
 30
0.0
 40
3.25
  0
CIRCLE
  5
2AB
  8
PATTERN_FILL
  6
CONTINUOUS
 62
     7
 10
672.49999999999966
 20
-2878.0044849999999
 30
0.0
 40
3.25
  0
CIRCLE
  5
2AC
  8
PATTERN_FILL
  6
CONTINUOUS
 62
     7
 10
688.49999999999966
 20
-2878.0044849999999
 30
0.0
 40
3.25
  0
CIRCLE
  5
2AD
  8
PATTERN_FILL
  6
CONTINUOUS
 62
     7
 10
704.49999999999955
 20
-2892.0044849999999
 30
0.0
 40
3.25
  0
CIRCLE
  5
2AE
  8
PATTERN_FILL
  6
CONTINUOUS
 62
     7
 10
720.49999999999955
 20
-2892.0044849999999
 30
0.0
 40
3.25
  0
CIRCLE
  5
2AF
  8
PATTERN_FILL
  6
CONTINUOUS
 62
     7
 10
736.49999999999955
 20
-2892.0044849999999
 30
0.0
 40
3.25
  0
CIRCLE
  5
2B0
  8
PATTERN_FILL
  6
CONTINUOUS
 62
     7
 10
752.49999999999955
 20
-2892.0044849999999
 30
0.0
 40
3.25
  0
CIRCLE
  5
2B1
  8
PATTERN_FILL
  6
CONTINUOUS
 62
     7
 10
768.5
 20
-2892.0044849999999
 30
0.0
 40
3.25
  0
CIRCLE
  5
2B2
  8
PATTERN_FILL
  6
CONTINUOUS
 62
     7
 10
784.49999999999989
 20
-2892.0044849999999
 30
0.0
 40
3.25
  0
CIRCLE
  5
2B3
  8
PATTERN_FILL
  6
CONTINUOUS
 62
     7
 10
544.49999999999966
 20
-2892.0044849999999
 30
0.0
 40
3.25
  0
CIRCLE
  5
2B4
  8
PATTERN_FILL
  6
CONTINUOUS
 62
     7
 10
528.49999999999966
 20
-2892.0044849999999
 30
0.0
 40
3.25
  0
CIRCLE
  5
2B5
  8
PATTERN_FILL
  6
CONTINUOUS
 62
     7
 10
512.49999999999977
 20
-2892.0044849999999
 30
0.0
 40
3.25
  0
CIRCLE
  5
2B6
  8
PATTERN_FILL
  6
CONTINUOUS
 62
     7
 10
496.49999999999977
 20
-2892.0044849999999
 30
0.0
 40
3.25
  0
CIRCLE
  5
2B7
  8
PATTERN_FILL
  6
CONTINUOUS
 62
     7
 10
480.49999999999972
 20
-2892.0044849999999
 30
0.0
 40
3.25
  0
CIRCLE
  5
2B8
  8
PATTERN_FILL
  6
CONTINUOUS
 62
     7
 10
464.49999999999972
 20
-2892.0044849999999
 30
0.0
 40
3.25
  0
CIRCLE
  5
2B9
  8
PATTERN_FILL
  6
CONTINUOUS
 62
     7
 10
448.49999999999972
 20
-2892.0044849999999
 30
0.0
 40
3.25
  0
CIRCLE
  5
2BA
  8
PATTERN_FILL
  6
CONTINUOUS
 62
     7
 10
432.49999999999972
 20
-2892.0044849999999
 30
0.0
 40
3.25
  0
CIRCLE
  5
2BB
  8
PATTERN_FILL
  6
CONTINUOUS
 62
     7
 10
416.49999999999972
 20
-2892.0044849999999
 30
0.0
 40
3.25
  0
CIRCLE
  5
2BC
  8
PATTERN_FILL
  6
CONTINUOUS
 62
     7
 10
400.49999999999977
 20
-2892.0044849999999
 30
0.0
 40
3.25
  0
CIRCLE
  5
2BD
  8
PATTERN_FILL
  6
CONTINUOUS
 62
     7
 10
800.5
 20
-2892.0044849999999
 30
0.0
 40
3.25
  0
CIRCLE
  5
2BE
  8
PATTERN_FILL
  6
CONTINUOUS
 62
     7
 10
816.5
 20
-2892.0044849999999
 30
0.0
 40
3.25
  0
CIRCLE
  5
2BF
  8
PATTERN_FILL
  6
CONTINUOUS
 62
     7
 10
832.49999999999989
 20
-2892.0044849999999
 30
0.0
 40
3.25
  0
CIRCLE
  5
2C0
  8
PATTERN_FILL
  6
CONTINUOUS
 62
     7
 10
848.49999999999989
 20
-2892.0044849999999
 30
0.0
 40
3.25
  0
CIRCLE
  5
2C1
  8
PATTERN_FILL
  6
CONTINUOUS
 62
     7
 10
864.49999999999989
 20
-2892.0044849999999
 30
0.0
 40
3.25
  0
CIRCLE
  5
2C2
  8
PATTERN_FILL
  6
CONTINUOUS
 62
     7
 10
880.49999999999989
 20
-2892.0044849999999
 30
0.0
 40
3.25
  0
CIRCLE
  5
2C3
  8
PATTERN_FILL
  6
CONTINUOUS
 62
     7
 10
896.49999999999989
 20
-2892.0044849999999
 30
0.0
 40
3.25
  0
CIRCLE
  5
2C4
  8
PATTERN_FILL
  6
CONTINUOUS
 62
     7
 10
560.49999999999966
 20
-2892.0044849999999
 30
0.0
 40
3.25
  0
CIRCLE
  5
2C5
  8
PATTERN_FILL
  6
CONTINUOUS
 62
     7
 10
576.49999999999966
 20
-2892.0044849999999
 30
0.0
 40
3.25
  0
CIRCLE
  5
2C6
  8
PATTERN_FILL
  6
CONTINUOUS
 62
     7
 10
592.49999999999977
 20
-2892.0044849999999
 30
0.0
 40
3.25
  0
CIRCLE
  5
2C7
  8
PATTERN_FILL
  6
CONTINUOUS
 62
     7
 10
608.49999999999977
 20
-2892.0044849999999
 30
0.0
 40
3.25
  0
CIRCLE
  5
2C8
  8
PATTERN_FILL
  6
CONTINUOUS
 62
     7
 10
624.49999999999966
 20
-2892.0044849999999
 30
0.0
 40
3.25
  0
CIRCLE
  5
2C9
  8
PATTERN_FILL
  6
CONTINUOUS
 62
     7
 10
640.49999999999966
 20
-2892.0044849999999
 30
0.0
 40
3.25
  0
CIRCLE
  5
2CA
  8
PATTERN_FILL
  6
CONTINUOUS
 62
     7
 10
656.49999999999966
 20
-2892.0044849999999
 30
0.0
 40
3.25
  0
CIRCLE
  5
2CB
  8
PATTERN_FILL
  6
CONTINUOUS
 62
     7
 10
672.49999999999966
 20
-2892.0044849999999
 30
0.0
 40
3.25
  0
CIRCLE
  5
2CC
  8
PATTERN_FILL
  6
CONTINUOUS
 62
     7
 10
688.49999999999966
 20
-2892.0044849999999
 30
0.0
 40
3.25
  0
CIRCLE
  5
2CD
  8
PATTERN_FILL
  6
CONTINUOUS
 62
     7
 10
704.49999999999955
 20
-2906.0044849999999
 30
0.0
 40
3.25
  0
CIRCLE
  5
2CE
  8
PATTERN_FILL
  6
CONTINUOUS
 62
     7
 10
720.49999999999955
 20
-2906.0044849999999
 30
0.0
 40
3.25
  0
CIRCLE
  5
2CF
  8
PATTERN_FILL
  6
CONTINUOUS
 62
     7
 10
736.49999999999955
 20
-2906.0044849999999
 30
0.0
 40
3.25
  0
CIRCLE
  5
2D0
  8
PATTERN_FILL
  6
CONTINUOUS
 62
     7
 10
752.49999999999955
 20
-2906.0044849999999
 30
0.0
 40
3.25
  0
CIRCLE
  5
2D1
  8
PATTERN_FILL
  6
CONTINUOUS
 62
     7
 10
768.5
 20
-2906.0044849999999
 30
0.0
 40
3.25
  0
CIRCLE
  5
2D2
  8
PATTERN_FILL
  6
CONTINUOUS
 62
     7
 10
784.49999999999989
 20
-2906.0044849999999
 30
0.0
 40
3.25
  0
CIRCLE
  5
2D3
  8
PATTERN_FILL
  6
CONTINUOUS
 62
     7
 10
544.49999999999966
 20
-2906.0044849999999
 30
0.0
 40
3.25
  0
CIRCLE
  5
2D4
  8
PATTERN_FILL
  6
CONTINUOUS
 62
     7
 10
528.49999999999966
 20
-2906.0044849999999
 30
0.0
 40
3.25
  0
CIRCLE
  5
2D5
  8
PATTERN_FILL
  6
CONTINUOUS
 62
     7
 10
512.49999999999977
 20
-2906.0044849999999
 30
0.0
 40
3.25
  0
CIRCLE
  5
2D6
  8
PATTERN_FILL
  6
CONTINUOUS
 62
     7
 10
496.49999999999977
 20
-2906.0044849999999
 30
0.0
 40
3.25
  0
CIRCLE
  5
2D7
  8
PATTERN_FILL
  6
CONTINUOUS
 62
     7
 10
480.49999999999972
 20
-2906.0044849999999
 30
0.0
 40
3.25
  0
CIRCLE
  5
2D8
  8
PATTERN_FILL
  6
CONTINUOUS
 62
     7
 10
464.49999999999972
 20
-2906.0044849999999
 30
0.0
 40
3.25
  0
CIRCLE
  5
2D9
  8
PATTERN_FILL
  6
CONTINUOUS
 62
     7
 10
448.49999999999972
 20
-2906.0044849999999
 30
0.0
 40
3.25
  0
CIRCLE
  5
2DA
  8
PATTERN_FILL
  6
CONTINUOUS
 62
     7
 10
432.49999999999972
 20
-2906.0044849999999
 30
0.0
 40
3.25
  0
CIRCLE
  5
2DB
  8
PATTERN_FILL
  6
CONTINUOUS
 62
     7
 10
416.49999999999972
 20
-2906.0044849999999
 30
0.0
 40
3.25
  0
CIRCLE
  5
2DC
  8
PATTERN_FILL
  6
CONTINUOUS
 62
     7
 10
400.49999999999977
 20
-2906.0044849999999
 30
0.0
 40
3.25
  0
CIRCLE
  5
2DD
  8
PATTERN_FILL
  6
CONTINUOUS
 62
     7
 10
800.5
 20
-2906.0044849999999
 30
0.0
 40
3.25
  0
CIRCLE
  5
2DE
  8
PATTERN_FILL
  6
CONTINUOUS
 62
     7
 10
816.5
 20
-2906.0044849999999
 30
0.0
 40
3.25
  0
CIRCLE
  5
2DF
  8
PATTERN_FILL
  6
CONTINUOUS
 62
     7
 10
832.49999999999989
 20
-2906.0044849999999
 30
0.0
 40
3.25
  0
CIRCLE
  5
2E0
  8
PATTERN_FILL
  6
CONTINUOUS
 62
     7
 10
848.49999999999989
 20
-2906.0044849999999
 30
0.0
 40
3.25
  0
CIRCLE
  5
2E1
  8
PATTERN_FILL
  6
CONTINUOUS
 62
     7
 10
864.49999999999989
 20
-2906.0044849999999
 30
0.0
 40
3.25
  0
CIRCLE
  5
2E2
  8
PATTERN_FILL
  6
CONTINUOUS
 62
     7
 10
880.49999999999989
 20
-2906.0044849999999
 30
0.0
 40
3.25
  0
CIRCLE
  5
2E3
  8
PATTERN_FILL
  6
CONTINUOUS
 62
     7
 10
896.49999999999989
 20
-2906.0044849999999
 30
0.0
 40
3.25
  0
CIRCLE
  5
2E4
  8
PATTERN_FILL
  6
CONTINUOUS
 62
     7
 10
560.49999999999966
 20
-2906.0044849999999
 30
0.0
 40
3.25
  0
CIRCLE
  5
2E5
  8
PATTERN_FILL
  6
CONTINUOUS
 62
     7
 10
576.49999999999966
 20
-2906.0044849999999
 30
0.0
 40
3.25
  0
CIRCLE
  5
2E6
  8
PATTERN_FILL
  6
CONTINUOUS
 62
     7
 10
592.49999999999977
 20
-2906.0044849999999
 30
0.0
 40
3.25
  0
CIRCLE
  5
2E7
  8
PATTERN_FILL
  6
CONTINUOUS
 62
     7
 10
608.49999999999977
 20
-2906.0044849999999
 30
0.0
 40
3.25
  0
CIRCLE
  5
2E8
  8
PATTERN_FILL
  6
CONTINUOUS
 62
     7
 10
624.49999999999966
 20
-2906.0044849999999
 30
0.0
 40
3.25
  0
CIRCLE
  5
2E9
  8
PATTERN_FILL
  6
CONTINUOUS
 62
     7
 10
640.49999999999966
 20
-2906.0044849999999
 30
0.0
 40
3.25
  0
CIRCLE
  5
2EA
  8
PATTERN_FILL
  6
CONTINUOUS
 62
     7
 10
656.49999999999966
 20
-2906.0044849999999
 30
0.0
 40
3.25
  0
CIRCLE
  5
2EB
  8
PATTERN_FILL
  6
CONTINUOUS
 62
     7
 10
672.49999999999966
 20
-2906.0044849999999
 30
0.0
 40
3.25
  0
CIRCLE
  5
2EC
  8
PATTERN_FILL
  6
CONTINUOUS
 62
     7
 10
688.49999999999966
 20
-2906.0044849999999
 30
0.0
 40
3.25
  0
CIRCLE
  5
2ED
  8
PATTERN_FILL
  6
CONTINUOUS
 62
     7
 10
704.49999999999955
 20
-2920.0044849999999
 30
0.0
 40
3.25
  0
CIRCLE
  5
2EE
  8
PATTERN_FILL
  6
CONTINUOUS
 62
     7
 10
720.49999999999955
 20
-2920.0044849999999
 30
0.0
 40
3.25
  0
CIRCLE
  5
2EF
  8
PATTERN_FILL
  6
CONTINUOUS
 62
     7
 10
736.49999999999955
 20
-2920.0044849999999
 30
0.0
 40
3.25
  0
CIRCLE
  5
2F0
  8
PATTERN_FILL
  6
CONTINUOUS
 62
     7
 10
752.49999999999955
 20
-2920.0044849999999
 30
0.0
 40
3.25
  0
CIRCLE
  5
2F1
  8
PATTERN_FILL
  6
CONTINUOUS
 62
     7
 10
768.5
 20
-2920.0044849999999
 30
0.0
 40
3.25
  0
CIRCLE
  5
2F2
  8
PATTERN_FILL
  6
CONTINUOUS
 62
     7
 10
784.49999999999989
 20
-2920.0044849999999
 30
0.0
 40
3.25
  0
CIRCLE
  5
2F3
  8
PATTERN_FILL
  6
CONTINUOUS
 62
     7
 10
544.49999999999966
 20
-2920.0044849999999
 30
0.0
 40
3.25
  0
CIRCLE
  5
2F4
  8
PATTERN_FILL
  6
CONTINUOUS
 62
     7
 10
528.49999999999966
 20
-2920.0044849999999
 30
0.0
 40
3.25
  0
CIRCLE
  5
2F5
  8
PATTERN_FILL
  6
CONTINUOUS
 62
     7
 10
512.49999999999977
 20
-2920.0044849999999
 30
0.0
 40
3.25
  0
CIRCLE
  5
2F6
  8
PATTERN_FILL
  6
CONTINUOUS
 62
     7
 10
496.49999999999977
 20
-2920.0044849999999
 30
0.0
 40
3.25
  0
CIRCLE
  5
2F7
  8
PATTERN_FILL
  6
CONTINUOUS
 62
     7
 10
480.49999999999972
 20
-2920.0044849999999
 30
0.0
 40
3.25
  0
CIRCLE
  5
2F8
  8
PATTERN_FILL
  6
CONTINUOUS
 62
     7
 10
464.49999999999972
 20
-2920.0044849999999
 30
0.0
 40
3.25
  0
CIRCLE
  5
2F9
  8
PATTERN_FILL
  6
CONTINUOUS
 62
     7
 10
448.49999999999972
 20
-2920.0044849999999
 30
0.0
 40
3.25
  0
CIRCLE
  5
2FA
  8
PATTERN_FILL
  6
CONTINUOUS
 62
     7
 10
432.49999999999972
 20
-2920.0044849999999
 30
0.0
 40
3.25
  0
CIRCLE
  5
2FB
  8
PATTERN_FILL
  6
CONTINUOUS
 62
     7
 10
416.49999999999972
 20
-2920.0044849999999
 30
0.0
 40
3.25
  0
CIRCLE
  5
2FC
  8
PATTERN_FILL
  6
CONTINUOUS
 62
     7
 10
400.49999999999977
 20
-2920.0044849999999
 30
0.0
 40
3.25
  0
CIRCLE
  5
2FD
  8
PATTERN_FILL
  6
CONTINUOUS
 62
     7
 10
800.5
 20
-2920.0044849999999
 30
0.0
 40
3.25
  0
CIRCLE
  5
2FE
  8
PATTERN_FILL
  6
CONTINUOUS
 62
     7
 10
816.5
 20
-2920.0044849999999
 30
0.0
 40
3.25
  0
CIRCLE
  5
2FF
  8
PATTERN_FILL
  6
CONTINUOUS
 62
     7
 10
832.49999999999989
 20
-2920.0044849999999
 30
0.0
 40
3.25
  0
CIRCLE
  5
300
  8
PATTERN_FILL
  6
CONTINUOUS
 62
     7
 10
848.49999999999989
 20
-2920.0044849999999
 30
0.0
 40
3.25
  0
CIRCLE
  5
301
  8
PATTERN_FILL
  6
CONTINUOUS
 62
     7
 10
864.49999999999989
 20
-2920.0044849999999
 30
0.0
 40
3.25
  0
CIRCLE
  5
302
  8
PATTERN_FILL
  6
CONTINUOUS
 62
     7
 10
880.49999999999989
 20
-2920.0044849999999
 30
0.0
 40
3.25
  0
CIRCLE
  5
303
  8
PATTERN_FILL
  6
CONTINUOUS
 62
     7
 10
896.49999999999989
 20
-2920.0044849999999
 30
0.0
 40
3.25
  0
CIRCLE
  5
304
  8
PATTERN_FILL
  6
CONTINUOUS
 62
     7
 10
560.49999999999966
 20
-2920.0044849999999
 30
0.0
 40
3.25
  0
CIRCLE
  5
305
  8
PATTERN_FILL
  6
CONTINUOUS
 62
     7
 10
576.49999999999966
 20
-2920.0044849999999
 30
0.0
 40
3.25
  0
CIRCLE
  5
306
  8
PATTERN_FILL
  6
CONTINUOUS
 62
     7
 10
592.49999999999977
 20
-2920.0044849999999
 30
0.0
 40
3.25
  0
CIRCLE
  5
307
  8
PATTERN_FILL
  6
CONTINUOUS
 62
     7
 10
608.49999999999977
 20
-2920.0044849999999
 30
0.0
 40
3.25
  0
CIRCLE
  5
308
  8
PATTERN_FILL
  6
CONTINUOUS
 62
     7
 10
624.49999999999966
 20
-2920.0044849999999
 30
0.0
 40
3.25
  0
CIRCLE
  5
309
  8
PATTERN_FILL
  6
CONTINUOUS
 62
     7
 10
640.49999999999966
 20
-2920.0044849999999
 30
0.0
 40
3.25
  0
CIRCLE
  5
30A
  8
PATTERN_FILL
  6
CONTINUOUS
 62
     7
 10
656.49999999999966
 20
-2920.0044849999999
 30
0.0
 40
3.25
  0
CIRCLE
  5
30B
  8
PATTERN_FILL
  6
CONTINUOUS
 62
     7
 10
672.49999999999966
 20
-2920.0044849999999
 30
0.0
 40
3.25
  0
CIRCLE
  5
30C
  8
PATTERN_FILL
  6
CONTINUOUS
 62
     7
 10
688.49999999999966
 20
-2920.0044849999999
 30
0.0
 40
3.25
  0
CIRCLE
  5
30D
  8
PATTERN_FILL
  6
CONTINUOUS
 62
     7
 10
704.49999999999955
 20
-2934.0044849999999
 30
0.0
 40
3.25
  0
CIRCLE
  5
30E
  8
PATTERN_FILL
  6
CONTINUOUS
 62
     7
 10
720.49999999999955
 20
-2934.0044849999999
 30
0.0
 40
3.25
  0
CIRCLE
  5
30F
  8
PATTERN_FILL
  6
CONTINUOUS
 62
     7
 10
736.49999999999955
 20
-2934.0044849999999
 30
0.0
 40
3.25
  0
CIRCLE
  5
310
  8
PATTERN_FILL
  6
CONTINUOUS
 62
     7
 10
752.49999999999955
 20
-2934.0044849999999
 30
0.0
 40
3.25
  0
CIRCLE
  5
311
  8
PATTERN_FILL
  6
CONTINUOUS
 62
     7
 10
768.5
 20
-2934.0044849999999
 30
0.0
 40
3.25
  0
CIRCLE
  5
312
  8
PATTERN_FILL
  6
CONTINUOUS
 62
     7
 10
784.49999999999989
 20
-2934.0044849999999
 30
0.0
 40
3.25
  0
CIRCLE
  5
313
  8
PATTERN_FILL
  6
CONTINUOUS
 62
     7
 10
544.49999999999966
 20
-2934.0044849999999
 30
0.0
 40
3.25
  0
CIRCLE
  5
314
  8
PATTERN_FILL
  6
CONTINUOUS
 62
     7
 10
528.49999999999966
 20
-2934.0044849999999
 30
0.0
 40
3.25
  0
CIRCLE
  5
315
  8
PATTERN_FILL
  6
CONTINUOUS
 62
     7
 10
512.49999999999977
 20
-2934.0044849999999
 30
0.0
 40
3.25
  0
CIRCLE
  5
316
  8
PATTERN_FILL
  6
CONTINUOUS
 62
     7
 10
496.49999999999977
 20
-2934.0044849999999
 30
0.0
 40
3.25
  0
CIRCLE
  5
317
  8
PATTERN_FILL
  6
CONTINUOUS
 62
     7
 10
480.49999999999972
 20
-2934.0044849999999
 30
0.0
 40
3.25
  0
CIRCLE
  5
318
  8
PATTERN_FILL
  6
CONTINUOUS
 62
     7
 10
464.49999999999972
 20
-2934.0044849999999
 30
0.0
 40
3.25
  0
CIRCLE
  5
319
  8
PATTERN_FILL
  6
CONTINUOUS
 62
     7
 10
448.49999999999972
 20
-2934.0044849999999
 30
0.0
 40
3.25
  0
CIRCLE
  5
31A
  8
PATTERN_FILL
  6
CONTINUOUS
 62
     7
 10
432.49999999999972
 20
-2934.0044849999999
 30
0.0
 40
3.25
  0
CIRCLE
  5
31B
  8
PATTERN_FILL
  6
CONTINUOUS
 62
     7
 10
416.49999999999972
 20
-2934.0044849999999
 30
0.0
 40
3.25
  0
CIRCLE
  5
31C
  8
PATTERN_FILL
  6
CONTINUOUS
 62
     7
 10
400.49999999999977
 20
-2934.0044849999999
 30
0.0
 40
3.25
  0
CIRCLE
  5
31D
  8
PATTERN_FILL
  6
CONTINUOUS
 62
     7
 10
800.5
 20
-2934.0044849999999
 30
0.0
 40
3.25
  0
CIRCLE
  5
31E
  8
PATTERN_FILL
  6
CONTINUOUS
 62
     7
 10
816.5
 20
-2934.0044849999999
 30
0.0
 40
3.25
  0
CIRCLE
  5
31F
  8
PATTERN_FILL
  6
CONTINUOUS
 62
     7
 10
832.49999999999989
 20
-2934.0044849999999
 30
0.0
 40
3.25
  0
CIRCLE
  5
320
  8
PATTERN_FILL
  6
CONTINUOUS
 62
     7
 10
848.49999999999989
 20
-2934.0044849999999
 30
0.0
 40
3.25
  0
CIRCLE
  5
321
  8
PATTERN_FILL
  6
CONTINUOUS
 62
     7
 10
864.49999999999989
 20
-2934.0044849999999
 30
0.0
 40
3.25
  0
CIRCLE
  5
322
  8
PATTERN_FILL
  6
CONTINUOUS
 62
     7
 10
880.49999999999989
 20
-2934.0044849999999
 30
0.0
 40
3.25
  0
CIRCLE
  5
323
  8
PATTERN_FILL
  6
CONTINUOUS
 62
     7
 10
896.49999999999989
 20
-2934.0044849999999
 30
0.0
 40
3.25
  0
CIRCLE
  5
324
  8
PATTERN_FILL
  6
CONTINUOUS
 62
     7
 10
560.49999999999966
 20
-2934.0044849999999
 30
0.0
 40
3.25
  0
CIRCLE
  5
325
  8
PATTERN_FILL
  6
CONTINUOUS
 62
     7
 10
576.49999999999966
 20
-2934.0044849999999
 30
0.0
 40
3.25
  0
CIRCLE
  5
326
  8
PATTERN_FILL
  6
CONTINUOUS
 62
     7
 10
592.49999999999977
 20
-2934.0044849999999
 30
0.0
 40
3.25
  0
CIRCLE
  5
327
  8
PATTERN_FILL
  6
CONTINUOUS
 62
     7
 10
608.49999999999977
 20
-2934.0044849999999
 30
0.0
 40
3.25
  0
CIRCLE
  5
328
  8
PATTERN_FILL
  6
CONTINUOUS
 62
     7
 10
624.49999999999966
 20
-2934.0044849999999
 30
0.0
 40
3.25
  0
CIRCLE
  5
329
  8
PATTERN_FILL
  6
CONTINUOUS
 62
     7
 10
640.49999999999966
 20
-2934.0044849999999
 30
0.0
 40
3.25
  0
CIRCLE
  5
32A
  8
PATTERN_FILL
  6
CONTINUOUS
 62
     7
 10
656.49999999999966
 20
-2934.0044849999999
 30
0.0
 40
3.25
  0
CIRCLE
  5
32B
  8
PATTERN_FILL
  6
CONTINUOUS
 62
     7
 10
672.49999999999966
 20
-2934.0044849999999
 30
0.0
 40
3.25
  0
CIRCLE
  5
32C
  8
PATTERN_FILL
  6
CONTINUOUS
 62
     7
 10
688.49999999999966
 20
-2934.0044849999999
 30
0.0
 40
3.25
  0
CIRCLE
  5
32D
  8
PATTERN_FILL
  6
CONTINUOUS
 62
     7
 10
704.49999999999955
 20
-2948.0044849999999
 30
0.0
 40
3.25
  0
CIRCLE
  5
32E
  8
PATTERN_FILL
  6
CONTINUOUS
 62
     7
 10
720.49999999999955
 20
-2948.0044849999999
 30
0.0
 40
3.25
  0
CIRCLE
  5
32F
  8
PATTERN_FILL
  6
CONTINUOUS
 62
     7
 10
736.49999999999955
 20
-2948.0044849999999
 30
0.0
 40
3.25
  0
CIRCLE
  5
330
  8
PATTERN_FILL
  6
CONTINUOUS
 62
     7
 10
752.49999999999955
 20
-2948.0044849999999
 30
0.0
 40
3.25
  0
CIRCLE
  5
331
  8
PATTERN_FILL
  6
CONTINUOUS
 62
     7
 10
768.5
 20
-2948.0044849999999
 30
0.0
 40
3.25
  0
CIRCLE
  5
332
  8
PATTERN_FILL
  6
CONTINUOUS
 62
     7
 10
784.49999999999989
 20
-2948.0044849999999
 30
0.0
 40
3.25
  0
CIRCLE
  5
333
  8
PATTERN_FILL
  6
CONTINUOUS
 62
     7
 10
544.49999999999966
 20
-2948.0044849999999
 30
0.0
 40
3.25
  0
CIRCLE
  5
334
  8
PATTERN_FILL
  6
CONTINUOUS
 62
     7
 10
528.49999999999966
 20
-2948.0044849999999
 30
0.0
 40
3.25
  0
CIRCLE
  5
335
  8
PATTERN_FILL
  6
CONTINUOUS
 62
     7
 10
512.49999999999977
 20
-2948.0044849999999
 30
0.0
 40
3.25
  0
CIRCLE
  5
336
  8
PATTERN_FILL
  6
CONTINUOUS
 62
     7
 10
496.49999999999977
 20
-2948.0044849999999
 30
0.0
 40
3.25
  0
CIRCLE
  5
337
  8
PATTERN_FILL
  6
CONTINUOUS
 62
     7
 10
480.49999999999972
 20
-2948.0044849999999
 30
0.0
 40
3.25
  0
CIRCLE
  5
338
  8
PATTERN_FILL
  6
CONTINUOUS
 62
     7
 10
464.49999999999972
 20
-2948.0044849999999
 30
0.0
 40
3.25
  0
CIRCLE
  5
339
  8
PATTERN_FILL
  6
CONTINUOUS
 62
     7
 10
448.49999999999972
 20
-2948.0044849999999
 30
0.0
 40
3.25
  0
CIRCLE
  5
33A
  8
PATTERN_FILL
  6
CONTINUOUS
 62
     7
 10
432.49999999999972
 20
-2948.0044849999999
 30
0.0
 40
3.25
  0
CIRCLE
  5
33B
  8
PATTERN_FILL
  6
CONTINUOUS
 62
     7
 10
416.49999999999972
 20
-2948.0044849999999
 30
0.0
 40
3.25
  0
CIRCLE
  5
33C
  8
PATTERN_FILL
  6
CONTINUOUS
 62
     7
 10
400.49999999999977
 20
-2948.0044849999999
 30
0.0
 40
3.25
  0
CIRCLE
  5
33D
  8
PATTERN_FILL
  6
CONTINUOUS
 62
     7
 10
800.5
 20
-2948.0044849999999
 30
0.0
 40
3.25
  0
CIRCLE
  5
33E
  8
PATTERN_FILL
  6
CONTINUOUS
 62
     7
 10
816.5
 20
-2948.0044849999999
 30
0.0
 40
3.25
  0
CIRCLE
  5
33F
  8
PATTERN_FILL
  6
CONTINUOUS
 62
     7
 10
832.49999999999989
 20
-2948.0044849999999
 30
0.0
 40
3.25
  0
CIRCLE
  5
340
  8
PATTERN_FILL
  6
CONTINUOUS
 62
     7
 10
848.49999999999989
 20
-2948.0044849999999
 30
0.0
 40
3.25
  0
CIRCLE
  5
341
  8
PATTERN_FILL
  6
CONTINUOUS
 62
     7
 10
864.49999999999989
 20
-2948.0044849999999
 30
0.0
 40
3.25
  0
CIRCLE
  5
342
  8
PATTERN_FILL
  6
CONTINUOUS
 62
     7
 10
880.49999999999989
 20
-2948.0044849999999
 30
0.0
 40
3.25
  0
CIRCLE
  5
343
  8
PATTERN_FILL
  6
CONTINUOUS
 62
     7
 10
896.49999999999989
 20
-2948.0044849999999
 30
0.0
 40
3.25
  0
CIRCLE
  5
344
  8
PATTERN_FILL
  6
CONTINUOUS
 62
     7
 10
560.49999999999966
 20
-2948.0044849999999
 30
0.0
 40
3.25
  0
CIRCLE
  5
345
  8
PATTERN_FILL
  6
CONTINUOUS
 62
     7
 10
576.49999999999966
 20
-2948.0044849999999
 30
0.0
 40
3.25
  0
CIRCLE
  5
346
  8
PATTERN_FILL
  6
CONTINUOUS
 62
     7
 10
592.49999999999977
 20
-2948.0044849999999
 30
0.0
 40
3.25
  0
CIRCLE
  5
347
  8
PATTERN_FILL
  6
CONTINUOUS
 62
     7
 10
608.49999999999977
 20
-2948.0044849999999
 30
0.0
 40
3.25
  0
CIRCLE
  5
348
  8
PATTERN_FILL
  6
CONTINUOUS
 62
     7
 10
624.49999999999966
 20
-2948.0044849999999
 30
0.0
 40
3.25
  0
CIRCLE
  5
349
  8
PATTERN_FILL
  6
CONTINUOUS
 62
     7
 10
640.49999999999966
 20
-2948.0044849999999
 30
0.0
 40
3.25
  0
CIRCLE
  5
34A
  8
PATTERN_FILL
  6
CONTINUOUS
 62
     7
 10
656.49999999999966
 20
-2948.0044849999999
 30
0.0
 40
3.25
  0
CIRCLE
  5
34B
  8
PATTERN_FILL
  6
CONTINUOUS
 62
     7
 10
672.49999999999966
 20
-2948.0044849999999
 30
0.0
 40
3.25
  0
CIRCLE
  5
34C
  8
PATTERN_FILL
  6
CONTINUOUS
 62
     7
 10
688.49999999999966
 20
-2948.0044849999999
 30
0.0
 40
3.25
  0
CIRCLE
  5
34D
  8
PATTERN_FILL
  6
CONTINUOUS
 62
     7
 10
704.49999999999955
 20
-2962.0044849999999
 30
0.0
 40
3.25
  0
CIRCLE
  5
34E
  8
PATTERN_FILL
  6
CONTINUOUS
 62
     7
 10
720.49999999999955
 20
-2962.0044849999999
 30
0.0
 40
3.25
  0
CIRCLE
  5
34F
  8
PATTERN_FILL
  6
CONTINUOUS
 62
     7
 10
736.49999999999955
 20
-2962.0044849999999
 30
0.0
 40
3.25
  0
CIRCLE
  5
350
  8
PATTERN_FILL
  6
CONTINUOUS
 62
     7
 10
752.49999999999955
 20
-2962.0044849999999
 30
0.0
 40
3.25
  0
CIRCLE
  5
351
  8
PATTERN_FILL
  6
CONTINUOUS
 62
     7
 10
768.5
 20
-2962.0044849999999
 30
0.0
 40
3.25
  0
CIRCLE
  5
352
  8
PATTERN_FILL
  6
CONTINUOUS
 62
     7
 10
784.49999999999989
 20
-2962.0044849999999
 30
0.0
 40
3.25
  0
CIRCLE
  5
353
  8
PATTERN_FILL
  6
CONTINUOUS
 62
     7
 10
544.49999999999966
 20
-2962.0044849999999
 30
0.0
 40
3.25
  0
CIRCLE
  5
354
  8
PATTERN_FILL
  6
CONTINUOUS
 62
     7
 10
528.49999999999966
 20
-2962.0044849999999
 30
0.0
 40
3.25
  0
CIRCLE
  5
355
  8
PATTERN_FILL
  6
CONTINUOUS
 62
     7
 10
512.49999999999977
 20
-2962.0044849999999
 30
0.0
 40
3.25
  0
CIRCLE
  5
356
  8
PATTERN_FILL
  6
CONTINUOUS
 62
     7
 10
496.49999999999977
 20
-2962.0044849999999
 30
0.0
 40
3.25
  0
CIRCLE
  5
357
  8
PATTERN_FILL
  6
CONTINUOUS
 62
     7
 10
480.49999999999972
 20
-2962.0044849999999
 30
0.0
 40
3.25
  0
CIRCLE
  5
358
  8
PATTERN_FILL
  6
CONTINUOUS
 62
     7
 10
464.49999999999972
 20
-2962.0044849999999
 30
0.0
 40
3.25
  0
CIRCLE
  5
359
  8
PATTERN_FILL
  6
CONTINUOUS
 62
     7
 10
448.49999999999972
 20
-2962.0044849999999
 30
0.0
 40
3.25
  0
CIRCLE
  5
35A
  8
PATTERN_FILL
  6
CONTINUOUS
 62
     7
 10
432.49999999999972
 20
-2962.0044849999999
 30
0.0
 40
3.25
  0
CIRCLE
  5
35B
  8
PATTERN_FILL
  6
CONTINUOUS
 62
     7
 10
416.49999999999972
 20
-2962.0044849999999
 30
0.0
 40
3.25
  0
CIRCLE
  5
35C
  8
PATTERN_FILL
  6
CONTINUOUS
 62
     7
 10
400.49999999999977
 20
-2962.0044849999999
 30
0.0
 40
3.25
  0
CIRCLE
  5
35D
  8
PATTERN_FILL
  6
CONTINUOUS
 62
     7
 10
800.5
 20
-2962.0044849999999
 30
0.0
 40
3.25
  0
CIRCLE
  5
35E
  8
PATTERN_FILL
  6
CONTINUOUS
 62
     7
 10
816.5
 20
-2962.0044849999999
 30
0.0
 40
3.25
  0
CIRCLE
  5
35F
  8
PATTERN_FILL
  6
CONTINUOUS
 62
     7
 10
832.49999999999989
 20
-2962.0044849999999
 30
0.0
 40
3.25
  0
CIRCLE
  5
360
  8
PATTERN_FILL
  6
CONTINUOUS
 62
     7
 10
848.49999999999989
 20
-2962.0044849999999
 30
0.0
 40
3.25
  0
CIRCLE
  5
361
  8
PATTERN_FILL
  6
CONTINUOUS
 62
     7
 10
864.49999999999989
 20
-2962.0044849999999
 30
0.0
 40
3.25
  0
CIRCLE
  5
362
  8
PATTERN_FILL
  6
CONTINUOUS
 62
     7
 10
880.49999999999989
 20
-2962.0044849999999
 30
0.0
 40
3.25
  0
CIRCLE
  5
363
  8
PATTERN_FILL
  6
CONTINUOUS
 62
     7
 10
896.49999999999989
 20
-2962.0044849999999
 30
0.0
 40
3.25
  0
CIRCLE
  5
364
  8
PATTERN_FILL
  6
CONTINUOUS
 62
     7
 10
560.49999999999966
 20
-2962.0044849999999
 30
0.0
 40
3.25
  0
CIRCLE
  5
365
  8
PATTERN_FILL
  6
CONTINUOUS
 62
     7
 10
576.49999999999966
 20
-2962.0044849999999
 30
0.0
 40
3.25
  0
CIRCLE
  5
366
  8
PATTERN_FILL
  6
CONTINUOUS
 62
     7
 10
592.49999999999977
 20
-2962.0044849999999
 30
0.0
 40
3.25
  0
CIRCLE
  5
367
  8
PATTERN_FILL
  6
CONTINUOUS
 62
     7
 10
608.49999999999977
 20
-2962.0044849999999
 30
0.0
 40
3.25
  0
CIRCLE
  5
368
  8
PATTERN_FILL
  6
CONTINUOUS
 62
     7
 10
624.49999999999966
 20
-2962.0044849999999
 30
0.0
 40
3.25
  0
CIRCLE
  5
369
  8
PATTERN_FILL
  6
CONTINUOUS
 62
     7
 10
640.49999999999966
 20
-2962.0044849999999
 30
0.0
 40
3.25
  0
CIRCLE
  5
36A
  8
PATTERN_FILL
  6
CONTINUOUS
 62
     7
 10
656.49999999999966
 20
-2962.0044849999999
 30
0.0
 40
3.25
  0
CIRCLE
  5
36B
  8
PATTERN_FILL
  6
CONTINUOUS
 62
     7
 10
672.49999999999966
 20
-2962.0044849999999
 30
0.0
 40
3.25
  0
CIRCLE
  5
36C
  8
PATTERN_FILL
  6
CONTINUOUS
 62
     7
 10
688.49999999999966
 20
-2962.0044849999999
 30
0.0
 40
3.25
  0
CIRCLE
  5
36D
  8
PATTERN_FILL
  6
CONTINUOUS
 62
     7
 10
704.49999999999955
 20
-2976.0044849999999
 30
0.0
 40
3.25
  0
CIRCLE
  5
36E
  8
PATTERN_FILL
  6
CONTINUOUS
 62
     7
 10
720.49999999999955
 20
-2976.0044849999999
 30
0.0
 40
3.25
  0
CIRCLE
  5
36F
  8
PATTERN_FILL
  6
CONTINUOUS
 62
     7
 10
736.49999999999955
 20
-2976.0044849999999
 30
0.0
 40
3.25
  0
CIRCLE
  5
370
  8
PATTERN_FILL
  6
CONTINUOUS
 62
     7
 10
752.49999999999955
 20
-2976.0044849999999
 30
0.0
 40
3.25
  0
CIRCLE
  5
371
  8
PATTERN_FILL
  6
CONTINUOUS
 62
     7
 10
768.5
 20
-2976.0044849999999
 30
0.0
 40
3.25
  0
CIRCLE
  5
372
  8
PATTERN_FILL
  6
CONTINUOUS
 62
     7
 10
784.49999999999989
 20
-2976.0044849999999
 30
0.0
 40
3.25
  0
CIRCLE
  5
373
  8
PATTERN_FILL
  6
CONTINUOUS
 62
     7
 10
544.49999999999966
 20
-2976.0044849999999
 30
0.0
 40
3.25
  0
CIRCLE
  5
374
  8
PATTERN_FILL
  6
CONTINUOUS
 62
     7
 10
528.49999999999966
 20
-2976.0044849999999
 30
0.0
 40
3.25
  0
CIRCLE
  5
375
  8
PATTERN_FILL
  6
CONTINUOUS
 62
     7
 10
512.49999999999977
 20
-2976.0044849999999
 30
0.0
 40
3.25
  0
CIRCLE
  5
376
  8
PATTERN_FILL
  6
CONTINUOUS
 62
     7
 10
496.49999999999977
 20
-2976.0044849999999
 30
0.0
 40
3.25
  0
CIRCLE
  5
377
  8
PATTERN_FILL
  6
CONTINUOUS
 62
     7
 10
480.49999999999972
 20
-2976.0044849999999
 30
0.0
 40
3.25
  0
CIRCLE
  5
378
  8
PATTERN_FILL
  6
CONTINUOUS
 62
     7
 10
464.49999999999972
 20
-2976.0044849999999
 30
0.0
 40
3.25
  0
CIRCLE
  5
379
  8
PATTERN_FILL
  6
CONTINUOUS
 62
     7
 10
448.49999999999972
 20
-2976.0044849999999
 30
0.0
 40
3.25
  0
CIRCLE
  5
37A
  8
PATTERN_FILL
  6
CONTINUOUS
 62
     7
 10
432.49999999999972
 20
-2976.0044849999999
 30
0.0
 40
3.25
  0
CIRCLE
  5
37B
  8
PATTERN_FILL
  6
CONTINUOUS
 62
     7
 10
416.49999999999972
 20
-2976.0044849999999
 30
0.0
 40
3.25
  0
CIRCLE
  5
37C
  8
PATTERN_FILL
  6
CONTINUOUS
 62
     7
 10
400.49999999999977
 20
-2976.0044849999999
 30
0.0
 40
3.25
  0
CIRCLE
  5
37D
  8
PATTERN_FILL
  6
CONTINUOUS
 62
     7
 10
800.5
 20
-2976.0044849999999
 30
0.0
 40
3.25
  0
CIRCLE
  5
37E
  8
PATTERN_FILL
  6
CONTINUOUS
 62
     7
 10
816.5
 20
-2976.0044849999999
 30
0.0
 40
3.25
  0
CIRCLE
  5
37F
  8
PATTERN_FILL
  6
CONTINUOUS
 62
     7
 10
832.49999999999989
 20
-2976.0044849999999
 30
0.0
 40
3.25
  0
CIRCLE
  5
380
  8
PATTERN_FILL
  6
CONTINUOUS
 62
     7
 10
848.49999999999989
 20
-2976.0044849999999
 30
0.0
 40
3.25
  0
CIRCLE
  5
381
  8
PATTERN_FILL
  6
CONTINUOUS
 62
     7
 10
864.49999999999989
 20
-2976.0044849999999
 30
0.0
 40
3.25
  0
CIRCLE
  5
382
  8
PATTERN_FILL
  6
CONTINUOUS
 62
     7
 10
880.49999999999989
 20
-2976.0044849999999
 30
0.0
 40
3.25
  0
CIRCLE
  5
383
  8
PATTERN_FILL
  6
CONTINUOUS
 62
     7
 10
896.49999999999989
 20
-2976.0044849999999
 30
0.0
 40
3.25
  0
CIRCLE
  5
384
  8
PATTERN_FILL
  6
CONTINUOUS
 62
     7
 10
560.49999999999966
 20
-2976.0044849999999
 30
0.0
 40
3.25
  0
CIRCLE
  5
385
  8
PATTERN_FILL
  6
CONTINUOUS
 62
     7
 10
576.49999999999966
 20
-2976.0044849999999
 30
0.0
 40
3.25
  0
CIRCLE
  5
386
  8
PATTERN_FILL
  6
CONTINUOUS
 62
     7
 10
592.49999999999977
 20
-2976.0044849999999
 30
0.0
 40
3.25
  0
CIRCLE
  5
387
  8
PATTERN_FILL
  6
CONTINUOUS
 62
     7
 10
608.49999999999977
 20
-2976.0044849999999
 30
0.0
 40
3.25
  0
CIRCLE
  5
388
  8
PATTERN_FILL
  6
CONTINUOUS
 62
     7
 10
624.49999999999966
 20
-2976.0044849999999
 30
0.0
 40
3.25
  0
CIRCLE
  5
389
  8
PATTERN_FILL
  6
CONTINUOUS
 62
     7
 10
640.49999999999966
 20
-2976.0044849999999
 30
0.0
 40
3.25
  0
CIRCLE
  5
38A
  8
PATTERN_FILL
  6
CONTINUOUS
 62
     7
 10
656.49999999999966
 20
-2976.0044849999999
 30
0.0
 40
3.25
  0
CIRCLE
  5
38B
  8
PATTERN_FILL
  6
CONTINUOUS
 62
     7
 10
672.49999999999966
 20
-2976.0044849999999
 30
0.0
 40
3.25
  0
CIRCLE
  5
38C
  8
PATTERN_FILL
  6
CONTINUOUS
 62
     7
 10
688.49999999999966
 20
-2976.0044849999999
 30
0.0
 40
3.25
  0
CIRCLE
  5
38D
  8
PATTERN_FILL
  6
CONTINUOUS
 62
     7
 10
704.49999999999955
 20
-2990.0044849999999
 30
0.0
 40
3.25
  0
CIRCLE
  5
38E
  8
PATTERN_FILL
  6
CONTINUOUS
 62
     7
 10
720.49999999999955
 20
-2990.0044849999999
 30
0.0
 40
3.25
  0
CIRCLE
  5
38F
  8
PATTERN_FILL
  6
CONTINUOUS
 62
     7
 10
736.49999999999955
 20
-2990.0044849999999
 30
0.0
 40
3.25
  0
CIRCLE
  5
390
  8
PATTERN_FILL
  6
CONTINUOUS
 62
     7
 10
752.49999999999955
 20
-2990.0044849999999
 30
0.0
 40
3.25
  0
CIRCLE
  5
391
  8
PATTERN_FILL
  6
CONTINUOUS
 62
     7
 10
768.5
 20
-2990.0044849999999
 30
0.0
 40
3.25
  0
CIRCLE
  5
392
  8
PATTERN_FILL
  6
CONTINUOUS
 62
     7
 10
784.49999999999989
 20
-2990.0044849999999
 30
0.0
 40
3.25
  0
CIRCLE
  5
393
  8
PATTERN_FILL
  6
CONTINUOUS
 62
     7
 10
544.49999999999966
 20
-2990.0044849999999
 30
0.0
 40
3.25
  0
CIRCLE
  5
394
  8
PATTERN_FILL
  6
CONTINUOUS
 62
     7
 10
528.49999999999966
 20
-2990.0044849999999
 30
0.0
 40
3.25
  0
CIRCLE
  5
395
  8
PATTERN_FILL
  6
CONTINUOUS
 62
     7
 10
512.49999999999977
 20
-2990.0044849999999
 30
0.0
 40
3.25
  0
CIRCLE
  5
396
  8
PATTERN_FILL
  6
CONTINUOUS
 62
     7
 10
496.49999999999977
 20
-2990.0044849999999
 30
0.0
 40
3.25
  0
CIRCLE
  5
397
  8
PATTERN_FILL
  6
CONTINUOUS
 62
     7
 10
480.49999999999972
 20
-2990.0044849999999
 30
0.0
 40
3.25
  0
CIRCLE
  5
398
  8
PATTERN_FILL
  6
CONTINUOUS
 62
     7
 10
464.49999999999972
 20
-2990.0044849999999
 30
0.0
 40
3.25
  0
CIRCLE
  5
399
  8
PATTERN_FILL
  6
CONTINUOUS
 62
     7
 10
448.49999999999972
 20
-2990.0044849999999
 30
0.0
 40
3.25
  0
CIRCLE
  5
39A
  8
PATTERN_FILL
  6
CONTINUOUS
 62
     7
 10
432.49999999999972
 20
-2990.0044849999999
 30
0.0
 40
3.25
  0
CIRCLE
  5
39B
  8
PATTERN_FILL
  6
CONTINUOUS
 62
     7
 10
416.49999999999972
 20
-2990.0044849999999
 30
0.0
 40
3.25
  0
CIRCLE
  5
39C
  8
PATTERN_FILL
  6
CONTINUOUS
 62
     7
 10
400.49999999999977
 20
-2990.0044849999999
 30
0.0
 40
3.25
  0
CIRCLE
  5
39D
  8
PATTERN_FILL
  6
CONTINUOUS
 62
     7
 10
800.5
 20
-2990.0044849999999
 30
0.0
 40
3.25
  0
CIRCLE
  5
39E
  8
PATTERN_FILL
  6
CONTINUOUS
 62
     7
 10
816.5
 20
-2990.0044849999999
 30
0.0
 40
3.25
  0
CIRCLE
  5
39F
  8
PATTERN_FILL
  6
CONTINUOUS
 62
     7
 10
832.49999999999989
 20
-2990.0044849999999
 30
0.0
 40
3.25
  0
CIRCLE
  5
3A0
  8
PATTERN_FILL
  6
CONTINUOUS
 62
     7
 10
848.49999999999989
 20
-2990.0044849999999
 30
0.0
 40
3.25
  0
CIRCLE
  5
3A1
  8
PATTERN_FILL
  6
CONTINUOUS
 62
     7
 10
864.49999999999989
 20
-2990.0044849999999
 30
0.0
 40
3.25
  0
CIRCLE
  5
3A2
  8
PATTERN_FILL
  6
CONTINUOUS
 62
     7
 10
880.49999999999989
 20
-2990.0044849999999
 30
0.0
 40
3.25
  0
CIRCLE
  5
3A3
  8
PATTERN_FILL
  6
CONTINUOUS
 62
     7
 10
896.49999999999989
 20
-2990.0044849999999
 30
0.0
 40
3.25
  0
CIRCLE
  5
3A4
  8
PATTERN_FILL
  6
CONTINUOUS
 62
     7
 10
560.49999999999966
 20
-2990.0044849999999
 30
0.0
 40
3.25
  0
CIRCLE
  5
3A5
  8
PATTERN_FILL
  6
CONTINUOUS
 62
     7
 10
576.49999999999966
 20
-2990.0044849999999
 30
0.0
 40
3.25
  0
CIRCLE
  5
3A6
  8
PATTERN_FILL
  6
CONTINUOUS
 62
     7
 10
592.49999999999977
 20
-2990.0044849999999
 30
0.0
 40
3.25
  0
CIRCLE
  5
3A7
  8
PATTERN_FILL
  6
CONTINUOUS
 62
     7
 10
608.49999999999977
 20
-2990.0044849999999
 30
0.0
 40
3.25
  0
CIRCLE
  5
3A8
  8
PATTERN_FILL
  6
CONTINUOUS
 62
     7
 10
624.49999999999966
 20
-2990.0044849999999
 30
0.0
 40
3.25
  0
CIRCLE
  5
3A9
  8
PATTERN_FILL
  6
CONTINUOUS
 62
     7
 10
640.49999999999966
 20
-2990.0044849999999
 30
0.0
 40
3.25
  0
CIRCLE
  5
3AA
  8
PATTERN_FILL
  6
CONTINUOUS
 62
     7
 10
656.49999999999966
 20
-2990.0044849999999
 30
0.0
 40
3.25
  0
CIRCLE
  5
3AB
  8
PATTERN_FILL
  6
CONTINUOUS
 62
     7
 10
672.49999999999966
 20
-2990.0044849999999
 30
0.0
 40
3.25
  0
CIRCLE
  5
3AC
  8
PATTERN_FILL
  6
CONTINUOUS
 62
     7
 10
688.49999999999966
 20
-2990.0044849999999
 30
0.0
 40
3.25
  0
CIRCLE
  5
3AD
  8
PATTERN_FILL
  6
CONTINUOUS
 62
     7
 10
704.49999999999955
 20
-3004.0044849999999
 30
0.0
 40
3.25
  0
CIRCLE
  5
3AE
  8
PATTERN_FILL
  6
CONTINUOUS
 62
     7
 10
720.49999999999955
 20
-3004.0044849999999
 30
0.0
 40
3.25
  0
CIRCLE
  5
3AF
  8
PATTERN_FILL
  6
CONTINUOUS
 62
     7
 10
736.49999999999955
 20
-3004.0044849999999
 30
0.0
 40
3.25
  0
CIRCLE
  5
3B0
  8
PATTERN_FILL
  6
CONTINUOUS
 62
     7
 10
752.49999999999955
 20
-3004.0044849999999
 30
0.0
 40
3.25
  0
CIRCLE
  5
3B1
  8
PATTERN_FILL
  6
CONTINUOUS
 62
     7
 10
768.5
 20
-3004.0044849999999
 30
0.0
 40
3.25
  0
CIRCLE
  5
3B2
  8
PATTERN_FILL
  6
CONTINUOUS
 62
     7
 10
784.49999999999989
 20
-3004.0044849999999
 30
0.0
 40
3.25
  0
CIRCLE
  5
3B3
  8
PATTERN_FILL
  6
CONTINUOUS
 62
     7
 10
544.49999999999966
 20
-3004.0044849999999
 30
0.0
 40
3.25
  0
CIRCLE
  5
3B4
  8
PATTERN_FILL
  6
CONTINUOUS
 62
     7
 10
528.49999999999966
 20
-3004.0044849999999
 30
0.0
 40
3.25
  0
CIRCLE
  5
3B5
  8
PATTERN_FILL
  6
CONTINUOUS
 62
     7
 10
512.49999999999977
 20
-3004.0044849999999
 30
0.0
 40
3.25
  0
CIRCLE
  5
3B6
  8
PATTERN_FILL
  6
CONTINUOUS
 62
     7
 10
496.49999999999977
 20
-3004.0044849999999
 30
0.0
 40
3.25
  0
CIRCLE
  5
3B7
  8
PATTERN_FILL
  6
CONTINUOUS
 62
     7
 10
480.49999999999972
 20
-3004.0044849999999
 30
0.0
 40
3.25
  0
CIRCLE
  5
3B8
  8
PATTERN_FILL
  6
CONTINUOUS
 62
     7
 10
464.49999999999972
 20
-3004.0044849999999
 30
0.0
 40
3.25
  0
CIRCLE
  5
3B9
  8
PATTERN_FILL
  6
CONTINUOUS
 62
     7
 10
448.49999999999972
 20
-3004.0044849999999
 30
0.0
 40
3.25
  0
CIRCLE
  5
3BA
  8
PATTERN_FILL
  6
CONTINUOUS
 62
     7
 10
432.49999999999972
 20
-3004.0044849999999
 30
0.0
 40
3.25
  0
CIRCLE
  5
3BB
  8
PATTERN_FILL
  6
CONTINUOUS
 62
     7
 10
416.49999999999972
 20
-3004.0044849999999
 30
0.0
 40
3.25
  0
CIRCLE
  5
3BC
  8
PATTERN_FILL
  6
CONTINUOUS
 62
     7
 10
400.49999999999977
 20
-3004.0044849999999
 30
0.0
 40
3.25
  0
CIRCLE
  5
3BD
  8
PATTERN_FILL
  6
CONTINUOUS
 62
     7
 10
800.5
 20
-3004.0044849999999
 30
0.0
 40
3.25
  0
CIRCLE
  5
3BE
  8
PATTERN_FILL
  6
CONTINUOUS
 62
     7
 10
816.5
 20
-3004.0044849999999
 30
0.0
 40
3.25
  0
CIRCLE
  5
3BF
  8
PATTERN_FILL
  6
CONTINUOUS
 62
     7
 10
832.49999999999989
 20
-3004.0044849999999
 30
0.0
 40
3.25
  0
CIRCLE
  5
3C0
  8
PATTERN_FILL
  6
CONTINUOUS
 62
     7
 10
848.49999999999989
 20
-3004.0044849999999
 30
0.0
 40
3.25
  0
CIRCLE
  5
3C1
  8
PATTERN_FILL
  6
CONTINUOUS
 62
     7
 10
864.49999999999989
 20
-3004.0044849999999
 30
0.0
 40
3.25
  0
CIRCLE
  5
3C2
  8
PATTERN_FILL
  6
CONTINUOUS
 62
     7
 10
880.49999999999989
 20
-3004.0044849999999
 30
0.0
 40
3.25
  0
CIRCLE
  5
3C3
  8
PATTERN_FILL
  6
CONTINUOUS
 62
     7
 10
896.49999999999989
 20
-3004.0044849999999
 30
0.0
 40
3.25
  0
CIRCLE
  5
3C4
  8
PATTERN_FILL
  6
CONTINUOUS
 62
     7
 10
560.49999999999966
 20
-3004.0044849999999
 30
0.0
 40
3.25
  0
CIRCLE
  5
3C5
  8
PATTERN_FILL
  6
CONTINUOUS
 62
     7
 10
576.49999999999966
 20
-3004.0044849999999
 30
0.0
 40
3.25
  0
CIRCLE
  5
3C6
  8
PATTERN_FILL
  6
CONTINUOUS
 62
     7
 10
592.49999999999977
 20
-3004.0044849999999
 30
0.0
 40
3.25
  0
CIRCLE
  5
3C7
  8
PATTERN_FILL
  6
CONTINUOUS
 62
     7
 10
608.49999999999977
 20
-3004.0044849999999
 30
0.0
 40
3.25
  0
CIRCLE
  5
3C8
  8
PATTERN_FILL
  6
CONTINUOUS
 62
     7
 10
624.49999999999966
 20
-3004.0044849999999
 30
0.0
 40
3.25
  0
CIRCLE
  5
3C9
  8
PATTERN_FILL
  6
CONTINUOUS
 62
     7
 10
640.49999999999966
 20
-3004.0044849999999
 30
0.0
 40
3.25
  0
CIRCLE
  5
3CA
  8
PATTERN_FILL
  6
CONTINUOUS
 62
     7
 10
656.49999999999966
 20
-3004.0044849999999
 30
0.0
 40
3.25
  0
CIRCLE
  5
3CB
  8
PATTERN_FILL
  6
CONTINUOUS
 62
     7
 10
672.49999999999966
 20
-3004.0044849999999
 30
0.0
 40
3.25
  0
CIRCLE
  5
3CC
  8
PATTERN_FILL
  6
CONTINUOUS
 62
     7
 10
688.49999999999966
 20
-3004.0044849999999
 30
0.0
 40
3.25
  0
CIRCLE
  5
3CD
  8
PATTERN_FILL
  6
CONTINUOUS
 62
     7
 10
704.49999999999955
 20
-3018.0044849999999
 30
0.0
 40
3.25
  0
CIRCLE
  5
3CE
  8
PATTERN_FILL
  6
CONTINUOUS
 62
     7
 10
720.49999999999955
 20
-3018.0044849999999
 30
0.0
 40
3.25
  0
CIRCLE
  5
3CF
  8
PATTERN_FILL
  6
CONTINUOUS
 62
     7
 10
736.49999999999955
 20
-3018.0044849999999
 30
0.0
 40
3.25
  0
CIRCLE
  5
3D0
  8
PATTERN_FILL
  6
CONTINUOUS
 62
     7
 10
752.49999999999955
 20
-3018.0044849999999
 30
0.0
 40
3.25
  0
CIRCLE
  5
3D1
  8
PATTERN_FILL
  6
CONTINUOUS
 62
     7
 10
768.5
 20
-3018.0044849999999
 30
0.0
 40
3.25
  0
CIRCLE
  5
3D2
  8
PATTERN_FILL
  6
CONTINUOUS
 62
     7
 10
784.49999999999989
 20
-3018.0044849999999
 30
0.0
 40
3.25
  0
CIRCLE
  5
3D3
  8
PATTERN_FILL
  6
CONTINUOUS
 62
     7
 10
544.49999999999966
 20
-3018.0044849999999
 30
0.0
 40
3.25
  0
CIRCLE
  5
3D4
  8
PATTERN_FILL
  6
CONTINUOUS
 62
     7
 10
528.49999999999966
 20
-3018.0044849999999
 30
0.0
 40
3.25
  0
CIRCLE
  5
3D5
  8
PATTERN_FILL
  6
CONTINUOUS
 62
     7
 10
512.49999999999977
 20
-3018.0044849999999
 30
0.0
 40
3.25
  0
CIRCLE
  5
3D6
  8
PATTERN_FILL
  6
CONTINUOUS
 62
     7
 10
496.49999999999977
 20
-3018.0044849999999
 30
0.0
 40
3.25
  0
CIRCLE
  5
3D7
  8
PATTERN_FILL
  6
CONTINUOUS
 62
     7
 10
480.49999999999972
 20
-3018.0044849999999
 30
0.0
 40
3.25
  0
CIRCLE
  5
3D8
  8
PATTERN_FILL
  6
CONTINUOUS
 62
     7
 10
464.49999999999972
 20
-3018.0044849999999
 30
0.0
 40
3.25
  0
CIRCLE
  5
3D9
  8
PATTERN_FILL
  6
CONTINUOUS
 62
     7
 10
448.49999999999972
 20
-3018.0044849999999
 30
0.0
 40
3.25
  0
CIRCLE
  5
3DA
  8
PATTERN_FILL
  6
CONTINUOUS
 62
     7
 10
432.49999999999972
 20
-3018.0044849999999
 30
0.0
 40
3.25
  0
CIRCLE
  5
3DB
  8
PATTERN_FILL
  6
CONTINUOUS
 62
     7
 10
416.49999999999972
 20
-3018.0044849999999
 30
0.0
 40
3.25
  0
CIRCLE
  5
3DC
  8
PATTERN_FILL
  6
CONTINUOUS
 62
     7
 10
400.49999999999977
 20
-3018.0044849999999
 30
0.0
 40
3.25
  0
CIRCLE
  5
3DD
  8
PATTERN_FILL
  6
CONTINUOUS
 62
     7
 10
800.5
 20
-3018.0044849999999
 30
0.0
 40
3.25
  0
CIRCLE
  5
3DE
  8
PATTERN_FILL
  6
CONTINUOUS
 62
     7
 10
816.5
 20
-3018.0044849999999
 30
0.0
 40
3.25
  0
CIRCLE
  5
3DF
  8
PATTERN_FILL
  6
CONTINUOUS
 62
     7
 10
832.49999999999989
 20
-3018.0044849999999
 30
0.0
 40
3.25
  0
CIRCLE
  5
3E0
  8
PATTERN_FILL
  6
CONTINUOUS
 62
     7
 10
848.49999999999989
 20
-3018.0044849999999
 30
0.0
 40
3.25
  0
CIRCLE
  5
3E1
  8
PATTERN_FILL
  6
CONTINUOUS
 62
     7
 10
864.49999999999989
 20
-3018.0044849999999
 30
0.0
 40
3.25
  0
CIRCLE
  5
3E2
  8
PATTERN_FILL
  6
CONTINUOUS
 62
     7
 10
880.49999999999989
 20
-3018.0044849999999
 30
0.0
 40
3.25
  0
CIRCLE
  5
3E3
  8
PATTERN_FILL
  6
CONTINUOUS
 62
     7
 10
896.49999999999989
 20
-3018.0044849999999
 30
0.0
 40
3.25
  0
CIRCLE
  5
3E4
  8
PATTERN_FILL
  6
CONTINUOUS
 62
     7
 10
560.49999999999966
 20
-3018.0044849999999
 30
0.0
 40
3.25
  0
CIRCLE
  5
3E5
  8
PATTERN_FILL
  6
CONTINUOUS
 62
     7
 10
576.49999999999966
 20
-3018.0044849999999
 30
0.0
 40
3.25
  0
CIRCLE
  5
3E6
  8
PATTERN_FILL
  6
CONTINUOUS
 62
     7
 10
592.49999999999977
 20
-3018.0044849999999
 30
0.0
 40
3.25
  0
CIRCLE
  5
3E7
  8
PATTERN_FILL
  6
CONTINUOUS
 62
     7
 10
608.49999999999977
 20
-3018.0044849999999
 30
0.0
 40
3.25
  0
CIRCLE
  5
3E8
  8
PATTERN_FILL
  6
CONTINUOUS
 62
     7
 10
624.49999999999966
 20
-3018.0044849999999
 30
0.0
 40
3.25
  0
CIRCLE
  5
3E9
  8
PATTERN_FILL
  6
CONTINUOUS
 62
     7
 10
640.49999999999966
 20
-3018.0044849999999
 30
0.0
 40
3.25
  0
CIRCLE
  5
3EA
  8
PATTERN_FILL
  6
CONTINUOUS
 62
     7
 10
656.49999999999966
 20
-3018.0044849999999
 30
0.0
 40
3.25
  0
CIRCLE
  5
3EB
  8
PATTERN_FILL
  6
CONTINUOUS
 62
     7
 10
672.49999999999966
 20
-3018.0044849999999
 30
0.0
 40
3.25
  0
CIRCLE
  5
3EC
  8
PATTERN_FILL
  6
CONTINUOUS
 62
     7
 10
688.49999999999966
 20
-3018.0044849999999
 30
0.0
 40
3.25
  0
CIRCLE
  5
3ED
  8
PATTERN_FILL
  6
CONTINUOUS
 62
     7
 10
704.49999999999955
 20
-3032.0044849999999
 30
0.0
 40
3.25
  0
CIRCLE
  5
3EE
  8
PATTERN_FILL
  6
CONTINUOUS
 62
     7
 10
720.49999999999955
 20
-3032.0044849999999
 30
0.0
 40
3.25
  0
CIRCLE
  5
3EF
  8
PATTERN_FILL
  6
CONTINUOUS
 62
     7
 10
736.49999999999955
 20
-3032.0044849999999
 30
0.0
 40
3.25
  0
CIRCLE
  5
3F0
  8
PATTERN_FILL
  6
CONTINUOUS
 62
     7
 10
752.49999999999955
 20
-3032.0044849999999
 30
0.0
 40
3.25
  0
CIRCLE
  5
3F1
  8
PATTERN_FILL
  6
CONTINUOUS
 62
     7
 10
768.5
 20
-3032.0044849999999
 30
0.0
 40
3.25
  0
CIRCLE
  5
3F2
  8
PATTERN_FILL
  6
CONTINUOUS
 62
     7
 10
784.49999999999989
 20
-3032.0044849999999
 30
0.0
 40
3.25
  0
CIRCLE
  5
3F3
  8
PATTERN_FILL
  6
CONTINUOUS
 62
     7
 10
544.49999999999966
 20
-3032.0044849999999
 30
0.0
 40
3.25
  0
CIRCLE
  5
3F4
  8
PATTERN_FILL
  6
CONTINUOUS
 62
     7
 10
528.49999999999966
 20
-3032.0044849999999
 30
0.0
 40
3.25
  0
CIRCLE
  5
3F5
  8
PATTERN_FILL
  6
CONTINUOUS
 62
     7
 10
512.49999999999977
 20
-3032.0044849999999
 30
0.0
 40
3.25
  0
CIRCLE
  5
3F6
  8
PATTERN_FILL
  6
CONTINUOUS
 62
     7
 10
496.49999999999977
 20
-3032.0044849999999
 30
0.0
 40
3.25
  0
CIRCLE
  5
3F7
  8
PATTERN_FILL
  6
CONTINUOUS
 62
     7
 10
480.49999999999972
 20
-3032.0044849999999
 30
0.0
 40
3.25
  0
CIRCLE
  5
3F8
  8
PATTERN_FILL
  6
CONTINUOUS
 62
     7
 10
464.49999999999972
 20
-3032.0044849999999
 30
0.0
 40
3.25
  0
CIRCLE
  5
3F9
  8
PATTERN_FILL
  6
CONTINUOUS
 62
     7
 10
448.49999999999972
 20
-3032.0044849999999
 30
0.0
 40
3.25
  0
CIRCLE
  5
3FA
  8
PATTERN_FILL
  6
CONTINUOUS
 62
     7
 10
432.49999999999972
 20
-3032.0044849999999
 30
0.0
 40
3.25
  0
CIRCLE
  5
3FB
  8
PATTERN_FILL
  6
CONTINUOUS
 62
     7
 10
416.49999999999972
 20
-3032.0044849999999
 30
0.0
 40
3.25
  0
CIRCLE
  5
3FC
  8
PATTERN_FILL
  6
CONTINUOUS
 62
     7
 10
400.49999999999977
 20
-3032.0044849999999
 30
0.0
 40
3.25
  0
CIRCLE
  5
3FD
  8
PATTERN_FILL
  6
CONTINUOUS
 62
     7
 10
800.5
 20
-3032.0044849999999
 30
0.0
 40
3.25
  0
CIRCLE
  5
3FE
  8
PATTERN_FILL
  6
CONTINUOUS
 62
     7
 10
816.5
 20
-3032.0044849999999
 30
0.0
 40
3.25
  0
CIRCLE
  5
3FF
  8
PATTERN_FILL
  6
CONTINUOUS
 62
     7
 10
832.49999999999989
 20
-3032.0044849999999
 30
0.0
 40
3.25
  0
CIRCLE
  5
400
  8
PATTERN_FILL
  6
CONTINUOUS
 62
     7
 10
848.49999999999989
 20
-3032.0044849999999
 30
0.0
 40
3.25
  0
CIRCLE
  5
401
  8
PATTERN_FILL
  6
CONTINUOUS
 62
     7
 10
864.49999999999989
 20
-3032.0044849999999
 30
0.0
 40
3.25
  0
CIRCLE
  5
402
  8
PATTERN_FILL
  6
CONTINUOUS
 62
     7
 10
880.49999999999989
 20
-3032.0044849999999
 30
0.0
 40
3.25
  0
CIRCLE
  5
403
  8
PATTERN_FILL
  6
CONTINUOUS
 62
     7
 10
896.49999999999989
 20
-3032.0044849999999
 30
0.0
 40
3.25
  0
CIRCLE
  5
404
  8
PATTERN_FILL
  6
CONTINUOUS
 62
     7
 10
560.49999999999966
 20
-3032.0044849999999
 30
0.0
 40
3.25
  0
CIRCLE
  5
405
  8
PATTERN_FILL
  6
CONTINUOUS
 62
     7
 10
576.49999999999966
 20
-3032.0044849999999
 30
0.0
 40
3.25
  0
CIRCLE
  5
406
  8
PATTERN_FILL
  6
CONTINUOUS
 62
     7
 10
592.49999999999977
 20
-3032.0044849999999
 30
0.0
 40
3.25
  0
CIRCLE
  5
407
  8
PATTERN_FILL
  6
CONTINUOUS
 62
     7
 10
608.49999999999977
 20
-3032.0044849999999
 30
0.0
 40
3.25
  0
CIRCLE
  5
408
  8
PATTERN_FILL
  6
CONTINUOUS
 62
     7
 10
624.49999999999966
 20
-3032.0044849999999
 30
0.0
 40
3.25
  0
CIRCLE
  5
409
  8
PATTERN_FILL
  6
CONTINUOUS
 62
     7
 10
640.49999999999966
 20
-3032.0044849999999
 30
0.0
 40
3.25
  0
CIRCLE
  5
40A
  8
PATTERN_FILL
  6
CONTINUOUS
 62
     7
 10
656.49999999999966
 20
-3032.0044849999999
 30
0.0
 40
3.25
  0
CIRCLE
  5
40B
  8
PATTERN_FILL
  6
CONTINUOUS
 62
     7
 10
672.49999999999966
 20
-3032.0044849999999
 30
0.0
 40
3.25
  0
CIRCLE
  5
40C
  8
PATTERN_FILL
  6
CONTINUOUS
 62
     7
 10
688.49999999999966
 20
-3032.0044849999999
 30
0.0
 40
3.25
  0
CIRCLE
  5
40D
  8
PATTERN_FILL
  6
CONTINUOUS
 62
     7
 10
704.49999999999955
 20
-3046.0044849999999
 30
0.0
 40
3.25
  0
CIRCLE
  5
40E
  8
PATTERN_FILL
  6
CONTINUOUS
 62
     7
 10
720.49999999999955
 20
-3046.0044849999999
 30
0.0
 40
3.25
  0
CIRCLE
  5
40F
  8
PATTERN_FILL
  6
CONTINUOUS
 62
     7
 10
736.49999999999955
 20
-3046.0044849999999
 30
0.0
 40
3.25
  0
CIRCLE
  5
410
  8
PATTERN_FILL
  6
CONTINUOUS
 62
     7
 10
752.49999999999955
 20
-3046.0044849999999
 30
0.0
 40
3.25
  0
CIRCLE
  5
411
  8
PATTERN_FILL
  6
CONTINUOUS
 62
     7
 10
768.5
 20
-3046.0044849999999
 30
0.0
 40
3.25
  0
CIRCLE
  5
412
  8
PATTERN_FILL
  6
CONTINUOUS
 62
     7
 10
784.49999999999989
 20
-3046.0044849999999
 30
0.0
 40
3.25
  0
CIRCLE
  5
413
  8
PATTERN_FILL
  6
CONTINUOUS
 62
     7
 10
544.49999999999966
 20
-3046.0044849999999
 30
0.0
 40
3.25
  0
CIRCLE
  5
414
  8
PATTERN_FILL
  6
CONTINUOUS
 62
     7
 10
528.49999999999966
 20
-3046.0044849999999
 30
0.0
 40
3.25
  0
CIRCLE
  5
415
  8
PATTERN_FILL
  6
CONTINUOUS
 62
     7
 10
512.49999999999977
 20
-3046.0044849999999
 30
0.0
 40
3.25
  0
CIRCLE
  5
416
  8
PATTERN_FILL
  6
CONTINUOUS
 62
     7
 10
496.49999999999977
 20
-3046.0044849999999
 30
0.0
 40
3.25
  0
CIRCLE
  5
417
  8
PATTERN_FILL
  6
CONTINUOUS
 62
     7
 10
480.49999999999972
 20
-3046.0044849999999
 30
0.0
 40
3.25
  0
CIRCLE
  5
418
  8
PATTERN_FILL
  6
CONTINUOUS
 62
     7
 10
464.49999999999972
 20
-3046.0044849999999
 30
0.0
 40
3.25
  0
CIRCLE
  5
419
  8
PATTERN_FILL
  6
CONTINUOUS
 62
     7
 10
448.49999999999972
 20
-3046.0044849999999
 30
0.0
 40
3.25
  0
CIRCLE
  5
41A
  8
PATTERN_FILL
  6
CONTINUOUS
 62
     7
 10
432.49999999999972
 20
-3046.0044849999999
 30
0.0
 40
3.25
  0
CIRCLE
  5
41B
  8
PATTERN_FILL
  6
CONTINUOUS
 62
     7
 10
416.49999999999972
 20
-3046.0044849999999
 30
0.0
 40
3.25
  0
CIRCLE
  5
41C
  8
PATTERN_FILL
  6
CONTINUOUS
 62
     7
 10
400.49999999999977
 20
-3046.0044849999999
 30
0.0
 40
3.25
  0
CIRCLE
  5
41D
  8
PATTERN_FILL
  6
CONTINUOUS
 62
     7
 10
800.5
 20
-3046.0044849999999
 30
0.0
 40
3.25
  0
CIRCLE
  5
41E
  8
PATTERN_FILL
  6
CONTINUOUS
 62
     7
 10
816.5
 20
-3046.0044849999999
 30
0.0
 40
3.25
  0
CIRCLE
  5
41F
  8
PATTERN_FILL
  6
CONTINUOUS
 62
     7
 10
832.49999999999989
 20
-3046.0044849999999
 30
0.0
 40
3.25
  0
CIRCLE
  5
420
  8
PATTERN_FILL
  6
CONTINUOUS
 62
     7
 10
848.49999999999989
 20
-3046.0044849999999
 30
0.0
 40
3.25
  0
CIRCLE
  5
421
  8
PATTERN_FILL
  6
CONTINUOUS
 62
     7
 10
864.49999999999989
 20
-3046.0044849999999
 30
0.0
 40
3.25
  0
CIRCLE
  5
422
  8
PATTERN_FILL
  6
CONTINUOUS
 62
     7
 10
880.49999999999989
 20
-3046.0044849999999
 30
0.0
 40
3.25
  0
CIRCLE
  5
423
  8
PATTERN_FILL
  6
CONTINUOUS
 62
     7
 10
896.49999999999989
 20
-3046.0044849999999
 30
0.0
 40
3.25
  0
CIRCLE
  5
424
  8
PATTERN_FILL
  6
CONTINUOUS
 62
     7
 10
560.49999999999966
 20
-3046.0044849999999
 30
0.0
 40
3.25
  0
CIRCLE
  5
425
  8
PATTERN_FILL
  6
CONTINUOUS
 62
     7
 10
576.49999999999966
 20
-3046.0044849999999
 30
0.0
 40
3.25
  0
CIRCLE
  5
426
  8
PATTERN_FILL
  6
CONTINUOUS
 62
     7
 10
592.49999999999977
 20
-3046.0044849999999
 30
0.0
 40
3.25
  0
CIRCLE
  5
427
  8
PATTERN_FILL
  6
CONTINUOUS
 62
     7
 10
608.49999999999977
 20
-3046.0044849999999
 30
0.0
 40
3.25
  0
CIRCLE
  5
428
  8
PATTERN_FILL
  6
CONTINUOUS
 62
     7
 10
624.49999999999966
 20
-3046.0044849999999
 30
0.0
 40
3.25
  0
CIRCLE
  5
429
  8
PATTERN_FILL
  6
CONTINUOUS
 62
     7
 10
640.49999999999966
 20
-3046.0044849999999
 30
0.0
 40
3.25
  0
CIRCLE
  5
42A
  8
PATTERN_FILL
  6
CONTINUOUS
 62
     7
 10
656.49999999999966
 20
-3046.0044849999999
 30
0.0
 40
3.25
  0
CIRCLE
  5
42B
  8
PATTERN_FILL
  6
CONTINUOUS
 62
     7
 10
672.49999999999966
 20
-3046.0044849999999
 30
0.0
 40
3.25
  0
CIRCLE
  5
42C
  8
PATTERN_FILL
  6
CONTINUOUS
 62
     7
 10
688.49999999999966
 20
-3046.0044849999999
 30
0.0
 40
3.25
  0
CIRCLE
  5
42D
  8
PATTERN_FILL
  6
CONTINUOUS
 62
     7
 10
912.5
 20
-2850.0044849999999
 30
0.0
 40
3.25
  0
CIRCLE
  5
42E
  8
PATTERN_FILL
  6
CONTINUOUS
 62
     7
 10
912.5
 20
-2822.0044849999999
 30
0.0
 40
3.25
  0
CIRCLE
  5
42F
  8
PATTERN_FILL
  6
CONTINUOUS
 62
     7
 10
912.5
 20
-2808.0044849999999
 30
0.0
 40
3.25
  0
CIRCLE
  5
430
  8
PATTERN_FILL
  6
CONTINUOUS
 62
     7
 10
912.5
 20
-2794.0044849999999
 30
0.0
 40
3.25
  0
CIRCLE
  5
431
  8
PATTERN_FILL
  6
CONTINUOUS
 62
     7
 10
912.5
 20
-2780.0044849999999
 30
0.0
 40
3.25
  0
CIRCLE
  5
432
  8
PATTERN_FILL
  6
CONTINUOUS
 62
     7
 10
912.5
 20
-2766.0044849999999
 30
0.0
 40
3.25
  0
CIRCLE
  5
433
  8
PATTERN_FILL
  6
CONTINUOUS
 62
     7
 10
912.5
 20
-2752.0044849999999
 30
0.0
 40
3.25
  0
CIRCLE
  5
434
  8
PATTERN_FILL
  6
CONTINUOUS
 62
     7
 10
912.5
 20
-2738.0044849999999
 30
0.0
 40
3.25
  0
CIRCLE
  5
435
  8
PATTERN_FILL
  6
CONTINUOUS
 62
     7
 10
912.5
 20
-2724.0044849999999
 30
0.0
 40
3.25
  0
CIRCLE
  5
436
  8
PATTERN_FILL
  6
CONTINUOUS
 62
     7
 10
912.5
 20
-2710.0044849999999
 30
0.0
 40
3.25
  0
CIRCLE
  5
437
  8
PATTERN_FILL
  6
CONTINUOUS
 62
     7
 10
912.5
 20
-2696.0044849999999
 30
0.0
 40
3.25
  0
CIRCLE
  5
438
  8
PATTERN_FILL
  6
CONTINUOUS
 62
     7
 10
912.5
 20
-2682.0044849999999
 30
0.0
 40
3.25
  0
CIRCLE
  5
439
  8
PATTERN_FILL
  6
CONTINUOUS
 62
     7
 10
912.5
 20
-2668.0044849999999
 30
0.0
 40
3.25
  0
CIRCLE
  5
43A
  8
PATTERN_FILL
  6
CONTINUOUS
 62
     7
 10
912.5
 20
-2654.0044849999999
 30
0.0
 40
3.25
  0
CIRCLE
  5
43B
  8
PATTERN_FILL
  6
CONTINUOUS
 62
     7
 10
912.5
 20
-2640.0044849999999
 30
0.0
 40
3.25
  0
CIRCLE
  5
43C
  8
PATTERN_FILL
  6
CONTINUOUS
 62
     7
 10
912.5
 20
-2626.0044849999999
 30
0.0
 40
3.25
  0
CIRCLE
  5
43D
  8
PATTERN_FILL
  6
CONTINUOUS
 62
     7
 10
912.5
 20
-2864.0044849999999
 30
0.0
 40
3.25
  0
CIRCLE
  5
43E
  8
PATTERN_FILL
  6
CONTINUOUS
 62
     7
 10
912.5
 20
-2878.0044849999999
 30
0.0
 40
3.25
  0
CIRCLE
  5
43F
  8
PATTERN_FILL
  6
CONTINUOUS
 62
     7
 10
912.5
 20
-2892.0044849999999
 30
0.0
 40
3.25
  0
CIRCLE
  5
440
  8
PATTERN_FILL
  6
CONTINUOUS
 62
     7
 10
912.5
 20
-2906.0044849999999
 30
0.0
 40
3.25
  0
CIRCLE
  5
441
  8
PATTERN_FILL
  6
CONTINUOUS
 62
     7
 10
912.5
 20
-2920.0044849999999
 30
0.0
 40
3.25
  0
CIRCLE
  5
442
  8
PATTERN_FILL
  6
CONTINUOUS
 62
     7
 10
912.5
 20
-2934.0044849999999
 30
0.0
 40
3.25
  0
CIRCLE
  5
443
  8
PATTERN_FILL
  6
CONTINUOUS
 62
     7
 10
912.5
 20
-2948.0044849999999
 30
0.0
 40
3.25
  0
CIRCLE
  5
444
  8
PATTERN_FILL
  6
CONTINUOUS
 62
     7
 10
912.5
 20
-2962.0044849999999
 30
0.0
 40
3.25
  0
CIRCLE
  5
445
  8
PATTERN_FILL
  6
CONTINUOUS
 62
     7
 10
912.5
 20
-2976.0044849999999
 30
0.0
 40
3.25
  0
CIRCLE
  5
446
  8
PATTERN_FILL
  6
CONTINUOUS
 62
     7
 10
912.5
 20
-2990.0044849999999
 30
0.0
 40
3.25
  0
CIRCLE
  5
447
  8
PATTERN_FILL
  6
CONTINUOUS
 62
     7
 10
912.5
 20
-3004.0044849999999
 30
0.0
 40
3.25
  0
CIRCLE
  5
448
  8
PATTERN_FILL
  6
CONTINUOUS
 62
     7
 10
912.5
 20
-3018.0044849999999
 30
0.0
 40
3.25
  0
CIRCLE
  5
449
  8
PATTERN_FILL
  6
CONTINUOUS
 62
     7
 10
912.5
 20
-3032.0044849999999
 30
0.0
 40
3.25
  0
CIRCLE
  5
44A
  8
PATTERN_FILL
  6
CONTINUOUS
 62
     7
 10
912.5
 20
-3046.0044849999999
 30
0.0
 40
3.25
  0
CIRCLE
  5
44B
  8
PATTERN_FILL
  6
CONTINUOUS
 62
     7
 10
928.5
 20
-2850.0044849999999
 30
0.0
 40
3.25
  0
CIRCLE
  5
44C
  8
PATTERN_FILL
  6
CONTINUOUS
 62
     7
 10
928.5
 20
-2822.0044849999999
 30
0.0
 40
3.25
  0
CIRCLE
  5
44D
  8
PATTERN_FILL
  6
CONTINUOUS
 62
     7
 10
928.5
 20
-2808.0044849999999
 30
0.0
 40
3.25
  0
CIRCLE
  5
44E
  8
PATTERN_FILL
  6
CONTINUOUS
 62
     7
 10
928.5
 20
-2794.0044849999999
 30
0.0
 40
3.25
  0
CIRCLE
  5
44F
  8
PATTERN_FILL
  6
CONTINUOUS
 62
     7
 10
928.5
 20
-2780.0044849999999
 30
0.0
 40
3.25
  0
CIRCLE
  5
450
  8
PATTERN_FILL
  6
CONTINUOUS
 62
     7
 10
928.5
 20
-2766.0044849999999
 30
0.0
 40
3.25
  0
CIRCLE
  5
451
  8
PATTERN_FILL
  6
CONTINUOUS
 62
     7
 10
928.5
 20
-2752.0044849999999
 30
0.0
 40
3.25
  0
CIRCLE
  5
452
  8
PATTERN_FILL
  6
CONTINUOUS
 62
     7
 10
928.5
 20
-2738.0044849999999
 30
0.0
 40
3.25
  0
CIRCLE
  5
453
  8
PATTERN_FILL
  6
CONTINUOUS
 62
     7
 10
928.5
 20
-2724.0044849999999
 30
0.0
 40
3.25
  0
CIRCLE
  5
454
  8
PATTERN_FILL
  6
CONTINUOUS
 62
     7
 10
928.5
 20
-2710.0044849999999
 30
0.0
 40
3.25
  0
CIRCLE
  5
455
  8
PATTERN_FILL
  6
CONTINUOUS
 62
     7
 10
928.5
 20
-2696.0044849999999
 30
0.0
 40
3.25
  0
CIRCLE
  5
456
  8
PATTERN_FILL
  6
CONTINUOUS
 62
     7
 10
928.5
 20
-2682.0044849999999
 30
0.0
 40
3.25
  0
CIRCLE
  5
457
  8
PATTERN_FILL
  6
CONTINUOUS
 62
     7
 10
928.5
 20
-2668.0044849999999
 30
0.0
 40
3.25
  0
CIRCLE
  5
458
  8
PATTERN_FILL
  6
CONTINUOUS
 62
     7
 10
928.5
 20
-2654.0044849999999
 30
0.0
 40
3.25
  0
CIRCLE
  5
459
  8
PATTERN_FILL
  6
CONTINUOUS
 62
     7
 10
928.5
 20
-2640.0044849999999
 30
0.0
 40
3.25
  0
CIRCLE
  5
45A
  8
PATTERN_FILL
  6
CONTINUOUS
 62
     7
 10
928.5
 20
-2626.0044849999999
 30
0.0
 40
3.25
  0
CIRCLE
  5
45B
  8
PATTERN_FILL
  6
CONTINUOUS
 62
     7
 10
928.5
 20
-2864.0044849999999
 30
0.0
 40
3.25
  0
CIRCLE
  5
45C
  8
PATTERN_FILL
  6
CONTINUOUS
 62
     7
 10
928.5
 20
-2878.0044849999999
 30
0.0
 40
3.25
  0
CIRCLE
  5
45D
  8
PATTERN_FILL
  6
CONTINUOUS
 62
     7
 10
928.5
 20
-2892.0044849999999
 30
0.0
 40
3.25
  0
CIRCLE
  5
45E
  8
PATTERN_FILL
  6
CONTINUOUS
 62
     7
 10
928.5
 20
-2906.0044849999999
 30
0.0
 40
3.25
  0
CIRCLE
  5
45F
  8
PATTERN_FILL
  6
CONTINUOUS
 62
     7
 10
928.5
 20
-2920.0044849999999
 30
0.0
 40
3.25
  0
CIRCLE
  5
460
  8
PATTERN_FILL
  6
CONTINUOUS
 62
     7
 10
928.5
 20
-2934.0044849999999
 30
0.0
 40
3.25
  0
CIRCLE
  5
461
  8
PATTERN_FILL
  6
CONTINUOUS
 62
     7
 10
928.5
 20
-2948.0044849999999
 30
0.0
 40
3.25
  0
CIRCLE
  5
462
  8
PATTERN_FILL
  6
CONTINUOUS
 62
     7
 10
928.5
 20
-2962.0044849999999
 30
0.0
 40
3.25
  0
CIRCLE
  5
463
  8
PATTERN_FILL
  6
CONTINUOUS
 62
     7
 10
928.5
 20
-2976.0044849999999
 30
0.0
 40
3.25
  0
CIRCLE
  5
464
  8
PATTERN_FILL
  6
CONTINUOUS
 62
     7
 10
928.5
 20
-2990.0044849999999
 30
0.0
 40
3.25
  0
CIRCLE
  5
465
  8
PATTERN_FILL
  6
CONTINUOUS
 62
     7
 10
928.5
 20
-3004.0044849999999
 30
0.0
 40
3.25
  0
CIRCLE
  5
466
  8
PATTERN_FILL
  6
CONTINUOUS
 62
     7
 10
928.5
 20
-3018.0044849999999
 30
0.0
 40
3.25
  0
CIRCLE
  5
467
  8
PATTERN_FILL
  6
CONTINUOUS
 62
     7
 10
928.5
 20
-3032.0044849999999
 30
0.0
 40
3.25
  0
CIRCLE
  5
468
  8
PATTERN_FILL
  6
CONTINUOUS
 62
     7
 10
928.5
 20
-3046.0044849999999
 30
0.0
 40
3.25
  0
CIRCLE
  5
469
  8
PATTERN_FILL
  6
CONTINUOUS
 62
     7
 10
384.49999999999977
 20
-2850.0044849999999
 30
0.0
 40
3.25
  0
CIRCLE
  5
46A
  8
PATTERN_FILL
  6
CONTINUOUS
 62
     7
 10
384.49999999999977
 20
-2822.0044849999999
 30
0.0
 40
3.25
  0
CIRCLE
  5
46B
  8
PATTERN_FILL
  6
CONTINUOUS
 62
     7
 10
384.49999999999977
 20
-2808.0044849999999
 30
0.0
 40
3.25
  0
CIRCLE
  5
46C
  8
PATTERN_FILL
  6
CONTINUOUS
 62
     7
 10
384.49999999999977
 20
-2794.0044849999999
 30
0.0
 40
3.25
  0
CIRCLE
  5
46D
  8
PATTERN_FILL
  6
CONTINUOUS
 62
     7
 10
384.49999999999977
 20
-2780.0044849999999
 30
0.0
 40
3.25
  0
CIRCLE
  5
46E
  8
PATTERN_FILL
  6
CONTINUOUS
 62
     7
 10
384.49999999999977
 20
-2766.0044849999999
 30
0.0
 40
3.25
  0
CIRCLE
  5
46F
  8
PATTERN_FILL
  6
CONTINUOUS
 62
     7
 10
384.49999999999977
 20
-2752.0044849999999
 30
0.0
 40
3.25
  0
CIRCLE
  5
470
  8
PATTERN_FILL
  6
CONTINUOUS
 62
     7
 10
384.49999999999977
 20
-2738.0044849999999
 30
0.0
 40
3.25
  0
CIRCLE
  5
471
  8
PATTERN_FILL
  6
CONTINUOUS
 62
     7
 10
384.49999999999977
 20
-2724.0044849999999
 30
0.0
 40
3.25
  0
CIRCLE
  5
472
  8
PATTERN_FILL
  6
CONTINUOUS
 62
     7
 10
384.49999999999977
 20
-2710.0044849999999
 30
0.0
 40
3.25
  0
CIRCLE
  5
473
  8
PATTERN_FILL
  6
CONTINUOUS
 62
     7
 10
384.49999999999977
 20
-2696.0044849999999
 30
0.0
 40
3.25
  0
CIRCLE
  5
474
  8
PATTERN_FILL
  6
CONTINUOUS
 62
     7
 10
384.49999999999977
 20
-2682.0044849999999
 30
0.0
 40
3.25
  0
CIRCLE
  5
475
  8
PATTERN_FILL
  6
CONTINUOUS
 62
     7
 10
384.49999999999977
 20
-2668.0044849999999
 30
0.0
 40
3.25
  0
CIRCLE
  5
476
  8
PATTERN_FILL
  6
CONTINUOUS
 62
     7
 10
384.49999999999977
 20
-2654.0044849999999
 30
0.0
 40
3.25
  0
CIRCLE
  5
477
  8
PATTERN_FILL
  6
CONTINUOUS
 62
     7
 10
384.49999999999977
 20
-2640.0044849999999
 30
0.0
 40
3.25
  0
CIRCLE
  5
478
  8
PATTERN_FILL
  6
CONTINUOUS
 62
     7
 10
384.49999999999977
 20
-2626.0044849999999
 30
0.0
 40
3.25
  0
CIRCLE
  5
479
  8
PATTERN_FILL
  6
CONTINUOUS
 62
     7
 10
384.49999999999977
 20
-2864.0044849999999
 30
0.0
 40
3.25
  0
CIRCLE
  5
47A
  8
PATTERN_FILL
  6
CONTINUOUS
 62
     7
 10
384.49999999999977
 20
-2878.0044849999999
 30
0.0
 40
3.25
  0
CIRCLE
  5
47B
  8
PATTERN_FILL
  6
CONTINUOUS
 62
     7
 10
384.49999999999977
 20
-2892.0044849999999
 30
0.0
 40
3.25
  0
CIRCLE
  5
47C
  8
PATTERN_FILL
  6
CONTINUOUS
 62
     7
 10
384.49999999999977
 20
-2906.0044849999999
 30
0.0
 40
3.25
  0
CIRCLE
  5
47D
  8
PATTERN_FILL
  6
CONTINUOUS
 62
     7
 10
384.49999999999977
 20
-2920.0044849999999
 30
0.0
 40
3.25
  0
CIRCLE
  5
47E
  8
PATTERN_FILL
  6
CONTINUOUS
 62
     7
 10
384.49999999999977
 20
-2934.0044849999999
 30
0.0
 40
3.25
  0
CIRCLE
  5
47F
  8
PATTERN_FILL
  6
CONTINUOUS
 62
     7
 10
384.49999999999977
 20
-2948.0044849999999
 30
0.0
 40
3.25
  0
CIRCLE
  5
480
  8
PATTERN_FILL
  6
CONTINUOUS
 62
     7
 10
384.49999999999977
 20
-2962.0044849999999
 30
0.0
 40
3.25
  0
CIRCLE
  5
481
  8
PATTERN_FILL
  6
CONTINUOUS
 62
     7
 10
384.49999999999977
 20
-2976.0044849999999
 30
0.0
 40
3.25
  0
CIRCLE
  5
482
  8
PATTERN_FILL
  6
CONTINUOUS
 62
     7
 10
384.49999999999977
 20
-2990.0044849999999
 30
0.0
 40
3.25
  0
CIRCLE
  5
483
  8
PATTERN_FILL
  6
CONTINUOUS
 62
     7
 10
384.49999999999977
 20
-3004.0044849999999
 30
0.0
 40
3.25
  0
CIRCLE
  5
484
  8
PATTERN_FILL
  6
CONTINUOUS
 62
     7
 10
384.49999999999977
 20
-3018.0044849999999
 30
0.0
 40
3.25
  0
CIRCLE
  5
485
  8
PATTERN_FILL
  6
CONTINUOUS
 62
     7
 10
384.49999999999977
 20
-3032.0044849999999
 30
0.0
 40
3.25
  0
CIRCLE
  5
486
  8
PATTERN_FILL
  6
CONTINUOUS
 62
     7
 10
384.49999999999977
 20
-3046.0044849999999
 30
0.0
 40
3.25
  0
CIRCLE
  5
487
  8
PATTERN_FILL
  6
CONTINUOUS
 62
     7
 10
368.49999999999977
 20
-2850.0044849999999
 30
0.0
 40
3.25
  0
CIRCLE
  5
488
  8
PATTERN_FILL
  6
CONTINUOUS
 62
     7
 10
368.49999999999977
 20
-2822.0044849999999
 30
0.0
 40
3.25
  0
CIRCLE
  5
489
  8
PATTERN_FILL
  6
CONTINUOUS
 62
     7
 10
368.49999999999977
 20
-2808.0044849999999
 30
0.0
 40
3.25
  0
CIRCLE
  5
48A
  8
PATTERN_FILL
  6
CONTINUOUS
 62
     7
 10
368.49999999999977
 20
-2794.0044849999999
 30
0.0
 40
3.25
  0
CIRCLE
  5
48B
  8
PATTERN_FILL
  6
CONTINUOUS
 62
     7
 10
368.49999999999977
 20
-2780.0044849999999
 30
0.0
 40
3.25
  0
CIRCLE
  5
48C
  8
PATTERN_FILL
  6
CONTINUOUS
 62
     7
 10
368.49999999999977
 20
-2766.0044849999999
 30
0.0
 40
3.25
  0
CIRCLE
  5
48D
  8
PATTERN_FILL
  6
CONTINUOUS
 62
     7
 10
368.49999999999977
 20
-2752.0044849999999
 30
0.0
 40
3.25
  0
CIRCLE
  5
48E
  8
PATTERN_FILL
  6
CONTINUOUS
 62
     7
 10
368.49999999999977
 20
-2738.0044849999999
 30
0.0
 40
3.25
  0
CIRCLE
  5
48F
  8
PATTERN_FILL
  6
CONTINUOUS
 62
     7
 10
368.49999999999977
 20
-2724.0044849999999
 30
0.0
 40
3.25
  0
CIRCLE
  5
490
  8
PATTERN_FILL
  6
CONTINUOUS
 62
     7
 10
368.49999999999977
 20
-2710.0044849999999
 30
0.0
 40
3.25
  0
CIRCLE
  5
491
  8
PATTERN_FILL
  6
CONTINUOUS
 62
     7
 10
368.49999999999977
 20
-2696.0044849999999
 30
0.0
 40
3.25
  0
CIRCLE
  5
492
  8
PATTERN_FILL
  6
CONTINUOUS
 62
     7
 10
368.49999999999977
 20
-2682.0044849999999
 30
0.0
 40
3.25
  0
CIRCLE
  5
493
  8
PATTERN_FILL
  6
CONTINUOUS
 62
     7
 10
368.49999999999977
 20
-2668.0044849999999
 30
0.0
 40
3.25
  0
CIRCLE
  5
494
  8
PATTERN_FILL
  6
CONTINUOUS
 62
     7
 10
368.49999999999977
 20
-2654.0044849999999
 30
0.0
 40
3.25
  0
CIRCLE
  5
495
  8
PATTERN_FILL
  6
CONTINUOUS
 62
     7
 10
368.49999999999977
 20
-2640.0044849999999
 30
0.0
 40
3.25
  0
CIRCLE
  5
496
  8
PATTERN_FILL
  6
CONTINUOUS
 62
     7
 10
368.49999999999977
 20
-2626.0044849999999
 30
0.0
 40
3.25
  0
CIRCLE
  5
497
  8
PATTERN_FILL
  6
CONTINUOUS
 62
     7
 10
368.49999999999977
 20
-2864.0044849999999
 30
0.0
 40
3.25
  0
CIRCLE
  5
498
  8
PATTERN_FILL
  6
CONTINUOUS
 62
     7
 10
368.49999999999977
 20
-2878.0044849999999
 30
0.0
 40
3.25
  0
CIRCLE
  5
499
  8
PATTERN_FILL
  6
CONTINUOUS
 62
     7
 10
368.49999999999977
 20
-2892.0044849999999
 30
0.0
 40
3.25
  0
CIRCLE
  5
49A
  8
PATTERN_FILL
  6
CONTINUOUS
 62
     7
 10
368.49999999999977
 20
-2906.0044849999999
 30
0.0
 40
3.25
  0
CIRCLE
  5
49B
  8
PATTERN_FILL
  6
CONTINUOUS
 62
     7
 10
368.49999999999977
 20
-2920.0044849999999
 30
0.0
 40
3.25
  0
CIRCLE
  5
49C
  8
PATTERN_FILL
  6
CONTINUOUS
 62
     7
 10
368.49999999999977
 20
-2934.0044849999999
 30
0.0
 40
3.25
  0
CIRCLE
  5
49D
  8
PATTERN_FILL
  6
CONTINUOUS
 62
     7
 10
368.49999999999977
 20
-2948.0044849999999
 30
0.0
 40
3.25
  0
CIRCLE
  5
49E
  8
PATTERN_FILL
  6
CONTINUOUS
 62
     7
 10
368.49999999999977
 20
-2962.0044849999999
 30
0.0
 40
3.25
  0
CIRCLE
  5
49F
  8
PATTERN_FILL
  6
CONTINUOUS
 62
     7
 10
368.49999999999977
 20
-2976.0044849999999
 30
0.0
 40
3.25
  0
CIRCLE
  5
4A0
  8
PATTERN_FILL
  6
CONTINUOUS
 62
     7
 10
368.49999999999977
 20
-2990.0044849999999
 30
0.0
 40
3.25
  0
CIRCLE
  5
4A1
  8
PATTERN_FILL
  6
CONTINUOUS
 62
     7
 10
368.49999999999977
 20
-3004.0044849999999
 30
0.0
 40
3.25
  0
CIRCLE
  5
4A2
  8
PATTERN_FILL
  6
CONTINUOUS
 62
     7
 10
368.49999999999977
 20
-3018.0044849999999
 30
0.0
 40
3.25
  0
CIRCLE
  5
4A3
  8
PATTERN_FILL
  6
CONTINUOUS
 62
     7
 10
368.49999999999977
 20
-3032.0044849999999
 30
0.0
 40
3.25
  0
CIRCLE
  5
4A4
  8
PATTERN_FILL
  6
CONTINUOUS
 62
     7
 10
368.49999999999977
 20
-3046.0044849999999
 30
0.0
 40
3.25
  0
CIRCLE
  5
4A5
  8
PATTERN_FILL
  6
CONTINUOUS
 62
     7
 10
1160.0
 20
-2850.0044849999999
 30
0.0
 40
3.25
  0
CIRCLE
  5
4A6
  8
PATTERN_FILL
  6
CONTINUOUS
 62
     7
 10
1160.0
 20
-2822.0044849999999
 30
0.0
 40
3.25
  0
CIRCLE
  5
4A7
  8
PATTERN_FILL
  6
CONTINUOUS
 62
     7
 10
1160.0
 20
-2808.0044849999999
 30
0.0
 40
3.25
  0
CIRCLE
  5
4A8
  8
PATTERN_FILL
  6
CONTINUOUS
 62
     7
 10
1160.0
 20
-2794.0044849999999
 30
0.0
 40
3.25
  0
CIRCLE
  5
4A9
  8
PATTERN_FILL
  6
CONTINUOUS
 62
     7
 10
1160.0
 20
-2780.0044849999999
 30
0.0
 40
3.25
  0
CIRCLE
  5
4AA
  8
PATTERN_FILL
  6
CONTINUOUS
 62
     7
 10
1160.0
 20
-2766.0044849999999
 30
0.0
 40
3.25
  0
CIRCLE
  5
4AB
  8
PATTERN_FILL
  6
CONTINUOUS
 62
     7
 10
1160.0
 20
-2752.0044849999999
 30
0.0
 40
3.25
  0
CIRCLE
  5
4AC
  8
PATTERN_FILL
  6
CONTINUOUS
 62
     7
 10
1160.0
 20
-2738.0044849999999
 30
0.0
 40
3.25
  0
CIRCLE
  5
4AD
  8
PATTERN_FILL
  6
CONTINUOUS
 62
     7
 10
1160.0
 20
-2724.0044849999999
 30
0.0
 40
3.25
  0
CIRCLE
  5
4AE
  8
PATTERN_FILL
  6
CONTINUOUS
 62
     7
 10
1160.0
 20
-2710.0044849999999
 30
0.0
 40
3.25
  0
CIRCLE
  5
4AF
  8
PATTERN_FILL
  6
CONTINUOUS
 62
     7
 10
1160.0
 20
-2696.0044849999999
 30
0.0
 40
3.25
  0
CIRCLE
  5
4B0
  8
PATTERN_FILL
  6
CONTINUOUS
 62
     7
 10
1160.0
 20
-2682.0044849999999
 30
0.0
 40
3.25
  0
CIRCLE
  5
4B1
  8
PATTERN_FILL
  6
CONTINUOUS
 62
     7
 10
1160.0
 20
-2668.0044849999999
 30
0.0
 40
3.25
  0
CIRCLE
  5
4B2
  8
PATTERN_FILL
  6
CONTINUOUS
 62
     7
 10
1160.0
 20
-2654.0044849999999
 30
0.0
 40
3.25
  0
CIRCLE
  5
4B3
  8
PATTERN_FILL
  6
CONTINUOUS
 62
     7
 10
1160.0
 20
-2640.0044849999999
 30
0.0
 40
3.25
  0
CIRCLE
  5
4B4
  8
PATTERN_FILL
  6
CONTINUOUS
 62
     7
 10
1160.0
 20
-2626.0044849999999
 30
0.0
 40
3.25
  0
CIRCLE
  5
4B5
  8
PATTERN_FILL
  6
CONTINUOUS
 62
     7
 10
1160.0
 20
-2864.0044849999999
 30
0.0
 40
3.25
  0
CIRCLE
  5
4B6
  8
PATTERN_FILL
  6
CONTINUOUS
 62
     7
 10
1160.0
 20
-2878.0044849999999
 30
0.0
 40
3.25
  0
CIRCLE
  5
4B7
  8
PATTERN_FILL
  6
CONTINUOUS
 62
     7
 10
1160.0
 20
-2892.0044849999999
 30
0.0
 40
3.25
  0
CIRCLE
  5
4B8
  8
PATTERN_FILL
  6
CONTINUOUS
 62
     7
 10
1160.0
 20
-2906.0044849999999
 30
0.0
 40
3.25
  0
CIRCLE
  5
4B9
  8
PATTERN_FILL
  6
CONTINUOUS
 62
     7
 10
1160.0
 20
-2920.0044849999999
 30
0.0
 40
3.25
  0
CIRCLE
  5
4BA
  8
PATTERN_FILL
  6
CONTINUOUS
 62
     7
 10
1160.0
 20
-2934.0044849999999
 30
0.0
 40
3.25
  0
CIRCLE
  5
4BB
  8
PATTERN_FILL
  6
CONTINUOUS
 62
     7
 10
1160.0
 20
-2948.0044849999999
 30
0.0
 40
3.25
  0
CIRCLE
  5
4BC
  8
PATTERN_FILL
  6
CONTINUOUS
 62
     7
 10
1160.0
 20
-2962.0044849999999
 30
0.0
 40
3.25
  0
CIRCLE
  5
4BD
  8
PATTERN_FILL
  6
CONTINUOUS
 62
     7
 10
1160.0
 20
-2976.0044849999999
 30
0.0
 40
3.25
  0
CIRCLE
  5
4BE
  8
PATTERN_FILL
  6
CONTINUOUS
 62
     7
 10
1160.0
 20
-2990.0044849999999
 30
0.0
 40
3.25
  0
CIRCLE
  5
4BF
  8
PATTERN_FILL
  6
CONTINUOUS
 62
     7
 10
1160.0
 20
-3004.0044849999999
 30
0.0
 40
3.25
  0
CIRCLE
  5
4C0
  8
PATTERN_FILL
  6
CONTINUOUS
 62
     7
 10
1160.0
 20
-3018.0044849999999
 30
0.0
 40
3.25
  0
CIRCLE
  5
4C1
  8
PATTERN_FILL
  6
CONTINUOUS
 62
     7
 10
1160.0
 20
-3032.0044849999999
 30
0.0
 40
3.25
  0
CIRCLE
  5
4C2
  8
PATTERN_FILL
  6
CONTINUOUS
 62
     7
 10
1160.0
 20
-3046.0044849999999
 30
0.0
 40
3.25
  0
LINE
  5
4C3
  8
DIMNSIONS
  6
CONTINUOUS
 62
     7
 10
350.0499999999999
 20
-3122.0044849999999
 30
0.0
 11
350.0499999999999
 21
-3330.0044849999999
 31
0.0
  0
LINE
  5
4C4
  8
DIMNSIONS
  6
CONTINUOUS
 62
     7
 10
946.94999999999982
 20
-3122.0044849999999
 30
0.0
 11
946.94999999999982
 21
-3330.0044849999999
 31
0.0
  0
LINE
  5
4C5
  8
DIMNSIONS
  6
CONTINUOUS
 62
     7
 10
350.0499999999999
 20
-3290.0044849999999
 30
0.0
 11
946.94999999999982
 21
-3290.0044849999999
 31
0.0
  0
LINE
  5
4C6
  8
DIMNSIONS
  6
CONTINUOUS
 62
     7
 10
350.0499999999999
 20
-3290.0044849999999
 30
0.0
 11
413.55000000000001
 21
-3272.9897112806239
 31
0.0
  0
LINE
  5
4C7
  8
DIMNSIONS
  6
CONTINUOUS
 62
     7
 10
350.0499999999999
 20
-3290.0044849999999
 30
0.0
 11
413.55000000000001
 21
-3307.019258719376
 31
0.0
  0
LINE
  5
4C8
  8
DIMNSIONS
  6
CONTINUOUS
 62
     7
 10
946.94999999999982
 20
-3290.0044849999999
 30
0.0
 11
883.44999999999982
 21
-3307.019258719376
 31
0.0
  0
LINE
  5
4C9
  8
DIMNSIONS
  6
CONTINUOUS
 62
     7
 10
946.94999999999982
 20
-3290.0044849999999
 30
0.0
 11
883.44999999999982
 21
-3272.9897112806239
 31
0.0
  0
TEXT
  5
4CA
  8
DIMNSIONS
 62
     7
 10
595.58333333333314
 20
-3270.1267072222231
 30
0.0
 40
54.294704861111107
  1
597
 41
0.8
 11
595.58333333333314
 21
-3215.8320023611109
 31
0.0
 73
     3
  0
LINE
  5
4CB
  8
DIMNSIONS
  6
CONTINUOUS
 62
     7
 10
318.0499999999999
 20
-2582.0044849999999
 30
0.0
 11
110.05
 21
-2582.0044849999999
 31
0.0
  0
LINE
  5
4CC
  8
DIMNSIONS
  6
CONTINUOUS
 62
     7
 10
318.0499999999999
 20
-3090.0044849999999
 30
0.0
 11
110.05
 21
-3090.0044849999999
 31
0.0
  0
LINE
  5
4CD
  8
DIMNSIONS
  6
CONTINUOUS
 62
     7
 10
150.0499999999999
 20
-2582.0044849999999
 30
0.0
 11
150.0499999999999
 21
-3090.0044849999999
 31
0.0
  0
LINE
  5
4CE
  8
DIMNSIONS
  6
CONTINUOUS
 62
     7
 10
150.0499999999999
 20
-2582.0044849999999
 30
0.0
 11
167.06477371937621
 21
-2645.5044849999999
 31
0.0
  0
LINE
  5
4CF
  8
DIMNSIONS
  6
CONTINUOUS
 62
     7
 10
150.0499999999999
 20
-2582.0044849999999
 30
0.0
 11
133.03522628062359
 21
-2645.5044849999999
 31
0.0
  0
LINE
  5
4D0
  8
DIMNSIONS
  6
CONTINUOUS
 62
     7
 10
150.0499999999999
 20
-3090.0044849999999
 30
0.0
 11
133.03522628062359
 21
-3026.5044849999999
 31
0.0
  0
LINE
  5
4D1
  8
DIMNSIONS
  6
CONTINUOUS
 62
     7
 10
150.0499999999999
 20
-3090.0044849999999
 30
0.0
 11
167.06477371937621
 21
-3026.5044849999999
 31
0.0
  0
TEXT
  5
4D2
  8
DIMNSIONS
 62
     7
 10
130.17222222222199
 20
-2888.921151666666
 30
0.0
 40
54.294704861111107
  1
508
 50
90.0
 41
0.8
 11
75.877517361110904
 21
-2888.921151666666
 31
0.0
 73
     3
  0
LINE
  5
4D3
  8
DIMNSIONS
  6
CONTINUOUS
 62
     7
 10
1150.05
 20
-3122.0044849999999
 30
0.0
 11
1150.05
 21
-3330.0044849999999
 31
0.0
  0
LINE
  5
4D4
  8
DIMNSIONS
  6
CONTINUOUS
 62
     7
 10
1899.3499999999999
 20
-3122.0044849999999
 30
0.0
 11
1899.3499999999999
 21
-3330.0044849999999
 31
0.0
  0
LINE
  5
4D5
  8
DIMNSIONS
  6
CONTINUOUS
 62
     7
 10
1150.05
 20
-3290.0044849999999
 30
0.0
 11
1899.3499999999999
 21
-3290.0044849999999
 31
0.0
  0
LINE
  5
4D6
  8
DIMNSIONS
  6
CONTINUOUS
 62
     7
 10
1150.05
 20
-3290.0044849999999
 30
0.0
 11
1213.55
 21
-3272.9897112806239
 31
0.0
  0
LINE
  5
4D7
  8
DIMNSIONS
  6
CONTINUOUS
 62
     7
 10
1150.05
 20
-3290.0044849999999
 30
0.0
 11
1213.55
 21
-3307.019258719376
 31
0.0
  0
LINE
  5
4D8
  8
DIMNSIONS
  6
CONTINUOUS
 62
     7
 10
1899.3499999999999
 20
-3290.0044849999999
 30
0.0
 11
1835.8499999999999
 21
-3307.019258719376
 31
0.0
  0
LINE
  5
4D9
  8
DIMNSIONS
  6
CONTINUOUS
 62
     7
 10
1899.3499999999999
 20
-3290.0044849999999
 30
0.0
 11
1835.8499999999999
 21
-3272.9897112806239
 31
0.0
  0
TEXT
  5
4DA
  8
DIMNSIONS
 62
     7
 10
1471.7833333333331
 20
-3270.1267072222231
 30
0.0
 40
54.294704861111107
  1
749
 41
0.8
 11
1471.7833333333331
 21
-3215.8320023611109
 31
0.0
 73
     3
  0
LINE
  5
4DB
  8
DIMNSIONS
  6
CONTINUOUS
 62
     7
 10
335.24999999999972
 20
-3090.0044849999999
 30
0.0
 11
110.05
 21
-3090.0044849999999
 31
0.0
  0
LINE
  5
4DC
  8
DIMNSIONS
  6
CONTINUOUS
 62
     7
 10
335.24999999999972
 20
-3095.0044849999999
 30
0.0
 11
110.05
 21
-3095.0044849999999
 31
0.0
  0
LINE
  5
4DD
  8
DIMNSIONS
  6
CONTINUOUS
 62
     7
 10
150.0499999999999
 20
-3095.0044849999999
 30
0.0
 11
150.0499999999999
 21
-3090.0044849999999
 31
0.0
  0
LINE
  5
4DE
  8
DIMNSIONS
  6
CONTINUOUS
 62
     7
 10
150.0499999999999
 20
-3090.0044849999999
 30
0.0
 11
150.0499999999999
 21
-3029.7267072222221
 31
0.0
  0
LINE
  5
4DF
  8
DIMNSIONS
  6
CONTINUOUS
 62
     7
 10
150.0499999999999
 20
-3090.0044849999999
 30
0.0
 11
133.03522628062359
 21
-3026.5044849999999
 31
0.0
  0
LINE
  5
4E0
  8
DIMNSIONS
  6
CONTINUOUS
 62
     7
 10
150.0499999999999
 20
-3090.0044849999999
 30
0.0
 11
167.06477371937621
 21
-3026.5044849999999
 31
0.0
  0
LINE
  5
4E1
  8
DIMNSIONS
  6
CONTINUOUS
 62
     7
 10
150.0499999999999
 20
-3095.0044849999999
 30
0.0
 11
150.0499999999999
 21
-3195.0044849999999
 31
0.0
  0
LINE
  5
4E2
  8
DIMNSIONS
  6
CONTINUOUS
 62
     7
 10
150.0499999999999
 20
-3095.0044849999999
 30
0.0
 11
167.06477371937621
 21
-3158.5044849999999
 31
0.0
  0
LINE
  5
4E3
  8
DIMNSIONS
  6
CONTINUOUS
 62
     7
 10
150.0499999999999
 20
-3095.0044849999999
 30
0.0
 11
133.03522628062359
 21
-3158.5044849999999
 31
0.0
  0
TEXT
  5
4E4
  8
DIMNSIONS
 62
     7
 10
130.17222222222199
 20
-3065.0044849999999
 30
0.0
 40
54.294704861111107
  1
5
 50
90.0
 41
0.8
 11
75.877517361110904
 21
-3065.0044849999999
 31
0.0
 73
     3
  0
TEXT
  5
4E5
  8
DATA
 62
     7
 10
2650.0
 20
-4744.8168149999992
 30
0.0
 40
32.576822916666671
  1
サブウーファ
 41
0.8
 11
2650.0
 21
-4712.2399920833323
 31
0.0
 73
     3
  0
TEXT
  5
4E6
  8
DATA
 62
     7
 10
2650.0
 20
-4675.2777150000002
 30
0.0
 40
48.865234375000007
  1
JBL
 41
0.8
 11
2650.0
 21
-4626.4124806250002
 31
0.0
 73
     3
  0
TEXT
  5
4E7
  8
DATA
 62
     7
 10
50.0
 20
-4958.1355149999999
 30
0.0
 40
32.576822916666671
  1
仕様および外観は予告なく変更されることがありますので、ご了承ください。
 41
0.8
 11
50.0
 21
-4925.558692083333
 31
0.0
 73
     3
  0
TEXT
  5
4E8
  8
DATA
 62
     7
 10
2650.0
 20
-4820.2777150000002
 30
0.0
 40
48.865234375000007
  1
SRX718S
 41
0.8
 11
2650.0
 21
-4771.4124806250002
 31
0.0
 73
     3
  0
LINE
  5
4E9
  8
DATA
  6
CONTINUOUS
 62
     7
 10
358.0499999999999
 20
-3090.0044849999999
 30
0.0
 11
938.94999999999982
 21
-3090.0044849999999
 31
0.0
  0
LINE
  5
4EA
  8
DATA
  6
CONTINUOUS
 62
     7
 10
350.0499999999999
 20
-3071.0044849999999
 30
0.0
 11
946.94999999999982
 21
-3071.0044849999999
 31
0.0
  0
LINE
  5
4EB
  8
DATA
  6
CONTINUOUS
 62
     7
 10
350.0499999999999
 20
-2601.0044849999999
 30
0.0
 11
946.94999999999982
 21
-2601.0044849999999
 31
0.0
  0
LINE
  5
4EC
  8
DATA
  6
CONTINUOUS
 62
     7
 10
389.05000000000001
 20
-2582.0044849999999
 30
0.0
 11
389.05000000000001
 21
-3090.0044849999999
 31
0.0
  0
LINE
  5
4ED
  8
DATA
  6
CONTINUOUS
 62
     7
 10
907.9499999999997
 20
-2582.0044849999999
 30
0.0
 11
907.9499999999997
 21
-3090.0044849999999
 31
0.0
  0
POLYLINE
  5
4EE
  8
DATA
  6
CONTINUOUS
 62
     7
 66
     1
 10
0.0
 20
0.0
 30
0.0
 70
     1
  0
VERTEX
  5
706
  8
DATA
  6
CONTINUOUS
 62
     7
 10
620.49999999999977
 20
-2813.5044849999999
 30
0.0
  0
VERTEX
  5
707
  8
DATA
  6
CONTINUOUS
 62
     7
 10
676.49999999999966
 20
-2813.5044849999999
 30
0.0
  0
VERTEX
  5
708
  8
DATA
  6
CONTINUOUS
 62
     7
 10
676.49999999999966
 20
-2858.5044849999999
 30
0.0
  0
VERTEX
  5
709
  8
DATA
  6
CONTINUOUS
 62
     7
 10
620.49999999999977
 20
-2858.5044849999999
 30
0.0
  0
SEQEND
  5
70A
  8
DATA
  6
CONTINUOUS
 62
     7
  0
CIRCLE
  5
4F4
  8
DATA
  6
CONTINUOUS
 62
     7
 10
485.99999999999972
 20
-2610.0044849999999
 30
0.0
 40
3.4999999999998681
  0
LINE
  5
4F5
  8
DATA
  6
CONTINUOUS
 62
     7
 10
487.99999999999977
 20
-2610.0044849999999
 30
0.0
 11
483.99999999999977
 21
-2610.0044849999999
 31
0.0
  0
LINE
  5
4F6
  8
DATA
  6
CONTINUOUS
 62
     7
 10
485.99999999999972
 20
-2608.0044849999999
 30
0.0
 11
485.99999999999972
 21
-2612.0044849999999
 31
0.0
  0
CIRCLE
  5
4F7
  8
DATA
  6
CONTINUOUS
 62
     7
 10
810.99999999999955
 20
-2610.0044849999999
 30
0.0
 40
3.4999999999998681
  0
LINE
  5
4F8
  8
DATA
  6
CONTINUOUS
 62
     7
 10
808.99999999999955
 20
-2610.0044849999999
 30
0.0
 11
812.99999999999966
 21
-2610.0044849999999
 31
0.0
  0
LINE
  5
4F9
  8
DATA
  6
CONTINUOUS
 62
     7
 10
810.99999999999955
 20
-2608.0044849999999
 30
0.0
 11
810.99999999999955
 21
-2612.0044849999999
 31
0.0
  0
CIRCLE
  5
4FA
  8
DATA
  6
CONTINUOUS
 62
     7
 10
485.99999999999972
 20
-3062.0044849999999
 30
0.0
 40
3.4999999999998681
  0
LINE
  5
4FB
  8
DATA
  6
CONTINUOUS
 62
     7
 10
487.99999999999977
 20
-3062.0044849999999
 30
0.0
 11
483.99999999999977
 21
-3062.0044849999999
 31
0.0
  0
LINE
  5
4FC
  8
DATA
  6
CONTINUOUS
 62
     7
 10
485.99999999999972
 20
-3064.0044849999999
 30
0.0
 11
485.99999999999972
 21
-3060.0044849999999
 31
0.0
  0
CIRCLE
  5
4FD
  8
DATA
  6
CONTINUOUS
 62
     7
 10
810.99999999999955
 20
-3062.0044849999999
 30
0.0
 40
3.4999999999998681
  0
LINE
  5
4FE
  8
DATA
  6
CONTINUOUS
 62
     7
 10
808.99999999999955
 20
-3062.0044849999999
 30
0.0
 11
812.99999999999966
 21
-3062.0044849999999
 31
0.0
  0
LINE
  5
4FF
  8
DATA
  6
CONTINUOUS
 62
     7
 10
810.99999999999955
 20
-3064.0044849999999
 30
0.0
 11
810.99999999999955
 21
-3060.0044849999999
 31
0.0
  0
LINE
  5
500
  8
DATA
  6
CONTINUOUS
 62
     7
 10
375.24999999999977
 20
-3095.0044849999999
 30
0.0
 11
412.74999999999972
 21
-3095.0044849999999
 31
0.0
  0
LINE
  5
501
  8
DATA
  6
CONTINUOUS
 62
     7
 10
375.24999999999977
 20
-3095.0044849999999
 30
0.0
 11
375.24999999999977
 21
-3090.0044849999999
 31
0.0
  0
LINE
  5
502
  8
DATA
  6
CONTINUOUS
 62
     7
 10
412.74999999999972
 20
-3095.0044849999999
 30
0.0
 11
412.74999999999972
 21
-3090.0044849999999
 31
0.0
  0
LINE
  5
503
  8
DATA
  6
CONTINUOUS
 62
     7
 10
884.24999999999966
 20
-3095.0044849999999
 30
0.0
 11
921.74999999999966
 21
-3095.0044849999999
 31
0.0
  0
LINE
  5
504
  8
DATA
  6
CONTINUOUS
 62
     7
 10
884.24999999999966
 20
-3095.0044849999999
 30
0.0
 11
884.24999999999966
 21
-3090.0044849999999
 31
0.0
  0
LINE
  5
505
  8
DATA
  6
CONTINUOUS
 62
     7
 10
921.74999999999966
 20
-3095.0044849999999
 30
0.0
 11
921.74999999999966
 21
-3090.0044849999999
 31
0.0
  0
CIRCLE
  5
506
  8
DATA
  6
CONTINUOUS
 62
     7
 10
393.99999999999977
 20
-2327.0044849999999
 30
0.0
 40
21.00000000000005
  0
CIRCLE
  5
507
  8
DATA
  6
CONTINUOUS
 62
     7
 10
393.99999999999977
 20
-1690.0044849999999
 30
0.0
 40
20.999999999999972
  0
CIRCLE
  5
508
  8
DATA
  6
CONTINUOUS
 62
     7
 10
902.99999999999966
 20
-2327.0044849999999
 30
0.0
 40
21.000000000000028
  0
CIRCLE
  5
509
  8
DATA
  6
CONTINUOUS
 62
     7
 10
902.99999999999966
 20
-1690.0044849999999
 30
0.0
 40
21.000000000000011
  0
CIRCLE
  5
50A
  8
DATA
  6
CONTINUOUS
 62
     7
 10
648.49999999999966
 20
-2135.0044849999999
 30
0.0
 40
51.5
  0
CIRCLE
  5
50B
  8
DATA
  6
CONTINUOUS
 62
     7
 10
648.49999999999966
 20
-2135.0044849999999
 30
0.0
 40
9.25
  0
CIRCLE
  5
50C
  8
DATA
  6
CONTINUOUS
 62
     7
 10
620.21572875253787
 20
-2106.7202137525378
 30
0.0
 40
5.5
  0
LINE
  5
50D
  8
DATA
  6
CONTINUOUS
 62
     7
 10
616.71572875253787
 20
-2106.7202137525378
 30
0.0
 11
623.71572875253776
 21
-2106.7202137525378
 31
0.0
  0
LINE
  5
50E
  8
DATA
  6
CONTINUOUS
 62
     7
 10
620.21572875253787
 20
-2110.2202137525378
 30
0.0
 11
620.21572875253787
 21
-2103.2202137525392
 31
0.0
  0
CIRCLE
  5
50F
  8
DATA
  6
CONTINUOUS
 62
     7
 10
620.21572875253787
 20
-2163.2887562474621
 30
0.0
 40
5.5
  0
LINE
  5
510
  8
DATA
  6
CONTINUOUS
 62
     7
 10
620.21572875253787
 20
-2166.7887562474612
 30
0.0
 11
620.21572875253787
 21
-2159.7887562474621
 31
0.0
  0
LINE
  5
511
  8
DATA
  6
CONTINUOUS
 62
     7
 10
623.71572875253776
 20
-2163.2887562474621
 30
0.0
 11
616.71572875253787
 21
-2163.2887562474621
 31
0.0
  0
CIRCLE
  5
512
  8
DATA
  6
CONTINUOUS
 62
     7
 10
676.78427124746156
 20
-2163.2887562474621
 30
0.0
 40
5.5
  0
LINE
  5
513
  8
DATA
  6
CONTINUOUS
 62
     7
 10
680.28427124746167
 20
-2163.2887562474621
 30
0.0
 11
673.28427124746156
 21
-2163.2887562474621
 31
0.0
  0
LINE
  5
514
  8
DATA
  6
CONTINUOUS
 62
     7
 10
676.78427124746156
 20
-2159.7887562474621
 30
0.0
 11
676.78427124746156
 21
-2166.7887562474612
 31
0.0
  0
CIRCLE
  5
515
  8
DATA
  6
CONTINUOUS
 62
     7
 10
676.78427124746156
 20
-2106.7202137525378
 30
0.0
 40
5.5
  0
LINE
  5
516
  8
DATA
  6
CONTINUOUS
 62
     7
 10
676.78427124746156
 20
-2103.2202137525392
 30
0.0
 11
676.78427124746156
 21
-2110.2202137525378
 31
0.0
  0
LINE
  5
517
  8
DATA
  6
CONTINUOUS
 62
     7
 10
673.28427124746156
 20
-2106.7202137525378
 30
0.0
 11
680.28427124746167
 21
-2106.7202137525378
 31
0.0
  0
ARC
  5
518
  8
DATA
  6
CONTINUOUS
 62
     7
 10
386.99999999999977
 20
-1647.2122975
 30
0.0
 40
10.5078125
 50
38.267286411810957
 51
141.732713588189
  0
ARC
  5
519
  8
DATA
  6
CONTINUOUS
 62
     7
 10
466.99999999999977
 20
-1647.2122975
 30
0.0
 40
10.5078125
 50
38.267286411810957
 51
141.732713588189
  0
ARC
  5
51A
  8
DATA
  6
CONTINUOUS
 62
     7
 10
828.99999999999966
 20
-1647.2122975
 30
0.0
 40
10.5078125
 50
38.267286411810957
 51
141.732713588189
  0
ARC
  5
51B
  8
DATA
  6
CONTINUOUS
 62
     7
 10
908.99999999999955
 20
-1647.2122975
 30
0.0
 40
10.5078125
 50
38.267286411810957
 51
141.732713588189
  0
LINE
  5
51C
  8
DATA
  6
CONTINUOUS
 62
     7
 10
2370.1711891342538
 20
-3257.0044850000559
 30
0.0
 11
3070.1711891342552
 21
-3257.0044850000559
 31
0.0
  0
TEXT
  5
51D
  8
DATA
 62
     7
 10
2416.7803939870819
 20
-3235.5494068750568
 30
0.0
 40
45.46546936035157
  1
コネクターパネル拡大図
 41
0.8
 11
2416.7803939870819
 21
-3190.0839375147052
 31
0.0
 73
     3
  0
CIRCLE
  5
51E
  8
DATA
  6
CONTINUOUS
 62
     7
 10
3032.764665205289
 20
-3884.0044849999999
 30
0.0
 40
20.999999999999769
  0
LINE
  5
51F
  8
DATA
  6
CONTINUOUS
 62
     7
 10
3032.764665205289
 20
-3872.0044849999999
 30
0.0
 11
3032.764665205289
 21
-3896.0044849999999
 31
0.0
  0
LINE
  5
520
  8
DATA
  6
CONTINUOUS
 62
     7
 10
3020.764665205289
 20
-3884.0044849999999
 30
0.0
 11
3044.764665205289
 21
-3884.0044849999999
 31
0.0
  0
CIRCLE
  5
521
  8
DATA
  6
CONTINUOUS
 62
     7
 10
3032.764665205289
 20
-4442.0044850000004
 30
0.0
 40
20.999999999999769
  0
LINE
  5
522
  8
DATA
  6
CONTINUOUS
 62
     7
 10
3032.764665205289
 20
-4430.0044850000004
 30
0.0
 11
3032.764665205289
 21
-4454.0044850000013
 31
0.0
  0
LINE
  5
523
  8
DATA
  6
CONTINUOUS
 62
     7
 10
3020.764665205289
 20
-4442.0044850000004
 30
0.0
 11
3044.764665205289
 21
-4442.0044850000004
 31
0.0
  0
CIRCLE
  5
524
  8
DATA
  6
CONTINUOUS
 62
     7
 10
3032.764665205289
 20
-3326.0044849999999
 30
0.0
 40
20.999999999999769
  0
LINE
  5
525
  8
DATA
  6
CONTINUOUS
 62
     7
 10
3032.764665205289
 20
-3314.0044849999999
 30
0.0
 11
3032.764665205289
 21
-3338.0044849999999
 31
0.0
  0
LINE
  5
526
  8
DATA
  6
CONTINUOUS
 62
     7
 10
3020.764665205289
 20
-3326.0044849999999
 30
0.0
 11
3044.764665205289
 21
-3326.0044849999999
 31
0.0
  0
CIRCLE
  5
527
  8
DATA
  6
CONTINUOUS
 62
     7
 10
2399.764665205289
 20
-3884.0044849999999
 30
0.0
 40
21.0
  0
LINE
  5
528
  8
DATA
  6
CONTINUOUS
 62
     7
 10
2399.764665205289
 20
-3872.0044849999999
 30
0.0
 11
2399.764665205289
 21
-3896.0044849999999
 31
0.0
  0
LINE
  5
529
  8
DATA
  6
CONTINUOUS
 62
     7
 10
2387.764665205289
 20
-3884.0044849999999
 30
0.0
 11
2411.764665205289
 21
-3884.0044849999999
 31
0.0
  0
CIRCLE
  5
52A
  8
DATA
  6
CONTINUOUS
 62
     7
 10
2399.764665205289
 20
-4442.0044850000004
 30
0.0
 40
21.0
  0
LINE
  5
52B
  8
DATA
  6
CONTINUOUS
 62
     7
 10
2399.764665205289
 20
-4430.0044850000004
 30
0.0
 11
2399.764665205289
 21
-4454.0044850000013
 31
0.0
  0
LINE
  5
52C
  8
DATA
  6
CONTINUOUS
 62
     7
 10
2387.764665205289
 20
-4442.0044850000004
 30
0.0
 11
2411.764665205289
 21
-4442.0044850000004
 31
0.0
  0
CIRCLE
  5
52D
  8
DATA
  6
CONTINUOUS
 62
     7
 10
2399.764665205289
 20
-3326.0044849999999
 30
0.0
 40
21.0
  0
LINE
  5
52E
  8
DATA
  6
CONTINUOUS
 62
     7
 10
2399.764665205289
 20
-3314.0044849999999
 30
0.0
 11
2399.764665205289
 21
-3338.0044849999999
 31
0.0
  0
LINE
  5
52F
  8
DATA
  6
CONTINUOUS
 62
     7
 10
2387.764665205289
 20
-3326.0044849999999
 30
0.0
 11
2411.764665205289
 21
-3326.0044849999999
 31
0.0
  0
POLYLINE
  5
530
  8
DATA
  6
CONTINUOUS
 62
     7
 66
     1
 10
0.0
 20
0.0
 30
0.0
 70
   129
  0
VERTEX
  5
70B
  8
DATA
  6
CONTINUOUS
 62
     7
 10
2677.529330410578
 20
-4100.004488107511
 30
0.0
 42
-0.4142135623730951
  0
VERTEX
  5
70C
  8
DATA
  6
CONTINUOUS
 62
     7
 10
2689.529330410578
 20
-4088.0044881075119
 30
0.0
  0
VERTEX
  5
70D
  8
DATA
  6
CONTINUOUS
 62
     7
 10
2737.529330410578
 20
-4088.0044881075119
 30
0.0
 42
-0.4142135623730895
  0
VERTEX
  5
70E
  8
DATA
  6
CONTINUOUS
 62
     7
 10
2749.529330410578
 20
-4100.004488107511
 30
0.0
  0
VERTEX
  5
70F
  8
DATA
  6
CONTINUOUS
 62
     7
 10
2749.529330410578
 20
-4148.004488107511
 30
0.0
 42
-0.4142135623730951
  0
VERTEX
  5
710
  8
DATA
  6
CONTINUOUS
 62
     7
 10
2737.529330410578
 20
-4160.0044881075119
 30
0.0
  0
VERTEX
  5
711
  8
DATA
  6
CONTINUOUS
 62
     7
 10
2689.529330410578
 20
-4160.0044881075119
 30
0.0
 42
-0.4142135623731006
  0
VERTEX
  5
712
  8
DATA
  6
CONTINUOUS
 62
     7
 10
2677.529330410578
 20
-4148.004488107511
 30
0.0
  0
SEQEND
  5
713
  8
DATA
  6
CONTINUOUS
 62
     7
  0
POLYLINE
  5
53A
  8
DATA
  6
CONTINUOUS
 62
     7
 66
     1
 10
0.0
 20
0.0
 30
0.0
 70
     1
  0
VERTEX
  5
714
  8
DATA
  6
CONTINUOUS
 62
     7
 10
2686.529330410578
 20
-4097.004488107511
 30
0.0
  0
VERTEX
  5
715
  8
DATA
  6
CONTINUOUS
 62
     7
 10
2740.529330410578
 20
-4097.004488107511
 30
0.0
  0
VERTEX
  5
716
  8
DATA
  6
CONTINUOUS
 62
     7
 10
2740.529330410578
 20
-4115.004488107511
 30
0.0
  0
VERTEX
  5
717
  8
DATA
  6
CONTINUOUS
 62
     7
 10
2686.529330410578
 20
-4115.004488107511
 30
0.0
  0
SEQEND
  5
718
  8
DATA
  6
CONTINUOUS
 62
     7
  0
LINE
  5
540
  8
DATA
  6
CONTINUOUS
 62
     7
 10
2398.0
 20
-3290.0044849999999
 30
0.0
 11
3027.2693304105769
 21
-3290.0044849999999
 31
0.0
  0
LINE
  5
541
  8
DATA
  6
CONTINUOUS
 62
     7
 10
2350.0
 20
-3338.0044849999999
 30
0.0
 11
2350.0
 21
-4430.0044850000004
 31
0.0
  0
LINE
  5
542
  8
DATA
  6
CONTINUOUS
 62
     7
 10
3075.2693304105769
 20
-3338.0044849999999
 30
0.0
 11
3075.2693304105769
 21
-4430.0044850000004
 31
0.0
  0
LINE
  5
543
  8
DATA
  6
CONTINUOUS
 62
     7
 10
3027.2693304105769
 20
-4478.0044850000004
 30
0.0
 11
2398.0
 21
-4478.0044850000004
 31
0.0
  0
LINE
  5
544
  8
DATA
  6
CONTINUOUS
 62
     7
 10
2473.529330410578
 20
-3380.0044849999999
 30
0.0
 11
2953.529330410578
 21
-3380.0044849999999
 31
0.0
  0
LINE
  5
545
  8
DATA
  6
CONTINUOUS
 62
     7
 10
2449.529330410578
 20
-3404.0044849999999
 30
0.0
 11
2449.529330410578
 21
-4364.0044850000004
 31
0.0
  0
LINE
  5
546
  8
DATA
  6
CONTINUOUS
 62
     7
 10
2473.529330410578
 20
-4388.0044850000004
 30
0.0
 11
2953.529330410578
 21
-4388.0044850000004
 31
0.0
  0
LINE
  5
547
  8
DATA
  6
CONTINUOUS
 62
     7
 10
2977.529330410578
 20
-3404.0044849999999
 30
0.0
 11
2977.529330410578
 21
-4364.0044850000004
 31
0.0
  0
LINE
  5
548
  8
DATA
  6
CONTINUOUS
 62
     7
 10
2656.529330410578
 20
-4049.0044881075119
 30
0.0
 11
2770.529330410578
 21
-4049.0044881075119
 31
0.0
  0
LINE
  5
549
  8
DATA
  6
CONTINUOUS
 62
     7
 10
2770.529330410578
 20
-4199.0044881075119
 30
0.0
 11
2770.529330410578
 21
-4049.0044881075119
 31
0.0
  0
LINE
  5
54A
  8
DATA
  6
CONTINUOUS
 62
     7
 10
2656.529330410578
 20
-4199.0044881075119
 30
0.0
 11
2656.529330410578
 21
-4049.0044881075119
 31
0.0
  0
LINE
  5
54B
  8
DATA
  6
CONTINUOUS
 62
     7
 10
2656.529330410578
 20
-4199.0044881075119
 30
0.0
 11
2770.529330410578
 21
-4199.0044881075119
 31
0.0
  0
ARC
  5
54C
  8
DATA
  6
CONTINUOUS
 62
     7
 10
2398.0
 20
-3338.0044849999999
 30
0.0
 40
48.0
 50
90.0
 51
180.0
  0
ARC
  5
54D
  8
DATA
  6
CONTINUOUS
 62
     7
 10
2398.0
 20
-4430.0044850000004
 30
0.0
 40
48.0
 50
180.0
 51
270.0
  0
ARC
  5
54E
  8
DATA
  6
CONTINUOUS
 62
     7
 10
3027.2693304105769
 20
-4430.0044850000004
 30
0.0
 40
48.0
 50
270.0
 51
0.0
  0
ARC
  5
54F
  8
DATA
  6
CONTINUOUS
 62
     7
 10
3027.2693304105769
 20
-3338.0044849999999
 30
0.0
 40
47.999999999999773
 50
0.0
 51
90.0
  0
ARC
  5
550
  8
DATA
  6
CONTINUOUS
 62
     7
 10
2473.529330410578
 20
-3404.0044849999999
 30
0.0
 40
24.0
 50
90.0
 51
180.0
  0
ARC
  5
551
  8
DATA
  6
CONTINUOUS
 62
     7
 10
2473.529330410578
 20
-4364.0044850000004
 30
0.0
 40
24.0
 50
180.0
 51
270.0
  0
ARC
  5
552
  8
DATA
  6
CONTINUOUS
 62
     7
 10
2953.529330410578
 20
-4364.0044850000004
 30
0.0
 40
24.0
 50
270.0
 51
0.0
  0
ARC
  5
553
  8
DATA
  6
CONTINUOUS
 62
     7
 10
2953.529330410578
 20
-3404.0044849999999
 30
0.0
 40
24.0
 50
0.0
 51
90.0
  0
TEXT
  5
554
  8
DATA
 62
     7
 10
2496.4722222222231
 20
-3498.7264627777781
 30
0.0
 40
35.182968750000001
  1
SRX718S
 41
0.8
 11
2496.4722222222231
 21
-3463.5434940277778
 31
0.0
 73
     3
  0
TEXT
  5
555
  8
DATA
 62
     7
 10
2849.4958284886602
 20
-3695.4350857223212
 30
0.0
 40
27.147352430555561
  1
8Ω
 41
0.8
 11
2849.4958284886602
 21
-3668.2877332917651
 31
0.0
 73
     3
  0
TEXT
  5
556
  8
DATA
 62
     7
 10
2643.2944492891111
 20
-4038.2480961111119
 30
0.0
 40
32.576822916666671
  1
NL4 ±1
 41
0.8
 11
2643.2944492891111
 21
-4005.6712731944449
 31
0.0
 73
     3
  0
TEXT
  5
557
  8
DATA
 62
     7
 10
2641.0966715113318
 20
-3697.9750857223221
 30
0.0
 40
32.576822916666671
  1
IN/THRU
 41
0.8
 11
2641.0966715113318
 21
-3665.398262805656
 31
0.0
 73
     3
  0
TEXT
  5
558
  8
DATA
 62
     7
 10
2692.2645245103708
 20
-4342.6642195075174
 30
0.0
 40
54.729062500000012
  1
SRX700
 41
0.8
 11
2692.2645245103708
 21
-4287.9351570075169
 31
0.0
 73
     3
  0
TEXT
  5
559
  8
DATA
 62
     7
 10
2643.2944492891111
 20
-4243.5397627777784
 30
0.0
 40
32.576822916666671
  1
NL4 ±2
 41
0.8
 11
2643.2944492891111
 21
-4210.9629398611114
 31
0.0
 73
     3
  0
LINE
  5
55A
  8
DATA
  6
CONTINUOUS
 62
     7
 10
358.0499999999999
 20
-2582.0044849999999
 30
0.0
 11
938.94999999999982
 21
-2582.0044849999999
 31
0.0
  0
LINE
  5
55B
  8
DATA
  6
CONTINUOUS
 62
     7
 10
946.94999999999982
 20
-2590.0044849999999
 30
0.0
 11
946.94999999999982
 21
-3082.0044849999999
 31
0.0
  0
LINE
  5
55C
  8
DATA
  6
CONTINUOUS
 62
     7
 10
350.0499999999999
 20
-2590.0044849999999
 30
0.0
 11
350.0499999999999
 21
-3082.0044849999999
 31
0.0
  0
LINE
  5
55D
  8
DATA
  6
CONTINUOUS
 62
     7
 10
352.0499999999999
 20
-2601.0044849999999
 30
0.0
 11
352.0499999999999
 21
-3071.0044849999999
 31
0.0
  0
LINE
  5
55E
  8
DATA
  6
CONTINUOUS
 62
     7
 10
944.94999999999982
 20
-2601.0044849999999
 30
0.0
 11
944.94999999999982
 21
-3071.0044849999999
 31
0.0
  0
LINE
  5
55F
  8
DATA
  6
CONTINUOUS
 62
     7
 10
350.0499999999999
 20
-1647.0044849999999
 30
0.0
 11
350.0499999999999
 21
-1642.0044849999999
 31
0.0
  0
LINE
  5
560
  8
DATA
  6
CONTINUOUS
 62
     7
 10
350.0499999999999
 20
-2362.4348592172951
 30
0.0
 11
350.0499999999999
 21
-1648.704485
 31
0.0
  0
LINE
  5
561
  8
DATA
  6
CONTINUOUS
 62
     7
 10
391.23327850110849
 20
-2390.0044849999999
 30
0.0
 11
905.76672149889146
 21
-2390.0044849999999
 31
0.0
  0
LINE
  5
562
  8
DATA
  6
CONTINUOUS
 62
     7
 10
353.98611984044561
 20
-2369.3257864443649
 30
0.0
 11
387.16939834155397
 21
-2388.8954122270711
 31
0.0
  0
LINE
  5
563
  8
DATA
  6
CONTINUOUS
 62
     7
 10
943.01388015955433
 20
-2369.3257864443649
 30
0.0
 11
909.83060165844574
 21
-2388.8954122270711
 31
0.0
  0
LINE
  5
564
  8
DATA
  6
CONTINUOUS
 62
     7
 10
946.94999999999982
 20
-2362.4348592172951
 30
0.0
 11
946.94999999999982
 21
-1648.704485
 31
0.0
  0
LINE
  5
565
  8
DATA
  6
CONTINUOUS
 62
     7
 10
358.0499999999999
 20
-1640.704485
 30
0.0
 11
938.94999999999982
 21
-1640.704485
 31
0.0
  0
LINE
  5
566
  8
DATA
  6
CONTINUOUS
 62
     7
 10
1158.05
 20
-3090.0044849999999
 30
0.0
 11
1891.3499999999999
 21
-3090.0044849999999
 31
0.0
  0
LINE
  5
567
  8
DATA
  6
CONTINUOUS
 62
     7
 10
1150.05
 20
-3082.0044849999999
 30
0.0
 11
1150.05
 21
-3071.0044849999999
 31
0.0
  0
LINE
  5
568
  8
DATA
  6
CONTINUOUS
 62
     7
 10
1899.3499999999999
 20
-3082.0044849999999
 30
0.0
 11
1899.3499999999999
 21
-2590.0044849999999
 31
0.0
  0
LINE
  5
569
  8
DATA
  6
CONTINUOUS
 62
     7
 10
1150.05
 20
-2601.0044849999999
 30
0.0
 11
1214.05
 21
-2601.0044849999999
 31
0.0
  0
LINE
  5
56A
  8
DATA
  6
CONTINUOUS
 62
     7
 10
1150.05
 20
-3071.0044849999999
 30
0.0
 11
1214.05
 21
-3071.0044849999999
 31
0.0
  0
LINE
  5
56B
  8
DATA
  6
CONTINUOUS
 62
     7
 10
1152.05
 20
-2601.0044849999999
 30
0.0
 11
1152.05
 21
-3071.0044849999999
 31
0.0
  0
LINE
  5
56C
  8
DATA
  6
CONTINUOUS
 62
     7
 10
1222.05
 20
-2609.0044849999999
 30
0.0
 11
1222.05
 21
-3063.0044849999999
 31
0.0
  0
CIRCLE
  5
56D
  8
DATA
  6
CONTINUOUS
 62
     7
 10
1214.05
 20
-2771.0044849999999
 30
0.0
 40
3.4999999999998681
  0
LINE
  5
56E
  8
DATA
  6
CONTINUOUS
 62
     7
 10
1212.05
 20
-2771.0044849999999
 30
0.0
 11
1216.05
 21
-2771.0044849999999
 31
0.0
  0
LINE
  5
56F
  8
DATA
  6
CONTINUOUS
 62
     7
 10
1214.05
 20
-2769.0044849999999
 30
0.0
 11
1214.05
 21
-2773.0044849999999
 31
0.0
  0
CIRCLE
  5
570
  8
DATA
  6
CONTINUOUS
 62
     7
 10
1214.05
 20
-2641.0044849999999
 30
0.0
 40
3.4999999999998681
  0
LINE
  5
571
  8
DATA
  6
CONTINUOUS
 62
     7
 10
1212.05
 20
-2641.0044849999999
 30
0.0
 11
1216.05
 21
-2641.0044849999999
 31
0.0
  0
LINE
  5
572
  8
DATA
  6
CONTINUOUS
 62
     7
 10
1214.05
 20
-2639.0044849999999
 30
0.0
 11
1214.05
 21
-2643.0044849999999
 31
0.0
  0
CIRCLE
  5
573
  8
DATA
  6
CONTINUOUS
 62
     7
 10
1214.05
 20
-2901.0044849999999
 30
0.0
 40
3.4999999999998681
  0
LINE
  5
574
  8
DATA
  6
CONTINUOUS
 62
     7
 10
1212.05
 20
-2901.0044849999999
 30
0.0
 11
1216.05
 21
-2901.0044849999999
 31
0.0
  0
LINE
  5
575
  8
DATA
  6
CONTINUOUS
 62
     7
 10
1214.05
 20
-2903.0044849999999
 30
0.0
 11
1214.05
 21
-2899.0044849999999
 31
0.0
  0
CIRCLE
  5
576
  8
DATA
  6
CONTINUOUS
 62
     7
 10
1214.05
 20
-3031.0044849999999
 30
0.0
 40
3.4999999999998681
  0
LINE
  5
577
  8
DATA
  6
CONTINUOUS
 62
     7
 10
1212.05
 20
-3031.0044849999999
 30
0.0
 11
1216.05
 21
-3031.0044849999999
 31
0.0
  0
LINE
  5
578
  8
DATA
  6
CONTINUOUS
 62
     7
 10
1214.05
 20
-3033.0044849999999
 30
0.0
 11
1214.05
 21
-3029.0044849999999
 31
0.0
  0
LINE
  5
579
  8
DATA
  6
CONTINUOUS
 62
     7
 10
1173.05
 20
-2582.0044849999999
 30
0.0
 11
1173.05
 21
-3090.0044849999999
 31
0.0
  0
ARC
  5
57A
  8
DATA
  6
CONTINUOUS
 62
     7
 10
1892.8421874999999
 20
-2625.0044849999999
 30
0.0
 40
10.50781249999998
 50
308.26728641181091
 51
51.732713588189128
  0
ARC
  5
57B
  8
DATA
  6
CONTINUOUS
 62
     7
 10
1892.8421874999999
 20
-2685.0044849999999
 30
0.0
 40
10.50781249999998
 50
308.26728641181091
 51
51.732713588189128
  0
ARC
  5
57C
  8
DATA
  6
CONTINUOUS
 62
     7
 10
1892.8421874999999
 20
-2987.0044849999999
 30
0.0
 40
10.50781249999998
 50
308.26728641181091
 51
51.732713588189128
  0
ARC
  5
57D
  8
DATA
  6
CONTINUOUS
 62
     7
 10
1892.8421874999999
 20
-3047.0044849999999
 30
0.0
 40
10.50781249999998
 50
308.26728641181091
 51
51.732713588189128
  0
LINE
  5
57E
  8
DATA
  6
CONTINUOUS
 62
     7
 10
1150.05
 20
-2601.0044849999999
 30
0.0
 11
1150.05
 21
-2590.0044849999999
 31
0.0
  0
LINE
  5
57F
  8
DATA
  6
CONTINUOUS
 62
     7
 10
1158.05
 20
-2582.0044849999999
 30
0.0
 11
1891.3499999999999
 21
-2582.0044849999999
 31
0.0
  0
LINE
  5
580
  8
DATA
  6
CONTINUOUS
 62
     7
 10
2158.0500000000002
 20
-3090.0044849999999
 30
0.0
 11
2738.9499999999998
 21
-3090.0044849999999
 31
0.0
  0
CIRCLE
  5
581
  8
DATA
  6
CONTINUOUS
 62
     7
 10
393.99999999999977
 20
-3453.0044850000008
 30
0.0
 40
18.749999999999901
  0
CIRCLE
  5
582
  8
DATA
  6
CONTINUOUS
 62
     7
 10
393.99999999999977
 20
-3453.0044850000008
 30
0.0
 40
3.9999999999999112
  0
LINE
  5
583
  8
DATA
  6
CONTINUOUS
 62
     7
 10
391.49999999999977
 20
-3453.0044850000008
 30
0.0
 11
396.49999999999977
 21
-3453.0044850000008
 31
0.0
  0
LINE
  5
584
  8
DATA
  6
CONTINUOUS
 62
     7
 10
393.99999999999977
 20
-3450.5044850000008
 30
0.0
 11
393.99999999999977
 21
-3455.5044849999999
 31
0.0
  0
CIRCLE
  5
585
  8
DATA
  6
CONTINUOUS
 62
     7
 10
393.99999999999977
 20
-3453.0044850000008
 30
0.0
 40
5.0000000000000089
  0
CIRCLE
  5
586
  8
DATA
  6
CONTINUOUS
 62
     7
 10
902.99999999999966
 20
-3453.0044850000008
 30
0.0
 40
18.749999999999901
  0
CIRCLE
  5
587
  8
DATA
  6
CONTINUOUS
 62
     7
 10
902.99999999999966
 20
-3453.0044850000008
 30
0.0
 40
3.9999999999999112
  0
LINE
  5
588
  8
DATA
  6
CONTINUOUS
 62
     7
 10
905.49999999999955
 20
-3453.0044850000008
 30
0.0
 11
900.49999999999966
 21
-3453.0044850000008
 31
0.0
  0
LINE
  5
589
  8
DATA
  6
CONTINUOUS
 62
     7
 10
902.99999999999966
 20
-3450.5044850000008
 30
0.0
 11
902.99999999999966
 21
-3455.5044849999999
 31
0.0
  0
CIRCLE
  5
58A
  8
DATA
  6
CONTINUOUS
 62
     7
 10
902.99999999999966
 20
-3453.0044850000008
 30
0.0
 40
5.0000000000000089
  0
ARC
  5
58B
  8
DATA
  6
CONTINUOUS
 62
     7
 10
910.0
 20
-4132.7966725000024
 30
0.0
 40
10.5078125
 50
218.267286411811
 51
321.73271358818897
  0
ARC
  5
58C
  8
DATA
  6
CONTINUOUS
 62
     7
 10
830.0
 20
-4132.7966725000024
 30
0.0
 40
10.5078125
 50
218.267286411811
 51
321.73271358818897
  0
ARC
  5
58D
  8
DATA
  6
CONTINUOUS
 62
     7
 10
468.0
 20
-4132.7966725000024
 30
0.0
 40
10.5078125
 50
218.267286411811
 51
321.73271358818897
  0
ARC
  5
58E
  8
DATA
  6
CONTINUOUS
 62
     7
 10
388.0
 20
-4132.7966725000024
 30
0.0
 40
10.5078125
 50
218.267286411811
 51
321.73271358818897
  0
LINE
  5
58F
  8
DATA
  6
CONTINUOUS
 62
     7
 10
946.94999999999982
 20
-4133.0044850000004
 30
0.0
 11
946.94999999999982
 21
-4138.0044850000004
 31
0.0
  0
LINE
  5
590
  8
DATA
  6
CONTINUOUS
 62
     7
 10
946.94999999999982
 20
-3417.5741107827048
 30
0.0
 11
946.94999999999982
 21
-4131.3044850000024
 31
0.0
  0
LINE
  5
591
  8
DATA
  6
CONTINUOUS
 62
     7
 10
905.76672149889146
 20
-3390.0044850000008
 30
0.0
 11
391.23327850110849
 21
-3390.0044850000008
 31
0.0
  0
LINE
  5
592
  8
DATA
  6
CONTINUOUS
 62
     7
 10
943.01388015955433
 20
-3410.683183555635
 30
0.0
 11
909.83060165844574
 21
-3391.1135577729301
 31
0.0
  0
LINE
  5
593
  8
DATA
  6
CONTINUOUS
 62
     7
 10
353.98611984044561
 20
-3410.683183555635
 30
0.0
 11
387.16939834155397
 21
-3391.1135577729301
 31
0.0
  0
LINE
  5
594
  8
DATA
  6
CONTINUOUS
 62
     7
 10
350.0499999999999
 20
-3417.5741107827048
 30
0.0
 11
350.0499999999999
 21
-4131.3044850000024
 31
0.0
  0
LINE
  5
595
  8
DATA
  6
CONTINUOUS
 62
     7
 10
938.94999999999982
 20
-4139.3044850000024
 30
0.0
 11
358.0499999999999
 21
-4139.3044850000024
 31
0.0
  0
CIRCLE
  5
596
  8
DATA
  6
CONTINUOUS
 62
     7
 10
393.99999999999977
 20
-4090.0044849999999
 30
0.0
 40
18.749999999999901
  0
CIRCLE
  5
597
  8
DATA
  6
CONTINUOUS
 62
     7
 10
393.99999999999977
 20
-4090.0044849999999
 30
0.0
 40
3.9999999999999112
  0
LINE
  5
598
  8
DATA
  6
CONTINUOUS
 62
     7
 10
391.49999999999977
 20
-4090.0044849999999
 30
0.0
 11
396.49999999999977
 21
-4090.0044849999999
 31
0.0
  0
LINE
  5
599
  8
DATA
  6
CONTINUOUS
 62
     7
 10
393.99999999999977
 20
-4087.5044849999999
 30
0.0
 11
393.99999999999977
 21
-4092.5044849999999
 31
0.0
  0
CIRCLE
  5
59A
  8
DATA
  6
CONTINUOUS
 62
     7
 10
393.99999999999977
 20
-4090.0044849999999
 30
0.0
 40
5.0000000000000089
  0
CIRCLE
  5
59B
  8
DATA
  6
CONTINUOUS
 62
     7
 10
902.99999999999966
 20
-4090.0044849999999
 30
0.0
 40
18.749999999999901
  0
CIRCLE
  5
59C
  8
DATA
  6
CONTINUOUS
 62
     7
 10
902.99999999999966
 20
-4090.0044849999999
 30
0.0
 40
3.9999999999999112
  0
LINE
  5
59D
  8
DATA
  6
CONTINUOUS
 62
     7
 10
905.49999999999955
 20
-4090.0044849999999
 30
0.0
 11
900.49999999999966
 21
-4090.0044849999999
 31
0.0
  0
LINE
  5
59E
  8
DATA
  6
CONTINUOUS
 62
     7
 10
902.99999999999966
 20
-4087.5044849999999
 30
0.0
 11
902.99999999999966
 21
-4092.5044849999999
 31
0.0
  0
CIRCLE
  5
59F
  8
DATA
  6
CONTINUOUS
 62
     7
 10
902.99999999999966
 20
-4090.0044849999999
 30
0.0
 40
5.0000000000000089
  0
CIRCLE
  5
5A0
  8
DATA
  6
CONTINUOUS
 62
     7
 10
2267.5
 20
-2685.0044849999999
 30
0.0
 40
8.25
  0
LINE
  5
5A1
  8
DATA
  6
CONTINUOUS
 62
     7
 10
2263.0
 20
-2685.0044849999999
 30
0.0
 11
2272.0
 21
-2685.0044849999999
 31
0.0
  0
LINE
  5
5A2
  8
DATA
  6
CONTINUOUS
 62
     7
 10
2267.5
 20
-2689.5044849999999
 30
0.0
 11
2267.5
 21
-2680.5044849999999
 31
0.0
  0
CIRCLE
  5
5A3
  8
DATA
  6
CONTINUOUS
 62
     7
 10
2267.5
 20
-2625.0044849999999
 30
0.0
 40
8.25
  0
LINE
  5
5A4
  8
DATA
  6
CONTINUOUS
 62
     7
 10
2263.0
 20
-2625.0044849999999
 30
0.0
 11
2272.0
 21
-2625.0044849999999
 31
0.0
  0
LINE
  5
5A5
  8
DATA
  6
CONTINUOUS
 62
     7
 10
2267.5
 20
-2629.5044849999999
 30
0.0
 11
2267.5
 21
-2620.5044849999999
 31
0.0
  0
CIRCLE
  5
5A6
  8
DATA
  6
CONTINUOUS
 62
     7
 10
2187.5
 20
-2685.0044849999999
 30
0.0
 40
8.25
  0
LINE
  5
5A7
  8
DATA
  6
CONTINUOUS
 62
     7
 10
2183.0
 20
-2685.0044849999999
 30
0.0
 11
2192.0
 21
-2685.0044849999999
 31
0.0
  0
LINE
  5
5A8
  8
DATA
  6
CONTINUOUS
 62
     7
 10
2187.5
 20
-2689.5044849999999
 30
0.0
 11
2187.5
 21
-2680.5044849999999
 31
0.0
  0
CIRCLE
  5
5A9
  8
DATA
  6
CONTINUOUS
 62
     7
 10
2187.5
 20
-2625.0044849999999
 30
0.0
 40
8.25
  0
LINE
  5
5AA
  8
DATA
  6
CONTINUOUS
 62
     7
 10
2183.0
 20
-2625.0044849999999
 30
0.0
 11
2192.0
 21
-2625.0044849999999
 31
0.0
  0
LINE
  5
5AB
  8
DATA
  6
CONTINUOUS
 62
     7
 10
2187.5
 20
-2629.5044849999999
 30
0.0
 11
2187.5
 21
-2620.5044849999999
 31
0.0
  0
CIRCLE
  5
5AC
  8
DATA
  6
CONTINUOUS
 62
     7
 10
2629.5
 20
-2685.0044849999999
 30
0.0
 40
8.25
  0
LINE
  5
5AD
  8
DATA
  6
CONTINUOUS
 62
     7
 10
2634.0
 20
-2685.0044849999999
 30
0.0
 11
2625.0
 21
-2685.0044849999999
 31
0.0
  0
LINE
  5
5AE
  8
DATA
  6
CONTINUOUS
 62
     7
 10
2629.5
 20
-2689.5044849999999
 30
0.0
 11
2629.5
 21
-2680.5044849999999
 31
0.0
  0
CIRCLE
  5
5AF
  8
DATA
  6
CONTINUOUS
 62
     7
 10
2629.5
 20
-2625.0044849999999
 30
0.0
 40
8.25
  0
LINE
  5
5B0
  8
DATA
  6
CONTINUOUS
 62
     7
 10
2634.0
 20
-2625.0044849999999
 30
0.0
 11
2625.0
 21
-2625.0044849999999
 31
0.0
  0
LINE
  5
5B1
  8
DATA
  6
CONTINUOUS
 62
     7
 10
2629.5
 20
-2629.5044849999999
 30
0.0
 11
2629.5
 21
-2620.5044849999999
 31
0.0
  0
CIRCLE
  5
5B2
  8
DATA
  6
CONTINUOUS
 62
     7
 10
2709.5
 20
-2685.0044849999999
 30
0.0
 40
8.25
  0
LINE
  5
5B3
  8
DATA
  6
CONTINUOUS
 62
     7
 10
2714.0
 20
-2685.0044849999999
 30
0.0
 11
2705.0
 21
-2685.0044849999999
 31
0.0
  0
LINE
  5
5B4
  8
DATA
  6
CONTINUOUS
 62
     7
 10
2709.5
 20
-2689.5044849999999
 30
0.0
 11
2709.5
 21
-2680.5044849999999
 31
0.0
  0
CIRCLE
  5
5B5
  8
DATA
  6
CONTINUOUS
 62
     7
 10
2709.5
 20
-2625.0044849999999
 30
0.0
 40
8.25
  0
LINE
  5
5B6
  8
DATA
  6
CONTINUOUS
 62
     7
 10
2714.0
 20
-2625.0044849999999
 30
0.0
 11
2705.0
 21
-2625.0044849999999
 31
0.0
  0
LINE
  5
5B7
  8
DATA
  6
CONTINUOUS
 62
     7
 10
2709.5
 20
-2629.5044849999999
 30
0.0
 11
2709.5
 21
-2620.5044849999999
 31
0.0
  0
CIRCLE
  5
5B8
  8
DATA
  6
CONTINUOUS
 62
     7
 10
2267.5
 20
-2987.0044849999999
 30
0.0
 40
8.25
  0
LINE
  5
5B9
  8
DATA
  6
CONTINUOUS
 62
     7
 10
2263.0
 20
-2987.0044849999999
 30
0.0
 11
2272.0
 21
-2987.0044849999999
 31
0.0
  0
LINE
  5
5BA
  8
DATA
  6
CONTINUOUS
 62
     7
 10
2267.5
 20
-2982.5044849999999
 30
0.0
 11
2267.5
 21
-2991.5044849999999
 31
0.0
  0
CIRCLE
  5
5BB
  8
DATA
  6
CONTINUOUS
 62
     7
 10
2267.5
 20
-3047.0044849999999
 30
0.0
 40
8.25
  0
LINE
  5
5BC
  8
DATA
  6
CONTINUOUS
 62
     7
 10
2263.0
 20
-3047.0044849999999
 30
0.0
 11
2272.0
 21
-3047.0044849999999
 31
0.0
  0
LINE
  5
5BD
  8
DATA
  6
CONTINUOUS
 62
     7
 10
2267.5
 20
-3042.5044849999999
 30
0.0
 11
2267.5
 21
-3051.5044849999999
 31
0.0
  0
CIRCLE
  5
5BE
  8
DATA
  6
CONTINUOUS
 62
     7
 10
2187.5
 20
-2987.0044849999999
 30
0.0
 40
8.25
  0
LINE
  5
5BF
  8
DATA
  6
CONTINUOUS
 62
     7
 10
2183.0
 20
-2987.0044849999999
 30
0.0
 11
2192.0
 21
-2987.0044849999999
 31
0.0
  0
LINE
  5
5C0
  8
DATA
  6
CONTINUOUS
 62
     7
 10
2187.5
 20
-2982.5044849999999
 30
0.0
 11
2187.5
 21
-2991.5044849999999
 31
0.0
  0
CIRCLE
  5
5C1
  8
DATA
  6
CONTINUOUS
 62
     7
 10
2187.5
 20
-3047.0044849999999
 30
0.0
 40
8.25
  0
LINE
  5
5C2
  8
DATA
  6
CONTINUOUS
 62
     7
 10
2183.0
 20
-3047.0044849999999
 30
0.0
 11
2192.0
 21
-3047.0044849999999
 31
0.0
  0
LINE
  5
5C3
  8
DATA
  6
CONTINUOUS
 62
     7
 10
2187.5
 20
-3042.5044849999999
 30
0.0
 11
2187.5
 21
-3051.5044849999999
 31
0.0
  0
CIRCLE
  5
5C4
  8
DATA
  6
CONTINUOUS
 62
     7
 10
2629.5
 20
-2987.0044849999999
 30
0.0
 40
8.25
  0
LINE
  5
5C5
  8
DATA
  6
CONTINUOUS
 62
     7
 10
2634.0
 20
-2987.0044849999999
 30
0.0
 11
2625.0
 21
-2987.0044849999999
 31
0.0
  0
LINE
  5
5C6
  8
DATA
  6
CONTINUOUS
 62
     7
 10
2629.5
 20
-2982.5044849999999
 30
0.0
 11
2629.5
 21
-2991.5044849999999
 31
0.0
  0
CIRCLE
  5
5C7
  8
DATA
  6
CONTINUOUS
 62
     7
 10
2629.5
 20
-3047.0044849999999
 30
0.0
 40
8.25
  0
LINE
  5
5C8
  8
DATA
  6
CONTINUOUS
 62
     7
 10
2634.0
 20
-3047.0044849999999
 30
0.0
 11
2625.0
 21
-3047.0044849999999
 31
0.0
  0
LINE
  5
5C9
  8
DATA
  6
CONTINUOUS
 62
     7
 10
2629.5
 20
-3042.5044849999999
 30
0.0
 11
2629.5
 21
-3051.5044849999999
 31
0.0
  0
CIRCLE
  5
5CA
  8
DATA
  6
CONTINUOUS
 62
     7
 10
2709.5
 20
-2987.0044849999999
 30
0.0
 40
8.25
  0
LINE
  5
5CB
  8
DATA
  6
CONTINUOUS
 62
     7
 10
2714.0
 20
-2987.0044849999999
 30
0.0
 11
2705.0
 21
-2987.0044849999999
 31
0.0
  0
LINE
  5
5CC
  8
DATA
  6
CONTINUOUS
 62
     7
 10
2709.5
 20
-2982.5044849999999
 30
0.0
 11
2709.5
 21
-2991.5044849999999
 31
0.0
  0
CIRCLE
  5
5CD
  8
DATA
  6
CONTINUOUS
 62
     7
 10
2709.5
 20
-3047.0044849999999
 30
0.0
 40
8.25
  0
LINE
  5
5CE
  8
DATA
  6
CONTINUOUS
 62
     7
 10
2714.0
 20
-3047.0044849999999
 30
0.0
 11
2705.0
 21
-3047.0044849999999
 31
0.0
  0
LINE
  5
5CF
  8
DATA
  6
CONTINUOUS
 62
     7
 10
2709.5
 20
-3042.5044849999999
 30
0.0
 11
2709.5
 21
-3051.5044849999999
 31
0.0
  0
CIRCLE
  5
5D0
  8
DATA
  6
CONTINUOUS
 62
     7
 10
2501.855
 20
-2904.0044849999999
 30
0.0
 40
3.5
  0
LINE
  5
5D1
  8
DATA
  6
CONTINUOUS
 62
     7
 10
2501.855
 20
-2902.0044849999999
 30
0.0
 11
2501.855
 21
-2906.0044849999999
 31
0.0
  0
LINE
  5
5D2
  8
DATA
  6
CONTINUOUS
 62
     7
 10
2499.855
 20
-2904.0044849999999
 30
0.0
 11
2503.855
 21
-2904.0044849999999
 31
0.0
  0
CIRCLE
  5
5D3
  8
DATA
  6
CONTINUOUS
 62
     7
 10
2501.855
 20
-2997.0044849999999
 30
0.0
 40
3.5
  0
LINE
  5
5D4
  8
DATA
  6
CONTINUOUS
 62
     7
 10
2501.855
 20
-2995.0044849999999
 30
0.0
 11
2501.855
 21
-2999.0044849999999
 31
0.0
  0
LINE
  5
5D5
  8
DATA
  6
CONTINUOUS
 62
     7
 10
2499.855
 20
-2997.0044849999999
 30
0.0
 11
2503.855
 21
-2997.0044849999999
 31
0.0
  0
CIRCLE
  5
5D6
  8
DATA
  6
CONTINUOUS
 62
     7
 10
2501.855
 20
-2811.0044849999999
 30
0.0
 40
3.5
  0
LINE
  5
5D7
  8
DATA
  6
CONTINUOUS
 62
     7
 10
2501.855
 20
-2809.0044849999999
 30
0.0
 11
2501.855
 21
-2813.0044849999999
 31
0.0
  0
LINE
  5
5D8
  8
DATA
  6
CONTINUOUS
 62
     7
 10
2499.855
 20
-2811.0044849999999
 30
0.0
 11
2503.855
 21
-2811.0044849999999
 31
0.0
  0
CIRCLE
  5
5D9
  8
DATA
  6
CONTINUOUS
 62
     7
 10
2396.355
 20
-2904.0044849999999
 30
0.0
 40
3.5
  0
LINE
  5
5DA
  8
DATA
  6
CONTINUOUS
 62
     7
 10
2396.355
 20
-2902.0044849999999
 30
0.0
 11
2396.355
 21
-2906.0044849999999
 31
0.0
  0
LINE
  5
5DB
  8
DATA
  6
CONTINUOUS
 62
     7
 10
2394.355
 20
-2904.0044849999999
 30
0.0
 11
2398.355
 21
-2904.0044849999999
 31
0.0
  0
CIRCLE
  5
5DC
  8
DATA
  6
CONTINUOUS
 62
     7
 10
2396.355
 20
-2997.0044849999999
 30
0.0
 40
3.5
  0
LINE
  5
5DD
  8
DATA
  6
CONTINUOUS
 62
     7
 10
2396.355
 20
-2995.0044849999999
 30
0.0
 11
2396.355
 21
-2999.0044849999999
 31
0.0
  0
LINE
  5
5DE
  8
DATA
  6
CONTINUOUS
 62
     7
 10
2394.355
 20
-2997.0044849999999
 30
0.0
 11
2398.355
 21
-2997.0044849999999
 31
0.0
  0
CIRCLE
  5
5DF
  8
DATA
  6
CONTINUOUS
 62
     7
 10
2396.355
 20
-2811.0044849999999
 30
0.0
 40
3.5
  0
LINE
  5
5E0
  8
DATA
  6
CONTINUOUS
 62
     7
 10
2396.355
 20
-2809.0044849999999
 30
0.0
 11
2396.355
 21
-2813.0044849999999
 31
0.0
  0
LINE
  5
5E1
  8
DATA
  6
CONTINUOUS
 62
     7
 10
2394.355
 20
-2811.0044849999999
 30
0.0
 11
2398.355
 21
-2811.0044849999999
 31
0.0
  0
POLYLINE
  5
5E2
  8
DATA
  6
CONTINUOUS
 62
     7
 66
     1
 10
0.0
 20
0.0
 30
0.0
 70
   129
  0
VERTEX
  5
719
  8
DATA
  6
CONTINUOUS
 62
     7
 10
2442.6491108675482
 20
-2940.004485517919
 30
0.0
 42
-0.4142135623730951
  0
VERTEX
  5
71A
  8
DATA
  6
CONTINUOUS
 62
     7
 10
2444.6491108675482
 20
-2938.0044855179181
 30
0.0
  0
VERTEX
  5
71B
  8
DATA
  6
CONTINUOUS
 62
     7
 10
2452.6491108675482
 20
-2938.0044855179181
 30
0.0
 42
-0.4142135623730951
  0
VERTEX
  5
71C
  8
DATA
  6
CONTINUOUS
 62
     7
 10
2454.6491108675482
 20
-2940.004485517919
 30
0.0
  0
VERTEX
  5
71D
  8
DATA
  6
CONTINUOUS
 62
     7
 10
2454.6491108675482
 20
-2948.004485517919
 30
0.0
 42
-0.4142135623730951
  0
VERTEX
  5
71E
  8
DATA
  6
CONTINUOUS
 62
     7
 10
2452.6491108675482
 20
-2950.004485517919
 30
0.0
  0
VERTEX
  5
71F
  8
DATA
  6
CONTINUOUS
 62
     7
 10
2444.6491108675482
 20
-2950.004485517919
 30
0.0
 42
-0.4142135623730951
  0
VERTEX
  5
720
  8
DATA
  6
CONTINUOUS
 62
     7
 10
2442.6491108675482
 20
-2948.004485517919
 30
0.0
  0
SEQEND
  5
721
  8
DATA
  6
CONTINUOUS
 62
     7
  0
POLYLINE
  5
5EC
  8
DATA
  6
CONTINUOUS
 62
     7
 66
     1
 10
0.0
 20
0.0
 30
0.0
 70
     1
  0
VERTEX
  5
722
  8
DATA
  6
CONTINUOUS
 62
     7
 10
2444.1491108675482
 20
-2939.504485517919
 30
0.0
  0
VERTEX
  5
723
  8
DATA
  6
CONTINUOUS
 62
     7
 10
2453.1491108675482
 20
-2939.504485517919
 30
0.0
  0
VERTEX
  5
724
  8
DATA
  6
CONTINUOUS
 62
     7
 10
2453.1491108675482
 20
-2942.504485517919
 30
0.0
  0
VERTEX
  5
725
  8
DATA
  6
CONTINUOUS
 62
     7
 10
2444.1491108675482
 20
-2942.504485517919
 30
0.0
  0
SEQEND
  5
726
  8
DATA
  6
CONTINUOUS
 62
     7
  0
LINE
  5
5F2
  8
DATA
  6
CONTINUOUS
 62
     7
 10
2396.0608891324518
 20
-2805.0044849999999
 30
0.0
 11
2500.9391108675482
 21
-2805.0044849999999
 31
0.0
  0
LINE
  5
5F3
  8
DATA
  6
CONTINUOUS
 62
     7
 10
2388.0608891324518
 20
-2813.0044849999999
 30
0.0
 11
2388.0608891324518
 21
-2995.0044849999999
 31
0.0
  0
LINE
  5
5F4
  8
DATA
  6
CONTINUOUS
 62
     7
 10
2508.9391108675482
 20
-2813.0044849999999
 30
0.0
 11
2508.9391108675482
 21
-2995.0044849999999
 31
0.0
  0
LINE
  5
5F5
  8
DATA
  6
CONTINUOUS
 62
     7
 10
2500.9391108675482
 20
-3003.0044849999999
 30
0.0
 11
2396.0608891324518
 21
-3003.0044849999999
 31
0.0
  0
LINE
  5
5F6
  8
DATA
  6
CONTINUOUS
 62
     7
 10
2408.6491108675482
 20
-2820.0044849999999
 30
0.0
 11
2488.6491108675482
 21
-2820.0044849999999
 31
0.0
  0
LINE
  5
5F7
  8
DATA
  6
CONTINUOUS
 62
     7
 10
2404.6491108675482
 20
-2824.0044849999999
 30
0.0
 11
2404.6491108675482
 21
-2984.0044849999999
 31
0.0
  0
LINE
  5
5F8
  8
DATA
  6
CONTINUOUS
 62
     7
 10
2408.6491108675482
 20
-2988.0044849999999
 30
0.0
 11
2488.6491108675482
 21
-2988.0044849999999
 31
0.0
  0
LINE
  5
5F9
  8
DATA
  6
CONTINUOUS
 62
     7
 10
2492.6491108675482
 20
-2824.0044849999999
 30
0.0
 11
2492.6491108675482
 21
-2984.0044849999999
 31
0.0
  0
LINE
  5
5FA
  8
DATA
  6
CONTINUOUS
 62
     7
 10
2439.1491108675482
 20
-2931.504485517919
 30
0.0
 11
2458.1491108675482
 21
-2931.504485517919
 31
0.0
  0
LINE
  5
5FB
  8
DATA
  6
CONTINUOUS
 62
     7
 10
2458.1491108675482
 20
-2956.504485517919
 30
0.0
 11
2458.1491108675482
 21
-2931.504485517919
 31
0.0
  0
LINE
  5
5FC
  8
DATA
  6
CONTINUOUS
 62
     7
 10
2439.1491108675482
 20
-2956.504485517919
 30
0.0
 11
2439.1491108675482
 21
-2931.504485517919
 31
0.0
  0
LINE
  5
5FD
  8
DATA
  6
CONTINUOUS
 62
     7
 10
2439.1491108675482
 20
-2956.504485517919
 30
0.0
 11
2458.1491108675482
 21
-2956.504485517919
 31
0.0
  0
ARC
  5
5FE
  8
DATA
  6
CONTINUOUS
 62
     7
 10
2396.0608891324518
 20
-2813.0044849999999
 30
0.0
 40
8.0
 50
90.0
 51
180.0
  0
ARC
  5
5FF
  8
DATA
  6
CONTINUOUS
 62
     7
 10
2396.0608891324518
 20
-2995.0044849999999
 30
0.0
 40
8.0
 50
180.0
 51
270.0
  0
ARC
  5
600
  8
DATA
  6
CONTINUOUS
 62
     7
 10
2500.9391108675482
 20
-2995.0044849999999
 30
0.0
 40
8.0
 50
270.0
 51
0.0
  0
ARC
  5
601
  8
DATA
  6
CONTINUOUS
 62
     7
 10
2500.9391108675482
 20
-2813.0044849999999
 30
0.0
 40
8.0
 50
0.0
 51
90.0
  0
ARC
  5
602
  8
DATA
  6
CONTINUOUS
 62
     7
 10
2408.6491108675482
 20
-2824.0044849999999
 30
0.0
 40
4.0
 50
90.0
 51
180.0
  0
ARC
  5
603
  8
DATA
  6
CONTINUOUS
 62
     7
 10
2408.6491108675482
 20
-2984.0044849999999
 30
0.0
 40
4.0
 50
180.0
 51
270.0
  0
ARC
  5
604
  8
DATA
  6
CONTINUOUS
 62
     7
 10
2488.6491108675482
 20
-2984.0044849999999
 30
0.0
 40
4.0
 50
270.0
 51
0.0
  0
ARC
  5
605
  8
DATA
  6
CONTINUOUS
 62
     7
 10
2488.6491108675482
 20
-2824.0044849999999
 30
0.0
 40
4.0
 50
0.0
 51
90.0
  0
LINE
  5
606
  8
DATA
  6
CONTINUOUS
 62
     7
 10
2150.0500000000002
 20
-3082.0044849999999
 30
0.0
 11
2150.0500000000002
 21
-2590.0044849999999
 31
0.0
  0
LINE
  5
607
  8
DATA
  6
CONTINUOUS
 62
     7
 10
2158.0500000000002
 20
-2582.0044849999999
 30
0.0
 11
2738.9499999999998
 21
-2582.0044849999999
 31
0.0
  0
LINE
  5
608
  8
DATA
  6
CONTINUOUS
 62
     7
 10
2746.9499999999998
 20
-2590.0044849999999
 30
0.0
 11
2746.9499999999998
 21
-3082.0044849999999
 31
0.0
  0
ARC
  5
609
  8
DATA
  6
CONTINUOUS
 62
     7
 10
358.0499999999999
 20
-2590.0044849999999
 30
0.0
 40
8.0
 50
90.0
 51
180.0
  0
ARC
  5
60A
  8
DATA
  6
CONTINUOUS
 62
     7
 10
358.0499999999999
 20
-3082.0044849999999
 30
0.0
 40
8.0
 50
180.0
 51
270.0
  0
ARC
  5
60B
  8
DATA
  6
CONTINUOUS
 62
     7
 10
938.94999999999982
 20
-2590.0044849999999
 30
0.0
 40
8.0
 50
0.0
 51
90.0
  0
ARC
  5
60C
  8
DATA
  6
CONTINUOUS
 62
     7
 10
938.94999999999982
 20
-3082.0044849999999
 30
0.0
 40
8.0
 50
270.0
 51
0.0
  0
ARC
  5
60D
  8
DATA
  6
CONTINUOUS
 62
     7
 10
358.0499999999999
 20
-3417.5741107827048
 30
0.0
 40
8.0000000000001918
 50
120.5297058999337
 51
179.99999999999829
  0
ARC
  5
60E
  8
DATA
  6
CONTINUOUS
 62
     7
 10
391.23327850110832
 20
-3398.0044850000008
 30
0.0
 40
8.0000000000001137
 50
89.99999999999838
 51
120.52970589993269
  0
ARC
  5
60F
  8
DATA
  6
CONTINUOUS
 62
     7
 10
905.76672149889146
 20
-3398.0044850000008
 30
0.0
 40
8.0000000000001101
 50
59.470294100064059
 51
89.99999999999838
  0
ARC
  5
610
  8
DATA
  6
CONTINUOUS
 62
     7
 10
938.94999999999982
 20
-3417.5741107827048
 30
0.0
 40
8.0
 50
0.0
 51
59.470294100065473
  0
ARC
  5
611
  8
DATA
  6
CONTINUOUS
 62
     7
 10
358.0499999999999
 20
-4131.3044850000024
 30
0.0
 40
8.0
 50
180.0
 51
270.0
  0
ARC
  5
612
  8
DATA
  6
CONTINUOUS
 62
     7
 10
938.94999999999982
 20
-4131.3044850000024
 30
0.0
 40
8.0
 50
270.0
 51
0.0
  0
ARC
  5
613
  8
DATA
  6
CONTINUOUS
 62
     7
 10
358.05000000000013
 20
-2362.4348592172951
 30
0.0
 40
8.0000000000002274
 50
179.99999999999881
 51
239.47029410006351
  0
ARC
  5
614
  8
DATA
  6
CONTINUOUS
 62
     7
 10
391.23327850110832
 20
-2382.0044849999999
 30
0.0
 40
7.9999999999999067
 50
239.47029410006689
 51
270.00000000000171
  0
ARC
  5
615
  8
DATA
  6
CONTINUOUS
 62
     7
 10
905.76672149889146
 20
-2382.0044849999999
 30
0.0
 40
8.0
 50
270.0
 51
300.52970589993453
  0
ARC
  5
616
  8
DATA
  6
CONTINUOUS
 62
     7
 10
938.94999999999982
 20
-2362.4348592172951
 30
0.0
 40
8.0000000000000213
 50
300.52970589993453
 51
0.0
  0
ARC
  5
617
  8
DATA
  6
CONTINUOUS
 62
     7
 10
358.0499999999999
 20
-1648.704485
 30
0.0
 40
8.0
 50
90.0
 51
180.0
  0
ARC
  5
618
  8
DATA
  6
CONTINUOUS
 62
     7
 10
938.94999999999982
 20
-1648.704485
 30
0.0
 40
8.0
 50
0.0
 51
90.0
  0
ARC
  5
619
  8
DATA
  6
CONTINUOUS
 62
     7
 10
1158.05
 20
-2590.0044849999999
 30
0.0
 40
8.0
 50
90.0
 51
180.0
  0
ARC
  5
61A
  8
DATA
  6
CONTINUOUS
 62
     7
 10
1158.05
 20
-3082.0044849999999
 30
0.0
 40
8.0
 50
180.0
 51
270.0
  0
ARC
  5
61B
  8
DATA
  6
CONTINUOUS
 62
     7
 10
1891.3499999999999
 20
-2590.0044849999999
 30
0.0
 40
8.0
 50
0.0
 51
90.0
  0
ARC
  5
61C
  8
DATA
  6
CONTINUOUS
 62
     7
 10
1891.3499999999999
 20
-3082.0044849999999
 30
0.0
 40
8.0
 50
270.0
 51
0.0
  0
ARC
  5
61D
  8
DATA
  6
CONTINUOUS
 62
     7
 10
1214.05
 20
-2609.0044849999999
 30
0.0
 40
8.0
 50
0.0
 51
90.0
  0
ARC
  5
61E
  8
DATA
  6
CONTINUOUS
 62
     7
 10
1214.05
 20
-3063.0044849999999
 30
0.0
 40
8.0
 50
270.0
 51
0.0
  0
ARC
  5
61F
  8
DATA
  6
CONTINUOUS
 62
     7
 10
2158.0500000000002
 20
-2590.0044849999999
 30
0.0
 40
8.0
 50
90.0
 51
180.0
  0
ARC
  5
620
  8
DATA
  6
CONTINUOUS
 62
     7
 10
2738.9499999999998
 20
-2590.0044849999999
 30
0.0
 40
8.0
 50
0.0
 51
90.0
  0
ARC
  5
621
  8
DATA
  6
CONTINUOUS
 62
     7
 10
2738.9499999999998
 20
-3082.0044849999999
 30
0.0
 40
8.0
 50
270.0
 51
0.0
  0
ARC
  5
622
  8
DATA
  6
CONTINUOUS
 62
     7
 10
2158.0500000000002
 20
-3082.0044849999999
 30
0.0
 40
8.0
 50
180.0
 51
270.0
  0
LINE
  5
623
  8
DATA
  6
CONTINUOUS
 62
     7
 10
657.74999999999966
 20
-2135.0044849999999
 30
0.0
 11
1050.05
 21
-2090.0044849999999
 31
0.0
  0
LINE
  5
624
  8
DATA
  6
CONTINUOUS
 62
     7
 10
657.74999999999966
 20
-2135.0044849999999
 30
0.0
 11
719.12361220615185
 21
-2111.4453625738479
 31
0.0
  0
LINE
  5
625
  8
DATA
  6
CONTINUOUS
 62
     7
 10
657.74999999999966
 20
-2135.0044849999999
 30
0.0
 11
722.68066850561843
 21
-2145.2884925911608
 31
0.0
  0
TEXT
  5
626
  8
DATA
 62
     7
 10
1075.05
 20
-2113.5467072222209
 30
0.0
 40
43.435763888888893
  1
M20-SS4-BKポール取付穴
 41
0.8
 11
1075.05
 21
-2070.1109433333322
 31
0.0
 73
     3
  0
LINE
  5
627
  8
DATA
  6
CONTINUOUS
 62
     7
 10
1445.05
 20
-2635.0044849999999
 30
0.0
 11
1590.05
 21
-2635.0044849999999
 31
0.0
  0
LINE
  5
628
  8
DATA
  6
CONTINUOUS
 62
     7
 10
1598.05
 20
-2643.0044849999999
 30
0.0
 11
1598.05
 21
-2847.0044849999999
 31
0.0
  0
LINE
  5
629
  8
DATA
  6
CONTINUOUS
 62
     7
 10
1445.05
 20
-2855.0044849999999
 30
0.0
 11
1590.05
 21
-2855.0044849999999
 31
0.0
  0
LINE
  5
62A
  8
DATA
  6
CONTINUOUS
 62
     7
 10
1572.05
 20
-2825.0044849999999
 30
0.0
 11
1572.05
 21
-2665.0044849999999
 31
0.0
  0
LINE
  5
62B
  8
DATA
  6
CONTINUOUS
 62
     7
 10
1463.05
 20
-2744.0044849999999
 30
0.0
 11
1572.05
 21
-2744.0044849999999
 31
0.0
  0
LINE
  5
62C
  8
DATA
  6
CONTINUOUS
 62
     7
 10
1463.05
 20
-2775.0044849999999
 30
0.0
 11
1572.05
 21
-2775.0044849999999
 31
0.0
  0
LINE
  5
62D
  8
DATA
  6
CONTINUOUS
 62
     7
 10
1463.05
 20
-2750.0044849999999
 30
0.0
 11
1572.05
 21
-2750.0044849999999
 31
0.0
  0
LINE
  5
62E
  8
DATA
  6
CONTINUOUS
 62
     7
 10
1463.05
 20
-2769.0044849999999
 30
0.0
 11
1572.05
 21
-2769.0044849999999
 31
0.0
  0
CIRCLE
  5
62F
  8
DATA
  6
CONTINUOUS
 62
     7
 10
1517.55
 20
-2648.0044849999999
 30
0.0
 40
4.5000000000000089
  0
LINE
  5
630
  8
DATA
  6
CONTINUOUS
 62
     7
 10
1514.7215728752531
 20
-2648.0044849999999
 30
0.0
 11
1520.3784271247459
 21
-2648.0044849999999
 31
0.0
  0
LINE
  5
631
  8
DATA
  6
CONTINUOUS
 62
     7
 10
1517.55
 20
-2645.1760578752542
 30
0.0
 11
1517.55
 21
-2650.8329121247471
 31
0.0
  0
CIRCLE
  5
632
  8
DATA
  6
CONTINUOUS
 62
     7
 10
1517.55
 20
-2842.0044849999999
 30
0.0
 40
4.4999999999999671
  0
LINE
  5
633
  8
DATA
  6
CONTINUOUS
 62
     7
 10
1514.7215728752531
 20
-2842.0044849999999
 30
0.0
 11
1520.3784271247459
 21
-2842.0044849999999
 31
0.0
  0
LINE
  5
634
  8
DATA
  6
CONTINUOUS
 62
     7
 10
1517.55
 20
-2839.1760578752528
 30
0.0
 11
1517.55
 21
-2844.8329121247461
 31
0.0
  0
CIRCLE
  5
635
  8
DATA
  6
CONTINUOUS
 62
     7
 10
1585.55
 20
-2648.0044849999999
 30
0.0
 40
4.5000000000000089
  0
LINE
  5
636
  8
DATA
  6
CONTINUOUS
 62
     7
 10
1582.7215728752531
 20
-2648.0044849999999
 30
0.0
 11
1588.3784271247459
 21
-2648.0044849999999
 31
0.0
  0
LINE
  5
637
  8
DATA
  6
CONTINUOUS
 62
     7
 10
1585.55
 20
-2645.1760578752542
 30
0.0
 11
1585.55
 21
-2650.8329121247471
 31
0.0
  0
CIRCLE
  5
638
  8
DATA
  6
CONTINUOUS
 62
     7
 10
1585.55
 20
-2713.0044849999999
 30
0.0
 40
4.5000000000000089
  0
LINE
  5
639
  8
DATA
  6
CONTINUOUS
 62
     7
 10
1582.7215728752531
 20
-2713.0044849999999
 30
0.0
 11
1588.3784271247459
 21
-2713.0044849999999
 31
0.0
  0
LINE
  5
63A
  8
DATA
  6
CONTINUOUS
 62
     7
 10
1585.55
 20
-2710.1760578752542
 30
0.0
 11
1585.55
 21
-2715.8329121247461
 31
0.0
  0
CIRCLE
  5
63B
  8
DATA
  6
CONTINUOUS
 62
     7
 10
1585.55
 20
-2778.0044849999999
 30
0.0
 40
4.4999999999999671
  0
LINE
  5
63C
  8
DATA
  6
CONTINUOUS
 62
     7
 10
1582.7215728752531
 20
-2778.0044849999999
 30
0.0
 11
1588.3784271247459
 21
-2778.0044849999999
 31
0.0
  0
LINE
  5
63D
  8
DATA
  6
CONTINUOUS
 62
     7
 10
1585.55
 20
-2775.1760578752542
 30
0.0
 11
1585.55
 21
-2780.8329121247461
 31
0.0
  0
CIRCLE
  5
63E
  8
DATA
  6
CONTINUOUS
 62
     7
 10
1585.55
 20
-2842.0044849999999
 30
0.0
 40
4.4999999999999671
  0
LINE
  5
63F
  8
DATA
  6
CONTINUOUS
 62
     7
 10
1582.7215728752531
 20
-2842.0044849999999
 30
0.0
 11
1588.3784271247459
 21
-2842.0044849999999
 31
0.0
  0
LINE
  5
640
  8
DATA
  6
CONTINUOUS
 62
     7
 10
1585.55
 20
-2839.1760578752528
 30
0.0
 11
1585.55
 21
-2844.8329121247461
 31
0.0
  0
LINE
  5
641
  8
DATA
  6
CONTINUOUS
 62
     7
 10
1437.05
 20
-2643.0044849999999
 30
0.0
 11
1437.05
 21
-2847.0044849999999
 31
0.0
  0
LINE
  5
642
  8
DATA
  6
CONTINUOUS
 62
     7
 10
1463.05
 20
-2825.0044849999999
 30
0.0
 11
1463.05
 21
-2665.0044849999999
 31
0.0
  0
CIRCLE
  5
643
  8
DATA
  6
CONTINUOUS
 62
     7
 10
1449.55
 20
-2648.0044849999999
 30
0.0
 40
4.5000000000000089
  0
LINE
  5
644
  8
DATA
  6
CONTINUOUS
 62
     7
 10
1452.3784271247459
 20
-2648.0044849999999
 30
0.0
 11
1446.7215728752531
 21
-2648.0044849999999
 31
0.0
  0
LINE
  5
645
  8
DATA
  6
CONTINUOUS
 62
     7
 10
1449.55
 20
-2645.1760578752542
 30
0.0
 11
1449.55
 21
-2650.8329121247471
 31
0.0
  0
CIRCLE
  5
646
  8
DATA
  6
CONTINUOUS
 62
     7
 10
1449.55
 20
-2713.0044849999999
 30
0.0
 40
4.5000000000000089
  0
LINE
  5
647
  8
DATA
  6
CONTINUOUS
 62
     7
 10
1452.3784271247459
 20
-2713.0044849999999
 30
0.0
 11
1446.7215728752531
 21
-2713.0044849999999
 31
0.0
  0
LINE
  5
648
  8
DATA
  6
CONTINUOUS
 62
     7
 10
1449.55
 20
-2710.1760578752542
 30
0.0
 11
1449.55
 21
-2715.8329121247461
 31
0.0
  0
CIRCLE
  5
649
  8
DATA
  6
CONTINUOUS
 62
     7
 10
1449.55
 20
-2778.0044849999999
 30
0.0
 40
4.4999999999999671
  0
LINE
  5
64A
  8
DATA
  6
CONTINUOUS
 62
     7
 10
1452.3784271247459
 20
-2778.0044849999999
 30
0.0
 11
1446.7215728752531
 21
-2778.0044849999999
 31
0.0
  0
LINE
  5
64B
  8
DATA
  6
CONTINUOUS
 62
     7
 10
1449.55
 20
-2775.1760578752542
 30
0.0
 11
1449.55
 21
-2780.8329121247461
 31
0.0
  0
CIRCLE
  5
64C
  8
DATA
  6
CONTINUOUS
 62
     7
 10
1449.55
 20
-2842.0044849999999
 30
0.0
 40
4.4999999999999671
  0
LINE
  5
64D
  8
DATA
  6
CONTINUOUS
 62
     7
 10
1452.3784271247459
 20
-2842.0044849999999
 30
0.0
 11
1446.7215728752531
 21
-2842.0044849999999
 31
0.0
  0
LINE
  5
64E
  8
DATA
  6
CONTINUOUS
 62
     7
 10
1449.55
 20
-2839.1760578752528
 30
0.0
 11
1449.55
 21
-2844.8329121247461
 31
0.0
  0
LINE
  5
64F
  8
DATA
  6
CONTINUOUS
 62
     7
 10
1467.05
 20
-2661.0044849999999
 30
0.0
 11
1568.05
 21
-2661.0044849999999
 31
0.0
  0
LINE
  5
650
  8
DATA
  6
CONTINUOUS
 62
     7
 10
1467.05
 20
-2829.0044849999999
 30
0.0
 11
1568.05
 21
-2829.0044849999999
 31
0.0
  0
ARC
  5
651
  8
DATA
  6
CONTINUOUS
 62
     7
 10
1445.05
 20
-2643.0044849999999
 30
0.0
 40
8.0
 50
90.0
 51
180.0
  0
ARC
  5
652
  8
DATA
  6
CONTINUOUS
 62
     7
 10
1590.05
 20
-2643.0044849999999
 30
0.0
 40
8.0
 50
0.0
 51
90.0
  0
ARC
  5
653
  8
DATA
  6
CONTINUOUS
 62
     7
 10
1445.05
 20
-2847.0044849999999
 30
0.0
 40
8.0
 50
180.0
 51
270.0
  0
ARC
  5
654
  8
DATA
  6
CONTINUOUS
 62
     7
 10
1590.05
 20
-2847.0044849999999
 30
0.0
 40
8.0
 50
270.0
 51
0.0
  0
ARC
  5
655
  8
DATA
  6
CONTINUOUS
 62
     7
 10
1467.05
 20
-2665.0044849999999
 30
0.0
 40
4.0
 50
90.0
 51
180.0
  0
ARC
  5
656
  8
DATA
  6
CONTINUOUS
 62
     7
 10
1568.05
 20
-2665.0044849999999
 30
0.0
 40
4.0
 50
0.0
 51
90.0
  0
ARC
  5
657
  8
DATA
  6
CONTINUOUS
 62
     7
 10
1467.05
 20
-2825.0044849999999
 30
0.0
 40
4.0
 50
180.0
 51
270.0
  0
ARC
  5
658
  8
DATA
  6
CONTINUOUS
 62
     7
 10
1568.05
 20
-2825.0044849999999
 30
0.0
 40
4.0
 50
270.0
 51
0.0
  0
LINE
  5
659
  8
DATA
  6
CONTINUOUS
 62
     7
 10
2190.6729960847229
 20
-2617.3890667024848
 30
0.0
 11
2250.0
 21
-2475.0
 31
0.0
  0
LINE
  5
65A
  8
DATA
  6
CONTINUOUS
 62
     7
 10
2190.6729960847229
 20
-2617.3890667024848
 30
0.0
 11
2199.8222409547111
 21
-2552.2888067718941
 31
0.0
  0
LINE
  5
65B
  8
DATA
  6
CONTINUOUS
 62
     7
 10
2190.6729960847229
 20
-2617.3890667024848
 30
0.0
 11
2231.1466045328721
 21
-2565.585210244617
 31
0.0
  0
LINE
  5
65C
  8
DATA
  6
CONTINUOUS
 62
     7
 10
2250.0
 20
-2475.0
 30
0.0
 11
2325.0
 21
-2475.0
 31
0.0
  0
TEXT
  5
65D
  8
DATA
 62
     7
 10
2351.9708593705091
 20
-2494.3322222222232
 30
0.0
 40
48.865234375000007
  1
WK-4キャスター取付けネジ-(4ヶ所)
 41
0.8
 11
2351.9708593705091
 21
-2445.4669878472232
 31
0.0
 73
     3
  0
LINE
  5
65E
  8
DATA
  6
CONTINUOUS
 62
     7
 10
2450.0991118210368
 20
-2848.493494705664
 30
0.0
 11
2450.449500089891
 21
-2847.8867188828422
 31
0.0
  0
LINE
  5
65F
  8
DATA
  6
CONTINUOUS
 62
     7
 10
2451.4611118210378
 20
-2846.1334947056639
 30
0.0
 11
2451.7487311903451
 21
-2845.6352749517878
 31
0.0
  0
LINE
  5
660
  8
DATA
  6
CONTINUOUS
 62
     7
 10
2443.7777033124639
 20
-2848.1918362565998
 30
0.0
 11
2443.2798618484462
 21
-2847.9049276823798
 31
0.0
  0
ARC
  5
661
  8
DATA
  6
CONTINUOUS
 62
     7
 10
2448.649111821037
 20
-2851.004494705664
 30
0.0
 40
6.199690395495332
 50
60.002409879683043
 51
150.00296847067909
  0
LINE
  5
662
  8
DATA
  6
CONTINUOUS
 62
     7
 10
2446.1491118210379
 20
-2842.5669281725932
 30
0.0
 11
2446.1491118210379
 21
-2841.5285875520449
 31
0.0
  0
LINE
  5
663
  8
DATA
  6
CONTINUOUS
 62
     7
 10
2451.149111821037
 20
-2842.5669281725932
 30
0.0
 11
2451.149111821037
 21
-2841.5285875520449
 31
0.0
  0
ARC
  5
664
  8
DATA
  6
CONTINUOUS
 62
     7
 10
2448.649111821037
 20
-2851.004494705664
 30
0.0
 40
9.8001436920087368
 50
75.220590009595696
 51
104.7794099904043
  0
LINE
  5
665
  8
DATA
  6
CONTINUOUS
 62
     7
 10
2447.1994245257179
 20
-2853.5156752538901
 30
0.0
 11
2446.8491118210368
 21
-2854.122494705663
 31
0.0
  0
LINE
  5
666
  8
DATA
  6
CONTINUOUS
 62
     7
 10
2446.1378618622848
 20
-2849.554927651448
 30
0.0
 11
2445.531111821037
 21
-2849.2044947056629
 31
0.0
  0
LINE
  5
667
  8
DATA
  6
CONTINUOUS
 62
     7
 10
2451.1601118210369
 20
-2852.4544947056652
 30
0.0
 11
2451.7668617679269
 21
-2852.8049277837522
 31
0.0
  0
LINE
  5
668
  8
DATA
  6
CONTINUOUS
 62
     7
 10
2453.5199533042201
 20
-2853.8164032042182
 30
0.0
 11
2454.0181118210371
 21
-2854.1044947056639
 31
0.0
  0
ARC
  5
669
  8
DATA
  6
CONTINUOUS
 62
     7
 10
2448.649111821037
 20
-2851.004494705664
 30
0.0
 40
3.600267212305257
 50
240.00245515180839
 51
329.99449667149338
  0
ARC
  5
66A
  8
DATA
  6
CONTINUOUS
 62
     7
 10
2448.649111821037
 20
-2851.004494705664
 30
0.0
 40
2.899589798575168
 50
150.0051985676777
 51
240.00245515180671
  0
ARC
  5
66B
  8
DATA
  6
CONTINUOUS
 62
     7
 10
2448.649111821037
 20
-2851.004494705664
 30
0.0
 40
5.6246597452645331
 50
330.00495624442863
 51
59.997998874590678
  0
ARC
  5
66C
  8
DATA
  6
CONTINUOUS
 62
     7
 10
2448.649111821037
 20
-2851.004494705664
 30
0.0
 40
2.8995897985749579
 50
329.99532014014738
 51
59.995320140151293
  0
ARC
  5
66D
  8
DATA
  6
CONTINUOUS
 62
     7
 10
2448.649111821037
 20
-2851.004494705664
 30
0.0
 40
5.6246597452647791
 50
149.9961350790791
 51
240.00234990249601
  0
ARC
  5
66E
  8
DATA
  6
CONTINUOUS
 62
     7
 10
2448.649111821037
 20
-2851.004494705664
 30
0.0
 40
3.6002672123051309
 50
59.99532014015233
 51
150.00245515181149
  0
LINE
  5
66F
  8
DATA
  6
CONTINUOUS
 62
     7
 10
2447.149111821037
 20
-2860.6891638473548
 30
0.0
 11
2447.149111821037
 21
-2859.6758572860199
 31
0.0
  0
LINE
  5
670
  8
DATA
  6
CONTINUOUS
 62
     7
 10
2450.149111821037
 20
-2860.6891638473548
 30
0.0
 11
2450.149111821037
 21
-2859.6758572860199
 31
0.0
  0
ARC
  5
671
  8
DATA
  6
CONTINUOUS
 62
     7
 10
2448.649111821037
 20
-2851.004494705664
 30
0.0
 40
9.8001436920087528
 50
261.19575921336138
 51
278.80424078663862
  0
LINE
  5
672
  8
DATA
  6
CONTINUOUS
 62
     7
 10
2445.836481731732
 20
-2855.8757082722009
 30
0.0
 11
2445.5491118210371
 21
-2856.3734947056641
 31
0.0
  0
ARC
  5
673
  8
DATA
  6
CONTINUOUS
 62
     7
 10
2448.649111821037
 20
-2851.004494705664
 30
0.0
 40
6.1996903954956757
 50
239.99834802721119
 51
329.99834802721421
  0
ARC
  5
674
  8
DATA
  6
CONTINUOUS
 62
     7
 10
2448.649111821037
 20
-2851.004494705664
 30
0.0
 40
8.8001436920085272
 50
278.8042407866364
 51
73.495761680205845
  0
ARC
  5
675
  8
DATA
  6
CONTINUOUS
 62
     7
 10
2448.649111821037
 20
-2851.004494705664
 30
0.0
 40
8.8001436920087048
 50
106.5042383197937
 51
260.18591350361152
  0
CIRCLE
  5
676
  8
DATA
  6
CONTINUOUS
 62
     7
 10
2448.649111821037
 20
-2851.004494705664
 30
0.0
 40
11.75
  0
LINE
  5
677
  8
DATA
  6
CONTINUOUS
 62
     7
 10
2450.0991118210368
 20
-2886.493494705664
 30
0.0
 11
2450.449500089891
 21
-2885.8867188828422
 31
0.0
  0
LINE
  5
678
  8
DATA
  6
CONTINUOUS
 62
     7
 10
2451.4611118210378
 20
-2884.1334947056639
 30
0.0
 11
2451.7487311903451
 21
-2883.6352749517878
 31
0.0
  0
LINE
  5
679
  8
DATA
  6
CONTINUOUS
 62
     7
 10
2443.7777033124639
 20
-2886.1918362565998
 30
0.0
 11
2443.2798618484462
 21
-2885.9049276823812
 31
0.0
  0
ARC
  5
67A
  8
DATA
  6
CONTINUOUS
 62
     7
 10
2448.649111821037
 20
-2889.004494705664
 30
0.0
 40
6.199690395495332
 50
60.002409879683043
 51
150.00296847067909
  0
LINE
  5
67B
  8
DATA
  6
CONTINUOUS
 62
     7
 10
2446.1491118210379
 20
-2880.5669281725932
 30
0.0
 11
2446.1491118210379
 21
-2879.5285875520449
 31
0.0
  0
LINE
  5
67C
  8
DATA
  6
CONTINUOUS
 62
     7
 10
2451.149111821037
 20
-2880.5669281725932
 30
0.0
 11
2451.149111821037
 21
-2879.5285875520449
 31
0.0
  0
ARC
  5
67D
  8
DATA
  6
CONTINUOUS
 62
     7
 10
2448.649111821037
 20
-2889.004494705664
 30
0.0
 40
9.8001436920087368
 50
75.220590009595696
 51
104.7794099904043
  0
LINE
  5
67E
  8
DATA
  6
CONTINUOUS
 62
     7
 10
2447.1994245257179
 20
-2891.5156752538901
 30
0.0
 11
2446.8491118210368
 21
-2892.122494705663
 31
0.0
  0
LINE
  5
67F
  8
DATA
  6
CONTINUOUS
 62
     7
 10
2446.1378618622848
 20
-2887.554927651448
 30
0.0
 11
2445.531111821037
 21
-2887.2044947056629
 31
0.0
  0
LINE
  5
680
  8
DATA
  6
CONTINUOUS
 62
     7
 10
2451.1601118210369
 20
-2890.4544947056638
 30
0.0
 11
2451.7668617679269
 21
-2890.8049277837522
 31
0.0
  0
LINE
  5
681
  8
DATA
  6
CONTINUOUS
 62
     7
 10
2453.5199533042201
 20
-2891.8164032042182
 30
0.0
 11
2454.0181118210371
 21
-2892.1044947056639
 31
0.0
  0
ARC
  5
682
  8
DATA
  6
CONTINUOUS
 62
     7
 10
2448.649111821037
 20
-2889.004494705664
 30
0.0
 40
3.600267212305257
 50
240.00245515180839
 51
329.99449667149338
  0
ARC
  5
683
  8
DATA
  6
CONTINUOUS
 62
     7
 10
2448.649111821037
 20
-2889.004494705664
 30
0.0
 40
2.899589798575168
 50
150.0051985676777
 51
240.00245515180671
  0
ARC
  5
684
  8
DATA
  6
CONTINUOUS
 62
     7
 10
2448.649111821037
 20
-2889.004494705664
 30
0.0
 40
5.6246597452645331
 50
330.00495624442863
 51
59.997998874590678
  0
ARC
  5
685
  8
DATA
  6
CONTINUOUS
 62
     7
 10
2448.649111821037
 20
-2889.004494705664
 30
0.0
 40
2.8995897985749579
 50
329.99532014014738
 51
59.995320140151293
  0
ARC
  5
686
  8
DATA
  6
CONTINUOUS
 62
     7
 10
2448.649111821037
 20
-2889.004494705664
 30
0.0
 40
5.6246597452647791
 50
149.9961350790791
 51
240.00234990249601
  0
ARC
  5
687
  8
DATA
  6
CONTINUOUS
 62
     7
 10
2448.649111821037
 20
-2889.004494705664
 30
0.0
 40
3.6002672123051309
 50
59.99532014015233
 51
150.00245515181149
  0
LINE
  5
688
  8
DATA
  6
CONTINUOUS
 62
     7
 10
2447.149111821037
 20
-2898.6891638473548
 30
0.0
 11
2447.149111821037
 21
-2897.6758572860199
 31
0.0
  0
LINE
  5
689
  8
DATA
  6
CONTINUOUS
 62
     7
 10
2450.149111821037
 20
-2898.6891638473548
 30
0.0
 11
2450.149111821037
 21
-2897.6758572860199
 31
0.0
  0
ARC
  5
68A
  8
DATA
  6
CONTINUOUS
 62
     7
 10
2448.649111821037
 20
-2889.004494705664
 30
0.0
 40
9.8001436920087528
 50
261.19575921336138
 51
278.80424078663862
  0
LINE
  5
68B
  8
DATA
  6
CONTINUOUS
 62
     7
 10
2445.836481731732
 20
-2893.8757082722009
 30
0.0
 11
2445.5491118210371
 21
-2894.3734947056641
 31
0.0
  0
ARC
  5
68C
  8
DATA
  6
CONTINUOUS
 62
     7
 10
2448.649111821037
 20
-2889.004494705664
 30
0.0
 40
6.1996903954956757
 50
239.99834802721119
 51
329.99834802721421
  0
ARC
  5
68D
  8
DATA
  6
CONTINUOUS
 62
     7
 10
2448.649111821037
 20
-2889.004494705664
 30
0.0
 40
8.8001436920085272
 50
278.8042407866364
 51
73.495761680205845
  0
ARC
  5
68E
  8
DATA
  6
CONTINUOUS
 62
     7
 10
2448.649111821037
 20
-2889.004494705664
 30
0.0
 40
8.8001436920087048
 50
106.5042383197937
 51
260.18591350361152
  0
CIRCLE
  5
68F
  8
DATA
  6
CONTINUOUS
 62
     7
 10
2448.649111821037
 20
-2889.004494705664
 30
0.0
 40
11.75
  0
LINE
  5
690
  8
DATA
  6
CONTINUOUS
 62
     7
 10
2722.2293246896438
 20
-3550.9385432339809
 30
0.0
 11
2724.3316543027681
 21
-3547.2978882970542
 31
0.0
  0
LINE
  5
691
  8
DATA
  6
CONTINUOUS
 62
     7
 10
2730.4013246896479
 20
-3536.7785432339838
 30
0.0
 11
2732.1270409054891
 21
-3533.7892247107288
 31
0.0
  0
LINE
  5
692
  8
DATA
  6
CONTINUOUS
 62
     7
 10
2684.3008736382021
 20
-3549.1285925395941
 30
0.0
 11
2681.3138248540981
 21
-3547.4071410942829
 31
0.0
  0
ARC
  5
693
  8
DATA
  6
CONTINUOUS
 62
     7
 10
2713.5293246896449
 20
-3566.0045432339821
 30
0.0
 40
37.198142372972001
 50
60.002409879683043
 51
150.00296847067881
  0
LINE
  5
694
  8
DATA
  6
CONTINUOUS
 62
     7
 10
2698.5293246896481
 20
-3515.3791440355571
 30
0.0
 11
2698.5293246896481
 21
-3509.1491003122678
 31
0.0
  0
LINE
  5
695
  8
DATA
  6
CONTINUOUS
 62
     7
 10
2728.5293246896449
 20
-3515.3791440355571
 30
0.0
 11
2728.5293246896449
 21
-3509.1491003122678
 31
0.0
  0
ARC
  5
696
  8
DATA
  6
CONTINUOUS
 62
     7
 10
2713.5293246896449
 20
-3566.0045432339821
 30
0.0
 40
58.800862152052403
 50
75.220590009595696
 51
104.7794099904043
  0
LINE
  5
697
  8
DATA
  6
CONTINUOUS
 62
     7
 10
2704.831200917728
 20
-3581.07162652334
 30
0.0
 11
2702.7293246896452
 21
-3584.7125432339808
 31
0.0
  0
LINE
  5
698
  8
DATA
  6
CONTINUOUS
 62
     7
 10
2698.4618249371351
 20
-3557.307140908687
 30
0.0
 11
2694.8213246896448
 21
-3555.2045432339801
 31
0.0
  0
LINE
  5
699
  8
DATA
  6
CONTINUOUS
 62
     7
 10
2728.5953246896452
 20
-3574.7045432339828
 30
0.0
 11
2732.23582437098
 21
-3576.8071417025112
 31
0.0
  0
LINE
  5
69A
  8
DATA
  6
CONTINUOUS
 62
     7
 10
2742.754373588733
 20
-3582.8759942253068
 30
0.0
 11
2745.7433246896439
 21
-3584.6045432339811
 31
0.0
  0
ARC
  5
69B
  8
DATA
  6
CONTINUOUS
 62
     7
 10
2713.5293246896449
 20
-3566.0045432339821
 30
0.0
 40
21.60160327383155
 50
240.00245515180839
 51
329.99449667149321
  0
ARC
  5
69C
  8
DATA
  6
CONTINUOUS
 62
     7
 10
2713.5293246896449
 20
-3566.0045432339821
 30
0.0
 40
17.397538791451009
 50
150.0051985676777
 51
240.0024551518064
  0
ARC
  5
69D
  8
DATA
  6
CONTINUOUS
 62
     7
 10
2713.5293246896449
 20
-3566.0045432339821
 30
0.0
 40
33.747958471587211
 50
330.00495624442863
 51
59.997998874590863
  0
ARC
  5
69E
  8
DATA
  6
CONTINUOUS
 62
     7
 10
2713.5293246896449
 20
-3566.0045432339821
 30
0.0
 40
17.397538791449751
 50
329.99532014014738
 51
59.995320140151136
  0
ARC
  5
69F
  8
DATA
  6
CONTINUOUS
 62
     7
 10
2713.5293246896449
 20
-3566.0045432339821
 30
0.0
 40
33.747958471588682
 50
149.9961350790791
 51
240.00234990249589
  0
ARC
  5
6A0
  8
DATA
  6
CONTINUOUS
 62
     7
 10
2713.5293246896449
 20
-3566.0045432339821
 30
0.0
 40
21.601603273830801
 50
59.99532014015233
 51
150.00245515181149
  0
LINE
  5
6A1
  8
DATA
  6
CONTINUOUS
 62
     7
 10
2704.5293246896449
 20
-3624.1125580841272
 30
0.0
 11
2704.5293246896449
 21
-3618.0327187161211
 31
0.0
  0
LINE
  5
6A2
  8
DATA
  6
CONTINUOUS
 62
     7
 10
2722.5293246896449
 20
-3624.1125580841272
 30
0.0
 11
2722.5293246896449
 21
-3618.0327187161211
 31
0.0
  0
ARC
  5
6A3
  8
DATA
  6
CONTINUOUS
 62
     7
 10
2713.5293246896449
 20
-3566.0045432339821
 30
0.0
 40
58.80086215205251
 50
261.19575921336138
 51
278.80424078663862
  0
LINE
  5
6A4
  8
DATA
  6
CONTINUOUS
 62
     7
 10
2696.653544153809
 20
-3595.2318246332061
 30
0.0
 11
2694.9293246896459
 21
-3598.218543233982
 31
0.0
  0
ARC
  5
6A5
  8
DATA
  6
CONTINUOUS
 62
     7
 10
2713.5293246896449
 20
-3566.0045432339821
 30
0.0
 40
37.198142372974061
 50
239.99834802721119
 51
329.99834802721398
  0
ARC
  5
6A6
  8
DATA
  6
CONTINUOUS
 62
     7
 10
2713.5293246896449
 20
-3566.0045432339821
 30
0.0
 40
52.800862152051188
 50
278.8042407866364
 51
73.495761680205931
  0
ARC
  5
6A7
  8
DATA
  6
CONTINUOUS
 62
     7
 10
2713.5293246896449
 20
-3566.0045432339821
 30
0.0
 40
52.800862152052233
 50
106.5042383197937
 51
260.18591350361152
  0
CIRCLE
  5
6A8
  8
DATA
  6
CONTINUOUS
 62
     7
 10
2713.5293246896449
 20
-3566.0045432339821
 30
0.0
 40
70.5
  0
LINE
  5
6A9
  8
DATA
  6
CONTINUOUS
 62
     7
 10
2722.2293361315119
 20
-3778.9385432339809
 30
0.0
 11
2724.3316657446348
 21
-3775.2978882970529
 31
0.0
  0
LINE
  5
6AA
  8
DATA
  6
CONTINUOUS
 62
     7
 10
2730.401336131516
 20
-3764.7785432339838
 30
0.0
 11
2732.1270523473572
 21
-3761.7892247107288
 31
0.0
  0
LINE
  5
6AB
  8
DATA
  6
CONTINUOUS
 62
     7
 10
2684.3008850800702
 20
-3777.1285925395941
 30
0.0
 11
2681.3138362959671
 21
-3775.4071410942829
 31
0.0
  0
ARC
  5
6AC
  8
DATA
  6
CONTINUOUS
 62
     7
 10
2713.529336131513
 20
-3794.004543233983
 30
0.0
 40
37.198142372972001
 50
60.002409879683043
 51
150.00296847067881
  0
LINE
  5
6AD
  8
DATA
  6
CONTINUOUS
 62
     7
 10
2698.5293361315162
 20
-3743.3791440355571
 30
0.0
 11
2698.5293361315162
 21
-3737.1491003122669
 31
0.0
  0
LINE
  5
6AE
  8
DATA
  6
CONTINUOUS
 62
     7
 10
2728.529336131513
 20
-3743.3791440355571
 30
0.0
 11
2728.529336131513
 21
-3737.1491003122669
 31
0.0
  0
ARC
  5
6AF
  8
DATA
  6
CONTINUOUS
 62
     7
 10
2713.529336131513
 20
-3794.004543233983
 30
0.0
 40
58.800862152052403
 50
75.220590009595696
 51
104.7794099904043
  0
LINE
  5
6B0
  8
DATA
  6
CONTINUOUS
 62
     7
 10
2704.831212359597
 20
-3809.0716265233409
 30
0.0
 11
2702.7293361315128
 21
-3812.7125432339808
 31
0.0
  0
LINE
  5
6B1
  8
DATA
  6
CONTINUOUS
 62
     7
 10
2698.4618363790032
 20
-3785.307140908687
 30
0.0
 11
2694.8213361315129
 21
-3783.2045432339801
 31
0.0
  0
LINE
  5
6B2
  8
DATA
  6
CONTINUOUS
 62
     7
 10
2728.5953361315142
 20
-3802.7045432339828
 30
0.0
 11
2732.2358358128481
 21
-3804.8071417025112
 31
0.0
  0
LINE
  5
6B3
  8
DATA
  6
CONTINUOUS
 62
     7
 10
2742.754385030601
 20
-3810.8759942253059
 30
0.0
 11
2745.743336131512
 21
-3812.6045432339811
 31
0.0
  0
ARC
  5
6B4
  8
DATA
  6
CONTINUOUS
 62
     7
 10
2713.529336131513
 20
-3794.004543233983
 30
0.0
 40
21.60160327383155
 50
240.00245515180839
 51
329.99449667149321
  0
ARC
  5
6B5
  8
DATA
  6
CONTINUOUS
 62
     7
 10
2713.529336131513
 20
-3794.004543233983
 30
0.0
 40
17.397538791451009
 50
150.0051985676777
 51
240.0024551518064
  0
ARC
  5
6B6
  8
DATA
  6
CONTINUOUS
 62
     7
 10
2713.529336131513
 20
-3794.004543233983
 30
0.0
 40
33.747958471587211
 50
330.00495624442863
 51
59.997998874590863
  0
ARC
  5
6B7
  8
DATA
  6
CONTINUOUS
 62
     7
 10
2713.529336131513
 20
-3794.004543233983
 30
0.0
 40
17.397538791449751
 50
329.99532014014738
 51
59.995320140151136
  0
ARC
  5
6B8
  8
DATA
  6
CONTINUOUS
 62
     7
 10
2713.529336131513
 20
-3794.004543233983
 30
0.0
 40
33.747958471588682
 50
149.9961350790791
 51
240.00234990249589
  0
ARC
  5
6B9
  8
DATA
  6
CONTINUOUS
 62
     7
 10
2713.529336131513
 20
-3794.004543233983
 30
0.0
 40
21.601603273830801
 50
59.99532014015233
 51
150.00245515181149
  0
LINE
  5
6BA
  8
DATA
  6
CONTINUOUS
 62
     7
 10
2704.529336131513
 20
-3852.1125580841258
 30
0.0
 11
2704.529336131513
 21
-3846.0327187161201
 31
0.0
  0
LINE
  5
6BB
  8
DATA
  6
CONTINUOUS
 62
     7
 10
2722.529336131513
 20
-3852.1125580841258
 30
0.0
 11
2722.529336131513
 21
-3846.0327187161201
 31
0.0
  0
ARC
  5
6BC
  8
DATA
  6
CONTINUOUS
 62
     7
 10
2713.529336131513
 20
-3794.004543233983
 30
0.0
 40
58.80086215205251
 50
261.19575921336138
 51
278.80424078663862
  0
LINE
  5
6BD
  8
DATA
  6
CONTINUOUS
 62
     7
 10
2696.653555595678
 20
-3823.231824633207
 30
0.0
 11
2694.929336131514
 21
-3826.218543233982
 31
0.0
  0
ARC
  5
6BE
  8
DATA
  6
CONTINUOUS
 62
     7
 10
2713.529336131513
 20
-3794.004543233983
 30
0.0
 40
37.198142372974061
 50
239.99834802721119
 51
329.99834802721398
  0
ARC
  5
6BF
  8
DATA
  6
CONTINUOUS
 62
     7
 10
2713.529336131513
 20
-3794.004543233983
 30
0.0
 40
52.800862152051188
 50
278.8042407866364
 51
73.495761680205931
  0
ARC
  5
6C0
  8
DATA
  6
CONTINUOUS
 62
     7
 10
2713.529336131513
 20
-3794.004543233983
 30
0.0
 40
52.800862152052233
 50
106.5042383197937
 51
260.18591350361152
  0
CIRCLE
  5
6C1
  8
DATA
  6
CONTINUOUS
 62
     7
 10
2713.529336131513
 20
-3794.004543233983
 30
0.0
 40
70.5
  0
ENDSEC
  0
EOF
