  0
SECTION
  2
HEADER
  9
$ACADVER
  1
AC1009
  9
$INSBASE
 10
0.0
 20
0.0
 30
0.0
  9
$EXTMIN
 10
-500.10985489947501
 20
-1345.3293027911111
 30
-0.0015258207003583
  9
$EXTMAX
 10
3100.109871663281
 20
4007.2719851401671
 30
0.0000000349246037
  9
$LIMMIN
 10
0.0
 20
0.0
  9
$LIMMAX
 10
0.0
 20
0.0
  9
$ORTHOMODE
 70
     0
  9
$REGENMODE
 70
     1
  9
$FILLMODE
 70
     1
  9
$QTEXTMODE
 70
     0
  9
$MIRRTEXT
 70
     1
  9
$DRAGMODE
 70
     2
  9
$LTSCALE
 40
101.59999999999999
  9
$OSMODE
 70
   231
  9
$ATTMODE
 70
     1
  9
$TEXTSIZE
 40
0.0
  9
$TRACEWID
 40
1.0
  9
$TEXTSTYLE
  7
STANDARD
  9
$CLAYER
  8
DATA
  9
$CELTYPE
  6
CONTINUOUS
  9
$CECOLOR
 62
   256
  9
$DIMSCALE
 40
1.0
  9
$DIMASZ
 40
0.18
  9
$DIMEXO
 40
0.0625
  9
$DIMDLI
 40
0.38
  9
$DIMRND
 40
0.0
  9
$DIMDLE
 40
0.0
  9
$DIMEXE
 40
0.18
  9
$DIMTP
 40
0.0
  9
$DIMTM
 40
0.0
  9
$DIMTXT
 40
0.18
  9
$DIMCEN
 40
0.09
  9
$DIMTSZ
 40
0.0
  9
$DIMTOL
 70
     0
  9
$DIMLIM
 70
     0
  9
$DIMTIH
 70
     1
  9
$DIMTOH
 70
     1
  9
$DIMSE1
 70
     0
  9
$DIMSE2
 70
     0
  9
$DIMTAD
 70
     0
  9
$DIMZIN
 70
     0
  9
$DIMBLK
  1

  9
$DIMASO
 70
     1
  9
$DIMSHO
 70
     1
  9
$DIMPOST
  1

  9
$DIMAPOST
  1

  9
$DIMALT
 70
     0
  9
$DIMALTD
 70
     2
  9
$DIMALTF
 40
25.399999999999999
  9
$DIMLFAC
 40
1.0
  9
$DIMTOFL
 70
     0
  9
$DIMTVP
 40
0.0
  9
$DIMTIX
 70
     0
  9
$DIMSOXD
 70
     0
  9
$DIMSAH
 70
     0
  9
$DIMBLK1
  1

  9
$DIMBLK2
  1

  9
$DIMSTYLE
  2
STANDARD
  9
$DIMCLRD
 70
     0
  9
$DIMCLRE
 70
     0
  9
$DIMCLRT
 70
     0
  9
$DIMTFAC
 40
1.0
  9
$DIMGAP
 40
0.09
  9
$LUNITS
 70
     2
  9
$LUPREC
 70
     4
  9
$SKETCHINC
 40
0.1
  9
$FILLETRAD
 40
0.0
  9
$AUNITS
 70
     0
  9
$AUPREC
 70
     0
  9
$MENU
  1
acad
  9
$ELEVATION
 40
0.0
  9
$PELEVATION
 40
0.0
  9
$THICKNESS
 40
0.0
  9
$LIMCHECK
 70
     0
  9
$BLIPMODE
 70
     0
  9
$CHAMFERA
 40
0.0
  9
$CHAMFERB
 40
0.0
  9
$SKPOLY
 70
     0
  9
$TDCREATE
 40
2453685.7731828699
  9
$TDUPDATE
 40
2453685.7765852548
  9
$TDINDWG
 40
0.0005402315
  9
$TDUSRTIMER
 40
0.0005400463
  9
$USRTIMER
 70
     1
  9
$ANGBASE
 50
0.0
  9
$ANGDIR
 70
     0
  9
$PDMODE
 70
     1
  9
$PDSIZE
 40
-2.0
  9
$PLINEWID
 40
0.0
  9
$COORDS
 70
     2
  9
$SPLFRAME
 70
     0
  9
$SPLINETYPE
 70
     6
  9
$SPLINESEGS
 70
     8
  9
$ATTDIA
 70
     0
  9
$ATTREQ
 70
     1
  9
$HANDLING
 70
     1
  9
$HANDSEED
  5
BB7
  9
$SURFTAB1
 70
     6
  9
$SURFTAB2
 70
     6
  9
$SURFTYPE
 70
     6
  9
$SURFU
 70
     6
  9
$SURFV
 70
     6
  9
$UCSNAME
  2

  9
$UCSORG
 10
0.0
 20
0.0
 30
0.0
  9
$UCSXDIR
 10
1.0
 20
0.0
 30
0.0
  9
$UCSYDIR
 10
0.0
 20
1.0
 30
0.0
  9
$PUCSNAME
  2

  9
$PUCSORG
 10
0.0
 20
0.0
 30
0.0
  9
$PUCSXDIR
 10
1.0
 20
0.0
 30
0.0
  9
$PUCSYDIR
 10
0.0
 20
1.0
 30
0.0
  9
$USERI1
 70
     0
  9
$USERI2
 70
     0
  9
$USERI3
 70
     0
  9
$USERI4
 70
     0
  9
$USERI5
 70
     0
  9
$USERR1
 40
0.0
  9
$USERR2
 40
0.0
  9
$USERR3
 40
0.0
  9
$USERR4
 40
0.0
  9
$USERR5
 40
0.0
  9
$WORLDVIEW
 70
     1
  9
$SHADEDGE
 70
     3
  9
$SHADEDIF
 70
    70
  9
$TILEMODE
 70
     1
  9
$MAXACTVP
 70
    64
  9
$PLIMCHECK
 70
     0
  9
$PEXTMIN
 10
1.0000000000000000E+020
 20
1.0000000000000000E+020
 30
1.0000000000000000E+020
  9
$PEXTMAX
 10
-1.0000000000000000E+020
 20
-1.0000000000000000E+020
 30
-1.0000000000000000E+020
  9
$PLIMMIN
 10
0.0
 20
0.0
  9
$PLIMMAX
 10
12.0
 20
9.0
  9
$UNITMODE
 70
     0
  9
$VISRETAIN
 70
     0
  9
$PLINEGEN
 70
     1
  9
$PSLTSCALE
 70
     0
  0
ENDSEC
  0
SECTION
  2
TABLES
  0
TABLE
  2
VPORT
 70
     2
  0
VPORT
  2
*ACTIVE
 70
     0
 10
0.0
 20
0.0
 11
1.0
 21
1.0
 12
1300.0000083819029
 22
1330.971341174527
 13
0.0
 23
0.0
 14
1.0
 24
1.0
 15
0.0
 25
0.0
 16
0.0
 26
0.0
 36
1.0
 17
0.0
 27
0.0
 37
0.0
 40
5396.8986779003644
 41
1.665745856353591
 42
50.0
 43
0.0
 44
0.0
 50
0.0
 51
0.0
 71
     0
 72
  2000
 73
     1
 74
     1
 75
     0
 76
     0
 77
     0
 78
     0
  0
ENDTAB
  0
TABLE
  2
LTYPE
 70
    12
  0
LTYPE
  2
CONTINUOUS
 70
     0
  3
Solid line
 72
    65
 73
     0
 40
0.0
  0
ENDTAB
  0
TABLE
  2
LAYER
 70
     6
  0
LAYER
  2
0
 70
     0
 62
     7
  6
CONTINUOUS
  0
LAYER
  2
DATA
 70
     0
 62
     7
  6
CONTINUOUS
  0
LAYER
  2
HIBINO-BASE
 70
     0
 62
     7
  6
CONTINUOUS
  0
LAYER
  2
SPEC
 70
     0
 62
     7
  6
CONTINUOUS
  0
LAYER
  2
PATTERN_FILL
 70
     0
 62
     7
  6
CONTINUOUS
  0
LAYER
  2
DIMNSIONS
 70
     0
 62
     7
  6
CONTINUOUS
  0
ENDTAB
  0
TABLE
  2
STYLE
 70
     2
  0
STYLE
  2
STANDARD
 70
     0
 40
0.0
 41
1.0
 50
0.0
 71
     0
 42
0.0
  3
txt
  4
BIGFONT.SHX
  0
ENDTAB
  0
TABLE
  2
VIEW
 70
     0
  0
ENDTAB
  0
TABLE
  2
UCS
 70
     0
  0
ENDTAB
  0
TABLE
  2
APPID
 70
     1
  0
APPID
  2
ACAD
 70
     0
  0
ENDTAB
  0
TABLE
  2
DIMSTYLE
 70
     1
  0
DIMSTYLE
  2
STANDARD
 70
     0
  3

  4

  5

  6

  7

 40
1.0
 41
0.18
 42
0.0625
 43
0.38
 44
0.18
 45
0.0
 46
0.0
 47
0.0
 48
0.0
140
0.18
141
0.09
142
0.0
143
25.399999999999999
144
1.0
145
0.0
146
1.0
147
0.09
 71
     0
 72
     0
 73
     1
 74
     1
 75
     0
 76
     0
 77
     0
 78
     0
170
     0
171
     2
172
     0
173
     0
174
     0
175
     0
176
     0
177
     0
178
     0
  0
ENDTAB
  0
ENDSEC
  0
SECTION
  2
BLOCKS
  0
BLOCK
  8
0
  2
$MODEL_SPACE
 70
     0
 10
0.0
 20
0.0
 30
0.0
  3
$MODEL_SPACE
  1

  0
ENDBLK
  5
B8B
  8
0
  0
BLOCK
 67
     1
  8
0
  2
$PAPER_SPACE
 70
     0
 10
0.0
 20
0.0
 30
0.0
  3
$PAPER_SPACE
  1

  0
ENDBLK
  5
B87
 67
     1
  8
0
  0
ENDSEC
  0
SECTION
  2
ENTITIES
  0
LINE
  5
2E
  8
HIBINO-BASE
  6
CONTINUOUS
 62
     7
 10
-499.99999999999977
 20
4007.1089699999989
 30
0.0
 11
3100.0
 21
4007.1089699999989
 31
0.0
  0
LINE
  5
2F
  8
HIBINO-BASE
  6
CONTINUOUS
 62
     7
 10
3100.0
 20
-1192.89103
 30
0.0
 11
-499.99999999999977
 21
-1192.89103
 31
0.0
  0
LINE
  5
30
  8
HIBINO-BASE
  6
CONTINUOUS
 62
     7
 10
-499.99999999999977
 20
-1192.89103
 30
0.0
 11
-499.99999999999977
 21
4007.1089699999989
 31
0.0
  0
TEXT
  5
31
  8
HIBINO-BASE
 62
     7
 10
-356.31999999999971
 20
-1321.0645859999991
 30
0.0
 40
72.000883593749975
  1
Hibino Corporation
 41
0.8
 11
-356.31999999999971
 21
-1249.0637024062489
 31
0.0
 73
     3
  0
LINE
  5
32
  8
HIBINO-BASE
  6
CONTINUOUS
 62
     7
 10
3100.0
 20
4007.1089699999989
 30
0.0
 11
3100.0
 21
-1192.89103
 31
0.0
  0
LINE
  5
33
  8
HIBINO-BASE
  6
CONTINUOUS
 62
     7
 10
1300.0
 20
-742.89102999999955
 30
0.0
 11
3100.0
 21
-742.89102999999955
 31
0.0
  0
LINE
  5
34
  8
HIBINO-BASE
  6
CONTINUOUS
 62
     7
 10
1300.0
 20
-1192.89103
 30
0.0
 11
1300.0
 21
-742.89102999999955
 31
0.0
  0
TEXT
  5
35
  8
HIBINO-BASE
 62
     7
 10
1318.0
 20
-796.89109399999995
 30
0.0
 40
36.000518749999998
  1
NOTE
 41
0.8
 11
1318.0
 21
-760.89057524999998
 31
0.0
 73
     3
  0
LINE
  5
36
  8
HIBINO-BASE
  6
CONTINUOUS
 62
     7
 10
2000.0
 20
-1192.89103
 30
0.0
 11
2000.0
 21
-742.89102999999955
 31
0.0
  0
TEXT
  5
37
  8
HIBINO-BASE
 62
     7
 10
2018.0
 20
-796.89109399999995
 30
0.0
 40
36.000518749999998
  1
TITLE
 41
0.8
 11
2018.0
 21
-760.89057524999998
 31
0.0
 73
     3
  0
TEXT
  5
38
  8
HIBINO-BASE
 62
     7
 10
2301.3678
 20
-1321.0645859999991
 30
0.0
 40
72.000883593749975
  1
ヒビノ株式会社
 41
0.8
 11
2301.3678
 21
-1249.0637024062489
 31
0.0
 73
     3
  0
LINE
  5
39
  8
HIBINO-BASE
  6
CONTINUOUS
 62
     7
 10
1300.0
 20
-992.89102999999955
 30
0.0
 11
3100.0
 21
-992.89102999999955
 31
0.0
  0
TEXT
  5
3A
  8
HIBINO-BASE
 62
     7
 10
2268.0
 20
-1045.764694
 30
0.0
 40
36.000518749999998
  1
DRAWN
 41
0.8
 11
2268.0
 21
-1009.76417525
 31
0.0
 73
     3
  0
TEXT
  5
3B
  8
HIBINO-BASE
 62
     7
 10
1768.0
 20
-1045.764694
 30
0.0
 40
36.000518749999998
  1
DATE
 41
0.8
 11
1768.0
 21
-1009.76417525
 31
0.0
 73
     3
  0
TEXT
  5
3C
  8
HIBINO-BASE
 62
     7
 10
1322.0
 20
-1045.2801539999989
 30
0.0
 40
32.57687421875
  1
図面サイズ
 41
0.8
 11
1322.0
 21
-1012.703279781249
 31
0.0
 73
     3
  0
TEXT
  5
3D
  8
HIBINO-BASE
 62
     7
 10
1568.0
 20
-1045.764694
 30
0.0
 40
36.000518749999998
  1
SCALE
 41
0.8
 11
1568.0
 21
-1009.76417525
 31
0.0
 73
     3
  0
TEXT
  5
3E
  8
HIBINO-BASE
 62
     7
 10
2018.0
 20
-1045.764694
 30
0.0
 40
36.000518749999998
  1
DESIGN
 41
0.8
 11
2018.0
 21
-1009.76417525
 31
0.0
 73
     3
  0
TEXT
  5
3F
  8
HIBINO-BASE
 62
     7
 10
2768.0
 20
-1045.764694
 30
0.0
 40
36.000518749999998
  1
DRAWING NO.
 41
0.8
 11
2768.0
 21
-1009.76417525
 31
0.0
 73
     3
  0
TEXT
  5
40
  8
HIBINO-BASE
 62
     7
 10
2518.0
 20
-1045.764694
 30
0.0
 40
36.000518749999998
  1
CHECK
 41
0.8
 11
2518.0
 21
-1009.76417525
 31
0.0
 73
     3
  0
LINE
  5
41
  8
HIBINO-BASE
  6
CONTINUOUS
 62
     7
 10
1587.5
 20
-1167.89103
 30
0.0
 11
1662.5
 21
-1092.89103
 31
0.0
  0
TEXT
  5
42
  8
HIBINO-BASE
 62
     7
 10
1575.0
 20
-1127.205414
 30
0.0
 40
43.4357296875
  1
1
 41
0.8
 11
1575.0
 21
-1083.7696843125
 31
0.0
 73
     3
  0
LINE
  5
43
  8
HIBINO-BASE
  6
CONTINUOUS
 62
     7
 10
1550.0
 20
-1192.89103
 30
0.0
 11
1550.0
 21
-992.89102999999955
 31
0.0
  0
LINE
  5
44
  8
HIBINO-BASE
  6
CONTINUOUS
 62
     7
 10
1750.0
 20
-1192.89103
 30
0.0
 11
1750.0
 21
-992.89102999999955
 31
0.0
  0
LINE
  5
45
  8
HIBINO-BASE
  6
CONTINUOUS
 62
     7
 10
2250.0
 20
-992.89102999999955
 30
0.0
 11
2250.0
 21
-1192.89103
 31
0.0
  0
LINE
  5
46
  8
HIBINO-BASE
  6
CONTINUOUS
 62
     7
 10
2750.0
 20
-992.89102999999955
 30
0.0
 11
2750.0
 21
-1192.89103
 31
0.0
  0
LINE
  5
47
  8
HIBINO-BASE
  6
CONTINUOUS
 62
     7
 10
2500.0
 20
-1192.89103
 30
0.0
 11
2500.0
 21
-992.89102999999955
 31
0.0
  0
TEXT
  5
48
  8
HIBINO-BASE
 62
     7
 10
1378.2177999999999
 20
-1142.9219059999989
 30
0.0
 40
65.153594531249993
  1
A4
 41
0.8
 11
1378.2177999999999
 21
-1077.76831146875
 31
0.0
 73
     3
  0
TEXT
  5
49
  8
HIBINO-BASE
 62
     7
 10
1767.1307999999999
 20
-1139.4442939999999
 30
0.0
 40
36.000518749999998
  1
'04.11.
 41
0.8
 11
1767.1307999999999
 21
-1103.4437752499989
 31
0.0
 73
     3
  0
TEXT
  5
4A
  8
HIBINO-BASE
 62
     7
 10
1650.0
 20
-1164.705414
 30
0.0
 40
43.4357296875
  1
20
 41
0.8
 11
1650.0
 21
-1121.2696843125
 31
0.0
 73
     3
  0
TEXT
  5
4B
  8
HIBINO-BASE
 62
     7
 10
2280.116200220692
 20
-1139.4442939999999
 30
0.0
 40
36.000518749999998
  1
N.Sasaki
 41
0.8
 11
2280.116200220692
 21
-1103.4437752499989
 31
0.0
 73
     3
  0
TEXT
  5
4C
  8
HIBINO-BASE
 62
     7
 10
2530.1162002206929
 20
-1135.6180966666659
 30
0.0
 40
32.576822916666671
  1
T.Taki
 41
0.8
 11
2530.1162002206929
 21
-1103.0412737499989
 31
0.0
 73
     3
  0
LINE
  5
4D
  8
SPEC
  6
CONTINUOUS
 62
     7
 10
-349.99999999999977
 20
3850.0044849999999
 30
0.0
 11
2200.0000000000009
 21
3850.0044849999999
 31
0.0
  0
LINE
  5
4E
  8
SPEC
  6
CONTINUOUS
 62
     7
 10
-349.99999999999977
 20
3775.0044849999999
 30
0.0
 11
2200.0000000000009
 21
3775.0044849999999
 31
0.0
  0
LINE
  5
4F
  8
SPEC
  6
CONTINUOUS
 62
     7
 10
-349.99999999999977
 20
3475.0044849999999
 30
0.0
 11
2200.0000000000009
 21
3475.0044849999999
 31
0.0
  0
LINE
  5
50
  8
SPEC
  6
CONTINUOUS
 62
     7
 10
-349.99999999999977
 20
3550.0044849999999
 30
0.0
 11
2200.0000000000009
 21
3550.0044849999999
 31
0.0
  0
LINE
  5
51
  8
SPEC
  6
CONTINUOUS
 62
     7
 10
-349.99999999999977
 20
3625.0044849999999
 30
0.0
 11
2200.0000000000009
 21
3625.0044849999999
 31
0.0
  0
LINE
  5
52
  8
SPEC
  6
CONTINUOUS
 62
     7
 10
-349.99999999999977
 20
3325.0044849999999
 30
0.0
 11
2200.0000000000009
 21
3325.0044849999999
 31
0.0
  0
LINE
  5
53
  8
SPEC
  6
CONTINUOUS
 62
     7
 10
-349.99999999999977
 20
3700.0044849999999
 30
0.0
 11
2200.0000000000009
 21
3700.0044849999999
 31
0.0
  0
LINE
  5
54
  8
SPEC
  6
CONTINUOUS
 62
     7
 10
-350.0
 20
3850.0044849999999
 30
0.0
 11
-350.0
 21
1900.0
 31
0.0
  0
TEXT
  5
55
  8
SPEC
 62
     7
 10
-324.99999999999972
 20
3877.869885000001
 30
0.0
 40
48.865234375000007
  1
仕様
 41
0.8
 11
-324.99999999999972
 21
3926.7351193750001
 31
0.0
 73
     3
  0
LINE
  5
56
  8
SPEC
  6
CONTINUOUS
 62
     7
 10
300.0
 20
3850.0044849999999
 30
0.0
 11
300.0
 21
1900.0
 31
0.0
  0
LINE
  5
57
  8
SPEC
  6
CONTINUOUS
 62
     7
 10
2200.0
 20
3850.0044849999999
 30
0.0
 11
2200.0
 21
1900.0
 31
0.0
  0
TEXT
  5
58
  8
SPEC
 62
     7
 10
318.00000000000011
 20
3790.762929444445
 30
0.0
 40
38.006293402777771
  1
3Wayフルレンジ (18" 3-Way high-power)
 41
0.8
 11
318.00000000000011
 21
3828.7692228472229
 31
0.0
 73
     3
  0
TEXT
  5
59
  8
SPEC
 62
     7
 10
318.00000000000011
 20
3490.762929444445
 30
0.0
 40
38.006293402777771
  1
2268H(口径:18インチ)
 41
0.8
 11
318.00000000000011
 21
3528.769222847222
 31
0.0
 73
     3
  0
TEXT
  5
5A
  8
SPEC
 62
     7
 10
318.00000000000011
 20
3340.762929444445
 30
0.0
 40
38.006293402777771
  1
2431H(ダイアフラム径:3インチ)
 41
0.8
 11
318.00000000000011
 21
3378.7692228472229
 31
0.0
 73
     3
  0
TEXT
  5
5B
  8
SPEC
 62
     7
 10
318.00000000000011
 20
3265.762929444445
 30
0.0
 40
38.006293402777771
  1
95dB SPL(PASSIVE駆動時)
 41
0.8
 11
318.00000000000011
 21
3303.769222847222
 31
0.0
 73
     3
  0
TEXT
  5
5C
  8
SPEC
 62
     7
 10
318.00000000000011
 20
3565.762929444445
 30
0.0
 40
38.006293402777771
  1
60゜×40゜
 41
0.8
 11
318.00000000000011
 21
3603.7692228472229
 31
0.0
 73
     3
  0
TEXT
  5
5D
  8
SPEC
 62
     7
 10
318.00000000000011
 20
3715.762929444445
 30
0.0
 40
38.006293402777771
  1
35Hz～20kHz
 41
0.8
 11
318.00000000000011
 21
3753.7692228472229
 31
0.0
 73
     3
  0
TEXT
  5
5E
  8
SPEC
 62
     7
 10
318.00000000000011
 20
3640.762929444445
 30
0.0
 40
38.006293402777771
  1
44Hz～20kHz
 41
0.8
 11
318.00000000000011
 21
3678.769222847222
 31
0.0
 73
     3
  0
TEXT
  5
5F
  8
SPEC
 62
     7
 10
-332.00000000000728
 20
3265.762929444445
 30
0.0
 40
38.006293402777771
  1
音圧レベル (1W/1m)
 41
0.8
 11
-332.00000000000728
 21
3303.769222847222
 31
0.0
 73
     3
  0
TEXT
  5
60
  8
SPEC
 62
     7
 10
-332.00000000001182
 20
3490.7629294444419
 30
0.0
 40
38.006293402777771
  1
低域ユニット
 41
0.8
 11
-332.00000000001182
 21
3528.7692228472201
 31
0.0
 73
     3
  0
TEXT
  5
61
  8
SPEC
 62
     7
 10
-332.00000000000091
 20
3340.762929444445
 30
0.0
 40
38.006293402777771
  1
高域ユニット
 41
0.8
 11
-332.00000000000091
 21
3378.7692228472229
 31
0.0
 73
     3
  0
TEXT
  5
62
  8
SPEC
 62
     7
 10
-332.00000000000398
 20
3565.7629294444459
 30
0.0
 40
38.006293402777771
  1
公称カバレージ
 41
0.8
 11
-332.00000000000398
 21
3603.7692228472229
 31
0.0
 73
     3
  0
TEXT
  5
63
  8
SPEC
 62
     7
 10
-332.00000000000267
 20
3715.762929444445
 30
0.0
 40
38.006293402777771
  1
周波数レンジ(-10dB)
 41
0.8
 11
-332.00000000000267
 21
3753.7692228472229
 31
0.0
 73
     3
  0
TEXT
  5
64
  8
SPEC
 62
     7
 10
-332.00000000000267
 20
3640.762929444445
 30
0.0
 40
38.006293402777771
  1
周波数特性(±3dB)
 41
0.8
 11
-332.00000000000267
 21
3678.769222847222
 31
0.0
 73
     3
  0
TEXT
  5
65
  8
SPEC
 62
     7
 10
-332.00000000000142
 20
3790.762929444445
 30
0.0
 40
38.006293402777771
  1
形式
 41
0.8
 11
-332.00000000000142
 21
3828.7692228472229
 31
0.0
 73
     3
  0
TEXT
  5
66
  8
SPEC
 62
     7
 10
318.0
 20
3050.7644444444431
 30
0.0
 40
38.006293402777771
  1
BI-AMP駆動時:8Ω(低域),8Ω(高域)
 41
0.8
 11
318.0
 21
3088.770737847221
 31
0.0
 73
     3
  0
TEXT
  5
67
  8
SPEC
 62
     7
 10
318.00000000000011
 20
3115.7629294444432
 30
0.0
 40
38.006293402777771
  1
PASSIVE駆動時:8Ω
 41
0.8
 11
318.00000000000011
 21
3153.769222847221
 31
0.0
 73
     3
  0
TEXT
  5
68
  8
SPEC
 62
     7
 10
-332.00000000000728
 20
3115.7629294444432
 30
0.0
 40
38.006293402777771
  1
公称インピーダンス
 41
0.8
 11
-332.00000000000728
 21
3153.769222847221
 31
0.0
 73
     3
  0
TEXT
  5
69
  8
SPEC
 62
     7
 10
318.0
 20
2845.7644444444431
 30
0.0
 40
38.006293402777771
  1
BI-AMP駆動時(IEC):800W(低域),350W(中高域)
 41
0.8
 11
318.0
 21
2883.770737847221
 31
0.0
 73
     3
  0
TEXT
  5
6A
  8
SPEC
 62
     7
 10
318.00000000000011
 20
2975.7629294444432
 30
0.0
 40
38.006293402777771
  1
PASSIVE駆動時(IEC):800W
 41
0.8
 11
318.00000000000011
 21
3013.769222847221
 31
0.0
 73
     3
  0
TEXT
  5
6B
  8
SPEC
 62
     7
 10
-332.00000000000728
 20
2975.7629294444432
 30
0.0
 40
38.006293402777771
  1
許容入力
 41
0.8
 11
-332.00000000000728
 21
3013.769222847221
 31
0.0
 73
     3
  0
TEXT
  5
6C
  8
SPEC
 62
     7
 10
616.39464260843295
 20
2780.764444444445
 30
0.0
 40
38.006293402777771
  1
Peak:3200W(低域),1400W(中高域)
 41
0.8
 11
616.39464260843295
 21
2818.7707378472228
 31
0.0
 73
     3
  0
TEXT
  5
6D
  8
SPEC
 62
     7
 10
663.7222222222224
 20
2910.764444444445
 30
0.0
 40
38.006293402777771
  1
Peak:3200W
 41
0.8
 11
663.7222222222224
 21
2948.7707378472219
 31
0.0
 73
     3
  0
LINE
  5
6E
  8
SPEC
  6
CONTINUOUS
 62
     7
 10
-349.99999999999977
 20
2755.0044849999999
 30
0.0
 11
2200.0000000000009
 21
2755.0044849999999
 31
0.0
  0
TEXT
  5
6F
  8
SPEC
 62
     7
 10
318.0
 20
2560.764444444445
 30
0.0
 40
38.006293402777771
  1
BI-AMP駆動推奨コントローラー:dbx DriveRackシリーズ
 41
0.8
 11
318.0
 21
2598.7707378472228
 31
0.0
 73
     3
  0
TEXT
  5
70
  8
SPEC
 62
     7
 10
318.00000000000011
 20
2695.7629294444432
 30
0.0
 40
38.006293402777771
  1
PASSIVE/BI-AMP内部コネクタ切替
 41
0.8
 11
318.00000000000011
 21
2733.769222847221
 31
0.0
 73
     3
  0
TEXT
  5
71
  8
SPEC
 62
     7
 10
-332.00000000000728
 20
2695.7629294444432
 30
0.0
 40
38.006293402777771
  1
クロスオーバー
 41
0.8
 11
-332.00000000000728
 21
2733.769222847221
 31
0.0
 73
     3
  0
LINE
  5
72
  8
SPEC
  6
CONTINUOUS
 62
     7
 10
-349.99999999999977
 20
2330.0044849999999
 30
0.0
 11
2200.0000000000009
 21
2330.0044849999999
 31
0.0
  0
LINE
  5
73
  8
SPEC
  6
CONTINUOUS
 62
     7
 10
-349.99999999999977
 20
2330.0044849999999
 30
0.0
 11
2200.0000000000009
 21
2330.0044849999999
 31
0.0
  0
TEXT
  5
74
  8
SPEC
 62
     7
 10
318.00000000000011
 20
2345.762929444445
 30
0.0
 40
38.006293402777771
  1
黒のデュラフレックス塗装
 41
0.8
 11
318.00000000000011
 21
2383.769222847222
 31
0.0
 73
     3
  0
TEXT
  5
75
  8
SPEC
 62
     7
 10
-332.00000000000728
 20
2345.762929444445
 30
0.0
 40
38.006293402777771
  1
仕上げ
 41
0.8
 11
-332.00000000000728
 21
2383.769222847222
 31
0.0
 73
     3
  0
LINE
  5
76
  8
SPEC
  6
CONTINUOUS
 62
     7
 10
-349.99999999999977
 20
2545.0044849999999
 30
0.0
 11
2200.0000000000009
 21
2545.0044849999999
 31
0.0
  0
TEXT
  5
77
  8
SPEC
 62
     7
 10
318.0
 20
2130.764444444445
 30
0.0
 40
38.006293402777771
  1
＊ PASSIVE---±1:Full Range,±2:N/C
 41
0.8
 11
318.0
 21
2168.7707378472228
 31
0.0
 73
     3
  0
TEXT
  5
78
  8
SPEC
 62
     7
 10
318.00000000000011
 20
2195.762929444445
 30
0.0
 40
38.006293402777771
  1
NEUTRIK NL4×2(IN,THRU)
 41
0.8
 11
318.00000000000011
 21
2233.7692228472229
 31
0.0
 73
     3
  0
TEXT
  5
79
  8
SPEC
 62
     7
 10
-332.00000000001182
 20
2195.762929444445
 30
0.0
 40
38.006293402777771
  1
コネクター
 41
0.8
 11
-332.00000000001182
 21
2233.7692228472229
 31
0.0
 73
     3
  0
TEXT
  5
7A
  8
SPEC
 62
     7
 10
318.0
 20
2065.764444444445
 30
0.0
 40
38.006293402777771
  1
＊ BI-AMP  ---±1:LF(低域),±2:HF(高域)
 41
0.8
 11
318.0
 21
2103.7707378472228
 31
0.0
 73
     3
  0
LINE
  5
7B
  8
SPEC
  6
CONTINUOUS
 62
     7
 10
-349.9999999999996
 20
1975.0
 30
0.0
 11
2200.0000000000009
 21
1975.0
 31
0.0
  0
LINE
  5
7C
  8
SPEC
  6
CONTINUOUS
 62
     7
 10
-349.9999999999996
 20
2050.0
 30
0.0
 11
2200.0000000000009
 21
2050.0
 31
0.0
  0
TEXT
  5
7D
  8
SPEC
 62
     7
 10
318.00000000000028
 20
1990.7584444444451
 30
0.0
 40
38.006293402777771
  1
535(W)×1014(H)×510(D)mm (ゴム足は含まず)
 41
0.8
 11
318.00000000000028
 21
2028.7647378472229
 31
0.0
 73
     3
  0
TEXT
  5
7E
  8
SPEC
 62
     7
 10
318.00000000000028
 20
1915.7584444444451
 30
0.0
 40
38.006293402777771
  1
約45kg
 41
0.8
 11
318.00000000000028
 21
1953.764737847222
 31
0.0
 73
     3
  0
TEXT
  5
7F
  8
SPEC
 62
     7
 10
-332.00000000001182
 20
1990.7584444444431
 30
0.0
 40
38.006293402777771
  1
寸法
 41
0.8
 11
-332.00000000001182
 21
2028.764737847222
 31
0.0
 73
     3
  0
TEXT
  5
80
  8
SPEC
 62
     7
 10
-332.00000000000142
 20
1915.7584444444451
 30
0.0
 40
38.006293402777771
  1
重量
 41
0.8
 11
-332.00000000000142
 21
1953.764737847222
 31
0.0
 73
     3
  0
LINE
  5
81
  8
SPEC
  6
CONTINUOUS
 62
     7
 10
-349.9999999999996
 20
1900.0
 30
0.0
 11
2200.0
 21
1900.0
 31
0.0
  0
LINE
  5
82
  8
SPEC
  6
CONTINUOUS
 62
     7
 10
-349.99999999999977
 20
3250.0044849999999
 30
0.0
 11
2200.0000000000009
 21
3250.0044849999999
 31
0.0
  0
TEXT
  5
83
  8
SPEC
 62
     7
 10
318.00000000000011
 20
3190.762929444445
 30
0.0
 40
38.006293402777771
  1
130dB SPL peak(計算値)
 41
0.8
 11
318.00000000000011
 21
3228.7692228472229
 31
0.0
 73
     3
  0
TEXT
  5
84
  8
SPEC
 62
     7
 10
-332.00000000000728
 20
3190.762929444445
 30
0.0
 40
38.006293402777771
  1
最大音圧 (＠/1m)
 41
0.8
 11
-332.00000000000728
 21
3228.7692228472229
 31
0.0
 73
     3
  0
LINE
  5
85
  8
SPEC
  6
CONTINUOUS
 62
     7
 10
-349.99999999999977
 20
3175.0044849999999
 30
0.0
 11
2200.0000000000009
 21
3175.0044849999999
 31
0.0
  0
LINE
  5
86
  8
SPEC
  6
CONTINUOUS
 62
     7
 10
-349.99999999999977
 20
3035.0044849999999
 30
0.0
 11
2200.0000000000009
 21
3035.0044849999999
 31
0.0
  0
LINE
  5
87
  8
SPEC
  6
CONTINUOUS
 62
     7
 10
-349.99999999999977
 20
2255.0044849999999
 30
0.0
 11
2200.0000000000009
 21
2255.0044849999999
 31
0.0
  0
TEXT
  5
88
  8
SPEC
 62
     7
 10
318.00000000000011
 20
2270.7629294444441
 30
0.0
 40
38.006293402777771
  1
SPユニットは前面側で交換
 41
0.8
 11
318.00000000000011
 21
2308.7692228472229
 31
0.0
 73
     3
  0
TEXT
  5
89
  8
SPEC
 62
     7
 10
-332.00000000001182
 20
2270.7629294444441
 30
0.0
 40
38.006293402777771
  1
メンテナンス
 41
0.8
 11
-332.00000000001182
 21
2308.7692228472229
 31
0.0
 73
     3
  0
LINE
  5
8A
  8
SPEC
  6
CONTINUOUS
 62
     7
 10
1400.0
 20
3325.0044849999999
 30
0.0
 11
1400.0
 21
3550.0044849999999
 31
0.0
  0
TEXT
  5
8B
  8
SPEC
 62
     7
 10
1422.6593098601579
 20
3490.762929444445
 30
0.0
 40
38.006293402777771
  1
振動板交換パーツ:C8R2268
 41
0.8
 11
1422.6593098601579
 21
3528.769222847222
 31
0.0
 73
     3
  0
TEXT
  5
8C
  8
SPEC
 62
     7
 10
1422.6593098601579
 20
3340.762929444445
 30
0.0
 40
38.006293402777771
  1
振動板交換パーツ:D8R2431
 41
0.8
 11
1422.6593098601579
 21
3378.7692228472229
 31
0.0
 73
     3
  0
TEXT
  5
8D
  8
SPEC
 62
     7
 10
318.00000000000011
 20
2625.7629294444432
 30
0.0
 40
38.006293402777771
  1
PASSIVE駆動時(ネットワーク):2kHz/350Hz
 41
0.8
 11
318.00000000000011
 21
2663.769222847221
 31
0.0
 73
     3
  0
TEXT
  5
8E
  8
SPEC
 62
     7
 10
318.0
 20
2420.7644444444441
 30
0.0
 40
38.006293402777771
  1
BI-AMP駆動時:正相(低域),正相(中域),正相(高域)
 41
0.8
 11
318.0
 21
2458.770737847221
 31
0.0
 73
     3
  0
TEXT
  5
8F
  8
SPEC
 62
     7
 10
318.00000000000011
 20
2485.7629294444432
 30
0.0
 40
38.006293402777771
  1
PASSIVE駆動時:正相(低域),正相(中域),逆相(高域)
 41
0.8
 11
318.00000000000011
 21
2523.769222847221
 31
0.0
 73
     3
  0
TEXT
  5
90
  8
SPEC
 62
     7
 10
-332.00000000000728
 20
2485.7629294444432
 30
0.0
 40
38.006293402777771
  1
極性
 41
0.8
 11
-332.00000000000728
 21
2523.769222847221
 31
0.0
 73
     3
  0
LINE
  5
91
  8
SPEC
  6
CONTINUOUS
 62
     7
 10
-349.99999999999977
 20
2405.0044849999999
 30
0.0
 11
2200.0000000000009
 21
2405.0044849999999
 31
0.0
  0
LINE
  5
92
  8
SPEC
  6
CONTINUOUS
 62
     7
 10
-349.99999999999977
 20
3400.0044849999999
 30
0.0
 11
2200.0000000000009
 21
3400.0044849999999
 31
0.0
  0
TEXT
  5
93
  8
SPEC
 62
     7
 10
318.00000000000011
 20
3415.762929444445
 30
0.0
 40
38.006293402777771
  1
CMCD-81H(口径:8インチ)
 41
0.8
 11
318.00000000000011
 21
3453.7692228472229
 31
0.0
 73
     3
  0
TEXT
  5
94
  8
SPEC
 62
     7
 10
-332.00000000001182
 20
3415.7629294444419
 30
0.0
 40
38.006293402777771
  1
中域ユニット
 41
0.8
 11
-332.00000000001182
 21
3453.7692228472201
 31
0.0
 73
     3
  0
TEXT
  5
95
  8
SPEC
 62
     7
 10
1422.6593098601579
 20
3415.762929444445
 30
0.0
 40
38.006293402777771
  1
振動板交換パーツ:C8R2169
 41
0.8
 11
1422.6593098601579
 21
3453.7692228472229
 31
0.0
 73
     3
  0
CIRCLE
  5
96
  8
PATTERN_FILL
  6
CONTINUOUS
 62
     7
 10
323.5
 20
493.0
 30
0.0
 40
3.25
  0
CIRCLE
  5
97
  8
PATTERN_FILL
  6
CONTINUOUS
 62
     7
 10
339.5
 20
493.0
 30
0.0
 40
3.25
  0
CIRCLE
  5
98
  8
PATTERN_FILL
  6
CONTINUOUS
 62
     7
 10
355.5
 20
493.0
 30
0.0
 40
3.25
  0
CIRCLE
  5
99
  8
PATTERN_FILL
  6
CONTINUOUS
 62
     7
 10
371.5
 20
493.0
 30
0.0
 40
3.25
  0
CIRCLE
  5
9A
  8
PATTERN_FILL
  6
CONTINUOUS
 62
     7
 10
387.5
 20
493.0
 30
0.0
 40
3.25
  0
CIRCLE
  5
9B
  8
PATTERN_FILL
  6
CONTINUOUS
 62
     7
 10
403.50000000000011
 20
493.0
 30
0.0
 40
3.25
  0
CIRCLE
  5
9C
  8
PATTERN_FILL
  6
CONTINUOUS
 62
     7
 10
163.5
 20
493.0
 30
0.0
 40
3.25
  0
CIRCLE
  5
9D
  8
PATTERN_FILL
  6
CONTINUOUS
 62
     7
 10
147.5
 20
493.0
 30
0.0
 40
3.25
  0
CIRCLE
  5
9E
  8
PATTERN_FILL
  6
CONTINUOUS
 62
     7
 10
131.5
 20
493.0
 30
0.0
 40
3.25
  0
CIRCLE
  5
9F
  8
PATTERN_FILL
  6
CONTINUOUS
 62
     7
 10
115.5
 20
493.0
 30
0.0
 40
3.25
  0
CIRCLE
  5
A0
  8
PATTERN_FILL
  6
CONTINUOUS
 62
     7
 10
99.500000000000014
 20
493.0
 30
0.0
 40
3.25
  0
CIRCLE
  5
A1
  8
PATTERN_FILL
  6
CONTINUOUS
 62
     7
 10
83.499999999999986
 20
493.0
 30
0.0
 40
3.25
  0
CIRCLE
  5
A2
  8
PATTERN_FILL
  6
CONTINUOUS
 62
     7
 10
67.5
 20
493.0
 30
0.0
 40
3.25
  0
CIRCLE
  5
A3
  8
PATTERN_FILL
  6
CONTINUOUS
 62
     7
 10
51.5
 20
493.0
 30
0.0
 40
3.25
  0
CIRCLE
  5
A4
  8
PATTERN_FILL
  6
CONTINUOUS
 62
     7
 10
35.5
 20
493.0
 30
0.0
 40
3.25
  0
CIRCLE
  5
A5
  8
PATTERN_FILL
  6
CONTINUOUS
 62
     7
 10
19.5
 20
493.0
 30
0.0
 40
3.25
  0
CIRCLE
  5
A6
  8
PATTERN_FILL
  6
CONTINUOUS
 62
     7
 10
419.5
 20
493.0
 30
0.0
 40
3.25
  0
CIRCLE
  5
A7
  8
PATTERN_FILL
  6
CONTINUOUS
 62
     7
 10
435.5
 20
493.0
 30
0.0
 40
3.25
  0
CIRCLE
  5
A8
  8
PATTERN_FILL
  6
CONTINUOUS
 62
     7
 10
451.5
 20
493.0
 30
0.0
 40
3.25
  0
CIRCLE
  5
A9
  8
PATTERN_FILL
  6
CONTINUOUS
 62
     7
 10
467.5
 20
493.0
 30
0.0
 40
3.25
  0
CIRCLE
  5
AA
  8
PATTERN_FILL
  6
CONTINUOUS
 62
     7
 10
483.5
 20
493.0
 30
0.0
 40
3.25
  0
CIRCLE
  5
AB
  8
PATTERN_FILL
  6
CONTINUOUS
 62
     7
 10
499.5
 20
493.0
 30
0.0
 40
3.25
  0
CIRCLE
  5
AC
  8
PATTERN_FILL
  6
CONTINUOUS
 62
     7
 10
515.50000000000011
 20
493.0
 30
0.0
 40
3.25
  0
CIRCLE
  5
AD
  8
PATTERN_FILL
  6
CONTINUOUS
 62
     7
 10
179.5
 20
493.0
 30
0.0
 40
3.25
  0
CIRCLE
  5
AE
  8
PATTERN_FILL
  6
CONTINUOUS
 62
     7
 10
195.5
 20
493.0
 30
0.0
 40
3.25
  0
CIRCLE
  5
AF
  8
PATTERN_FILL
  6
CONTINUOUS
 62
     7
 10
211.5
 20
493.0
 30
0.0
 40
3.25
  0
CIRCLE
  5
B0
  8
PATTERN_FILL
  6
CONTINUOUS
 62
     7
 10
323.5
 20
521.0
 30
0.0
 40
3.25
  0
CIRCLE
  5
B1
  8
PATTERN_FILL
  6
CONTINUOUS
 62
     7
 10
339.5
 20
521.0
 30
0.0
 40
3.25
  0
CIRCLE
  5
B2
  8
PATTERN_FILL
  6
CONTINUOUS
 62
     7
 10
355.5
 20
521.0
 30
0.0
 40
3.25
  0
CIRCLE
  5
B3
  8
PATTERN_FILL
  6
CONTINUOUS
 62
     7
 10
371.5
 20
521.0
 30
0.0
 40
3.25
  0
CIRCLE
  5
B4
  8
PATTERN_FILL
  6
CONTINUOUS
 62
     7
 10
387.5
 20
521.0
 30
0.0
 40
3.25
  0
CIRCLE
  5
B5
  8
PATTERN_FILL
  6
CONTINUOUS
 62
     7
 10
403.50000000000011
 20
521.0
 30
0.0
 40
3.25
  0
CIRCLE
  5
B6
  8
PATTERN_FILL
  6
CONTINUOUS
 62
     7
 10
163.5
 20
521.0
 30
0.0
 40
3.25
  0
CIRCLE
  5
B7
  8
PATTERN_FILL
  6
CONTINUOUS
 62
     7
 10
147.5
 20
521.0
 30
0.0
 40
3.25
  0
CIRCLE
  5
B8
  8
PATTERN_FILL
  6
CONTINUOUS
 62
     7
 10
131.5
 20
521.0
 30
0.0
 40
3.25
  0
CIRCLE
  5
B9
  8
PATTERN_FILL
  6
CONTINUOUS
 62
     7
 10
115.5
 20
521.0
 30
0.0
 40
3.25
  0
CIRCLE
  5
BA
  8
PATTERN_FILL
  6
CONTINUOUS
 62
     7
 10
99.500000000000014
 20
521.0
 30
0.0
 40
3.25
  0
CIRCLE
  5
BB
  8
PATTERN_FILL
  6
CONTINUOUS
 62
     7
 10
83.499999999999986
 20
521.0
 30
0.0
 40
3.25
  0
CIRCLE
  5
BC
  8
PATTERN_FILL
  6
CONTINUOUS
 62
     7
 10
67.5
 20
521.0
 30
0.0
 40
3.25
  0
CIRCLE
  5
BD
  8
PATTERN_FILL
  6
CONTINUOUS
 62
     7
 10
51.5
 20
521.0
 30
0.0
 40
3.25
  0
CIRCLE
  5
BE
  8
PATTERN_FILL
  6
CONTINUOUS
 62
     7
 10
35.5
 20
521.0
 30
0.0
 40
3.25
  0
CIRCLE
  5
BF
  8
PATTERN_FILL
  6
CONTINUOUS
 62
     7
 10
19.5
 20
521.0
 30
0.0
 40
3.25
  0
CIRCLE
  5
C0
  8
PATTERN_FILL
  6
CONTINUOUS
 62
     7
 10
419.5
 20
521.0
 30
0.0
 40
3.25
  0
CIRCLE
  5
C1
  8
PATTERN_FILL
  6
CONTINUOUS
 62
     7
 10
435.5
 20
521.0
 30
0.0
 40
3.25
  0
CIRCLE
  5
C2
  8
PATTERN_FILL
  6
CONTINUOUS
 62
     7
 10
451.5
 20
521.0
 30
0.0
 40
3.25
  0
CIRCLE
  5
C3
  8
PATTERN_FILL
  6
CONTINUOUS
 62
     7
 10
467.5
 20
521.0
 30
0.0
 40
3.25
  0
CIRCLE
  5
C4
  8
PATTERN_FILL
  6
CONTINUOUS
 62
     7
 10
483.5
 20
521.0
 30
0.0
 40
3.25
  0
CIRCLE
  5
C5
  8
PATTERN_FILL
  6
CONTINUOUS
 62
     7
 10
499.5
 20
521.0
 30
0.0
 40
3.25
  0
CIRCLE
  5
C6
  8
PATTERN_FILL
  6
CONTINUOUS
 62
     7
 10
515.50000000000011
 20
521.0
 30
0.0
 40
3.25
  0
CIRCLE
  5
C7
  8
PATTERN_FILL
  6
CONTINUOUS
 62
     7
 10
179.5
 20
521.0
 30
0.0
 40
3.25
  0
CIRCLE
  5
C8
  8
PATTERN_FILL
  6
CONTINUOUS
 62
     7
 10
195.5
 20
521.0
 30
0.0
 40
3.25
  0
CIRCLE
  5
C9
  8
PATTERN_FILL
  6
CONTINUOUS
 62
     7
 10
211.5
 20
521.0
 30
0.0
 40
3.25
  0
CIRCLE
  5
CA
  8
PATTERN_FILL
  6
CONTINUOUS
 62
     7
 10
323.5
 20
535.0
 30
0.0
 40
3.25
  0
CIRCLE
  5
CB
  8
PATTERN_FILL
  6
CONTINUOUS
 62
     7
 10
339.5
 20
535.0
 30
0.0
 40
3.25
  0
CIRCLE
  5
CC
  8
PATTERN_FILL
  6
CONTINUOUS
 62
     7
 10
355.5
 20
535.0
 30
0.0
 40
3.25
  0
CIRCLE
  5
CD
  8
PATTERN_FILL
  6
CONTINUOUS
 62
     7
 10
371.5
 20
535.0
 30
0.0
 40
3.25
  0
CIRCLE
  5
CE
  8
PATTERN_FILL
  6
CONTINUOUS
 62
     7
 10
387.5
 20
535.0
 30
0.0
 40
3.25
  0
CIRCLE
  5
CF
  8
PATTERN_FILL
  6
CONTINUOUS
 62
     7
 10
403.50000000000011
 20
535.0
 30
0.0
 40
3.25
  0
CIRCLE
  5
D0
  8
PATTERN_FILL
  6
CONTINUOUS
 62
     7
 10
163.5
 20
535.0
 30
0.0
 40
3.25
  0
CIRCLE
  5
D1
  8
PATTERN_FILL
  6
CONTINUOUS
 62
     7
 10
147.5
 20
535.0
 30
0.0
 40
3.25
  0
CIRCLE
  5
D2
  8
PATTERN_FILL
  6
CONTINUOUS
 62
     7
 10
131.5
 20
535.0
 30
0.0
 40
3.25
  0
CIRCLE
  5
D3
  8
PATTERN_FILL
  6
CONTINUOUS
 62
     7
 10
115.5
 20
535.0
 30
0.0
 40
3.25
  0
CIRCLE
  5
D4
  8
PATTERN_FILL
  6
CONTINUOUS
 62
     7
 10
99.500000000000014
 20
535.0
 30
0.0
 40
3.25
  0
CIRCLE
  5
D5
  8
PATTERN_FILL
  6
CONTINUOUS
 62
     7
 10
83.499999999999986
 20
535.0
 30
0.0
 40
3.25
  0
CIRCLE
  5
D6
  8
PATTERN_FILL
  6
CONTINUOUS
 62
     7
 10
67.5
 20
535.0
 30
0.0
 40
3.25
  0
CIRCLE
  5
D7
  8
PATTERN_FILL
  6
CONTINUOUS
 62
     7
 10
51.5
 20
535.0
 30
0.0
 40
3.25
  0
CIRCLE
  5
D8
  8
PATTERN_FILL
  6
CONTINUOUS
 62
     7
 10
35.5
 20
535.0
 30
0.0
 40
3.25
  0
CIRCLE
  5
D9
  8
PATTERN_FILL
  6
CONTINUOUS
 62
     7
 10
19.5
 20
535.0
 30
0.0
 40
3.25
  0
CIRCLE
  5
DA
  8
PATTERN_FILL
  6
CONTINUOUS
 62
     7
 10
419.5
 20
535.0
 30
0.0
 40
3.25
  0
CIRCLE
  5
DB
  8
PATTERN_FILL
  6
CONTINUOUS
 62
     7
 10
435.5
 20
535.0
 30
0.0
 40
3.25
  0
CIRCLE
  5
DC
  8
PATTERN_FILL
  6
CONTINUOUS
 62
     7
 10
451.5
 20
535.0
 30
0.0
 40
3.25
  0
CIRCLE
  5
DD
  8
PATTERN_FILL
  6
CONTINUOUS
 62
     7
 10
467.5
 20
535.0
 30
0.0
 40
3.25
  0
CIRCLE
  5
DE
  8
PATTERN_FILL
  6
CONTINUOUS
 62
     7
 10
483.5
 20
535.0
 30
0.0
 40
3.25
  0
CIRCLE
  5
DF
  8
PATTERN_FILL
  6
CONTINUOUS
 62
     7
 10
499.5
 20
535.0
 30
0.0
 40
3.25
  0
CIRCLE
  5
E0
  8
PATTERN_FILL
  6
CONTINUOUS
 62
     7
 10
515.50000000000011
 20
535.0
 30
0.0
 40
3.25
  0
CIRCLE
  5
E1
  8
PATTERN_FILL
  6
CONTINUOUS
 62
     7
 10
179.5
 20
535.0
 30
0.0
 40
3.25
  0
CIRCLE
  5
E2
  8
PATTERN_FILL
  6
CONTINUOUS
 62
     7
 10
195.5
 20
535.0
 30
0.0
 40
3.25
  0
CIRCLE
  5
E3
  8
PATTERN_FILL
  6
CONTINUOUS
 62
     7
 10
211.5
 20
535.0
 30
0.0
 40
3.25
  0
CIRCLE
  5
E4
  8
PATTERN_FILL
  6
CONTINUOUS
 62
     7
 10
323.5
 20
549.0
 30
0.0
 40
3.25
  0
CIRCLE
  5
E5
  8
PATTERN_FILL
  6
CONTINUOUS
 62
     7
 10
339.5
 20
549.0
 30
0.0
 40
3.25
  0
CIRCLE
  5
E6
  8
PATTERN_FILL
  6
CONTINUOUS
 62
     7
 10
355.5
 20
549.0
 30
0.0
 40
3.25
  0
CIRCLE
  5
E7
  8
PATTERN_FILL
  6
CONTINUOUS
 62
     7
 10
371.5
 20
549.0
 30
0.0
 40
3.25
  0
CIRCLE
  5
E8
  8
PATTERN_FILL
  6
CONTINUOUS
 62
     7
 10
387.5
 20
549.0
 30
0.0
 40
3.25
  0
CIRCLE
  5
E9
  8
PATTERN_FILL
  6
CONTINUOUS
 62
     7
 10
403.50000000000011
 20
549.0
 30
0.0
 40
3.25
  0
CIRCLE
  5
EA
  8
PATTERN_FILL
  6
CONTINUOUS
 62
     7
 10
163.5
 20
549.0
 30
0.0
 40
3.25
  0
CIRCLE
  5
EB
  8
PATTERN_FILL
  6
CONTINUOUS
 62
     7
 10
147.5
 20
549.0
 30
0.0
 40
3.25
  0
CIRCLE
  5
EC
  8
PATTERN_FILL
  6
CONTINUOUS
 62
     7
 10
131.5
 20
549.0
 30
0.0
 40
3.25
  0
CIRCLE
  5
ED
  8
PATTERN_FILL
  6
CONTINUOUS
 62
     7
 10
115.5
 20
549.0
 30
0.0
 40
3.25
  0
CIRCLE
  5
EE
  8
PATTERN_FILL
  6
CONTINUOUS
 62
     7
 10
99.500000000000014
 20
549.0
 30
0.0
 40
3.25
  0
CIRCLE
  5
EF
  8
PATTERN_FILL
  6
CONTINUOUS
 62
     7
 10
83.499999999999986
 20
549.0
 30
0.0
 40
3.25
  0
CIRCLE
  5
F0
  8
PATTERN_FILL
  6
CONTINUOUS
 62
     7
 10
67.5
 20
549.0
 30
0.0
 40
3.25
  0
CIRCLE
  5
F1
  8
PATTERN_FILL
  6
CONTINUOUS
 62
     7
 10
51.5
 20
549.0
 30
0.0
 40
3.25
  0
CIRCLE
  5
F2
  8
PATTERN_FILL
  6
CONTINUOUS
 62
     7
 10
35.5
 20
549.0
 30
0.0
 40
3.25
  0
CIRCLE
  5
F3
  8
PATTERN_FILL
  6
CONTINUOUS
 62
     7
 10
19.5
 20
549.0
 30
0.0
 40
3.25
  0
CIRCLE
  5
F4
  8
PATTERN_FILL
  6
CONTINUOUS
 62
     7
 10
419.5
 20
549.0
 30
0.0
 40
3.25
  0
CIRCLE
  5
F5
  8
PATTERN_FILL
  6
CONTINUOUS
 62
     7
 10
435.5
 20
549.0
 30
0.0
 40
3.25
  0
CIRCLE
  5
F6
  8
PATTERN_FILL
  6
CONTINUOUS
 62
     7
 10
451.5
 20
549.0
 30
0.0
 40
3.25
  0
CIRCLE
  5
F7
  8
PATTERN_FILL
  6
CONTINUOUS
 62
     7
 10
467.5
 20
549.0
 30
0.0
 40
3.25
  0
CIRCLE
  5
F8
  8
PATTERN_FILL
  6
CONTINUOUS
 62
     7
 10
483.5
 20
549.0
 30
0.0
 40
3.25
  0
CIRCLE
  5
F9
  8
PATTERN_FILL
  6
CONTINUOUS
 62
     7
 10
499.5
 20
549.0
 30
0.0
 40
3.25
  0
CIRCLE
  5
FA
  8
PATTERN_FILL
  6
CONTINUOUS
 62
     7
 10
515.50000000000011
 20
549.0
 30
0.0
 40
3.25
  0
CIRCLE
  5
FB
  8
PATTERN_FILL
  6
CONTINUOUS
 62
     7
 10
179.5
 20
549.0
 30
0.0
 40
3.25
  0
CIRCLE
  5
FC
  8
PATTERN_FILL
  6
CONTINUOUS
 62
     7
 10
195.5
 20
549.0
 30
0.0
 40
3.25
  0
CIRCLE
  5
FD
  8
PATTERN_FILL
  6
CONTINUOUS
 62
     7
 10
211.5
 20
549.0
 30
0.0
 40
3.25
  0
CIRCLE
  5
FE
  8
PATTERN_FILL
  6
CONTINUOUS
 62
     7
 10
227.5
 20
549.0
 30
0.0
 40
3.25
  0
CIRCLE
  5
FF
  8
PATTERN_FILL
  6
CONTINUOUS
 62
     7
 10
243.5
 20
549.0
 30
0.0
 40
3.25
  0
CIRCLE
  5
100
  8
PATTERN_FILL
  6
CONTINUOUS
 62
     7
 10
259.5
 20
549.0
 30
0.0
 40
3.25
  0
CIRCLE
  5
101
  8
PATTERN_FILL
  6
CONTINUOUS
 62
     7
 10
275.5
 20
549.0
 30
0.0
 40
3.25
  0
CIRCLE
  5
102
  8
PATTERN_FILL
  6
CONTINUOUS
 62
     7
 10
291.5
 20
549.0
 30
0.0
 40
3.25
  0
CIRCLE
  5
103
  8
PATTERN_FILL
  6
CONTINUOUS
 62
     7
 10
307.5
 20
549.0
 30
0.0
 40
3.25
  0
CIRCLE
  5
104
  8
PATTERN_FILL
  6
CONTINUOUS
 62
     7
 10
323.5
 20
563.0
 30
0.0
 40
3.25
  0
CIRCLE
  5
105
  8
PATTERN_FILL
  6
CONTINUOUS
 62
     7
 10
339.5
 20
563.0
 30
0.0
 40
3.25
  0
CIRCLE
  5
106
  8
PATTERN_FILL
  6
CONTINUOUS
 62
     7
 10
355.5
 20
563.0
 30
0.0
 40
3.25
  0
CIRCLE
  5
107
  8
PATTERN_FILL
  6
CONTINUOUS
 62
     7
 10
371.5
 20
563.0
 30
0.0
 40
3.25
  0
CIRCLE
  5
108
  8
PATTERN_FILL
  6
CONTINUOUS
 62
     7
 10
387.5
 20
563.0
 30
0.0
 40
3.25
  0
CIRCLE
  5
109
  8
PATTERN_FILL
  6
CONTINUOUS
 62
     7
 10
403.50000000000011
 20
563.0
 30
0.0
 40
3.25
  0
CIRCLE
  5
10A
  8
PATTERN_FILL
  6
CONTINUOUS
 62
     7
 10
163.5
 20
563.0
 30
0.0
 40
3.25
  0
CIRCLE
  5
10B
  8
PATTERN_FILL
  6
CONTINUOUS
 62
     7
 10
147.5
 20
563.0
 30
0.0
 40
3.25
  0
CIRCLE
  5
10C
  8
PATTERN_FILL
  6
CONTINUOUS
 62
     7
 10
131.5
 20
563.0
 30
0.0
 40
3.25
  0
CIRCLE
  5
10D
  8
PATTERN_FILL
  6
CONTINUOUS
 62
     7
 10
115.5
 20
563.0
 30
0.0
 40
3.25
  0
CIRCLE
  5
10E
  8
PATTERN_FILL
  6
CONTINUOUS
 62
     7
 10
99.500000000000014
 20
563.0
 30
0.0
 40
3.25
  0
CIRCLE
  5
10F
  8
PATTERN_FILL
  6
CONTINUOUS
 62
     7
 10
83.499999999999986
 20
563.0
 30
0.0
 40
3.25
  0
CIRCLE
  5
110
  8
PATTERN_FILL
  6
CONTINUOUS
 62
     7
 10
67.5
 20
563.0
 30
0.0
 40
3.25
  0
CIRCLE
  5
111
  8
PATTERN_FILL
  6
CONTINUOUS
 62
     7
 10
51.5
 20
563.0
 30
0.0
 40
3.25
  0
CIRCLE
  5
112
  8
PATTERN_FILL
  6
CONTINUOUS
 62
     7
 10
35.5
 20
563.0
 30
0.0
 40
3.25
  0
CIRCLE
  5
113
  8
PATTERN_FILL
  6
CONTINUOUS
 62
     7
 10
19.5
 20
563.0
 30
0.0
 40
3.25
  0
CIRCLE
  5
114
  8
PATTERN_FILL
  6
CONTINUOUS
 62
     7
 10
419.5
 20
563.0
 30
0.0
 40
3.25
  0
CIRCLE
  5
115
  8
PATTERN_FILL
  6
CONTINUOUS
 62
     7
 10
435.5
 20
563.0
 30
0.0
 40
3.25
  0
CIRCLE
  5
116
  8
PATTERN_FILL
  6
CONTINUOUS
 62
     7
 10
451.5
 20
563.0
 30
0.0
 40
3.25
  0
CIRCLE
  5
117
  8
PATTERN_FILL
  6
CONTINUOUS
 62
     7
 10
467.5
 20
563.0
 30
0.0
 40
3.25
  0
CIRCLE
  5
118
  8
PATTERN_FILL
  6
CONTINUOUS
 62
     7
 10
483.5
 20
563.0
 30
0.0
 40
3.25
  0
CIRCLE
  5
119
  8
PATTERN_FILL
  6
CONTINUOUS
 62
     7
 10
499.5
 20
563.0
 30
0.0
 40
3.25
  0
CIRCLE
  5
11A
  8
PATTERN_FILL
  6
CONTINUOUS
 62
     7
 10
515.50000000000011
 20
563.0
 30
0.0
 40
3.25
  0
CIRCLE
  5
11B
  8
PATTERN_FILL
  6
CONTINUOUS
 62
     7
 10
179.5
 20
563.0
 30
0.0
 40
3.25
  0
CIRCLE
  5
11C
  8
PATTERN_FILL
  6
CONTINUOUS
 62
     7
 10
195.5
 20
563.0
 30
0.0
 40
3.25
  0
CIRCLE
  5
11D
  8
PATTERN_FILL
  6
CONTINUOUS
 62
     7
 10
211.5
 20
563.0
 30
0.0
 40
3.25
  0
CIRCLE
  5
11E
  8
PATTERN_FILL
  6
CONTINUOUS
 62
     7
 10
227.5
 20
563.0
 30
0.0
 40
3.25
  0
CIRCLE
  5
11F
  8
PATTERN_FILL
  6
CONTINUOUS
 62
     7
 10
243.5
 20
563.0
 30
0.0
 40
3.25
  0
CIRCLE
  5
120
  8
PATTERN_FILL
  6
CONTINUOUS
 62
     7
 10
259.5
 20
563.0
 30
0.0
 40
3.25
  0
CIRCLE
  5
121
  8
PATTERN_FILL
  6
CONTINUOUS
 62
     7
 10
275.5
 20
563.0
 30
0.0
 40
3.25
  0
CIRCLE
  5
122
  8
PATTERN_FILL
  6
CONTINUOUS
 62
     7
 10
291.5
 20
563.0
 30
0.0
 40
3.25
  0
CIRCLE
  5
123
  8
PATTERN_FILL
  6
CONTINUOUS
 62
     7
 10
307.5
 20
563.0
 30
0.0
 40
3.25
  0
CIRCLE
  5
124
  8
PATTERN_FILL
  6
CONTINUOUS
 62
     7
 10
323.5
 20
577.0
 30
0.0
 40
3.25
  0
CIRCLE
  5
125
  8
PATTERN_FILL
  6
CONTINUOUS
 62
     7
 10
339.5
 20
577.0
 30
0.0
 40
3.25
  0
CIRCLE
  5
126
  8
PATTERN_FILL
  6
CONTINUOUS
 62
     7
 10
355.5
 20
577.0
 30
0.0
 40
3.25
  0
CIRCLE
  5
127
  8
PATTERN_FILL
  6
CONTINUOUS
 62
     7
 10
371.5
 20
577.0
 30
0.0
 40
3.25
  0
CIRCLE
  5
128
  8
PATTERN_FILL
  6
CONTINUOUS
 62
     7
 10
387.5
 20
577.0
 30
0.0
 40
3.25
  0
CIRCLE
  5
129
  8
PATTERN_FILL
  6
CONTINUOUS
 62
     7
 10
403.50000000000011
 20
577.0
 30
0.0
 40
3.25
  0
CIRCLE
  5
12A
  8
PATTERN_FILL
  6
CONTINUOUS
 62
     7
 10
163.5
 20
577.0
 30
0.0
 40
3.25
  0
CIRCLE
  5
12B
  8
PATTERN_FILL
  6
CONTINUOUS
 62
     7
 10
147.5
 20
577.0
 30
0.0
 40
3.25
  0
CIRCLE
  5
12C
  8
PATTERN_FILL
  6
CONTINUOUS
 62
     7
 10
131.5
 20
577.0
 30
0.0
 40
3.25
  0
CIRCLE
  5
12D
  8
PATTERN_FILL
  6
CONTINUOUS
 62
     7
 10
115.5
 20
577.0
 30
0.0
 40
3.25
  0
CIRCLE
  5
12E
  8
PATTERN_FILL
  6
CONTINUOUS
 62
     7
 10
99.500000000000014
 20
577.0
 30
0.0
 40
3.25
  0
CIRCLE
  5
12F
  8
PATTERN_FILL
  6
CONTINUOUS
 62
     7
 10
83.499999999999986
 20
577.0
 30
0.0
 40
3.25
  0
CIRCLE
  5
130
  8
PATTERN_FILL
  6
CONTINUOUS
 62
     7
 10
67.5
 20
577.0
 30
0.0
 40
3.25
  0
CIRCLE
  5
131
  8
PATTERN_FILL
  6
CONTINUOUS
 62
     7
 10
51.5
 20
577.0
 30
0.0
 40
3.25
  0
CIRCLE
  5
132
  8
PATTERN_FILL
  6
CONTINUOUS
 62
     7
 10
35.5
 20
577.0
 30
0.0
 40
3.25
  0
CIRCLE
  5
133
  8
PATTERN_FILL
  6
CONTINUOUS
 62
     7
 10
19.5
 20
577.0
 30
0.0
 40
3.25
  0
CIRCLE
  5
134
  8
PATTERN_FILL
  6
CONTINUOUS
 62
     7
 10
419.5
 20
577.0
 30
0.0
 40
3.25
  0
CIRCLE
  5
135
  8
PATTERN_FILL
  6
CONTINUOUS
 62
     7
 10
435.5
 20
577.0
 30
0.0
 40
3.25
  0
CIRCLE
  5
136
  8
PATTERN_FILL
  6
CONTINUOUS
 62
     7
 10
451.5
 20
577.0
 30
0.0
 40
3.25
  0
CIRCLE
  5
137
  8
PATTERN_FILL
  6
CONTINUOUS
 62
     7
 10
467.5
 20
577.0
 30
0.0
 40
3.25
  0
CIRCLE
  5
138
  8
PATTERN_FILL
  6
CONTINUOUS
 62
     7
 10
483.5
 20
577.0
 30
0.0
 40
3.25
  0
CIRCLE
  5
139
  8
PATTERN_FILL
  6
CONTINUOUS
 62
     7
 10
499.5
 20
577.0
 30
0.0
 40
3.25
  0
CIRCLE
  5
13A
  8
PATTERN_FILL
  6
CONTINUOUS
 62
     7
 10
515.50000000000011
 20
577.0
 30
0.0
 40
3.25
  0
CIRCLE
  5
13B
  8
PATTERN_FILL
  6
CONTINUOUS
 62
     7
 10
179.5
 20
577.0
 30
0.0
 40
3.25
  0
CIRCLE
  5
13C
  8
PATTERN_FILL
  6
CONTINUOUS
 62
     7
 10
195.5
 20
577.0
 30
0.0
 40
3.25
  0
CIRCLE
  5
13D
  8
PATTERN_FILL
  6
CONTINUOUS
 62
     7
 10
211.5
 20
577.0
 30
0.0
 40
3.25
  0
CIRCLE
  5
13E
  8
PATTERN_FILL
  6
CONTINUOUS
 62
     7
 10
227.5
 20
577.0
 30
0.0
 40
3.25
  0
CIRCLE
  5
13F
  8
PATTERN_FILL
  6
CONTINUOUS
 62
     7
 10
243.5
 20
577.0
 30
0.0
 40
3.25
  0
CIRCLE
  5
140
  8
PATTERN_FILL
  6
CONTINUOUS
 62
     7
 10
259.5
 20
577.0
 30
0.0
 40
3.25
  0
CIRCLE
  5
141
  8
PATTERN_FILL
  6
CONTINUOUS
 62
     7
 10
275.5
 20
577.0
 30
0.0
 40
3.25
  0
CIRCLE
  5
142
  8
PATTERN_FILL
  6
CONTINUOUS
 62
     7
 10
291.5
 20
577.0
 30
0.0
 40
3.25
  0
CIRCLE
  5
143
  8
PATTERN_FILL
  6
CONTINUOUS
 62
     7
 10
307.5
 20
577.0
 30
0.0
 40
3.25
  0
CIRCLE
  5
144
  8
PATTERN_FILL
  6
CONTINUOUS
 62
     7
 10
323.5
 20
591.0
 30
0.0
 40
3.25
  0
CIRCLE
  5
145
  8
PATTERN_FILL
  6
CONTINUOUS
 62
     7
 10
339.5
 20
591.0
 30
0.0
 40
3.25
  0
CIRCLE
  5
146
  8
PATTERN_FILL
  6
CONTINUOUS
 62
     7
 10
355.5
 20
591.0
 30
0.0
 40
3.25
  0
CIRCLE
  5
147
  8
PATTERN_FILL
  6
CONTINUOUS
 62
     7
 10
371.5
 20
591.0
 30
0.0
 40
3.25
  0
CIRCLE
  5
148
  8
PATTERN_FILL
  6
CONTINUOUS
 62
     7
 10
387.5
 20
591.0
 30
0.0
 40
3.25
  0
CIRCLE
  5
149
  8
PATTERN_FILL
  6
CONTINUOUS
 62
     7
 10
403.50000000000011
 20
591.0
 30
0.0
 40
3.25
  0
CIRCLE
  5
14A
  8
PATTERN_FILL
  6
CONTINUOUS
 62
     7
 10
163.5
 20
591.0
 30
0.0
 40
3.25
  0
CIRCLE
  5
14B
  8
PATTERN_FILL
  6
CONTINUOUS
 62
     7
 10
147.5
 20
591.0
 30
0.0
 40
3.25
  0
CIRCLE
  5
14C
  8
PATTERN_FILL
  6
CONTINUOUS
 62
     7
 10
131.5
 20
591.0
 30
0.0
 40
3.25
  0
CIRCLE
  5
14D
  8
PATTERN_FILL
  6
CONTINUOUS
 62
     7
 10
115.5
 20
591.0
 30
0.0
 40
3.25
  0
CIRCLE
  5
14E
  8
PATTERN_FILL
  6
CONTINUOUS
 62
     7
 10
99.500000000000014
 20
591.0
 30
0.0
 40
3.25
  0
CIRCLE
  5
14F
  8
PATTERN_FILL
  6
CONTINUOUS
 62
     7
 10
83.499999999999986
 20
591.0
 30
0.0
 40
3.25
  0
CIRCLE
  5
150
  8
PATTERN_FILL
  6
CONTINUOUS
 62
     7
 10
67.5
 20
591.0
 30
0.0
 40
3.25
  0
CIRCLE
  5
151
  8
PATTERN_FILL
  6
CONTINUOUS
 62
     7
 10
51.5
 20
591.0
 30
0.0
 40
3.25
  0
CIRCLE
  5
152
  8
PATTERN_FILL
  6
CONTINUOUS
 62
     7
 10
35.5
 20
591.0
 30
0.0
 40
3.25
  0
CIRCLE
  5
153
  8
PATTERN_FILL
  6
CONTINUOUS
 62
     7
 10
19.5
 20
591.0
 30
0.0
 40
3.25
  0
CIRCLE
  5
154
  8
PATTERN_FILL
  6
CONTINUOUS
 62
     7
 10
419.5
 20
591.0
 30
0.0
 40
3.25
  0
CIRCLE
  5
155
  8
PATTERN_FILL
  6
CONTINUOUS
 62
     7
 10
435.5
 20
591.0
 30
0.0
 40
3.25
  0
CIRCLE
  5
156
  8
PATTERN_FILL
  6
CONTINUOUS
 62
     7
 10
451.5
 20
591.0
 30
0.0
 40
3.25
  0
CIRCLE
  5
157
  8
PATTERN_FILL
  6
CONTINUOUS
 62
     7
 10
467.5
 20
591.0
 30
0.0
 40
3.25
  0
CIRCLE
  5
158
  8
PATTERN_FILL
  6
CONTINUOUS
 62
     7
 10
483.5
 20
591.0
 30
0.0
 40
3.25
  0
CIRCLE
  5
159
  8
PATTERN_FILL
  6
CONTINUOUS
 62
     7
 10
499.5
 20
591.0
 30
0.0
 40
3.25
  0
CIRCLE
  5
15A
  8
PATTERN_FILL
  6
CONTINUOUS
 62
     7
 10
515.50000000000011
 20
591.0
 30
0.0
 40
3.25
  0
CIRCLE
  5
15B
  8
PATTERN_FILL
  6
CONTINUOUS
 62
     7
 10
179.5
 20
591.0
 30
0.0
 40
3.25
  0
CIRCLE
  5
15C
  8
PATTERN_FILL
  6
CONTINUOUS
 62
     7
 10
195.5
 20
591.0
 30
0.0
 40
3.25
  0
CIRCLE
  5
15D
  8
PATTERN_FILL
  6
CONTINUOUS
 62
     7
 10
211.5
 20
591.0
 30
0.0
 40
3.25
  0
CIRCLE
  5
15E
  8
PATTERN_FILL
  6
CONTINUOUS
 62
     7
 10
227.5
 20
591.0
 30
0.0
 40
3.25
  0
CIRCLE
  5
15F
  8
PATTERN_FILL
  6
CONTINUOUS
 62
     7
 10
243.5
 20
591.0
 30
0.0
 40
3.25
  0
CIRCLE
  5
160
  8
PATTERN_FILL
  6
CONTINUOUS
 62
     7
 10
259.5
 20
591.0
 30
0.0
 40
3.25
  0
CIRCLE
  5
161
  8
PATTERN_FILL
  6
CONTINUOUS
 62
     7
 10
275.5
 20
591.0
 30
0.0
 40
3.25
  0
CIRCLE
  5
162
  8
PATTERN_FILL
  6
CONTINUOUS
 62
     7
 10
291.5
 20
591.0
 30
0.0
 40
3.25
  0
CIRCLE
  5
163
  8
PATTERN_FILL
  6
CONTINUOUS
 62
     7
 10
307.5
 20
591.0
 30
0.0
 40
3.25
  0
CIRCLE
  5
164
  8
PATTERN_FILL
  6
CONTINUOUS
 62
     7
 10
323.5
 20
605.0
 30
0.0
 40
3.25
  0
CIRCLE
  5
165
  8
PATTERN_FILL
  6
CONTINUOUS
 62
     7
 10
339.5
 20
605.0
 30
0.0
 40
3.25
  0
CIRCLE
  5
166
  8
PATTERN_FILL
  6
CONTINUOUS
 62
     7
 10
355.5
 20
605.0
 30
0.0
 40
3.25
  0
CIRCLE
  5
167
  8
PATTERN_FILL
  6
CONTINUOUS
 62
     7
 10
371.5
 20
605.0
 30
0.0
 40
3.25
  0
CIRCLE
  5
168
  8
PATTERN_FILL
  6
CONTINUOUS
 62
     7
 10
387.5
 20
605.0
 30
0.0
 40
3.25
  0
CIRCLE
  5
169
  8
PATTERN_FILL
  6
CONTINUOUS
 62
     7
 10
403.50000000000011
 20
605.0
 30
0.0
 40
3.25
  0
CIRCLE
  5
16A
  8
PATTERN_FILL
  6
CONTINUOUS
 62
     7
 10
163.5
 20
605.0
 30
0.0
 40
3.25
  0
CIRCLE
  5
16B
  8
PATTERN_FILL
  6
CONTINUOUS
 62
     7
 10
147.5
 20
605.0
 30
0.0
 40
3.25
  0
CIRCLE
  5
16C
  8
PATTERN_FILL
  6
CONTINUOUS
 62
     7
 10
131.5
 20
605.0
 30
0.0
 40
3.25
  0
CIRCLE
  5
16D
  8
PATTERN_FILL
  6
CONTINUOUS
 62
     7
 10
115.5
 20
605.0
 30
0.0
 40
3.25
  0
CIRCLE
  5
16E
  8
PATTERN_FILL
  6
CONTINUOUS
 62
     7
 10
99.500000000000014
 20
605.0
 30
0.0
 40
3.25
  0
CIRCLE
  5
16F
  8
PATTERN_FILL
  6
CONTINUOUS
 62
     7
 10
83.499999999999986
 20
605.0
 30
0.0
 40
3.25
  0
CIRCLE
  5
170
  8
PATTERN_FILL
  6
CONTINUOUS
 62
     7
 10
67.5
 20
605.0
 30
0.0
 40
3.25
  0
CIRCLE
  5
171
  8
PATTERN_FILL
  6
CONTINUOUS
 62
     7
 10
51.5
 20
605.0
 30
0.0
 40
3.25
  0
CIRCLE
  5
172
  8
PATTERN_FILL
  6
CONTINUOUS
 62
     7
 10
35.5
 20
605.0
 30
0.0
 40
3.25
  0
CIRCLE
  5
173
  8
PATTERN_FILL
  6
CONTINUOUS
 62
     7
 10
19.5
 20
605.0
 30
0.0
 40
3.25
  0
CIRCLE
  5
174
  8
PATTERN_FILL
  6
CONTINUOUS
 62
     7
 10
419.5
 20
605.0
 30
0.0
 40
3.25
  0
CIRCLE
  5
175
  8
PATTERN_FILL
  6
CONTINUOUS
 62
     7
 10
435.5
 20
605.0
 30
0.0
 40
3.25
  0
CIRCLE
  5
176
  8
PATTERN_FILL
  6
CONTINUOUS
 62
     7
 10
451.5
 20
605.0
 30
0.0
 40
3.25
  0
CIRCLE
  5
177
  8
PATTERN_FILL
  6
CONTINUOUS
 62
     7
 10
467.5
 20
605.0
 30
0.0
 40
3.25
  0
CIRCLE
  5
178
  8
PATTERN_FILL
  6
CONTINUOUS
 62
     7
 10
483.5
 20
605.0
 30
0.0
 40
3.25
  0
CIRCLE
  5
179
  8
PATTERN_FILL
  6
CONTINUOUS
 62
     7
 10
499.5
 20
605.0
 30
0.0
 40
3.25
  0
CIRCLE
  5
17A
  8
PATTERN_FILL
  6
CONTINUOUS
 62
     7
 10
515.50000000000011
 20
605.0
 30
0.0
 40
3.25
  0
CIRCLE
  5
17B
  8
PATTERN_FILL
  6
CONTINUOUS
 62
     7
 10
179.5
 20
605.0
 30
0.0
 40
3.25
  0
CIRCLE
  5
17C
  8
PATTERN_FILL
  6
CONTINUOUS
 62
     7
 10
195.5
 20
605.0
 30
0.0
 40
3.25
  0
CIRCLE
  5
17D
  8
PATTERN_FILL
  6
CONTINUOUS
 62
     7
 10
211.5
 20
605.0
 30
0.0
 40
3.25
  0
CIRCLE
  5
17E
  8
PATTERN_FILL
  6
CONTINUOUS
 62
     7
 10
227.5
 20
605.0
 30
0.0
 40
3.25
  0
CIRCLE
  5
17F
  8
PATTERN_FILL
  6
CONTINUOUS
 62
     7
 10
243.5
 20
605.0
 30
0.0
 40
3.25
  0
CIRCLE
  5
180
  8
PATTERN_FILL
  6
CONTINUOUS
 62
     7
 10
259.5
 20
605.0
 30
0.0
 40
3.25
  0
CIRCLE
  5
181
  8
PATTERN_FILL
  6
CONTINUOUS
 62
     7
 10
275.5
 20
605.0
 30
0.0
 40
3.25
  0
CIRCLE
  5
182
  8
PATTERN_FILL
  6
CONTINUOUS
 62
     7
 10
291.5
 20
605.0
 30
0.0
 40
3.25
  0
CIRCLE
  5
183
  8
PATTERN_FILL
  6
CONTINUOUS
 62
     7
 10
307.5
 20
605.0
 30
0.0
 40
3.25
  0
CIRCLE
  5
184
  8
PATTERN_FILL
  6
CONTINUOUS
 62
     7
 10
323.5
 20
619.0
 30
0.0
 40
3.25
  0
CIRCLE
  5
185
  8
PATTERN_FILL
  6
CONTINUOUS
 62
     7
 10
339.5
 20
619.0
 30
0.0
 40
3.25
  0
CIRCLE
  5
186
  8
PATTERN_FILL
  6
CONTINUOUS
 62
     7
 10
355.5
 20
619.0
 30
0.0
 40
3.25
  0
CIRCLE
  5
187
  8
PATTERN_FILL
  6
CONTINUOUS
 62
     7
 10
371.5
 20
619.0
 30
0.0
 40
3.25
  0
CIRCLE
  5
188
  8
PATTERN_FILL
  6
CONTINUOUS
 62
     7
 10
387.5
 20
619.0
 30
0.0
 40
3.25
  0
CIRCLE
  5
189
  8
PATTERN_FILL
  6
CONTINUOUS
 62
     7
 10
403.50000000000011
 20
619.0
 30
0.0
 40
3.25
  0
CIRCLE
  5
18A
  8
PATTERN_FILL
  6
CONTINUOUS
 62
     7
 10
163.5
 20
619.0
 30
0.0
 40
3.25
  0
CIRCLE
  5
18B
  8
PATTERN_FILL
  6
CONTINUOUS
 62
     7
 10
147.5
 20
619.0
 30
0.0
 40
3.25
  0
CIRCLE
  5
18C
  8
PATTERN_FILL
  6
CONTINUOUS
 62
     7
 10
131.5
 20
619.0
 30
0.0
 40
3.25
  0
CIRCLE
  5
18D
  8
PATTERN_FILL
  6
CONTINUOUS
 62
     7
 10
115.5
 20
619.0
 30
0.0
 40
3.25
  0
CIRCLE
  5
18E
  8
PATTERN_FILL
  6
CONTINUOUS
 62
     7
 10
99.500000000000014
 20
619.0
 30
0.0
 40
3.25
  0
CIRCLE
  5
18F
  8
PATTERN_FILL
  6
CONTINUOUS
 62
     7
 10
83.499999999999986
 20
619.0
 30
0.0
 40
3.25
  0
CIRCLE
  5
190
  8
PATTERN_FILL
  6
CONTINUOUS
 62
     7
 10
67.5
 20
619.0
 30
0.0
 40
3.25
  0
CIRCLE
  5
191
  8
PATTERN_FILL
  6
CONTINUOUS
 62
     7
 10
51.5
 20
619.0
 30
0.0
 40
3.25
  0
CIRCLE
  5
192
  8
PATTERN_FILL
  6
CONTINUOUS
 62
     7
 10
35.5
 20
619.0
 30
0.0
 40
3.25
  0
CIRCLE
  5
193
  8
PATTERN_FILL
  6
CONTINUOUS
 62
     7
 10
19.5
 20
619.0
 30
0.0
 40
3.25
  0
CIRCLE
  5
194
  8
PATTERN_FILL
  6
CONTINUOUS
 62
     7
 10
419.5
 20
619.0
 30
0.0
 40
3.25
  0
CIRCLE
  5
195
  8
PATTERN_FILL
  6
CONTINUOUS
 62
     7
 10
435.5
 20
619.0
 30
0.0
 40
3.25
  0
CIRCLE
  5
196
  8
PATTERN_FILL
  6
CONTINUOUS
 62
     7
 10
451.5
 20
619.0
 30
0.0
 40
3.25
  0
CIRCLE
  5
197
  8
PATTERN_FILL
  6
CONTINUOUS
 62
     7
 10
467.5
 20
619.0
 30
0.0
 40
3.25
  0
CIRCLE
  5
198
  8
PATTERN_FILL
  6
CONTINUOUS
 62
     7
 10
483.5
 20
619.0
 30
0.0
 40
3.25
  0
CIRCLE
  5
199
  8
PATTERN_FILL
  6
CONTINUOUS
 62
     7
 10
499.5
 20
619.0
 30
0.0
 40
3.25
  0
CIRCLE
  5
19A
  8
PATTERN_FILL
  6
CONTINUOUS
 62
     7
 10
515.50000000000011
 20
619.0
 30
0.0
 40
3.25
  0
CIRCLE
  5
19B
  8
PATTERN_FILL
  6
CONTINUOUS
 62
     7
 10
179.5
 20
619.0
 30
0.0
 40
3.25
  0
CIRCLE
  5
19C
  8
PATTERN_FILL
  6
CONTINUOUS
 62
     7
 10
195.5
 20
619.0
 30
0.0
 40
3.25
  0
CIRCLE
  5
19D
  8
PATTERN_FILL
  6
CONTINUOUS
 62
     7
 10
211.5
 20
619.0
 30
0.0
 40
3.25
  0
CIRCLE
  5
19E
  8
PATTERN_FILL
  6
CONTINUOUS
 62
     7
 10
227.5
 20
619.0
 30
0.0
 40
3.25
  0
CIRCLE
  5
19F
  8
PATTERN_FILL
  6
CONTINUOUS
 62
     7
 10
243.5
 20
619.0
 30
0.0
 40
3.25
  0
CIRCLE
  5
1A0
  8
PATTERN_FILL
  6
CONTINUOUS
 62
     7
 10
259.5
 20
619.0
 30
0.0
 40
3.25
  0
CIRCLE
  5
1A1
  8
PATTERN_FILL
  6
CONTINUOUS
 62
     7
 10
275.5
 20
619.0
 30
0.0
 40
3.25
  0
CIRCLE
  5
1A2
  8
PATTERN_FILL
  6
CONTINUOUS
 62
     7
 10
291.5
 20
619.0
 30
0.0
 40
3.25
  0
CIRCLE
  5
1A3
  8
PATTERN_FILL
  6
CONTINUOUS
 62
     7
 10
307.5
 20
619.0
 30
0.0
 40
3.25
  0
CIRCLE
  5
1A4
  8
PATTERN_FILL
  6
CONTINUOUS
 62
     7
 10
323.5
 20
633.0
 30
0.0
 40
3.25
  0
CIRCLE
  5
1A5
  8
PATTERN_FILL
  6
CONTINUOUS
 62
     7
 10
339.5
 20
633.0
 30
0.0
 40
3.25
  0
CIRCLE
  5
1A6
  8
PATTERN_FILL
  6
CONTINUOUS
 62
     7
 10
355.5
 20
633.0
 30
0.0
 40
3.25
  0
CIRCLE
  5
1A7
  8
PATTERN_FILL
  6
CONTINUOUS
 62
     7
 10
371.5
 20
633.0
 30
0.0
 40
3.25
  0
CIRCLE
  5
1A8
  8
PATTERN_FILL
  6
CONTINUOUS
 62
     7
 10
387.5
 20
633.0
 30
0.0
 40
3.25
  0
CIRCLE
  5
1A9
  8
PATTERN_FILL
  6
CONTINUOUS
 62
     7
 10
403.50000000000011
 20
633.0
 30
0.0
 40
3.25
  0
CIRCLE
  5
1AA
  8
PATTERN_FILL
  6
CONTINUOUS
 62
     7
 10
163.5
 20
633.0
 30
0.0
 40
3.25
  0
CIRCLE
  5
1AB
  8
PATTERN_FILL
  6
CONTINUOUS
 62
     7
 10
147.5
 20
633.0
 30
0.0
 40
3.25
  0
CIRCLE
  5
1AC
  8
PATTERN_FILL
  6
CONTINUOUS
 62
     7
 10
131.5
 20
633.0
 30
0.0
 40
3.25
  0
CIRCLE
  5
1AD
  8
PATTERN_FILL
  6
CONTINUOUS
 62
     7
 10
115.5
 20
633.0
 30
0.0
 40
3.25
  0
CIRCLE
  5
1AE
  8
PATTERN_FILL
  6
CONTINUOUS
 62
     7
 10
99.500000000000014
 20
633.0
 30
0.0
 40
3.25
  0
CIRCLE
  5
1AF
  8
PATTERN_FILL
  6
CONTINUOUS
 62
     7
 10
83.499999999999986
 20
633.0
 30
0.0
 40
3.25
  0
CIRCLE
  5
1B0
  8
PATTERN_FILL
  6
CONTINUOUS
 62
     7
 10
67.5
 20
633.0
 30
0.0
 40
3.25
  0
CIRCLE
  5
1B1
  8
PATTERN_FILL
  6
CONTINUOUS
 62
     7
 10
51.5
 20
633.0
 30
0.0
 40
3.25
  0
CIRCLE
  5
1B2
  8
PATTERN_FILL
  6
CONTINUOUS
 62
     7
 10
35.5
 20
633.0
 30
0.0
 40
3.25
  0
CIRCLE
  5
1B3
  8
PATTERN_FILL
  6
CONTINUOUS
 62
     7
 10
19.5
 20
633.0
 30
0.0
 40
3.25
  0
CIRCLE
  5
1B4
  8
PATTERN_FILL
  6
CONTINUOUS
 62
     7
 10
419.5
 20
633.0
 30
0.0
 40
3.25
  0
CIRCLE
  5
1B5
  8
PATTERN_FILL
  6
CONTINUOUS
 62
     7
 10
435.5
 20
633.0
 30
0.0
 40
3.25
  0
CIRCLE
  5
1B6
  8
PATTERN_FILL
  6
CONTINUOUS
 62
     7
 10
451.5
 20
633.0
 30
0.0
 40
3.25
  0
CIRCLE
  5
1B7
  8
PATTERN_FILL
  6
CONTINUOUS
 62
     7
 10
467.5
 20
633.0
 30
0.0
 40
3.25
  0
CIRCLE
  5
1B8
  8
PATTERN_FILL
  6
CONTINUOUS
 62
     7
 10
483.5
 20
633.0
 30
0.0
 40
3.25
  0
CIRCLE
  5
1B9
  8
PATTERN_FILL
  6
CONTINUOUS
 62
     7
 10
499.5
 20
633.0
 30
0.0
 40
3.25
  0
CIRCLE
  5
1BA
  8
PATTERN_FILL
  6
CONTINUOUS
 62
     7
 10
515.50000000000011
 20
633.0
 30
0.0
 40
3.25
  0
CIRCLE
  5
1BB
  8
PATTERN_FILL
  6
CONTINUOUS
 62
     7
 10
179.5
 20
633.0
 30
0.0
 40
3.25
  0
CIRCLE
  5
1BC
  8
PATTERN_FILL
  6
CONTINUOUS
 62
     7
 10
195.5
 20
633.0
 30
0.0
 40
3.25
  0
CIRCLE
  5
1BD
  8
PATTERN_FILL
  6
CONTINUOUS
 62
     7
 10
211.5
 20
633.0
 30
0.0
 40
3.25
  0
CIRCLE
  5
1BE
  8
PATTERN_FILL
  6
CONTINUOUS
 62
     7
 10
227.5
 20
633.0
 30
0.0
 40
3.25
  0
CIRCLE
  5
1BF
  8
PATTERN_FILL
  6
CONTINUOUS
 62
     7
 10
243.5
 20
633.0
 30
0.0
 40
3.25
  0
CIRCLE
  5
1C0
  8
PATTERN_FILL
  6
CONTINUOUS
 62
     7
 10
259.5
 20
633.0
 30
0.0
 40
3.25
  0
CIRCLE
  5
1C1
  8
PATTERN_FILL
  6
CONTINUOUS
 62
     7
 10
275.5
 20
633.0
 30
0.0
 40
3.25
  0
CIRCLE
  5
1C2
  8
PATTERN_FILL
  6
CONTINUOUS
 62
     7
 10
291.5
 20
633.0
 30
0.0
 40
3.25
  0
CIRCLE
  5
1C3
  8
PATTERN_FILL
  6
CONTINUOUS
 62
     7
 10
307.5
 20
633.0
 30
0.0
 40
3.25
  0
CIRCLE
  5
1C4
  8
PATTERN_FILL
  6
CONTINUOUS
 62
     7
 10
323.5
 20
647.0
 30
0.0
 40
3.25
  0
CIRCLE
  5
1C5
  8
PATTERN_FILL
  6
CONTINUOUS
 62
     7
 10
339.5
 20
647.0
 30
0.0
 40
3.25
  0
CIRCLE
  5
1C6
  8
PATTERN_FILL
  6
CONTINUOUS
 62
     7
 10
355.5
 20
647.0
 30
0.0
 40
3.25
  0
CIRCLE
  5
1C7
  8
PATTERN_FILL
  6
CONTINUOUS
 62
     7
 10
371.5
 20
647.0
 30
0.0
 40
3.25
  0
CIRCLE
  5
1C8
  8
PATTERN_FILL
  6
CONTINUOUS
 62
     7
 10
387.5
 20
647.0
 30
0.0
 40
3.25
  0
CIRCLE
  5
1C9
  8
PATTERN_FILL
  6
CONTINUOUS
 62
     7
 10
403.50000000000011
 20
647.0
 30
0.0
 40
3.25
  0
CIRCLE
  5
1CA
  8
PATTERN_FILL
  6
CONTINUOUS
 62
     7
 10
163.5
 20
647.0
 30
0.0
 40
3.25
  0
CIRCLE
  5
1CB
  8
PATTERN_FILL
  6
CONTINUOUS
 62
     7
 10
147.5
 20
647.0
 30
0.0
 40
3.25
  0
CIRCLE
  5
1CC
  8
PATTERN_FILL
  6
CONTINUOUS
 62
     7
 10
131.5
 20
647.0
 30
0.0
 40
3.25
  0
CIRCLE
  5
1CD
  8
PATTERN_FILL
  6
CONTINUOUS
 62
     7
 10
115.5
 20
647.0
 30
0.0
 40
3.25
  0
CIRCLE
  5
1CE
  8
PATTERN_FILL
  6
CONTINUOUS
 62
     7
 10
99.500000000000014
 20
647.0
 30
0.0
 40
3.25
  0
CIRCLE
  5
1CF
  8
PATTERN_FILL
  6
CONTINUOUS
 62
     7
 10
83.499999999999986
 20
647.0
 30
0.0
 40
3.25
  0
CIRCLE
  5
1D0
  8
PATTERN_FILL
  6
CONTINUOUS
 62
     7
 10
67.5
 20
647.0
 30
0.0
 40
3.25
  0
CIRCLE
  5
1D1
  8
PATTERN_FILL
  6
CONTINUOUS
 62
     7
 10
51.5
 20
647.0
 30
0.0
 40
3.25
  0
CIRCLE
  5
1D2
  8
PATTERN_FILL
  6
CONTINUOUS
 62
     7
 10
35.5
 20
647.0
 30
0.0
 40
3.25
  0
CIRCLE
  5
1D3
  8
PATTERN_FILL
  6
CONTINUOUS
 62
     7
 10
19.5
 20
647.0
 30
0.0
 40
3.25
  0
CIRCLE
  5
1D4
  8
PATTERN_FILL
  6
CONTINUOUS
 62
     7
 10
419.5
 20
647.0
 30
0.0
 40
3.25
  0
CIRCLE
  5
1D5
  8
PATTERN_FILL
  6
CONTINUOUS
 62
     7
 10
435.5
 20
647.0
 30
0.0
 40
3.25
  0
CIRCLE
  5
1D6
  8
PATTERN_FILL
  6
CONTINUOUS
 62
     7
 10
451.5
 20
647.0
 30
0.0
 40
3.25
  0
CIRCLE
  5
1D7
  8
PATTERN_FILL
  6
CONTINUOUS
 62
     7
 10
467.5
 20
647.0
 30
0.0
 40
3.25
  0
CIRCLE
  5
1D8
  8
PATTERN_FILL
  6
CONTINUOUS
 62
     7
 10
483.5
 20
647.0
 30
0.0
 40
3.25
  0
CIRCLE
  5
1D9
  8
PATTERN_FILL
  6
CONTINUOUS
 62
     7
 10
499.5
 20
647.0
 30
0.0
 40
3.25
  0
CIRCLE
  5
1DA
  8
PATTERN_FILL
  6
CONTINUOUS
 62
     7
 10
515.50000000000011
 20
647.0
 30
0.0
 40
3.25
  0
CIRCLE
  5
1DB
  8
PATTERN_FILL
  6
CONTINUOUS
 62
     7
 10
179.5
 20
647.0
 30
0.0
 40
3.25
  0
CIRCLE
  5
1DC
  8
PATTERN_FILL
  6
CONTINUOUS
 62
     7
 10
195.5
 20
647.0
 30
0.0
 40
3.25
  0
CIRCLE
  5
1DD
  8
PATTERN_FILL
  6
CONTINUOUS
 62
     7
 10
211.5
 20
647.0
 30
0.0
 40
3.25
  0
CIRCLE
  5
1DE
  8
PATTERN_FILL
  6
CONTINUOUS
 62
     7
 10
227.5
 20
647.0
 30
0.0
 40
3.25
  0
CIRCLE
  5
1DF
  8
PATTERN_FILL
  6
CONTINUOUS
 62
     7
 10
243.5
 20
647.0
 30
0.0
 40
3.25
  0
CIRCLE
  5
1E0
  8
PATTERN_FILL
  6
CONTINUOUS
 62
     7
 10
259.5
 20
647.0
 30
0.0
 40
3.25
  0
CIRCLE
  5
1E1
  8
PATTERN_FILL
  6
CONTINUOUS
 62
     7
 10
275.5
 20
647.0
 30
0.0
 40
3.25
  0
CIRCLE
  5
1E2
  8
PATTERN_FILL
  6
CONTINUOUS
 62
     7
 10
291.5
 20
647.0
 30
0.0
 40
3.25
  0
CIRCLE
  5
1E3
  8
PATTERN_FILL
  6
CONTINUOUS
 62
     7
 10
307.5
 20
647.0
 30
0.0
 40
3.25
  0
CIRCLE
  5
1E4
  8
PATTERN_FILL
  6
CONTINUOUS
 62
     7
 10
323.5
 20
661.0
 30
0.0
 40
3.25
  0
CIRCLE
  5
1E5
  8
PATTERN_FILL
  6
CONTINUOUS
 62
     7
 10
339.5
 20
661.0
 30
0.0
 40
3.25
  0
CIRCLE
  5
1E6
  8
PATTERN_FILL
  6
CONTINUOUS
 62
     7
 10
355.5
 20
661.0
 30
0.0
 40
3.25
  0
CIRCLE
  5
1E7
  8
PATTERN_FILL
  6
CONTINUOUS
 62
     7
 10
371.5
 20
661.0
 30
0.0
 40
3.25
  0
CIRCLE
  5
1E8
  8
PATTERN_FILL
  6
CONTINUOUS
 62
     7
 10
387.5
 20
661.0
 30
0.0
 40
3.25
  0
CIRCLE
  5
1E9
  8
PATTERN_FILL
  6
CONTINUOUS
 62
     7
 10
403.50000000000011
 20
661.0
 30
0.0
 40
3.25
  0
CIRCLE
  5
1EA
  8
PATTERN_FILL
  6
CONTINUOUS
 62
     7
 10
163.5
 20
661.0
 30
0.0
 40
3.25
  0
CIRCLE
  5
1EB
  8
PATTERN_FILL
  6
CONTINUOUS
 62
     7
 10
147.5
 20
661.0
 30
0.0
 40
3.25
  0
CIRCLE
  5
1EC
  8
PATTERN_FILL
  6
CONTINUOUS
 62
     7
 10
131.5
 20
661.0
 30
0.0
 40
3.25
  0
CIRCLE
  5
1ED
  8
PATTERN_FILL
  6
CONTINUOUS
 62
     7
 10
115.5
 20
661.0
 30
0.0
 40
3.25
  0
CIRCLE
  5
1EE
  8
PATTERN_FILL
  6
CONTINUOUS
 62
     7
 10
99.500000000000014
 20
661.0
 30
0.0
 40
3.25
  0
CIRCLE
  5
1EF
  8
PATTERN_FILL
  6
CONTINUOUS
 62
     7
 10
83.499999999999986
 20
661.0
 30
0.0
 40
3.25
  0
CIRCLE
  5
1F0
  8
PATTERN_FILL
  6
CONTINUOUS
 62
     7
 10
67.5
 20
661.0
 30
0.0
 40
3.25
  0
CIRCLE
  5
1F1
  8
PATTERN_FILL
  6
CONTINUOUS
 62
     7
 10
51.5
 20
661.0
 30
0.0
 40
3.25
  0
CIRCLE
  5
1F2
  8
PATTERN_FILL
  6
CONTINUOUS
 62
     7
 10
35.5
 20
661.0
 30
0.0
 40
3.25
  0
CIRCLE
  5
1F3
  8
PATTERN_FILL
  6
CONTINUOUS
 62
     7
 10
19.5
 20
661.0
 30
0.0
 40
3.25
  0
CIRCLE
  5
1F4
  8
PATTERN_FILL
  6
CONTINUOUS
 62
     7
 10
419.5
 20
661.0
 30
0.0
 40
3.25
  0
CIRCLE
  5
1F5
  8
PATTERN_FILL
  6
CONTINUOUS
 62
     7
 10
435.5
 20
661.0
 30
0.0
 40
3.25
  0
CIRCLE
  5
1F6
  8
PATTERN_FILL
  6
CONTINUOUS
 62
     7
 10
451.5
 20
661.0
 30
0.0
 40
3.25
  0
CIRCLE
  5
1F7
  8
PATTERN_FILL
  6
CONTINUOUS
 62
     7
 10
467.5
 20
661.0
 30
0.0
 40
3.25
  0
CIRCLE
  5
1F8
  8
PATTERN_FILL
  6
CONTINUOUS
 62
     7
 10
483.5
 20
661.0
 30
0.0
 40
3.25
  0
CIRCLE
  5
1F9
  8
PATTERN_FILL
  6
CONTINUOUS
 62
     7
 10
499.5
 20
661.0
 30
0.0
 40
3.25
  0
CIRCLE
  5
1FA
  8
PATTERN_FILL
  6
CONTINUOUS
 62
     7
 10
515.50000000000011
 20
661.0
 30
0.0
 40
3.25
  0
CIRCLE
  5
1FB
  8
PATTERN_FILL
  6
CONTINUOUS
 62
     7
 10
179.5
 20
661.0
 30
0.0
 40
3.25
  0
CIRCLE
  5
1FC
  8
PATTERN_FILL
  6
CONTINUOUS
 62
     7
 10
195.5
 20
661.0
 30
0.0
 40
3.25
  0
CIRCLE
  5
1FD
  8
PATTERN_FILL
  6
CONTINUOUS
 62
     7
 10
211.5
 20
661.0
 30
0.0
 40
3.25
  0
CIRCLE
  5
1FE
  8
PATTERN_FILL
  6
CONTINUOUS
 62
     7
 10
227.5
 20
661.0
 30
0.0
 40
3.25
  0
CIRCLE
  5
1FF
  8
PATTERN_FILL
  6
CONTINUOUS
 62
     7
 10
243.5
 20
661.0
 30
0.0
 40
3.25
  0
CIRCLE
  5
200
  8
PATTERN_FILL
  6
CONTINUOUS
 62
     7
 10
259.5
 20
661.0
 30
0.0
 40
3.25
  0
CIRCLE
  5
201
  8
PATTERN_FILL
  6
CONTINUOUS
 62
     7
 10
275.5
 20
661.0
 30
0.0
 40
3.25
  0
CIRCLE
  5
202
  8
PATTERN_FILL
  6
CONTINUOUS
 62
     7
 10
291.5
 20
661.0
 30
0.0
 40
3.25
  0
CIRCLE
  5
203
  8
PATTERN_FILL
  6
CONTINUOUS
 62
     7
 10
307.5
 20
661.0
 30
0.0
 40
3.25
  0
CIRCLE
  5
204
  8
PATTERN_FILL
  6
CONTINUOUS
 62
     7
 10
323.5
 20
675.0
 30
0.0
 40
3.25
  0
CIRCLE
  5
205
  8
PATTERN_FILL
  6
CONTINUOUS
 62
     7
 10
339.5
 20
675.0
 30
0.0
 40
3.25
  0
CIRCLE
  5
206
  8
PATTERN_FILL
  6
CONTINUOUS
 62
     7
 10
355.5
 20
675.0
 30
0.0
 40
3.25
  0
CIRCLE
  5
207
  8
PATTERN_FILL
  6
CONTINUOUS
 62
     7
 10
371.5
 20
675.0
 30
0.0
 40
3.25
  0
CIRCLE
  5
208
  8
PATTERN_FILL
  6
CONTINUOUS
 62
     7
 10
387.5
 20
675.0
 30
0.0
 40
3.25
  0
CIRCLE
  5
209
  8
PATTERN_FILL
  6
CONTINUOUS
 62
     7
 10
403.50000000000011
 20
675.0
 30
0.0
 40
3.25
  0
CIRCLE
  5
20A
  8
PATTERN_FILL
  6
CONTINUOUS
 62
     7
 10
163.5
 20
675.0
 30
0.0
 40
3.25
  0
CIRCLE
  5
20B
  8
PATTERN_FILL
  6
CONTINUOUS
 62
     7
 10
147.5
 20
675.0
 30
0.0
 40
3.25
  0
CIRCLE
  5
20C
  8
PATTERN_FILL
  6
CONTINUOUS
 62
     7
 10
131.5
 20
675.0
 30
0.0
 40
3.25
  0
CIRCLE
  5
20D
  8
PATTERN_FILL
  6
CONTINUOUS
 62
     7
 10
115.5
 20
675.0
 30
0.0
 40
3.25
  0
CIRCLE
  5
20E
  8
PATTERN_FILL
  6
CONTINUOUS
 62
     7
 10
99.500000000000014
 20
675.0
 30
0.0
 40
3.25
  0
CIRCLE
  5
20F
  8
PATTERN_FILL
  6
CONTINUOUS
 62
     7
 10
83.499999999999986
 20
675.0
 30
0.0
 40
3.25
  0
CIRCLE
  5
210
  8
PATTERN_FILL
  6
CONTINUOUS
 62
     7
 10
67.5
 20
675.0
 30
0.0
 40
3.25
  0
CIRCLE
  5
211
  8
PATTERN_FILL
  6
CONTINUOUS
 62
     7
 10
51.5
 20
675.0
 30
0.0
 40
3.25
  0
CIRCLE
  5
212
  8
PATTERN_FILL
  6
CONTINUOUS
 62
     7
 10
35.5
 20
675.0
 30
0.0
 40
3.25
  0
CIRCLE
  5
213
  8
PATTERN_FILL
  6
CONTINUOUS
 62
     7
 10
19.5
 20
675.0
 30
0.0
 40
3.25
  0
CIRCLE
  5
214
  8
PATTERN_FILL
  6
CONTINUOUS
 62
     7
 10
419.5
 20
675.0
 30
0.0
 40
3.25
  0
CIRCLE
  5
215
  8
PATTERN_FILL
  6
CONTINUOUS
 62
     7
 10
435.5
 20
675.0
 30
0.0
 40
3.25
  0
CIRCLE
  5
216
  8
PATTERN_FILL
  6
CONTINUOUS
 62
     7
 10
451.5
 20
675.0
 30
0.0
 40
3.25
  0
CIRCLE
  5
217
  8
PATTERN_FILL
  6
CONTINUOUS
 62
     7
 10
467.5
 20
675.0
 30
0.0
 40
3.25
  0
CIRCLE
  5
218
  8
PATTERN_FILL
  6
CONTINUOUS
 62
     7
 10
483.5
 20
675.0
 30
0.0
 40
3.25
  0
CIRCLE
  5
219
  8
PATTERN_FILL
  6
CONTINUOUS
 62
     7
 10
499.5
 20
675.0
 30
0.0
 40
3.25
  0
CIRCLE
  5
21A
  8
PATTERN_FILL
  6
CONTINUOUS
 62
     7
 10
515.50000000000011
 20
675.0
 30
0.0
 40
3.25
  0
CIRCLE
  5
21B
  8
PATTERN_FILL
  6
CONTINUOUS
 62
     7
 10
179.5
 20
675.0
 30
0.0
 40
3.25
  0
CIRCLE
  5
21C
  8
PATTERN_FILL
  6
CONTINUOUS
 62
     7
 10
195.5
 20
675.0
 30
0.0
 40
3.25
  0
CIRCLE
  5
21D
  8
PATTERN_FILL
  6
CONTINUOUS
 62
     7
 10
211.5
 20
675.0
 30
0.0
 40
3.25
  0
CIRCLE
  5
21E
  8
PATTERN_FILL
  6
CONTINUOUS
 62
     7
 10
227.5
 20
675.0
 30
0.0
 40
3.25
  0
CIRCLE
  5
21F
  8
PATTERN_FILL
  6
CONTINUOUS
 62
     7
 10
243.5
 20
675.0
 30
0.0
 40
3.25
  0
CIRCLE
  5
220
  8
PATTERN_FILL
  6
CONTINUOUS
 62
     7
 10
259.5
 20
675.0
 30
0.0
 40
3.25
  0
CIRCLE
  5
221
  8
PATTERN_FILL
  6
CONTINUOUS
 62
     7
 10
275.5
 20
675.0
 30
0.0
 40
3.25
  0
CIRCLE
  5
222
  8
PATTERN_FILL
  6
CONTINUOUS
 62
     7
 10
291.5
 20
675.0
 30
0.0
 40
3.25
  0
CIRCLE
  5
223
  8
PATTERN_FILL
  6
CONTINUOUS
 62
     7
 10
307.5
 20
675.0
 30
0.0
 40
3.25
  0
CIRCLE
  5
224
  8
PATTERN_FILL
  6
CONTINUOUS
 62
     7
 10
323.5
 20
689.0
 30
0.0
 40
3.25
  0
CIRCLE
  5
225
  8
PATTERN_FILL
  6
CONTINUOUS
 62
     7
 10
339.5
 20
689.0
 30
0.0
 40
3.25
  0
CIRCLE
  5
226
  8
PATTERN_FILL
  6
CONTINUOUS
 62
     7
 10
355.5
 20
689.0
 30
0.0
 40
3.25
  0
CIRCLE
  5
227
  8
PATTERN_FILL
  6
CONTINUOUS
 62
     7
 10
371.5
 20
689.0
 30
0.0
 40
3.25
  0
CIRCLE
  5
228
  8
PATTERN_FILL
  6
CONTINUOUS
 62
     7
 10
387.5
 20
689.0
 30
0.0
 40
3.25
  0
CIRCLE
  5
229
  8
PATTERN_FILL
  6
CONTINUOUS
 62
     7
 10
403.50000000000011
 20
689.0
 30
0.0
 40
3.25
  0
CIRCLE
  5
22A
  8
PATTERN_FILL
  6
CONTINUOUS
 62
     7
 10
163.5
 20
689.0
 30
0.0
 40
3.25
  0
CIRCLE
  5
22B
  8
PATTERN_FILL
  6
CONTINUOUS
 62
     7
 10
147.5
 20
689.0
 30
0.0
 40
3.25
  0
CIRCLE
  5
22C
  8
PATTERN_FILL
  6
CONTINUOUS
 62
     7
 10
131.5
 20
689.0
 30
0.0
 40
3.25
  0
CIRCLE
  5
22D
  8
PATTERN_FILL
  6
CONTINUOUS
 62
     7
 10
115.5
 20
689.0
 30
0.0
 40
3.25
  0
CIRCLE
  5
22E
  8
PATTERN_FILL
  6
CONTINUOUS
 62
     7
 10
99.500000000000014
 20
689.0
 30
0.0
 40
3.25
  0
CIRCLE
  5
22F
  8
PATTERN_FILL
  6
CONTINUOUS
 62
     7
 10
83.499999999999986
 20
689.0
 30
0.0
 40
3.25
  0
CIRCLE
  5
230
  8
PATTERN_FILL
  6
CONTINUOUS
 62
     7
 10
67.5
 20
689.0
 30
0.0
 40
3.25
  0
CIRCLE
  5
231
  8
PATTERN_FILL
  6
CONTINUOUS
 62
     7
 10
51.5
 20
689.0
 30
0.0
 40
3.25
  0
CIRCLE
  5
232
  8
PATTERN_FILL
  6
CONTINUOUS
 62
     7
 10
35.5
 20
689.0
 30
0.0
 40
3.25
  0
CIRCLE
  5
233
  8
PATTERN_FILL
  6
CONTINUOUS
 62
     7
 10
19.5
 20
689.0
 30
0.0
 40
3.25
  0
CIRCLE
  5
234
  8
PATTERN_FILL
  6
CONTINUOUS
 62
     7
 10
419.5
 20
689.0
 30
0.0
 40
3.25
  0
CIRCLE
  5
235
  8
PATTERN_FILL
  6
CONTINUOUS
 62
     7
 10
435.5
 20
689.0
 30
0.0
 40
3.25
  0
CIRCLE
  5
236
  8
PATTERN_FILL
  6
CONTINUOUS
 62
     7
 10
451.5
 20
689.0
 30
0.0
 40
3.25
  0
CIRCLE
  5
237
  8
PATTERN_FILL
  6
CONTINUOUS
 62
     7
 10
467.5
 20
689.0
 30
0.0
 40
3.25
  0
CIRCLE
  5
238
  8
PATTERN_FILL
  6
CONTINUOUS
 62
     7
 10
483.5
 20
689.0
 30
0.0
 40
3.25
  0
CIRCLE
  5
239
  8
PATTERN_FILL
  6
CONTINUOUS
 62
     7
 10
499.5
 20
689.0
 30
0.0
 40
3.25
  0
CIRCLE
  5
23A
  8
PATTERN_FILL
  6
CONTINUOUS
 62
     7
 10
515.50000000000011
 20
689.0
 30
0.0
 40
3.25
  0
CIRCLE
  5
23B
  8
PATTERN_FILL
  6
CONTINUOUS
 62
     7
 10
179.5
 20
689.0
 30
0.0
 40
3.25
  0
CIRCLE
  5
23C
  8
PATTERN_FILL
  6
CONTINUOUS
 62
     7
 10
195.5
 20
689.0
 30
0.0
 40
3.25
  0
CIRCLE
  5
23D
  8
PATTERN_FILL
  6
CONTINUOUS
 62
     7
 10
211.5
 20
689.0
 30
0.0
 40
3.25
  0
CIRCLE
  5
23E
  8
PATTERN_FILL
  6
CONTINUOUS
 62
     7
 10
227.5
 20
689.0
 30
0.0
 40
3.25
  0
CIRCLE
  5
23F
  8
PATTERN_FILL
  6
CONTINUOUS
 62
     7
 10
243.5
 20
689.0
 30
0.0
 40
3.25
  0
CIRCLE
  5
240
  8
PATTERN_FILL
  6
CONTINUOUS
 62
     7
 10
259.5
 20
689.0
 30
0.0
 40
3.25
  0
CIRCLE
  5
241
  8
PATTERN_FILL
  6
CONTINUOUS
 62
     7
 10
275.5
 20
689.0
 30
0.0
 40
3.25
  0
CIRCLE
  5
242
  8
PATTERN_FILL
  6
CONTINUOUS
 62
     7
 10
291.5
 20
689.0
 30
0.0
 40
3.25
  0
CIRCLE
  5
243
  8
PATTERN_FILL
  6
CONTINUOUS
 62
     7
 10
307.5
 20
689.0
 30
0.0
 40
3.25
  0
CIRCLE
  5
244
  8
PATTERN_FILL
  6
CONTINUOUS
 62
     7
 10
323.5
 20
703.0
 30
0.0
 40
3.25
  0
CIRCLE
  5
245
  8
PATTERN_FILL
  6
CONTINUOUS
 62
     7
 10
339.5
 20
703.0
 30
0.0
 40
3.25
  0
CIRCLE
  5
246
  8
PATTERN_FILL
  6
CONTINUOUS
 62
     7
 10
355.5
 20
703.0
 30
0.0
 40
3.25
  0
CIRCLE
  5
247
  8
PATTERN_FILL
  6
CONTINUOUS
 62
     7
 10
371.5
 20
703.0
 30
0.0
 40
3.25
  0
CIRCLE
  5
248
  8
PATTERN_FILL
  6
CONTINUOUS
 62
     7
 10
387.5
 20
703.0
 30
0.0
 40
3.25
  0
CIRCLE
  5
249
  8
PATTERN_FILL
  6
CONTINUOUS
 62
     7
 10
403.50000000000011
 20
703.0
 30
0.0
 40
3.25
  0
CIRCLE
  5
24A
  8
PATTERN_FILL
  6
CONTINUOUS
 62
     7
 10
163.5
 20
703.0
 30
0.0
 40
3.25
  0
CIRCLE
  5
24B
  8
PATTERN_FILL
  6
CONTINUOUS
 62
     7
 10
147.5
 20
703.0
 30
0.0
 40
3.25
  0
CIRCLE
  5
24C
  8
PATTERN_FILL
  6
CONTINUOUS
 62
     7
 10
131.5
 20
703.0
 30
0.0
 40
3.25
  0
CIRCLE
  5
24D
  8
PATTERN_FILL
  6
CONTINUOUS
 62
     7
 10
115.5
 20
703.0
 30
0.0
 40
3.25
  0
CIRCLE
  5
24E
  8
PATTERN_FILL
  6
CONTINUOUS
 62
     7
 10
99.500000000000014
 20
703.0
 30
0.0
 40
3.25
  0
CIRCLE
  5
24F
  8
PATTERN_FILL
  6
CONTINUOUS
 62
     7
 10
83.499999999999986
 20
703.0
 30
0.0
 40
3.25
  0
CIRCLE
  5
250
  8
PATTERN_FILL
  6
CONTINUOUS
 62
     7
 10
67.5
 20
703.0
 30
0.0
 40
3.25
  0
CIRCLE
  5
251
  8
PATTERN_FILL
  6
CONTINUOUS
 62
     7
 10
51.5
 20
703.0
 30
0.0
 40
3.25
  0
CIRCLE
  5
252
  8
PATTERN_FILL
  6
CONTINUOUS
 62
     7
 10
35.5
 20
703.0
 30
0.0
 40
3.25
  0
CIRCLE
  5
253
  8
PATTERN_FILL
  6
CONTINUOUS
 62
     7
 10
19.5
 20
703.0
 30
0.0
 40
3.25
  0
CIRCLE
  5
254
  8
PATTERN_FILL
  6
CONTINUOUS
 62
     7
 10
419.5
 20
703.0
 30
0.0
 40
3.25
  0
CIRCLE
  5
255
  8
PATTERN_FILL
  6
CONTINUOUS
 62
     7
 10
435.5
 20
703.0
 30
0.0
 40
3.25
  0
CIRCLE
  5
256
  8
PATTERN_FILL
  6
CONTINUOUS
 62
     7
 10
451.5
 20
703.0
 30
0.0
 40
3.25
  0
CIRCLE
  5
257
  8
PATTERN_FILL
  6
CONTINUOUS
 62
     7
 10
467.5
 20
703.0
 30
0.0
 40
3.25
  0
CIRCLE
  5
258
  8
PATTERN_FILL
  6
CONTINUOUS
 62
     7
 10
483.5
 20
703.0
 30
0.0
 40
3.25
  0
CIRCLE
  5
259
  8
PATTERN_FILL
  6
CONTINUOUS
 62
     7
 10
499.5
 20
703.0
 30
0.0
 40
3.25
  0
CIRCLE
  5
25A
  8
PATTERN_FILL
  6
CONTINUOUS
 62
     7
 10
515.50000000000011
 20
703.0
 30
0.0
 40
3.25
  0
CIRCLE
  5
25B
  8
PATTERN_FILL
  6
CONTINUOUS
 62
     7
 10
179.5
 20
703.0
 30
0.0
 40
3.25
  0
CIRCLE
  5
25C
  8
PATTERN_FILL
  6
CONTINUOUS
 62
     7
 10
195.5
 20
703.0
 30
0.0
 40
3.25
  0
CIRCLE
  5
25D
  8
PATTERN_FILL
  6
CONTINUOUS
 62
     7
 10
211.5
 20
703.0
 30
0.0
 40
3.25
  0
CIRCLE
  5
25E
  8
PATTERN_FILL
  6
CONTINUOUS
 62
     7
 10
227.5
 20
703.0
 30
0.0
 40
3.25
  0
CIRCLE
  5
25F
  8
PATTERN_FILL
  6
CONTINUOUS
 62
     7
 10
243.5
 20
703.0
 30
0.0
 40
3.25
  0
CIRCLE
  5
260
  8
PATTERN_FILL
  6
CONTINUOUS
 62
     7
 10
259.5
 20
703.0
 30
0.0
 40
3.25
  0
CIRCLE
  5
261
  8
PATTERN_FILL
  6
CONTINUOUS
 62
     7
 10
275.5
 20
703.0
 30
0.0
 40
3.25
  0
CIRCLE
  5
262
  8
PATTERN_FILL
  6
CONTINUOUS
 62
     7
 10
291.5
 20
703.0
 30
0.0
 40
3.25
  0
CIRCLE
  5
263
  8
PATTERN_FILL
  6
CONTINUOUS
 62
     7
 10
307.5
 20
703.0
 30
0.0
 40
3.25
  0
CIRCLE
  5
264
  8
PATTERN_FILL
  6
CONTINUOUS
 62
     7
 10
323.5
 20
717.0
 30
0.0
 40
3.25
  0
CIRCLE
  5
265
  8
PATTERN_FILL
  6
CONTINUOUS
 62
     7
 10
339.5
 20
717.0
 30
0.0
 40
3.25
  0
CIRCLE
  5
266
  8
PATTERN_FILL
  6
CONTINUOUS
 62
     7
 10
355.5
 20
717.0
 30
0.0
 40
3.25
  0
CIRCLE
  5
267
  8
PATTERN_FILL
  6
CONTINUOUS
 62
     7
 10
371.5
 20
717.0
 30
0.0
 40
3.25
  0
CIRCLE
  5
268
  8
PATTERN_FILL
  6
CONTINUOUS
 62
     7
 10
387.5
 20
717.0
 30
0.0
 40
3.25
  0
CIRCLE
  5
269
  8
PATTERN_FILL
  6
CONTINUOUS
 62
     7
 10
403.50000000000011
 20
717.0
 30
0.0
 40
3.25
  0
CIRCLE
  5
26A
  8
PATTERN_FILL
  6
CONTINUOUS
 62
     7
 10
163.5
 20
717.0
 30
0.0
 40
3.25
  0
CIRCLE
  5
26B
  8
PATTERN_FILL
  6
CONTINUOUS
 62
     7
 10
147.5
 20
717.0
 30
0.0
 40
3.25
  0
CIRCLE
  5
26C
  8
PATTERN_FILL
  6
CONTINUOUS
 62
     7
 10
131.5
 20
717.0
 30
0.0
 40
3.25
  0
CIRCLE
  5
26D
  8
PATTERN_FILL
  6
CONTINUOUS
 62
     7
 10
115.5
 20
717.0
 30
0.0
 40
3.25
  0
CIRCLE
  5
26E
  8
PATTERN_FILL
  6
CONTINUOUS
 62
     7
 10
99.500000000000014
 20
717.0
 30
0.0
 40
3.25
  0
CIRCLE
  5
26F
  8
PATTERN_FILL
  6
CONTINUOUS
 62
     7
 10
83.499999999999986
 20
717.0
 30
0.0
 40
3.25
  0
CIRCLE
  5
270
  8
PATTERN_FILL
  6
CONTINUOUS
 62
     7
 10
67.5
 20
717.0
 30
0.0
 40
3.25
  0
CIRCLE
  5
271
  8
PATTERN_FILL
  6
CONTINUOUS
 62
     7
 10
51.5
 20
717.0
 30
0.0
 40
3.25
  0
CIRCLE
  5
272
  8
PATTERN_FILL
  6
CONTINUOUS
 62
     7
 10
35.5
 20
717.0
 30
0.0
 40
3.25
  0
CIRCLE
  5
273
  8
PATTERN_FILL
  6
CONTINUOUS
 62
     7
 10
19.5
 20
717.0
 30
0.0
 40
3.25
  0
CIRCLE
  5
274
  8
PATTERN_FILL
  6
CONTINUOUS
 62
     7
 10
419.5
 20
717.0
 30
0.0
 40
3.25
  0
CIRCLE
  5
275
  8
PATTERN_FILL
  6
CONTINUOUS
 62
     7
 10
435.5
 20
717.0
 30
0.0
 40
3.25
  0
CIRCLE
  5
276
  8
PATTERN_FILL
  6
CONTINUOUS
 62
     7
 10
451.5
 20
717.0
 30
0.0
 40
3.25
  0
CIRCLE
  5
277
  8
PATTERN_FILL
  6
CONTINUOUS
 62
     7
 10
467.5
 20
717.0
 30
0.0
 40
3.25
  0
CIRCLE
  5
278
  8
PATTERN_FILL
  6
CONTINUOUS
 62
     7
 10
483.5
 20
717.0
 30
0.0
 40
3.25
  0
CIRCLE
  5
279
  8
PATTERN_FILL
  6
CONTINUOUS
 62
     7
 10
499.5
 20
717.0
 30
0.0
 40
3.25
  0
CIRCLE
  5
27A
  8
PATTERN_FILL
  6
CONTINUOUS
 62
     7
 10
515.50000000000011
 20
717.0
 30
0.0
 40
3.25
  0
CIRCLE
  5
27B
  8
PATTERN_FILL
  6
CONTINUOUS
 62
     7
 10
179.5
 20
717.0
 30
0.0
 40
3.25
  0
CIRCLE
  5
27C
  8
PATTERN_FILL
  6
CONTINUOUS
 62
     7
 10
195.5
 20
717.0
 30
0.0
 40
3.25
  0
CIRCLE
  5
27D
  8
PATTERN_FILL
  6
CONTINUOUS
 62
     7
 10
211.5
 20
717.0
 30
0.0
 40
3.25
  0
CIRCLE
  5
27E
  8
PATTERN_FILL
  6
CONTINUOUS
 62
     7
 10
227.5
 20
717.0
 30
0.0
 40
3.25
  0
CIRCLE
  5
27F
  8
PATTERN_FILL
  6
CONTINUOUS
 62
     7
 10
243.5
 20
717.0
 30
0.0
 40
3.25
  0
CIRCLE
  5
280
  8
PATTERN_FILL
  6
CONTINUOUS
 62
     7
 10
259.5
 20
717.0
 30
0.0
 40
3.25
  0
CIRCLE
  5
281
  8
PATTERN_FILL
  6
CONTINUOUS
 62
     7
 10
275.5
 20
717.0
 30
0.0
 40
3.25
  0
CIRCLE
  5
282
  8
PATTERN_FILL
  6
CONTINUOUS
 62
     7
 10
291.5
 20
717.0
 30
0.0
 40
3.25
  0
CIRCLE
  5
283
  8
PATTERN_FILL
  6
CONTINUOUS
 62
     7
 10
307.5
 20
717.0
 30
0.0
 40
3.25
  0
CIRCLE
  5
284
  8
PATTERN_FILL
  6
CONTINUOUS
 62
     7
 10
323.5
 20
731.0
 30
0.0
 40
3.25
  0
CIRCLE
  5
285
  8
PATTERN_FILL
  6
CONTINUOUS
 62
     7
 10
339.5
 20
731.0
 30
0.0
 40
3.25
  0
CIRCLE
  5
286
  8
PATTERN_FILL
  6
CONTINUOUS
 62
     7
 10
355.5
 20
731.0
 30
0.0
 40
3.25
  0
CIRCLE
  5
287
  8
PATTERN_FILL
  6
CONTINUOUS
 62
     7
 10
371.5
 20
731.0
 30
0.0
 40
3.25
  0
CIRCLE
  5
288
  8
PATTERN_FILL
  6
CONTINUOUS
 62
     7
 10
387.5
 20
731.0
 30
0.0
 40
3.25
  0
CIRCLE
  5
289
  8
PATTERN_FILL
  6
CONTINUOUS
 62
     7
 10
403.50000000000011
 20
731.0
 30
0.0
 40
3.25
  0
CIRCLE
  5
28A
  8
PATTERN_FILL
  6
CONTINUOUS
 62
     7
 10
163.5
 20
731.0
 30
0.0
 40
3.25
  0
CIRCLE
  5
28B
  8
PATTERN_FILL
  6
CONTINUOUS
 62
     7
 10
147.5
 20
731.0
 30
0.0
 40
3.25
  0
CIRCLE
  5
28C
  8
PATTERN_FILL
  6
CONTINUOUS
 62
     7
 10
131.5
 20
731.0
 30
0.0
 40
3.25
  0
CIRCLE
  5
28D
  8
PATTERN_FILL
  6
CONTINUOUS
 62
     7
 10
115.5
 20
731.0
 30
0.0
 40
3.25
  0
CIRCLE
  5
28E
  8
PATTERN_FILL
  6
CONTINUOUS
 62
     7
 10
99.500000000000014
 20
731.0
 30
0.0
 40
3.25
  0
CIRCLE
  5
28F
  8
PATTERN_FILL
  6
CONTINUOUS
 62
     7
 10
83.499999999999986
 20
731.0
 30
0.0
 40
3.25
  0
CIRCLE
  5
290
  8
PATTERN_FILL
  6
CONTINUOUS
 62
     7
 10
67.5
 20
731.0
 30
0.0
 40
3.25
  0
CIRCLE
  5
291
  8
PATTERN_FILL
  6
CONTINUOUS
 62
     7
 10
51.5
 20
731.0
 30
0.0
 40
3.25
  0
CIRCLE
  5
292
  8
PATTERN_FILL
  6
CONTINUOUS
 62
     7
 10
35.5
 20
731.0
 30
0.0
 40
3.25
  0
CIRCLE
  5
293
  8
PATTERN_FILL
  6
CONTINUOUS
 62
     7
 10
19.5
 20
731.0
 30
0.0
 40
3.25
  0
CIRCLE
  5
294
  8
PATTERN_FILL
  6
CONTINUOUS
 62
     7
 10
419.5
 20
731.0
 30
0.0
 40
3.25
  0
CIRCLE
  5
295
  8
PATTERN_FILL
  6
CONTINUOUS
 62
     7
 10
435.5
 20
731.0
 30
0.0
 40
3.25
  0
CIRCLE
  5
296
  8
PATTERN_FILL
  6
CONTINUOUS
 62
     7
 10
451.5
 20
731.0
 30
0.0
 40
3.25
  0
CIRCLE
  5
297
  8
PATTERN_FILL
  6
CONTINUOUS
 62
     7
 10
467.5
 20
731.0
 30
0.0
 40
3.25
  0
CIRCLE
  5
298
  8
PATTERN_FILL
  6
CONTINUOUS
 62
     7
 10
483.5
 20
731.0
 30
0.0
 40
3.25
  0
CIRCLE
  5
299
  8
PATTERN_FILL
  6
CONTINUOUS
 62
     7
 10
499.5
 20
731.0
 30
0.0
 40
3.25
  0
CIRCLE
  5
29A
  8
PATTERN_FILL
  6
CONTINUOUS
 62
     7
 10
515.50000000000011
 20
731.0
 30
0.0
 40
3.25
  0
CIRCLE
  5
29B
  8
PATTERN_FILL
  6
CONTINUOUS
 62
     7
 10
179.5
 20
731.0
 30
0.0
 40
3.25
  0
CIRCLE
  5
29C
  8
PATTERN_FILL
  6
CONTINUOUS
 62
     7
 10
195.5
 20
731.0
 30
0.0
 40
3.25
  0
CIRCLE
  5
29D
  8
PATTERN_FILL
  6
CONTINUOUS
 62
     7
 10
211.5
 20
731.0
 30
0.0
 40
3.25
  0
CIRCLE
  5
29E
  8
PATTERN_FILL
  6
CONTINUOUS
 62
     7
 10
227.5
 20
731.0
 30
0.0
 40
3.25
  0
CIRCLE
  5
29F
  8
PATTERN_FILL
  6
CONTINUOUS
 62
     7
 10
243.5
 20
731.0
 30
0.0
 40
3.25
  0
CIRCLE
  5
2A0
  8
PATTERN_FILL
  6
CONTINUOUS
 62
     7
 10
259.5
 20
731.0
 30
0.0
 40
3.25
  0
CIRCLE
  5
2A1
  8
PATTERN_FILL
  6
CONTINUOUS
 62
     7
 10
275.5
 20
731.0
 30
0.0
 40
3.25
  0
CIRCLE
  5
2A2
  8
PATTERN_FILL
  6
CONTINUOUS
 62
     7
 10
291.5
 20
731.0
 30
0.0
 40
3.25
  0
CIRCLE
  5
2A3
  8
PATTERN_FILL
  6
CONTINUOUS
 62
     7
 10
307.5
 20
731.0
 30
0.0
 40
3.25
  0
CIRCLE
  5
2A4
  8
PATTERN_FILL
  6
CONTINUOUS
 62
     7
 10
323.5
 20
745.0
 30
0.0
 40
3.25
  0
CIRCLE
  5
2A5
  8
PATTERN_FILL
  6
CONTINUOUS
 62
     7
 10
339.5
 20
745.0
 30
0.0
 40
3.25
  0
CIRCLE
  5
2A6
  8
PATTERN_FILL
  6
CONTINUOUS
 62
     7
 10
355.5
 20
745.0
 30
0.0
 40
3.25
  0
CIRCLE
  5
2A7
  8
PATTERN_FILL
  6
CONTINUOUS
 62
     7
 10
371.5
 20
745.0
 30
0.0
 40
3.25
  0
CIRCLE
  5
2A8
  8
PATTERN_FILL
  6
CONTINUOUS
 62
     7
 10
387.5
 20
745.0
 30
0.0
 40
3.25
  0
CIRCLE
  5
2A9
  8
PATTERN_FILL
  6
CONTINUOUS
 62
     7
 10
403.50000000000011
 20
745.0
 30
0.0
 40
3.25
  0
CIRCLE
  5
2AA
  8
PATTERN_FILL
  6
CONTINUOUS
 62
     7
 10
163.5
 20
745.0
 30
0.0
 40
3.25
  0
CIRCLE
  5
2AB
  8
PATTERN_FILL
  6
CONTINUOUS
 62
     7
 10
147.5
 20
745.0
 30
0.0
 40
3.25
  0
CIRCLE
  5
2AC
  8
PATTERN_FILL
  6
CONTINUOUS
 62
     7
 10
131.5
 20
745.0
 30
0.0
 40
3.25
  0
CIRCLE
  5
2AD
  8
PATTERN_FILL
  6
CONTINUOUS
 62
     7
 10
115.5
 20
745.0
 30
0.0
 40
3.25
  0
CIRCLE
  5
2AE
  8
PATTERN_FILL
  6
CONTINUOUS
 62
     7
 10
99.500000000000014
 20
745.0
 30
0.0
 40
3.25
  0
CIRCLE
  5
2AF
  8
PATTERN_FILL
  6
CONTINUOUS
 62
     7
 10
83.499999999999986
 20
745.0
 30
0.0
 40
3.25
  0
CIRCLE
  5
2B0
  8
PATTERN_FILL
  6
CONTINUOUS
 62
     7
 10
67.5
 20
745.0
 30
0.0
 40
3.25
  0
CIRCLE
  5
2B1
  8
PATTERN_FILL
  6
CONTINUOUS
 62
     7
 10
51.5
 20
745.0
 30
0.0
 40
3.25
  0
CIRCLE
  5
2B2
  8
PATTERN_FILL
  6
CONTINUOUS
 62
     7
 10
35.5
 20
745.0
 30
0.0
 40
3.25
  0
CIRCLE
  5
2B3
  8
PATTERN_FILL
  6
CONTINUOUS
 62
     7
 10
19.5
 20
745.0
 30
0.0
 40
3.25
  0
CIRCLE
  5
2B4
  8
PATTERN_FILL
  6
CONTINUOUS
 62
     7
 10
419.5
 20
745.0
 30
0.0
 40
3.25
  0
CIRCLE
  5
2B5
  8
PATTERN_FILL
  6
CONTINUOUS
 62
     7
 10
435.5
 20
745.0
 30
0.0
 40
3.25
  0
CIRCLE
  5
2B6
  8
PATTERN_FILL
  6
CONTINUOUS
 62
     7
 10
451.5
 20
745.0
 30
0.0
 40
3.25
  0
CIRCLE
  5
2B7
  8
PATTERN_FILL
  6
CONTINUOUS
 62
     7
 10
467.5
 20
745.0
 30
0.0
 40
3.25
  0
CIRCLE
  5
2B8
  8
PATTERN_FILL
  6
CONTINUOUS
 62
     7
 10
483.5
 20
745.0
 30
0.0
 40
3.25
  0
CIRCLE
  5
2B9
  8
PATTERN_FILL
  6
CONTINUOUS
 62
     7
 10
499.5
 20
745.0
 30
0.0
 40
3.25
  0
CIRCLE
  5
2BA
  8
PATTERN_FILL
  6
CONTINUOUS
 62
     7
 10
515.50000000000011
 20
745.0
 30
0.0
 40
3.25
  0
CIRCLE
  5
2BB
  8
PATTERN_FILL
  6
CONTINUOUS
 62
     7
 10
179.5
 20
745.0
 30
0.0
 40
3.25
  0
CIRCLE
  5
2BC
  8
PATTERN_FILL
  6
CONTINUOUS
 62
     7
 10
195.5
 20
745.0
 30
0.0
 40
3.25
  0
CIRCLE
  5
2BD
  8
PATTERN_FILL
  6
CONTINUOUS
 62
     7
 10
211.5
 20
745.0
 30
0.0
 40
3.25
  0
CIRCLE
  5
2BE
  8
PATTERN_FILL
  6
CONTINUOUS
 62
     7
 10
227.5
 20
745.0
 30
0.0
 40
3.25
  0
CIRCLE
  5
2BF
  8
PATTERN_FILL
  6
CONTINUOUS
 62
     7
 10
243.5
 20
745.0
 30
0.0
 40
3.25
  0
CIRCLE
  5
2C0
  8
PATTERN_FILL
  6
CONTINUOUS
 62
     7
 10
259.5
 20
745.0
 30
0.0
 40
3.25
  0
CIRCLE
  5
2C1
  8
PATTERN_FILL
  6
CONTINUOUS
 62
     7
 10
275.5
 20
745.0
 30
0.0
 40
3.25
  0
CIRCLE
  5
2C2
  8
PATTERN_FILL
  6
CONTINUOUS
 62
     7
 10
291.5
 20
745.0
 30
0.0
 40
3.25
  0
CIRCLE
  5
2C3
  8
PATTERN_FILL
  6
CONTINUOUS
 62
     7
 10
307.5
 20
745.0
 30
0.0
 40
3.25
  0
CIRCLE
  5
2C4
  8
PATTERN_FILL
  6
CONTINUOUS
 62
     7
 10
323.5
 20
759.0
 30
0.0
 40
3.25
  0
CIRCLE
  5
2C5
  8
PATTERN_FILL
  6
CONTINUOUS
 62
     7
 10
339.5
 20
759.0
 30
0.0
 40
3.25
  0
CIRCLE
  5
2C6
  8
PATTERN_FILL
  6
CONTINUOUS
 62
     7
 10
355.5
 20
759.0
 30
0.0
 40
3.25
  0
CIRCLE
  5
2C7
  8
PATTERN_FILL
  6
CONTINUOUS
 62
     7
 10
371.5
 20
759.0
 30
0.0
 40
3.25
  0
CIRCLE
  5
2C8
  8
PATTERN_FILL
  6
CONTINUOUS
 62
     7
 10
387.5
 20
759.0
 30
0.0
 40
3.25
  0
CIRCLE
  5
2C9
  8
PATTERN_FILL
  6
CONTINUOUS
 62
     7
 10
403.50000000000011
 20
759.0
 30
0.0
 40
3.25
  0
CIRCLE
  5
2CA
  8
PATTERN_FILL
  6
CONTINUOUS
 62
     7
 10
163.5
 20
759.0
 30
0.0
 40
3.25
  0
CIRCLE
  5
2CB
  8
PATTERN_FILL
  6
CONTINUOUS
 62
     7
 10
147.5
 20
759.0
 30
0.0
 40
3.25
  0
CIRCLE
  5
2CC
  8
PATTERN_FILL
  6
CONTINUOUS
 62
     7
 10
131.5
 20
759.0
 30
0.0
 40
3.25
  0
CIRCLE
  5
2CD
  8
PATTERN_FILL
  6
CONTINUOUS
 62
     7
 10
115.5
 20
759.0
 30
0.0
 40
3.25
  0
CIRCLE
  5
2CE
  8
PATTERN_FILL
  6
CONTINUOUS
 62
     7
 10
99.500000000000014
 20
759.0
 30
0.0
 40
3.25
  0
CIRCLE
  5
2CF
  8
PATTERN_FILL
  6
CONTINUOUS
 62
     7
 10
83.499999999999986
 20
759.0
 30
0.0
 40
3.25
  0
CIRCLE
  5
2D0
  8
PATTERN_FILL
  6
CONTINUOUS
 62
     7
 10
67.5
 20
759.0
 30
0.0
 40
3.25
  0
CIRCLE
  5
2D1
  8
PATTERN_FILL
  6
CONTINUOUS
 62
     7
 10
51.5
 20
759.0
 30
0.0
 40
3.25
  0
CIRCLE
  5
2D2
  8
PATTERN_FILL
  6
CONTINUOUS
 62
     7
 10
35.5
 20
759.0
 30
0.0
 40
3.25
  0
CIRCLE
  5
2D3
  8
PATTERN_FILL
  6
CONTINUOUS
 62
     7
 10
19.5
 20
759.0
 30
0.0
 40
3.25
  0
CIRCLE
  5
2D4
  8
PATTERN_FILL
  6
CONTINUOUS
 62
     7
 10
419.5
 20
759.0
 30
0.0
 40
3.25
  0
CIRCLE
  5
2D5
  8
PATTERN_FILL
  6
CONTINUOUS
 62
     7
 10
435.5
 20
759.0
 30
0.0
 40
3.25
  0
CIRCLE
  5
2D6
  8
PATTERN_FILL
  6
CONTINUOUS
 62
     7
 10
451.5
 20
759.0
 30
0.0
 40
3.25
  0
CIRCLE
  5
2D7
  8
PATTERN_FILL
  6
CONTINUOUS
 62
     7
 10
467.5
 20
759.0
 30
0.0
 40
3.25
  0
CIRCLE
  5
2D8
  8
PATTERN_FILL
  6
CONTINUOUS
 62
     7
 10
483.5
 20
759.0
 30
0.0
 40
3.25
  0
CIRCLE
  5
2D9
  8
PATTERN_FILL
  6
CONTINUOUS
 62
     7
 10
499.5
 20
759.0
 30
0.0
 40
3.25
  0
CIRCLE
  5
2DA
  8
PATTERN_FILL
  6
CONTINUOUS
 62
     7
 10
515.50000000000011
 20
759.0
 30
0.0
 40
3.25
  0
CIRCLE
  5
2DB
  8
PATTERN_FILL
  6
CONTINUOUS
 62
     7
 10
179.5
 20
759.0
 30
0.0
 40
3.25
  0
CIRCLE
  5
2DC
  8
PATTERN_FILL
  6
CONTINUOUS
 62
     7
 10
195.5
 20
759.0
 30
0.0
 40
3.25
  0
CIRCLE
  5
2DD
  8
PATTERN_FILL
  6
CONTINUOUS
 62
     7
 10
211.5
 20
759.0
 30
0.0
 40
3.25
  0
CIRCLE
  5
2DE
  8
PATTERN_FILL
  6
CONTINUOUS
 62
     7
 10
227.5
 20
759.0
 30
0.0
 40
3.25
  0
CIRCLE
  5
2DF
  8
PATTERN_FILL
  6
CONTINUOUS
 62
     7
 10
243.5
 20
759.0
 30
0.0
 40
3.25
  0
CIRCLE
  5
2E0
  8
PATTERN_FILL
  6
CONTINUOUS
 62
     7
 10
259.5
 20
759.0
 30
0.0
 40
3.25
  0
CIRCLE
  5
2E1
  8
PATTERN_FILL
  6
CONTINUOUS
 62
     7
 10
275.5
 20
759.0
 30
0.0
 40
3.25
  0
CIRCLE
  5
2E2
  8
PATTERN_FILL
  6
CONTINUOUS
 62
     7
 10
291.5
 20
759.0
 30
0.0
 40
3.25
  0
CIRCLE
  5
2E3
  8
PATTERN_FILL
  6
CONTINUOUS
 62
     7
 10
307.5
 20
759.0
 30
0.0
 40
3.25
  0
CIRCLE
  5
2E4
  8
PATTERN_FILL
  6
CONTINUOUS
 62
     7
 10
323.5
 20
773.0
 30
0.0
 40
3.25
  0
CIRCLE
  5
2E5
  8
PATTERN_FILL
  6
CONTINUOUS
 62
     7
 10
339.5
 20
773.0
 30
0.0
 40
3.25
  0
CIRCLE
  5
2E6
  8
PATTERN_FILL
  6
CONTINUOUS
 62
     7
 10
355.5
 20
773.0
 30
0.0
 40
3.25
  0
CIRCLE
  5
2E7
  8
PATTERN_FILL
  6
CONTINUOUS
 62
     7
 10
371.5
 20
773.0
 30
0.0
 40
3.25
  0
CIRCLE
  5
2E8
  8
PATTERN_FILL
  6
CONTINUOUS
 62
     7
 10
387.5
 20
773.0
 30
0.0
 40
3.25
  0
CIRCLE
  5
2E9
  8
PATTERN_FILL
  6
CONTINUOUS
 62
     7
 10
403.50000000000011
 20
773.0
 30
0.0
 40
3.25
  0
CIRCLE
  5
2EA
  8
PATTERN_FILL
  6
CONTINUOUS
 62
     7
 10
163.5
 20
773.0
 30
0.0
 40
3.25
  0
CIRCLE
  5
2EB
  8
PATTERN_FILL
  6
CONTINUOUS
 62
     7
 10
147.5
 20
773.0
 30
0.0
 40
3.25
  0
CIRCLE
  5
2EC
  8
PATTERN_FILL
  6
CONTINUOUS
 62
     7
 10
131.5
 20
773.0
 30
0.0
 40
3.25
  0
CIRCLE
  5
2ED
  8
PATTERN_FILL
  6
CONTINUOUS
 62
     7
 10
115.5
 20
773.0
 30
0.0
 40
3.25
  0
CIRCLE
  5
2EE
  8
PATTERN_FILL
  6
CONTINUOUS
 62
     7
 10
99.500000000000014
 20
773.0
 30
0.0
 40
3.25
  0
CIRCLE
  5
2EF
  8
PATTERN_FILL
  6
CONTINUOUS
 62
     7
 10
83.499999999999986
 20
773.0
 30
0.0
 40
3.25
  0
CIRCLE
  5
2F0
  8
PATTERN_FILL
  6
CONTINUOUS
 62
     7
 10
67.5
 20
773.0
 30
0.0
 40
3.25
  0
CIRCLE
  5
2F1
  8
PATTERN_FILL
  6
CONTINUOUS
 62
     7
 10
51.5
 20
773.0
 30
0.0
 40
3.25
  0
CIRCLE
  5
2F2
  8
PATTERN_FILL
  6
CONTINUOUS
 62
     7
 10
35.5
 20
773.0
 30
0.0
 40
3.25
  0
CIRCLE
  5
2F3
  8
PATTERN_FILL
  6
CONTINUOUS
 62
     7
 10
19.5
 20
773.0
 30
0.0
 40
3.25
  0
CIRCLE
  5
2F4
  8
PATTERN_FILL
  6
CONTINUOUS
 62
     7
 10
419.5
 20
773.0
 30
0.0
 40
3.25
  0
CIRCLE
  5
2F5
  8
PATTERN_FILL
  6
CONTINUOUS
 62
     7
 10
435.5
 20
773.0
 30
0.0
 40
3.25
  0
CIRCLE
  5
2F6
  8
PATTERN_FILL
  6
CONTINUOUS
 62
     7
 10
451.5
 20
773.0
 30
0.0
 40
3.25
  0
CIRCLE
  5
2F7
  8
PATTERN_FILL
  6
CONTINUOUS
 62
     7
 10
467.5
 20
773.0
 30
0.0
 40
3.25
  0
CIRCLE
  5
2F8
  8
PATTERN_FILL
  6
CONTINUOUS
 62
     7
 10
483.5
 20
773.0
 30
0.0
 40
3.25
  0
CIRCLE
  5
2F9
  8
PATTERN_FILL
  6
CONTINUOUS
 62
     7
 10
499.5
 20
773.0
 30
0.0
 40
3.25
  0
CIRCLE
  5
2FA
  8
PATTERN_FILL
  6
CONTINUOUS
 62
     7
 10
515.50000000000011
 20
773.0
 30
0.0
 40
3.25
  0
CIRCLE
  5
2FB
  8
PATTERN_FILL
  6
CONTINUOUS
 62
     7
 10
179.5
 20
773.0
 30
0.0
 40
3.25
  0
CIRCLE
  5
2FC
  8
PATTERN_FILL
  6
CONTINUOUS
 62
     7
 10
195.5
 20
773.0
 30
0.0
 40
3.25
  0
CIRCLE
  5
2FD
  8
PATTERN_FILL
  6
CONTINUOUS
 62
     7
 10
211.5
 20
773.0
 30
0.0
 40
3.25
  0
CIRCLE
  5
2FE
  8
PATTERN_FILL
  6
CONTINUOUS
 62
     7
 10
227.5
 20
773.0
 30
0.0
 40
3.25
  0
CIRCLE
  5
2FF
  8
PATTERN_FILL
  6
CONTINUOUS
 62
     7
 10
243.5
 20
773.0
 30
0.0
 40
3.25
  0
CIRCLE
  5
300
  8
PATTERN_FILL
  6
CONTINUOUS
 62
     7
 10
259.5
 20
773.0
 30
0.0
 40
3.25
  0
CIRCLE
  5
301
  8
PATTERN_FILL
  6
CONTINUOUS
 62
     7
 10
275.5
 20
773.0
 30
0.0
 40
3.25
  0
CIRCLE
  5
302
  8
PATTERN_FILL
  6
CONTINUOUS
 62
     7
 10
291.5
 20
773.0
 30
0.0
 40
3.25
  0
CIRCLE
  5
303
  8
PATTERN_FILL
  6
CONTINUOUS
 62
     7
 10
307.5
 20
773.0
 30
0.0
 40
3.25
  0
CIRCLE
  5
304
  8
PATTERN_FILL
  6
CONTINUOUS
 62
     7
 10
323.5
 20
787.0
 30
0.0
 40
3.25
  0
CIRCLE
  5
305
  8
PATTERN_FILL
  6
CONTINUOUS
 62
     7
 10
339.5
 20
787.0
 30
0.0
 40
3.25
  0
CIRCLE
  5
306
  8
PATTERN_FILL
  6
CONTINUOUS
 62
     7
 10
355.5
 20
787.0
 30
0.0
 40
3.25
  0
CIRCLE
  5
307
  8
PATTERN_FILL
  6
CONTINUOUS
 62
     7
 10
371.5
 20
787.0
 30
0.0
 40
3.25
  0
CIRCLE
  5
308
  8
PATTERN_FILL
  6
CONTINUOUS
 62
     7
 10
387.5
 20
787.0
 30
0.0
 40
3.25
  0
CIRCLE
  5
309
  8
PATTERN_FILL
  6
CONTINUOUS
 62
     7
 10
403.50000000000011
 20
787.0
 30
0.0
 40
3.25
  0
CIRCLE
  5
30A
  8
PATTERN_FILL
  6
CONTINUOUS
 62
     7
 10
163.5
 20
787.0
 30
0.0
 40
3.25
  0
CIRCLE
  5
30B
  8
PATTERN_FILL
  6
CONTINUOUS
 62
     7
 10
147.5
 20
787.0
 30
0.0
 40
3.25
  0
CIRCLE
  5
30C
  8
PATTERN_FILL
  6
CONTINUOUS
 62
     7
 10
131.5
 20
787.0
 30
0.0
 40
3.25
  0
CIRCLE
  5
30D
  8
PATTERN_FILL
  6
CONTINUOUS
 62
     7
 10
115.5
 20
787.0
 30
0.0
 40
3.25
  0
CIRCLE
  5
30E
  8
PATTERN_FILL
  6
CONTINUOUS
 62
     7
 10
99.500000000000014
 20
787.0
 30
0.0
 40
3.25
  0
CIRCLE
  5
30F
  8
PATTERN_FILL
  6
CONTINUOUS
 62
     7
 10
83.499999999999986
 20
787.0
 30
0.0
 40
3.25
  0
CIRCLE
  5
310
  8
PATTERN_FILL
  6
CONTINUOUS
 62
     7
 10
67.5
 20
787.0
 30
0.0
 40
3.25
  0
CIRCLE
  5
311
  8
PATTERN_FILL
  6
CONTINUOUS
 62
     7
 10
51.5
 20
787.0
 30
0.0
 40
3.25
  0
CIRCLE
  5
312
  8
PATTERN_FILL
  6
CONTINUOUS
 62
     7
 10
35.5
 20
787.0
 30
0.0
 40
3.25
  0
CIRCLE
  5
313
  8
PATTERN_FILL
  6
CONTINUOUS
 62
     7
 10
19.5
 20
787.0
 30
0.0
 40
3.25
  0
CIRCLE
  5
314
  8
PATTERN_FILL
  6
CONTINUOUS
 62
     7
 10
419.5
 20
787.0
 30
0.0
 40
3.25
  0
CIRCLE
  5
315
  8
PATTERN_FILL
  6
CONTINUOUS
 62
     7
 10
435.5
 20
787.0
 30
0.0
 40
3.25
  0
CIRCLE
  5
316
  8
PATTERN_FILL
  6
CONTINUOUS
 62
     7
 10
451.5
 20
787.0
 30
0.0
 40
3.25
  0
CIRCLE
  5
317
  8
PATTERN_FILL
  6
CONTINUOUS
 62
     7
 10
467.5
 20
787.0
 30
0.0
 40
3.25
  0
CIRCLE
  5
318
  8
PATTERN_FILL
  6
CONTINUOUS
 62
     7
 10
483.5
 20
787.0
 30
0.0
 40
3.25
  0
CIRCLE
  5
319
  8
PATTERN_FILL
  6
CONTINUOUS
 62
     7
 10
499.5
 20
787.0
 30
0.0
 40
3.25
  0
CIRCLE
  5
31A
  8
PATTERN_FILL
  6
CONTINUOUS
 62
     7
 10
515.50000000000011
 20
787.0
 30
0.0
 40
3.25
  0
CIRCLE
  5
31B
  8
PATTERN_FILL
  6
CONTINUOUS
 62
     7
 10
179.5
 20
787.0
 30
0.0
 40
3.25
  0
CIRCLE
  5
31C
  8
PATTERN_FILL
  6
CONTINUOUS
 62
     7
 10
195.5
 20
787.0
 30
0.0
 40
3.25
  0
CIRCLE
  5
31D
  8
PATTERN_FILL
  6
CONTINUOUS
 62
     7
 10
211.5
 20
787.0
 30
0.0
 40
3.25
  0
CIRCLE
  5
31E
  8
PATTERN_FILL
  6
CONTINUOUS
 62
     7
 10
227.5
 20
787.0
 30
0.0
 40
3.25
  0
CIRCLE
  5
31F
  8
PATTERN_FILL
  6
CONTINUOUS
 62
     7
 10
243.5
 20
787.0
 30
0.0
 40
3.25
  0
CIRCLE
  5
320
  8
PATTERN_FILL
  6
CONTINUOUS
 62
     7
 10
259.5
 20
787.0
 30
0.0
 40
3.25
  0
CIRCLE
  5
321
  8
PATTERN_FILL
  6
CONTINUOUS
 62
     7
 10
275.5
 20
787.0
 30
0.0
 40
3.25
  0
CIRCLE
  5
322
  8
PATTERN_FILL
  6
CONTINUOUS
 62
     7
 10
291.5
 20
787.0
 30
0.0
 40
3.25
  0
CIRCLE
  5
323
  8
PATTERN_FILL
  6
CONTINUOUS
 62
     7
 10
307.5
 20
787.0
 30
0.0
 40
3.25
  0
CIRCLE
  5
324
  8
PATTERN_FILL
  6
CONTINUOUS
 62
     7
 10
323.5
 20
801.0
 30
0.0
 40
3.25
  0
CIRCLE
  5
325
  8
PATTERN_FILL
  6
CONTINUOUS
 62
     7
 10
339.5
 20
801.0
 30
0.0
 40
3.25
  0
CIRCLE
  5
326
  8
PATTERN_FILL
  6
CONTINUOUS
 62
     7
 10
355.5
 20
801.0
 30
0.0
 40
3.25
  0
CIRCLE
  5
327
  8
PATTERN_FILL
  6
CONTINUOUS
 62
     7
 10
371.5
 20
801.0
 30
0.0
 40
3.25
  0
CIRCLE
  5
328
  8
PATTERN_FILL
  6
CONTINUOUS
 62
     7
 10
387.5
 20
801.0
 30
0.0
 40
3.25
  0
CIRCLE
  5
329
  8
PATTERN_FILL
  6
CONTINUOUS
 62
     7
 10
403.50000000000011
 20
801.0
 30
0.0
 40
3.25
  0
CIRCLE
  5
32A
  8
PATTERN_FILL
  6
CONTINUOUS
 62
     7
 10
163.5
 20
801.0
 30
0.0
 40
3.25
  0
CIRCLE
  5
32B
  8
PATTERN_FILL
  6
CONTINUOUS
 62
     7
 10
147.5
 20
801.0
 30
0.0
 40
3.25
  0
CIRCLE
  5
32C
  8
PATTERN_FILL
  6
CONTINUOUS
 62
     7
 10
131.5
 20
801.0
 30
0.0
 40
3.25
  0
CIRCLE
  5
32D
  8
PATTERN_FILL
  6
CONTINUOUS
 62
     7
 10
115.5
 20
801.0
 30
0.0
 40
3.25
  0
CIRCLE
  5
32E
  8
PATTERN_FILL
  6
CONTINUOUS
 62
     7
 10
99.500000000000014
 20
801.0
 30
0.0
 40
3.25
  0
CIRCLE
  5
32F
  8
PATTERN_FILL
  6
CONTINUOUS
 62
     7
 10
83.499999999999986
 20
801.0
 30
0.0
 40
3.25
  0
CIRCLE
  5
330
  8
PATTERN_FILL
  6
CONTINUOUS
 62
     7
 10
67.5
 20
801.0
 30
0.0
 40
3.25
  0
CIRCLE
  5
331
  8
PATTERN_FILL
  6
CONTINUOUS
 62
     7
 10
51.5
 20
801.0
 30
0.0
 40
3.25
  0
CIRCLE
  5
332
  8
PATTERN_FILL
  6
CONTINUOUS
 62
     7
 10
35.5
 20
801.0
 30
0.0
 40
3.25
  0
CIRCLE
  5
333
  8
PATTERN_FILL
  6
CONTINUOUS
 62
     7
 10
19.5
 20
801.0
 30
0.0
 40
3.25
  0
CIRCLE
  5
334
  8
PATTERN_FILL
  6
CONTINUOUS
 62
     7
 10
419.5
 20
801.0
 30
0.0
 40
3.25
  0
CIRCLE
  5
335
  8
PATTERN_FILL
  6
CONTINUOUS
 62
     7
 10
435.5
 20
801.0
 30
0.0
 40
3.25
  0
CIRCLE
  5
336
  8
PATTERN_FILL
  6
CONTINUOUS
 62
     7
 10
451.5
 20
801.0
 30
0.0
 40
3.25
  0
CIRCLE
  5
337
  8
PATTERN_FILL
  6
CONTINUOUS
 62
     7
 10
467.5
 20
801.0
 30
0.0
 40
3.25
  0
CIRCLE
  5
338
  8
PATTERN_FILL
  6
CONTINUOUS
 62
     7
 10
483.5
 20
801.0
 30
0.0
 40
3.25
  0
CIRCLE
  5
339
  8
PATTERN_FILL
  6
CONTINUOUS
 62
     7
 10
499.5
 20
801.0
 30
0.0
 40
3.25
  0
CIRCLE
  5
33A
  8
PATTERN_FILL
  6
CONTINUOUS
 62
     7
 10
515.50000000000011
 20
801.0
 30
0.0
 40
3.25
  0
CIRCLE
  5
33B
  8
PATTERN_FILL
  6
CONTINUOUS
 62
     7
 10
179.5
 20
801.0
 30
0.0
 40
3.25
  0
CIRCLE
  5
33C
  8
PATTERN_FILL
  6
CONTINUOUS
 62
     7
 10
195.5
 20
801.0
 30
0.0
 40
3.25
  0
CIRCLE
  5
33D
  8
PATTERN_FILL
  6
CONTINUOUS
 62
     7
 10
211.5
 20
801.0
 30
0.0
 40
3.25
  0
CIRCLE
  5
33E
  8
PATTERN_FILL
  6
CONTINUOUS
 62
     7
 10
227.5
 20
801.0
 30
0.0
 40
3.25
  0
CIRCLE
  5
33F
  8
PATTERN_FILL
  6
CONTINUOUS
 62
     7
 10
243.5
 20
801.0
 30
0.0
 40
3.25
  0
CIRCLE
  5
340
  8
PATTERN_FILL
  6
CONTINUOUS
 62
     7
 10
259.5
 20
801.0
 30
0.0
 40
3.25
  0
CIRCLE
  5
341
  8
PATTERN_FILL
  6
CONTINUOUS
 62
     7
 10
275.5
 20
801.0
 30
0.0
 40
3.25
  0
CIRCLE
  5
342
  8
PATTERN_FILL
  6
CONTINUOUS
 62
     7
 10
291.5
 20
801.0
 30
0.0
 40
3.25
  0
CIRCLE
  5
343
  8
PATTERN_FILL
  6
CONTINUOUS
 62
     7
 10
307.5
 20
801.0
 30
0.0
 40
3.25
  0
CIRCLE
  5
344
  8
PATTERN_FILL
  6
CONTINUOUS
 62
     7
 10
323.5
 20
815.0
 30
0.0
 40
3.25
  0
CIRCLE
  5
345
  8
PATTERN_FILL
  6
CONTINUOUS
 62
     7
 10
339.5
 20
815.0
 30
0.0
 40
3.25
  0
CIRCLE
  5
346
  8
PATTERN_FILL
  6
CONTINUOUS
 62
     7
 10
355.5
 20
815.0
 30
0.0
 40
3.25
  0
CIRCLE
  5
347
  8
PATTERN_FILL
  6
CONTINUOUS
 62
     7
 10
371.5
 20
815.0
 30
0.0
 40
3.25
  0
CIRCLE
  5
348
  8
PATTERN_FILL
  6
CONTINUOUS
 62
     7
 10
387.5
 20
815.0
 30
0.0
 40
3.25
  0
CIRCLE
  5
349
  8
PATTERN_FILL
  6
CONTINUOUS
 62
     7
 10
403.50000000000011
 20
815.0
 30
0.0
 40
3.25
  0
CIRCLE
  5
34A
  8
PATTERN_FILL
  6
CONTINUOUS
 62
     7
 10
163.5
 20
815.0
 30
0.0
 40
3.25
  0
CIRCLE
  5
34B
  8
PATTERN_FILL
  6
CONTINUOUS
 62
     7
 10
147.5
 20
815.0
 30
0.0
 40
3.25
  0
CIRCLE
  5
34C
  8
PATTERN_FILL
  6
CONTINUOUS
 62
     7
 10
131.5
 20
815.0
 30
0.0
 40
3.25
  0
CIRCLE
  5
34D
  8
PATTERN_FILL
  6
CONTINUOUS
 62
     7
 10
115.5
 20
815.0
 30
0.0
 40
3.25
  0
CIRCLE
  5
34E
  8
PATTERN_FILL
  6
CONTINUOUS
 62
     7
 10
99.500000000000014
 20
815.0
 30
0.0
 40
3.25
  0
CIRCLE
  5
34F
  8
PATTERN_FILL
  6
CONTINUOUS
 62
     7
 10
83.499999999999986
 20
815.0
 30
0.0
 40
3.25
  0
CIRCLE
  5
350
  8
PATTERN_FILL
  6
CONTINUOUS
 62
     7
 10
67.5
 20
815.0
 30
0.0
 40
3.25
  0
CIRCLE
  5
351
  8
PATTERN_FILL
  6
CONTINUOUS
 62
     7
 10
51.5
 20
815.0
 30
0.0
 40
3.25
  0
CIRCLE
  5
352
  8
PATTERN_FILL
  6
CONTINUOUS
 62
     7
 10
35.5
 20
815.0
 30
0.0
 40
3.25
  0
CIRCLE
  5
353
  8
PATTERN_FILL
  6
CONTINUOUS
 62
     7
 10
19.5
 20
815.0
 30
0.0
 40
3.25
  0
CIRCLE
  5
354
  8
PATTERN_FILL
  6
CONTINUOUS
 62
     7
 10
419.5
 20
815.0
 30
0.0
 40
3.25
  0
CIRCLE
  5
355
  8
PATTERN_FILL
  6
CONTINUOUS
 62
     7
 10
435.5
 20
815.0
 30
0.0
 40
3.25
  0
CIRCLE
  5
356
  8
PATTERN_FILL
  6
CONTINUOUS
 62
     7
 10
451.5
 20
815.0
 30
0.0
 40
3.25
  0
CIRCLE
  5
357
  8
PATTERN_FILL
  6
CONTINUOUS
 62
     7
 10
467.5
 20
815.0
 30
0.0
 40
3.25
  0
CIRCLE
  5
358
  8
PATTERN_FILL
  6
CONTINUOUS
 62
     7
 10
483.5
 20
815.0
 30
0.0
 40
3.25
  0
CIRCLE
  5
359
  8
PATTERN_FILL
  6
CONTINUOUS
 62
     7
 10
499.5
 20
815.0
 30
0.0
 40
3.25
  0
CIRCLE
  5
35A
  8
PATTERN_FILL
  6
CONTINUOUS
 62
     7
 10
515.50000000000011
 20
815.0
 30
0.0
 40
3.25
  0
CIRCLE
  5
35B
  8
PATTERN_FILL
  6
CONTINUOUS
 62
     7
 10
179.5
 20
815.0
 30
0.0
 40
3.25
  0
CIRCLE
  5
35C
  8
PATTERN_FILL
  6
CONTINUOUS
 62
     7
 10
195.5
 20
815.0
 30
0.0
 40
3.25
  0
CIRCLE
  5
35D
  8
PATTERN_FILL
  6
CONTINUOUS
 62
     7
 10
211.5
 20
815.0
 30
0.0
 40
3.25
  0
CIRCLE
  5
35E
  8
PATTERN_FILL
  6
CONTINUOUS
 62
     7
 10
227.5
 20
815.0
 30
0.0
 40
3.25
  0
CIRCLE
  5
35F
  8
PATTERN_FILL
  6
CONTINUOUS
 62
     7
 10
243.5
 20
815.0
 30
0.0
 40
3.25
  0
CIRCLE
  5
360
  8
PATTERN_FILL
  6
CONTINUOUS
 62
     7
 10
259.5
 20
815.0
 30
0.0
 40
3.25
  0
CIRCLE
  5
361
  8
PATTERN_FILL
  6
CONTINUOUS
 62
     7
 10
275.5
 20
815.0
 30
0.0
 40
3.25
  0
CIRCLE
  5
362
  8
PATTERN_FILL
  6
CONTINUOUS
 62
     7
 10
291.5
 20
815.0
 30
0.0
 40
3.25
  0
CIRCLE
  5
363
  8
PATTERN_FILL
  6
CONTINUOUS
 62
     7
 10
307.5
 20
815.0
 30
0.0
 40
3.25
  0
CIRCLE
  5
364
  8
PATTERN_FILL
  6
CONTINUOUS
 62
     7
 10
323.5
 20
829.0
 30
0.0
 40
3.25
  0
CIRCLE
  5
365
  8
PATTERN_FILL
  6
CONTINUOUS
 62
     7
 10
339.5
 20
829.0
 30
0.0
 40
3.25
  0
CIRCLE
  5
366
  8
PATTERN_FILL
  6
CONTINUOUS
 62
     7
 10
355.5
 20
829.0
 30
0.0
 40
3.25
  0
CIRCLE
  5
367
  8
PATTERN_FILL
  6
CONTINUOUS
 62
     7
 10
371.5
 20
829.0
 30
0.0
 40
3.25
  0
CIRCLE
  5
368
  8
PATTERN_FILL
  6
CONTINUOUS
 62
     7
 10
387.5
 20
829.0
 30
0.0
 40
3.25
  0
CIRCLE
  5
369
  8
PATTERN_FILL
  6
CONTINUOUS
 62
     7
 10
403.50000000000011
 20
829.0
 30
0.0
 40
3.25
  0
CIRCLE
  5
36A
  8
PATTERN_FILL
  6
CONTINUOUS
 62
     7
 10
163.5
 20
829.0
 30
0.0
 40
3.25
  0
CIRCLE
  5
36B
  8
PATTERN_FILL
  6
CONTINUOUS
 62
     7
 10
147.5
 20
829.0
 30
0.0
 40
3.25
  0
CIRCLE
  5
36C
  8
PATTERN_FILL
  6
CONTINUOUS
 62
     7
 10
131.5
 20
829.0
 30
0.0
 40
3.25
  0
CIRCLE
  5
36D
  8
PATTERN_FILL
  6
CONTINUOUS
 62
     7
 10
115.5
 20
829.0
 30
0.0
 40
3.25
  0
CIRCLE
  5
36E
  8
PATTERN_FILL
  6
CONTINUOUS
 62
     7
 10
99.500000000000014
 20
829.0
 30
0.0
 40
3.25
  0
CIRCLE
  5
36F
  8
PATTERN_FILL
  6
CONTINUOUS
 62
     7
 10
83.499999999999986
 20
829.0
 30
0.0
 40
3.25
  0
CIRCLE
  5
370
  8
PATTERN_FILL
  6
CONTINUOUS
 62
     7
 10
67.5
 20
829.0
 30
0.0
 40
3.25
  0
CIRCLE
  5
371
  8
PATTERN_FILL
  6
CONTINUOUS
 62
     7
 10
51.5
 20
829.0
 30
0.0
 40
3.25
  0
CIRCLE
  5
372
  8
PATTERN_FILL
  6
CONTINUOUS
 62
     7
 10
35.5
 20
829.0
 30
0.0
 40
3.25
  0
CIRCLE
  5
373
  8
PATTERN_FILL
  6
CONTINUOUS
 62
     7
 10
19.5
 20
829.0
 30
0.0
 40
3.25
  0
CIRCLE
  5
374
  8
PATTERN_FILL
  6
CONTINUOUS
 62
     7
 10
419.5
 20
829.0
 30
0.0
 40
3.25
  0
CIRCLE
  5
375
  8
PATTERN_FILL
  6
CONTINUOUS
 62
     7
 10
435.5
 20
829.0
 30
0.0
 40
3.25
  0
CIRCLE
  5
376
  8
PATTERN_FILL
  6
CONTINUOUS
 62
     7
 10
451.5
 20
829.0
 30
0.0
 40
3.25
  0
CIRCLE
  5
377
  8
PATTERN_FILL
  6
CONTINUOUS
 62
     7
 10
467.5
 20
829.0
 30
0.0
 40
3.25
  0
CIRCLE
  5
378
  8
PATTERN_FILL
  6
CONTINUOUS
 62
     7
 10
483.5
 20
829.0
 30
0.0
 40
3.25
  0
CIRCLE
  5
379
  8
PATTERN_FILL
  6
CONTINUOUS
 62
     7
 10
499.5
 20
829.0
 30
0.0
 40
3.25
  0
CIRCLE
  5
37A
  8
PATTERN_FILL
  6
CONTINUOUS
 62
     7
 10
515.50000000000011
 20
829.0
 30
0.0
 40
3.25
  0
CIRCLE
  5
37B
  8
PATTERN_FILL
  6
CONTINUOUS
 62
     7
 10
179.5
 20
829.0
 30
0.0
 40
3.25
  0
CIRCLE
  5
37C
  8
PATTERN_FILL
  6
CONTINUOUS
 62
     7
 10
195.5
 20
829.0
 30
0.0
 40
3.25
  0
CIRCLE
  5
37D
  8
PATTERN_FILL
  6
CONTINUOUS
 62
     7
 10
211.5
 20
829.0
 30
0.0
 40
3.25
  0
CIRCLE
  5
37E
  8
PATTERN_FILL
  6
CONTINUOUS
 62
     7
 10
227.5
 20
829.0
 30
0.0
 40
3.25
  0
CIRCLE
  5
37F
  8
PATTERN_FILL
  6
CONTINUOUS
 62
     7
 10
243.5
 20
829.0
 30
0.0
 40
3.25
  0
CIRCLE
  5
380
  8
PATTERN_FILL
  6
CONTINUOUS
 62
     7
 10
259.5
 20
829.0
 30
0.0
 40
3.25
  0
CIRCLE
  5
381
  8
PATTERN_FILL
  6
CONTINUOUS
 62
     7
 10
275.5
 20
829.0
 30
0.0
 40
3.25
  0
CIRCLE
  5
382
  8
PATTERN_FILL
  6
CONTINUOUS
 62
     7
 10
291.5
 20
829.0
 30
0.0
 40
3.25
  0
CIRCLE
  5
383
  8
PATTERN_FILL
  6
CONTINUOUS
 62
     7
 10
307.5
 20
829.0
 30
0.0
 40
3.25
  0
CIRCLE
  5
384
  8
PATTERN_FILL
  6
CONTINUOUS
 62
     7
 10
323.5
 20
843.0
 30
0.0
 40
3.25
  0
CIRCLE
  5
385
  8
PATTERN_FILL
  6
CONTINUOUS
 62
     7
 10
339.5
 20
843.0
 30
0.0
 40
3.25
  0
CIRCLE
  5
386
  8
PATTERN_FILL
  6
CONTINUOUS
 62
     7
 10
355.5
 20
843.0
 30
0.0
 40
3.25
  0
CIRCLE
  5
387
  8
PATTERN_FILL
  6
CONTINUOUS
 62
     7
 10
371.5
 20
843.0
 30
0.0
 40
3.25
  0
CIRCLE
  5
388
  8
PATTERN_FILL
  6
CONTINUOUS
 62
     7
 10
387.5
 20
843.0
 30
0.0
 40
3.25
  0
CIRCLE
  5
389
  8
PATTERN_FILL
  6
CONTINUOUS
 62
     7
 10
403.50000000000011
 20
843.0
 30
0.0
 40
3.25
  0
CIRCLE
  5
38A
  8
PATTERN_FILL
  6
CONTINUOUS
 62
     7
 10
163.5
 20
843.0
 30
0.0
 40
3.25
  0
CIRCLE
  5
38B
  8
PATTERN_FILL
  6
CONTINUOUS
 62
     7
 10
147.5
 20
843.0
 30
0.0
 40
3.25
  0
CIRCLE
  5
38C
  8
PATTERN_FILL
  6
CONTINUOUS
 62
     7
 10
131.5
 20
843.0
 30
0.0
 40
3.25
  0
CIRCLE
  5
38D
  8
PATTERN_FILL
  6
CONTINUOUS
 62
     7
 10
115.5
 20
843.0
 30
0.0
 40
3.25
  0
CIRCLE
  5
38E
  8
PATTERN_FILL
  6
CONTINUOUS
 62
     7
 10
99.500000000000014
 20
843.0
 30
0.0
 40
3.25
  0
CIRCLE
  5
38F
  8
PATTERN_FILL
  6
CONTINUOUS
 62
     7
 10
83.499999999999986
 20
843.0
 30
0.0
 40
3.25
  0
CIRCLE
  5
390
  8
PATTERN_FILL
  6
CONTINUOUS
 62
     7
 10
67.5
 20
843.0
 30
0.0
 40
3.25
  0
CIRCLE
  5
391
  8
PATTERN_FILL
  6
CONTINUOUS
 62
     7
 10
51.5
 20
843.0
 30
0.0
 40
3.25
  0
CIRCLE
  5
392
  8
PATTERN_FILL
  6
CONTINUOUS
 62
     7
 10
35.5
 20
843.0
 30
0.0
 40
3.25
  0
CIRCLE
  5
393
  8
PATTERN_FILL
  6
CONTINUOUS
 62
     7
 10
19.5
 20
843.0
 30
0.0
 40
3.25
  0
CIRCLE
  5
394
  8
PATTERN_FILL
  6
CONTINUOUS
 62
     7
 10
419.5
 20
843.0
 30
0.0
 40
3.25
  0
CIRCLE
  5
395
  8
PATTERN_FILL
  6
CONTINUOUS
 62
     7
 10
435.5
 20
843.0
 30
0.0
 40
3.25
  0
CIRCLE
  5
396
  8
PATTERN_FILL
  6
CONTINUOUS
 62
     7
 10
451.5
 20
843.0
 30
0.0
 40
3.25
  0
CIRCLE
  5
397
  8
PATTERN_FILL
  6
CONTINUOUS
 62
     7
 10
467.5
 20
843.0
 30
0.0
 40
3.25
  0
CIRCLE
  5
398
  8
PATTERN_FILL
  6
CONTINUOUS
 62
     7
 10
483.5
 20
843.0
 30
0.0
 40
3.25
  0
CIRCLE
  5
399
  8
PATTERN_FILL
  6
CONTINUOUS
 62
     7
 10
499.5
 20
843.0
 30
0.0
 40
3.25
  0
CIRCLE
  5
39A
  8
PATTERN_FILL
  6
CONTINUOUS
 62
     7
 10
515.50000000000011
 20
843.0
 30
0.0
 40
3.25
  0
CIRCLE
  5
39B
  8
PATTERN_FILL
  6
CONTINUOUS
 62
     7
 10
179.5
 20
843.0
 30
0.0
 40
3.25
  0
CIRCLE
  5
39C
  8
PATTERN_FILL
  6
CONTINUOUS
 62
     7
 10
195.5
 20
843.0
 30
0.0
 40
3.25
  0
CIRCLE
  5
39D
  8
PATTERN_FILL
  6
CONTINUOUS
 62
     7
 10
211.5
 20
843.0
 30
0.0
 40
3.25
  0
CIRCLE
  5
39E
  8
PATTERN_FILL
  6
CONTINUOUS
 62
     7
 10
227.5
 20
843.0
 30
0.0
 40
3.25
  0
CIRCLE
  5
39F
  8
PATTERN_FILL
  6
CONTINUOUS
 62
     7
 10
243.5
 20
843.0
 30
0.0
 40
3.25
  0
CIRCLE
  5
3A0
  8
PATTERN_FILL
  6
CONTINUOUS
 62
     7
 10
259.5
 20
843.0
 30
0.0
 40
3.25
  0
CIRCLE
  5
3A1
  8
PATTERN_FILL
  6
CONTINUOUS
 62
     7
 10
275.5
 20
843.0
 30
0.0
 40
3.25
  0
CIRCLE
  5
3A2
  8
PATTERN_FILL
  6
CONTINUOUS
 62
     7
 10
291.5
 20
843.0
 30
0.0
 40
3.25
  0
CIRCLE
  5
3A3
  8
PATTERN_FILL
  6
CONTINUOUS
 62
     7
 10
307.5
 20
843.0
 30
0.0
 40
3.25
  0
CIRCLE
  5
3A4
  8
PATTERN_FILL
  6
CONTINUOUS
 62
     7
 10
323.5
 20
857.0
 30
0.0
 40
3.25
  0
CIRCLE
  5
3A5
  8
PATTERN_FILL
  6
CONTINUOUS
 62
     7
 10
339.5
 20
857.0
 30
0.0
 40
3.25
  0
CIRCLE
  5
3A6
  8
PATTERN_FILL
  6
CONTINUOUS
 62
     7
 10
355.5
 20
857.0
 30
0.0
 40
3.25
  0
CIRCLE
  5
3A7
  8
PATTERN_FILL
  6
CONTINUOUS
 62
     7
 10
371.5
 20
857.0
 30
0.0
 40
3.25
  0
CIRCLE
  5
3A8
  8
PATTERN_FILL
  6
CONTINUOUS
 62
     7
 10
387.5
 20
857.0
 30
0.0
 40
3.25
  0
CIRCLE
  5
3A9
  8
PATTERN_FILL
  6
CONTINUOUS
 62
     7
 10
403.50000000000011
 20
857.0
 30
0.0
 40
3.25
  0
CIRCLE
  5
3AA
  8
PATTERN_FILL
  6
CONTINUOUS
 62
     7
 10
163.5
 20
857.0
 30
0.0
 40
3.25
  0
CIRCLE
  5
3AB
  8
PATTERN_FILL
  6
CONTINUOUS
 62
     7
 10
147.5
 20
857.0
 30
0.0
 40
3.25
  0
CIRCLE
  5
3AC
  8
PATTERN_FILL
  6
CONTINUOUS
 62
     7
 10
131.5
 20
857.0
 30
0.0
 40
3.25
  0
CIRCLE
  5
3AD
  8
PATTERN_FILL
  6
CONTINUOUS
 62
     7
 10
115.5
 20
857.0
 30
0.0
 40
3.25
  0
CIRCLE
  5
3AE
  8
PATTERN_FILL
  6
CONTINUOUS
 62
     7
 10
99.500000000000014
 20
857.0
 30
0.0
 40
3.25
  0
CIRCLE
  5
3AF
  8
PATTERN_FILL
  6
CONTINUOUS
 62
     7
 10
83.499999999999986
 20
857.0
 30
0.0
 40
3.25
  0
CIRCLE
  5
3B0
  8
PATTERN_FILL
  6
CONTINUOUS
 62
     7
 10
67.5
 20
857.0
 30
0.0
 40
3.25
  0
CIRCLE
  5
3B1
  8
PATTERN_FILL
  6
CONTINUOUS
 62
     7
 10
51.5
 20
857.0
 30
0.0
 40
3.25
  0
CIRCLE
  5
3B2
  8
PATTERN_FILL
  6
CONTINUOUS
 62
     7
 10
35.5
 20
857.0
 30
0.0
 40
3.25
  0
CIRCLE
  5
3B3
  8
PATTERN_FILL
  6
CONTINUOUS
 62
     7
 10
19.5
 20
857.0
 30
0.0
 40
3.25
  0
CIRCLE
  5
3B4
  8
PATTERN_FILL
  6
CONTINUOUS
 62
     7
 10
419.5
 20
857.0
 30
0.0
 40
3.25
  0
CIRCLE
  5
3B5
  8
PATTERN_FILL
  6
CONTINUOUS
 62
     7
 10
435.5
 20
857.0
 30
0.0
 40
3.25
  0
CIRCLE
  5
3B6
  8
PATTERN_FILL
  6
CONTINUOUS
 62
     7
 10
451.5
 20
857.0
 30
0.0
 40
3.25
  0
CIRCLE
  5
3B7
  8
PATTERN_FILL
  6
CONTINUOUS
 62
     7
 10
467.5
 20
857.0
 30
0.0
 40
3.25
  0
CIRCLE
  5
3B8
  8
PATTERN_FILL
  6
CONTINUOUS
 62
     7
 10
483.5
 20
857.0
 30
0.0
 40
3.25
  0
CIRCLE
  5
3B9
  8
PATTERN_FILL
  6
CONTINUOUS
 62
     7
 10
499.5
 20
857.0
 30
0.0
 40
3.25
  0
CIRCLE
  5
3BA
  8
PATTERN_FILL
  6
CONTINUOUS
 62
     7
 10
515.50000000000011
 20
857.0
 30
0.0
 40
3.25
  0
CIRCLE
  5
3BB
  8
PATTERN_FILL
  6
CONTINUOUS
 62
     7
 10
179.5
 20
857.0
 30
0.0
 40
3.25
  0
CIRCLE
  5
3BC
  8
PATTERN_FILL
  6
CONTINUOUS
 62
     7
 10
195.5
 20
857.0
 30
0.0
 40
3.25
  0
CIRCLE
  5
3BD
  8
PATTERN_FILL
  6
CONTINUOUS
 62
     7
 10
211.5
 20
857.0
 30
0.0
 40
3.25
  0
CIRCLE
  5
3BE
  8
PATTERN_FILL
  6
CONTINUOUS
 62
     7
 10
227.5
 20
857.0
 30
0.0
 40
3.25
  0
CIRCLE
  5
3BF
  8
PATTERN_FILL
  6
CONTINUOUS
 62
     7
 10
243.5
 20
857.0
 30
0.0
 40
3.25
  0
CIRCLE
  5
3C0
  8
PATTERN_FILL
  6
CONTINUOUS
 62
     7
 10
259.5
 20
857.0
 30
0.0
 40
3.25
  0
CIRCLE
  5
3C1
  8
PATTERN_FILL
  6
CONTINUOUS
 62
     7
 10
275.5
 20
857.0
 30
0.0
 40
3.25
  0
CIRCLE
  5
3C2
  8
PATTERN_FILL
  6
CONTINUOUS
 62
     7
 10
291.5
 20
857.0
 30
0.0
 40
3.25
  0
CIRCLE
  5
3C3
  8
PATTERN_FILL
  6
CONTINUOUS
 62
     7
 10
307.5
 20
857.0
 30
0.0
 40
3.25
  0
CIRCLE
  5
3C4
  8
PATTERN_FILL
  6
CONTINUOUS
 62
     7
 10
323.5
 20
871.0
 30
0.0
 40
3.25
  0
CIRCLE
  5
3C5
  8
PATTERN_FILL
  6
CONTINUOUS
 62
     7
 10
339.5
 20
871.0
 30
0.0
 40
3.25
  0
CIRCLE
  5
3C6
  8
PATTERN_FILL
  6
CONTINUOUS
 62
     7
 10
355.5
 20
871.0
 30
0.0
 40
3.25
  0
CIRCLE
  5
3C7
  8
PATTERN_FILL
  6
CONTINUOUS
 62
     7
 10
371.5
 20
871.0
 30
0.0
 40
3.25
  0
CIRCLE
  5
3C8
  8
PATTERN_FILL
  6
CONTINUOUS
 62
     7
 10
387.5
 20
871.0
 30
0.0
 40
3.25
  0
CIRCLE
  5
3C9
  8
PATTERN_FILL
  6
CONTINUOUS
 62
     7
 10
403.50000000000011
 20
871.0
 30
0.0
 40
3.25
  0
CIRCLE
  5
3CA
  8
PATTERN_FILL
  6
CONTINUOUS
 62
     7
 10
163.5
 20
871.0
 30
0.0
 40
3.25
  0
CIRCLE
  5
3CB
  8
PATTERN_FILL
  6
CONTINUOUS
 62
     7
 10
147.5
 20
871.0
 30
0.0
 40
3.25
  0
CIRCLE
  5
3CC
  8
PATTERN_FILL
  6
CONTINUOUS
 62
     7
 10
131.5
 20
871.0
 30
0.0
 40
3.25
  0
CIRCLE
  5
3CD
  8
PATTERN_FILL
  6
CONTINUOUS
 62
     7
 10
115.5
 20
871.0
 30
0.0
 40
3.25
  0
CIRCLE
  5
3CE
  8
PATTERN_FILL
  6
CONTINUOUS
 62
     7
 10
99.500000000000014
 20
871.0
 30
0.0
 40
3.25
  0
CIRCLE
  5
3CF
  8
PATTERN_FILL
  6
CONTINUOUS
 62
     7
 10
83.499999999999986
 20
871.0
 30
0.0
 40
3.25
  0
CIRCLE
  5
3D0
  8
PATTERN_FILL
  6
CONTINUOUS
 62
     7
 10
67.5
 20
871.0
 30
0.0
 40
3.25
  0
CIRCLE
  5
3D1
  8
PATTERN_FILL
  6
CONTINUOUS
 62
     7
 10
51.5
 20
871.0
 30
0.0
 40
3.25
  0
CIRCLE
  5
3D2
  8
PATTERN_FILL
  6
CONTINUOUS
 62
     7
 10
35.5
 20
871.0
 30
0.0
 40
3.25
  0
CIRCLE
  5
3D3
  8
PATTERN_FILL
  6
CONTINUOUS
 62
     7
 10
19.5
 20
871.0
 30
0.0
 40
3.25
  0
CIRCLE
  5
3D4
  8
PATTERN_FILL
  6
CONTINUOUS
 62
     7
 10
419.5
 20
871.0
 30
0.0
 40
3.25
  0
CIRCLE
  5
3D5
  8
PATTERN_FILL
  6
CONTINUOUS
 62
     7
 10
435.5
 20
871.0
 30
0.0
 40
3.25
  0
CIRCLE
  5
3D6
  8
PATTERN_FILL
  6
CONTINUOUS
 62
     7
 10
451.5
 20
871.0
 30
0.0
 40
3.25
  0
CIRCLE
  5
3D7
  8
PATTERN_FILL
  6
CONTINUOUS
 62
     7
 10
467.5
 20
871.0
 30
0.0
 40
3.25
  0
CIRCLE
  5
3D8
  8
PATTERN_FILL
  6
CONTINUOUS
 62
     7
 10
483.5
 20
871.0
 30
0.0
 40
3.25
  0
CIRCLE
  5
3D9
  8
PATTERN_FILL
  6
CONTINUOUS
 62
     7
 10
499.5
 20
871.0
 30
0.0
 40
3.25
  0
CIRCLE
  5
3DA
  8
PATTERN_FILL
  6
CONTINUOUS
 62
     7
 10
515.50000000000011
 20
871.0
 30
0.0
 40
3.25
  0
CIRCLE
  5
3DB
  8
PATTERN_FILL
  6
CONTINUOUS
 62
     7
 10
179.5
 20
871.0
 30
0.0
 40
3.25
  0
CIRCLE
  5
3DC
  8
PATTERN_FILL
  6
CONTINUOUS
 62
     7
 10
195.5
 20
871.0
 30
0.0
 40
3.25
  0
CIRCLE
  5
3DD
  8
PATTERN_FILL
  6
CONTINUOUS
 62
     7
 10
211.5
 20
871.0
 30
0.0
 40
3.25
  0
CIRCLE
  5
3DE
  8
PATTERN_FILL
  6
CONTINUOUS
 62
     7
 10
227.5
 20
871.0
 30
0.0
 40
3.25
  0
CIRCLE
  5
3DF
  8
PATTERN_FILL
  6
CONTINUOUS
 62
     7
 10
243.5
 20
871.0
 30
0.0
 40
3.25
  0
CIRCLE
  5
3E0
  8
PATTERN_FILL
  6
CONTINUOUS
 62
     7
 10
259.5
 20
871.0
 30
0.0
 40
3.25
  0
CIRCLE
  5
3E1
  8
PATTERN_FILL
  6
CONTINUOUS
 62
     7
 10
275.5
 20
871.0
 30
0.0
 40
3.25
  0
CIRCLE
  5
3E2
  8
PATTERN_FILL
  6
CONTINUOUS
 62
     7
 10
291.5
 20
871.0
 30
0.0
 40
3.25
  0
CIRCLE
  5
3E3
  8
PATTERN_FILL
  6
CONTINUOUS
 62
     7
 10
307.5
 20
871.0
 30
0.0
 40
3.25
  0
CIRCLE
  5
3E4
  8
PATTERN_FILL
  6
CONTINUOUS
 62
     7
 10
323.5
 20
885.0
 30
0.0
 40
3.25
  0
CIRCLE
  5
3E5
  8
PATTERN_FILL
  6
CONTINUOUS
 62
     7
 10
339.5
 20
885.0
 30
0.0
 40
3.25
  0
CIRCLE
  5
3E6
  8
PATTERN_FILL
  6
CONTINUOUS
 62
     7
 10
355.5
 20
885.0
 30
0.0
 40
3.25
  0
CIRCLE
  5
3E7
  8
PATTERN_FILL
  6
CONTINUOUS
 62
     7
 10
371.5
 20
885.0
 30
0.0
 40
3.25
  0
CIRCLE
  5
3E8
  8
PATTERN_FILL
  6
CONTINUOUS
 62
     7
 10
387.5
 20
885.0
 30
0.0
 40
3.25
  0
CIRCLE
  5
3E9
  8
PATTERN_FILL
  6
CONTINUOUS
 62
     7
 10
403.50000000000011
 20
885.0
 30
0.0
 40
3.25
  0
CIRCLE
  5
3EA
  8
PATTERN_FILL
  6
CONTINUOUS
 62
     7
 10
163.5
 20
885.0
 30
0.0
 40
3.25
  0
CIRCLE
  5
3EB
  8
PATTERN_FILL
  6
CONTINUOUS
 62
     7
 10
147.5
 20
885.0
 30
0.0
 40
3.25
  0
CIRCLE
  5
3EC
  8
PATTERN_FILL
  6
CONTINUOUS
 62
     7
 10
131.5
 20
885.0
 30
0.0
 40
3.25
  0
CIRCLE
  5
3ED
  8
PATTERN_FILL
  6
CONTINUOUS
 62
     7
 10
115.5
 20
885.0
 30
0.0
 40
3.25
  0
CIRCLE
  5
3EE
  8
PATTERN_FILL
  6
CONTINUOUS
 62
     7
 10
99.500000000000014
 20
885.0
 30
0.0
 40
3.25
  0
CIRCLE
  5
3EF
  8
PATTERN_FILL
  6
CONTINUOUS
 62
     7
 10
83.499999999999986
 20
885.0
 30
0.0
 40
3.25
  0
CIRCLE
  5
3F0
  8
PATTERN_FILL
  6
CONTINUOUS
 62
     7
 10
67.5
 20
885.0
 30
0.0
 40
3.25
  0
CIRCLE
  5
3F1
  8
PATTERN_FILL
  6
CONTINUOUS
 62
     7
 10
51.5
 20
885.0
 30
0.0
 40
3.25
  0
CIRCLE
  5
3F2
  8
PATTERN_FILL
  6
CONTINUOUS
 62
     7
 10
35.5
 20
885.0
 30
0.0
 40
3.25
  0
CIRCLE
  5
3F3
  8
PATTERN_FILL
  6
CONTINUOUS
 62
     7
 10
19.5
 20
885.0
 30
0.0
 40
3.25
  0
CIRCLE
  5
3F4
  8
PATTERN_FILL
  6
CONTINUOUS
 62
     7
 10
419.5
 20
885.0
 30
0.0
 40
3.25
  0
CIRCLE
  5
3F5
  8
PATTERN_FILL
  6
CONTINUOUS
 62
     7
 10
435.5
 20
885.0
 30
0.0
 40
3.25
  0
CIRCLE
  5
3F6
  8
PATTERN_FILL
  6
CONTINUOUS
 62
     7
 10
451.5
 20
885.0
 30
0.0
 40
3.25
  0
CIRCLE
  5
3F7
  8
PATTERN_FILL
  6
CONTINUOUS
 62
     7
 10
467.5
 20
885.0
 30
0.0
 40
3.25
  0
CIRCLE
  5
3F8
  8
PATTERN_FILL
  6
CONTINUOUS
 62
     7
 10
483.5
 20
885.0
 30
0.0
 40
3.25
  0
CIRCLE
  5
3F9
  8
PATTERN_FILL
  6
CONTINUOUS
 62
     7
 10
499.5
 20
885.0
 30
0.0
 40
3.25
  0
CIRCLE
  5
3FA
  8
PATTERN_FILL
  6
CONTINUOUS
 62
     7
 10
515.50000000000011
 20
885.0
 30
0.0
 40
3.25
  0
CIRCLE
  5
3FB
  8
PATTERN_FILL
  6
CONTINUOUS
 62
     7
 10
179.5
 20
885.0
 30
0.0
 40
3.25
  0
CIRCLE
  5
3FC
  8
PATTERN_FILL
  6
CONTINUOUS
 62
     7
 10
195.5
 20
885.0
 30
0.0
 40
3.25
  0
CIRCLE
  5
3FD
  8
PATTERN_FILL
  6
CONTINUOUS
 62
     7
 10
211.5
 20
885.0
 30
0.0
 40
3.25
  0
CIRCLE
  5
3FE
  8
PATTERN_FILL
  6
CONTINUOUS
 62
     7
 10
227.5
 20
885.0
 30
0.0
 40
3.25
  0
CIRCLE
  5
3FF
  8
PATTERN_FILL
  6
CONTINUOUS
 62
     7
 10
243.5
 20
885.0
 30
0.0
 40
3.25
  0
CIRCLE
  5
400
  8
PATTERN_FILL
  6
CONTINUOUS
 62
     7
 10
259.5
 20
885.0
 30
0.0
 40
3.25
  0
CIRCLE
  5
401
  8
PATTERN_FILL
  6
CONTINUOUS
 62
     7
 10
275.5
 20
885.0
 30
0.0
 40
3.25
  0
CIRCLE
  5
402
  8
PATTERN_FILL
  6
CONTINUOUS
 62
     7
 10
291.5
 20
885.0
 30
0.0
 40
3.25
  0
CIRCLE
  5
403
  8
PATTERN_FILL
  6
CONTINUOUS
 62
     7
 10
307.5
 20
885.0
 30
0.0
 40
3.25
  0
CIRCLE
  5
404
  8
PATTERN_FILL
  6
CONTINUOUS
 62
     7
 10
323.5
 20
899.0
 30
0.0
 40
3.25
  0
CIRCLE
  5
405
  8
PATTERN_FILL
  6
CONTINUOUS
 62
     7
 10
339.5
 20
899.0
 30
0.0
 40
3.25
  0
CIRCLE
  5
406
  8
PATTERN_FILL
  6
CONTINUOUS
 62
     7
 10
355.5
 20
899.0
 30
0.0
 40
3.25
  0
CIRCLE
  5
407
  8
PATTERN_FILL
  6
CONTINUOUS
 62
     7
 10
371.5
 20
899.0
 30
0.0
 40
3.25
  0
CIRCLE
  5
408
  8
PATTERN_FILL
  6
CONTINUOUS
 62
     7
 10
387.5
 20
899.0
 30
0.0
 40
3.25
  0
CIRCLE
  5
409
  8
PATTERN_FILL
  6
CONTINUOUS
 62
     7
 10
403.50000000000011
 20
899.0
 30
0.0
 40
3.25
  0
CIRCLE
  5
40A
  8
PATTERN_FILL
  6
CONTINUOUS
 62
     7
 10
163.5
 20
899.0
 30
0.0
 40
3.25
  0
CIRCLE
  5
40B
  8
PATTERN_FILL
  6
CONTINUOUS
 62
     7
 10
147.5
 20
899.0
 30
0.0
 40
3.25
  0
CIRCLE
  5
40C
  8
PATTERN_FILL
  6
CONTINUOUS
 62
     7
 10
131.5
 20
899.0
 30
0.0
 40
3.25
  0
CIRCLE
  5
40D
  8
PATTERN_FILL
  6
CONTINUOUS
 62
     7
 10
115.5
 20
899.0
 30
0.0
 40
3.25
  0
CIRCLE
  5
40E
  8
PATTERN_FILL
  6
CONTINUOUS
 62
     7
 10
99.500000000000014
 20
899.0
 30
0.0
 40
3.25
  0
CIRCLE
  5
40F
  8
PATTERN_FILL
  6
CONTINUOUS
 62
     7
 10
83.499999999999986
 20
899.0
 30
0.0
 40
3.25
  0
CIRCLE
  5
410
  8
PATTERN_FILL
  6
CONTINUOUS
 62
     7
 10
67.5
 20
899.0
 30
0.0
 40
3.25
  0
CIRCLE
  5
411
  8
PATTERN_FILL
  6
CONTINUOUS
 62
     7
 10
51.5
 20
899.0
 30
0.0
 40
3.25
  0
CIRCLE
  5
412
  8
PATTERN_FILL
  6
CONTINUOUS
 62
     7
 10
35.5
 20
899.0
 30
0.0
 40
3.25
  0
CIRCLE
  5
413
  8
PATTERN_FILL
  6
CONTINUOUS
 62
     7
 10
19.5
 20
899.0
 30
0.0
 40
3.25
  0
CIRCLE
  5
414
  8
PATTERN_FILL
  6
CONTINUOUS
 62
     7
 10
419.5
 20
899.0
 30
0.0
 40
3.25
  0
CIRCLE
  5
415
  8
PATTERN_FILL
  6
CONTINUOUS
 62
     7
 10
435.5
 20
899.0
 30
0.0
 40
3.25
  0
CIRCLE
  5
416
  8
PATTERN_FILL
  6
CONTINUOUS
 62
     7
 10
451.5
 20
899.0
 30
0.0
 40
3.25
  0
CIRCLE
  5
417
  8
PATTERN_FILL
  6
CONTINUOUS
 62
     7
 10
467.5
 20
899.0
 30
0.0
 40
3.25
  0
CIRCLE
  5
418
  8
PATTERN_FILL
  6
CONTINUOUS
 62
     7
 10
483.5
 20
899.0
 30
0.0
 40
3.25
  0
CIRCLE
  5
419
  8
PATTERN_FILL
  6
CONTINUOUS
 62
     7
 10
499.5
 20
899.0
 30
0.0
 40
3.25
  0
CIRCLE
  5
41A
  8
PATTERN_FILL
  6
CONTINUOUS
 62
     7
 10
515.50000000000011
 20
899.0
 30
0.0
 40
3.25
  0
CIRCLE
  5
41B
  8
PATTERN_FILL
  6
CONTINUOUS
 62
     7
 10
179.5
 20
899.0
 30
0.0
 40
3.25
  0
CIRCLE
  5
41C
  8
PATTERN_FILL
  6
CONTINUOUS
 62
     7
 10
195.5
 20
899.0
 30
0.0
 40
3.25
  0
CIRCLE
  5
41D
  8
PATTERN_FILL
  6
CONTINUOUS
 62
     7
 10
211.5
 20
899.0
 30
0.0
 40
3.25
  0
CIRCLE
  5
41E
  8
PATTERN_FILL
  6
CONTINUOUS
 62
     7
 10
227.5
 20
899.0
 30
0.0
 40
3.25
  0
CIRCLE
  5
41F
  8
PATTERN_FILL
  6
CONTINUOUS
 62
     7
 10
243.5
 20
899.0
 30
0.0
 40
3.25
  0
CIRCLE
  5
420
  8
PATTERN_FILL
  6
CONTINUOUS
 62
     7
 10
259.5
 20
899.0
 30
0.0
 40
3.25
  0
CIRCLE
  5
421
  8
PATTERN_FILL
  6
CONTINUOUS
 62
     7
 10
275.5
 20
899.0
 30
0.0
 40
3.25
  0
CIRCLE
  5
422
  8
PATTERN_FILL
  6
CONTINUOUS
 62
     7
 10
291.5
 20
899.0
 30
0.0
 40
3.25
  0
CIRCLE
  5
423
  8
PATTERN_FILL
  6
CONTINUOUS
 62
     7
 10
307.5
 20
899.0
 30
0.0
 40
3.25
  0
CIRCLE
  5
424
  8
PATTERN_FILL
  6
CONTINUOUS
 62
     7
 10
323.5
 20
913.0
 30
0.0
 40
3.25
  0
CIRCLE
  5
425
  8
PATTERN_FILL
  6
CONTINUOUS
 62
     7
 10
339.5
 20
913.0
 30
0.0
 40
3.25
  0
CIRCLE
  5
426
  8
PATTERN_FILL
  6
CONTINUOUS
 62
     7
 10
355.5
 20
913.0
 30
0.0
 40
3.25
  0
CIRCLE
  5
427
  8
PATTERN_FILL
  6
CONTINUOUS
 62
     7
 10
371.5
 20
913.0
 30
0.0
 40
3.25
  0
CIRCLE
  5
428
  8
PATTERN_FILL
  6
CONTINUOUS
 62
     7
 10
387.5
 20
913.0
 30
0.0
 40
3.25
  0
CIRCLE
  5
429
  8
PATTERN_FILL
  6
CONTINUOUS
 62
     7
 10
403.50000000000011
 20
913.0
 30
0.0
 40
3.25
  0
CIRCLE
  5
42A
  8
PATTERN_FILL
  6
CONTINUOUS
 62
     7
 10
163.5
 20
913.0
 30
0.0
 40
3.25
  0
CIRCLE
  5
42B
  8
PATTERN_FILL
  6
CONTINUOUS
 62
     7
 10
147.5
 20
913.0
 30
0.0
 40
3.25
  0
CIRCLE
  5
42C
  8
PATTERN_FILL
  6
CONTINUOUS
 62
     7
 10
131.5
 20
913.0
 30
0.0
 40
3.25
  0
CIRCLE
  5
42D
  8
PATTERN_FILL
  6
CONTINUOUS
 62
     7
 10
115.5
 20
913.0
 30
0.0
 40
3.25
  0
CIRCLE
  5
42E
  8
PATTERN_FILL
  6
CONTINUOUS
 62
     7
 10
99.500000000000014
 20
913.0
 30
0.0
 40
3.25
  0
CIRCLE
  5
42F
  8
PATTERN_FILL
  6
CONTINUOUS
 62
     7
 10
83.499999999999986
 20
913.0
 30
0.0
 40
3.25
  0
CIRCLE
  5
430
  8
PATTERN_FILL
  6
CONTINUOUS
 62
     7
 10
67.5
 20
913.0
 30
0.0
 40
3.25
  0
CIRCLE
  5
431
  8
PATTERN_FILL
  6
CONTINUOUS
 62
     7
 10
51.5
 20
913.0
 30
0.0
 40
3.25
  0
CIRCLE
  5
432
  8
PATTERN_FILL
  6
CONTINUOUS
 62
     7
 10
35.5
 20
913.0
 30
0.0
 40
3.25
  0
CIRCLE
  5
433
  8
PATTERN_FILL
  6
CONTINUOUS
 62
     7
 10
19.5
 20
913.0
 30
0.0
 40
3.25
  0
CIRCLE
  5
434
  8
PATTERN_FILL
  6
CONTINUOUS
 62
     7
 10
419.5
 20
913.0
 30
0.0
 40
3.25
  0
CIRCLE
  5
435
  8
PATTERN_FILL
  6
CONTINUOUS
 62
     7
 10
435.5
 20
913.0
 30
0.0
 40
3.25
  0
CIRCLE
  5
436
  8
PATTERN_FILL
  6
CONTINUOUS
 62
     7
 10
451.5
 20
913.0
 30
0.0
 40
3.25
  0
CIRCLE
  5
437
  8
PATTERN_FILL
  6
CONTINUOUS
 62
     7
 10
467.5
 20
913.0
 30
0.0
 40
3.25
  0
CIRCLE
  5
438
  8
PATTERN_FILL
  6
CONTINUOUS
 62
     7
 10
483.5
 20
913.0
 30
0.0
 40
3.25
  0
CIRCLE
  5
439
  8
PATTERN_FILL
  6
CONTINUOUS
 62
     7
 10
499.5
 20
913.0
 30
0.0
 40
3.25
  0
CIRCLE
  5
43A
  8
PATTERN_FILL
  6
CONTINUOUS
 62
     7
 10
515.50000000000011
 20
913.0
 30
0.0
 40
3.25
  0
CIRCLE
  5
43B
  8
PATTERN_FILL
  6
CONTINUOUS
 62
     7
 10
179.5
 20
913.0
 30
0.0
 40
3.25
  0
CIRCLE
  5
43C
  8
PATTERN_FILL
  6
CONTINUOUS
 62
     7
 10
195.5
 20
913.0
 30
0.0
 40
3.25
  0
CIRCLE
  5
43D
  8
PATTERN_FILL
  6
CONTINUOUS
 62
     7
 10
211.5
 20
913.0
 30
0.0
 40
3.25
  0
CIRCLE
  5
43E
  8
PATTERN_FILL
  6
CONTINUOUS
 62
     7
 10
227.5
 20
913.0
 30
0.0
 40
3.25
  0
CIRCLE
  5
43F
  8
PATTERN_FILL
  6
CONTINUOUS
 62
     7
 10
243.5
 20
913.0
 30
0.0
 40
3.25
  0
CIRCLE
  5
440
  8
PATTERN_FILL
  6
CONTINUOUS
 62
     7
 10
259.5
 20
913.0
 30
0.0
 40
3.25
  0
CIRCLE
  5
441
  8
PATTERN_FILL
  6
CONTINUOUS
 62
     7
 10
275.5
 20
913.0
 30
0.0
 40
3.25
  0
CIRCLE
  5
442
  8
PATTERN_FILL
  6
CONTINUOUS
 62
     7
 10
291.5
 20
913.0
 30
0.0
 40
3.25
  0
CIRCLE
  5
443
  8
PATTERN_FILL
  6
CONTINUOUS
 62
     7
 10
307.5
 20
913.0
 30
0.0
 40
3.25
  0
CIRCLE
  5
444
  8
PATTERN_FILL
  6
CONTINUOUS
 62
     7
 10
323.5
 20
927.0
 30
0.0
 40
3.25
  0
CIRCLE
  5
445
  8
PATTERN_FILL
  6
CONTINUOUS
 62
     7
 10
339.5
 20
927.0
 30
0.0
 40
3.25
  0
CIRCLE
  5
446
  8
PATTERN_FILL
  6
CONTINUOUS
 62
     7
 10
355.5
 20
927.0
 30
0.0
 40
3.25
  0
CIRCLE
  5
447
  8
PATTERN_FILL
  6
CONTINUOUS
 62
     7
 10
371.5
 20
927.0
 30
0.0
 40
3.25
  0
CIRCLE
  5
448
  8
PATTERN_FILL
  6
CONTINUOUS
 62
     7
 10
387.5
 20
927.0
 30
0.0
 40
3.25
  0
CIRCLE
  5
449
  8
PATTERN_FILL
  6
CONTINUOUS
 62
     7
 10
403.50000000000011
 20
927.0
 30
0.0
 40
3.25
  0
CIRCLE
  5
44A
  8
PATTERN_FILL
  6
CONTINUOUS
 62
     7
 10
163.5
 20
927.0
 30
0.0
 40
3.25
  0
CIRCLE
  5
44B
  8
PATTERN_FILL
  6
CONTINUOUS
 62
     7
 10
147.5
 20
927.0
 30
0.0
 40
3.25
  0
CIRCLE
  5
44C
  8
PATTERN_FILL
  6
CONTINUOUS
 62
     7
 10
131.5
 20
927.0
 30
0.0
 40
3.25
  0
CIRCLE
  5
44D
  8
PATTERN_FILL
  6
CONTINUOUS
 62
     7
 10
115.5
 20
927.0
 30
0.0
 40
3.25
  0
CIRCLE
  5
44E
  8
PATTERN_FILL
  6
CONTINUOUS
 62
     7
 10
99.500000000000014
 20
927.0
 30
0.0
 40
3.25
  0
CIRCLE
  5
44F
  8
PATTERN_FILL
  6
CONTINUOUS
 62
     7
 10
83.499999999999986
 20
927.0
 30
0.0
 40
3.25
  0
CIRCLE
  5
450
  8
PATTERN_FILL
  6
CONTINUOUS
 62
     7
 10
67.5
 20
927.0
 30
0.0
 40
3.25
  0
CIRCLE
  5
451
  8
PATTERN_FILL
  6
CONTINUOUS
 62
     7
 10
51.5
 20
927.0
 30
0.0
 40
3.25
  0
CIRCLE
  5
452
  8
PATTERN_FILL
  6
CONTINUOUS
 62
     7
 10
35.5
 20
927.0
 30
0.0
 40
3.25
  0
CIRCLE
  5
453
  8
PATTERN_FILL
  6
CONTINUOUS
 62
     7
 10
19.5
 20
927.0
 30
0.0
 40
3.25
  0
CIRCLE
  5
454
  8
PATTERN_FILL
  6
CONTINUOUS
 62
     7
 10
419.5
 20
927.0
 30
0.0
 40
3.25
  0
CIRCLE
  5
455
  8
PATTERN_FILL
  6
CONTINUOUS
 62
     7
 10
435.5
 20
927.0
 30
0.0
 40
3.25
  0
CIRCLE
  5
456
  8
PATTERN_FILL
  6
CONTINUOUS
 62
     7
 10
451.5
 20
927.0
 30
0.0
 40
3.25
  0
CIRCLE
  5
457
  8
PATTERN_FILL
  6
CONTINUOUS
 62
     7
 10
467.5
 20
927.0
 30
0.0
 40
3.25
  0
CIRCLE
  5
458
  8
PATTERN_FILL
  6
CONTINUOUS
 62
     7
 10
483.5
 20
927.0
 30
0.0
 40
3.25
  0
CIRCLE
  5
459
  8
PATTERN_FILL
  6
CONTINUOUS
 62
     7
 10
499.5
 20
927.0
 30
0.0
 40
3.25
  0
CIRCLE
  5
45A
  8
PATTERN_FILL
  6
CONTINUOUS
 62
     7
 10
515.50000000000011
 20
927.0
 30
0.0
 40
3.25
  0
CIRCLE
  5
45B
  8
PATTERN_FILL
  6
CONTINUOUS
 62
     7
 10
179.5
 20
927.0
 30
0.0
 40
3.25
  0
CIRCLE
  5
45C
  8
PATTERN_FILL
  6
CONTINUOUS
 62
     7
 10
195.5
 20
927.0
 30
0.0
 40
3.25
  0
CIRCLE
  5
45D
  8
PATTERN_FILL
  6
CONTINUOUS
 62
     7
 10
211.5
 20
927.0
 30
0.0
 40
3.25
  0
CIRCLE
  5
45E
  8
PATTERN_FILL
  6
CONTINUOUS
 62
     7
 10
227.5
 20
927.0
 30
0.0
 40
3.25
  0
CIRCLE
  5
45F
  8
PATTERN_FILL
  6
CONTINUOUS
 62
     7
 10
243.5
 20
927.0
 30
0.0
 40
3.25
  0
CIRCLE
  5
460
  8
PATTERN_FILL
  6
CONTINUOUS
 62
     7
 10
259.5
 20
927.0
 30
0.0
 40
3.25
  0
CIRCLE
  5
461
  8
PATTERN_FILL
  6
CONTINUOUS
 62
     7
 10
275.5
 20
927.0
 30
0.0
 40
3.25
  0
CIRCLE
  5
462
  8
PATTERN_FILL
  6
CONTINUOUS
 62
     7
 10
291.5
 20
927.0
 30
0.0
 40
3.25
  0
CIRCLE
  5
463
  8
PATTERN_FILL
  6
CONTINUOUS
 62
     7
 10
307.5
 20
927.0
 30
0.0
 40
3.25
  0
CIRCLE
  5
464
  8
PATTERN_FILL
  6
CONTINUOUS
 62
     7
 10
323.5
 20
941.0
 30
0.0
 40
3.25
  0
CIRCLE
  5
465
  8
PATTERN_FILL
  6
CONTINUOUS
 62
     7
 10
339.5
 20
941.0
 30
0.0
 40
3.25
  0
CIRCLE
  5
466
  8
PATTERN_FILL
  6
CONTINUOUS
 62
     7
 10
355.5
 20
941.0
 30
0.0
 40
3.25
  0
CIRCLE
  5
467
  8
PATTERN_FILL
  6
CONTINUOUS
 62
     7
 10
371.5
 20
941.0
 30
0.0
 40
3.25
  0
CIRCLE
  5
468
  8
PATTERN_FILL
  6
CONTINUOUS
 62
     7
 10
387.5
 20
941.0
 30
0.0
 40
3.25
  0
CIRCLE
  5
469
  8
PATTERN_FILL
  6
CONTINUOUS
 62
     7
 10
403.50000000000011
 20
941.0
 30
0.0
 40
3.25
  0
CIRCLE
  5
46A
  8
PATTERN_FILL
  6
CONTINUOUS
 62
     7
 10
163.5
 20
941.0
 30
0.0
 40
3.25
  0
CIRCLE
  5
46B
  8
PATTERN_FILL
  6
CONTINUOUS
 62
     7
 10
147.5
 20
941.0
 30
0.0
 40
3.25
  0
CIRCLE
  5
46C
  8
PATTERN_FILL
  6
CONTINUOUS
 62
     7
 10
131.5
 20
941.0
 30
0.0
 40
3.25
  0
CIRCLE
  5
46D
  8
PATTERN_FILL
  6
CONTINUOUS
 62
     7
 10
115.5
 20
941.0
 30
0.0
 40
3.25
  0
CIRCLE
  5
46E
  8
PATTERN_FILL
  6
CONTINUOUS
 62
     7
 10
99.500000000000014
 20
941.0
 30
0.0
 40
3.25
  0
CIRCLE
  5
46F
  8
PATTERN_FILL
  6
CONTINUOUS
 62
     7
 10
83.499999999999986
 20
941.0
 30
0.0
 40
3.25
  0
CIRCLE
  5
470
  8
PATTERN_FILL
  6
CONTINUOUS
 62
     7
 10
67.5
 20
941.0
 30
0.0
 40
3.25
  0
CIRCLE
  5
471
  8
PATTERN_FILL
  6
CONTINUOUS
 62
     7
 10
51.5
 20
941.0
 30
0.0
 40
3.25
  0
CIRCLE
  5
472
  8
PATTERN_FILL
  6
CONTINUOUS
 62
     7
 10
35.5
 20
941.0
 30
0.0
 40
3.25
  0
CIRCLE
  5
473
  8
PATTERN_FILL
  6
CONTINUOUS
 62
     7
 10
19.5
 20
941.0
 30
0.0
 40
3.25
  0
CIRCLE
  5
474
  8
PATTERN_FILL
  6
CONTINUOUS
 62
     7
 10
419.5
 20
941.0
 30
0.0
 40
3.25
  0
CIRCLE
  5
475
  8
PATTERN_FILL
  6
CONTINUOUS
 62
     7
 10
435.5
 20
941.0
 30
0.0
 40
3.25
  0
CIRCLE
  5
476
  8
PATTERN_FILL
  6
CONTINUOUS
 62
     7
 10
451.5
 20
941.0
 30
0.0
 40
3.25
  0
CIRCLE
  5
477
  8
PATTERN_FILL
  6
CONTINUOUS
 62
     7
 10
467.5
 20
941.0
 30
0.0
 40
3.25
  0
CIRCLE
  5
478
  8
PATTERN_FILL
  6
CONTINUOUS
 62
     7
 10
483.5
 20
941.0
 30
0.0
 40
3.25
  0
CIRCLE
  5
479
  8
PATTERN_FILL
  6
CONTINUOUS
 62
     7
 10
499.5
 20
941.0
 30
0.0
 40
3.25
  0
CIRCLE
  5
47A
  8
PATTERN_FILL
  6
CONTINUOUS
 62
     7
 10
515.50000000000011
 20
941.0
 30
0.0
 40
3.25
  0
CIRCLE
  5
47B
  8
PATTERN_FILL
  6
CONTINUOUS
 62
     7
 10
179.5
 20
941.0
 30
0.0
 40
3.25
  0
CIRCLE
  5
47C
  8
PATTERN_FILL
  6
CONTINUOUS
 62
     7
 10
195.5
 20
941.0
 30
0.0
 40
3.25
  0
CIRCLE
  5
47D
  8
PATTERN_FILL
  6
CONTINUOUS
 62
     7
 10
211.5
 20
941.0
 30
0.0
 40
3.25
  0
CIRCLE
  5
47E
  8
PATTERN_FILL
  6
CONTINUOUS
 62
     7
 10
227.5
 20
941.0
 30
0.0
 40
3.25
  0
CIRCLE
  5
47F
  8
PATTERN_FILL
  6
CONTINUOUS
 62
     7
 10
243.5
 20
941.0
 30
0.0
 40
3.25
  0
CIRCLE
  5
480
  8
PATTERN_FILL
  6
CONTINUOUS
 62
     7
 10
259.5
 20
941.0
 30
0.0
 40
3.25
  0
CIRCLE
  5
481
  8
PATTERN_FILL
  6
CONTINUOUS
 62
     7
 10
275.5
 20
941.0
 30
0.0
 40
3.25
  0
CIRCLE
  5
482
  8
PATTERN_FILL
  6
CONTINUOUS
 62
     7
 10
291.5
 20
941.0
 30
0.0
 40
3.25
  0
CIRCLE
  5
483
  8
PATTERN_FILL
  6
CONTINUOUS
 62
     7
 10
307.5
 20
941.0
 30
0.0
 40
3.25
  0
CIRCLE
  5
484
  8
PATTERN_FILL
  6
CONTINUOUS
 62
     7
 10
323.5
 20
955.0
 30
0.0
 40
3.25
  0
CIRCLE
  5
485
  8
PATTERN_FILL
  6
CONTINUOUS
 62
     7
 10
339.5
 20
955.0
 30
0.0
 40
3.25
  0
CIRCLE
  5
486
  8
PATTERN_FILL
  6
CONTINUOUS
 62
     7
 10
355.5
 20
955.0
 30
0.0
 40
3.25
  0
CIRCLE
  5
487
  8
PATTERN_FILL
  6
CONTINUOUS
 62
     7
 10
371.5
 20
955.0
 30
0.0
 40
3.25
  0
CIRCLE
  5
488
  8
PATTERN_FILL
  6
CONTINUOUS
 62
     7
 10
387.5
 20
955.0
 30
0.0
 40
3.25
  0
CIRCLE
  5
489
  8
PATTERN_FILL
  6
CONTINUOUS
 62
     7
 10
403.50000000000011
 20
955.0
 30
0.0
 40
3.25
  0
CIRCLE
  5
48A
  8
PATTERN_FILL
  6
CONTINUOUS
 62
     7
 10
163.5
 20
955.0
 30
0.0
 40
3.25
  0
CIRCLE
  5
48B
  8
PATTERN_FILL
  6
CONTINUOUS
 62
     7
 10
147.5
 20
955.0
 30
0.0
 40
3.25
  0
CIRCLE
  5
48C
  8
PATTERN_FILL
  6
CONTINUOUS
 62
     7
 10
131.5
 20
955.0
 30
0.0
 40
3.25
  0
CIRCLE
  5
48D
  8
PATTERN_FILL
  6
CONTINUOUS
 62
     7
 10
115.5
 20
955.0
 30
0.0
 40
3.25
  0
CIRCLE
  5
48E
  8
PATTERN_FILL
  6
CONTINUOUS
 62
     7
 10
99.500000000000014
 20
955.0
 30
0.0
 40
3.25
  0
CIRCLE
  5
48F
  8
PATTERN_FILL
  6
CONTINUOUS
 62
     7
 10
83.499999999999986
 20
955.0
 30
0.0
 40
3.25
  0
CIRCLE
  5
490
  8
PATTERN_FILL
  6
CONTINUOUS
 62
     7
 10
67.5
 20
955.0
 30
0.0
 40
3.25
  0
CIRCLE
  5
491
  8
PATTERN_FILL
  6
CONTINUOUS
 62
     7
 10
51.5
 20
955.0
 30
0.0
 40
3.25
  0
CIRCLE
  5
492
  8
PATTERN_FILL
  6
CONTINUOUS
 62
     7
 10
35.5
 20
955.0
 30
0.0
 40
3.25
  0
CIRCLE
  5
493
  8
PATTERN_FILL
  6
CONTINUOUS
 62
     7
 10
19.5
 20
955.0
 30
0.0
 40
3.25
  0
CIRCLE
  5
494
  8
PATTERN_FILL
  6
CONTINUOUS
 62
     7
 10
419.5
 20
955.0
 30
0.0
 40
3.25
  0
CIRCLE
  5
495
  8
PATTERN_FILL
  6
CONTINUOUS
 62
     7
 10
435.5
 20
955.0
 30
0.0
 40
3.25
  0
CIRCLE
  5
496
  8
PATTERN_FILL
  6
CONTINUOUS
 62
     7
 10
451.5
 20
955.0
 30
0.0
 40
3.25
  0
CIRCLE
  5
497
  8
PATTERN_FILL
  6
CONTINUOUS
 62
     7
 10
467.5
 20
955.0
 30
0.0
 40
3.25
  0
CIRCLE
  5
498
  8
PATTERN_FILL
  6
CONTINUOUS
 62
     7
 10
483.5
 20
955.0
 30
0.0
 40
3.25
  0
CIRCLE
  5
499
  8
PATTERN_FILL
  6
CONTINUOUS
 62
     7
 10
499.5
 20
955.0
 30
0.0
 40
3.25
  0
CIRCLE
  5
49A
  8
PATTERN_FILL
  6
CONTINUOUS
 62
     7
 10
515.50000000000011
 20
955.0
 30
0.0
 40
3.25
  0
CIRCLE
  5
49B
  8
PATTERN_FILL
  6
CONTINUOUS
 62
     7
 10
179.5
 20
955.0
 30
0.0
 40
3.25
  0
CIRCLE
  5
49C
  8
PATTERN_FILL
  6
CONTINUOUS
 62
     7
 10
195.5
 20
955.0
 30
0.0
 40
3.25
  0
CIRCLE
  5
49D
  8
PATTERN_FILL
  6
CONTINUOUS
 62
     7
 10
211.5
 20
955.0
 30
0.0
 40
3.25
  0
CIRCLE
  5
49E
  8
PATTERN_FILL
  6
CONTINUOUS
 62
     7
 10
227.5
 20
955.0
 30
0.0
 40
3.25
  0
CIRCLE
  5
49F
  8
PATTERN_FILL
  6
CONTINUOUS
 62
     7
 10
243.5
 20
955.0
 30
0.0
 40
3.25
  0
CIRCLE
  5
4A0
  8
PATTERN_FILL
  6
CONTINUOUS
 62
     7
 10
259.5
 20
955.0
 30
0.0
 40
3.25
  0
CIRCLE
  5
4A1
  8
PATTERN_FILL
  6
CONTINUOUS
 62
     7
 10
275.5
 20
955.0
 30
0.0
 40
3.25
  0
CIRCLE
  5
4A2
  8
PATTERN_FILL
  6
CONTINUOUS
 62
     7
 10
291.5
 20
955.0
 30
0.0
 40
3.25
  0
CIRCLE
  5
4A3
  8
PATTERN_FILL
  6
CONTINUOUS
 62
     7
 10
307.5
 20
955.0
 30
0.0
 40
3.25
  0
CIRCLE
  5
4A4
  8
PATTERN_FILL
  6
CONTINUOUS
 62
     7
 10
323.5
 20
969.0
 30
0.0
 40
3.25
  0
CIRCLE
  5
4A5
  8
PATTERN_FILL
  6
CONTINUOUS
 62
     7
 10
339.5
 20
969.0
 30
0.0
 40
3.25
  0
CIRCLE
  5
4A6
  8
PATTERN_FILL
  6
CONTINUOUS
 62
     7
 10
355.5
 20
969.0
 30
0.0
 40
3.25
  0
CIRCLE
  5
4A7
  8
PATTERN_FILL
  6
CONTINUOUS
 62
     7
 10
371.5
 20
969.0
 30
0.0
 40
3.25
  0
CIRCLE
  5
4A8
  8
PATTERN_FILL
  6
CONTINUOUS
 62
     7
 10
387.5
 20
969.0
 30
0.0
 40
3.25
  0
CIRCLE
  5
4A9
  8
PATTERN_FILL
  6
CONTINUOUS
 62
     7
 10
403.50000000000011
 20
969.0
 30
0.0
 40
3.25
  0
CIRCLE
  5
4AA
  8
PATTERN_FILL
  6
CONTINUOUS
 62
     7
 10
163.5
 20
969.0
 30
0.0
 40
3.25
  0
CIRCLE
  5
4AB
  8
PATTERN_FILL
  6
CONTINUOUS
 62
     7
 10
147.5
 20
969.0
 30
0.0
 40
3.25
  0
CIRCLE
  5
4AC
  8
PATTERN_FILL
  6
CONTINUOUS
 62
     7
 10
131.5
 20
969.0
 30
0.0
 40
3.25
  0
CIRCLE
  5
4AD
  8
PATTERN_FILL
  6
CONTINUOUS
 62
     7
 10
115.5
 20
969.0
 30
0.0
 40
3.25
  0
CIRCLE
  5
4AE
  8
PATTERN_FILL
  6
CONTINUOUS
 62
     7
 10
99.500000000000014
 20
969.0
 30
0.0
 40
3.25
  0
CIRCLE
  5
4AF
  8
PATTERN_FILL
  6
CONTINUOUS
 62
     7
 10
83.499999999999986
 20
969.0
 30
0.0
 40
3.25
  0
CIRCLE
  5
4B0
  8
PATTERN_FILL
  6
CONTINUOUS
 62
     7
 10
67.5
 20
969.0
 30
0.0
 40
3.25
  0
CIRCLE
  5
4B1
  8
PATTERN_FILL
  6
CONTINUOUS
 62
     7
 10
51.5
 20
969.0
 30
0.0
 40
3.25
  0
CIRCLE
  5
4B2
  8
PATTERN_FILL
  6
CONTINUOUS
 62
     7
 10
35.5
 20
969.0
 30
0.0
 40
3.25
  0
CIRCLE
  5
4B3
  8
PATTERN_FILL
  6
CONTINUOUS
 62
     7
 10
19.5
 20
969.0
 30
0.0
 40
3.25
  0
CIRCLE
  5
4B4
  8
PATTERN_FILL
  6
CONTINUOUS
 62
     7
 10
419.5
 20
969.0
 30
0.0
 40
3.25
  0
CIRCLE
  5
4B5
  8
PATTERN_FILL
  6
CONTINUOUS
 62
     7
 10
435.5
 20
969.0
 30
0.0
 40
3.25
  0
CIRCLE
  5
4B6
  8
PATTERN_FILL
  6
CONTINUOUS
 62
     7
 10
451.5
 20
969.0
 30
0.0
 40
3.25
  0
CIRCLE
  5
4B7
  8
PATTERN_FILL
  6
CONTINUOUS
 62
     7
 10
467.5
 20
969.0
 30
0.0
 40
3.25
  0
CIRCLE
  5
4B8
  8
PATTERN_FILL
  6
CONTINUOUS
 62
     7
 10
483.5
 20
969.0
 30
0.0
 40
3.25
  0
CIRCLE
  5
4B9
  8
PATTERN_FILL
  6
CONTINUOUS
 62
     7
 10
499.5
 20
969.0
 30
0.0
 40
3.25
  0
CIRCLE
  5
4BA
  8
PATTERN_FILL
  6
CONTINUOUS
 62
     7
 10
515.50000000000011
 20
969.0
 30
0.0
 40
3.25
  0
CIRCLE
  5
4BB
  8
PATTERN_FILL
  6
CONTINUOUS
 62
     7
 10
179.5
 20
969.0
 30
0.0
 40
3.25
  0
CIRCLE
  5
4BC
  8
PATTERN_FILL
  6
CONTINUOUS
 62
     7
 10
195.5
 20
969.0
 30
0.0
 40
3.25
  0
CIRCLE
  5
4BD
  8
PATTERN_FILL
  6
CONTINUOUS
 62
     7
 10
211.5
 20
969.0
 30
0.0
 40
3.25
  0
CIRCLE
  5
4BE
  8
PATTERN_FILL
  6
CONTINUOUS
 62
     7
 10
227.5
 20
969.0
 30
0.0
 40
3.25
  0
CIRCLE
  5
4BF
  8
PATTERN_FILL
  6
CONTINUOUS
 62
     7
 10
243.5
 20
969.0
 30
0.0
 40
3.25
  0
CIRCLE
  5
4C0
  8
PATTERN_FILL
  6
CONTINUOUS
 62
     7
 10
259.5
 20
969.0
 30
0.0
 40
3.25
  0
CIRCLE
  5
4C1
  8
PATTERN_FILL
  6
CONTINUOUS
 62
     7
 10
275.5
 20
969.0
 30
0.0
 40
3.25
  0
CIRCLE
  5
4C2
  8
PATTERN_FILL
  6
CONTINUOUS
 62
     7
 10
291.5
 20
969.0
 30
0.0
 40
3.25
  0
CIRCLE
  5
4C3
  8
PATTERN_FILL
  6
CONTINUOUS
 62
     7
 10
307.5
 20
969.0
 30
0.0
 40
3.25
  0
CIRCLE
  5
4C4
  8
PATTERN_FILL
  6
CONTINUOUS
 62
     7
 10
323.5
 20
983.0
 30
0.0
 40
3.25
  0
CIRCLE
  5
4C5
  8
PATTERN_FILL
  6
CONTINUOUS
 62
     7
 10
339.5
 20
983.0
 30
0.0
 40
3.25
  0
CIRCLE
  5
4C6
  8
PATTERN_FILL
  6
CONTINUOUS
 62
     7
 10
355.5
 20
983.0
 30
0.0
 40
3.25
  0
CIRCLE
  5
4C7
  8
PATTERN_FILL
  6
CONTINUOUS
 62
     7
 10
371.5
 20
983.0
 30
0.0
 40
3.25
  0
CIRCLE
  5
4C8
  8
PATTERN_FILL
  6
CONTINUOUS
 62
     7
 10
387.5
 20
983.0
 30
0.0
 40
3.25
  0
CIRCLE
  5
4C9
  8
PATTERN_FILL
  6
CONTINUOUS
 62
     7
 10
403.50000000000011
 20
983.0
 30
0.0
 40
3.25
  0
CIRCLE
  5
4CA
  8
PATTERN_FILL
  6
CONTINUOUS
 62
     7
 10
163.5
 20
983.0
 30
0.0
 40
3.25
  0
CIRCLE
  5
4CB
  8
PATTERN_FILL
  6
CONTINUOUS
 62
     7
 10
147.5
 20
983.0
 30
0.0
 40
3.25
  0
CIRCLE
  5
4CC
  8
PATTERN_FILL
  6
CONTINUOUS
 62
     7
 10
131.5
 20
983.0
 30
0.0
 40
3.25
  0
CIRCLE
  5
4CD
  8
PATTERN_FILL
  6
CONTINUOUS
 62
     7
 10
115.5
 20
983.0
 30
0.0
 40
3.25
  0
CIRCLE
  5
4CE
  8
PATTERN_FILL
  6
CONTINUOUS
 62
     7
 10
99.500000000000014
 20
983.0
 30
0.0
 40
3.25
  0
CIRCLE
  5
4CF
  8
PATTERN_FILL
  6
CONTINUOUS
 62
     7
 10
83.499999999999986
 20
983.0
 30
0.0
 40
3.25
  0
CIRCLE
  5
4D0
  8
PATTERN_FILL
  6
CONTINUOUS
 62
     7
 10
67.5
 20
983.0
 30
0.0
 40
3.25
  0
CIRCLE
  5
4D1
  8
PATTERN_FILL
  6
CONTINUOUS
 62
     7
 10
51.5
 20
983.0
 30
0.0
 40
3.25
  0
CIRCLE
  5
4D2
  8
PATTERN_FILL
  6
CONTINUOUS
 62
     7
 10
35.5
 20
983.0
 30
0.0
 40
3.25
  0
CIRCLE
  5
4D3
  8
PATTERN_FILL
  6
CONTINUOUS
 62
     7
 10
19.5
 20
983.0
 30
0.0
 40
3.25
  0
CIRCLE
  5
4D4
  8
PATTERN_FILL
  6
CONTINUOUS
 62
     7
 10
419.5
 20
983.0
 30
0.0
 40
3.25
  0
CIRCLE
  5
4D5
  8
PATTERN_FILL
  6
CONTINUOUS
 62
     7
 10
435.5
 20
983.0
 30
0.0
 40
3.25
  0
CIRCLE
  5
4D6
  8
PATTERN_FILL
  6
CONTINUOUS
 62
     7
 10
451.5
 20
983.0
 30
0.0
 40
3.25
  0
CIRCLE
  5
4D7
  8
PATTERN_FILL
  6
CONTINUOUS
 62
     7
 10
467.5
 20
983.0
 30
0.0
 40
3.25
  0
CIRCLE
  5
4D8
  8
PATTERN_FILL
  6
CONTINUOUS
 62
     7
 10
483.5
 20
983.0
 30
0.0
 40
3.25
  0
CIRCLE
  5
4D9
  8
PATTERN_FILL
  6
CONTINUOUS
 62
     7
 10
499.5
 20
983.0
 30
0.0
 40
3.25
  0
CIRCLE
  5
4DA
  8
PATTERN_FILL
  6
CONTINUOUS
 62
     7
 10
515.50000000000011
 20
983.0
 30
0.0
 40
3.25
  0
CIRCLE
  5
4DB
  8
PATTERN_FILL
  6
CONTINUOUS
 62
     7
 10
179.5
 20
983.0
 30
0.0
 40
3.25
  0
CIRCLE
  5
4DC
  8
PATTERN_FILL
  6
CONTINUOUS
 62
     7
 10
195.5
 20
983.0
 30
0.0
 40
3.25
  0
CIRCLE
  5
4DD
  8
PATTERN_FILL
  6
CONTINUOUS
 62
     7
 10
211.5
 20
983.0
 30
0.0
 40
3.25
  0
CIRCLE
  5
4DE
  8
PATTERN_FILL
  6
CONTINUOUS
 62
     7
 10
227.5
 20
983.0
 30
0.0
 40
3.25
  0
CIRCLE
  5
4DF
  8
PATTERN_FILL
  6
CONTINUOUS
 62
     7
 10
243.5
 20
983.0
 30
0.0
 40
3.25
  0
CIRCLE
  5
4E0
  8
PATTERN_FILL
  6
CONTINUOUS
 62
     7
 10
259.5
 20
983.0
 30
0.0
 40
3.25
  0
CIRCLE
  5
4E1
  8
PATTERN_FILL
  6
CONTINUOUS
 62
     7
 10
275.5
 20
983.0
 30
0.0
 40
3.25
  0
CIRCLE
  5
4E2
  8
PATTERN_FILL
  6
CONTINUOUS
 62
     7
 10
291.5
 20
983.0
 30
0.0
 40
3.25
  0
CIRCLE
  5
4E3
  8
PATTERN_FILL
  6
CONTINUOUS
 62
     7
 10
307.5
 20
983.0
 30
0.0
 40
3.25
  0
CIRCLE
  5
4E4
  8
PATTERN_FILL
  6
CONTINUOUS
 62
     7
 10
323.5
 20
479.0
 30
0.0
 40
3.25
  0
CIRCLE
  5
4E5
  8
PATTERN_FILL
  6
CONTINUOUS
 62
     7
 10
339.5
 20
479.0
 30
0.0
 40
3.25
  0
CIRCLE
  5
4E6
  8
PATTERN_FILL
  6
CONTINUOUS
 62
     7
 10
355.5
 20
479.0
 30
0.0
 40
3.25
  0
CIRCLE
  5
4E7
  8
PATTERN_FILL
  6
CONTINUOUS
 62
     7
 10
371.5
 20
479.0
 30
0.0
 40
3.25
  0
CIRCLE
  5
4E8
  8
PATTERN_FILL
  6
CONTINUOUS
 62
     7
 10
387.5
 20
479.0
 30
0.0
 40
3.25
  0
CIRCLE
  5
4E9
  8
PATTERN_FILL
  6
CONTINUOUS
 62
     7
 10
403.50000000000011
 20
479.0
 30
0.0
 40
3.25
  0
CIRCLE
  5
4EA
  8
PATTERN_FILL
  6
CONTINUOUS
 62
     7
 10
163.5
 20
479.0
 30
0.0
 40
3.25
  0
CIRCLE
  5
4EB
  8
PATTERN_FILL
  6
CONTINUOUS
 62
     7
 10
147.5
 20
479.0
 30
0.0
 40
3.25
  0
CIRCLE
  5
4EC
  8
PATTERN_FILL
  6
CONTINUOUS
 62
     7
 10
131.5
 20
479.0
 30
0.0
 40
3.25
  0
CIRCLE
  5
4ED
  8
PATTERN_FILL
  6
CONTINUOUS
 62
     7
 10
115.5
 20
479.0
 30
0.0
 40
3.25
  0
CIRCLE
  5
4EE
  8
PATTERN_FILL
  6
CONTINUOUS
 62
     7
 10
99.500000000000014
 20
479.0
 30
0.0
 40
3.25
  0
CIRCLE
  5
4EF
  8
PATTERN_FILL
  6
CONTINUOUS
 62
     7
 10
83.499999999999986
 20
479.0
 30
0.0
 40
3.25
  0
CIRCLE
  5
4F0
  8
PATTERN_FILL
  6
CONTINUOUS
 62
     7
 10
67.5
 20
479.0
 30
0.0
 40
3.25
  0
CIRCLE
  5
4F1
  8
PATTERN_FILL
  6
CONTINUOUS
 62
     7
 10
51.5
 20
479.0
 30
0.0
 40
3.25
  0
CIRCLE
  5
4F2
  8
PATTERN_FILL
  6
CONTINUOUS
 62
     7
 10
35.5
 20
479.0
 30
0.0
 40
3.25
  0
CIRCLE
  5
4F3
  8
PATTERN_FILL
  6
CONTINUOUS
 62
     7
 10
19.5
 20
479.0
 30
0.0
 40
3.25
  0
CIRCLE
  5
4F4
  8
PATTERN_FILL
  6
CONTINUOUS
 62
     7
 10
419.5
 20
479.0
 30
0.0
 40
3.25
  0
CIRCLE
  5
4F5
  8
PATTERN_FILL
  6
CONTINUOUS
 62
     7
 10
435.5
 20
479.0
 30
0.0
 40
3.25
  0
CIRCLE
  5
4F6
  8
PATTERN_FILL
  6
CONTINUOUS
 62
     7
 10
451.5
 20
479.0
 30
0.0
 40
3.25
  0
CIRCLE
  5
4F7
  8
PATTERN_FILL
  6
CONTINUOUS
 62
     7
 10
467.5
 20
479.0
 30
0.0
 40
3.25
  0
CIRCLE
  5
4F8
  8
PATTERN_FILL
  6
CONTINUOUS
 62
     7
 10
483.5
 20
479.0
 30
0.0
 40
3.25
  0
CIRCLE
  5
4F9
  8
PATTERN_FILL
  6
CONTINUOUS
 62
     7
 10
499.5
 20
479.0
 30
0.0
 40
3.25
  0
CIRCLE
  5
4FA
  8
PATTERN_FILL
  6
CONTINUOUS
 62
     7
 10
515.50000000000011
 20
479.0
 30
0.0
 40
3.25
  0
CIRCLE
  5
4FB
  8
PATTERN_FILL
  6
CONTINUOUS
 62
     7
 10
179.5
 20
479.0
 30
0.0
 40
3.25
  0
CIRCLE
  5
4FC
  8
PATTERN_FILL
  6
CONTINUOUS
 62
     7
 10
195.5
 20
479.0
 30
0.0
 40
3.25
  0
CIRCLE
  5
4FD
  8
PATTERN_FILL
  6
CONTINUOUS
 62
     7
 10
211.5
 20
479.0
 30
0.0
 40
3.25
  0
CIRCLE
  5
4FE
  8
PATTERN_FILL
  6
CONTINUOUS
 62
     7
 10
323.5
 20
465.0
 30
0.0
 40
3.25
  0
CIRCLE
  5
4FF
  8
PATTERN_FILL
  6
CONTINUOUS
 62
     7
 10
339.5
 20
465.0
 30
0.0
 40
3.25
  0
CIRCLE
  5
500
  8
PATTERN_FILL
  6
CONTINUOUS
 62
     7
 10
355.5
 20
465.0
 30
0.0
 40
3.25
  0
CIRCLE
  5
501
  8
PATTERN_FILL
  6
CONTINUOUS
 62
     7
 10
371.5
 20
465.0
 30
0.0
 40
3.25
  0
CIRCLE
  5
502
  8
PATTERN_FILL
  6
CONTINUOUS
 62
     7
 10
387.5
 20
465.0
 30
0.0
 40
3.25
  0
CIRCLE
  5
503
  8
PATTERN_FILL
  6
CONTINUOUS
 62
     7
 10
403.50000000000011
 20
465.0
 30
0.0
 40
3.25
  0
CIRCLE
  5
504
  8
PATTERN_FILL
  6
CONTINUOUS
 62
     7
 10
163.5
 20
465.0
 30
0.0
 40
3.25
  0
CIRCLE
  5
505
  8
PATTERN_FILL
  6
CONTINUOUS
 62
     7
 10
147.5
 20
465.0
 30
0.0
 40
3.25
  0
CIRCLE
  5
506
  8
PATTERN_FILL
  6
CONTINUOUS
 62
     7
 10
131.5
 20
465.0
 30
0.0
 40
3.25
  0
CIRCLE
  5
507
  8
PATTERN_FILL
  6
CONTINUOUS
 62
     7
 10
115.5
 20
465.0
 30
0.0
 40
3.25
  0
CIRCLE
  5
508
  8
PATTERN_FILL
  6
CONTINUOUS
 62
     7
 10
99.500000000000014
 20
465.0
 30
0.0
 40
3.25
  0
CIRCLE
  5
509
  8
PATTERN_FILL
  6
CONTINUOUS
 62
     7
 10
83.499999999999986
 20
465.0
 30
0.0
 40
3.25
  0
CIRCLE
  5
50A
  8
PATTERN_FILL
  6
CONTINUOUS
 62
     7
 10
67.5
 20
465.0
 30
0.0
 40
3.25
  0
CIRCLE
  5
50B
  8
PATTERN_FILL
  6
CONTINUOUS
 62
     7
 10
51.5
 20
465.0
 30
0.0
 40
3.25
  0
CIRCLE
  5
50C
  8
PATTERN_FILL
  6
CONTINUOUS
 62
     7
 10
35.5
 20
465.0
 30
0.0
 40
3.25
  0
CIRCLE
  5
50D
  8
PATTERN_FILL
  6
CONTINUOUS
 62
     7
 10
19.5
 20
465.0
 30
0.0
 40
3.25
  0
CIRCLE
  5
50E
  8
PATTERN_FILL
  6
CONTINUOUS
 62
     7
 10
419.5
 20
465.0
 30
0.0
 40
3.25
  0
CIRCLE
  5
50F
  8
PATTERN_FILL
  6
CONTINUOUS
 62
     7
 10
435.5
 20
465.0
 30
0.0
 40
3.25
  0
CIRCLE
  5
510
  8
PATTERN_FILL
  6
CONTINUOUS
 62
     7
 10
451.5
 20
465.0
 30
0.0
 40
3.25
  0
CIRCLE
  5
511
  8
PATTERN_FILL
  6
CONTINUOUS
 62
     7
 10
467.5
 20
465.0
 30
0.0
 40
3.25
  0
CIRCLE
  5
512
  8
PATTERN_FILL
  6
CONTINUOUS
 62
     7
 10
483.5
 20
465.0
 30
0.0
 40
3.25
  0
CIRCLE
  5
513
  8
PATTERN_FILL
  6
CONTINUOUS
 62
     7
 10
499.5
 20
465.0
 30
0.0
 40
3.25
  0
CIRCLE
  5
514
  8
PATTERN_FILL
  6
CONTINUOUS
 62
     7
 10
515.50000000000011
 20
465.0
 30
0.0
 40
3.25
  0
CIRCLE
  5
515
  8
PATTERN_FILL
  6
CONTINUOUS
 62
     7
 10
179.5
 20
465.0
 30
0.0
 40
3.25
  0
CIRCLE
  5
516
  8
PATTERN_FILL
  6
CONTINUOUS
 62
     7
 10
195.5
 20
465.0
 30
0.0
 40
3.25
  0
CIRCLE
  5
517
  8
PATTERN_FILL
  6
CONTINUOUS
 62
     7
 10
211.5
 20
465.0
 30
0.0
 40
3.25
  0
CIRCLE
  5
518
  8
PATTERN_FILL
  6
CONTINUOUS
 62
     7
 10
227.5
 20
465.0
 30
0.0
 40
3.25
  0
CIRCLE
  5
519
  8
PATTERN_FILL
  6
CONTINUOUS
 62
     7
 10
243.5
 20
465.0
 30
0.0
 40
3.25
  0
CIRCLE
  5
51A
  8
PATTERN_FILL
  6
CONTINUOUS
 62
     7
 10
259.5
 20
465.0
 30
0.0
 40
3.25
  0
CIRCLE
  5
51B
  8
PATTERN_FILL
  6
CONTINUOUS
 62
     7
 10
275.5
 20
465.0
 30
0.0
 40
3.25
  0
CIRCLE
  5
51C
  8
PATTERN_FILL
  6
CONTINUOUS
 62
     7
 10
291.5
 20
465.0
 30
0.0
 40
3.25
  0
CIRCLE
  5
51D
  8
PATTERN_FILL
  6
CONTINUOUS
 62
     7
 10
307.5
 20
465.0
 30
0.0
 40
3.25
  0
CIRCLE
  5
51E
  8
PATTERN_FILL
  6
CONTINUOUS
 62
     7
 10
323.5
 20
451.0
 30
0.0
 40
3.25
  0
CIRCLE
  5
51F
  8
PATTERN_FILL
  6
CONTINUOUS
 62
     7
 10
339.5
 20
451.0
 30
0.0
 40
3.25
  0
CIRCLE
  5
520
  8
PATTERN_FILL
  6
CONTINUOUS
 62
     7
 10
355.5
 20
451.0
 30
0.0
 40
3.25
  0
CIRCLE
  5
521
  8
PATTERN_FILL
  6
CONTINUOUS
 62
     7
 10
371.5
 20
451.0
 30
0.0
 40
3.25
  0
CIRCLE
  5
522
  8
PATTERN_FILL
  6
CONTINUOUS
 62
     7
 10
387.5
 20
451.0
 30
0.0
 40
3.25
  0
CIRCLE
  5
523
  8
PATTERN_FILL
  6
CONTINUOUS
 62
     7
 10
403.50000000000011
 20
451.0
 30
0.0
 40
3.25
  0
CIRCLE
  5
524
  8
PATTERN_FILL
  6
CONTINUOUS
 62
     7
 10
163.5
 20
451.0
 30
0.0
 40
3.25
  0
CIRCLE
  5
525
  8
PATTERN_FILL
  6
CONTINUOUS
 62
     7
 10
147.5
 20
451.0
 30
0.0
 40
3.25
  0
CIRCLE
  5
526
  8
PATTERN_FILL
  6
CONTINUOUS
 62
     7
 10
131.5
 20
451.0
 30
0.0
 40
3.25
  0
CIRCLE
  5
527
  8
PATTERN_FILL
  6
CONTINUOUS
 62
     7
 10
115.5
 20
451.0
 30
0.0
 40
3.25
  0
CIRCLE
  5
528
  8
PATTERN_FILL
  6
CONTINUOUS
 62
     7
 10
99.500000000000014
 20
451.0
 30
0.0
 40
3.25
  0
CIRCLE
  5
529
  8
PATTERN_FILL
  6
CONTINUOUS
 62
     7
 10
83.499999999999986
 20
451.0
 30
0.0
 40
3.25
  0
CIRCLE
  5
52A
  8
PATTERN_FILL
  6
CONTINUOUS
 62
     7
 10
67.5
 20
451.0
 30
0.0
 40
3.25
  0
CIRCLE
  5
52B
  8
PATTERN_FILL
  6
CONTINUOUS
 62
     7
 10
51.5
 20
451.0
 30
0.0
 40
3.25
  0
CIRCLE
  5
52C
  8
PATTERN_FILL
  6
CONTINUOUS
 62
     7
 10
35.5
 20
451.0
 30
0.0
 40
3.25
  0
CIRCLE
  5
52D
  8
PATTERN_FILL
  6
CONTINUOUS
 62
     7
 10
19.5
 20
451.0
 30
0.0
 40
3.25
  0
CIRCLE
  5
52E
  8
PATTERN_FILL
  6
CONTINUOUS
 62
     7
 10
419.5
 20
451.0
 30
0.0
 40
3.25
  0
CIRCLE
  5
52F
  8
PATTERN_FILL
  6
CONTINUOUS
 62
     7
 10
435.5
 20
451.0
 30
0.0
 40
3.25
  0
CIRCLE
  5
530
  8
PATTERN_FILL
  6
CONTINUOUS
 62
     7
 10
451.5
 20
451.0
 30
0.0
 40
3.25
  0
CIRCLE
  5
531
  8
PATTERN_FILL
  6
CONTINUOUS
 62
     7
 10
467.5
 20
451.0
 30
0.0
 40
3.25
  0
CIRCLE
  5
532
  8
PATTERN_FILL
  6
CONTINUOUS
 62
     7
 10
483.5
 20
451.0
 30
0.0
 40
3.25
  0
CIRCLE
  5
533
  8
PATTERN_FILL
  6
CONTINUOUS
 62
     7
 10
499.5
 20
451.0
 30
0.0
 40
3.25
  0
CIRCLE
  5
534
  8
PATTERN_FILL
  6
CONTINUOUS
 62
     7
 10
515.50000000000011
 20
451.0
 30
0.0
 40
3.25
  0
CIRCLE
  5
535
  8
PATTERN_FILL
  6
CONTINUOUS
 62
     7
 10
179.5
 20
451.0
 30
0.0
 40
3.25
  0
CIRCLE
  5
536
  8
PATTERN_FILL
  6
CONTINUOUS
 62
     7
 10
195.5
 20
451.0
 30
0.0
 40
3.25
  0
CIRCLE
  5
537
  8
PATTERN_FILL
  6
CONTINUOUS
 62
     7
 10
211.5
 20
451.0
 30
0.0
 40
3.25
  0
CIRCLE
  5
538
  8
PATTERN_FILL
  6
CONTINUOUS
 62
     7
 10
227.5
 20
451.0
 30
0.0
 40
3.25
  0
CIRCLE
  5
539
  8
PATTERN_FILL
  6
CONTINUOUS
 62
     7
 10
243.5
 20
451.0
 30
0.0
 40
3.25
  0
CIRCLE
  5
53A
  8
PATTERN_FILL
  6
CONTINUOUS
 62
     7
 10
259.5
 20
451.0
 30
0.0
 40
3.25
  0
CIRCLE
  5
53B
  8
PATTERN_FILL
  6
CONTINUOUS
 62
     7
 10
275.5
 20
451.0
 30
0.0
 40
3.25
  0
CIRCLE
  5
53C
  8
PATTERN_FILL
  6
CONTINUOUS
 62
     7
 10
291.5
 20
451.0
 30
0.0
 40
3.25
  0
CIRCLE
  5
53D
  8
PATTERN_FILL
  6
CONTINUOUS
 62
     7
 10
307.5
 20
451.0
 30
0.0
 40
3.25
  0
CIRCLE
  5
53E
  8
PATTERN_FILL
  6
CONTINUOUS
 62
     7
 10
323.5
 20
437.0
 30
0.0
 40
3.25
  0
CIRCLE
  5
53F
  8
PATTERN_FILL
  6
CONTINUOUS
 62
     7
 10
339.5
 20
437.0
 30
0.0
 40
3.25
  0
CIRCLE
  5
540
  8
PATTERN_FILL
  6
CONTINUOUS
 62
     7
 10
355.5
 20
437.0
 30
0.0
 40
3.25
  0
CIRCLE
  5
541
  8
PATTERN_FILL
  6
CONTINUOUS
 62
     7
 10
371.5
 20
437.0
 30
0.0
 40
3.25
  0
CIRCLE
  5
542
  8
PATTERN_FILL
  6
CONTINUOUS
 62
     7
 10
387.5
 20
437.0
 30
0.0
 40
3.25
  0
CIRCLE
  5
543
  8
PATTERN_FILL
  6
CONTINUOUS
 62
     7
 10
403.50000000000011
 20
437.0
 30
0.0
 40
3.25
  0
CIRCLE
  5
544
  8
PATTERN_FILL
  6
CONTINUOUS
 62
     7
 10
163.5
 20
437.0
 30
0.0
 40
3.25
  0
CIRCLE
  5
545
  8
PATTERN_FILL
  6
CONTINUOUS
 62
     7
 10
147.5
 20
437.0
 30
0.0
 40
3.25
  0
CIRCLE
  5
546
  8
PATTERN_FILL
  6
CONTINUOUS
 62
     7
 10
131.5
 20
437.0
 30
0.0
 40
3.25
  0
CIRCLE
  5
547
  8
PATTERN_FILL
  6
CONTINUOUS
 62
     7
 10
115.5
 20
437.0
 30
0.0
 40
3.25
  0
CIRCLE
  5
548
  8
PATTERN_FILL
  6
CONTINUOUS
 62
     7
 10
99.500000000000014
 20
437.0
 30
0.0
 40
3.25
  0
CIRCLE
  5
549
  8
PATTERN_FILL
  6
CONTINUOUS
 62
     7
 10
83.499999999999986
 20
437.0
 30
0.0
 40
3.25
  0
CIRCLE
  5
54A
  8
PATTERN_FILL
  6
CONTINUOUS
 62
     7
 10
67.5
 20
437.0
 30
0.0
 40
3.25
  0
CIRCLE
  5
54B
  8
PATTERN_FILL
  6
CONTINUOUS
 62
     7
 10
51.5
 20
437.0
 30
0.0
 40
3.25
  0
CIRCLE
  5
54C
  8
PATTERN_FILL
  6
CONTINUOUS
 62
     7
 10
35.5
 20
437.0
 30
0.0
 40
3.25
  0
CIRCLE
  5
54D
  8
PATTERN_FILL
  6
CONTINUOUS
 62
     7
 10
19.5
 20
437.0
 30
0.0
 40
3.25
  0
CIRCLE
  5
54E
  8
PATTERN_FILL
  6
CONTINUOUS
 62
     7
 10
419.5
 20
437.0
 30
0.0
 40
3.25
  0
CIRCLE
  5
54F
  8
PATTERN_FILL
  6
CONTINUOUS
 62
     7
 10
435.5
 20
437.0
 30
0.0
 40
3.25
  0
CIRCLE
  5
550
  8
PATTERN_FILL
  6
CONTINUOUS
 62
     7
 10
451.5
 20
437.0
 30
0.0
 40
3.25
  0
CIRCLE
  5
551
  8
PATTERN_FILL
  6
CONTINUOUS
 62
     7
 10
467.5
 20
437.0
 30
0.0
 40
3.25
  0
CIRCLE
  5
552
  8
PATTERN_FILL
  6
CONTINUOUS
 62
     7
 10
483.5
 20
437.0
 30
0.0
 40
3.25
  0
CIRCLE
  5
553
  8
PATTERN_FILL
  6
CONTINUOUS
 62
     7
 10
499.5
 20
437.0
 30
0.0
 40
3.25
  0
CIRCLE
  5
554
  8
PATTERN_FILL
  6
CONTINUOUS
 62
     7
 10
515.50000000000011
 20
437.0
 30
0.0
 40
3.25
  0
CIRCLE
  5
555
  8
PATTERN_FILL
  6
CONTINUOUS
 62
     7
 10
179.5
 20
437.0
 30
0.0
 40
3.25
  0
CIRCLE
  5
556
  8
PATTERN_FILL
  6
CONTINUOUS
 62
     7
 10
195.5
 20
437.0
 30
0.0
 40
3.25
  0
CIRCLE
  5
557
  8
PATTERN_FILL
  6
CONTINUOUS
 62
     7
 10
211.5
 20
437.0
 30
0.0
 40
3.25
  0
CIRCLE
  5
558
  8
PATTERN_FILL
  6
CONTINUOUS
 62
     7
 10
227.5
 20
437.0
 30
0.0
 40
3.25
  0
CIRCLE
  5
559
  8
PATTERN_FILL
  6
CONTINUOUS
 62
     7
 10
243.5
 20
437.0
 30
0.0
 40
3.25
  0
CIRCLE
  5
55A
  8
PATTERN_FILL
  6
CONTINUOUS
 62
     7
 10
259.5
 20
437.0
 30
0.0
 40
3.25
  0
CIRCLE
  5
55B
  8
PATTERN_FILL
  6
CONTINUOUS
 62
     7
 10
275.5
 20
437.0
 30
0.0
 40
3.25
  0
CIRCLE
  5
55C
  8
PATTERN_FILL
  6
CONTINUOUS
 62
     7
 10
291.5
 20
437.0
 30
0.0
 40
3.25
  0
CIRCLE
  5
55D
  8
PATTERN_FILL
  6
CONTINUOUS
 62
     7
 10
307.5
 20
437.0
 30
0.0
 40
3.25
  0
CIRCLE
  5
55E
  8
PATTERN_FILL
  6
CONTINUOUS
 62
     7
 10
323.5
 20
423.0
 30
0.0
 40
3.25
  0
CIRCLE
  5
55F
  8
PATTERN_FILL
  6
CONTINUOUS
 62
     7
 10
339.5
 20
423.0
 30
0.0
 40
3.25
  0
CIRCLE
  5
560
  8
PATTERN_FILL
  6
CONTINUOUS
 62
     7
 10
355.5
 20
423.0
 30
0.0
 40
3.25
  0
CIRCLE
  5
561
  8
PATTERN_FILL
  6
CONTINUOUS
 62
     7
 10
371.5
 20
423.0
 30
0.0
 40
3.25
  0
CIRCLE
  5
562
  8
PATTERN_FILL
  6
CONTINUOUS
 62
     7
 10
387.5
 20
423.0
 30
0.0
 40
3.25
  0
CIRCLE
  5
563
  8
PATTERN_FILL
  6
CONTINUOUS
 62
     7
 10
403.50000000000011
 20
423.0
 30
0.0
 40
3.25
  0
CIRCLE
  5
564
  8
PATTERN_FILL
  6
CONTINUOUS
 62
     7
 10
163.5
 20
423.0
 30
0.0
 40
3.25
  0
CIRCLE
  5
565
  8
PATTERN_FILL
  6
CONTINUOUS
 62
     7
 10
147.5
 20
423.0
 30
0.0
 40
3.25
  0
CIRCLE
  5
566
  8
PATTERN_FILL
  6
CONTINUOUS
 62
     7
 10
131.5
 20
423.0
 30
0.0
 40
3.25
  0
CIRCLE
  5
567
  8
PATTERN_FILL
  6
CONTINUOUS
 62
     7
 10
115.5
 20
423.0
 30
0.0
 40
3.25
  0
CIRCLE
  5
568
  8
PATTERN_FILL
  6
CONTINUOUS
 62
     7
 10
99.500000000000014
 20
423.0
 30
0.0
 40
3.25
  0
CIRCLE
  5
569
  8
PATTERN_FILL
  6
CONTINUOUS
 62
     7
 10
83.499999999999986
 20
423.0
 30
0.0
 40
3.25
  0
CIRCLE
  5
56A
  8
PATTERN_FILL
  6
CONTINUOUS
 62
     7
 10
67.5
 20
423.0
 30
0.0
 40
3.25
  0
CIRCLE
  5
56B
  8
PATTERN_FILL
  6
CONTINUOUS
 62
     7
 10
51.5
 20
423.0
 30
0.0
 40
3.25
  0
CIRCLE
  5
56C
  8
PATTERN_FILL
  6
CONTINUOUS
 62
     7
 10
35.5
 20
423.0
 30
0.0
 40
3.25
  0
CIRCLE
  5
56D
  8
PATTERN_FILL
  6
CONTINUOUS
 62
     7
 10
19.5
 20
423.0
 30
0.0
 40
3.25
  0
CIRCLE
  5
56E
  8
PATTERN_FILL
  6
CONTINUOUS
 62
     7
 10
419.5
 20
423.0
 30
0.0
 40
3.25
  0
CIRCLE
  5
56F
  8
PATTERN_FILL
  6
CONTINUOUS
 62
     7
 10
435.5
 20
423.0
 30
0.0
 40
3.25
  0
CIRCLE
  5
570
  8
PATTERN_FILL
  6
CONTINUOUS
 62
     7
 10
451.5
 20
423.0
 30
0.0
 40
3.25
  0
CIRCLE
  5
571
  8
PATTERN_FILL
  6
CONTINUOUS
 62
     7
 10
467.5
 20
423.0
 30
0.0
 40
3.25
  0
CIRCLE
  5
572
  8
PATTERN_FILL
  6
CONTINUOUS
 62
     7
 10
483.5
 20
423.0
 30
0.0
 40
3.25
  0
CIRCLE
  5
573
  8
PATTERN_FILL
  6
CONTINUOUS
 62
     7
 10
499.5
 20
423.0
 30
0.0
 40
3.25
  0
CIRCLE
  5
574
  8
PATTERN_FILL
  6
CONTINUOUS
 62
     7
 10
515.50000000000011
 20
423.0
 30
0.0
 40
3.25
  0
CIRCLE
  5
575
  8
PATTERN_FILL
  6
CONTINUOUS
 62
     7
 10
179.5
 20
423.0
 30
0.0
 40
3.25
  0
CIRCLE
  5
576
  8
PATTERN_FILL
  6
CONTINUOUS
 62
     7
 10
195.5
 20
423.0
 30
0.0
 40
3.25
  0
CIRCLE
  5
577
  8
PATTERN_FILL
  6
CONTINUOUS
 62
     7
 10
211.5
 20
423.0
 30
0.0
 40
3.25
  0
CIRCLE
  5
578
  8
PATTERN_FILL
  6
CONTINUOUS
 62
     7
 10
227.5
 20
423.0
 30
0.0
 40
3.25
  0
CIRCLE
  5
579
  8
PATTERN_FILL
  6
CONTINUOUS
 62
     7
 10
243.5
 20
423.0
 30
0.0
 40
3.25
  0
CIRCLE
  5
57A
  8
PATTERN_FILL
  6
CONTINUOUS
 62
     7
 10
259.5
 20
423.0
 30
0.0
 40
3.25
  0
CIRCLE
  5
57B
  8
PATTERN_FILL
  6
CONTINUOUS
 62
     7
 10
275.5
 20
423.0
 30
0.0
 40
3.25
  0
CIRCLE
  5
57C
  8
PATTERN_FILL
  6
CONTINUOUS
 62
     7
 10
291.5
 20
423.0
 30
0.0
 40
3.25
  0
CIRCLE
  5
57D
  8
PATTERN_FILL
  6
CONTINUOUS
 62
     7
 10
307.5
 20
423.0
 30
0.0
 40
3.25
  0
CIRCLE
  5
57E
  8
PATTERN_FILL
  6
CONTINUOUS
 62
     7
 10
323.5
 20
409.0
 30
0.0
 40
3.25
  0
CIRCLE
  5
57F
  8
PATTERN_FILL
  6
CONTINUOUS
 62
     7
 10
339.5
 20
409.0
 30
0.0
 40
3.25
  0
CIRCLE
  5
580
  8
PATTERN_FILL
  6
CONTINUOUS
 62
     7
 10
355.5
 20
409.0
 30
0.0
 40
3.25
  0
CIRCLE
  5
581
  8
PATTERN_FILL
  6
CONTINUOUS
 62
     7
 10
371.5
 20
409.0
 30
0.0
 40
3.25
  0
CIRCLE
  5
582
  8
PATTERN_FILL
  6
CONTINUOUS
 62
     7
 10
387.5
 20
409.0
 30
0.0
 40
3.25
  0
CIRCLE
  5
583
  8
PATTERN_FILL
  6
CONTINUOUS
 62
     7
 10
403.50000000000011
 20
409.0
 30
0.0
 40
3.25
  0
CIRCLE
  5
584
  8
PATTERN_FILL
  6
CONTINUOUS
 62
     7
 10
163.5
 20
409.0
 30
0.0
 40
3.25
  0
CIRCLE
  5
585
  8
PATTERN_FILL
  6
CONTINUOUS
 62
     7
 10
147.5
 20
409.0
 30
0.0
 40
3.25
  0
CIRCLE
  5
586
  8
PATTERN_FILL
  6
CONTINUOUS
 62
     7
 10
131.5
 20
409.0
 30
0.0
 40
3.25
  0
CIRCLE
  5
587
  8
PATTERN_FILL
  6
CONTINUOUS
 62
     7
 10
115.5
 20
409.0
 30
0.0
 40
3.25
  0
CIRCLE
  5
588
  8
PATTERN_FILL
  6
CONTINUOUS
 62
     7
 10
99.500000000000014
 20
409.0
 30
0.0
 40
3.25
  0
CIRCLE
  5
589
  8
PATTERN_FILL
  6
CONTINUOUS
 62
     7
 10
83.499999999999986
 20
409.0
 30
0.0
 40
3.25
  0
CIRCLE
  5
58A
  8
PATTERN_FILL
  6
CONTINUOUS
 62
     7
 10
67.5
 20
409.0
 30
0.0
 40
3.25
  0
CIRCLE
  5
58B
  8
PATTERN_FILL
  6
CONTINUOUS
 62
     7
 10
51.5
 20
409.0
 30
0.0
 40
3.25
  0
CIRCLE
  5
58C
  8
PATTERN_FILL
  6
CONTINUOUS
 62
     7
 10
35.5
 20
409.0
 30
0.0
 40
3.25
  0
CIRCLE
  5
58D
  8
PATTERN_FILL
  6
CONTINUOUS
 62
     7
 10
19.5
 20
409.0
 30
0.0
 40
3.25
  0
CIRCLE
  5
58E
  8
PATTERN_FILL
  6
CONTINUOUS
 62
     7
 10
419.5
 20
409.0
 30
0.0
 40
3.25
  0
CIRCLE
  5
58F
  8
PATTERN_FILL
  6
CONTINUOUS
 62
     7
 10
435.5
 20
409.0
 30
0.0
 40
3.25
  0
CIRCLE
  5
590
  8
PATTERN_FILL
  6
CONTINUOUS
 62
     7
 10
451.5
 20
409.0
 30
0.0
 40
3.25
  0
CIRCLE
  5
591
  8
PATTERN_FILL
  6
CONTINUOUS
 62
     7
 10
467.5
 20
409.0
 30
0.0
 40
3.25
  0
CIRCLE
  5
592
  8
PATTERN_FILL
  6
CONTINUOUS
 62
     7
 10
483.5
 20
409.0
 30
0.0
 40
3.25
  0
CIRCLE
  5
593
  8
PATTERN_FILL
  6
CONTINUOUS
 62
     7
 10
499.5
 20
409.0
 30
0.0
 40
3.25
  0
CIRCLE
  5
594
  8
PATTERN_FILL
  6
CONTINUOUS
 62
     7
 10
515.50000000000011
 20
409.0
 30
0.0
 40
3.25
  0
CIRCLE
  5
595
  8
PATTERN_FILL
  6
CONTINUOUS
 62
     7
 10
179.5
 20
409.0
 30
0.0
 40
3.25
  0
CIRCLE
  5
596
  8
PATTERN_FILL
  6
CONTINUOUS
 62
     7
 10
195.5
 20
409.0
 30
0.0
 40
3.25
  0
CIRCLE
  5
597
  8
PATTERN_FILL
  6
CONTINUOUS
 62
     7
 10
211.5
 20
409.0
 30
0.0
 40
3.25
  0
CIRCLE
  5
598
  8
PATTERN_FILL
  6
CONTINUOUS
 62
     7
 10
227.5
 20
409.0
 30
0.0
 40
3.25
  0
CIRCLE
  5
599
  8
PATTERN_FILL
  6
CONTINUOUS
 62
     7
 10
243.5
 20
409.0
 30
0.0
 40
3.25
  0
CIRCLE
  5
59A
  8
PATTERN_FILL
  6
CONTINUOUS
 62
     7
 10
259.5
 20
409.0
 30
0.0
 40
3.25
  0
CIRCLE
  5
59B
  8
PATTERN_FILL
  6
CONTINUOUS
 62
     7
 10
275.5
 20
409.0
 30
0.0
 40
3.25
  0
CIRCLE
  5
59C
  8
PATTERN_FILL
  6
CONTINUOUS
 62
     7
 10
291.5
 20
409.0
 30
0.0
 40
3.25
  0
CIRCLE
  5
59D
  8
PATTERN_FILL
  6
CONTINUOUS
 62
     7
 10
307.5
 20
409.0
 30
0.0
 40
3.25
  0
CIRCLE
  5
59E
  8
PATTERN_FILL
  6
CONTINUOUS
 62
     7
 10
323.5
 20
395.0
 30
0.0
 40
3.25
  0
CIRCLE
  5
59F
  8
PATTERN_FILL
  6
CONTINUOUS
 62
     7
 10
339.5
 20
395.0
 30
0.0
 40
3.25
  0
CIRCLE
  5
5A0
  8
PATTERN_FILL
  6
CONTINUOUS
 62
     7
 10
355.5
 20
395.0
 30
0.0
 40
3.25
  0
CIRCLE
  5
5A1
  8
PATTERN_FILL
  6
CONTINUOUS
 62
     7
 10
371.5
 20
395.0
 30
0.0
 40
3.25
  0
CIRCLE
  5
5A2
  8
PATTERN_FILL
  6
CONTINUOUS
 62
     7
 10
387.5
 20
395.0
 30
0.0
 40
3.25
  0
CIRCLE
  5
5A3
  8
PATTERN_FILL
  6
CONTINUOUS
 62
     7
 10
403.50000000000011
 20
395.0
 30
0.0
 40
3.25
  0
CIRCLE
  5
5A4
  8
PATTERN_FILL
  6
CONTINUOUS
 62
     7
 10
163.5
 20
395.0
 30
0.0
 40
3.25
  0
CIRCLE
  5
5A5
  8
PATTERN_FILL
  6
CONTINUOUS
 62
     7
 10
147.5
 20
395.0
 30
0.0
 40
3.25
  0
CIRCLE
  5
5A6
  8
PATTERN_FILL
  6
CONTINUOUS
 62
     7
 10
131.5
 20
395.0
 30
0.0
 40
3.25
  0
CIRCLE
  5
5A7
  8
PATTERN_FILL
  6
CONTINUOUS
 62
     7
 10
115.5
 20
395.0
 30
0.0
 40
3.25
  0
CIRCLE
  5
5A8
  8
PATTERN_FILL
  6
CONTINUOUS
 62
     7
 10
99.500000000000014
 20
395.0
 30
0.0
 40
3.25
  0
CIRCLE
  5
5A9
  8
PATTERN_FILL
  6
CONTINUOUS
 62
     7
 10
83.499999999999986
 20
395.0
 30
0.0
 40
3.25
  0
CIRCLE
  5
5AA
  8
PATTERN_FILL
  6
CONTINUOUS
 62
     7
 10
67.5
 20
395.0
 30
0.0
 40
3.25
  0
CIRCLE
  5
5AB
  8
PATTERN_FILL
  6
CONTINUOUS
 62
     7
 10
51.5
 20
395.0
 30
0.0
 40
3.25
  0
CIRCLE
  5
5AC
  8
PATTERN_FILL
  6
CONTINUOUS
 62
     7
 10
35.5
 20
395.0
 30
0.0
 40
3.25
  0
CIRCLE
  5
5AD
  8
PATTERN_FILL
  6
CONTINUOUS
 62
     7
 10
19.5
 20
395.0
 30
0.0
 40
3.25
  0
CIRCLE
  5
5AE
  8
PATTERN_FILL
  6
CONTINUOUS
 62
     7
 10
419.5
 20
395.0
 30
0.0
 40
3.25
  0
CIRCLE
  5
5AF
  8
PATTERN_FILL
  6
CONTINUOUS
 62
     7
 10
435.5
 20
395.0
 30
0.0
 40
3.25
  0
CIRCLE
  5
5B0
  8
PATTERN_FILL
  6
CONTINUOUS
 62
     7
 10
451.5
 20
395.0
 30
0.0
 40
3.25
  0
CIRCLE
  5
5B1
  8
PATTERN_FILL
  6
CONTINUOUS
 62
     7
 10
467.5
 20
395.0
 30
0.0
 40
3.25
  0
CIRCLE
  5
5B2
  8
PATTERN_FILL
  6
CONTINUOUS
 62
     7
 10
483.5
 20
395.0
 30
0.0
 40
3.25
  0
CIRCLE
  5
5B3
  8
PATTERN_FILL
  6
CONTINUOUS
 62
     7
 10
499.5
 20
395.0
 30
0.0
 40
3.25
  0
CIRCLE
  5
5B4
  8
PATTERN_FILL
  6
CONTINUOUS
 62
     7
 10
515.50000000000011
 20
395.0
 30
0.0
 40
3.25
  0
CIRCLE
  5
5B5
  8
PATTERN_FILL
  6
CONTINUOUS
 62
     7
 10
179.5
 20
395.0
 30
0.0
 40
3.25
  0
CIRCLE
  5
5B6
  8
PATTERN_FILL
  6
CONTINUOUS
 62
     7
 10
195.5
 20
395.0
 30
0.0
 40
3.25
  0
CIRCLE
  5
5B7
  8
PATTERN_FILL
  6
CONTINUOUS
 62
     7
 10
211.5
 20
395.0
 30
0.0
 40
3.25
  0
CIRCLE
  5
5B8
  8
PATTERN_FILL
  6
CONTINUOUS
 62
     7
 10
227.5
 20
395.0
 30
0.0
 40
3.25
  0
CIRCLE
  5
5B9
  8
PATTERN_FILL
  6
CONTINUOUS
 62
     7
 10
243.5
 20
395.0
 30
0.0
 40
3.25
  0
CIRCLE
  5
5BA
  8
PATTERN_FILL
  6
CONTINUOUS
 62
     7
 10
259.5
 20
395.0
 30
0.0
 40
3.25
  0
CIRCLE
  5
5BB
  8
PATTERN_FILL
  6
CONTINUOUS
 62
     7
 10
275.5
 20
395.0
 30
0.0
 40
3.25
  0
CIRCLE
  5
5BC
  8
PATTERN_FILL
  6
CONTINUOUS
 62
     7
 10
291.5
 20
395.0
 30
0.0
 40
3.25
  0
CIRCLE
  5
5BD
  8
PATTERN_FILL
  6
CONTINUOUS
 62
     7
 10
307.5
 20
395.0
 30
0.0
 40
3.25
  0
CIRCLE
  5
5BE
  8
PATTERN_FILL
  6
CONTINUOUS
 62
     7
 10
323.5
 20
381.0
 30
0.0
 40
3.25
  0
CIRCLE
  5
5BF
  8
PATTERN_FILL
  6
CONTINUOUS
 62
     7
 10
339.5
 20
381.0
 30
0.0
 40
3.25
  0
CIRCLE
  5
5C0
  8
PATTERN_FILL
  6
CONTINUOUS
 62
     7
 10
355.5
 20
381.0
 30
0.0
 40
3.25
  0
CIRCLE
  5
5C1
  8
PATTERN_FILL
  6
CONTINUOUS
 62
     7
 10
371.5
 20
381.0
 30
0.0
 40
3.25
  0
CIRCLE
  5
5C2
  8
PATTERN_FILL
  6
CONTINUOUS
 62
     7
 10
387.5
 20
381.0
 30
0.0
 40
3.25
  0
CIRCLE
  5
5C3
  8
PATTERN_FILL
  6
CONTINUOUS
 62
     7
 10
403.50000000000011
 20
381.0
 30
0.0
 40
3.25
  0
CIRCLE
  5
5C4
  8
PATTERN_FILL
  6
CONTINUOUS
 62
     7
 10
163.5
 20
381.0
 30
0.0
 40
3.25
  0
CIRCLE
  5
5C5
  8
PATTERN_FILL
  6
CONTINUOUS
 62
     7
 10
147.5
 20
381.0
 30
0.0
 40
3.25
  0
CIRCLE
  5
5C6
  8
PATTERN_FILL
  6
CONTINUOUS
 62
     7
 10
131.5
 20
381.0
 30
0.0
 40
3.25
  0
CIRCLE
  5
5C7
  8
PATTERN_FILL
  6
CONTINUOUS
 62
     7
 10
115.5
 20
381.0
 30
0.0
 40
3.25
  0
CIRCLE
  5
5C8
  8
PATTERN_FILL
  6
CONTINUOUS
 62
     7
 10
99.500000000000014
 20
381.0
 30
0.0
 40
3.25
  0
CIRCLE
  5
5C9
  8
PATTERN_FILL
  6
CONTINUOUS
 62
     7
 10
83.499999999999986
 20
381.0
 30
0.0
 40
3.25
  0
CIRCLE
  5
5CA
  8
PATTERN_FILL
  6
CONTINUOUS
 62
     7
 10
67.5
 20
381.0
 30
0.0
 40
3.25
  0
CIRCLE
  5
5CB
  8
PATTERN_FILL
  6
CONTINUOUS
 62
     7
 10
51.5
 20
381.0
 30
0.0
 40
3.25
  0
CIRCLE
  5
5CC
  8
PATTERN_FILL
  6
CONTINUOUS
 62
     7
 10
35.5
 20
381.0
 30
0.0
 40
3.25
  0
CIRCLE
  5
5CD
  8
PATTERN_FILL
  6
CONTINUOUS
 62
     7
 10
19.5
 20
381.0
 30
0.0
 40
3.25
  0
CIRCLE
  5
5CE
  8
PATTERN_FILL
  6
CONTINUOUS
 62
     7
 10
419.5
 20
381.0
 30
0.0
 40
3.25
  0
CIRCLE
  5
5CF
  8
PATTERN_FILL
  6
CONTINUOUS
 62
     7
 10
435.5
 20
381.0
 30
0.0
 40
3.25
  0
CIRCLE
  5
5D0
  8
PATTERN_FILL
  6
CONTINUOUS
 62
     7
 10
451.5
 20
381.0
 30
0.0
 40
3.25
  0
CIRCLE
  5
5D1
  8
PATTERN_FILL
  6
CONTINUOUS
 62
     7
 10
467.5
 20
381.0
 30
0.0
 40
3.25
  0
CIRCLE
  5
5D2
  8
PATTERN_FILL
  6
CONTINUOUS
 62
     7
 10
483.5
 20
381.0
 30
0.0
 40
3.25
  0
CIRCLE
  5
5D3
  8
PATTERN_FILL
  6
CONTINUOUS
 62
     7
 10
499.5
 20
381.0
 30
0.0
 40
3.25
  0
CIRCLE
  5
5D4
  8
PATTERN_FILL
  6
CONTINUOUS
 62
     7
 10
515.50000000000011
 20
381.0
 30
0.0
 40
3.25
  0
CIRCLE
  5
5D5
  8
PATTERN_FILL
  6
CONTINUOUS
 62
     7
 10
179.5
 20
381.0
 30
0.0
 40
3.25
  0
CIRCLE
  5
5D6
  8
PATTERN_FILL
  6
CONTINUOUS
 62
     7
 10
195.5
 20
381.0
 30
0.0
 40
3.25
  0
CIRCLE
  5
5D7
  8
PATTERN_FILL
  6
CONTINUOUS
 62
     7
 10
211.5
 20
381.0
 30
0.0
 40
3.25
  0
CIRCLE
  5
5D8
  8
PATTERN_FILL
  6
CONTINUOUS
 62
     7
 10
227.5
 20
381.0
 30
0.0
 40
3.25
  0
CIRCLE
  5
5D9
  8
PATTERN_FILL
  6
CONTINUOUS
 62
     7
 10
243.5
 20
381.0
 30
0.0
 40
3.25
  0
CIRCLE
  5
5DA
  8
PATTERN_FILL
  6
CONTINUOUS
 62
     7
 10
259.5
 20
381.0
 30
0.0
 40
3.25
  0
CIRCLE
  5
5DB
  8
PATTERN_FILL
  6
CONTINUOUS
 62
     7
 10
275.5
 20
381.0
 30
0.0
 40
3.25
  0
CIRCLE
  5
5DC
  8
PATTERN_FILL
  6
CONTINUOUS
 62
     7
 10
291.5
 20
381.0
 30
0.0
 40
3.25
  0
CIRCLE
  5
5DD
  8
PATTERN_FILL
  6
CONTINUOUS
 62
     7
 10
307.5
 20
381.0
 30
0.0
 40
3.25
  0
CIRCLE
  5
5DE
  8
PATTERN_FILL
  6
CONTINUOUS
 62
     7
 10
323.5
 20
367.0
 30
0.0
 40
3.25
  0
CIRCLE
  5
5DF
  8
PATTERN_FILL
  6
CONTINUOUS
 62
     7
 10
339.5
 20
367.0
 30
0.0
 40
3.25
  0
CIRCLE
  5
5E0
  8
PATTERN_FILL
  6
CONTINUOUS
 62
     7
 10
355.5
 20
367.0
 30
0.0
 40
3.25
  0
CIRCLE
  5
5E1
  8
PATTERN_FILL
  6
CONTINUOUS
 62
     7
 10
371.5
 20
367.0
 30
0.0
 40
3.25
  0
CIRCLE
  5
5E2
  8
PATTERN_FILL
  6
CONTINUOUS
 62
     7
 10
387.5
 20
367.0
 30
0.0
 40
3.25
  0
CIRCLE
  5
5E3
  8
PATTERN_FILL
  6
CONTINUOUS
 62
     7
 10
403.50000000000011
 20
367.0
 30
0.0
 40
3.25
  0
CIRCLE
  5
5E4
  8
PATTERN_FILL
  6
CONTINUOUS
 62
     7
 10
163.5
 20
367.0
 30
0.0
 40
3.25
  0
CIRCLE
  5
5E5
  8
PATTERN_FILL
  6
CONTINUOUS
 62
     7
 10
147.5
 20
367.0
 30
0.0
 40
3.25
  0
CIRCLE
  5
5E6
  8
PATTERN_FILL
  6
CONTINUOUS
 62
     7
 10
131.5
 20
367.0
 30
0.0
 40
3.25
  0
CIRCLE
  5
5E7
  8
PATTERN_FILL
  6
CONTINUOUS
 62
     7
 10
115.5
 20
367.0
 30
0.0
 40
3.25
  0
CIRCLE
  5
5E8
  8
PATTERN_FILL
  6
CONTINUOUS
 62
     7
 10
99.500000000000014
 20
367.0
 30
0.0
 40
3.25
  0
CIRCLE
  5
5E9
  8
PATTERN_FILL
  6
CONTINUOUS
 62
     7
 10
83.499999999999986
 20
367.0
 30
0.0
 40
3.25
  0
CIRCLE
  5
5EA
  8
PATTERN_FILL
  6
CONTINUOUS
 62
     7
 10
67.5
 20
367.0
 30
0.0
 40
3.25
  0
CIRCLE
  5
5EB
  8
PATTERN_FILL
  6
CONTINUOUS
 62
     7
 10
51.5
 20
367.0
 30
0.0
 40
3.25
  0
CIRCLE
  5
5EC
  8
PATTERN_FILL
  6
CONTINUOUS
 62
     7
 10
35.5
 20
367.0
 30
0.0
 40
3.25
  0
CIRCLE
  5
5ED
  8
PATTERN_FILL
  6
CONTINUOUS
 62
     7
 10
19.5
 20
367.0
 30
0.0
 40
3.25
  0
CIRCLE
  5
5EE
  8
PATTERN_FILL
  6
CONTINUOUS
 62
     7
 10
419.5
 20
367.0
 30
0.0
 40
3.25
  0
CIRCLE
  5
5EF
  8
PATTERN_FILL
  6
CONTINUOUS
 62
     7
 10
435.5
 20
367.0
 30
0.0
 40
3.25
  0
CIRCLE
  5
5F0
  8
PATTERN_FILL
  6
CONTINUOUS
 62
     7
 10
451.5
 20
367.0
 30
0.0
 40
3.25
  0
CIRCLE
  5
5F1
  8
PATTERN_FILL
  6
CONTINUOUS
 62
     7
 10
467.5
 20
367.0
 30
0.0
 40
3.25
  0
CIRCLE
  5
5F2
  8
PATTERN_FILL
  6
CONTINUOUS
 62
     7
 10
483.5
 20
367.0
 30
0.0
 40
3.25
  0
CIRCLE
  5
5F3
  8
PATTERN_FILL
  6
CONTINUOUS
 62
     7
 10
499.5
 20
367.0
 30
0.0
 40
3.25
  0
CIRCLE
  5
5F4
  8
PATTERN_FILL
  6
CONTINUOUS
 62
     7
 10
515.50000000000011
 20
367.0
 30
0.0
 40
3.25
  0
CIRCLE
  5
5F5
  8
PATTERN_FILL
  6
CONTINUOUS
 62
     7
 10
179.5
 20
367.0
 30
0.0
 40
3.25
  0
CIRCLE
  5
5F6
  8
PATTERN_FILL
  6
CONTINUOUS
 62
     7
 10
195.5
 20
367.0
 30
0.0
 40
3.25
  0
CIRCLE
  5
5F7
  8
PATTERN_FILL
  6
CONTINUOUS
 62
     7
 10
211.5
 20
367.0
 30
0.0
 40
3.25
  0
CIRCLE
  5
5F8
  8
PATTERN_FILL
  6
CONTINUOUS
 62
     7
 10
227.5
 20
367.0
 30
0.0
 40
3.25
  0
CIRCLE
  5
5F9
  8
PATTERN_FILL
  6
CONTINUOUS
 62
     7
 10
243.5
 20
367.0
 30
0.0
 40
3.25
  0
CIRCLE
  5
5FA
  8
PATTERN_FILL
  6
CONTINUOUS
 62
     7
 10
259.5
 20
367.0
 30
0.0
 40
3.25
  0
CIRCLE
  5
5FB
  8
PATTERN_FILL
  6
CONTINUOUS
 62
     7
 10
275.5
 20
367.0
 30
0.0
 40
3.25
  0
CIRCLE
  5
5FC
  8
PATTERN_FILL
  6
CONTINUOUS
 62
     7
 10
291.5
 20
367.0
 30
0.0
 40
3.25
  0
CIRCLE
  5
5FD
  8
PATTERN_FILL
  6
CONTINUOUS
 62
     7
 10
307.5
 20
367.0
 30
0.0
 40
3.25
  0
CIRCLE
  5
5FE
  8
PATTERN_FILL
  6
CONTINUOUS
 62
     7
 10
323.5
 20
353.0
 30
0.0
 40
3.25
  0
CIRCLE
  5
5FF
  8
PATTERN_FILL
  6
CONTINUOUS
 62
     7
 10
339.5
 20
353.0
 30
0.0
 40
3.25
  0
CIRCLE
  5
600
  8
PATTERN_FILL
  6
CONTINUOUS
 62
     7
 10
355.5
 20
353.0
 30
0.0
 40
3.25
  0
CIRCLE
  5
601
  8
PATTERN_FILL
  6
CONTINUOUS
 62
     7
 10
371.5
 20
353.0
 30
0.0
 40
3.25
  0
CIRCLE
  5
602
  8
PATTERN_FILL
  6
CONTINUOUS
 62
     7
 10
387.5
 20
353.0
 30
0.0
 40
3.25
  0
CIRCLE
  5
603
  8
PATTERN_FILL
  6
CONTINUOUS
 62
     7
 10
403.50000000000011
 20
353.0
 30
0.0
 40
3.25
  0
CIRCLE
  5
604
  8
PATTERN_FILL
  6
CONTINUOUS
 62
     7
 10
163.5
 20
353.0
 30
0.0
 40
3.25
  0
CIRCLE
  5
605
  8
PATTERN_FILL
  6
CONTINUOUS
 62
     7
 10
147.5
 20
353.0
 30
0.0
 40
3.25
  0
CIRCLE
  5
606
  8
PATTERN_FILL
  6
CONTINUOUS
 62
     7
 10
131.5
 20
353.0
 30
0.0
 40
3.25
  0
CIRCLE
  5
607
  8
PATTERN_FILL
  6
CONTINUOUS
 62
     7
 10
115.5
 20
353.0
 30
0.0
 40
3.25
  0
CIRCLE
  5
608
  8
PATTERN_FILL
  6
CONTINUOUS
 62
     7
 10
99.500000000000014
 20
353.0
 30
0.0
 40
3.25
  0
CIRCLE
  5
609
  8
PATTERN_FILL
  6
CONTINUOUS
 62
     7
 10
83.499999999999986
 20
353.0
 30
0.0
 40
3.25
  0
CIRCLE
  5
60A
  8
PATTERN_FILL
  6
CONTINUOUS
 62
     7
 10
67.5
 20
353.0
 30
0.0
 40
3.25
  0
CIRCLE
  5
60B
  8
PATTERN_FILL
  6
CONTINUOUS
 62
     7
 10
51.5
 20
353.0
 30
0.0
 40
3.25
  0
CIRCLE
  5
60C
  8
PATTERN_FILL
  6
CONTINUOUS
 62
     7
 10
35.5
 20
353.0
 30
0.0
 40
3.25
  0
CIRCLE
  5
60D
  8
PATTERN_FILL
  6
CONTINUOUS
 62
     7
 10
19.5
 20
353.0
 30
0.0
 40
3.25
  0
CIRCLE
  5
60E
  8
PATTERN_FILL
  6
CONTINUOUS
 62
     7
 10
419.5
 20
353.0
 30
0.0
 40
3.25
  0
CIRCLE
  5
60F
  8
PATTERN_FILL
  6
CONTINUOUS
 62
     7
 10
435.5
 20
353.0
 30
0.0
 40
3.25
  0
CIRCLE
  5
610
  8
PATTERN_FILL
  6
CONTINUOUS
 62
     7
 10
451.5
 20
353.0
 30
0.0
 40
3.25
  0
CIRCLE
  5
611
  8
PATTERN_FILL
  6
CONTINUOUS
 62
     7
 10
467.5
 20
353.0
 30
0.0
 40
3.25
  0
CIRCLE
  5
612
  8
PATTERN_FILL
  6
CONTINUOUS
 62
     7
 10
483.5
 20
353.0
 30
0.0
 40
3.25
  0
CIRCLE
  5
613
  8
PATTERN_FILL
  6
CONTINUOUS
 62
     7
 10
499.5
 20
353.0
 30
0.0
 40
3.25
  0
CIRCLE
  5
614
  8
PATTERN_FILL
  6
CONTINUOUS
 62
     7
 10
515.50000000000011
 20
353.0
 30
0.0
 40
3.25
  0
CIRCLE
  5
615
  8
PATTERN_FILL
  6
CONTINUOUS
 62
     7
 10
179.5
 20
353.0
 30
0.0
 40
3.25
  0
CIRCLE
  5
616
  8
PATTERN_FILL
  6
CONTINUOUS
 62
     7
 10
195.5
 20
353.0
 30
0.0
 40
3.25
  0
CIRCLE
  5
617
  8
PATTERN_FILL
  6
CONTINUOUS
 62
     7
 10
211.5
 20
353.0
 30
0.0
 40
3.25
  0
CIRCLE
  5
618
  8
PATTERN_FILL
  6
CONTINUOUS
 62
     7
 10
227.5
 20
353.0
 30
0.0
 40
3.25
  0
CIRCLE
  5
619
  8
PATTERN_FILL
  6
CONTINUOUS
 62
     7
 10
243.5
 20
353.0
 30
0.0
 40
3.25
  0
CIRCLE
  5
61A
  8
PATTERN_FILL
  6
CONTINUOUS
 62
     7
 10
259.5
 20
353.0
 30
0.0
 40
3.25
  0
CIRCLE
  5
61B
  8
PATTERN_FILL
  6
CONTINUOUS
 62
     7
 10
275.5
 20
353.0
 30
0.0
 40
3.25
  0
CIRCLE
  5
61C
  8
PATTERN_FILL
  6
CONTINUOUS
 62
     7
 10
291.5
 20
353.0
 30
0.0
 40
3.25
  0
CIRCLE
  5
61D
  8
PATTERN_FILL
  6
CONTINUOUS
 62
     7
 10
307.5
 20
353.0
 30
0.0
 40
3.25
  0
CIRCLE
  5
61E
  8
PATTERN_FILL
  6
CONTINUOUS
 62
     7
 10
323.5
 20
339.0
 30
0.0
 40
3.25
  0
CIRCLE
  5
61F
  8
PATTERN_FILL
  6
CONTINUOUS
 62
     7
 10
339.5
 20
339.0
 30
0.0
 40
3.25
  0
CIRCLE
  5
620
  8
PATTERN_FILL
  6
CONTINUOUS
 62
     7
 10
355.5
 20
339.0
 30
0.0
 40
3.25
  0
CIRCLE
  5
621
  8
PATTERN_FILL
  6
CONTINUOUS
 62
     7
 10
371.5
 20
339.0
 30
0.0
 40
3.25
  0
CIRCLE
  5
622
  8
PATTERN_FILL
  6
CONTINUOUS
 62
     7
 10
387.5
 20
339.0
 30
0.0
 40
3.25
  0
CIRCLE
  5
623
  8
PATTERN_FILL
  6
CONTINUOUS
 62
     7
 10
403.50000000000011
 20
339.0
 30
0.0
 40
3.25
  0
CIRCLE
  5
624
  8
PATTERN_FILL
  6
CONTINUOUS
 62
     7
 10
163.5
 20
339.0
 30
0.0
 40
3.25
  0
CIRCLE
  5
625
  8
PATTERN_FILL
  6
CONTINUOUS
 62
     7
 10
147.5
 20
339.0
 30
0.0
 40
3.25
  0
CIRCLE
  5
626
  8
PATTERN_FILL
  6
CONTINUOUS
 62
     7
 10
131.5
 20
339.0
 30
0.0
 40
3.25
  0
CIRCLE
  5
627
  8
PATTERN_FILL
  6
CONTINUOUS
 62
     7
 10
115.5
 20
339.0
 30
0.0
 40
3.25
  0
CIRCLE
  5
628
  8
PATTERN_FILL
  6
CONTINUOUS
 62
     7
 10
99.500000000000014
 20
339.0
 30
0.0
 40
3.25
  0
CIRCLE
  5
629
  8
PATTERN_FILL
  6
CONTINUOUS
 62
     7
 10
83.499999999999986
 20
339.0
 30
0.0
 40
3.25
  0
CIRCLE
  5
62A
  8
PATTERN_FILL
  6
CONTINUOUS
 62
     7
 10
67.5
 20
339.0
 30
0.0
 40
3.25
  0
CIRCLE
  5
62B
  8
PATTERN_FILL
  6
CONTINUOUS
 62
     7
 10
51.5
 20
339.0
 30
0.0
 40
3.25
  0
CIRCLE
  5
62C
  8
PATTERN_FILL
  6
CONTINUOUS
 62
     7
 10
35.5
 20
339.0
 30
0.0
 40
3.25
  0
CIRCLE
  5
62D
  8
PATTERN_FILL
  6
CONTINUOUS
 62
     7
 10
19.5
 20
339.0
 30
0.0
 40
3.25
  0
CIRCLE
  5
62E
  8
PATTERN_FILL
  6
CONTINUOUS
 62
     7
 10
419.5
 20
339.0
 30
0.0
 40
3.25
  0
CIRCLE
  5
62F
  8
PATTERN_FILL
  6
CONTINUOUS
 62
     7
 10
435.5
 20
339.0
 30
0.0
 40
3.25
  0
CIRCLE
  5
630
  8
PATTERN_FILL
  6
CONTINUOUS
 62
     7
 10
451.5
 20
339.0
 30
0.0
 40
3.25
  0
CIRCLE
  5
631
  8
PATTERN_FILL
  6
CONTINUOUS
 62
     7
 10
467.5
 20
339.0
 30
0.0
 40
3.25
  0
CIRCLE
  5
632
  8
PATTERN_FILL
  6
CONTINUOUS
 62
     7
 10
483.5
 20
339.0
 30
0.0
 40
3.25
  0
CIRCLE
  5
633
  8
PATTERN_FILL
  6
CONTINUOUS
 62
     7
 10
499.5
 20
339.0
 30
0.0
 40
3.25
  0
CIRCLE
  5
634
  8
PATTERN_FILL
  6
CONTINUOUS
 62
     7
 10
515.50000000000011
 20
339.0
 30
0.0
 40
3.25
  0
CIRCLE
  5
635
  8
PATTERN_FILL
  6
CONTINUOUS
 62
     7
 10
179.5
 20
339.0
 30
0.0
 40
3.25
  0
CIRCLE
  5
636
  8
PATTERN_FILL
  6
CONTINUOUS
 62
     7
 10
195.5
 20
339.0
 30
0.0
 40
3.25
  0
CIRCLE
  5
637
  8
PATTERN_FILL
  6
CONTINUOUS
 62
     7
 10
211.5
 20
339.0
 30
0.0
 40
3.25
  0
CIRCLE
  5
638
  8
PATTERN_FILL
  6
CONTINUOUS
 62
     7
 10
227.5
 20
339.0
 30
0.0
 40
3.25
  0
CIRCLE
  5
639
  8
PATTERN_FILL
  6
CONTINUOUS
 62
     7
 10
243.5
 20
339.0
 30
0.0
 40
3.25
  0
CIRCLE
  5
63A
  8
PATTERN_FILL
  6
CONTINUOUS
 62
     7
 10
259.5
 20
339.0
 30
0.0
 40
3.25
  0
CIRCLE
  5
63B
  8
PATTERN_FILL
  6
CONTINUOUS
 62
     7
 10
275.5
 20
339.0
 30
0.0
 40
3.25
  0
CIRCLE
  5
63C
  8
PATTERN_FILL
  6
CONTINUOUS
 62
     7
 10
291.5
 20
339.0
 30
0.0
 40
3.25
  0
CIRCLE
  5
63D
  8
PATTERN_FILL
  6
CONTINUOUS
 62
     7
 10
307.5
 20
339.0
 30
0.0
 40
3.25
  0
CIRCLE
  5
63E
  8
PATTERN_FILL
  6
CONTINUOUS
 62
     7
 10
323.5
 20
325.0
 30
0.0
 40
3.25
  0
CIRCLE
  5
63F
  8
PATTERN_FILL
  6
CONTINUOUS
 62
     7
 10
339.5
 20
325.0
 30
0.0
 40
3.25
  0
CIRCLE
  5
640
  8
PATTERN_FILL
  6
CONTINUOUS
 62
     7
 10
355.5
 20
325.0
 30
0.0
 40
3.25
  0
CIRCLE
  5
641
  8
PATTERN_FILL
  6
CONTINUOUS
 62
     7
 10
371.5
 20
325.0
 30
0.0
 40
3.25
  0
CIRCLE
  5
642
  8
PATTERN_FILL
  6
CONTINUOUS
 62
     7
 10
387.5
 20
325.0
 30
0.0
 40
3.25
  0
CIRCLE
  5
643
  8
PATTERN_FILL
  6
CONTINUOUS
 62
     7
 10
403.50000000000011
 20
325.0
 30
0.0
 40
3.25
  0
CIRCLE
  5
644
  8
PATTERN_FILL
  6
CONTINUOUS
 62
     7
 10
163.5
 20
325.0
 30
0.0
 40
3.25
  0
CIRCLE
  5
645
  8
PATTERN_FILL
  6
CONTINUOUS
 62
     7
 10
147.5
 20
325.0
 30
0.0
 40
3.25
  0
CIRCLE
  5
646
  8
PATTERN_FILL
  6
CONTINUOUS
 62
     7
 10
131.5
 20
325.0
 30
0.0
 40
3.25
  0
CIRCLE
  5
647
  8
PATTERN_FILL
  6
CONTINUOUS
 62
     7
 10
115.5
 20
325.0
 30
0.0
 40
3.25
  0
CIRCLE
  5
648
  8
PATTERN_FILL
  6
CONTINUOUS
 62
     7
 10
99.500000000000014
 20
325.0
 30
0.0
 40
3.25
  0
CIRCLE
  5
649
  8
PATTERN_FILL
  6
CONTINUOUS
 62
     7
 10
83.499999999999986
 20
325.0
 30
0.0
 40
3.25
  0
CIRCLE
  5
64A
  8
PATTERN_FILL
  6
CONTINUOUS
 62
     7
 10
67.5
 20
325.0
 30
0.0
 40
3.25
  0
CIRCLE
  5
64B
  8
PATTERN_FILL
  6
CONTINUOUS
 62
     7
 10
51.5
 20
325.0
 30
0.0
 40
3.25
  0
CIRCLE
  5
64C
  8
PATTERN_FILL
  6
CONTINUOUS
 62
     7
 10
35.5
 20
325.0
 30
0.0
 40
3.25
  0
CIRCLE
  5
64D
  8
PATTERN_FILL
  6
CONTINUOUS
 62
     7
 10
19.5
 20
325.0
 30
0.0
 40
3.25
  0
CIRCLE
  5
64E
  8
PATTERN_FILL
  6
CONTINUOUS
 62
     7
 10
419.5
 20
325.0
 30
0.0
 40
3.25
  0
CIRCLE
  5
64F
  8
PATTERN_FILL
  6
CONTINUOUS
 62
     7
 10
435.5
 20
325.0
 30
0.0
 40
3.25
  0
CIRCLE
  5
650
  8
PATTERN_FILL
  6
CONTINUOUS
 62
     7
 10
451.5
 20
325.0
 30
0.0
 40
3.25
  0
CIRCLE
  5
651
  8
PATTERN_FILL
  6
CONTINUOUS
 62
     7
 10
467.5
 20
325.0
 30
0.0
 40
3.25
  0
CIRCLE
  5
652
  8
PATTERN_FILL
  6
CONTINUOUS
 62
     7
 10
483.5
 20
325.0
 30
0.0
 40
3.25
  0
CIRCLE
  5
653
  8
PATTERN_FILL
  6
CONTINUOUS
 62
     7
 10
499.5
 20
325.0
 30
0.0
 40
3.25
  0
CIRCLE
  5
654
  8
PATTERN_FILL
  6
CONTINUOUS
 62
     7
 10
515.50000000000011
 20
325.0
 30
0.0
 40
3.25
  0
CIRCLE
  5
655
  8
PATTERN_FILL
  6
CONTINUOUS
 62
     7
 10
179.5
 20
325.0
 30
0.0
 40
3.25
  0
CIRCLE
  5
656
  8
PATTERN_FILL
  6
CONTINUOUS
 62
     7
 10
195.5
 20
325.0
 30
0.0
 40
3.25
  0
CIRCLE
  5
657
  8
PATTERN_FILL
  6
CONTINUOUS
 62
     7
 10
211.5
 20
325.0
 30
0.0
 40
3.25
  0
CIRCLE
  5
658
  8
PATTERN_FILL
  6
CONTINUOUS
 62
     7
 10
227.5
 20
325.0
 30
0.0
 40
3.25
  0
CIRCLE
  5
659
  8
PATTERN_FILL
  6
CONTINUOUS
 62
     7
 10
243.5
 20
325.0
 30
0.0
 40
3.25
  0
CIRCLE
  5
65A
  8
PATTERN_FILL
  6
CONTINUOUS
 62
     7
 10
259.5
 20
325.0
 30
0.0
 40
3.25
  0
CIRCLE
  5
65B
  8
PATTERN_FILL
  6
CONTINUOUS
 62
     7
 10
275.5
 20
325.0
 30
0.0
 40
3.25
  0
CIRCLE
  5
65C
  8
PATTERN_FILL
  6
CONTINUOUS
 62
     7
 10
291.5
 20
325.0
 30
0.0
 40
3.25
  0
CIRCLE
  5
65D
  8
PATTERN_FILL
  6
CONTINUOUS
 62
     7
 10
307.5
 20
325.0
 30
0.0
 40
3.25
  0
CIRCLE
  5
65E
  8
PATTERN_FILL
  6
CONTINUOUS
 62
     7
 10
323.5
 20
311.0
 30
0.0
 40
3.25
  0
CIRCLE
  5
65F
  8
PATTERN_FILL
  6
CONTINUOUS
 62
     7
 10
339.5
 20
311.0
 30
0.0
 40
3.25
  0
CIRCLE
  5
660
  8
PATTERN_FILL
  6
CONTINUOUS
 62
     7
 10
355.5
 20
311.0
 30
0.0
 40
3.25
  0
CIRCLE
  5
661
  8
PATTERN_FILL
  6
CONTINUOUS
 62
     7
 10
371.5
 20
311.0
 30
0.0
 40
3.25
  0
CIRCLE
  5
662
  8
PATTERN_FILL
  6
CONTINUOUS
 62
     7
 10
387.5
 20
311.0
 30
0.0
 40
3.25
  0
CIRCLE
  5
663
  8
PATTERN_FILL
  6
CONTINUOUS
 62
     7
 10
403.50000000000011
 20
311.0
 30
0.0
 40
3.25
  0
CIRCLE
  5
664
  8
PATTERN_FILL
  6
CONTINUOUS
 62
     7
 10
163.5
 20
311.0
 30
0.0
 40
3.25
  0
CIRCLE
  5
665
  8
PATTERN_FILL
  6
CONTINUOUS
 62
     7
 10
147.5
 20
311.0
 30
0.0
 40
3.25
  0
CIRCLE
  5
666
  8
PATTERN_FILL
  6
CONTINUOUS
 62
     7
 10
131.5
 20
311.0
 30
0.0
 40
3.25
  0
CIRCLE
  5
667
  8
PATTERN_FILL
  6
CONTINUOUS
 62
     7
 10
115.5
 20
311.0
 30
0.0
 40
3.25
  0
CIRCLE
  5
668
  8
PATTERN_FILL
  6
CONTINUOUS
 62
     7
 10
99.500000000000014
 20
311.0
 30
0.0
 40
3.25
  0
CIRCLE
  5
669
  8
PATTERN_FILL
  6
CONTINUOUS
 62
     7
 10
83.499999999999986
 20
311.0
 30
0.0
 40
3.25
  0
CIRCLE
  5
66A
  8
PATTERN_FILL
  6
CONTINUOUS
 62
     7
 10
67.5
 20
311.0
 30
0.0
 40
3.25
  0
CIRCLE
  5
66B
  8
PATTERN_FILL
  6
CONTINUOUS
 62
     7
 10
51.5
 20
311.0
 30
0.0
 40
3.25
  0
CIRCLE
  5
66C
  8
PATTERN_FILL
  6
CONTINUOUS
 62
     7
 10
35.5
 20
311.0
 30
0.0
 40
3.25
  0
CIRCLE
  5
66D
  8
PATTERN_FILL
  6
CONTINUOUS
 62
     7
 10
19.5
 20
311.0
 30
0.0
 40
3.25
  0
CIRCLE
  5
66E
  8
PATTERN_FILL
  6
CONTINUOUS
 62
     7
 10
419.5
 20
311.0
 30
0.0
 40
3.25
  0
CIRCLE
  5
66F
  8
PATTERN_FILL
  6
CONTINUOUS
 62
     7
 10
435.5
 20
311.0
 30
0.0
 40
3.25
  0
CIRCLE
  5
670
  8
PATTERN_FILL
  6
CONTINUOUS
 62
     7
 10
451.5
 20
311.0
 30
0.0
 40
3.25
  0
CIRCLE
  5
671
  8
PATTERN_FILL
  6
CONTINUOUS
 62
     7
 10
467.5
 20
311.0
 30
0.0
 40
3.25
  0
CIRCLE
  5
672
  8
PATTERN_FILL
  6
CONTINUOUS
 62
     7
 10
483.5
 20
311.0
 30
0.0
 40
3.25
  0
CIRCLE
  5
673
  8
PATTERN_FILL
  6
CONTINUOUS
 62
     7
 10
499.5
 20
311.0
 30
0.0
 40
3.25
  0
CIRCLE
  5
674
  8
PATTERN_FILL
  6
CONTINUOUS
 62
     7
 10
515.50000000000011
 20
311.0
 30
0.0
 40
3.25
  0
CIRCLE
  5
675
  8
PATTERN_FILL
  6
CONTINUOUS
 62
     7
 10
179.5
 20
311.0
 30
0.0
 40
3.25
  0
CIRCLE
  5
676
  8
PATTERN_FILL
  6
CONTINUOUS
 62
     7
 10
195.5
 20
311.0
 30
0.0
 40
3.25
  0
CIRCLE
  5
677
  8
PATTERN_FILL
  6
CONTINUOUS
 62
     7
 10
211.5
 20
311.0
 30
0.0
 40
3.25
  0
CIRCLE
  5
678
  8
PATTERN_FILL
  6
CONTINUOUS
 62
     7
 10
227.5
 20
311.0
 30
0.0
 40
3.25
  0
CIRCLE
  5
679
  8
PATTERN_FILL
  6
CONTINUOUS
 62
     7
 10
243.5
 20
311.0
 30
0.0
 40
3.25
  0
CIRCLE
  5
67A
  8
PATTERN_FILL
  6
CONTINUOUS
 62
     7
 10
259.5
 20
311.0
 30
0.0
 40
3.25
  0
CIRCLE
  5
67B
  8
PATTERN_FILL
  6
CONTINUOUS
 62
     7
 10
275.5
 20
311.0
 30
0.0
 40
3.25
  0
CIRCLE
  5
67C
  8
PATTERN_FILL
  6
CONTINUOUS
 62
     7
 10
291.5
 20
311.0
 30
0.0
 40
3.25
  0
CIRCLE
  5
67D
  8
PATTERN_FILL
  6
CONTINUOUS
 62
     7
 10
307.5
 20
311.0
 30
0.0
 40
3.25
  0
CIRCLE
  5
67E
  8
PATTERN_FILL
  6
CONTINUOUS
 62
     7
 10
323.5
 20
297.0
 30
0.0
 40
3.25
  0
CIRCLE
  5
67F
  8
PATTERN_FILL
  6
CONTINUOUS
 62
     7
 10
339.5
 20
297.0
 30
0.0
 40
3.25
  0
CIRCLE
  5
680
  8
PATTERN_FILL
  6
CONTINUOUS
 62
     7
 10
355.5
 20
297.0
 30
0.0
 40
3.25
  0
CIRCLE
  5
681
  8
PATTERN_FILL
  6
CONTINUOUS
 62
     7
 10
371.5
 20
297.0
 30
0.0
 40
3.25
  0
CIRCLE
  5
682
  8
PATTERN_FILL
  6
CONTINUOUS
 62
     7
 10
387.5
 20
297.0
 30
0.0
 40
3.25
  0
CIRCLE
  5
683
  8
PATTERN_FILL
  6
CONTINUOUS
 62
     7
 10
403.50000000000011
 20
297.0
 30
0.0
 40
3.25
  0
CIRCLE
  5
684
  8
PATTERN_FILL
  6
CONTINUOUS
 62
     7
 10
163.5
 20
297.0
 30
0.0
 40
3.25
  0
CIRCLE
  5
685
  8
PATTERN_FILL
  6
CONTINUOUS
 62
     7
 10
147.5
 20
297.0
 30
0.0
 40
3.25
  0
CIRCLE
  5
686
  8
PATTERN_FILL
  6
CONTINUOUS
 62
     7
 10
131.5
 20
297.0
 30
0.0
 40
3.25
  0
CIRCLE
  5
687
  8
PATTERN_FILL
  6
CONTINUOUS
 62
     7
 10
115.5
 20
297.0
 30
0.0
 40
3.25
  0
CIRCLE
  5
688
  8
PATTERN_FILL
  6
CONTINUOUS
 62
     7
 10
99.500000000000014
 20
297.0
 30
0.0
 40
3.25
  0
CIRCLE
  5
689
  8
PATTERN_FILL
  6
CONTINUOUS
 62
     7
 10
83.499999999999986
 20
297.0
 30
0.0
 40
3.25
  0
CIRCLE
  5
68A
  8
PATTERN_FILL
  6
CONTINUOUS
 62
     7
 10
67.5
 20
297.0
 30
0.0
 40
3.25
  0
CIRCLE
  5
68B
  8
PATTERN_FILL
  6
CONTINUOUS
 62
     7
 10
51.5
 20
297.0
 30
0.0
 40
3.25
  0
CIRCLE
  5
68C
  8
PATTERN_FILL
  6
CONTINUOUS
 62
     7
 10
35.5
 20
297.0
 30
0.0
 40
3.25
  0
CIRCLE
  5
68D
  8
PATTERN_FILL
  6
CONTINUOUS
 62
     7
 10
19.5
 20
297.0
 30
0.0
 40
3.25
  0
CIRCLE
  5
68E
  8
PATTERN_FILL
  6
CONTINUOUS
 62
     7
 10
419.5
 20
297.0
 30
0.0
 40
3.25
  0
CIRCLE
  5
68F
  8
PATTERN_FILL
  6
CONTINUOUS
 62
     7
 10
435.5
 20
297.0
 30
0.0
 40
3.25
  0
CIRCLE
  5
690
  8
PATTERN_FILL
  6
CONTINUOUS
 62
     7
 10
451.5
 20
297.0
 30
0.0
 40
3.25
  0
CIRCLE
  5
691
  8
PATTERN_FILL
  6
CONTINUOUS
 62
     7
 10
467.5
 20
297.0
 30
0.0
 40
3.25
  0
CIRCLE
  5
692
  8
PATTERN_FILL
  6
CONTINUOUS
 62
     7
 10
483.5
 20
297.0
 30
0.0
 40
3.25
  0
CIRCLE
  5
693
  8
PATTERN_FILL
  6
CONTINUOUS
 62
     7
 10
499.5
 20
297.0
 30
0.0
 40
3.25
  0
CIRCLE
  5
694
  8
PATTERN_FILL
  6
CONTINUOUS
 62
     7
 10
515.50000000000011
 20
297.0
 30
0.0
 40
3.25
  0
CIRCLE
  5
695
  8
PATTERN_FILL
  6
CONTINUOUS
 62
     7
 10
179.5
 20
297.0
 30
0.0
 40
3.25
  0
CIRCLE
  5
696
  8
PATTERN_FILL
  6
CONTINUOUS
 62
     7
 10
195.5
 20
297.0
 30
0.0
 40
3.25
  0
CIRCLE
  5
697
  8
PATTERN_FILL
  6
CONTINUOUS
 62
     7
 10
211.5
 20
297.0
 30
0.0
 40
3.25
  0
CIRCLE
  5
698
  8
PATTERN_FILL
  6
CONTINUOUS
 62
     7
 10
227.5
 20
297.0
 30
0.0
 40
3.25
  0
CIRCLE
  5
699
  8
PATTERN_FILL
  6
CONTINUOUS
 62
     7
 10
243.5
 20
297.0
 30
0.0
 40
3.25
  0
CIRCLE
  5
69A
  8
PATTERN_FILL
  6
CONTINUOUS
 62
     7
 10
259.5
 20
297.0
 30
0.0
 40
3.25
  0
CIRCLE
  5
69B
  8
PATTERN_FILL
  6
CONTINUOUS
 62
     7
 10
275.5
 20
297.0
 30
0.0
 40
3.25
  0
CIRCLE
  5
69C
  8
PATTERN_FILL
  6
CONTINUOUS
 62
     7
 10
291.5
 20
297.0
 30
0.0
 40
3.25
  0
CIRCLE
  5
69D
  8
PATTERN_FILL
  6
CONTINUOUS
 62
     7
 10
307.5
 20
297.0
 30
0.0
 40
3.25
  0
CIRCLE
  5
69E
  8
PATTERN_FILL
  6
CONTINUOUS
 62
     7
 10
323.5
 20
283.0
 30
0.0
 40
3.25
  0
CIRCLE
  5
69F
  8
PATTERN_FILL
  6
CONTINUOUS
 62
     7
 10
339.5
 20
283.0
 30
0.0
 40
3.25
  0
CIRCLE
  5
6A0
  8
PATTERN_FILL
  6
CONTINUOUS
 62
     7
 10
355.5
 20
283.0
 30
0.0
 40
3.25
  0
CIRCLE
  5
6A1
  8
PATTERN_FILL
  6
CONTINUOUS
 62
     7
 10
371.5
 20
283.0
 30
0.0
 40
3.25
  0
CIRCLE
  5
6A2
  8
PATTERN_FILL
  6
CONTINUOUS
 62
     7
 10
387.5
 20
283.0
 30
0.0
 40
3.25
  0
CIRCLE
  5
6A3
  8
PATTERN_FILL
  6
CONTINUOUS
 62
     7
 10
403.50000000000011
 20
283.0
 30
0.0
 40
3.25
  0
CIRCLE
  5
6A4
  8
PATTERN_FILL
  6
CONTINUOUS
 62
     7
 10
163.5
 20
283.0
 30
0.0
 40
3.25
  0
CIRCLE
  5
6A5
  8
PATTERN_FILL
  6
CONTINUOUS
 62
     7
 10
147.5
 20
283.0
 30
0.0
 40
3.25
  0
CIRCLE
  5
6A6
  8
PATTERN_FILL
  6
CONTINUOUS
 62
     7
 10
131.5
 20
283.0
 30
0.0
 40
3.25
  0
CIRCLE
  5
6A7
  8
PATTERN_FILL
  6
CONTINUOUS
 62
     7
 10
115.5
 20
283.0
 30
0.0
 40
3.25
  0
CIRCLE
  5
6A8
  8
PATTERN_FILL
  6
CONTINUOUS
 62
     7
 10
99.500000000000014
 20
283.0
 30
0.0
 40
3.25
  0
CIRCLE
  5
6A9
  8
PATTERN_FILL
  6
CONTINUOUS
 62
     7
 10
83.499999999999986
 20
283.0
 30
0.0
 40
3.25
  0
CIRCLE
  5
6AA
  8
PATTERN_FILL
  6
CONTINUOUS
 62
     7
 10
67.5
 20
283.0
 30
0.0
 40
3.25
  0
CIRCLE
  5
6AB
  8
PATTERN_FILL
  6
CONTINUOUS
 62
     7
 10
51.5
 20
283.0
 30
0.0
 40
3.25
  0
CIRCLE
  5
6AC
  8
PATTERN_FILL
  6
CONTINUOUS
 62
     7
 10
35.5
 20
283.0
 30
0.0
 40
3.25
  0
CIRCLE
  5
6AD
  8
PATTERN_FILL
  6
CONTINUOUS
 62
     7
 10
19.5
 20
283.0
 30
0.0
 40
3.25
  0
CIRCLE
  5
6AE
  8
PATTERN_FILL
  6
CONTINUOUS
 62
     7
 10
419.5
 20
283.0
 30
0.0
 40
3.25
  0
CIRCLE
  5
6AF
  8
PATTERN_FILL
  6
CONTINUOUS
 62
     7
 10
435.5
 20
283.0
 30
0.0
 40
3.25
  0
CIRCLE
  5
6B0
  8
PATTERN_FILL
  6
CONTINUOUS
 62
     7
 10
451.5
 20
283.0
 30
0.0
 40
3.25
  0
CIRCLE
  5
6B1
  8
PATTERN_FILL
  6
CONTINUOUS
 62
     7
 10
467.5
 20
283.0
 30
0.0
 40
3.25
  0
CIRCLE
  5
6B2
  8
PATTERN_FILL
  6
CONTINUOUS
 62
     7
 10
483.5
 20
283.0
 30
0.0
 40
3.25
  0
CIRCLE
  5
6B3
  8
PATTERN_FILL
  6
CONTINUOUS
 62
     7
 10
499.5
 20
283.0
 30
0.0
 40
3.25
  0
CIRCLE
  5
6B4
  8
PATTERN_FILL
  6
CONTINUOUS
 62
     7
 10
515.50000000000011
 20
283.0
 30
0.0
 40
3.25
  0
CIRCLE
  5
6B5
  8
PATTERN_FILL
  6
CONTINUOUS
 62
     7
 10
179.5
 20
283.0
 30
0.0
 40
3.25
  0
CIRCLE
  5
6B6
  8
PATTERN_FILL
  6
CONTINUOUS
 62
     7
 10
195.5
 20
283.0
 30
0.0
 40
3.25
  0
CIRCLE
  5
6B7
  8
PATTERN_FILL
  6
CONTINUOUS
 62
     7
 10
211.5
 20
283.0
 30
0.0
 40
3.25
  0
CIRCLE
  5
6B8
  8
PATTERN_FILL
  6
CONTINUOUS
 62
     7
 10
227.5
 20
283.0
 30
0.0
 40
3.25
  0
CIRCLE
  5
6B9
  8
PATTERN_FILL
  6
CONTINUOUS
 62
     7
 10
243.5
 20
283.0
 30
0.0
 40
3.25
  0
CIRCLE
  5
6BA
  8
PATTERN_FILL
  6
CONTINUOUS
 62
     7
 10
259.5
 20
283.0
 30
0.0
 40
3.25
  0
CIRCLE
  5
6BB
  8
PATTERN_FILL
  6
CONTINUOUS
 62
     7
 10
275.5
 20
283.0
 30
0.0
 40
3.25
  0
CIRCLE
  5
6BC
  8
PATTERN_FILL
  6
CONTINUOUS
 62
     7
 10
291.5
 20
283.0
 30
0.0
 40
3.25
  0
CIRCLE
  5
6BD
  8
PATTERN_FILL
  6
CONTINUOUS
 62
     7
 10
307.5
 20
283.0
 30
0.0
 40
3.25
  0
CIRCLE
  5
6BE
  8
PATTERN_FILL
  6
CONTINUOUS
 62
     7
 10
323.5
 20
269.0
 30
0.0
 40
3.25
  0
CIRCLE
  5
6BF
  8
PATTERN_FILL
  6
CONTINUOUS
 62
     7
 10
339.5
 20
269.0
 30
0.0
 40
3.25
  0
CIRCLE
  5
6C0
  8
PATTERN_FILL
  6
CONTINUOUS
 62
     7
 10
355.5
 20
269.0
 30
0.0
 40
3.25
  0
CIRCLE
  5
6C1
  8
PATTERN_FILL
  6
CONTINUOUS
 62
     7
 10
371.5
 20
269.0
 30
0.0
 40
3.25
  0
CIRCLE
  5
6C2
  8
PATTERN_FILL
  6
CONTINUOUS
 62
     7
 10
387.5
 20
269.0
 30
0.0
 40
3.25
  0
CIRCLE
  5
6C3
  8
PATTERN_FILL
  6
CONTINUOUS
 62
     7
 10
403.50000000000011
 20
269.0
 30
0.0
 40
3.25
  0
CIRCLE
  5
6C4
  8
PATTERN_FILL
  6
CONTINUOUS
 62
     7
 10
163.5
 20
269.0
 30
0.0
 40
3.25
  0
CIRCLE
  5
6C5
  8
PATTERN_FILL
  6
CONTINUOUS
 62
     7
 10
147.5
 20
269.0
 30
0.0
 40
3.25
  0
CIRCLE
  5
6C6
  8
PATTERN_FILL
  6
CONTINUOUS
 62
     7
 10
131.5
 20
269.0
 30
0.0
 40
3.25
  0
CIRCLE
  5
6C7
  8
PATTERN_FILL
  6
CONTINUOUS
 62
     7
 10
115.5
 20
269.0
 30
0.0
 40
3.25
  0
CIRCLE
  5
6C8
  8
PATTERN_FILL
  6
CONTINUOUS
 62
     7
 10
99.500000000000014
 20
269.0
 30
0.0
 40
3.25
  0
CIRCLE
  5
6C9
  8
PATTERN_FILL
  6
CONTINUOUS
 62
     7
 10
83.499999999999986
 20
269.0
 30
0.0
 40
3.25
  0
CIRCLE
  5
6CA
  8
PATTERN_FILL
  6
CONTINUOUS
 62
     7
 10
67.5
 20
269.0
 30
0.0
 40
3.25
  0
CIRCLE
  5
6CB
  8
PATTERN_FILL
  6
CONTINUOUS
 62
     7
 10
51.5
 20
269.0
 30
0.0
 40
3.25
  0
CIRCLE
  5
6CC
  8
PATTERN_FILL
  6
CONTINUOUS
 62
     7
 10
35.5
 20
269.0
 30
0.0
 40
3.25
  0
CIRCLE
  5
6CD
  8
PATTERN_FILL
  6
CONTINUOUS
 62
     7
 10
19.5
 20
269.0
 30
0.0
 40
3.25
  0
CIRCLE
  5
6CE
  8
PATTERN_FILL
  6
CONTINUOUS
 62
     7
 10
419.5
 20
269.0
 30
0.0
 40
3.25
  0
CIRCLE
  5
6CF
  8
PATTERN_FILL
  6
CONTINUOUS
 62
     7
 10
435.5
 20
269.0
 30
0.0
 40
3.25
  0
CIRCLE
  5
6D0
  8
PATTERN_FILL
  6
CONTINUOUS
 62
     7
 10
451.5
 20
269.0
 30
0.0
 40
3.25
  0
CIRCLE
  5
6D1
  8
PATTERN_FILL
  6
CONTINUOUS
 62
     7
 10
467.5
 20
269.0
 30
0.0
 40
3.25
  0
CIRCLE
  5
6D2
  8
PATTERN_FILL
  6
CONTINUOUS
 62
     7
 10
483.5
 20
269.0
 30
0.0
 40
3.25
  0
CIRCLE
  5
6D3
  8
PATTERN_FILL
  6
CONTINUOUS
 62
     7
 10
499.5
 20
269.0
 30
0.0
 40
3.25
  0
CIRCLE
  5
6D4
  8
PATTERN_FILL
  6
CONTINUOUS
 62
     7
 10
515.50000000000011
 20
269.0
 30
0.0
 40
3.25
  0
CIRCLE
  5
6D5
  8
PATTERN_FILL
  6
CONTINUOUS
 62
     7
 10
179.5
 20
269.0
 30
0.0
 40
3.25
  0
CIRCLE
  5
6D6
  8
PATTERN_FILL
  6
CONTINUOUS
 62
     7
 10
195.5
 20
269.0
 30
0.0
 40
3.25
  0
CIRCLE
  5
6D7
  8
PATTERN_FILL
  6
CONTINUOUS
 62
     7
 10
211.5
 20
269.0
 30
0.0
 40
3.25
  0
CIRCLE
  5
6D8
  8
PATTERN_FILL
  6
CONTINUOUS
 62
     7
 10
227.5
 20
269.0
 30
0.0
 40
3.25
  0
CIRCLE
  5
6D9
  8
PATTERN_FILL
  6
CONTINUOUS
 62
     7
 10
243.5
 20
269.0
 30
0.0
 40
3.25
  0
CIRCLE
  5
6DA
  8
PATTERN_FILL
  6
CONTINUOUS
 62
     7
 10
259.5
 20
269.0
 30
0.0
 40
3.25
  0
CIRCLE
  5
6DB
  8
PATTERN_FILL
  6
CONTINUOUS
 62
     7
 10
275.5
 20
269.0
 30
0.0
 40
3.25
  0
CIRCLE
  5
6DC
  8
PATTERN_FILL
  6
CONTINUOUS
 62
     7
 10
291.5
 20
269.0
 30
0.0
 40
3.25
  0
CIRCLE
  5
6DD
  8
PATTERN_FILL
  6
CONTINUOUS
 62
     7
 10
307.5
 20
269.0
 30
0.0
 40
3.25
  0
CIRCLE
  5
6DE
  8
PATTERN_FILL
  6
CONTINUOUS
 62
     7
 10
323.5
 20
255.0
 30
0.0
 40
3.25
  0
CIRCLE
  5
6DF
  8
PATTERN_FILL
  6
CONTINUOUS
 62
     7
 10
339.5
 20
255.0
 30
0.0
 40
3.25
  0
CIRCLE
  5
6E0
  8
PATTERN_FILL
  6
CONTINUOUS
 62
     7
 10
355.5
 20
255.0
 30
0.0
 40
3.25
  0
CIRCLE
  5
6E1
  8
PATTERN_FILL
  6
CONTINUOUS
 62
     7
 10
371.5
 20
255.0
 30
0.0
 40
3.25
  0
CIRCLE
  5
6E2
  8
PATTERN_FILL
  6
CONTINUOUS
 62
     7
 10
387.5
 20
255.0
 30
0.0
 40
3.25
  0
CIRCLE
  5
6E3
  8
PATTERN_FILL
  6
CONTINUOUS
 62
     7
 10
403.50000000000011
 20
255.0
 30
0.0
 40
3.25
  0
CIRCLE
  5
6E4
  8
PATTERN_FILL
  6
CONTINUOUS
 62
     7
 10
163.5
 20
255.0
 30
0.0
 40
3.25
  0
CIRCLE
  5
6E5
  8
PATTERN_FILL
  6
CONTINUOUS
 62
     7
 10
147.5
 20
255.0
 30
0.0
 40
3.25
  0
CIRCLE
  5
6E6
  8
PATTERN_FILL
  6
CONTINUOUS
 62
     7
 10
131.5
 20
255.0
 30
0.0
 40
3.25
  0
CIRCLE
  5
6E7
  8
PATTERN_FILL
  6
CONTINUOUS
 62
     7
 10
115.5
 20
255.0
 30
0.0
 40
3.25
  0
CIRCLE
  5
6E8
  8
PATTERN_FILL
  6
CONTINUOUS
 62
     7
 10
99.500000000000014
 20
255.0
 30
0.0
 40
3.25
  0
CIRCLE
  5
6E9
  8
PATTERN_FILL
  6
CONTINUOUS
 62
     7
 10
83.499999999999986
 20
255.0
 30
0.0
 40
3.25
  0
CIRCLE
  5
6EA
  8
PATTERN_FILL
  6
CONTINUOUS
 62
     7
 10
67.5
 20
255.0
 30
0.0
 40
3.25
  0
CIRCLE
  5
6EB
  8
PATTERN_FILL
  6
CONTINUOUS
 62
     7
 10
51.5
 20
255.0
 30
0.0
 40
3.25
  0
CIRCLE
  5
6EC
  8
PATTERN_FILL
  6
CONTINUOUS
 62
     7
 10
35.5
 20
255.0
 30
0.0
 40
3.25
  0
CIRCLE
  5
6ED
  8
PATTERN_FILL
  6
CONTINUOUS
 62
     7
 10
19.5
 20
255.0
 30
0.0
 40
3.25
  0
CIRCLE
  5
6EE
  8
PATTERN_FILL
  6
CONTINUOUS
 62
     7
 10
419.5
 20
255.0
 30
0.0
 40
3.25
  0
CIRCLE
  5
6EF
  8
PATTERN_FILL
  6
CONTINUOUS
 62
     7
 10
435.5
 20
255.0
 30
0.0
 40
3.25
  0
CIRCLE
  5
6F0
  8
PATTERN_FILL
  6
CONTINUOUS
 62
     7
 10
451.5
 20
255.0
 30
0.0
 40
3.25
  0
CIRCLE
  5
6F1
  8
PATTERN_FILL
  6
CONTINUOUS
 62
     7
 10
467.5
 20
255.0
 30
0.0
 40
3.25
  0
CIRCLE
  5
6F2
  8
PATTERN_FILL
  6
CONTINUOUS
 62
     7
 10
483.5
 20
255.0
 30
0.0
 40
3.25
  0
CIRCLE
  5
6F3
  8
PATTERN_FILL
  6
CONTINUOUS
 62
     7
 10
499.5
 20
255.0
 30
0.0
 40
3.25
  0
CIRCLE
  5
6F4
  8
PATTERN_FILL
  6
CONTINUOUS
 62
     7
 10
515.50000000000011
 20
255.0
 30
0.0
 40
3.25
  0
CIRCLE
  5
6F5
  8
PATTERN_FILL
  6
CONTINUOUS
 62
     7
 10
179.5
 20
255.0
 30
0.0
 40
3.25
  0
CIRCLE
  5
6F6
  8
PATTERN_FILL
  6
CONTINUOUS
 62
     7
 10
195.5
 20
255.0
 30
0.0
 40
3.25
  0
CIRCLE
  5
6F7
  8
PATTERN_FILL
  6
CONTINUOUS
 62
     7
 10
211.5
 20
255.0
 30
0.0
 40
3.25
  0
CIRCLE
  5
6F8
  8
PATTERN_FILL
  6
CONTINUOUS
 62
     7
 10
227.5
 20
255.0
 30
0.0
 40
3.25
  0
CIRCLE
  5
6F9
  8
PATTERN_FILL
  6
CONTINUOUS
 62
     7
 10
243.5
 20
255.0
 30
0.0
 40
3.25
  0
CIRCLE
  5
6FA
  8
PATTERN_FILL
  6
CONTINUOUS
 62
     7
 10
259.5
 20
255.0
 30
0.0
 40
3.25
  0
CIRCLE
  5
6FB
  8
PATTERN_FILL
  6
CONTINUOUS
 62
     7
 10
275.5
 20
255.0
 30
0.0
 40
3.25
  0
CIRCLE
  5
6FC
  8
PATTERN_FILL
  6
CONTINUOUS
 62
     7
 10
291.5
 20
255.0
 30
0.0
 40
3.25
  0
CIRCLE
  5
6FD
  8
PATTERN_FILL
  6
CONTINUOUS
 62
     7
 10
307.5
 20
255.0
 30
0.0
 40
3.25
  0
CIRCLE
  5
6FE
  8
PATTERN_FILL
  6
CONTINUOUS
 62
     7
 10
323.5
 20
241.0
 30
0.0
 40
3.25
  0
CIRCLE
  5
6FF
  8
PATTERN_FILL
  6
CONTINUOUS
 62
     7
 10
339.5
 20
241.0
 30
0.0
 40
3.25
  0
CIRCLE
  5
700
  8
PATTERN_FILL
  6
CONTINUOUS
 62
     7
 10
355.5
 20
241.0
 30
0.0
 40
3.25
  0
CIRCLE
  5
701
  8
PATTERN_FILL
  6
CONTINUOUS
 62
     7
 10
371.5
 20
241.0
 30
0.0
 40
3.25
  0
CIRCLE
  5
702
  8
PATTERN_FILL
  6
CONTINUOUS
 62
     7
 10
387.5
 20
241.0
 30
0.0
 40
3.25
  0
CIRCLE
  5
703
  8
PATTERN_FILL
  6
CONTINUOUS
 62
     7
 10
403.50000000000011
 20
241.0
 30
0.0
 40
3.25
  0
CIRCLE
  5
704
  8
PATTERN_FILL
  6
CONTINUOUS
 62
     7
 10
163.5
 20
241.0
 30
0.0
 40
3.25
  0
CIRCLE
  5
705
  8
PATTERN_FILL
  6
CONTINUOUS
 62
     7
 10
147.5
 20
241.0
 30
0.0
 40
3.25
  0
CIRCLE
  5
706
  8
PATTERN_FILL
  6
CONTINUOUS
 62
     7
 10
131.5
 20
241.0
 30
0.0
 40
3.25
  0
CIRCLE
  5
707
  8
PATTERN_FILL
  6
CONTINUOUS
 62
     7
 10
115.5
 20
241.0
 30
0.0
 40
3.25
  0
CIRCLE
  5
708
  8
PATTERN_FILL
  6
CONTINUOUS
 62
     7
 10
99.500000000000014
 20
241.0
 30
0.0
 40
3.25
  0
CIRCLE
  5
709
  8
PATTERN_FILL
  6
CONTINUOUS
 62
     7
 10
83.499999999999986
 20
241.0
 30
0.0
 40
3.25
  0
CIRCLE
  5
70A
  8
PATTERN_FILL
  6
CONTINUOUS
 62
     7
 10
67.5
 20
241.0
 30
0.0
 40
3.25
  0
CIRCLE
  5
70B
  8
PATTERN_FILL
  6
CONTINUOUS
 62
     7
 10
51.5
 20
241.0
 30
0.0
 40
3.25
  0
CIRCLE
  5
70C
  8
PATTERN_FILL
  6
CONTINUOUS
 62
     7
 10
35.5
 20
241.0
 30
0.0
 40
3.25
  0
CIRCLE
  5
70D
  8
PATTERN_FILL
  6
CONTINUOUS
 62
     7
 10
19.5
 20
241.0
 30
0.0
 40
3.25
  0
CIRCLE
  5
70E
  8
PATTERN_FILL
  6
CONTINUOUS
 62
     7
 10
419.5
 20
241.0
 30
0.0
 40
3.25
  0
CIRCLE
  5
70F
  8
PATTERN_FILL
  6
CONTINUOUS
 62
     7
 10
435.5
 20
241.0
 30
0.0
 40
3.25
  0
CIRCLE
  5
710
  8
PATTERN_FILL
  6
CONTINUOUS
 62
     7
 10
451.5
 20
241.0
 30
0.0
 40
3.25
  0
CIRCLE
  5
711
  8
PATTERN_FILL
  6
CONTINUOUS
 62
     7
 10
467.5
 20
241.0
 30
0.0
 40
3.25
  0
CIRCLE
  5
712
  8
PATTERN_FILL
  6
CONTINUOUS
 62
     7
 10
483.5
 20
241.0
 30
0.0
 40
3.25
  0
CIRCLE
  5
713
  8
PATTERN_FILL
  6
CONTINUOUS
 62
     7
 10
499.5
 20
241.0
 30
0.0
 40
3.25
  0
CIRCLE
  5
714
  8
PATTERN_FILL
  6
CONTINUOUS
 62
     7
 10
515.50000000000011
 20
241.0
 30
0.0
 40
3.25
  0
CIRCLE
  5
715
  8
PATTERN_FILL
  6
CONTINUOUS
 62
     7
 10
179.5
 20
241.0
 30
0.0
 40
3.25
  0
CIRCLE
  5
716
  8
PATTERN_FILL
  6
CONTINUOUS
 62
     7
 10
195.5
 20
241.0
 30
0.0
 40
3.25
  0
CIRCLE
  5
717
  8
PATTERN_FILL
  6
CONTINUOUS
 62
     7
 10
211.5
 20
241.0
 30
0.0
 40
3.25
  0
CIRCLE
  5
718
  8
PATTERN_FILL
  6
CONTINUOUS
 62
     7
 10
227.5
 20
241.0
 30
0.0
 40
3.25
  0
CIRCLE
  5
719
  8
PATTERN_FILL
  6
CONTINUOUS
 62
     7
 10
243.5
 20
241.0
 30
0.0
 40
3.25
  0
CIRCLE
  5
71A
  8
PATTERN_FILL
  6
CONTINUOUS
 62
     7
 10
259.5
 20
241.0
 30
0.0
 40
3.25
  0
CIRCLE
  5
71B
  8
PATTERN_FILL
  6
CONTINUOUS
 62
     7
 10
275.5
 20
241.0
 30
0.0
 40
3.25
  0
CIRCLE
  5
71C
  8
PATTERN_FILL
  6
CONTINUOUS
 62
     7
 10
291.5
 20
241.0
 30
0.0
 40
3.25
  0
CIRCLE
  5
71D
  8
PATTERN_FILL
  6
CONTINUOUS
 62
     7
 10
307.5
 20
241.0
 30
0.0
 40
3.25
  0
CIRCLE
  5
71E
  8
PATTERN_FILL
  6
CONTINUOUS
 62
     7
 10
323.5
 20
227.0
 30
0.0
 40
3.25
  0
CIRCLE
  5
71F
  8
PATTERN_FILL
  6
CONTINUOUS
 62
     7
 10
339.5
 20
227.0
 30
0.0
 40
3.25
  0
CIRCLE
  5
720
  8
PATTERN_FILL
  6
CONTINUOUS
 62
     7
 10
355.5
 20
227.0
 30
0.0
 40
3.25
  0
CIRCLE
  5
721
  8
PATTERN_FILL
  6
CONTINUOUS
 62
     7
 10
371.5
 20
227.0
 30
0.0
 40
3.25
  0
CIRCLE
  5
722
  8
PATTERN_FILL
  6
CONTINUOUS
 62
     7
 10
387.5
 20
227.0
 30
0.0
 40
3.25
  0
CIRCLE
  5
723
  8
PATTERN_FILL
  6
CONTINUOUS
 62
     7
 10
403.50000000000011
 20
227.0
 30
0.0
 40
3.25
  0
CIRCLE
  5
724
  8
PATTERN_FILL
  6
CONTINUOUS
 62
     7
 10
163.5
 20
227.0
 30
0.0
 40
3.25
  0
CIRCLE
  5
725
  8
PATTERN_FILL
  6
CONTINUOUS
 62
     7
 10
147.5
 20
227.0
 30
0.0
 40
3.25
  0
CIRCLE
  5
726
  8
PATTERN_FILL
  6
CONTINUOUS
 62
     7
 10
131.5
 20
227.0
 30
0.0
 40
3.25
  0
CIRCLE
  5
727
  8
PATTERN_FILL
  6
CONTINUOUS
 62
     7
 10
115.5
 20
227.0
 30
0.0
 40
3.25
  0
CIRCLE
  5
728
  8
PATTERN_FILL
  6
CONTINUOUS
 62
     7
 10
99.500000000000014
 20
227.0
 30
0.0
 40
3.25
  0
CIRCLE
  5
729
  8
PATTERN_FILL
  6
CONTINUOUS
 62
     7
 10
83.499999999999986
 20
227.0
 30
0.0
 40
3.25
  0
CIRCLE
  5
72A
  8
PATTERN_FILL
  6
CONTINUOUS
 62
     7
 10
67.5
 20
227.0
 30
0.0
 40
3.25
  0
CIRCLE
  5
72B
  8
PATTERN_FILL
  6
CONTINUOUS
 62
     7
 10
51.5
 20
227.0
 30
0.0
 40
3.25
  0
CIRCLE
  5
72C
  8
PATTERN_FILL
  6
CONTINUOUS
 62
     7
 10
35.5
 20
227.0
 30
0.0
 40
3.25
  0
CIRCLE
  5
72D
  8
PATTERN_FILL
  6
CONTINUOUS
 62
     7
 10
19.5
 20
227.0
 30
0.0
 40
3.25
  0
CIRCLE
  5
72E
  8
PATTERN_FILL
  6
CONTINUOUS
 62
     7
 10
419.5
 20
227.0
 30
0.0
 40
3.25
  0
CIRCLE
  5
72F
  8
PATTERN_FILL
  6
CONTINUOUS
 62
     7
 10
435.5
 20
227.0
 30
0.0
 40
3.25
  0
CIRCLE
  5
730
  8
PATTERN_FILL
  6
CONTINUOUS
 62
     7
 10
451.5
 20
227.0
 30
0.0
 40
3.25
  0
CIRCLE
  5
731
  8
PATTERN_FILL
  6
CONTINUOUS
 62
     7
 10
467.5
 20
227.0
 30
0.0
 40
3.25
  0
CIRCLE
  5
732
  8
PATTERN_FILL
  6
CONTINUOUS
 62
     7
 10
483.5
 20
227.0
 30
0.0
 40
3.25
  0
CIRCLE
  5
733
  8
PATTERN_FILL
  6
CONTINUOUS
 62
     7
 10
499.5
 20
227.0
 30
0.0
 40
3.25
  0
CIRCLE
  5
734
  8
PATTERN_FILL
  6
CONTINUOUS
 62
     7
 10
515.50000000000011
 20
227.0
 30
0.0
 40
3.25
  0
CIRCLE
  5
735
  8
PATTERN_FILL
  6
CONTINUOUS
 62
     7
 10
179.5
 20
227.0
 30
0.0
 40
3.25
  0
CIRCLE
  5
736
  8
PATTERN_FILL
  6
CONTINUOUS
 62
     7
 10
195.5
 20
227.0
 30
0.0
 40
3.25
  0
CIRCLE
  5
737
  8
PATTERN_FILL
  6
CONTINUOUS
 62
     7
 10
211.5
 20
227.0
 30
0.0
 40
3.25
  0
CIRCLE
  5
738
  8
PATTERN_FILL
  6
CONTINUOUS
 62
     7
 10
227.5
 20
227.0
 30
0.0
 40
3.25
  0
CIRCLE
  5
739
  8
PATTERN_FILL
  6
CONTINUOUS
 62
     7
 10
243.5
 20
227.0
 30
0.0
 40
3.25
  0
CIRCLE
  5
73A
  8
PATTERN_FILL
  6
CONTINUOUS
 62
     7
 10
259.5
 20
227.0
 30
0.0
 40
3.25
  0
CIRCLE
  5
73B
  8
PATTERN_FILL
  6
CONTINUOUS
 62
     7
 10
275.5
 20
227.0
 30
0.0
 40
3.25
  0
CIRCLE
  5
73C
  8
PATTERN_FILL
  6
CONTINUOUS
 62
     7
 10
291.5
 20
227.0
 30
0.0
 40
3.25
  0
CIRCLE
  5
73D
  8
PATTERN_FILL
  6
CONTINUOUS
 62
     7
 10
307.5
 20
227.0
 30
0.0
 40
3.25
  0
CIRCLE
  5
73E
  8
PATTERN_FILL
  6
CONTINUOUS
 62
     7
 10
323.5
 20
213.0
 30
0.0
 40
3.25
  0
CIRCLE
  5
73F
  8
PATTERN_FILL
  6
CONTINUOUS
 62
     7
 10
339.5
 20
213.0
 30
0.0
 40
3.25
  0
CIRCLE
  5
740
  8
PATTERN_FILL
  6
CONTINUOUS
 62
     7
 10
355.5
 20
213.0
 30
0.0
 40
3.25
  0
CIRCLE
  5
741
  8
PATTERN_FILL
  6
CONTINUOUS
 62
     7
 10
371.5
 20
213.0
 30
0.0
 40
3.25
  0
CIRCLE
  5
742
  8
PATTERN_FILL
  6
CONTINUOUS
 62
     7
 10
387.5
 20
213.0
 30
0.0
 40
3.25
  0
CIRCLE
  5
743
  8
PATTERN_FILL
  6
CONTINUOUS
 62
     7
 10
403.50000000000011
 20
213.0
 30
0.0
 40
3.25
  0
CIRCLE
  5
744
  8
PATTERN_FILL
  6
CONTINUOUS
 62
     7
 10
163.5
 20
213.0
 30
0.0
 40
3.25
  0
CIRCLE
  5
745
  8
PATTERN_FILL
  6
CONTINUOUS
 62
     7
 10
147.5
 20
213.0
 30
0.0
 40
3.25
  0
CIRCLE
  5
746
  8
PATTERN_FILL
  6
CONTINUOUS
 62
     7
 10
131.5
 20
213.0
 30
0.0
 40
3.25
  0
CIRCLE
  5
747
  8
PATTERN_FILL
  6
CONTINUOUS
 62
     7
 10
115.5
 20
213.0
 30
0.0
 40
3.25
  0
CIRCLE
  5
748
  8
PATTERN_FILL
  6
CONTINUOUS
 62
     7
 10
99.500000000000014
 20
213.0
 30
0.0
 40
3.25
  0
CIRCLE
  5
749
  8
PATTERN_FILL
  6
CONTINUOUS
 62
     7
 10
83.499999999999986
 20
213.0
 30
0.0
 40
3.25
  0
CIRCLE
  5
74A
  8
PATTERN_FILL
  6
CONTINUOUS
 62
     7
 10
67.5
 20
213.0
 30
0.0
 40
3.25
  0
CIRCLE
  5
74B
  8
PATTERN_FILL
  6
CONTINUOUS
 62
     7
 10
51.5
 20
213.0
 30
0.0
 40
3.25
  0
CIRCLE
  5
74C
  8
PATTERN_FILL
  6
CONTINUOUS
 62
     7
 10
35.5
 20
213.0
 30
0.0
 40
3.25
  0
CIRCLE
  5
74D
  8
PATTERN_FILL
  6
CONTINUOUS
 62
     7
 10
19.5
 20
213.0
 30
0.0
 40
3.25
  0
CIRCLE
  5
74E
  8
PATTERN_FILL
  6
CONTINUOUS
 62
     7
 10
419.5
 20
213.0
 30
0.0
 40
3.25
  0
CIRCLE
  5
74F
  8
PATTERN_FILL
  6
CONTINUOUS
 62
     7
 10
435.5
 20
213.0
 30
0.0
 40
3.25
  0
CIRCLE
  5
750
  8
PATTERN_FILL
  6
CONTINUOUS
 62
     7
 10
451.5
 20
213.0
 30
0.0
 40
3.25
  0
CIRCLE
  5
751
  8
PATTERN_FILL
  6
CONTINUOUS
 62
     7
 10
467.5
 20
213.0
 30
0.0
 40
3.25
  0
CIRCLE
  5
752
  8
PATTERN_FILL
  6
CONTINUOUS
 62
     7
 10
483.5
 20
213.0
 30
0.0
 40
3.25
  0
CIRCLE
  5
753
  8
PATTERN_FILL
  6
CONTINUOUS
 62
     7
 10
499.5
 20
213.0
 30
0.0
 40
3.25
  0
CIRCLE
  5
754
  8
PATTERN_FILL
  6
CONTINUOUS
 62
     7
 10
515.50000000000011
 20
213.0
 30
0.0
 40
3.25
  0
CIRCLE
  5
755
  8
PATTERN_FILL
  6
CONTINUOUS
 62
     7
 10
179.5
 20
213.0
 30
0.0
 40
3.25
  0
CIRCLE
  5
756
  8
PATTERN_FILL
  6
CONTINUOUS
 62
     7
 10
195.5
 20
213.0
 30
0.0
 40
3.25
  0
CIRCLE
  5
757
  8
PATTERN_FILL
  6
CONTINUOUS
 62
     7
 10
211.5
 20
213.0
 30
0.0
 40
3.25
  0
CIRCLE
  5
758
  8
PATTERN_FILL
  6
CONTINUOUS
 62
     7
 10
227.5
 20
213.0
 30
0.0
 40
3.25
  0
CIRCLE
  5
759
  8
PATTERN_FILL
  6
CONTINUOUS
 62
     7
 10
243.5
 20
213.0
 30
0.0
 40
3.25
  0
CIRCLE
  5
75A
  8
PATTERN_FILL
  6
CONTINUOUS
 62
     7
 10
259.5
 20
213.0
 30
0.0
 40
3.25
  0
CIRCLE
  5
75B
  8
PATTERN_FILL
  6
CONTINUOUS
 62
     7
 10
275.5
 20
213.0
 30
0.0
 40
3.25
  0
CIRCLE
  5
75C
  8
PATTERN_FILL
  6
CONTINUOUS
 62
     7
 10
291.5
 20
213.0
 30
0.0
 40
3.25
  0
CIRCLE
  5
75D
  8
PATTERN_FILL
  6
CONTINUOUS
 62
     7
 10
307.5
 20
213.0
 30
0.0
 40
3.25
  0
CIRCLE
  5
75E
  8
PATTERN_FILL
  6
CONTINUOUS
 62
     7
 10
323.5
 20
199.0
 30
0.0
 40
3.25
  0
CIRCLE
  5
75F
  8
PATTERN_FILL
  6
CONTINUOUS
 62
     7
 10
339.5
 20
199.0
 30
0.0
 40
3.25
  0
CIRCLE
  5
760
  8
PATTERN_FILL
  6
CONTINUOUS
 62
     7
 10
355.5
 20
199.0
 30
0.0
 40
3.25
  0
CIRCLE
  5
761
  8
PATTERN_FILL
  6
CONTINUOUS
 62
     7
 10
371.5
 20
199.0
 30
0.0
 40
3.25
  0
CIRCLE
  5
762
  8
PATTERN_FILL
  6
CONTINUOUS
 62
     7
 10
387.5
 20
199.0
 30
0.0
 40
3.25
  0
CIRCLE
  5
763
  8
PATTERN_FILL
  6
CONTINUOUS
 62
     7
 10
403.50000000000011
 20
199.0
 30
0.0
 40
3.25
  0
CIRCLE
  5
764
  8
PATTERN_FILL
  6
CONTINUOUS
 62
     7
 10
163.5
 20
199.0
 30
0.0
 40
3.25
  0
CIRCLE
  5
765
  8
PATTERN_FILL
  6
CONTINUOUS
 62
     7
 10
147.5
 20
199.0
 30
0.0
 40
3.25
  0
CIRCLE
  5
766
  8
PATTERN_FILL
  6
CONTINUOUS
 62
     7
 10
131.5
 20
199.0
 30
0.0
 40
3.25
  0
CIRCLE
  5
767
  8
PATTERN_FILL
  6
CONTINUOUS
 62
     7
 10
115.5
 20
199.0
 30
0.0
 40
3.25
  0
CIRCLE
  5
768
  8
PATTERN_FILL
  6
CONTINUOUS
 62
     7
 10
99.500000000000014
 20
199.0
 30
0.0
 40
3.25
  0
CIRCLE
  5
769
  8
PATTERN_FILL
  6
CONTINUOUS
 62
     7
 10
83.499999999999986
 20
199.0
 30
0.0
 40
3.25
  0
CIRCLE
  5
76A
  8
PATTERN_FILL
  6
CONTINUOUS
 62
     7
 10
67.5
 20
199.0
 30
0.0
 40
3.25
  0
CIRCLE
  5
76B
  8
PATTERN_FILL
  6
CONTINUOUS
 62
     7
 10
51.5
 20
199.0
 30
0.0
 40
3.25
  0
CIRCLE
  5
76C
  8
PATTERN_FILL
  6
CONTINUOUS
 62
     7
 10
35.5
 20
199.0
 30
0.0
 40
3.25
  0
CIRCLE
  5
76D
  8
PATTERN_FILL
  6
CONTINUOUS
 62
     7
 10
19.5
 20
199.0
 30
0.0
 40
3.25
  0
CIRCLE
  5
76E
  8
PATTERN_FILL
  6
CONTINUOUS
 62
     7
 10
419.5
 20
199.0
 30
0.0
 40
3.25
  0
CIRCLE
  5
76F
  8
PATTERN_FILL
  6
CONTINUOUS
 62
     7
 10
435.5
 20
199.0
 30
0.0
 40
3.25
  0
CIRCLE
  5
770
  8
PATTERN_FILL
  6
CONTINUOUS
 62
     7
 10
451.5
 20
199.0
 30
0.0
 40
3.25
  0
CIRCLE
  5
771
  8
PATTERN_FILL
  6
CONTINUOUS
 62
     7
 10
467.5
 20
199.0
 30
0.0
 40
3.25
  0
CIRCLE
  5
772
  8
PATTERN_FILL
  6
CONTINUOUS
 62
     7
 10
483.5
 20
199.0
 30
0.0
 40
3.25
  0
CIRCLE
  5
773
  8
PATTERN_FILL
  6
CONTINUOUS
 62
     7
 10
499.5
 20
199.0
 30
0.0
 40
3.25
  0
CIRCLE
  5
774
  8
PATTERN_FILL
  6
CONTINUOUS
 62
     7
 10
515.50000000000011
 20
199.0
 30
0.0
 40
3.25
  0
CIRCLE
  5
775
  8
PATTERN_FILL
  6
CONTINUOUS
 62
     7
 10
179.5
 20
199.0
 30
0.0
 40
3.25
  0
CIRCLE
  5
776
  8
PATTERN_FILL
  6
CONTINUOUS
 62
     7
 10
195.5
 20
199.0
 30
0.0
 40
3.25
  0
CIRCLE
  5
777
  8
PATTERN_FILL
  6
CONTINUOUS
 62
     7
 10
211.5
 20
199.0
 30
0.0
 40
3.25
  0
CIRCLE
  5
778
  8
PATTERN_FILL
  6
CONTINUOUS
 62
     7
 10
227.5
 20
199.0
 30
0.0
 40
3.25
  0
CIRCLE
  5
779
  8
PATTERN_FILL
  6
CONTINUOUS
 62
     7
 10
243.5
 20
199.0
 30
0.0
 40
3.25
  0
CIRCLE
  5
77A
  8
PATTERN_FILL
  6
CONTINUOUS
 62
     7
 10
259.5
 20
199.0
 30
0.0
 40
3.25
  0
CIRCLE
  5
77B
  8
PATTERN_FILL
  6
CONTINUOUS
 62
     7
 10
275.5
 20
199.0
 30
0.0
 40
3.25
  0
CIRCLE
  5
77C
  8
PATTERN_FILL
  6
CONTINUOUS
 62
     7
 10
291.5
 20
199.0
 30
0.0
 40
3.25
  0
CIRCLE
  5
77D
  8
PATTERN_FILL
  6
CONTINUOUS
 62
     7
 10
307.5
 20
199.0
 30
0.0
 40
3.25
  0
CIRCLE
  5
77E
  8
PATTERN_FILL
  6
CONTINUOUS
 62
     7
 10
323.5
 20
185.0
 30
0.0
 40
3.25
  0
CIRCLE
  5
77F
  8
PATTERN_FILL
  6
CONTINUOUS
 62
     7
 10
339.5
 20
185.0
 30
0.0
 40
3.25
  0
CIRCLE
  5
780
  8
PATTERN_FILL
  6
CONTINUOUS
 62
     7
 10
355.5
 20
185.0
 30
0.0
 40
3.25
  0
CIRCLE
  5
781
  8
PATTERN_FILL
  6
CONTINUOUS
 62
     7
 10
371.5
 20
185.0
 30
0.0
 40
3.25
  0
CIRCLE
  5
782
  8
PATTERN_FILL
  6
CONTINUOUS
 62
     7
 10
387.5
 20
185.0
 30
0.0
 40
3.25
  0
CIRCLE
  5
783
  8
PATTERN_FILL
  6
CONTINUOUS
 62
     7
 10
403.50000000000011
 20
185.0
 30
0.0
 40
3.25
  0
CIRCLE
  5
784
  8
PATTERN_FILL
  6
CONTINUOUS
 62
     7
 10
163.5
 20
185.0
 30
0.0
 40
3.25
  0
CIRCLE
  5
785
  8
PATTERN_FILL
  6
CONTINUOUS
 62
     7
 10
147.5
 20
185.0
 30
0.0
 40
3.25
  0
CIRCLE
  5
786
  8
PATTERN_FILL
  6
CONTINUOUS
 62
     7
 10
131.5
 20
185.0
 30
0.0
 40
3.25
  0
CIRCLE
  5
787
  8
PATTERN_FILL
  6
CONTINUOUS
 62
     7
 10
115.5
 20
185.0
 30
0.0
 40
3.25
  0
CIRCLE
  5
788
  8
PATTERN_FILL
  6
CONTINUOUS
 62
     7
 10
99.500000000000014
 20
185.0
 30
0.0
 40
3.25
  0
CIRCLE
  5
789
  8
PATTERN_FILL
  6
CONTINUOUS
 62
     7
 10
83.499999999999986
 20
185.0
 30
0.0
 40
3.25
  0
CIRCLE
  5
78A
  8
PATTERN_FILL
  6
CONTINUOUS
 62
     7
 10
67.5
 20
185.0
 30
0.0
 40
3.25
  0
CIRCLE
  5
78B
  8
PATTERN_FILL
  6
CONTINUOUS
 62
     7
 10
51.5
 20
185.0
 30
0.0
 40
3.25
  0
CIRCLE
  5
78C
  8
PATTERN_FILL
  6
CONTINUOUS
 62
     7
 10
35.5
 20
185.0
 30
0.0
 40
3.25
  0
CIRCLE
  5
78D
  8
PATTERN_FILL
  6
CONTINUOUS
 62
     7
 10
19.5
 20
185.0
 30
0.0
 40
3.25
  0
CIRCLE
  5
78E
  8
PATTERN_FILL
  6
CONTINUOUS
 62
     7
 10
419.5
 20
185.0
 30
0.0
 40
3.25
  0
CIRCLE
  5
78F
  8
PATTERN_FILL
  6
CONTINUOUS
 62
     7
 10
435.5
 20
185.0
 30
0.0
 40
3.25
  0
CIRCLE
  5
790
  8
PATTERN_FILL
  6
CONTINUOUS
 62
     7
 10
451.5
 20
185.0
 30
0.0
 40
3.25
  0
CIRCLE
  5
791
  8
PATTERN_FILL
  6
CONTINUOUS
 62
     7
 10
467.5
 20
185.0
 30
0.0
 40
3.25
  0
CIRCLE
  5
792
  8
PATTERN_FILL
  6
CONTINUOUS
 62
     7
 10
483.5
 20
185.0
 30
0.0
 40
3.25
  0
CIRCLE
  5
793
  8
PATTERN_FILL
  6
CONTINUOUS
 62
     7
 10
499.5
 20
185.0
 30
0.0
 40
3.25
  0
CIRCLE
  5
794
  8
PATTERN_FILL
  6
CONTINUOUS
 62
     7
 10
515.50000000000011
 20
185.0
 30
0.0
 40
3.25
  0
CIRCLE
  5
795
  8
PATTERN_FILL
  6
CONTINUOUS
 62
     7
 10
179.5
 20
185.0
 30
0.0
 40
3.25
  0
CIRCLE
  5
796
  8
PATTERN_FILL
  6
CONTINUOUS
 62
     7
 10
195.5
 20
185.0
 30
0.0
 40
3.25
  0
CIRCLE
  5
797
  8
PATTERN_FILL
  6
CONTINUOUS
 62
     7
 10
211.5
 20
185.0
 30
0.0
 40
3.25
  0
CIRCLE
  5
798
  8
PATTERN_FILL
  6
CONTINUOUS
 62
     7
 10
227.5
 20
185.0
 30
0.0
 40
3.25
  0
CIRCLE
  5
799
  8
PATTERN_FILL
  6
CONTINUOUS
 62
     7
 10
243.5
 20
185.0
 30
0.0
 40
3.25
  0
CIRCLE
  5
79A
  8
PATTERN_FILL
  6
CONTINUOUS
 62
     7
 10
259.5
 20
185.0
 30
0.0
 40
3.25
  0
CIRCLE
  5
79B
  8
PATTERN_FILL
  6
CONTINUOUS
 62
     7
 10
275.5
 20
185.0
 30
0.0
 40
3.25
  0
CIRCLE
  5
79C
  8
PATTERN_FILL
  6
CONTINUOUS
 62
     7
 10
291.5
 20
185.0
 30
0.0
 40
3.25
  0
CIRCLE
  5
79D
  8
PATTERN_FILL
  6
CONTINUOUS
 62
     7
 10
307.5
 20
185.0
 30
0.0
 40
3.25
  0
CIRCLE
  5
79E
  8
PATTERN_FILL
  6
CONTINUOUS
 62
     7
 10
323.5
 20
171.0
 30
0.0
 40
3.25
  0
CIRCLE
  5
79F
  8
PATTERN_FILL
  6
CONTINUOUS
 62
     7
 10
339.5
 20
171.0
 30
0.0
 40
3.25
  0
CIRCLE
  5
7A0
  8
PATTERN_FILL
  6
CONTINUOUS
 62
     7
 10
355.5
 20
171.0
 30
0.0
 40
3.25
  0
CIRCLE
  5
7A1
  8
PATTERN_FILL
  6
CONTINUOUS
 62
     7
 10
371.5
 20
171.0
 30
0.0
 40
3.25
  0
CIRCLE
  5
7A2
  8
PATTERN_FILL
  6
CONTINUOUS
 62
     7
 10
387.5
 20
171.0
 30
0.0
 40
3.25
  0
CIRCLE
  5
7A3
  8
PATTERN_FILL
  6
CONTINUOUS
 62
     7
 10
403.50000000000011
 20
171.0
 30
0.0
 40
3.25
  0
CIRCLE
  5
7A4
  8
PATTERN_FILL
  6
CONTINUOUS
 62
     7
 10
163.5
 20
171.0
 30
0.0
 40
3.25
  0
CIRCLE
  5
7A5
  8
PATTERN_FILL
  6
CONTINUOUS
 62
     7
 10
147.5
 20
171.0
 30
0.0
 40
3.25
  0
CIRCLE
  5
7A6
  8
PATTERN_FILL
  6
CONTINUOUS
 62
     7
 10
131.5
 20
171.0
 30
0.0
 40
3.25
  0
CIRCLE
  5
7A7
  8
PATTERN_FILL
  6
CONTINUOUS
 62
     7
 10
115.5
 20
171.0
 30
0.0
 40
3.25
  0
CIRCLE
  5
7A8
  8
PATTERN_FILL
  6
CONTINUOUS
 62
     7
 10
99.500000000000014
 20
171.0
 30
0.0
 40
3.25
  0
CIRCLE
  5
7A9
  8
PATTERN_FILL
  6
CONTINUOUS
 62
     7
 10
83.499999999999986
 20
171.0
 30
0.0
 40
3.25
  0
CIRCLE
  5
7AA
  8
PATTERN_FILL
  6
CONTINUOUS
 62
     7
 10
67.5
 20
171.0
 30
0.0
 40
3.25
  0
CIRCLE
  5
7AB
  8
PATTERN_FILL
  6
CONTINUOUS
 62
     7
 10
51.5
 20
171.0
 30
0.0
 40
3.25
  0
CIRCLE
  5
7AC
  8
PATTERN_FILL
  6
CONTINUOUS
 62
     7
 10
35.5
 20
171.0
 30
0.0
 40
3.25
  0
CIRCLE
  5
7AD
  8
PATTERN_FILL
  6
CONTINUOUS
 62
     7
 10
19.5
 20
171.0
 30
0.0
 40
3.25
  0
CIRCLE
  5
7AE
  8
PATTERN_FILL
  6
CONTINUOUS
 62
     7
 10
419.5
 20
171.0
 30
0.0
 40
3.25
  0
CIRCLE
  5
7AF
  8
PATTERN_FILL
  6
CONTINUOUS
 62
     7
 10
435.5
 20
171.0
 30
0.0
 40
3.25
  0
CIRCLE
  5
7B0
  8
PATTERN_FILL
  6
CONTINUOUS
 62
     7
 10
451.5
 20
171.0
 30
0.0
 40
3.25
  0
CIRCLE
  5
7B1
  8
PATTERN_FILL
  6
CONTINUOUS
 62
     7
 10
467.5
 20
171.0
 30
0.0
 40
3.25
  0
CIRCLE
  5
7B2
  8
PATTERN_FILL
  6
CONTINUOUS
 62
     7
 10
483.5
 20
171.0
 30
0.0
 40
3.25
  0
CIRCLE
  5
7B3
  8
PATTERN_FILL
  6
CONTINUOUS
 62
     7
 10
499.5
 20
171.0
 30
0.0
 40
3.25
  0
CIRCLE
  5
7B4
  8
PATTERN_FILL
  6
CONTINUOUS
 62
     7
 10
515.50000000000011
 20
171.0
 30
0.0
 40
3.25
  0
CIRCLE
  5
7B5
  8
PATTERN_FILL
  6
CONTINUOUS
 62
     7
 10
179.5
 20
171.0
 30
0.0
 40
3.25
  0
CIRCLE
  5
7B6
  8
PATTERN_FILL
  6
CONTINUOUS
 62
     7
 10
195.5
 20
171.0
 30
0.0
 40
3.25
  0
CIRCLE
  5
7B7
  8
PATTERN_FILL
  6
CONTINUOUS
 62
     7
 10
211.5
 20
171.0
 30
0.0
 40
3.25
  0
CIRCLE
  5
7B8
  8
PATTERN_FILL
  6
CONTINUOUS
 62
     7
 10
227.5
 20
171.0
 30
0.0
 40
3.25
  0
CIRCLE
  5
7B9
  8
PATTERN_FILL
  6
CONTINUOUS
 62
     7
 10
243.5
 20
171.0
 30
0.0
 40
3.25
  0
CIRCLE
  5
7BA
  8
PATTERN_FILL
  6
CONTINUOUS
 62
     7
 10
259.5
 20
171.0
 30
0.0
 40
3.25
  0
CIRCLE
  5
7BB
  8
PATTERN_FILL
  6
CONTINUOUS
 62
     7
 10
275.5
 20
171.0
 30
0.0
 40
3.25
  0
CIRCLE
  5
7BC
  8
PATTERN_FILL
  6
CONTINUOUS
 62
     7
 10
291.5
 20
171.0
 30
0.0
 40
3.25
  0
CIRCLE
  5
7BD
  8
PATTERN_FILL
  6
CONTINUOUS
 62
     7
 10
307.5
 20
171.0
 30
0.0
 40
3.25
  0
CIRCLE
  5
7BE
  8
PATTERN_FILL
  6
CONTINUOUS
 62
     7
 10
323.5
 20
157.0
 30
0.0
 40
3.25
  0
CIRCLE
  5
7BF
  8
PATTERN_FILL
  6
CONTINUOUS
 62
     7
 10
339.5
 20
157.0
 30
0.0
 40
3.25
  0
CIRCLE
  5
7C0
  8
PATTERN_FILL
  6
CONTINUOUS
 62
     7
 10
355.5
 20
157.0
 30
0.0
 40
3.25
  0
CIRCLE
  5
7C1
  8
PATTERN_FILL
  6
CONTINUOUS
 62
     7
 10
371.5
 20
157.0
 30
0.0
 40
3.25
  0
CIRCLE
  5
7C2
  8
PATTERN_FILL
  6
CONTINUOUS
 62
     7
 10
387.5
 20
157.0
 30
0.0
 40
3.25
  0
CIRCLE
  5
7C3
  8
PATTERN_FILL
  6
CONTINUOUS
 62
     7
 10
403.50000000000011
 20
157.0
 30
0.0
 40
3.25
  0
CIRCLE
  5
7C4
  8
PATTERN_FILL
  6
CONTINUOUS
 62
     7
 10
163.5
 20
157.0
 30
0.0
 40
3.25
  0
CIRCLE
  5
7C5
  8
PATTERN_FILL
  6
CONTINUOUS
 62
     7
 10
147.5
 20
157.0
 30
0.0
 40
3.25
  0
CIRCLE
  5
7C6
  8
PATTERN_FILL
  6
CONTINUOUS
 62
     7
 10
131.5
 20
157.0
 30
0.0
 40
3.25
  0
CIRCLE
  5
7C7
  8
PATTERN_FILL
  6
CONTINUOUS
 62
     7
 10
115.5
 20
157.0
 30
0.0
 40
3.25
  0
CIRCLE
  5
7C8
  8
PATTERN_FILL
  6
CONTINUOUS
 62
     7
 10
99.500000000000014
 20
157.0
 30
0.0
 40
3.25
  0
CIRCLE
  5
7C9
  8
PATTERN_FILL
  6
CONTINUOUS
 62
     7
 10
83.499999999999986
 20
157.0
 30
0.0
 40
3.25
  0
CIRCLE
  5
7CA
  8
PATTERN_FILL
  6
CONTINUOUS
 62
     7
 10
67.5
 20
157.0
 30
0.0
 40
3.25
  0
CIRCLE
  5
7CB
  8
PATTERN_FILL
  6
CONTINUOUS
 62
     7
 10
51.5
 20
157.0
 30
0.0
 40
3.25
  0
CIRCLE
  5
7CC
  8
PATTERN_FILL
  6
CONTINUOUS
 62
     7
 10
35.5
 20
157.0
 30
0.0
 40
3.25
  0
CIRCLE
  5
7CD
  8
PATTERN_FILL
  6
CONTINUOUS
 62
     7
 10
19.5
 20
157.0
 30
0.0
 40
3.25
  0
CIRCLE
  5
7CE
  8
PATTERN_FILL
  6
CONTINUOUS
 62
     7
 10
419.5
 20
157.0
 30
0.0
 40
3.25
  0
CIRCLE
  5
7CF
  8
PATTERN_FILL
  6
CONTINUOUS
 62
     7
 10
435.5
 20
157.0
 30
0.0
 40
3.25
  0
CIRCLE
  5
7D0
  8
PATTERN_FILL
  6
CONTINUOUS
 62
     7
 10
451.5
 20
157.0
 30
0.0
 40
3.25
  0
CIRCLE
  5
7D1
  8
PATTERN_FILL
  6
CONTINUOUS
 62
     7
 10
467.5
 20
157.0
 30
0.0
 40
3.25
  0
CIRCLE
  5
7D2
  8
PATTERN_FILL
  6
CONTINUOUS
 62
     7
 10
483.5
 20
157.0
 30
0.0
 40
3.25
  0
CIRCLE
  5
7D3
  8
PATTERN_FILL
  6
CONTINUOUS
 62
     7
 10
499.5
 20
157.0
 30
0.0
 40
3.25
  0
CIRCLE
  5
7D4
  8
PATTERN_FILL
  6
CONTINUOUS
 62
     7
 10
515.50000000000011
 20
157.0
 30
0.0
 40
3.25
  0
CIRCLE
  5
7D5
  8
PATTERN_FILL
  6
CONTINUOUS
 62
     7
 10
179.5
 20
157.0
 30
0.0
 40
3.25
  0
CIRCLE
  5
7D6
  8
PATTERN_FILL
  6
CONTINUOUS
 62
     7
 10
195.5
 20
157.0
 30
0.0
 40
3.25
  0
CIRCLE
  5
7D7
  8
PATTERN_FILL
  6
CONTINUOUS
 62
     7
 10
211.5
 20
157.0
 30
0.0
 40
3.25
  0
CIRCLE
  5
7D8
  8
PATTERN_FILL
  6
CONTINUOUS
 62
     7
 10
227.5
 20
157.0
 30
0.0
 40
3.25
  0
CIRCLE
  5
7D9
  8
PATTERN_FILL
  6
CONTINUOUS
 62
     7
 10
243.5
 20
157.0
 30
0.0
 40
3.25
  0
CIRCLE
  5
7DA
  8
PATTERN_FILL
  6
CONTINUOUS
 62
     7
 10
259.5
 20
157.0
 30
0.0
 40
3.25
  0
CIRCLE
  5
7DB
  8
PATTERN_FILL
  6
CONTINUOUS
 62
     7
 10
275.5
 20
157.0
 30
0.0
 40
3.25
  0
CIRCLE
  5
7DC
  8
PATTERN_FILL
  6
CONTINUOUS
 62
     7
 10
291.5
 20
157.0
 30
0.0
 40
3.25
  0
CIRCLE
  5
7DD
  8
PATTERN_FILL
  6
CONTINUOUS
 62
     7
 10
307.5
 20
157.0
 30
0.0
 40
3.25
  0
CIRCLE
  5
7DE
  8
PATTERN_FILL
  6
CONTINUOUS
 62
     7
 10
323.5
 20
143.0
 30
0.0
 40
3.25
  0
CIRCLE
  5
7DF
  8
PATTERN_FILL
  6
CONTINUOUS
 62
     7
 10
339.5
 20
143.0
 30
0.0
 40
3.25
  0
CIRCLE
  5
7E0
  8
PATTERN_FILL
  6
CONTINUOUS
 62
     7
 10
355.5
 20
143.0
 30
0.0
 40
3.25
  0
CIRCLE
  5
7E1
  8
PATTERN_FILL
  6
CONTINUOUS
 62
     7
 10
371.5
 20
143.0
 30
0.0
 40
3.25
  0
CIRCLE
  5
7E2
  8
PATTERN_FILL
  6
CONTINUOUS
 62
     7
 10
387.5
 20
143.0
 30
0.0
 40
3.25
  0
CIRCLE
  5
7E3
  8
PATTERN_FILL
  6
CONTINUOUS
 62
     7
 10
403.50000000000011
 20
143.0
 30
0.0
 40
3.25
  0
CIRCLE
  5
7E4
  8
PATTERN_FILL
  6
CONTINUOUS
 62
     7
 10
163.5
 20
143.0
 30
0.0
 40
3.25
  0
CIRCLE
  5
7E5
  8
PATTERN_FILL
  6
CONTINUOUS
 62
     7
 10
147.5
 20
143.0
 30
0.0
 40
3.25
  0
CIRCLE
  5
7E6
  8
PATTERN_FILL
  6
CONTINUOUS
 62
     7
 10
131.5
 20
143.0
 30
0.0
 40
3.25
  0
CIRCLE
  5
7E7
  8
PATTERN_FILL
  6
CONTINUOUS
 62
     7
 10
115.5
 20
143.0
 30
0.0
 40
3.25
  0
CIRCLE
  5
7E8
  8
PATTERN_FILL
  6
CONTINUOUS
 62
     7
 10
99.500000000000014
 20
143.0
 30
0.0
 40
3.25
  0
CIRCLE
  5
7E9
  8
PATTERN_FILL
  6
CONTINUOUS
 62
     7
 10
83.499999999999986
 20
143.0
 30
0.0
 40
3.25
  0
CIRCLE
  5
7EA
  8
PATTERN_FILL
  6
CONTINUOUS
 62
     7
 10
67.5
 20
143.0
 30
0.0
 40
3.25
  0
CIRCLE
  5
7EB
  8
PATTERN_FILL
  6
CONTINUOUS
 62
     7
 10
51.5
 20
143.0
 30
0.0
 40
3.25
  0
CIRCLE
  5
7EC
  8
PATTERN_FILL
  6
CONTINUOUS
 62
     7
 10
35.5
 20
143.0
 30
0.0
 40
3.25
  0
CIRCLE
  5
7ED
  8
PATTERN_FILL
  6
CONTINUOUS
 62
     7
 10
19.5
 20
143.0
 30
0.0
 40
3.25
  0
CIRCLE
  5
7EE
  8
PATTERN_FILL
  6
CONTINUOUS
 62
     7
 10
419.5
 20
143.0
 30
0.0
 40
3.25
  0
CIRCLE
  5
7EF
  8
PATTERN_FILL
  6
CONTINUOUS
 62
     7
 10
435.5
 20
143.0
 30
0.0
 40
3.25
  0
CIRCLE
  5
7F0
  8
PATTERN_FILL
  6
CONTINUOUS
 62
     7
 10
451.5
 20
143.0
 30
0.0
 40
3.25
  0
CIRCLE
  5
7F1
  8
PATTERN_FILL
  6
CONTINUOUS
 62
     7
 10
467.5
 20
143.0
 30
0.0
 40
3.25
  0
CIRCLE
  5
7F2
  8
PATTERN_FILL
  6
CONTINUOUS
 62
     7
 10
483.5
 20
143.0
 30
0.0
 40
3.25
  0
CIRCLE
  5
7F3
  8
PATTERN_FILL
  6
CONTINUOUS
 62
     7
 10
499.5
 20
143.0
 30
0.0
 40
3.25
  0
CIRCLE
  5
7F4
  8
PATTERN_FILL
  6
CONTINUOUS
 62
     7
 10
515.50000000000011
 20
143.0
 30
0.0
 40
3.25
  0
CIRCLE
  5
7F5
  8
PATTERN_FILL
  6
CONTINUOUS
 62
     7
 10
179.5
 20
143.0
 30
0.0
 40
3.25
  0
CIRCLE
  5
7F6
  8
PATTERN_FILL
  6
CONTINUOUS
 62
     7
 10
195.5
 20
143.0
 30
0.0
 40
3.25
  0
CIRCLE
  5
7F7
  8
PATTERN_FILL
  6
CONTINUOUS
 62
     7
 10
211.5
 20
143.0
 30
0.0
 40
3.25
  0
CIRCLE
  5
7F8
  8
PATTERN_FILL
  6
CONTINUOUS
 62
     7
 10
227.5
 20
143.0
 30
0.0
 40
3.25
  0
CIRCLE
  5
7F9
  8
PATTERN_FILL
  6
CONTINUOUS
 62
     7
 10
243.5
 20
143.0
 30
0.0
 40
3.25
  0
CIRCLE
  5
7FA
  8
PATTERN_FILL
  6
CONTINUOUS
 62
     7
 10
259.5
 20
143.0
 30
0.0
 40
3.25
  0
CIRCLE
  5
7FB
  8
PATTERN_FILL
  6
CONTINUOUS
 62
     7
 10
275.5
 20
143.0
 30
0.0
 40
3.25
  0
CIRCLE
  5
7FC
  8
PATTERN_FILL
  6
CONTINUOUS
 62
     7
 10
291.5
 20
143.0
 30
0.0
 40
3.25
  0
CIRCLE
  5
7FD
  8
PATTERN_FILL
  6
CONTINUOUS
 62
     7
 10
307.5
 20
143.0
 30
0.0
 40
3.25
  0
CIRCLE
  5
7FE
  8
PATTERN_FILL
  6
CONTINUOUS
 62
     7
 10
323.5
 20
129.0
 30
0.0
 40
3.25
  0
CIRCLE
  5
7FF
  8
PATTERN_FILL
  6
CONTINUOUS
 62
     7
 10
339.5
 20
129.0
 30
0.0
 40
3.25
  0
CIRCLE
  5
800
  8
PATTERN_FILL
  6
CONTINUOUS
 62
     7
 10
355.5
 20
129.0
 30
0.0
 40
3.25
  0
CIRCLE
  5
801
  8
PATTERN_FILL
  6
CONTINUOUS
 62
     7
 10
371.5
 20
129.0
 30
0.0
 40
3.25
  0
CIRCLE
  5
802
  8
PATTERN_FILL
  6
CONTINUOUS
 62
     7
 10
387.5
 20
129.0
 30
0.0
 40
3.25
  0
CIRCLE
  5
803
  8
PATTERN_FILL
  6
CONTINUOUS
 62
     7
 10
403.50000000000011
 20
129.0
 30
0.0
 40
3.25
  0
CIRCLE
  5
804
  8
PATTERN_FILL
  6
CONTINUOUS
 62
     7
 10
163.5
 20
129.0
 30
0.0
 40
3.25
  0
CIRCLE
  5
805
  8
PATTERN_FILL
  6
CONTINUOUS
 62
     7
 10
147.5
 20
129.0
 30
0.0
 40
3.25
  0
CIRCLE
  5
806
  8
PATTERN_FILL
  6
CONTINUOUS
 62
     7
 10
131.5
 20
129.0
 30
0.0
 40
3.25
  0
CIRCLE
  5
807
  8
PATTERN_FILL
  6
CONTINUOUS
 62
     7
 10
115.5
 20
129.0
 30
0.0
 40
3.25
  0
CIRCLE
  5
808
  8
PATTERN_FILL
  6
CONTINUOUS
 62
     7
 10
99.500000000000014
 20
129.0
 30
0.0
 40
3.25
  0
CIRCLE
  5
809
  8
PATTERN_FILL
  6
CONTINUOUS
 62
     7
 10
83.499999999999986
 20
129.0
 30
0.0
 40
3.25
  0
CIRCLE
  5
80A
  8
PATTERN_FILL
  6
CONTINUOUS
 62
     7
 10
67.5
 20
129.0
 30
0.0
 40
3.25
  0
CIRCLE
  5
80B
  8
PATTERN_FILL
  6
CONTINUOUS
 62
     7
 10
51.5
 20
129.0
 30
0.0
 40
3.25
  0
CIRCLE
  5
80C
  8
PATTERN_FILL
  6
CONTINUOUS
 62
     7
 10
35.5
 20
129.0
 30
0.0
 40
3.25
  0
CIRCLE
  5
80D
  8
PATTERN_FILL
  6
CONTINUOUS
 62
     7
 10
19.5
 20
129.0
 30
0.0
 40
3.25
  0
CIRCLE
  5
80E
  8
PATTERN_FILL
  6
CONTINUOUS
 62
     7
 10
419.5
 20
129.0
 30
0.0
 40
3.25
  0
CIRCLE
  5
80F
  8
PATTERN_FILL
  6
CONTINUOUS
 62
     7
 10
435.5
 20
129.0
 30
0.0
 40
3.25
  0
CIRCLE
  5
810
  8
PATTERN_FILL
  6
CONTINUOUS
 62
     7
 10
451.5
 20
129.0
 30
0.0
 40
3.25
  0
CIRCLE
  5
811
  8
PATTERN_FILL
  6
CONTINUOUS
 62
     7
 10
467.5
 20
129.0
 30
0.0
 40
3.25
  0
CIRCLE
  5
812
  8
PATTERN_FILL
  6
CONTINUOUS
 62
     7
 10
483.5
 20
129.0
 30
0.0
 40
3.25
  0
CIRCLE
  5
813
  8
PATTERN_FILL
  6
CONTINUOUS
 62
     7
 10
499.5
 20
129.0
 30
0.0
 40
3.25
  0
CIRCLE
  5
814
  8
PATTERN_FILL
  6
CONTINUOUS
 62
     7
 10
515.50000000000011
 20
129.0
 30
0.0
 40
3.25
  0
CIRCLE
  5
815
  8
PATTERN_FILL
  6
CONTINUOUS
 62
     7
 10
179.5
 20
129.0
 30
0.0
 40
3.25
  0
CIRCLE
  5
816
  8
PATTERN_FILL
  6
CONTINUOUS
 62
     7
 10
195.5
 20
129.0
 30
0.0
 40
3.25
  0
CIRCLE
  5
817
  8
PATTERN_FILL
  6
CONTINUOUS
 62
     7
 10
211.5
 20
129.0
 30
0.0
 40
3.25
  0
CIRCLE
  5
818
  8
PATTERN_FILL
  6
CONTINUOUS
 62
     7
 10
227.5
 20
129.0
 30
0.0
 40
3.25
  0
CIRCLE
  5
819
  8
PATTERN_FILL
  6
CONTINUOUS
 62
     7
 10
243.5
 20
129.0
 30
0.0
 40
3.25
  0
CIRCLE
  5
81A
  8
PATTERN_FILL
  6
CONTINUOUS
 62
     7
 10
259.5
 20
129.0
 30
0.0
 40
3.25
  0
CIRCLE
  5
81B
  8
PATTERN_FILL
  6
CONTINUOUS
 62
     7
 10
275.5
 20
129.0
 30
0.0
 40
3.25
  0
CIRCLE
  5
81C
  8
PATTERN_FILL
  6
CONTINUOUS
 62
     7
 10
291.5
 20
129.0
 30
0.0
 40
3.25
  0
CIRCLE
  5
81D
  8
PATTERN_FILL
  6
CONTINUOUS
 62
     7
 10
307.5
 20
129.0
 30
0.0
 40
3.25
  0
CIRCLE
  5
81E
  8
PATTERN_FILL
  6
CONTINUOUS
 62
     7
 10
323.5
 20
115.0
 30
0.0
 40
3.25
  0
CIRCLE
  5
81F
  8
PATTERN_FILL
  6
CONTINUOUS
 62
     7
 10
339.5
 20
115.0
 30
0.0
 40
3.25
  0
CIRCLE
  5
820
  8
PATTERN_FILL
  6
CONTINUOUS
 62
     7
 10
355.5
 20
115.0
 30
0.0
 40
3.25
  0
CIRCLE
  5
821
  8
PATTERN_FILL
  6
CONTINUOUS
 62
     7
 10
371.5
 20
115.0
 30
0.0
 40
3.25
  0
CIRCLE
  5
822
  8
PATTERN_FILL
  6
CONTINUOUS
 62
     7
 10
387.5
 20
115.0
 30
0.0
 40
3.25
  0
CIRCLE
  5
823
  8
PATTERN_FILL
  6
CONTINUOUS
 62
     7
 10
403.50000000000011
 20
115.0
 30
0.0
 40
3.25
  0
CIRCLE
  5
824
  8
PATTERN_FILL
  6
CONTINUOUS
 62
     7
 10
163.5
 20
115.0
 30
0.0
 40
3.25
  0
CIRCLE
  5
825
  8
PATTERN_FILL
  6
CONTINUOUS
 62
     7
 10
147.5
 20
115.0
 30
0.0
 40
3.25
  0
CIRCLE
  5
826
  8
PATTERN_FILL
  6
CONTINUOUS
 62
     7
 10
131.5
 20
115.0
 30
0.0
 40
3.25
  0
CIRCLE
  5
827
  8
PATTERN_FILL
  6
CONTINUOUS
 62
     7
 10
115.5
 20
115.0
 30
0.0
 40
3.25
  0
CIRCLE
  5
828
  8
PATTERN_FILL
  6
CONTINUOUS
 62
     7
 10
99.500000000000014
 20
115.0
 30
0.0
 40
3.25
  0
CIRCLE
  5
829
  8
PATTERN_FILL
  6
CONTINUOUS
 62
     7
 10
83.499999999999986
 20
115.0
 30
0.0
 40
3.25
  0
CIRCLE
  5
82A
  8
PATTERN_FILL
  6
CONTINUOUS
 62
     7
 10
67.5
 20
115.0
 30
0.0
 40
3.25
  0
CIRCLE
  5
82B
  8
PATTERN_FILL
  6
CONTINUOUS
 62
     7
 10
51.5
 20
115.0
 30
0.0
 40
3.25
  0
CIRCLE
  5
82C
  8
PATTERN_FILL
  6
CONTINUOUS
 62
     7
 10
35.5
 20
115.0
 30
0.0
 40
3.25
  0
CIRCLE
  5
82D
  8
PATTERN_FILL
  6
CONTINUOUS
 62
     7
 10
19.5
 20
115.0
 30
0.0
 40
3.25
  0
CIRCLE
  5
82E
  8
PATTERN_FILL
  6
CONTINUOUS
 62
     7
 10
419.5
 20
115.0
 30
0.0
 40
3.25
  0
CIRCLE
  5
82F
  8
PATTERN_FILL
  6
CONTINUOUS
 62
     7
 10
435.5
 20
115.0
 30
0.0
 40
3.25
  0
CIRCLE
  5
830
  8
PATTERN_FILL
  6
CONTINUOUS
 62
     7
 10
451.5
 20
115.0
 30
0.0
 40
3.25
  0
CIRCLE
  5
831
  8
PATTERN_FILL
  6
CONTINUOUS
 62
     7
 10
467.5
 20
115.0
 30
0.0
 40
3.25
  0
CIRCLE
  5
832
  8
PATTERN_FILL
  6
CONTINUOUS
 62
     7
 10
483.5
 20
115.0
 30
0.0
 40
3.25
  0
CIRCLE
  5
833
  8
PATTERN_FILL
  6
CONTINUOUS
 62
     7
 10
499.5
 20
115.0
 30
0.0
 40
3.25
  0
CIRCLE
  5
834
  8
PATTERN_FILL
  6
CONTINUOUS
 62
     7
 10
515.50000000000011
 20
115.0
 30
0.0
 40
3.25
  0
CIRCLE
  5
835
  8
PATTERN_FILL
  6
CONTINUOUS
 62
     7
 10
179.5
 20
115.0
 30
0.0
 40
3.25
  0
CIRCLE
  5
836
  8
PATTERN_FILL
  6
CONTINUOUS
 62
     7
 10
195.5
 20
115.0
 30
0.0
 40
3.25
  0
CIRCLE
  5
837
  8
PATTERN_FILL
  6
CONTINUOUS
 62
     7
 10
211.5
 20
115.0
 30
0.0
 40
3.25
  0
CIRCLE
  5
838
  8
PATTERN_FILL
  6
CONTINUOUS
 62
     7
 10
227.5
 20
115.0
 30
0.0
 40
3.25
  0
CIRCLE
  5
839
  8
PATTERN_FILL
  6
CONTINUOUS
 62
     7
 10
243.5
 20
115.0
 30
0.0
 40
3.25
  0
CIRCLE
  5
83A
  8
PATTERN_FILL
  6
CONTINUOUS
 62
     7
 10
259.5
 20
115.0
 30
0.0
 40
3.25
  0
CIRCLE
  5
83B
  8
PATTERN_FILL
  6
CONTINUOUS
 62
     7
 10
275.5
 20
115.0
 30
0.0
 40
3.25
  0
CIRCLE
  5
83C
  8
PATTERN_FILL
  6
CONTINUOUS
 62
     7
 10
291.5
 20
115.0
 30
0.0
 40
3.25
  0
CIRCLE
  5
83D
  8
PATTERN_FILL
  6
CONTINUOUS
 62
     7
 10
307.5
 20
115.0
 30
0.0
 40
3.25
  0
CIRCLE
  5
83E
  8
PATTERN_FILL
  6
CONTINUOUS
 62
     7
 10
323.5
 20
101.0
 30
0.0
 40
3.25
  0
CIRCLE
  5
83F
  8
PATTERN_FILL
  6
CONTINUOUS
 62
     7
 10
339.5
 20
101.0
 30
0.0
 40
3.25
  0
CIRCLE
  5
840
  8
PATTERN_FILL
  6
CONTINUOUS
 62
     7
 10
355.5
 20
101.0
 30
0.0
 40
3.25
  0
CIRCLE
  5
841
  8
PATTERN_FILL
  6
CONTINUOUS
 62
     7
 10
371.5
 20
101.0
 30
0.0
 40
3.25
  0
CIRCLE
  5
842
  8
PATTERN_FILL
  6
CONTINUOUS
 62
     7
 10
387.5
 20
101.0
 30
0.0
 40
3.25
  0
CIRCLE
  5
843
  8
PATTERN_FILL
  6
CONTINUOUS
 62
     7
 10
403.50000000000011
 20
101.0
 30
0.0
 40
3.25
  0
CIRCLE
  5
844
  8
PATTERN_FILL
  6
CONTINUOUS
 62
     7
 10
163.5
 20
101.0
 30
0.0
 40
3.25
  0
CIRCLE
  5
845
  8
PATTERN_FILL
  6
CONTINUOUS
 62
     7
 10
147.5
 20
101.0
 30
0.0
 40
3.25
  0
CIRCLE
  5
846
  8
PATTERN_FILL
  6
CONTINUOUS
 62
     7
 10
131.5
 20
101.0
 30
0.0
 40
3.25
  0
CIRCLE
  5
847
  8
PATTERN_FILL
  6
CONTINUOUS
 62
     7
 10
115.5
 20
101.0
 30
0.0
 40
3.25
  0
CIRCLE
  5
848
  8
PATTERN_FILL
  6
CONTINUOUS
 62
     7
 10
99.500000000000014
 20
101.0
 30
0.0
 40
3.25
  0
CIRCLE
  5
849
  8
PATTERN_FILL
  6
CONTINUOUS
 62
     7
 10
83.499999999999986
 20
101.0
 30
0.0
 40
3.25
  0
CIRCLE
  5
84A
  8
PATTERN_FILL
  6
CONTINUOUS
 62
     7
 10
67.5
 20
101.0
 30
0.0
 40
3.25
  0
CIRCLE
  5
84B
  8
PATTERN_FILL
  6
CONTINUOUS
 62
     7
 10
51.5
 20
101.0
 30
0.0
 40
3.25
  0
CIRCLE
  5
84C
  8
PATTERN_FILL
  6
CONTINUOUS
 62
     7
 10
35.5
 20
101.0
 30
0.0
 40
3.25
  0
CIRCLE
  5
84D
  8
PATTERN_FILL
  6
CONTINUOUS
 62
     7
 10
19.5
 20
101.0
 30
0.0
 40
3.25
  0
CIRCLE
  5
84E
  8
PATTERN_FILL
  6
CONTINUOUS
 62
     7
 10
419.5
 20
101.0
 30
0.0
 40
3.25
  0
CIRCLE
  5
84F
  8
PATTERN_FILL
  6
CONTINUOUS
 62
     7
 10
435.5
 20
101.0
 30
0.0
 40
3.25
  0
CIRCLE
  5
850
  8
PATTERN_FILL
  6
CONTINUOUS
 62
     7
 10
451.5
 20
101.0
 30
0.0
 40
3.25
  0
CIRCLE
  5
851
  8
PATTERN_FILL
  6
CONTINUOUS
 62
     7
 10
467.5
 20
101.0
 30
0.0
 40
3.25
  0
CIRCLE
  5
852
  8
PATTERN_FILL
  6
CONTINUOUS
 62
     7
 10
483.5
 20
101.0
 30
0.0
 40
3.25
  0
CIRCLE
  5
853
  8
PATTERN_FILL
  6
CONTINUOUS
 62
     7
 10
499.5
 20
101.0
 30
0.0
 40
3.25
  0
CIRCLE
  5
854
  8
PATTERN_FILL
  6
CONTINUOUS
 62
     7
 10
515.50000000000011
 20
101.0
 30
0.0
 40
3.25
  0
CIRCLE
  5
855
  8
PATTERN_FILL
  6
CONTINUOUS
 62
     7
 10
179.5
 20
101.0
 30
0.0
 40
3.25
  0
CIRCLE
  5
856
  8
PATTERN_FILL
  6
CONTINUOUS
 62
     7
 10
195.5
 20
101.0
 30
0.0
 40
3.25
  0
CIRCLE
  5
857
  8
PATTERN_FILL
  6
CONTINUOUS
 62
     7
 10
211.5
 20
101.0
 30
0.0
 40
3.25
  0
CIRCLE
  5
858
  8
PATTERN_FILL
  6
CONTINUOUS
 62
     7
 10
227.5
 20
101.0
 30
0.0
 40
3.25
  0
CIRCLE
  5
859
  8
PATTERN_FILL
  6
CONTINUOUS
 62
     7
 10
243.5
 20
101.0
 30
0.0
 40
3.25
  0
CIRCLE
  5
85A
  8
PATTERN_FILL
  6
CONTINUOUS
 62
     7
 10
259.5
 20
101.0
 30
0.0
 40
3.25
  0
CIRCLE
  5
85B
  8
PATTERN_FILL
  6
CONTINUOUS
 62
     7
 10
275.5
 20
101.0
 30
0.0
 40
3.25
  0
CIRCLE
  5
85C
  8
PATTERN_FILL
  6
CONTINUOUS
 62
     7
 10
291.5
 20
101.0
 30
0.0
 40
3.25
  0
CIRCLE
  5
85D
  8
PATTERN_FILL
  6
CONTINUOUS
 62
     7
 10
307.5
 20
101.0
 30
0.0
 40
3.25
  0
CIRCLE
  5
85E
  8
PATTERN_FILL
  6
CONTINUOUS
 62
     7
 10
323.5
 20
87.0
 30
0.0
 40
3.25
  0
CIRCLE
  5
85F
  8
PATTERN_FILL
  6
CONTINUOUS
 62
     7
 10
339.5
 20
87.0
 30
0.0
 40
3.25
  0
CIRCLE
  5
860
  8
PATTERN_FILL
  6
CONTINUOUS
 62
     7
 10
355.5
 20
87.0
 30
0.0
 40
3.25
  0
CIRCLE
  5
861
  8
PATTERN_FILL
  6
CONTINUOUS
 62
     7
 10
371.5
 20
87.0
 30
0.0
 40
3.25
  0
CIRCLE
  5
862
  8
PATTERN_FILL
  6
CONTINUOUS
 62
     7
 10
387.5
 20
87.0
 30
0.0
 40
3.25
  0
CIRCLE
  5
863
  8
PATTERN_FILL
  6
CONTINUOUS
 62
     7
 10
403.50000000000011
 20
87.0
 30
0.0
 40
3.25
  0
CIRCLE
  5
864
  8
PATTERN_FILL
  6
CONTINUOUS
 62
     7
 10
163.5
 20
87.0
 30
0.0
 40
3.25
  0
CIRCLE
  5
865
  8
PATTERN_FILL
  6
CONTINUOUS
 62
     7
 10
147.5
 20
87.0
 30
0.0
 40
3.25
  0
CIRCLE
  5
866
  8
PATTERN_FILL
  6
CONTINUOUS
 62
     7
 10
131.5
 20
87.0
 30
0.0
 40
3.25
  0
CIRCLE
  5
867
  8
PATTERN_FILL
  6
CONTINUOUS
 62
     7
 10
115.5
 20
87.0
 30
0.0
 40
3.25
  0
CIRCLE
  5
868
  8
PATTERN_FILL
  6
CONTINUOUS
 62
     7
 10
99.500000000000014
 20
87.0
 30
0.0
 40
3.25
  0
CIRCLE
  5
869
  8
PATTERN_FILL
  6
CONTINUOUS
 62
     7
 10
83.499999999999986
 20
87.0
 30
0.0
 40
3.25
  0
CIRCLE
  5
86A
  8
PATTERN_FILL
  6
CONTINUOUS
 62
     7
 10
67.5
 20
87.0
 30
0.0
 40
3.25
  0
CIRCLE
  5
86B
  8
PATTERN_FILL
  6
CONTINUOUS
 62
     7
 10
51.5
 20
87.0
 30
0.0
 40
3.25
  0
CIRCLE
  5
86C
  8
PATTERN_FILL
  6
CONTINUOUS
 62
     7
 10
35.5
 20
87.0
 30
0.0
 40
3.25
  0
CIRCLE
  5
86D
  8
PATTERN_FILL
  6
CONTINUOUS
 62
     7
 10
19.5
 20
87.0
 30
0.0
 40
3.25
  0
CIRCLE
  5
86E
  8
PATTERN_FILL
  6
CONTINUOUS
 62
     7
 10
419.5
 20
87.0
 30
0.0
 40
3.25
  0
CIRCLE
  5
86F
  8
PATTERN_FILL
  6
CONTINUOUS
 62
     7
 10
435.5
 20
87.0
 30
0.0
 40
3.25
  0
CIRCLE
  5
870
  8
PATTERN_FILL
  6
CONTINUOUS
 62
     7
 10
451.5
 20
87.0
 30
0.0
 40
3.25
  0
CIRCLE
  5
871
  8
PATTERN_FILL
  6
CONTINUOUS
 62
     7
 10
467.5
 20
87.0
 30
0.0
 40
3.25
  0
CIRCLE
  5
872
  8
PATTERN_FILL
  6
CONTINUOUS
 62
     7
 10
483.5
 20
87.0
 30
0.0
 40
3.25
  0
CIRCLE
  5
873
  8
PATTERN_FILL
  6
CONTINUOUS
 62
     7
 10
499.5
 20
87.0
 30
0.0
 40
3.25
  0
CIRCLE
  5
874
  8
PATTERN_FILL
  6
CONTINUOUS
 62
     7
 10
515.50000000000011
 20
87.0
 30
0.0
 40
3.25
  0
CIRCLE
  5
875
  8
PATTERN_FILL
  6
CONTINUOUS
 62
     7
 10
179.5
 20
87.0
 30
0.0
 40
3.25
  0
CIRCLE
  5
876
  8
PATTERN_FILL
  6
CONTINUOUS
 62
     7
 10
195.5
 20
87.0
 30
0.0
 40
3.25
  0
CIRCLE
  5
877
  8
PATTERN_FILL
  6
CONTINUOUS
 62
     7
 10
211.5
 20
87.0
 30
0.0
 40
3.25
  0
CIRCLE
  5
878
  8
PATTERN_FILL
  6
CONTINUOUS
 62
     7
 10
227.5
 20
87.0
 30
0.0
 40
3.25
  0
CIRCLE
  5
879
  8
PATTERN_FILL
  6
CONTINUOUS
 62
     7
 10
243.5
 20
87.0
 30
0.0
 40
3.25
  0
CIRCLE
  5
87A
  8
PATTERN_FILL
  6
CONTINUOUS
 62
     7
 10
259.5
 20
87.0
 30
0.0
 40
3.25
  0
CIRCLE
  5
87B
  8
PATTERN_FILL
  6
CONTINUOUS
 62
     7
 10
275.5
 20
87.0
 30
0.0
 40
3.25
  0
CIRCLE
  5
87C
  8
PATTERN_FILL
  6
CONTINUOUS
 62
     7
 10
291.5
 20
87.0
 30
0.0
 40
3.25
  0
CIRCLE
  5
87D
  8
PATTERN_FILL
  6
CONTINUOUS
 62
     7
 10
307.5
 20
87.0
 30
0.0
 40
3.25
  0
CIRCLE
  5
87E
  8
PATTERN_FILL
  6
CONTINUOUS
 62
     7
 10
323.5
 20
73.0
 30
0.0
 40
3.25
  0
CIRCLE
  5
87F
  8
PATTERN_FILL
  6
CONTINUOUS
 62
     7
 10
339.5
 20
73.0
 30
0.0
 40
3.25
  0
CIRCLE
  5
880
  8
PATTERN_FILL
  6
CONTINUOUS
 62
     7
 10
355.5
 20
73.0
 30
0.0
 40
3.25
  0
CIRCLE
  5
881
  8
PATTERN_FILL
  6
CONTINUOUS
 62
     7
 10
371.5
 20
73.0
 30
0.0
 40
3.25
  0
CIRCLE
  5
882
  8
PATTERN_FILL
  6
CONTINUOUS
 62
     7
 10
387.5
 20
73.0
 30
0.0
 40
3.25
  0
CIRCLE
  5
883
  8
PATTERN_FILL
  6
CONTINUOUS
 62
     7
 10
403.50000000000011
 20
73.0
 30
0.0
 40
3.25
  0
CIRCLE
  5
884
  8
PATTERN_FILL
  6
CONTINUOUS
 62
     7
 10
163.5
 20
73.0
 30
0.0
 40
3.25
  0
CIRCLE
  5
885
  8
PATTERN_FILL
  6
CONTINUOUS
 62
     7
 10
147.5
 20
73.0
 30
0.0
 40
3.25
  0
CIRCLE
  5
886
  8
PATTERN_FILL
  6
CONTINUOUS
 62
     7
 10
131.5
 20
73.0
 30
0.0
 40
3.25
  0
CIRCLE
  5
887
  8
PATTERN_FILL
  6
CONTINUOUS
 62
     7
 10
115.5
 20
73.0
 30
0.0
 40
3.25
  0
CIRCLE
  5
888
  8
PATTERN_FILL
  6
CONTINUOUS
 62
     7
 10
99.500000000000014
 20
73.0
 30
0.0
 40
3.25
  0
CIRCLE
  5
889
  8
PATTERN_FILL
  6
CONTINUOUS
 62
     7
 10
83.499999999999986
 20
73.0
 30
0.0
 40
3.25
  0
CIRCLE
  5
88A
  8
PATTERN_FILL
  6
CONTINUOUS
 62
     7
 10
67.5
 20
73.0
 30
0.0
 40
3.25
  0
CIRCLE
  5
88B
  8
PATTERN_FILL
  6
CONTINUOUS
 62
     7
 10
51.5
 20
73.0
 30
0.0
 40
3.25
  0
CIRCLE
  5
88C
  8
PATTERN_FILL
  6
CONTINUOUS
 62
     7
 10
35.5
 20
73.0
 30
0.0
 40
3.25
  0
CIRCLE
  5
88D
  8
PATTERN_FILL
  6
CONTINUOUS
 62
     7
 10
19.5
 20
73.0
 30
0.0
 40
3.25
  0
CIRCLE
  5
88E
  8
PATTERN_FILL
  6
CONTINUOUS
 62
     7
 10
419.5
 20
73.0
 30
0.0
 40
3.25
  0
CIRCLE
  5
88F
  8
PATTERN_FILL
  6
CONTINUOUS
 62
     7
 10
435.5
 20
73.0
 30
0.0
 40
3.25
  0
CIRCLE
  5
890
  8
PATTERN_FILL
  6
CONTINUOUS
 62
     7
 10
451.5
 20
73.0
 30
0.0
 40
3.25
  0
CIRCLE
  5
891
  8
PATTERN_FILL
  6
CONTINUOUS
 62
     7
 10
467.5
 20
73.0
 30
0.0
 40
3.25
  0
CIRCLE
  5
892
  8
PATTERN_FILL
  6
CONTINUOUS
 62
     7
 10
483.5
 20
73.0
 30
0.0
 40
3.25
  0
CIRCLE
  5
893
  8
PATTERN_FILL
  6
CONTINUOUS
 62
     7
 10
499.5
 20
73.0
 30
0.0
 40
3.25
  0
CIRCLE
  5
894
  8
PATTERN_FILL
  6
CONTINUOUS
 62
     7
 10
515.50000000000011
 20
73.0
 30
0.0
 40
3.25
  0
CIRCLE
  5
895
  8
PATTERN_FILL
  6
CONTINUOUS
 62
     7
 10
179.5
 20
73.0
 30
0.0
 40
3.25
  0
CIRCLE
  5
896
  8
PATTERN_FILL
  6
CONTINUOUS
 62
     7
 10
195.5
 20
73.0
 30
0.0
 40
3.25
  0
CIRCLE
  5
897
  8
PATTERN_FILL
  6
CONTINUOUS
 62
     7
 10
211.5
 20
73.0
 30
0.0
 40
3.25
  0
CIRCLE
  5
898
  8
PATTERN_FILL
  6
CONTINUOUS
 62
     7
 10
227.5
 20
73.0
 30
0.0
 40
3.25
  0
CIRCLE
  5
899
  8
PATTERN_FILL
  6
CONTINUOUS
 62
     7
 10
243.5
 20
73.0
 30
0.0
 40
3.25
  0
CIRCLE
  5
89A
  8
PATTERN_FILL
  6
CONTINUOUS
 62
     7
 10
259.5
 20
73.0
 30
0.0
 40
3.25
  0
CIRCLE
  5
89B
  8
PATTERN_FILL
  6
CONTINUOUS
 62
     7
 10
275.5
 20
73.0
 30
0.0
 40
3.25
  0
CIRCLE
  5
89C
  8
PATTERN_FILL
  6
CONTINUOUS
 62
     7
 10
291.5
 20
73.0
 30
0.0
 40
3.25
  0
CIRCLE
  5
89D
  8
PATTERN_FILL
  6
CONTINUOUS
 62
     7
 10
307.5
 20
73.0
 30
0.0
 40
3.25
  0
CIRCLE
  5
89E
  8
PATTERN_FILL
  6
CONTINUOUS
 62
     7
 10
323.5
 20
59.0
 30
0.0
 40
3.25
  0
CIRCLE
  5
89F
  8
PATTERN_FILL
  6
CONTINUOUS
 62
     7
 10
339.5
 20
59.0
 30
0.0
 40
3.25
  0
CIRCLE
  5
8A0
  8
PATTERN_FILL
  6
CONTINUOUS
 62
     7
 10
355.5
 20
59.0
 30
0.0
 40
3.25
  0
CIRCLE
  5
8A1
  8
PATTERN_FILL
  6
CONTINUOUS
 62
     7
 10
371.5
 20
59.0
 30
0.0
 40
3.25
  0
CIRCLE
  5
8A2
  8
PATTERN_FILL
  6
CONTINUOUS
 62
     7
 10
387.5
 20
59.0
 30
0.0
 40
3.25
  0
CIRCLE
  5
8A3
  8
PATTERN_FILL
  6
CONTINUOUS
 62
     7
 10
403.50000000000011
 20
59.0
 30
0.0
 40
3.25
  0
CIRCLE
  5
8A4
  8
PATTERN_FILL
  6
CONTINUOUS
 62
     7
 10
163.5
 20
59.0
 30
0.0
 40
3.25
  0
CIRCLE
  5
8A5
  8
PATTERN_FILL
  6
CONTINUOUS
 62
     7
 10
147.5
 20
59.0
 30
0.0
 40
3.25
  0
CIRCLE
  5
8A6
  8
PATTERN_FILL
  6
CONTINUOUS
 62
     7
 10
131.5
 20
59.0
 30
0.0
 40
3.25
  0
CIRCLE
  5
8A7
  8
PATTERN_FILL
  6
CONTINUOUS
 62
     7
 10
115.5
 20
59.0
 30
0.0
 40
3.25
  0
CIRCLE
  5
8A8
  8
PATTERN_FILL
  6
CONTINUOUS
 62
     7
 10
99.500000000000014
 20
59.0
 30
0.0
 40
3.25
  0
CIRCLE
  5
8A9
  8
PATTERN_FILL
  6
CONTINUOUS
 62
     7
 10
83.499999999999986
 20
59.0
 30
0.0
 40
3.25
  0
CIRCLE
  5
8AA
  8
PATTERN_FILL
  6
CONTINUOUS
 62
     7
 10
67.5
 20
59.0
 30
0.0
 40
3.25
  0
CIRCLE
  5
8AB
  8
PATTERN_FILL
  6
CONTINUOUS
 62
     7
 10
51.5
 20
59.0
 30
0.0
 40
3.25
  0
CIRCLE
  5
8AC
  8
PATTERN_FILL
  6
CONTINUOUS
 62
     7
 10
35.5
 20
59.0
 30
0.0
 40
3.25
  0
CIRCLE
  5
8AD
  8
PATTERN_FILL
  6
CONTINUOUS
 62
     7
 10
19.5
 20
59.0
 30
0.0
 40
3.25
  0
CIRCLE
  5
8AE
  8
PATTERN_FILL
  6
CONTINUOUS
 62
     7
 10
419.5
 20
59.0
 30
0.0
 40
3.25
  0
CIRCLE
  5
8AF
  8
PATTERN_FILL
  6
CONTINUOUS
 62
     7
 10
435.5
 20
59.0
 30
0.0
 40
3.25
  0
CIRCLE
  5
8B0
  8
PATTERN_FILL
  6
CONTINUOUS
 62
     7
 10
451.5
 20
59.0
 30
0.0
 40
3.25
  0
CIRCLE
  5
8B1
  8
PATTERN_FILL
  6
CONTINUOUS
 62
     7
 10
467.5
 20
59.0
 30
0.0
 40
3.25
  0
CIRCLE
  5
8B2
  8
PATTERN_FILL
  6
CONTINUOUS
 62
     7
 10
483.5
 20
59.0
 30
0.0
 40
3.25
  0
CIRCLE
  5
8B3
  8
PATTERN_FILL
  6
CONTINUOUS
 62
     7
 10
499.5
 20
59.0
 30
0.0
 40
3.25
  0
CIRCLE
  5
8B4
  8
PATTERN_FILL
  6
CONTINUOUS
 62
     7
 10
515.50000000000011
 20
59.0
 30
0.0
 40
3.25
  0
CIRCLE
  5
8B5
  8
PATTERN_FILL
  6
CONTINUOUS
 62
     7
 10
179.5
 20
59.0
 30
0.0
 40
3.25
  0
CIRCLE
  5
8B6
  8
PATTERN_FILL
  6
CONTINUOUS
 62
     7
 10
195.5
 20
59.0
 30
0.0
 40
3.25
  0
CIRCLE
  5
8B7
  8
PATTERN_FILL
  6
CONTINUOUS
 62
     7
 10
211.5
 20
59.0
 30
0.0
 40
3.25
  0
CIRCLE
  5
8B8
  8
PATTERN_FILL
  6
CONTINUOUS
 62
     7
 10
227.5
 20
59.0
 30
0.0
 40
3.25
  0
CIRCLE
  5
8B9
  8
PATTERN_FILL
  6
CONTINUOUS
 62
     7
 10
243.5
 20
59.0
 30
0.0
 40
3.25
  0
CIRCLE
  5
8BA
  8
PATTERN_FILL
  6
CONTINUOUS
 62
     7
 10
259.5
 20
59.0
 30
0.0
 40
3.25
  0
CIRCLE
  5
8BB
  8
PATTERN_FILL
  6
CONTINUOUS
 62
     7
 10
275.5
 20
59.0
 30
0.0
 40
3.25
  0
CIRCLE
  5
8BC
  8
PATTERN_FILL
  6
CONTINUOUS
 62
     7
 10
291.5
 20
59.0
 30
0.0
 40
3.25
  0
CIRCLE
  5
8BD
  8
PATTERN_FILL
  6
CONTINUOUS
 62
     7
 10
307.5
 20
59.0
 30
0.0
 40
3.25
  0
CIRCLE
  5
8BE
  8
PATTERN_FILL
  6
CONTINUOUS
 62
     7
 10
323.5
 20
45.0
 30
0.0
 40
3.25
  0
CIRCLE
  5
8BF
  8
PATTERN_FILL
  6
CONTINUOUS
 62
     7
 10
339.5
 20
45.0
 30
0.0
 40
3.25
  0
CIRCLE
  5
8C0
  8
PATTERN_FILL
  6
CONTINUOUS
 62
     7
 10
355.5
 20
45.0
 30
0.0
 40
3.25
  0
CIRCLE
  5
8C1
  8
PATTERN_FILL
  6
CONTINUOUS
 62
     7
 10
371.5
 20
45.0
 30
0.0
 40
3.25
  0
CIRCLE
  5
8C2
  8
PATTERN_FILL
  6
CONTINUOUS
 62
     7
 10
387.5
 20
45.0
 30
0.0
 40
3.25
  0
CIRCLE
  5
8C3
  8
PATTERN_FILL
  6
CONTINUOUS
 62
     7
 10
403.50000000000011
 20
45.0
 30
0.0
 40
3.25
  0
CIRCLE
  5
8C4
  8
PATTERN_FILL
  6
CONTINUOUS
 62
     7
 10
163.5
 20
45.0
 30
0.0
 40
3.25
  0
CIRCLE
  5
8C5
  8
PATTERN_FILL
  6
CONTINUOUS
 62
     7
 10
147.5
 20
45.0
 30
0.0
 40
3.25
  0
CIRCLE
  5
8C6
  8
PATTERN_FILL
  6
CONTINUOUS
 62
     7
 10
131.5
 20
45.0
 30
0.0
 40
3.25
  0
CIRCLE
  5
8C7
  8
PATTERN_FILL
  6
CONTINUOUS
 62
     7
 10
115.5
 20
45.0
 30
0.0
 40
3.25
  0
CIRCLE
  5
8C8
  8
PATTERN_FILL
  6
CONTINUOUS
 62
     7
 10
99.500000000000014
 20
45.0
 30
0.0
 40
3.25
  0
CIRCLE
  5
8C9
  8
PATTERN_FILL
  6
CONTINUOUS
 62
     7
 10
83.499999999999986
 20
45.0
 30
0.0
 40
3.25
  0
CIRCLE
  5
8CA
  8
PATTERN_FILL
  6
CONTINUOUS
 62
     7
 10
67.5
 20
45.0
 30
0.0
 40
3.25
  0
CIRCLE
  5
8CB
  8
PATTERN_FILL
  6
CONTINUOUS
 62
     7
 10
51.5
 20
45.0
 30
0.0
 40
3.25
  0
CIRCLE
  5
8CC
  8
PATTERN_FILL
  6
CONTINUOUS
 62
     7
 10
35.5
 20
45.0
 30
0.0
 40
3.25
  0
CIRCLE
  5
8CD
  8
PATTERN_FILL
  6
CONTINUOUS
 62
     7
 10
19.5
 20
45.0
 30
0.0
 40
3.25
  0
CIRCLE
  5
8CE
  8
PATTERN_FILL
  6
CONTINUOUS
 62
     7
 10
419.5
 20
45.0
 30
0.0
 40
3.25
  0
CIRCLE
  5
8CF
  8
PATTERN_FILL
  6
CONTINUOUS
 62
     7
 10
435.5
 20
45.0
 30
0.0
 40
3.25
  0
CIRCLE
  5
8D0
  8
PATTERN_FILL
  6
CONTINUOUS
 62
     7
 10
451.5
 20
45.0
 30
0.0
 40
3.25
  0
CIRCLE
  5
8D1
  8
PATTERN_FILL
  6
CONTINUOUS
 62
     7
 10
467.5
 20
45.0
 30
0.0
 40
3.25
  0
CIRCLE
  5
8D2
  8
PATTERN_FILL
  6
CONTINUOUS
 62
     7
 10
483.5
 20
45.0
 30
0.0
 40
3.25
  0
CIRCLE
  5
8D3
  8
PATTERN_FILL
  6
CONTINUOUS
 62
     7
 10
499.5
 20
45.0
 30
0.0
 40
3.25
  0
CIRCLE
  5
8D4
  8
PATTERN_FILL
  6
CONTINUOUS
 62
     7
 10
515.50000000000011
 20
45.0
 30
0.0
 40
3.25
  0
CIRCLE
  5
8D5
  8
PATTERN_FILL
  6
CONTINUOUS
 62
     7
 10
179.5
 20
45.0
 30
0.0
 40
3.25
  0
CIRCLE
  5
8D6
  8
PATTERN_FILL
  6
CONTINUOUS
 62
     7
 10
195.5
 20
45.0
 30
0.0
 40
3.25
  0
CIRCLE
  5
8D7
  8
PATTERN_FILL
  6
CONTINUOUS
 62
     7
 10
211.5
 20
45.0
 30
0.0
 40
3.25
  0
CIRCLE
  5
8D8
  8
PATTERN_FILL
  6
CONTINUOUS
 62
     7
 10
227.5
 20
45.0
 30
0.0
 40
3.25
  0
CIRCLE
  5
8D9
  8
PATTERN_FILL
  6
CONTINUOUS
 62
     7
 10
243.5
 20
45.0
 30
0.0
 40
3.25
  0
CIRCLE
  5
8DA
  8
PATTERN_FILL
  6
CONTINUOUS
 62
     7
 10
259.5
 20
45.0
 30
0.0
 40
3.25
  0
CIRCLE
  5
8DB
  8
PATTERN_FILL
  6
CONTINUOUS
 62
     7
 10
275.5
 20
45.0
 30
0.0
 40
3.25
  0
CIRCLE
  5
8DC
  8
PATTERN_FILL
  6
CONTINUOUS
 62
     7
 10
291.5
 20
45.0
 30
0.0
 40
3.25
  0
CIRCLE
  5
8DD
  8
PATTERN_FILL
  6
CONTINUOUS
 62
     7
 10
307.5
 20
45.0
 30
0.0
 40
3.25
  0
CIRCLE
  5
8DE
  8
PATTERN_FILL
  6
CONTINUOUS
 62
     7
 10
323.5
 20
31.0
 30
0.0
 40
3.25
  0
CIRCLE
  5
8DF
  8
PATTERN_FILL
  6
CONTINUOUS
 62
     7
 10
339.5
 20
31.0
 30
0.0
 40
3.25
  0
CIRCLE
  5
8E0
  8
PATTERN_FILL
  6
CONTINUOUS
 62
     7
 10
355.5
 20
31.0
 30
0.0
 40
3.25
  0
CIRCLE
  5
8E1
  8
PATTERN_FILL
  6
CONTINUOUS
 62
     7
 10
371.5
 20
31.0
 30
0.0
 40
3.25
  0
CIRCLE
  5
8E2
  8
PATTERN_FILL
  6
CONTINUOUS
 62
     7
 10
387.5
 20
31.0
 30
0.0
 40
3.25
  0
CIRCLE
  5
8E3
  8
PATTERN_FILL
  6
CONTINUOUS
 62
     7
 10
403.50000000000011
 20
31.0
 30
0.0
 40
3.25
  0
CIRCLE
  5
8E4
  8
PATTERN_FILL
  6
CONTINUOUS
 62
     7
 10
163.5
 20
31.0
 30
0.0
 40
3.25
  0
CIRCLE
  5
8E5
  8
PATTERN_FILL
  6
CONTINUOUS
 62
     7
 10
147.5
 20
31.0
 30
0.0
 40
3.25
  0
CIRCLE
  5
8E6
  8
PATTERN_FILL
  6
CONTINUOUS
 62
     7
 10
131.5
 20
31.0
 30
0.0
 40
3.25
  0
CIRCLE
  5
8E7
  8
PATTERN_FILL
  6
CONTINUOUS
 62
     7
 10
115.5
 20
31.0
 30
0.0
 40
3.25
  0
CIRCLE
  5
8E8
  8
PATTERN_FILL
  6
CONTINUOUS
 62
     7
 10
99.500000000000014
 20
31.0
 30
0.0
 40
3.25
  0
CIRCLE
  5
8E9
  8
PATTERN_FILL
  6
CONTINUOUS
 62
     7
 10
83.499999999999986
 20
31.0
 30
0.0
 40
3.25
  0
CIRCLE
  5
8EA
  8
PATTERN_FILL
  6
CONTINUOUS
 62
     7
 10
67.5
 20
31.0
 30
0.0
 40
3.25
  0
CIRCLE
  5
8EB
  8
PATTERN_FILL
  6
CONTINUOUS
 62
     7
 10
51.5
 20
31.0
 30
0.0
 40
3.25
  0
CIRCLE
  5
8EC
  8
PATTERN_FILL
  6
CONTINUOUS
 62
     7
 10
35.5
 20
31.0
 30
0.0
 40
3.25
  0
CIRCLE
  5
8ED
  8
PATTERN_FILL
  6
CONTINUOUS
 62
     7
 10
19.5
 20
31.0
 30
0.0
 40
3.25
  0
CIRCLE
  5
8EE
  8
PATTERN_FILL
  6
CONTINUOUS
 62
     7
 10
419.5
 20
31.0
 30
0.0
 40
3.25
  0
CIRCLE
  5
8EF
  8
PATTERN_FILL
  6
CONTINUOUS
 62
     7
 10
435.5
 20
31.0
 30
0.0
 40
3.25
  0
CIRCLE
  5
8F0
  8
PATTERN_FILL
  6
CONTINUOUS
 62
     7
 10
451.5
 20
31.0
 30
0.0
 40
3.25
  0
CIRCLE
  5
8F1
  8
PATTERN_FILL
  6
CONTINUOUS
 62
     7
 10
467.5
 20
31.0
 30
0.0
 40
3.25
  0
CIRCLE
  5
8F2
  8
PATTERN_FILL
  6
CONTINUOUS
 62
     7
 10
483.5
 20
31.0
 30
0.0
 40
3.25
  0
CIRCLE
  5
8F3
  8
PATTERN_FILL
  6
CONTINUOUS
 62
     7
 10
499.5
 20
31.0
 30
0.0
 40
3.25
  0
CIRCLE
  5
8F4
  8
PATTERN_FILL
  6
CONTINUOUS
 62
     7
 10
515.50000000000011
 20
31.0
 30
0.0
 40
3.25
  0
CIRCLE
  5
8F5
  8
PATTERN_FILL
  6
CONTINUOUS
 62
     7
 10
179.5
 20
31.0
 30
0.0
 40
3.25
  0
CIRCLE
  5
8F6
  8
PATTERN_FILL
  6
CONTINUOUS
 62
     7
 10
195.5
 20
31.0
 30
0.0
 40
3.25
  0
CIRCLE
  5
8F7
  8
PATTERN_FILL
  6
CONTINUOUS
 62
     7
 10
211.5
 20
31.0
 30
0.0
 40
3.25
  0
CIRCLE
  5
8F8
  8
PATTERN_FILL
  6
CONTINUOUS
 62
     7
 10
227.5
 20
31.0
 30
0.0
 40
3.25
  0
CIRCLE
  5
8F9
  8
PATTERN_FILL
  6
CONTINUOUS
 62
     7
 10
243.5
 20
31.0
 30
0.0
 40
3.25
  0
CIRCLE
  5
8FA
  8
PATTERN_FILL
  6
CONTINUOUS
 62
     7
 10
259.5
 20
31.0
 30
0.0
 40
3.25
  0
CIRCLE
  5
8FB
  8
PATTERN_FILL
  6
CONTINUOUS
 62
     7
 10
275.5
 20
31.0
 30
0.0
 40
3.25
  0
CIRCLE
  5
8FC
  8
PATTERN_FILL
  6
CONTINUOUS
 62
     7
 10
291.5
 20
31.0
 30
0.0
 40
3.25
  0
CIRCLE
  5
8FD
  8
PATTERN_FILL
  6
CONTINUOUS
 62
     7
 10
307.5
 20
31.0
 30
0.0
 40
3.25
  0
CIRCLE
  5
8FE
  8
PATTERN_FILL
  6
CONTINUOUS
 62
     7
 10
710.0
 20
493.0
 30
0.0
 40
3.25
  0
CIRCLE
  5
8FF
  8
PATTERN_FILL
  6
CONTINUOUS
 62
     7
 10
710.0
 20
521.0
 30
0.0
 40
3.25
  0
CIRCLE
  5
900
  8
PATTERN_FILL
  6
CONTINUOUS
 62
     7
 10
710.0
 20
535.0
 30
0.0
 40
3.25
  0
CIRCLE
  5
901
  8
PATTERN_FILL
  6
CONTINUOUS
 62
     7
 10
710.0
 20
549.0
 30
0.0
 40
3.25
  0
CIRCLE
  5
902
  8
PATTERN_FILL
  6
CONTINUOUS
 62
     7
 10
710.0
 20
563.0
 30
0.0
 40
3.25
  0
CIRCLE
  5
903
  8
PATTERN_FILL
  6
CONTINUOUS
 62
     7
 10
710.0
 20
577.0
 30
0.0
 40
3.25
  0
CIRCLE
  5
904
  8
PATTERN_FILL
  6
CONTINUOUS
 62
     7
 10
710.0
 20
591.0
 30
0.0
 40
3.25
  0
CIRCLE
  5
905
  8
PATTERN_FILL
  6
CONTINUOUS
 62
     7
 10
710.0
 20
605.0
 30
0.0
 40
3.25
  0
CIRCLE
  5
906
  8
PATTERN_FILL
  6
CONTINUOUS
 62
     7
 10
710.0
 20
619.0
 30
0.0
 40
3.25
  0
CIRCLE
  5
907
  8
PATTERN_FILL
  6
CONTINUOUS
 62
     7
 10
710.0
 20
633.0
 30
0.0
 40
3.25
  0
CIRCLE
  5
908
  8
PATTERN_FILL
  6
CONTINUOUS
 62
     7
 10
710.0
 20
647.0
 30
0.0
 40
3.25
  0
CIRCLE
  5
909
  8
PATTERN_FILL
  6
CONTINUOUS
 62
     7
 10
710.0
 20
661.0
 30
0.0
 40
3.25
  0
CIRCLE
  5
90A
  8
PATTERN_FILL
  6
CONTINUOUS
 62
     7
 10
710.0
 20
675.0
 30
0.0
 40
3.25
  0
CIRCLE
  5
90B
  8
PATTERN_FILL
  6
CONTINUOUS
 62
     7
 10
710.0
 20
689.0
 30
0.0
 40
3.25
  0
CIRCLE
  5
90C
  8
PATTERN_FILL
  6
CONTINUOUS
 62
     7
 10
710.0
 20
703.0
 30
0.0
 40
3.25
  0
CIRCLE
  5
90D
  8
PATTERN_FILL
  6
CONTINUOUS
 62
     7
 10
710.0
 20
717.0
 30
0.0
 40
3.25
  0
CIRCLE
  5
90E
  8
PATTERN_FILL
  6
CONTINUOUS
 62
     7
 10
710.0
 20
731.0
 30
0.0
 40
3.25
  0
CIRCLE
  5
90F
  8
PATTERN_FILL
  6
CONTINUOUS
 62
     7
 10
710.0
 20
745.0
 30
0.0
 40
3.25
  0
CIRCLE
  5
910
  8
PATTERN_FILL
  6
CONTINUOUS
 62
     7
 10
710.0
 20
759.0
 30
0.0
 40
3.25
  0
CIRCLE
  5
911
  8
PATTERN_FILL
  6
CONTINUOUS
 62
     7
 10
710.0
 20
773.0
 30
0.0
 40
3.25
  0
CIRCLE
  5
912
  8
PATTERN_FILL
  6
CONTINUOUS
 62
     7
 10
710.0
 20
787.0
 30
0.0
 40
3.25
  0
CIRCLE
  5
913
  8
PATTERN_FILL
  6
CONTINUOUS
 62
     7
 10
710.0
 20
801.0
 30
0.0
 40
3.25
  0
CIRCLE
  5
914
  8
PATTERN_FILL
  6
CONTINUOUS
 62
     7
 10
710.0
 20
815.0
 30
0.0
 40
3.25
  0
CIRCLE
  5
915
  8
PATTERN_FILL
  6
CONTINUOUS
 62
     7
 10
710.0
 20
829.0
 30
0.0
 40
3.25
  0
CIRCLE
  5
916
  8
PATTERN_FILL
  6
CONTINUOUS
 62
     7
 10
710.0
 20
843.0
 30
0.0
 40
3.25
  0
CIRCLE
  5
917
  8
PATTERN_FILL
  6
CONTINUOUS
 62
     7
 10
710.0
 20
857.0
 30
0.0
 40
3.25
  0
CIRCLE
  5
918
  8
PATTERN_FILL
  6
CONTINUOUS
 62
     7
 10
710.0
 20
871.0
 30
0.0
 40
3.25
  0
CIRCLE
  5
919
  8
PATTERN_FILL
  6
CONTINUOUS
 62
     7
 10
710.0
 20
885.0
 30
0.0
 40
3.25
  0
CIRCLE
  5
91A
  8
PATTERN_FILL
  6
CONTINUOUS
 62
     7
 10
710.0
 20
899.0
 30
0.0
 40
3.25
  0
CIRCLE
  5
91B
  8
PATTERN_FILL
  6
CONTINUOUS
 62
     7
 10
710.0
 20
913.0
 30
0.0
 40
3.25
  0
CIRCLE
  5
91C
  8
PATTERN_FILL
  6
CONTINUOUS
 62
     7
 10
710.0
 20
927.0
 30
0.0
 40
3.25
  0
CIRCLE
  5
91D
  8
PATTERN_FILL
  6
CONTINUOUS
 62
     7
 10
710.0
 20
941.0
 30
0.0
 40
3.25
  0
CIRCLE
  5
91E
  8
PATTERN_FILL
  6
CONTINUOUS
 62
     7
 10
710.0
 20
955.0
 30
0.0
 40
3.25
  0
CIRCLE
  5
91F
  8
PATTERN_FILL
  6
CONTINUOUS
 62
     7
 10
710.0
 20
969.0
 30
0.0
 40
3.25
  0
CIRCLE
  5
920
  8
PATTERN_FILL
  6
CONTINUOUS
 62
     7
 10
710.0
 20
983.0
 30
0.0
 40
3.25
  0
CIRCLE
  5
921
  8
PATTERN_FILL
  6
CONTINUOUS
 62
     7
 10
710.0
 20
479.0
 30
0.0
 40
3.25
  0
CIRCLE
  5
922
  8
PATTERN_FILL
  6
CONTINUOUS
 62
     7
 10
710.0
 20
465.0
 30
0.0
 40
3.25
  0
CIRCLE
  5
923
  8
PATTERN_FILL
  6
CONTINUOUS
 62
     7
 10
710.0
 20
451.0
 30
0.0
 40
3.25
  0
CIRCLE
  5
924
  8
PATTERN_FILL
  6
CONTINUOUS
 62
     7
 10
710.0
 20
437.0
 30
0.0
 40
3.25
  0
CIRCLE
  5
925
  8
PATTERN_FILL
  6
CONTINUOUS
 62
     7
 10
710.0
 20
423.0
 30
0.0
 40
3.25
  0
CIRCLE
  5
926
  8
PATTERN_FILL
  6
CONTINUOUS
 62
     7
 10
710.0
 20
409.0
 30
0.0
 40
3.25
  0
CIRCLE
  5
927
  8
PATTERN_FILL
  6
CONTINUOUS
 62
     7
 10
710.0
 20
395.0
 30
0.0
 40
3.25
  0
CIRCLE
  5
928
  8
PATTERN_FILL
  6
CONTINUOUS
 62
     7
 10
710.0
 20
381.0
 30
0.0
 40
3.25
  0
CIRCLE
  5
929
  8
PATTERN_FILL
  6
CONTINUOUS
 62
     7
 10
710.0
 20
367.0
 30
0.0
 40
3.25
  0
CIRCLE
  5
92A
  8
PATTERN_FILL
  6
CONTINUOUS
 62
     7
 10
710.0
 20
353.0
 30
0.0
 40
3.25
  0
CIRCLE
  5
92B
  8
PATTERN_FILL
  6
CONTINUOUS
 62
     7
 10
710.0
 20
339.0
 30
0.0
 40
3.25
  0
CIRCLE
  5
92C
  8
PATTERN_FILL
  6
CONTINUOUS
 62
     7
 10
710.0
 20
325.0
 30
0.0
 40
3.25
  0
CIRCLE
  5
92D
  8
PATTERN_FILL
  6
CONTINUOUS
 62
     7
 10
710.0
 20
311.0
 30
0.0
 40
3.25
  0
CIRCLE
  5
92E
  8
PATTERN_FILL
  6
CONTINUOUS
 62
     7
 10
710.0
 20
297.0
 30
0.0
 40
3.25
  0
CIRCLE
  5
92F
  8
PATTERN_FILL
  6
CONTINUOUS
 62
     7
 10
710.0
 20
283.0
 30
0.0
 40
3.25
  0
CIRCLE
  5
930
  8
PATTERN_FILL
  6
CONTINUOUS
 62
     7
 10
710.0
 20
269.0
 30
0.0
 40
3.25
  0
CIRCLE
  5
931
  8
PATTERN_FILL
  6
CONTINUOUS
 62
     7
 10
710.0
 20
255.0
 30
0.0
 40
3.25
  0
CIRCLE
  5
932
  8
PATTERN_FILL
  6
CONTINUOUS
 62
     7
 10
710.0
 20
241.0
 30
0.0
 40
3.25
  0
CIRCLE
  5
933
  8
PATTERN_FILL
  6
CONTINUOUS
 62
     7
 10
710.0
 20
227.0
 30
0.0
 40
3.25
  0
CIRCLE
  5
934
  8
PATTERN_FILL
  6
CONTINUOUS
 62
     7
 10
710.0
 20
213.0
 30
0.0
 40
3.25
  0
CIRCLE
  5
935
  8
PATTERN_FILL
  6
CONTINUOUS
 62
     7
 10
710.0
 20
199.0
 30
0.0
 40
3.25
  0
CIRCLE
  5
936
  8
PATTERN_FILL
  6
CONTINUOUS
 62
     7
 10
710.0
 20
185.0
 30
0.0
 40
3.25
  0
CIRCLE
  5
937
  8
PATTERN_FILL
  6
CONTINUOUS
 62
     7
 10
710.0
 20
171.0
 30
0.0
 40
3.25
  0
CIRCLE
  5
938
  8
PATTERN_FILL
  6
CONTINUOUS
 62
     7
 10
710.0
 20
157.0
 30
0.0
 40
3.25
  0
CIRCLE
  5
939
  8
PATTERN_FILL
  6
CONTINUOUS
 62
     7
 10
710.0
 20
143.0
 30
0.0
 40
3.25
  0
CIRCLE
  5
93A
  8
PATTERN_FILL
  6
CONTINUOUS
 62
     7
 10
710.0
 20
129.0
 30
0.0
 40
3.25
  0
CIRCLE
  5
93B
  8
PATTERN_FILL
  6
CONTINUOUS
 62
     7
 10
710.0
 20
115.0
 30
0.0
 40
3.25
  0
CIRCLE
  5
93C
  8
PATTERN_FILL
  6
CONTINUOUS
 62
     7
 10
710.0
 20
101.0
 30
0.0
 40
3.25
  0
CIRCLE
  5
93D
  8
PATTERN_FILL
  6
CONTINUOUS
 62
     7
 10
710.0
 20
87.0
 30
0.0
 40
3.25
  0
CIRCLE
  5
93E
  8
PATTERN_FILL
  6
CONTINUOUS
 62
     7
 10
710.0
 20
73.0
 30
0.0
 40
3.25
  0
CIRCLE
  5
93F
  8
PATTERN_FILL
  6
CONTINUOUS
 62
     7
 10
710.0
 20
59.0
 30
0.0
 40
3.25
  0
CIRCLE
  5
940
  8
PATTERN_FILL
  6
CONTINUOUS
 62
     7
 10
710.0
 20
45.0
 30
0.0
 40
3.25
  0
CIRCLE
  5
941
  8
PATTERN_FILL
  6
CONTINUOUS
 62
     7
 10
710.0
 20
31.0
 30
0.0
 40
3.25
  0
TEXT
  5
942
  8
DIMNSIONS
 62
     7
 10
900.0
 20
-941.43345222222194
 30
0.0
 40
43.435763888888893
  1
(単位：mm)
 41
0.8
 11
900.0
 21
-897.99768833333303
 31
0.0
 73
     3
  0
LINE
  5
943
  8
DIMNSIONS
  6
CONTINUOUS
 62
     7
 10
-32.0
 20
1014.0
 30
0.0
 11
-240.0
 21
1014.0
 31
0.0
  0
LINE
  5
944
  8
DIMNSIONS
  6
CONTINUOUS
 62
     7
 10
-32.0
 20
0.0
 30
0.0
 11
-240.0
 21
0.0
 31
0.0
  0
LINE
  5
945
  8
DIMNSIONS
  6
CONTINUOUS
 62
     7
 10
-200.0
 20
1014.0
 30
0.0
 11
-200.0
 21
0.0
 31
0.0
  0
LINE
  5
946
  8
DIMNSIONS
  6
CONTINUOUS
 62
     7
 10
-200.0
 20
1014.0
 30
0.0
 11
-182.98522628062369
 21
950.5
 31
0.0
  0
LINE
  5
947
  8
DIMNSIONS
  6
CONTINUOUS
 62
     7
 10
-200.0
 20
1014.0
 30
0.0
 11
-217.01477371937631
 21
950.5
 31
0.0
  0
LINE
  5
948
  8
DIMNSIONS
  6
CONTINUOUS
 62
     7
 10
-200.0
 20
0.0
 30
0.0
 11
-217.01477371937631
 21
63.5
 31
0.0
  0
LINE
  5
949
  8
DIMNSIONS
  6
CONTINUOUS
 62
     7
 10
-200.0
 20
0.0
 30
0.0
 11
-182.98522628062369
 21
63.5
 31
0.0
  0
TEXT
  5
94A
  8
DIMNSIONS
 62
     7
 10
-219.87777777777791
 20
436.44444444444417
 30
0.0
 40
54.294704861111107
  1
1014
 50
90.0
 41
0.8
 11
-274.17248263888911
 21
436.44444444444417
 31
0.0
 73
     3
  0
LINE
  5
94B
  8
DIMNSIONS
  6
CONTINUOUS
 62
     7
 10
0.0
 20
-24.0
 30
0.0
 11
0.0
 21
-240.0
 31
0.0
  0
LINE
  5
94C
  8
DIMNSIONS
  6
CONTINUOUS
 62
     7
 10
535.0
 20
-24.0
 30
0.0
 11
535.0
 21
-240.0
 31
0.0
  0
LINE
  5
94D
  8
DIMNSIONS
  6
CONTINUOUS
 62
     7
 10
0.0
 20
-200.0
 30
0.0
 11
535.0
 21
-200.0
 31
0.0
  0
LINE
  5
94E
  8
DIMNSIONS
  6
CONTINUOUS
 62
     7
 10
0.0
 20
-200.0
 30
0.0
 11
63.5
 21
-182.98522628062369
 31
0.0
  0
LINE
  5
94F
  8
DIMNSIONS
  6
CONTINUOUS
 62
     7
 10
0.0
 20
-200.0
 30
0.0
 11
63.5
 21
-217.01477371937631
 31
0.0
  0
LINE
  5
950
  8
DIMNSIONS
  6
CONTINUOUS
 62
     7
 10
535.0
 20
-200.0
 30
0.0
 11
471.49999999999989
 21
-217.01477371937631
 31
0.0
  0
LINE
  5
951
  8
DIMNSIONS
  6
CONTINUOUS
 62
     7
 10
535.0
 20
-200.0
 30
0.0
 11
471.49999999999989
 21
-182.98522628062369
 31
0.0
  0
TEXT
  5
952
  8
DIMNSIONS
 62
     7
 10
214.58333333333329
 20
-180.12222222222201
 30
0.0
 40
54.294704861111107
  1
535
 41
0.8
 11
214.58333333333329
 21
-125.82751736111091
 31
0.0
 73
     3
  0
LINE
  5
953
  8
DIMNSIONS
  6
CONTINUOUS
 62
     7
 10
700.0
 20
-32.0
 30
0.0
 11
700.0
 21
-240.0
 31
0.0
  0
LINE
  5
954
  8
DIMNSIONS
  6
CONTINUOUS
 62
     7
 10
1210.0
 20
-32.0
 30
0.0
 11
1210.0
 21
-240.0
 31
0.0
  0
LINE
  5
955
  8
DIMNSIONS
  6
CONTINUOUS
 62
     7
 10
700.0
 20
-200.0
 30
0.0
 11
1210.0
 21
-200.0
 31
0.0
  0
LINE
  5
956
  8
DIMNSIONS
  6
CONTINUOUS
 62
     7
 10
700.0
 20
-200.0
 30
0.0
 11
763.49999999999989
 21
-182.98522628062369
 31
0.0
  0
LINE
  5
957
  8
DIMNSIONS
  6
CONTINUOUS
 62
     7
 10
700.0
 20
-200.0
 30
0.0
 11
763.49999999999989
 21
-217.01477371937631
 31
0.0
  0
LINE
  5
958
  8
DIMNSIONS
  6
CONTINUOUS
 62
     7
 10
1210.0
 20
-200.0
 30
0.0
 11
1146.5
 21
-217.01477371937631
 31
0.0
  0
LINE
  5
959
  8
DIMNSIONS
  6
CONTINUOUS
 62
     7
 10
1210.0
 20
-200.0
 30
0.0
 11
1146.5
 21
-182.98522628062369
 31
0.0
  0
TEXT
  5
95A
  8
DIMNSIONS
 62
     7
 10
902.08333333333314
 20
-180.12222222222201
 30
0.0
 40
54.294704861111107
  1
510
 41
0.8
 11
902.08333333333314
 21
-125.82751736111091
 31
0.0
 73
     3
  0
LINE
  5
95B
  8
DIMNSIONS
  6
CONTINUOUS
 62
     7
 10
-1.75
 20
0.0
 30
0.0
 11
-240.0
 21
0.0
 31
0.0
  0
LINE
  5
95C
  8
DIMNSIONS
  6
CONTINUOUS
 62
     7
 10
-1.75
 20
-6.0
 30
0.0
 11
-240.0
 21
-6.0
 31
0.0
  0
LINE
  5
95D
  8
DIMNSIONS
  6
CONTINUOUS
 62
     7
 10
-200.0
 20
-6.0
 30
0.0
 11
-200.0
 21
0.0
 31
0.0
  0
LINE
  5
95E
  8
DIMNSIONS
  6
CONTINUOUS
 62
     7
 10
-200.0
 20
0.0
 30
0.0
 11
-200.0
 21
85.277777777777814
 31
0.0
  0
LINE
  5
95F
  8
DIMNSIONS
  6
CONTINUOUS
 62
     7
 10
-200.0
 20
0.0
 30
0.0
 11
-217.01477371937631
 21
63.5
 31
0.0
  0
LINE
  5
960
  8
DIMNSIONS
  6
CONTINUOUS
 62
     7
 10
-200.0
 20
0.0
 30
0.0
 11
-182.98522628062369
 21
63.5
 31
0.0
  0
LINE
  5
961
  8
DIMNSIONS
  6
CONTINUOUS
 62
     7
 10
-200.0
 20
-6.0
 30
0.0
 11
-200.0
 21
-106.0
 31
0.0
  0
LINE
  5
962
  8
DIMNSIONS
  6
CONTINUOUS
 62
     7
 10
-200.0
 20
-6.0
 30
0.0
 11
-182.98522628062369
 21
-69.5
 31
0.0
  0
LINE
  5
963
  8
DIMNSIONS
  6
CONTINUOUS
 62
     7
 10
-200.0
 20
-6.0
 30
0.0
 11
-217.01477371937631
 21
-69.5
 31
0.0
  0
TEXT
  5
964
  8
DIMNSIONS
 62
     7
 10
-219.87777777777791
 20
50.0
 30
0.0
 40
54.294704861111107
  1
6
 50
90.0
 41
0.8
 11
-274.17248263888911
 21
50.0
 31
0.0
 73
     3
  0
LINE
  5
965
  8
DIMNSIONS
  6
CONTINUOUS
 62
     7
 10
534.39103626009046
 20
1397.4701685198829
 30
0.0
 11
534.39103626009046
 21
1816.1575835299541
 31
0.0
  0
LINE
  5
966
  8
DIMNSIONS
  6
CONTINUOUS
 62
     7
 10
370.96453315833412
 20
1742.0166487593719
 30
0.0
 11
355.03212757772309
 21
1780.480878393314
 31
0.0
  0
ARC
  5
967
  8
DIMNSIONS
  6
CONTINUOUS
 62
     7
 10
534.39103626009046
 20
1347.4701685198829
 30
0.0
 40
428.68741501007088
 50
90.0
 51
112.49999999999901
  0
LINE
  5
968
  8
DIMNSIONS
  6
CONTINUOUS
 62
     7
 10
370.33946487232572
 20
1743.5256970928619
 30
0.0
 11
422.84179321655859
 21
1783.0890392564861
 31
0.0
  0
LINE
  5
969
  8
DIMNSIONS
  6
CONTINUOUS
 62
     7
 10
370.33946487232572
 20
1743.5256970928619
 30
0.0
 11
435.5894860580749
 21
1751.5373922930601
 31
0.0
  0
LINE
  5
96A
  8
DIMNSIONS
  6
CONTINUOUS
 62
     7
 10
534.39103626009046
 20
1776.1575835299541
 30
0.0
 11
470.8910362600904
 21
1759.142809810578
 31
0.0
  0
LINE
  5
96B
  8
DIMNSIONS
  6
CONTINUOUS
 62
     7
 10
534.39103626009046
 20
1776.1575835299541
 30
0.0
 11
470.8910362600904
 21
1793.1723572493299
 31
0.0
  0
TEXT
  5
96C
  8
DIMNSIONS
 62
     7
 10
371.53631524250068
 20
1799.3909294714481
 30
0.0
 40
54.294704861111107
  1
22.5°
 50
7.089549518302376
 41
0.8
 11
364.83523681621313
 21
1853.2705223047269
 31
0.0
 73
     3
  0
TEXT
  5
96D
  8
DATA
 62
     7
 10
2250.0
 20
-894.81232999999929
 30
0.0
 40
32.576822916666671
  1
3WAYフルレンジラウドスピーカーシステム
 41
0.8
 11
2250.0
 21
-862.23550708333266
 31
0.0
 73
     3
  0
TEXT
  5
96E
  8
DATA
 62
     7
 10
2300.0
 20
-825.27322999999956
 30
0.0
 40
48.865234375000007
  1
JBL
 41
0.8
 11
2300.0
 21
-776.40799562499967
 31
0.0
 73
     3
  0
TEXT
  5
96F
  8
DATA
 62
     7
 10
-299.99999999999972
 20
-1108.13103
 30
0.0
 40
32.576822916666671
  1
仕様および外観は予告なく変更されることがありますので、ご了承ください。
 41
0.8
 11
-299.99999999999972
 21
-1075.554207083333
 31
0.0
 73
     3
  0
TEXT
  5
970
  8
DATA
 62
     7
 10
2300.0
 20
-970.27322999999967
 30
0.0
 40
48.865234375000007
  1
SRX738
 41
0.8
 11
2300.0
 21
-921.40799562499956
 31
0.0
 73
     3
  0
LINE
  5
971
  8
DATA
  6
CONTINUOUS
 62
     7
 10
0.0
 20
8.0
 30
0.0
 11
0.0
 21
1006.0
 31
0.0
  0
LINE
  5
972
  8
DATA
  6
CONTINUOUS
 62
     7
 10
8.0
 20
0.0
 30
0.0
 11
527.0
 21
0.0
 31
0.0
  0
LINE
  5
973
  8
DATA
  6
CONTINUOUS
 62
     7
 10
541.01999999999987
 20
0.0
 30
0.0
 11
541.01999999999987
 21
1.0
 31
0.0
  0
LINE
  5
974
  8
DATA
  6
CONTINUOUS
 62
     7
 10
8.0
 20
1014.0
 30
0.0
 11
527.0
 21
1014.0
 31
0.0
  0
LINE
  5
975
  8
DATA
  6
CONTINUOUS
 62
     7
 10
535.0
 20
8.0
 30
0.0
 11
535.0
 21
1006.0
 31
0.0
  0
LINE
  5
976
  8
DATA
  6
CONTINUOUS
 62
     7
 10
0.0
 20
16.0
 30
0.0
 11
535.0
 21
16.0
 31
0.0
  0
LINE
  5
977
  8
DATA
  6
CONTINUOUS
 62
     7
 10
0.0
 20
998.0
 30
0.0
 11
535.0
 21
998.0
 31
0.0
  0
LINE
  5
978
  8
DATA
  6
CONTINUOUS
 62
     7
 10
35.0
 20
0.0
 30
0.0
 11
35.0
 21
1014.0
 31
0.0
  0
LINE
  5
979
  8
DATA
  6
CONTINUOUS
 62
     7
 10
500.0
 20
0.0
 30
0.0
 11
500.0
 21
1014.0
 31
0.0
  0
LINE
  5
97A
  8
DATA
  6
CONTINUOUS
 62
     7
 10
2.0
 20
16.0
 30
0.0
 11
2.0
 21
998.0
 31
0.0
  0
LINE
  5
97B
  8
DATA
  6
CONTINUOUS
 62
     7
 10
533.0
 20
16.0
 30
0.0
 11
533.0
 21
998.0
 31
0.0
  0
POLYLINE
  5
97C
  8
DATA
  6
CONTINUOUS
 62
     7
 66
     1
 10
0.0
 20
0.0
 30
0.0
 70
     1
  0
VERTEX
  5
BAA
  8
DATA
  6
CONTINUOUS
 62
     7
 10
239.5
 20
529.49999999999989
 30
0.0
  0
VERTEX
  5
BAB
  8
DATA
  6
CONTINUOUS
 62
     7
 10
295.5
 20
529.49999999999989
 30
0.0
  0
VERTEX
  5
BAC
  8
DATA
  6
CONTINUOUS
 62
     7
 10
295.5
 20
484.49999999999989
 30
0.0
  0
VERTEX
  5
BAD
  8
DATA
  6
CONTINUOUS
 62
     7
 10
239.5
 20
484.49999999999989
 30
0.0
  0
SEQEND
  5
BAE
  8
DATA
  6
CONTINUOUS
 62
     7
  0
CIRCLE
  5
982
  8
DATA
  6
CONTINUOUS
 62
     7
 10
267.5
 20
991.0
 30
0.0
 40
3.4999999999998681
  0
LINE
  5
983
  8
DATA
  6
CONTINUOUS
 62
     7
 10
265.5
 20
991.0
 30
0.0
 11
269.5
 21
991.0
 31
0.0
  0
LINE
  5
984
  8
DATA
  6
CONTINUOUS
 62
     7
 10
267.5
 20
993.0
 30
0.0
 11
267.5
 21
989.0
 31
0.0
  0
CIRCLE
  5
985
  8
DATA
  6
CONTINUOUS
 62
     7
 10
454.49999999999989
 20
991.0
 30
0.0
 40
3.4999999999998681
  0
LINE
  5
986
  8
DATA
  6
CONTINUOUS
 62
     7
 10
452.5
 20
991.0
 30
0.0
 11
456.5
 21
991.0
 31
0.0
  0
LINE
  5
987
  8
DATA
  6
CONTINUOUS
 62
     7
 10
454.49999999999989
 20
993.0
 30
0.0
 11
454.49999999999989
 21
989.0
 31
0.0
  0
CIRCLE
  5
988
  8
DATA
  6
CONTINUOUS
 62
     7
 10
80.5
 20
991.0
 30
0.0
 40
3.4999999999998681
  0
LINE
  5
989
  8
DATA
  6
CONTINUOUS
 62
     7
 10
78.5
 20
991.0
 30
0.0
 11
82.5
 21
991.0
 31
0.0
  0
LINE
  5
98A
  8
DATA
  6
CONTINUOUS
 62
     7
 10
80.5
 20
993.0
 30
0.0
 11
80.5
 21
989.0
 31
0.0
  0
CIRCLE
  5
98B
  8
DATA
  6
CONTINUOUS
 62
     7
 10
267.5
 20
23.0
 30
0.0
 40
3.4999999999998681
  0
LINE
  5
98C
  8
DATA
  6
CONTINUOUS
 62
     7
 10
265.5
 20
23.0
 30
0.0
 11
269.5
 21
23.0
 31
0.0
  0
LINE
  5
98D
  8
DATA
  6
CONTINUOUS
 62
     7
 10
267.5
 20
21.0
 30
0.0
 11
267.5
 21
25.0
 31
0.0
  0
CIRCLE
  5
98E
  8
DATA
  6
CONTINUOUS
 62
     7
 10
454.49999999999989
 20
23.0
 30
0.0
 40
3.4999999999998681
  0
LINE
  5
98F
  8
DATA
  6
CONTINUOUS
 62
     7
 10
452.5
 20
23.0
 30
0.0
 11
456.5
 21
23.0
 31
0.0
  0
LINE
  5
990
  8
DATA
  6
CONTINUOUS
 62
     7
 10
454.49999999999989
 20
21.0
 30
0.0
 11
454.49999999999989
 21
25.0
 31
0.0
  0
CIRCLE
  5
991
  8
DATA
  6
CONTINUOUS
 62
     7
 10
80.5
 20
23.0
 30
0.0
 40
3.4999999999998681
  0
LINE
  5
992
  8
DATA
  6
CONTINUOUS
 62
     7
 10
78.5
 20
23.0
 30
0.0
 11
82.5
 21
23.0
 31
0.0
  0
LINE
  5
993
  8
DATA
  6
CONTINUOUS
 62
     7
 10
80.5
 20
21.0
 30
0.0
 11
80.5
 21
25.0
 31
0.0
  0
LINE
  5
994
  8
DATA
  6
CONTINUOUS
 62
     7
 10
38.25
 20
-6.0
 30
0.0
 11
75.75
 21
-6.0
 31
0.0
  0
LINE
  5
995
  8
DATA
  6
CONTINUOUS
 62
     7
 10
38.25
 20
-6.0
 30
0.0
 11
38.25
 21
0.0
 31
0.0
  0
LINE
  5
996
  8
DATA
  6
CONTINUOUS
 62
     7
 10
75.75
 20
-6.0
 30
0.0
 11
75.75
 21
0.0
 31
0.0
  0
LINE
  5
997
  8
DATA
  6
CONTINUOUS
 62
     7
 10
496.75
 20
-6.0
 30
0.0
 11
459.25
 21
-6.0
 31
0.0
  0
LINE
  5
998
  8
DATA
  6
CONTINUOUS
 62
     7
 10
496.75
 20
-6.0
 30
0.0
 11
496.75
 21
0.0
 31
0.0
  0
LINE
  5
999
  8
DATA
  6
CONTINUOUS
 62
     7
 10
459.25
 20
-6.0
 30
0.0
 11
459.25
 21
0.0
 31
0.0
  0
LINE
  5
99A
  8
DATA
  6
CONTINUOUS
 62
     7
 10
159.75
 20
-6.0
 30
0.0
 11
197.25
 21
-6.0
 31
0.0
  0
LINE
  5
99B
  8
DATA
  6
CONTINUOUS
 62
     7
 10
159.75
 20
-6.0
 30
0.0
 11
159.75
 21
0.0
 31
0.0
  0
LINE
  5
99C
  8
DATA
  6
CONTINUOUS
 62
     7
 10
197.25
 20
-6.0
 30
0.0
 11
197.25
 21
0.0
 31
0.0
  0
LINE
  5
99D
  8
DATA
  6
CONTINUOUS
 62
     7
 10
375.25
 20
-6.0
 30
0.0
 11
337.75
 21
-6.0
 31
0.0
  0
LINE
  5
99E
  8
DATA
  6
CONTINUOUS
 62
     7
 10
375.25
 20
-6.0
 30
0.0
 11
375.25
 21
0.0
 31
0.0
  0
LINE
  5
99F
  8
DATA
  6
CONTINUOUS
 62
     7
 10
337.75
 20
-6.0
 30
0.0
 11
337.75
 21
0.0
 31
0.0
  0
LINE
  5
9A0
  8
DATA
  6
CONTINUOUS
 62
     7
 10
37.031417054096657
 20
1200.0
 30
0.0
 11
497.96858294590328
 21
1200.0
 31
0.0
  0
LINE
  5
9A1
  8
DATA
  6
CONTINUOUS
 62
     7
 10
156.11916580715359
 20
1710.0
 30
0.0
 11
378.88083419284658
 21
1710.0
 31
0.0
  0
LINE
  5
9A2
  8
DATA
  6
CONTINUOUS
 62
     7
 10
535.0
 20
1223.7599121150811
 30
0.0
 11
535.0
 21
1344.4087010609619
 31
0.0
  0
LINE
  5
9A3
  8
DATA
  6
CONTINUOUS
 62
     7
 10
534.39103626009046
 20
1347.4701685198829
 30
0.0
 11
386.27187045293692
 21
1705.0614674589201
 31
0.0
  0
LINE
  5
9A4
  8
DATA
  6
CONTINUOUS
 62
     7
 10
0.0
 20
1223.7599121150811
 30
0.0
 11
0.0
 21
1344.4087010609619
 31
0.0
  0
LINE
  5
9A5
  8
DATA
  6
CONTINUOUS
 62
     7
 10
0.6089637399095409
 20
1347.4701685198829
 30
0.0
 11
148.72812954706319
 21
1705.0614674589201
 31
0.0
  0
LINE
  5
9A6
  8
DATA
  6
CONTINUOUS
 62
     7
 10
4.1832650967660348
 20
1216.729084661755
 30
0.0
 11
33.2146821508627
 21
1200.9691725466739
 31
0.0
  0
LINE
  5
9A7
  8
DATA
  6
CONTINUOUS
 62
     7
 10
530.81673490323385
 20
1216.729084661755
 30
0.0
 11
501.78531784913707
 21
1200.9691725466739
 31
0.0
  0
LINE
  5
9A8
  8
DATA
  6
CONTINUOUS
 62
     7
 10
700.0
 20
1006.0
 30
0.0
 11
700.0
 21
998.0
 31
0.0
  0
LINE
  5
9A9
  8
DATA
  6
CONTINUOUS
 62
     7
 10
700.0
 20
16.0
 30
0.0
 11
700.0
 21
8.0
 31
0.0
  0
LINE
  5
9AA
  8
DATA
  6
CONTINUOUS
 62
     7
 10
708.0
 20
1014.0
 30
0.0
 11
1202.0
 21
1014.0
 31
0.0
  0
LINE
  5
9AB
  8
DATA
  6
CONTINUOUS
 62
     7
 10
708.0
 20
0.0
 30
0.0
 11
1202.0
 21
0.0
 31
0.0
  0
LINE
  5
9AC
  8
DATA
  6
CONTINUOUS
 62
     7
 10
1210.0
 20
1006.0
 30
0.0
 11
1210.0
 21
8.0
 31
0.0
  0
LINE
  5
9AD
  8
DATA
  6
CONTINUOUS
 62
     7
 10
846.0
 20
1014.0
 30
0.0
 11
846.0
 21
0.0
 31
0.0
  0
LINE
  5
9AE
  8
DATA
  6
CONTINUOUS
 62
     7
 10
719.0
 20
1014.0
 30
0.0
 11
719.0
 21
0.0
 31
0.0
  0
LINE
  5
9AF
  8
DATA
  6
CONTINUOUS
 62
     7
 10
735.25
 20
-6.0
 30
0.0
 11
772.75
 21
-6.0
 31
0.0
  0
LINE
  5
9B0
  8
DATA
  6
CONTINUOUS
 62
     7
 10
735.25
 20
-6.0
 30
0.0
 11
735.25
 21
0.0
 31
0.0
  0
LINE
  5
9B1
  8
DATA
  6
CONTINUOUS
 62
     7
 10
772.75
 20
-6.0
 30
0.0
 11
772.75
 21
0.0
 31
0.0
  0
LINE
  5
9B2
  8
DATA
  6
CONTINUOUS
 62
     7
 10
1155.25
 20
-6.0
 30
0.0
 11
1192.75
 21
-6.0
 31
0.0
  0
LINE
  5
9B3
  8
DATA
  6
CONTINUOUS
 62
     7
 10
1155.25
 20
-6.0
 30
0.0
 11
1155.25
 21
0.0
 31
0.0
  0
LINE
  5
9B4
  8
DATA
  6
CONTINUOUS
 62
     7
 10
1192.75
 20
-6.0
 30
0.0
 11
1192.75
 21
0.0
 31
0.0
  0
LINE
  5
9B5
  8
DATA
  6
CONTINUOUS
 62
     7
 10
700.0
 20
998.0
 30
0.0
 11
753.0
 21
998.0
 31
0.0
  0
LINE
  5
9B6
  8
DATA
  6
CONTINUOUS
 62
     7
 10
700.0
 20
16.0
 30
0.0
 11
753.0
 21
16.0
 31
0.0
  0
LINE
  5
9B7
  8
DATA
  6
CONTINUOUS
 62
     7
 10
702.0
 20
998.0
 30
0.0
 11
702.0
 21
16.0
 31
0.0
  0
LINE
  5
9B8
  8
DATA
  6
CONTINUOUS
 62
     7
 10
757.0
 20
994.0
 30
0.0
 11
757.0
 21
20.0
 31
0.0
  0
CIRCLE
  5
9B9
  8
DATA
  6
CONTINUOUS
 62
     7
 10
750.0
 20
600.49999999999989
 30
0.0
 40
3.4999999999998681
  0
LINE
  5
9BA
  8
DATA
  6
CONTINUOUS
 62
     7
 10
748.0
 20
600.49999999999989
 30
0.0
 11
752.0
 21
600.49999999999989
 31
0.0
  0
LINE
  5
9BB
  8
DATA
  6
CONTINUOUS
 62
     7
 10
750.0
 20
602.5
 30
0.0
 11
750.0
 21
598.5
 31
0.0
  0
CIRCLE
  5
9BC
  8
DATA
  6
CONTINUOUS
 62
     7
 10
750.0
 20
787.5
 30
0.0
 40
3.4999999999998681
  0
LINE
  5
9BD
  8
DATA
  6
CONTINUOUS
 62
     7
 10
748.0
 20
787.5
 30
0.0
 11
752.0
 21
787.5
 31
0.0
  0
LINE
  5
9BE
  8
DATA
  6
CONTINUOUS
 62
     7
 10
750.0
 20
789.5
 30
0.0
 11
750.0
 21
785.5
 31
0.0
  0
CIRCLE
  5
9BF
  8
DATA
  6
CONTINUOUS
 62
     7
 10
750.0
 20
974.5
 30
0.0
 40
3.4999999999998681
  0
LINE
  5
9C0
  8
DATA
  6
CONTINUOUS
 62
     7
 10
748.0
 20
974.5
 30
0.0
 11
752.0
 21
974.5
 31
0.0
  0
LINE
  5
9C1
  8
DATA
  6
CONTINUOUS
 62
     7
 10
750.0
 20
976.5
 30
0.0
 11
750.0
 21
972.49999999999989
 31
0.0
  0
CIRCLE
  5
9C2
  8
DATA
  6
CONTINUOUS
 62
     7
 10
750.0
 20
413.49999999999989
 30
0.0
 40
3.4999999999998681
  0
LINE
  5
9C3
  8
DATA
  6
CONTINUOUS
 62
     7
 10
748.0
 20
413.49999999999989
 30
0.0
 11
752.0
 21
413.49999999999989
 31
0.0
  0
LINE
  5
9C4
  8
DATA
  6
CONTINUOUS
 62
     7
 10
750.0
 20
411.5
 30
0.0
 11
750.0
 21
415.5
 31
0.0
  0
CIRCLE
  5
9C5
  8
DATA
  6
CONTINUOUS
 62
     7
 10
750.0
 20
226.5
 30
0.0
 40
3.4999999999998681
  0
LINE
  5
9C6
  8
DATA
  6
CONTINUOUS
 62
     7
 10
748.0
 20
226.5
 30
0.0
 11
752.0
 21
226.5
 31
0.0
  0
LINE
  5
9C7
  8
DATA
  6
CONTINUOUS
 62
     7
 10
750.0
 20
224.5
 30
0.0
 11
750.0
 21
228.5
 31
0.0
  0
CIRCLE
  5
9C8
  8
DATA
  6
CONTINUOUS
 62
     7
 10
750.0
 20
39.5
 30
0.0
 40
3.4999999999998681
  0
LINE
  5
9C9
  8
DATA
  6
CONTINUOUS
 62
     7
 10
748.0
 20
39.5
 30
0.0
 11
752.0
 21
39.5
 31
0.0
  0
LINE
  5
9CA
  8
DATA
  6
CONTINUOUS
 62
     7
 10
750.0
 20
37.5
 30
0.0
 11
750.0
 21
41.5
 31
0.0
  0
LINE
  5
9CB
  8
DATA
  6
CONTINUOUS
 62
     7
 10
869.86000000000001
 20
747.0
 30
0.0
 11
1002.799077444934
 21
747.0
 31
0.0
  0
LINE
  5
9CC
  8
DATA
  6
CONTINUOUS
 62
     7
 10
1012.799077444934
 20
737.0
 30
0.0
 11
1012.799077444934
 21
537.0
 31
0.0
  0
LINE
  5
9CD
  8
DATA
  6
CONTINUOUS
 62
     7
 10
859.86000000000013
 20
737.0
 30
0.0
 11
859.86000000000013
 21
537.0
 31
0.0
  0
LINE
  5
9CE
  8
DATA
  6
CONTINUOUS
 62
     7
 10
869.86000000000001
 20
527.0
 30
0.0
 11
1002.799077444934
 21
527.0
 31
0.0
  0
LINE
  5
9CF
  8
DATA
  6
CONTINUOUS
 62
     7
 10
889.86000000000013
 20
721.0
 30
0.0
 11
982.79907744493391
 21
721.0
 31
0.0
  0
LINE
  5
9D0
  8
DATA
  6
CONTINUOUS
 62
     7
 10
889.86000000000013
 20
553.0
 30
0.0
 11
982.79907744493391
 21
553.0
 31
0.0
  0
LINE
  5
9D1
  8
DATA
  6
CONTINUOUS
 62
     7
 10
885.86000000000001
 20
557.0
 30
0.0
 11
885.86000000000001
 21
717.0
 31
0.0
  0
LINE
  5
9D2
  8
DATA
  6
CONTINUOUS
 62
     7
 10
986.79907744493403
 20
557.0
 30
0.0
 11
986.79907744493403
 21
717.0
 31
0.0
  0
LINE
  5
9D3
  8
DATA
  6
CONTINUOUS
 62
     7
 10
885.86000000000001
 20
638.0
 30
0.0
 11
986.79907744493403
 21
638.0
 31
0.0
  0
LINE
  5
9D4
  8
DATA
  6
CONTINUOUS
 62
     7
 10
885.86000000000001
 20
607.0
 30
0.0
 11
986.79907744493403
 21
607.0
 31
0.0
  0
LINE
  5
9D5
  8
DATA
  6
CONTINUOUS
 62
     7
 10
885.86000000000001
 20
632.0
 30
0.0
 11
986.79907744493403
 21
632.0
 31
0.0
  0
LINE
  5
9D6
  8
DATA
  6
CONTINUOUS
 62
     7
 10
885.86000000000001
 20
613.0
 30
0.0
 11
986.79907744493403
 21
613.0
 31
0.0
  0
CIRCLE
  5
9D7
  8
DATA
  6
CONTINUOUS
 62
     7
 10
936.32953872246719
 20
734.0
 30
0.0
 40
4.5000000000000089
  0
LINE
  5
9D8
  8
DATA
  6
CONTINUOUS
 62
     7
 10
933.50111159772086
 20
734.0
 30
0.0
 11
939.15796584721329
 21
734.0
 31
0.0
  0
LINE
  5
9D9
  8
DATA
  6
CONTINUOUS
 62
     7
 10
936.32953872246719
 20
736.82842712474599
 30
0.0
 11
936.32953872246719
 21
731.17157287525356
 31
0.0
  0
CIRCLE
  5
9DA
  8
DATA
  6
CONTINUOUS
 62
     7
 10
936.32953872246719
 20
540.0
 30
0.0
 40
4.4999999999999671
  0
LINE
  5
9DB
  8
DATA
  6
CONTINUOUS
 62
     7
 10
933.50111159772086
 20
540.0
 30
0.0
 11
939.15796584721329
 21
540.0
 31
0.0
  0
LINE
  5
9DC
  8
DATA
  6
CONTINUOUS
 62
     7
 10
936.32953872246719
 20
542.82842712474621
 30
0.0
 11
936.32953872246719
 21
537.17157287525379
 31
0.0
  0
CIRCLE
  5
9DD
  8
DATA
  6
CONTINUOUS
 62
     7
 10
1001.329538722467
 20
734.0
 30
0.0
 40
4.5000000000000089
  0
LINE
  5
9DE
  8
DATA
  6
CONTINUOUS
 62
     7
 10
998.50111159772098
 20
734.0
 30
0.0
 11
1004.1579658472129
 21
734.0
 31
0.0
  0
LINE
  5
9DF
  8
DATA
  6
CONTINUOUS
 62
     7
 10
1001.329538722467
 20
736.82842712474599
 30
0.0
 11
1001.329538722467
 21
731.17157287525356
 31
0.0
  0
CIRCLE
  5
9E0
  8
DATA
  6
CONTINUOUS
 62
     7
 10
1001.329538722467
 20
669.0
 30
0.0
 40
4.5000000000000089
  0
LINE
  5
9E1
  8
DATA
  6
CONTINUOUS
 62
     7
 10
998.50111159772098
 20
668.99999999999977
 30
0.0
 11
1004.1579658472129
 21
668.99999999999977
 31
0.0
  0
LINE
  5
9E2
  8
DATA
  6
CONTINUOUS
 62
     7
 10
1001.329538722467
 20
671.8284271247461
 30
0.0
 11
1001.329538722467
 21
666.17157287525345
 31
0.0
  0
CIRCLE
  5
9E3
  8
DATA
  6
CONTINUOUS
 62
     7
 10
1001.329538722467
 20
604.0
 30
0.0
 40
4.4999999999999671
  0
LINE
  5
9E4
  8
DATA
  6
CONTINUOUS
 62
     7
 10
998.50111159772098
 20
604.0
 30
0.0
 11
1004.1579658472129
 21
604.0
 31
0.0
  0
LINE
  5
9E5
  8
DATA
  6
CONTINUOUS
 62
     7
 10
1001.329538722467
 20
606.82842712474621
 30
0.0
 11
1001.329538722467
 21
601.17157287525379
 31
0.0
  0
CIRCLE
  5
9E6
  8
DATA
  6
CONTINUOUS
 62
     7
 10
1001.329538722467
 20
540.0
 30
0.0
 40
4.4999999999999671
  0
LINE
  5
9E7
  8
DATA
  6
CONTINUOUS
 62
     7
 10
998.50111159772098
 20
540.0
 30
0.0
 11
1004.1579658472129
 21
540.0
 31
0.0
  0
LINE
  5
9E8
  8
DATA
  6
CONTINUOUS
 62
     7
 10
1001.329538722467
 20
542.82842712474621
 30
0.0
 11
1001.329538722467
 21
537.17157287525379
 31
0.0
  0
CIRCLE
  5
9E9
  8
DATA
  6
CONTINUOUS
 62
     7
 10
871.32953872246719
 20
734.0
 30
0.0
 40
4.5000000000000089
  0
LINE
  5
9EA
  8
DATA
  6
CONTINUOUS
 62
     7
 10
868.50111159772109
 20
734.0
 30
0.0
 11
874.15796584721329
 21
734.0
 31
0.0
  0
LINE
  5
9EB
  8
DATA
  6
CONTINUOUS
 62
     7
 10
871.32953872246719
 20
736.82842712474599
 30
0.0
 11
871.32953872246719
 21
731.17157287525356
 31
0.0
  0
CIRCLE
  5
9EC
  8
DATA
  6
CONTINUOUS
 62
     7
 10
871.32953872246719
 20
669.0
 30
0.0
 40
4.5000000000000089
  0
LINE
  5
9ED
  8
DATA
  6
CONTINUOUS
 62
     7
 10
868.50111159772109
 20
668.99999999999977
 30
0.0
 11
874.15796584721329
 21
668.99999999999977
 31
0.0
  0
LINE
  5
9EE
  8
DATA
  6
CONTINUOUS
 62
     7
 10
871.32953872246719
 20
671.8284271247461
 30
0.0
 11
871.32953872246719
 21
666.17157287525345
 31
0.0
  0
CIRCLE
  5
9EF
  8
DATA
  6
CONTINUOUS
 62
     7
 10
871.32953872246719
 20
605.0
 30
0.0
 40
4.4999999999999671
  0
LINE
  5
9F0
  8
DATA
  6
CONTINUOUS
 62
     7
 10
868.50111159772109
 20
605.0
 30
0.0
 11
874.15796584721329
 21
605.0
 31
0.0
  0
LINE
  5
9F1
  8
DATA
  6
CONTINUOUS
 62
     7
 10
871.32953872246719
 20
607.8284271247461
 30
0.0
 11
871.32953872246719
 21
602.17157287525367
 31
0.0
  0
CIRCLE
  5
9F2
  8
DATA
  6
CONTINUOUS
 62
     7
 10
871.32953872246719
 20
540.0
 30
0.0
 40
4.4999999999999671
  0
LINE
  5
9F3
  8
DATA
  6
CONTINUOUS
 62
     7
 10
868.50111159772109
 20
540.0
 30
0.0
 11
874.15796584721329
 21
540.0
 31
0.0
  0
LINE
  5
9F4
  8
DATA
  6
CONTINUOUS
 62
     7
 10
871.32953872246719
 20
542.82842712474621
 30
0.0
 11
871.32953872246719
 21
537.17157287525379
 31
0.0
  0
ARC
  5
9F5
  8
DATA
  6
CONTINUOUS
 62
     7
 10
869.86000000000001
 20
737.0
 30
0.0
 40
10.0
 50
90.0
 51
180.0
  0
ARC
  5
9F6
  8
DATA
  6
CONTINUOUS
 62
     7
 10
1002.799077444934
 20
737.0
 30
0.0
 40
10.0
 50
0.0
 51
90.0
  0
ARC
  5
9F7
  8
DATA
  6
CONTINUOUS
 62
     7
 10
869.86000000000001
 20
537.0
 30
0.0
 40
10.0
 50
180.0
 51
270.0
  0
ARC
  5
9F8
  8
DATA
  6
CONTINUOUS
 62
     7
 10
1002.799077444934
 20
537.0
 30
0.0
 40
10.0
 50
270.0
 51
0.0
  0
ARC
  5
9F9
  8
DATA
  6
CONTINUOUS
 62
     7
 10
889.86000000000013
 20
717.0
 30
0.0
 40
4.0
 50
90.0
 51
180.0
  0
ARC
  5
9FA
  8
DATA
  6
CONTINUOUS
 62
     7
 10
982.79907744493391
 20
717.0
 30
0.0
 40
4.0
 50
0.0
 51
90.0
  0
ARC
  5
9FB
  8
DATA
  6
CONTINUOUS
 62
     7
 10
889.86000000000013
 20
557.0
 30
0.0
 40
4.0
 50
180.0
 51
270.0
  0
ARC
  5
9FC
  8
DATA
  6
CONTINUOUS
 62
     7
 10
982.79907744493391
 20
557.0
 30
0.0
 40
4.0
 50
270.0
 51
0.0
  0
LINE
  5
9FD
  8
DATA
  6
CONTINUOUS
 62
     7
 10
1400.0
 20
1006.0
 30
0.0
 11
1400.0
 21
8.0
 31
0.0
  0
LINE
  5
9FE
  8
DATA
  6
CONTINUOUS
 62
     7
 10
1408.0
 20
1014.0
 30
0.0
 11
1927.0
 21
1014.0
 31
0.0
  0
LINE
  5
9FF
  8
DATA
  6
CONTINUOUS
 62
     7
 10
1408.0
 20
0.0
 30
0.0
 11
1927.0
 21
0.0
 31
0.0
  0
LINE
  5
A00
  8
DATA
  6
CONTINUOUS
 62
     7
 10
1935.0
 20
8.0
 30
0.0
 11
1935.0
 21
1006.0
 31
0.0
  0
LINE
  5
A01
  8
DATA
  6
CONTINUOUS
 62
     7
 10
1550.7737367037989
 20
1014.0
 30
0.0
 11
1550.7737367037989
 21
0.0
 31
0.0
  0
LINE
  5
A02
  8
DATA
  6
CONTINUOUS
 62
     7
 10
1784.2337367037981
 20
1014.0
 30
0.0
 11
1784.2337367037981
 21
0.0
 31
0.0
  0
LINE
  5
A03
  8
DATA
  6
CONTINUOUS
 62
     7
 10
1415.74
 20
747.0
 30
0.0
 11
1457.631097425967
 21
747.0
 31
0.0
  0
LINE
  5
A04
  8
DATA
  6
CONTINUOUS
 62
     7
 10
1415.74
 20
527.0
 30
0.0
 11
1457.631097425967
 21
527.0
 31
0.0
  0
LINE
  5
A05
  8
DATA
  6
CONTINUOUS
 62
     7
 10
1405.74
 20
737.0
 30
0.0
 11
1405.74
 21
537.0
 31
0.0
  0
LINE
  5
A06
  8
DATA
  6
CONTINUOUS
 62
     7
 10
1467.631097425967
 20
737.0
 30
0.0
 11
1467.631097425967
 21
537.0
 31
0.0
  0
LINE
  5
A07
  8
DATA
  6
CONTINUOUS
 62
     7
 10
1416.233941152323
 20
713.0
 30
0.0
 11
1416.233941152323
 21
557.99999999999989
 31
0.0
  0
LINE
  5
A08
  8
DATA
  6
CONTINUOUS
 62
     7
 10
1457.1037949592039
 20
713.0
 30
0.0
 11
1457.1037949592039
 21
557.99999999999989
 31
0.0
  0
LINE
  5
A09
  8
DATA
  6
CONTINUOUS
 62
     7
 10
1424.233941152323
 20
721.0
 30
0.0
 11
1449.1037949592039
 21
721.0
 31
0.0
  0
LINE
  5
A0A
  8
DATA
  6
CONTINUOUS
 62
     7
 10
1424.233941152323
 20
549.99999999999989
 30
0.0
 11
1449.1037949592039
 21
549.99999999999989
 31
0.0
  0
LINE
  5
A0B
  8
DATA
  6
CONTINUOUS
 62
     7
 10
1416.233941152323
 20
637.99999999999989
 30
0.0
 11
1457.1037949592039
 21
637.99999999999989
 31
0.0
  0
LINE
  5
A0C
  8
DATA
  6
CONTINUOUS
 62
     7
 10
1416.233941152323
 20
606.99999999999989
 30
0.0
 11
1457.1037949592039
 21
606.99999999999989
 31
0.0
  0
LINE
  5
A0D
  8
DATA
  6
CONTINUOUS
 62
     7
 10
1416.233941152323
 20
631.99999999999989
 30
0.0
 11
1457.1037949592039
 21
631.99999999999989
 31
0.0
  0
LINE
  5
A0E
  8
DATA
  6
CONTINUOUS
 62
     7
 10
1416.233941152323
 20
612.99999999999989
 30
0.0
 11
1457.1037949592039
 21
612.99999999999989
 31
0.0
  0
CIRCLE
  5
A0F
  8
DATA
  6
CONTINUOUS
 62
     7
 10
1463.1765404511741
 20
734.0
 30
0.0
 40
4.5000000000000089
  0
LINE
  5
A10
  8
DATA
  6
CONTINUOUS
 62
     7
 10
1460.348113326427
 20
734.0
 30
0.0
 11
1466.0049675759201
 21
734.0
 31
0.0
  0
LINE
  5
A11
  8
DATA
  6
CONTINUOUS
 62
     7
 10
1463.1765404511741
 20
736.82842712474599
 30
0.0
 11
1463.1765404511741
 21
731.17157287525356
 31
0.0
  0
CIRCLE
  5
A12
  8
DATA
  6
CONTINUOUS
 62
     7
 10
1463.1765404511741
 20
669.0
 30
0.0
 40
4.5000000000000089
  0
LINE
  5
A13
  8
DATA
  6
CONTINUOUS
 62
     7
 10
1460.348113326427
 20
668.99999999999977
 30
0.0
 11
1466.0049675759201
 21
668.99999999999977
 31
0.0
  0
LINE
  5
A14
  8
DATA
  6
CONTINUOUS
 62
     7
 10
1463.1765404511741
 20
671.8284271247461
 30
0.0
 11
1463.1765404511741
 21
666.17157287525345
 31
0.0
  0
CIRCLE
  5
A15
  8
DATA
  6
CONTINUOUS
 62
     7
 10
1463.1765404511741
 20
605.0
 30
0.0
 40
4.5000000000000524
  0
LINE
  5
A16
  8
DATA
  6
CONTINUOUS
 62
     7
 10
1460.348113326427
 20
605.0
 30
0.0
 11
1466.0049675759201
 21
605.0
 31
0.0
  0
LINE
  5
A17
  8
DATA
  6
CONTINUOUS
 62
     7
 10
1463.1765404511741
 20
607.8284271247461
 30
0.0
 11
1463.1765404511741
 21
602.17157287525367
 31
0.0
  0
CIRCLE
  5
A18
  8
DATA
  6
CONTINUOUS
 62
     7
 10
1463.1765404511741
 20
540.0
 30
0.0
 40
4.5000000000000524
  0
LINE
  5
A19
  8
DATA
  6
CONTINUOUS
 62
     7
 10
1460.348113326427
 20
540.0
 30
0.0
 11
1466.0049675759201
 21
540.0
 31
0.0
  0
LINE
  5
A1A
  8
DATA
  6
CONTINUOUS
 62
     7
 10
1463.1765404511741
 20
542.82842712474621
 30
0.0
 11
1463.1765404511741
 21
537.17157287525379
 31
0.0
  0
CIRCLE
  5
A1B
  8
DATA
  6
CONTINUOUS
 62
     7
 10
1410.3471242226731
 20
734.0
 30
0.0
 40
4.5000000000000089
  0
LINE
  5
A1C
  8
DATA
  6
CONTINUOUS
 62
     7
 10
1407.518697097926
 20
734.0
 30
0.0
 11
1413.1755513474191
 21
734.0
 31
0.0
  0
LINE
  5
A1D
  8
DATA
  6
CONTINUOUS
 62
     7
 10
1410.3471242226731
 20
736.82842712474599
 30
0.0
 11
1410.3471242226731
 21
731.17157287525356
 31
0.0
  0
CIRCLE
  5
A1E
  8
DATA
  6
CONTINUOUS
 62
     7
 10
1410.3471242226731
 20
669.0
 30
0.0
 40
4.5000000000000089
  0
LINE
  5
A1F
  8
DATA
  6
CONTINUOUS
 62
     7
 10
1407.518697097926
 20
668.99999999999977
 30
0.0
 11
1413.1755513474191
 21
668.99999999999977
 31
0.0
  0
LINE
  5
A20
  8
DATA
  6
CONTINUOUS
 62
     7
 10
1410.3471242226731
 20
671.8284271247461
 30
0.0
 11
1410.3471242226731
 21
666.17157287525345
 31
0.0
  0
CIRCLE
  5
A21
  8
DATA
  6
CONTINUOUS
 62
     7
 10
1410.3471242226731
 20
605.0
 30
0.0
 40
4.5000000000000524
  0
LINE
  5
A22
  8
DATA
  6
CONTINUOUS
 62
     7
 10
1407.518697097926
 20
605.0
 30
0.0
 11
1413.1755513474191
 21
605.0
 31
0.0
  0
LINE
  5
A23
  8
DATA
  6
CONTINUOUS
 62
     7
 10
1410.3471242226731
 20
607.8284271247461
 30
0.0
 11
1410.3471242226731
 21
602.17157287525367
 31
0.0
  0
CIRCLE
  5
A24
  8
DATA
  6
CONTINUOUS
 62
     7
 10
1410.3471242226731
 20
540.0
 30
0.0
 40
4.5000000000000524
  0
LINE
  5
A25
  8
DATA
  6
CONTINUOUS
 62
     7
 10
1407.518697097926
 20
540.0
 30
0.0
 11
1413.1755513474191
 21
540.0
 31
0.0
  0
LINE
  5
A26
  8
DATA
  6
CONTINUOUS
 62
     7
 10
1410.3471242226731
 20
542.82842712474621
 30
0.0
 11
1410.3471242226731
 21
537.17157287525379
 31
0.0
  0
CIRCLE
  5
A27
  8
DATA
  6
CONTINUOUS
 62
     7
 10
1436.6765404511741
 20
734.0
 30
0.0
 40
4.5000000000000089
  0
LINE
  5
A28
  8
DATA
  6
CONTINUOUS
 62
     7
 10
1433.8481133264279
 20
734.0
 30
0.0
 11
1439.5049675759201
 21
734.0
 31
0.0
  0
LINE
  5
A29
  8
DATA
  6
CONTINUOUS
 62
     7
 10
1436.6765404511741
 20
736.82842712474599
 30
0.0
 11
1436.6765404511741
 21
731.17157287525356
 31
0.0
  0
CIRCLE
  5
A2A
  8
DATA
  6
CONTINUOUS
 62
     7
 10
1436.6765404511741
 20
540.0
 30
0.0
 40
4.4999999999999671
  0
LINE
  5
A2B
  8
DATA
  6
CONTINUOUS
 62
     7
 10
1433.8481133264279
 20
540.0
 30
0.0
 11
1439.5049675759201
 21
540.0
 31
0.0
  0
LINE
  5
A2C
  8
DATA
  6
CONTINUOUS
 62
     7
 10
1436.6765404511741
 20
542.82842712474621
 30
0.0
 11
1436.6765404511741
 21
537.17157287525379
 31
0.0
  0
ARC
  5
A2D
  8
DATA
  6
CONTINUOUS
 62
     7
 10
1415.74
 20
737.0
 30
0.0
 40
10.0
 50
90.0
 51
180.0
  0
ARC
  5
A2E
  8
DATA
  6
CONTINUOUS
 62
     7
 10
1457.631097425967
 20
737.0
 30
0.0
 40
10.0
 50
0.0
 51
90.0
  0
ARC
  5
A2F
  8
DATA
  6
CONTINUOUS
 62
     7
 10
1415.74
 20
537.0
 30
0.0
 40
10.0
 50
180.0
 51
270.0
  0
ARC
  5
A30
  8
DATA
  6
CONTINUOUS
 62
     7
 10
1457.631097425967
 20
537.0
 30
0.0
 40
10.0
 50
270.0
 51
0.0
  0
ARC
  5
A31
  8
DATA
  6
CONTINUOUS
 62
     7
 10
1424.233941152323
 20
713.0
 30
0.0
 40
8.0
 50
90.0
 51
180.0
  0
ARC
  5
A32
  8
DATA
  6
CONTINUOUS
 62
     7
 10
1449.1037949592039
 20
713.0
 30
0.0
 40
8.0
 50
0.0
 51
90.0
  0
ARC
  5
A33
  8
DATA
  6
CONTINUOUS
 62
     7
 10
1424.233941152323
 20
557.99999999999989
 30
0.0
 40
8.0
 50
180.0
 51
270.0
  0
ARC
  5
A34
  8
DATA
  6
CONTINUOUS
 62
     7
 10
1449.1037949592039
 20
557.99999999999989
 30
0.0
 40
8.0
 50
270.0
 51
0.0
  0
LINE
  5
A35
  8
DATA
  6
CONTINUOUS
 62
     7
 10
1919.26
 20
747.0
 30
0.0
 11
1877.3689025740321
 21
747.0
 31
0.0
  0
LINE
  5
A36
  8
DATA
  6
CONTINUOUS
 62
     7
 10
1919.26
 20
527.0
 30
0.0
 11
1877.3689025740321
 21
527.0
 31
0.0
  0
LINE
  5
A37
  8
DATA
  6
CONTINUOUS
 62
     7
 10
1929.26
 20
737.0
 30
0.0
 11
1929.26
 21
537.0
 31
0.0
  0
LINE
  5
A38
  8
DATA
  6
CONTINUOUS
 62
     7
 10
1867.3689025740321
 20
737.0
 30
0.0
 11
1867.3689025740321
 21
537.0
 31
0.0
  0
LINE
  5
A39
  8
DATA
  6
CONTINUOUS
 62
     7
 10
1918.766058847676
 20
713.0
 30
0.0
 11
1918.766058847676
 21
557.99999999999989
 31
0.0
  0
LINE
  5
A3A
  8
DATA
  6
CONTINUOUS
 62
     7
 10
1877.8962050407961
 20
713.0
 30
0.0
 11
1877.8962050407961
 21
557.99999999999989
 31
0.0
  0
LINE
  5
A3B
  8
DATA
  6
CONTINUOUS
 62
     7
 10
1910.766058847676
 20
721.0
 30
0.0
 11
1885.8962050407961
 21
721.0
 31
0.0
  0
LINE
  5
A3C
  8
DATA
  6
CONTINUOUS
 62
     7
 10
1910.766058847676
 20
549.99999999999989
 30
0.0
 11
1885.8962050407961
 21
549.99999999999989
 31
0.0
  0
LINE
  5
A3D
  8
DATA
  6
CONTINUOUS
 62
     7
 10
1918.766058847676
 20
637.99999999999989
 30
0.0
 11
1877.8962050407961
 21
637.99999999999989
 31
0.0
  0
LINE
  5
A3E
  8
DATA
  6
CONTINUOUS
 62
     7
 10
1918.766058847676
 20
606.99999999999989
 30
0.0
 11
1877.8962050407961
 21
606.99999999999989
 31
0.0
  0
LINE
  5
A3F
  8
DATA
  6
CONTINUOUS
 62
     7
 10
1918.766058847676
 20
631.99999999999989
 30
0.0
 11
1877.8962050407961
 21
631.99999999999989
 31
0.0
  0
LINE
  5
A40
  8
DATA
  6
CONTINUOUS
 62
     7
 10
1918.766058847676
 20
612.99999999999989
 30
0.0
 11
1877.8962050407961
 21
612.99999999999989
 31
0.0
  0
CIRCLE
  5
A41
  8
DATA
  6
CONTINUOUS
 62
     7
 10
1871.8234595488259
 20
734.0
 30
0.0
 40
4.5000000000000089
  0
LINE
  5
A42
  8
DATA
  6
CONTINUOUS
 62
     7
 10
1874.6518866735721
 20
734.0
 30
0.0
 11
1868.9950324240799
 21
734.0
 31
0.0
  0
LINE
  5
A43
  8
DATA
  6
CONTINUOUS
 62
     7
 10
1871.8234595488259
 20
736.82842712474599
 30
0.0
 11
1871.8234595488259
 21
731.17157287525356
 31
0.0
  0
CIRCLE
  5
A44
  8
DATA
  6
CONTINUOUS
 62
     7
 10
1871.8234595488259
 20
669.0
 30
0.0
 40
4.5000000000000089
  0
LINE
  5
A45
  8
DATA
  6
CONTINUOUS
 62
     7
 10
1874.6518866735721
 20
668.99999999999977
 30
0.0
 11
1868.9950324240799
 21
668.99999999999977
 31
0.0
  0
LINE
  5
A46
  8
DATA
  6
CONTINUOUS
 62
     7
 10
1871.8234595488259
 20
671.8284271247461
 30
0.0
 11
1871.8234595488259
 21
666.17157287525345
 31
0.0
  0
CIRCLE
  5
A47
  8
DATA
  6
CONTINUOUS
 62
     7
 10
1871.8234595488259
 20
605.0
 30
0.0
 40
4.5000000000000524
  0
LINE
  5
A48
  8
DATA
  6
CONTINUOUS
 62
     7
 10
1874.6518866735721
 20
605.0
 30
0.0
 11
1868.9950324240799
 21
605.0
 31
0.0
  0
LINE
  5
A49
  8
DATA
  6
CONTINUOUS
 62
     7
 10
1871.8234595488259
 20
607.8284271247461
 30
0.0
 11
1871.8234595488259
 21
602.17157287525367
 31
0.0
  0
CIRCLE
  5
A4A
  8
DATA
  6
CONTINUOUS
 62
     7
 10
1871.8234595488259
 20
540.0
 30
0.0
 40
4.5000000000000524
  0
LINE
  5
A4B
  8
DATA
  6
CONTINUOUS
 62
     7
 10
1874.6518866735721
 20
540.0
 30
0.0
 11
1868.9950324240799
 21
540.0
 31
0.0
  0
LINE
  5
A4C
  8
DATA
  6
CONTINUOUS
 62
     7
 10
1871.8234595488259
 20
542.82842712474621
 30
0.0
 11
1871.8234595488259
 21
537.17157287525379
 31
0.0
  0
CIRCLE
  5
A4D
  8
DATA
  6
CONTINUOUS
 62
     7
 10
1924.652875777326
 20
734.0
 30
0.0
 40
4.5000000000000089
  0
LINE
  5
A4E
  8
DATA
  6
CONTINUOUS
 62
     7
 10
1927.4813029020729
 20
734.0
 30
0.0
 11
1921.8244486525809
 21
734.0
 31
0.0
  0
LINE
  5
A4F
  8
DATA
  6
CONTINUOUS
 62
     7
 10
1924.652875777326
 20
736.82842712474599
 30
0.0
 11
1924.652875777326
 21
731.17157287525356
 31
0.0
  0
CIRCLE
  5
A50
  8
DATA
  6
CONTINUOUS
 62
     7
 10
1924.652875777326
 20
669.0
 30
0.0
 40
4.5000000000000089
  0
LINE
  5
A51
  8
DATA
  6
CONTINUOUS
 62
     7
 10
1927.4813029020729
 20
668.99999999999977
 30
0.0
 11
1921.8244486525809
 21
668.99999999999977
 31
0.0
  0
LINE
  5
A52
  8
DATA
  6
CONTINUOUS
 62
     7
 10
1924.652875777326
 20
671.8284271247461
 30
0.0
 11
1924.652875777326
 21
666.17157287525345
 31
0.0
  0
CIRCLE
  5
A53
  8
DATA
  6
CONTINUOUS
 62
     7
 10
1924.652875777326
 20
605.0
 30
0.0
 40
4.5000000000000524
  0
LINE
  5
A54
  8
DATA
  6
CONTINUOUS
 62
     7
 10
1927.4813029020729
 20
605.0
 30
0.0
 11
1921.8244486525809
 21
605.0
 31
0.0
  0
LINE
  5
A55
  8
DATA
  6
CONTINUOUS
 62
     7
 10
1924.652875777326
 20
607.8284271247461
 30
0.0
 11
1924.652875777326
 21
602.17157287525367
 31
0.0
  0
CIRCLE
  5
A56
  8
DATA
  6
CONTINUOUS
 62
     7
 10
1924.652875777326
 20
540.0
 30
0.0
 40
4.5000000000000524
  0
LINE
  5
A57
  8
DATA
  6
CONTINUOUS
 62
     7
 10
1927.4813029020729
 20
540.0
 30
0.0
 11
1921.8244486525809
 21
540.0
 31
0.0
  0
LINE
  5
A58
  8
DATA
  6
CONTINUOUS
 62
     7
 10
1924.652875777326
 20
542.82842712474621
 30
0.0
 11
1924.652875777326
 21
537.17157287525379
 31
0.0
  0
CIRCLE
  5
A59
  8
DATA
  6
CONTINUOUS
 62
     7
 10
1898.3234595488259
 20
734.0
 30
0.0
 40
4.5000000000000089
  0
LINE
  5
A5A
  8
DATA
  6
CONTINUOUS
 62
     7
 10
1901.1518866735721
 20
734.0
 30
0.0
 11
1895.495032424079
 21
734.0
 31
0.0
  0
LINE
  5
A5B
  8
DATA
  6
CONTINUOUS
 62
     7
 10
1898.3234595488259
 20
736.82842712474599
 30
0.0
 11
1898.3234595488259
 21
731.17157287525356
 31
0.0
  0
CIRCLE
  5
A5C
  8
DATA
  6
CONTINUOUS
 62
     7
 10
1898.3234595488259
 20
540.0
 30
0.0
 40
4.4999999999999671
  0
LINE
  5
A5D
  8
DATA
  6
CONTINUOUS
 62
     7
 10
1901.1518866735721
 20
540.0
 30
0.0
 11
1895.495032424079
 21
540.0
 31
0.0
  0
LINE
  5
A5E
  8
DATA
  6
CONTINUOUS
 62
     7
 10
1898.3234595488259
 20
542.82842712474621
 30
0.0
 11
1898.3234595488259
 21
537.17157287525379
 31
0.0
  0
ARC
  5
A5F
  8
DATA
  6
CONTINUOUS
 62
     7
 10
1919.26
 20
737.0
 30
0.0
 40
10.0
 50
0.0
 51
90.0
  0
ARC
  5
A60
  8
DATA
  6
CONTINUOUS
 62
     7
 10
1877.3689025740321
 20
737.0
 30
0.0
 40
10.0
 50
90.0
 51
180.0
  0
ARC
  5
A61
  8
DATA
  6
CONTINUOUS
 62
     7
 10
1919.26
 20
537.0
 30
0.0
 40
10.0
 50
270.0
 51
0.0
  0
ARC
  5
A62
  8
DATA
  6
CONTINUOUS
 62
     7
 10
1877.3689025740321
 20
537.0
 30
0.0
 40
10.0
 50
180.0
 51
270.0
  0
ARC
  5
A63
  8
DATA
  6
CONTINUOUS
 62
     7
 10
1910.766058847676
 20
713.0
 30
0.0
 40
8.0
 50
0.0
 51
90.0
  0
ARC
  5
A64
  8
DATA
  6
CONTINUOUS
 62
     7
 10
1885.8962050407961
 20
713.0
 30
0.0
 40
8.0
 50
90.0
 51
180.0
  0
ARC
  5
A65
  8
DATA
  6
CONTINUOUS
 62
     7
 10
1910.766058847676
 20
557.99999999999989
 30
0.0
 40
8.0
 50
270.0
 51
0.0
  0
ARC
  5
A66
  8
DATA
  6
CONTINUOUS
 62
     7
 10
1885.8962050407961
 20
557.99999999999989
 30
0.0
 40
8.0
 50
180.0
 51
270.0
  0
CIRCLE
  5
A67
  8
DATA
  6
CONTINUOUS
 62
     7
 10
1720.855
 20
260.0
 30
0.0
 40
3.5
  0
LINE
  5
A68
  8
DATA
  6
CONTINUOUS
 62
     7
 10
1720.855
 20
262.0
 30
0.0
 11
1720.855
 21
258.0
 31
0.0
  0
LINE
  5
A69
  8
DATA
  6
CONTINUOUS
 62
     7
 10
1718.855
 20
260.0
 30
0.0
 11
1722.855
 21
260.0
 31
0.0
  0
CIRCLE
  5
A6A
  8
DATA
  6
CONTINUOUS
 62
     7
 10
1720.855
 20
167.0
 30
0.0
 40
3.5
  0
LINE
  5
A6B
  8
DATA
  6
CONTINUOUS
 62
     7
 10
1720.855
 20
169.0
 30
0.0
 11
1720.855
 21
165.0
 31
0.0
  0
LINE
  5
A6C
  8
DATA
  6
CONTINUOUS
 62
     7
 10
1718.855
 20
167.0
 30
0.0
 11
1722.855
 21
167.0
 31
0.0
  0
CIRCLE
  5
A6D
  8
DATA
  6
CONTINUOUS
 62
     7
 10
1720.855
 20
353.0
 30
0.0
 40
3.5
  0
LINE
  5
A6E
  8
DATA
  6
CONTINUOUS
 62
     7
 10
1720.855
 20
355.0
 30
0.0
 11
1720.855
 21
351.0
 31
0.0
  0
LINE
  5
A6F
  8
DATA
  6
CONTINUOUS
 62
     7
 10
1718.855
 20
353.0
 30
0.0
 11
1722.855
 21
353.0
 31
0.0
  0
CIRCLE
  5
A70
  8
DATA
  6
CONTINUOUS
 62
     7
 10
1615.355
 20
260.0
 30
0.0
 40
3.5
  0
LINE
  5
A71
  8
DATA
  6
CONTINUOUS
 62
     7
 10
1615.355
 20
262.0
 30
0.0
 11
1615.355
 21
258.0
 31
0.0
  0
LINE
  5
A72
  8
DATA
  6
CONTINUOUS
 62
     7
 10
1613.355
 20
260.0
 30
0.0
 11
1617.355
 21
260.0
 31
0.0
  0
CIRCLE
  5
A73
  8
DATA
  6
CONTINUOUS
 62
     7
 10
1615.355
 20
167.0
 30
0.0
 40
3.5
  0
LINE
  5
A74
  8
DATA
  6
CONTINUOUS
 62
     7
 10
1615.355
 20
169.0
 30
0.0
 11
1615.355
 21
165.0
 31
0.0
  0
LINE
  5
A75
  8
DATA
  6
CONTINUOUS
 62
     7
 10
1613.355
 20
167.0
 30
0.0
 11
1617.355
 21
167.0
 31
0.0
  0
CIRCLE
  5
A76
  8
DATA
  6
CONTINUOUS
 62
     7
 10
1615.355
 20
353.0
 30
0.0
 40
3.5
  0
LINE
  5
A77
  8
DATA
  6
CONTINUOUS
 62
     7
 10
1615.355
 20
355.0
 30
0.0
 11
1615.355
 21
351.0
 31
0.0
  0
LINE
  5
A78
  8
DATA
  6
CONTINUOUS
 62
     7
 10
1613.355
 20
353.0
 30
0.0
 11
1617.355
 21
353.0
 31
0.0
  0
LINE
  5
A79
  8
DATA
  6
CONTINUOUS
 62
     7
 10
1615.0608891324521
 20
359.0
 30
0.0
 11
1719.9391108675479
 21
359.0
 31
0.0
  0
LINE
  5
A7A
  8
DATA
  6
CONTINUOUS
 62
     7
 10
1607.0608891324509
 20
351.0
 30
0.0
 11
1607.0608891324509
 21
169.0
 31
0.0
  0
LINE
  5
A7B
  8
DATA
  6
CONTINUOUS
 62
     7
 10
1727.9391108675479
 20
351.0
 30
0.0
 11
1727.9391108675479
 21
169.0
 31
0.0
  0
LINE
  5
A7C
  8
DATA
  6
CONTINUOUS
 62
     7
 10
1719.9391108675479
 20
161.0
 30
0.0
 11
1615.0608891324521
 21
161.0
 31
0.0
  0
LINE
  5
A7D
  8
DATA
  6
CONTINUOUS
 62
     7
 10
1627.649110867548
 20
344.0
 30
0.0
 11
1707.649110867548
 21
344.0
 31
0.0
  0
LINE
  5
A7E
  8
DATA
  6
CONTINUOUS
 62
     7
 10
1623.649110867548
 20
340.0
 30
0.0
 11
1623.649110867548
 21
180.0
 31
0.0
  0
LINE
  5
A7F
  8
DATA
  6
CONTINUOUS
 62
     7
 10
1627.649110867548
 20
176.0
 30
0.0
 11
1707.649110867548
 21
176.0
 31
0.0
  0
LINE
  5
A80
  8
DATA
  6
CONTINUOUS
 62
     7
 10
1711.649110867548
 20
340.0
 30
0.0
 11
1711.649110867548
 21
180.0
 31
0.0
  0
CIRCLE
  5
A81
  8
DATA
  6
CONTINUOUS
 62
     7
 10
1653.5
 20
229.0
 30
0.0
 40
2.999999999999984
  0
CIRCLE
  5
A82
  8
DATA
  6
CONTINUOUS
 62
     7
 10
1681.7982217350959
 20
229.0
 30
0.0
 40
2.999999999999984
  0
LINE
  5
A83
  8
DATA
  6
CONTINUOUS
 62
     7
 10
37.031417054096657
 20
-341.0
 30
0.0
 11
497.96858294590288
 21
-341.0
 31
0.0
  0
LINE
  5
A84
  8
DATA
  6
CONTINUOUS
 62
     7
 10
156.11916580715391
 20
-851.0
 30
0.0
 11
378.88083419284658
 21
-851.0
 31
0.0
  0
LINE
  5
A85
  8
DATA
  6
CONTINUOUS
 62
     7
 10
535.0
 20
-364.75991211508108
 30
0.0
 11
535.0
 21
-485.40870106096281
 31
0.0
  0
LINE
  5
A86
  8
DATA
  6
CONTINUOUS
 62
     7
 10
534.39103626009046
 20
-488.47016851988332
 30
0.0
 11
386.27187045293692
 21
-846.06146745892045
 31
0.0
  0
LINE
  5
A87
  8
DATA
  6
CONTINUOUS
 62
     7
 10
0.0
 20
-364.75991211508108
 30
0.0
 11
0.0
 21
-485.40870106096179
 31
0.0
  0
LINE
  5
A88
  8
DATA
  6
CONTINUOUS
 62
     7
 10
0.6089637399095409
 20
-488.47016851988252
 30
0.0
 11
148.72812954706339
 21
-846.06146745892045
 31
0.0
  0
LINE
  5
A89
  8
DATA
  6
CONTINUOUS
 62
     7
 10
4.1832650967660348
 20
-357.72908466175539
 30
0.0
 11
33.214682150862927
 21
-341.96917254667437
 31
0.0
  0
LINE
  5
A8A
  8
DATA
  6
CONTINUOUS
 62
     7
 10
530.81673490323385
 20
-357.72908466175539
 30
0.0
 11
501.78531784913679
 21
-341.96917254667437
 31
0.0
  0
LINE
  5
A8B
  8
DATA
  6
CONTINUOUS
 62
     7
 10
1438.25
 20
-6.0
 30
0.0
 11
1475.75
 21
-6.0
 31
0.0
  0
LINE
  5
A8C
  8
DATA
  6
CONTINUOUS
 62
     7
 10
1438.25
 20
-6.0
 30
0.0
 11
1438.25
 21
0.0
 31
0.0
  0
LINE
  5
A8D
  8
DATA
  6
CONTINUOUS
 62
     7
 10
1475.75
 20
-6.0
 30
0.0
 11
1475.75
 21
0.0
 31
0.0
  0
LINE
  5
A8E
  8
DATA
  6
CONTINUOUS
 62
     7
 10
1896.75
 20
-6.0
 30
0.0
 11
1859.25
 21
-6.0
 31
0.0
  0
LINE
  5
A8F
  8
DATA
  6
CONTINUOUS
 62
     7
 10
1896.75
 20
-6.0
 30
0.0
 11
1896.75
 21
0.0
 31
0.0
  0
LINE
  5
A90
  8
DATA
  6
CONTINUOUS
 62
     7
 10
1859.25
 20
-6.0
 30
0.0
 11
1859.25
 21
0.0
 31
0.0
  0
LINE
  5
A91
  8
DATA
  6
CONTINUOUS
 62
     7
 10
1559.75
 20
-6.0
 30
0.0
 11
1597.25
 21
-6.0
 31
0.0
  0
LINE
  5
A92
  8
DATA
  6
CONTINUOUS
 62
     7
 10
1559.75
 20
-6.0
 30
0.0
 11
1559.75
 21
0.0
 31
0.0
  0
LINE
  5
A93
  8
DATA
  6
CONTINUOUS
 62
     7
 10
1597.25
 20
-6.0
 30
0.0
 11
1597.25
 21
0.0
 31
0.0
  0
LINE
  5
A94
  8
DATA
  6
CONTINUOUS
 62
     7
 10
1775.25
 20
-6.0
 30
0.0
 11
1737.75
 21
-6.0
 31
0.0
  0
LINE
  5
A95
  8
DATA
  6
CONTINUOUS
 62
     7
 10
1775.25
 20
-6.0
 30
0.0
 11
1775.25
 21
0.0
 31
0.0
  0
LINE
  5
A96
  8
DATA
  6
CONTINUOUS
 62
     7
 10
1737.75
 20
-6.0
 30
0.0
 11
1737.75
 21
0.0
 31
0.0
  0
CIRCLE
  5
A97
  8
DATA
  6
CONTINUOUS
 62
     7
 10
57.0
 20
-395.0
 30
0.0
 40
18.749999999999901
  0
CIRCLE
  5
A98
  8
DATA
  6
CONTINUOUS
 62
     7
 10
57.0
 20
-395.0
 30
0.0
 40
3.9999999999999112
  0
LINE
  5
A99
  8
DATA
  6
CONTINUOUS
 62
     7
 10
54.5
 20
-395.0
 30
0.0
 11
59.5
 21
-395.0
 31
0.0
  0
LINE
  5
A9A
  8
DATA
  6
CONTINUOUS
 62
     7
 10
57.0
 20
-392.5
 30
0.0
 11
57.0
 21
-397.5
 31
0.0
  0
CIRCLE
  5
A9B
  8
DATA
  6
CONTINUOUS
 62
     7
 10
57.0
 20
-395.0
 30
0.0
 40
5.0000000000000089
  0
CIRCLE
  5
A9C
  8
DATA
  6
CONTINUOUS
 62
     7
 10
178.5
 20
-815.0
 30
0.0
 40
18.749999999999901
  0
CIRCLE
  5
A9D
  8
DATA
  6
CONTINUOUS
 62
     7
 10
178.5
 20
-815.0
 30
0.0
 40
3.9999999999998739
  0
LINE
  5
A9E
  8
DATA
  6
CONTINUOUS
 62
     7
 10
176.0
 20
-815.0
 30
0.0
 11
181.0
 21
-815.0
 31
0.0
  0
LINE
  5
A9F
  8
DATA
  6
CONTINUOUS
 62
     7
 10
178.5
 20
-812.5
 30
0.0
 11
178.5
 21
-817.5
 31
0.0
  0
CIRCLE
  5
AA0
  8
DATA
  6
CONTINUOUS
 62
     7
 10
178.5
 20
-815.0
 30
0.0
 40
4.9999999999999742
  0
CIRCLE
  5
AA1
  8
DATA
  6
CONTINUOUS
 62
     7
 10
478.0
 20
-395.0
 30
0.0
 40
18.749999999999901
  0
CIRCLE
  5
AA2
  8
DATA
  6
CONTINUOUS
 62
     7
 10
478.0
 20
-395.0
 30
0.0
 40
3.9999999999999112
  0
LINE
  5
AA3
  8
DATA
  6
CONTINUOUS
 62
     7
 10
480.49999999999989
 20
-395.0
 30
0.0
 11
475.49999999999989
 21
-395.0
 31
0.0
  0
LINE
  5
AA4
  8
DATA
  6
CONTINUOUS
 62
     7
 10
478.0
 20
-392.5
 30
0.0
 11
478.0
 21
-397.5
 31
0.0
  0
CIRCLE
  5
AA5
  8
DATA
  6
CONTINUOUS
 62
     7
 10
478.0
 20
-395.0
 30
0.0
 40
5.0000000000000089
  0
CIRCLE
  5
AA6
  8
DATA
  6
CONTINUOUS
 62
     7
 10
356.5
 20
-815.0
 30
0.0
 40
18.749999999999901
  0
CIRCLE
  5
AA7
  8
DATA
  6
CONTINUOUS
 62
     7
 10
356.5
 20
-815.0
 30
0.0
 40
3.9999999999998739
  0
LINE
  5
AA8
  8
DATA
  6
CONTINUOUS
 62
     7
 10
359.0
 20
-815.0
 30
0.0
 11
354.0
 21
-815.0
 31
0.0
  0
LINE
  5
AA9
  8
DATA
  6
CONTINUOUS
 62
     7
 10
356.5
 20
-812.5
 30
0.0
 11
356.5
 21
-817.5
 31
0.0
  0
CIRCLE
  5
AAA
  8
DATA
  6
CONTINUOUS
 62
     7
 10
356.5
 20
-815.0
 30
0.0
 40
4.9999999999999742
  0
ARC
  5
AAB
  8
DATA
  6
CONTINUOUS
 62
     7
 10
8.0
 20
1006.0
 30
0.0
 40
8.0
 50
90.0
 51
180.0
  0
ARC
  5
AAC
  8
DATA
  6
CONTINUOUS
 62
     7
 10
527.0
 20
1006.0
 30
0.0
 40
8.0
 50
0.0
 51
90.0
  0
ARC
  5
AAD
  8
DATA
  6
CONTINUOUS
 62
     7
 10
8.0
 20
8.0
 30
0.0
 40
8.0
 50
180.0
 51
270.0
  0
ARC
  5
AAE
  8
DATA
  6
CONTINUOUS
 62
     7
 10
527.0
 20
8.0
 30
0.0
 40
8.0
 50
270.0
 51
0.0
  0
ARC
  5
AAF
  8
DATA
  6
CONTINUOUS
 62
     7
 10
37.031417054096437
 20
1208.0
 30
0.0
 40
7.9999999999999227
 50
241.50436138175581
 51
270.00000000000171
  0
ARC
  5
AB0
  8
DATA
  6
CONTINUOUS
 62
     7
 10
8.0000000000002274
 20
1223.7599121150799
 30
0.0
 40
8.0000000000002274
 50
179.99999999999889
 51
241.5043613817524
  0
ARC
  5
AB1
  8
DATA
  6
CONTINUOUS
 62
     7
 10
8.0
 20
1344.4087010609619
 30
0.0
 40
8.0
 50
157.5000000000031
 51
180.00000000000179
  0
ARC
  5
AB2
  8
DATA
  6
CONTINUOUS
 62
     7
 10
156.11916580715359
 20
1702.0
 30
0.0
 40
8.0
 50
90.0
 51
157.50000000000151
  0
ARC
  5
AB3
  8
DATA
  6
CONTINUOUS
 62
     7
 10
378.88083419284652
 20
1702.0
 30
0.0
 40
8.0000000000000924
 50
22.499999999998501
 51
89.999999999999176
  0
ARC
  5
AB4
  8
DATA
  6
CONTINUOUS
 62
     7
 10
527.00000000000011
 20
1344.4087010609619
 30
0.0
 40
7.9999999999998863
 50
0.0000000000020464
 51
22.500000000001151
  0
ARC
  5
AB5
  8
DATA
  6
CONTINUOUS
 62
     7
 10
527.0
 20
1223.7599121150811
 30
0.0
 40
8.0000000000000409
 50
298.49563861824458
 51
359.9999999999996
  0
ARC
  5
AB6
  8
DATA
  6
CONTINUOUS
 62
     7
 10
497.96858294590328
 20
1208.0
 30
0.0
 40
8.0000000000000284
 50
270.0
 51
298.49563861824481
  0
ARC
  5
AB7
  8
DATA
  6
CONTINUOUS
 62
     7
 10
708.0
 20
1006.0
 30
0.0
 40
8.0
 50
90.0
 51
180.0
  0
ARC
  5
AB8
  8
DATA
  6
CONTINUOUS
 62
     7
 10
1202.0
 20
1006.0
 30
0.0
 40
8.0
 50
0.0
 51
90.0
  0
ARC
  5
AB9
  8
DATA
  6
CONTINUOUS
 62
     7
 10
1202.0
 20
8.0
 30
0.0
 40
8.0
 50
270.0
 51
0.0
  0
ARC
  5
ABA
  8
DATA
  6
CONTINUOUS
 62
     7
 10
708.0
 20
8.0
 30
0.0
 40
8.0
 50
180.0
 51
270.0
  0
ARC
  5
ABB
  8
DATA
  6
CONTINUOUS
 62
     7
 10
1408.0
 20
8.0
 30
0.0
 40
8.0
 50
180.0
 51
270.0
  0
ARC
  5
ABC
  8
DATA
  6
CONTINUOUS
 62
     7
 10
1927.0
 20
8.0
 30
0.0
 40
8.0
 50
270.0
 51
0.0
  0
ARC
  5
ABD
  8
DATA
  6
CONTINUOUS
 62
     7
 10
1927.0
 20
1006.0
 30
0.0
 40
8.0
 50
0.0
 51
90.0
  0
ARC
  5
ABE
  8
DATA
  6
CONTINUOUS
 62
     7
 10
1408.0
 20
1006.0
 30
0.0
 40
8.0
 50
90.0
 51
180.0
  0
ARC
  5
ABF
  8
DATA
  6
CONTINUOUS
 62
     7
 10
8.0
 20
-364.75991211508119
 30
0.0
 40
8.0000000000003073
 50
118.4956386182445
 51
179.99999999999829
  0
ARC
  5
AC0
  8
DATA
  6
CONTINUOUS
 62
     7
 10
8.0
 20
-485.40870106096202
 30
0.0
 40
8.0
 50
179.99999999999829
 51
202.4999999999971
  0
ARC
  5
AC1
  8
DATA
  6
CONTINUOUS
 62
     7
 10
156.11916580715391
 20
-843.0
 30
0.0
 40
8.0000000000000924
 50
202.49999999999849
 51
270.0
  0
ARC
  5
AC2
  8
DATA
  6
CONTINUOUS
 62
     7
 10
378.88083419284658
 20
-843.0
 30
0.0
 40
8.0
 50
270.0
 51
337.50000000000119
  0
ARC
  5
AC3
  8
DATA
  6
CONTINUOUS
 62
     7
 10
527.0
 20
-485.40870106096298
 30
0.0
 40
7.9999999999998987
 50
337.50000000000261
 51
0.0000000000016485
  0
ARC
  5
AC4
  8
DATA
  6
CONTINUOUS
 62
     7
 10
526.99999999999977
 20
-364.75991211508079
 30
0.0
 40
8.0000000000001137
 50
359.99999999999841
 51
61.504361381753931
  0
ARC
  5
AC5
  8
DATA
  6
CONTINUOUS
 62
     7
 10
497.96858294590271
 20
-349.0
 30
0.0
 40
8.0000000000001616
 50
61.504361381753966
 51
89.99999999999838
  0
ARC
  5
AC6
  8
DATA
  6
CONTINUOUS
 62
     7
 10
37.03141705409621
 20
-349.00000000000023
 30
0.0
 40
8.0000000000002274
 50
89.999999999996732
 51
118.49563861824021
  0
ARC
  5
AC7
  8
DATA
  6
CONTINUOUS
 62
     7
 10
753.0
 20
994.0
 30
0.0
 40
4.0
 50
0.0
 51
90.0
  0
ARC
  5
AC8
  8
DATA
  6
CONTINUOUS
 62
     7
 10
753.0
 20
20.0
 30
0.0
 40
4.0
 50
270.0
 51
0.0
  0
LINE
  5
AC9
  8
DATA
  6
CONTINUOUS
 62
     7
 10
2220.166523928965
 20
723.30189824547028
 30
0.0
 11
2920.166523928965
 21
723.30189824547028
 31
0.0
  0
TEXT
  5
ACA
  8
DATA
 62
     7
 10
2266.7757287817931
 20
744.75697637047006
 30
0.0
 40
45.46546936035157
  1
コネクターパネル拡大図
 41
0.8
 11
2266.7757287817931
 21
790.22244573082173
 31
0.0
 73
     3
  0
TEXT
  5
ACB
  8
DATA
 62
     7
 10
2331.4199981159632
 20
483.54079999999999
 30
0.0
 40
35.182968750000001
  1
SRX738
 41
0.8
 11
2331.4199981159632
 21
518.72376874999986
 31
0.0
 73
     3
  0
TEXT
  5
ACC
  8
DATA
 62
     7
 10
2344.166666666667
 20
37.372499999999803
 30
0.0
 40
32.576822916666671
  1
FULL RANGE
 41
0.8
 11
2344.166666666667
 21
69.949322916666461
 31
0.0
 73
     3
  0
TEXT
  5
ACD
  8
DATA
 62
     7
 10
2340.356666666667
 20
-0.7275000000010011
 30
0.0
 40
27.147352430555561
  1
±1 IN:8Ω
 41
0.8
 11
2340.356666666667
 21
26.41985243055456
 31
0.0
 73
     3
  0
TEXT
  5
ACE
  8
DATA
 62
     7
 10
2340.356666666667
 20
-37.799166666667261
 30
0.0
 40
27.147352430555561
  1
±2 N/C
 41
0.8
 11
2340.356666666667
 21
-10.651814236111701
 31
0.0
 73
     3
  0
TEXT
  5
ACF
  8
DATA
 62
     7
 10
2598.7828401592528
 20
38.632499999999787
 30
0.0
 40
32.576822916666671
  1
BI-AMP
 41
0.8
 11
2598.7828401592528
 21
71.209322916666451
 31
0.0
 73
     3
  0
TEXT
  5
AD0
  8
DATA
 62
     7
 10
2594.9728401592538
 20
0.5324999999989935
 30
0.0
 40
27.147352430555561
  1
±1 LF:8Ω
 41
0.8
 11
2594.9728401592538
 21
27.679852430554551
 31
0.0
 73
     3
  0
TEXT
  5
AD1
  8
DATA
 62
     7
 10
2594.9728401592538
 20
-36.539166666667271
 30
0.0
 40
27.147352430555561
  1
±2 HF:8Ω
 41
0.8
 11
2594.9728401592538
 21
-9.3918142361117116
 31
0.0
 73
     3
  0
TEXT
  5
AD2
  8
DATA
 62
     7
 10
2568.320000807445
 20
-350.60319999999979
 30
0.0
 40
54.729062500000012
  1
SRX700
 41
0.8
 11
2568.320000807445
 21
-295.87413749999979
 31
0.0
 73
     3
  0
ARC
  5
AD3
  8
DATA
  6
CONTINUOUS
 62
     7
 10
1615.0608891324521
 20
351.0
 30
0.0
 40
8.0
 50
90.0
 51
180.0
  0
ARC
  5
AD4
  8
DATA
  6
CONTINUOUS
 62
     7
 10
1615.0608891324521
 20
169.0
 30
0.0
 40
8.0
 50
180.0
 51
270.0
  0
ARC
  5
AD5
  8
DATA
  6
CONTINUOUS
 62
     7
 10
1719.9391108675479
 20
169.0
 30
0.0
 40
8.0
 50
270.0
 51
0.0
  0
ARC
  5
AD6
  8
DATA
  6
CONTINUOUS
 62
     7
 10
1719.9391108675479
 20
351.0
 30
0.0
 40
8.0
 50
0.0
 51
90.0
  0
ARC
  5
AD7
  8
DATA
  6
CONTINUOUS
 62
     7
 10
1627.649110867548
 20
340.0
 30
0.0
 40
4.0
 50
90.0
 51
180.0
  0
ARC
  5
AD8
  8
DATA
  6
CONTINUOUS
 62
     7
 10
1627.649110867548
 20
180.0
 30
0.0
 40
4.0
 50
180.0
 51
270.0
  0
ARC
  5
AD9
  8
DATA
  6
CONTINUOUS
 62
     7
 10
1707.649110867548
 20
180.0
 30
0.0
 40
4.0
 50
270.0
 51
0.0
  0
ARC
  5
ADA
  8
DATA
  6
CONTINUOUS
 62
     7
 10
1707.649110867548
 20
340.0
 30
0.0
 40
4.0
 50
0.0
 51
90.0
  0
CIRCLE
  5
ADB
  8
DATA
  6
CONTINUOUS
 62
     7
 10
2882.764665205289
 20
106.0
 30
0.0
 40
21.0
  0
LINE
  5
ADC
  8
DATA
  6
CONTINUOUS
 62
     7
 10
2882.764665205289
 20
118.0
 30
0.0
 11
2882.764665205289
 21
94.0
 31
0.0
  0
LINE
  5
ADD
  8
DATA
  6
CONTINUOUS
 62
     7
 10
2870.764665205289
 20
106.0
 30
0.0
 11
2894.7646652052881
 21
106.0
 31
0.0
  0
CIRCLE
  5
ADE
  8
DATA
  6
CONTINUOUS
 62
     7
 10
2882.764665205289
 20
-452.0
 30
0.0
 40
21.0
  0
LINE
  5
ADF
  8
DATA
  6
CONTINUOUS
 62
     7
 10
2882.764665205289
 20
-440.0
 30
0.0
 11
2882.764665205289
 21
-464.0
 31
0.0
  0
LINE
  5
AE0
  8
DATA
  6
CONTINUOUS
 62
     7
 10
2870.764665205289
 20
-452.0
 30
0.0
 11
2894.7646652052881
 21
-452.0
 31
0.0
  0
CIRCLE
  5
AE1
  8
DATA
  6
CONTINUOUS
 62
     7
 10
2882.764665205289
 20
664.0
 30
0.0
 40
21.0
  0
LINE
  5
AE2
  8
DATA
  6
CONTINUOUS
 62
     7
 10
2882.764665205289
 20
676.0
 30
0.0
 11
2882.764665205289
 21
652.0
 31
0.0
  0
LINE
  5
AE3
  8
DATA
  6
CONTINUOUS
 62
     7
 10
2870.764665205289
 20
664.0
 30
0.0
 11
2894.7646652052881
 21
664.0
 31
0.0
  0
CIRCLE
  5
AE4
  8
DATA
  6
CONTINUOUS
 62
     7
 10
2249.764665205289
 20
106.0
 30
0.0
 40
21.0
  0
LINE
  5
AE5
  8
DATA
  6
CONTINUOUS
 62
     7
 10
2249.764665205289
 20
118.0
 30
0.0
 11
2249.764665205289
 21
94.0
 31
0.0
  0
LINE
  5
AE6
  8
DATA
  6
CONTINUOUS
 62
     7
 10
2237.764665205289
 20
106.0
 30
0.0
 11
2261.764665205289
 21
106.0
 31
0.0
  0
CIRCLE
  5
AE7
  8
DATA
  6
CONTINUOUS
 62
     7
 10
2249.764665205289
 20
-452.0
 30
0.0
 40
21.0
  0
LINE
  5
AE8
  8
DATA
  6
CONTINUOUS
 62
     7
 10
2249.764665205289
 20
-440.0
 30
0.0
 11
2249.764665205289
 21
-464.0
 31
0.0
  0
LINE
  5
AE9
  8
DATA
  6
CONTINUOUS
 62
     7
 10
2237.764665205289
 20
-452.0
 30
0.0
 11
2261.764665205289
 21
-452.0
 31
0.0
  0
CIRCLE
  5
AEA
  8
DATA
  6
CONTINUOUS
 62
     7
 10
2249.764665205289
 20
664.0
 30
0.0
 40
21.0
  0
LINE
  5
AEB
  8
DATA
  6
CONTINUOUS
 62
     7
 10
2249.764665205289
 20
676.0
 30
0.0
 11
2249.764665205289
 21
652.0
 31
0.0
  0
LINE
  5
AEC
  8
DATA
  6
CONTINUOUS
 62
     7
 10
2237.764665205289
 20
664.0
 30
0.0
 11
2261.764665205289
 21
664.0
 31
0.0
  0
LINE
  5
AED
  8
DATA
  6
CONTINUOUS
 62
     7
 10
2248.0
 20
700.0
 30
0.0
 11
2877.2693304105792
 21
700.0
 31
0.0
  0
LINE
  5
AEE
  8
DATA
  6
CONTINUOUS
 62
     7
 10
2200.0
 20
652.0
 30
0.0
 11
2200.0
 21
-440.0
 31
0.0
  0
LINE
  5
AEF
  8
DATA
  6
CONTINUOUS
 62
     7
 10
2925.2693304105792
 20
652.0
 30
0.0
 11
2925.2693304105792
 21
-440.0
 31
0.0
  0
LINE
  5
AF0
  8
DATA
  6
CONTINUOUS
 62
     7
 10
2877.2693304105792
 20
-488.0
 30
0.0
 11
2248.0
 21
-488.0
 31
0.0
  0
LINE
  5
AF1
  8
DATA
  6
CONTINUOUS
 62
     7
 10
2323.529330410579
 20
610.0
 30
0.0
 11
2803.5293304105799
 21
610.0
 31
0.0
  0
LINE
  5
AF2
  8
DATA
  6
CONTINUOUS
 62
     7
 10
2299.529330410579
 20
586.0
 30
0.0
 11
2299.529330410579
 21
-374.0
 31
0.0
  0
LINE
  5
AF3
  8
DATA
  6
CONTINUOUS
 62
     7
 10
2323.529330410579
 20
-398.0
 30
0.0
 11
2803.5293304105799
 21
-398.0
 31
0.0
  0
LINE
  5
AF4
  8
DATA
  6
CONTINUOUS
 62
     7
 10
2827.529330410579
 20
586.0
 30
0.0
 11
2827.529330410579
 21
-374.0
 31
0.0
  0
CIRCLE
  5
AF5
  8
DATA
  6
CONTINUOUS
 62
     7
 10
2478.6346652052889
 20
-80.0
 30
0.0
 40
17.99999999999892
  0
CIRCLE
  5
AF6
  8
DATA
  6
CONTINUOUS
 62
     7
 10
2648.4239956158699
 20
-80.0
 30
0.0
 40
17.99999999999892
  0
ARC
  5
AF7
  8
DATA
  6
CONTINUOUS
 62
     7
 10
2248.0
 20
652.0
 30
0.0
 40
48.0
 50
90.0
 51
180.0
  0
ARC
  5
AF8
  8
DATA
  6
CONTINUOUS
 62
     7
 10
2248.0
 20
-440.0
 30
0.0
 40
48.0
 50
180.0
 51
270.0
  0
ARC
  5
AF9
  8
DATA
  6
CONTINUOUS
 62
     7
 10
2877.2693304105792
 20
-440.0
 30
0.0
 40
48.0
 50
270.0
 51
0.0
  0
ARC
  5
AFA
  8
DATA
  6
CONTINUOUS
 62
     7
 10
2877.2693304105792
 20
652.0
 30
0.0
 40
48.0
 50
0.0
 51
90.0
  0
ARC
  5
AFB
  8
DATA
  6
CONTINUOUS
 62
     7
 10
2323.529330410579
 20
586.0
 30
0.0
 40
24.0
 50
90.0
 51
180.0
  0
ARC
  5
AFC
  8
DATA
  6
CONTINUOUS
 62
     7
 10
2323.529330410579
 20
-374.0
 30
0.0
 40
24.0
 50
180.0
 51
270.0
  0
ARC
  5
AFD
  8
DATA
  6
CONTINUOUS
 62
     7
 10
2803.5293304105799
 20
-374.0
 30
0.0
 40
24.0
 50
270.0
 51
0.0
  0
ARC
  5
AFE
  8
DATA
  6
CONTINUOUS
 62
     7
 10
2803.5293304105799
 20
586.0
 30
0.0
 40
24.0
 50
0.0
 51
90.0
  0
TEXT
  5
AFF
  8
DATA
 62
     7
 10
2484.1250000000009
 20
292.88472895196128
 30
0.0
 40
32.576822916666671
  1
IN/THRU
 41
0.8
 11
2484.1250000000009
 21
325.46155186862802
 31
0.0
 73
     3
  0
LINE
  5
B00
  8
DATA
  6
CONTINUOUS
 62
     7
 10
2563.529330410578
 20
353.50005823398169
 30
0.0
 11
2563.529330410578
 21
328.50005823398169
 31
0.0
  0
LINE
  5
B01
  8
DATA
  6
CONTINUOUS
 62
     7
 10
2563.529336131513
 20
291.49994176601831
 30
0.0
 11
2563.529336131513
 21
266.49994176601831
 31
0.0
  0
LINE
  5
B02
  8
DATA
  6
CONTINUOUS
 62
     7
 10
1669.099111821037
 20
315.51099029433652
 30
0.0
 11
1669.449500089891
 21
316.117766117158
 31
0.0
  0
LINE
  5
B03
  8
DATA
  6
CONTINUOUS
 62
     7
 10
1670.461111821038
 20
317.87099029433602
 30
0.0
 11
1670.748731190344
 21
318.36921004821193
 31
0.0
  0
LINE
  5
B04
  8
DATA
  6
CONTINUOUS
 62
     7
 10
1662.777703312463
 20
315.8126487434011
 30
0.0
 11
1662.279861848446
 21
316.09955731761971
 31
0.0
  0
ARC
  5
B05
  8
DATA
  6
CONTINUOUS
 62
     7
 10
1667.649111821037
 20
312.99999029433638
 30
0.0
 40
6.199690395495332
 50
60.002409879683043
 51
150.00296847067909
  0
LINE
  5
B06
  8
DATA
  6
CONTINUOUS
 62
     7
 10
1665.1491118210381
 20
321.43755682740721
 30
0.0
 11
1665.1491118210381
 21
322.4758974479555
 31
0.0
  0
LINE
  5
B07
  8
DATA
  6
CONTINUOUS
 62
     7
 10
1670.1491118210381
 20
321.43755682740721
 30
0.0
 11
1670.1491118210381
 21
322.4758974479555
 31
0.0
  0
ARC
  5
B08
  8
DATA
  6
CONTINUOUS
 62
     7
 10
1667.649111821037
 20
312.99999029433638
 30
0.0
 40
9.8001436920087368
 50
75.220590009595696
 51
104.7794099904043
  0
LINE
  5
B09
  8
DATA
  6
CONTINUOUS
 62
     7
 10
1666.1994245257181
 20
310.48880974611012
 30
0.0
 11
1665.849111821037
 21
309.88199029433667
 31
0.0
  0
LINE
  5
B0A
  8
DATA
  6
CONTINUOUS
 62
     7
 10
1665.137861862285
 20
314.44955734855228
 30
0.0
 11
1664.531111821037
 21
314.79999029433679
 31
0.0
  0
LINE
  5
B0B
  8
DATA
  6
CONTINUOUS
 62
     7
 10
1670.1601118210381
 20
311.54999029433628
 30
0.0
 11
1670.766861767926
 21
311.19955721624819
 31
0.0
  0
LINE
  5
B0C
  8
DATA
  6
CONTINUOUS
 62
     7
 10
1672.519953304218
 20
310.18808179578241
 30
0.0
 11
1673.0181118210371
 21
309.8999902943367
 31
0.0
  0
ARC
  5
B0D
  8
DATA
  6
CONTINUOUS
 62
     7
 10
1667.649111821037
 20
312.99999029433638
 30
0.0
 40
3.600267212305257
 50
240.00245515180839
 51
329.99449667149338
  0
ARC
  5
B0E
  8
DATA
  6
CONTINUOUS
 62
     7
 10
1667.649111821037
 20
312.99999029433638
 30
0.0
 40
2.899589798575168
 50
150.0051985676777
 51
240.00245515180671
  0
ARC
  5
B0F
  8
DATA
  6
CONTINUOUS
 62
     7
 10
1667.649111821037
 20
312.99999029433638
 30
0.0
 40
5.6246597452645331
 50
330.00495624442863
 51
59.997998874590678
  0
ARC
  5
B10
  8
DATA
  6
CONTINUOUS
 62
     7
 10
1667.649111821037
 20
312.99999029433638
 30
0.0
 40
2.8995897985749579
 50
329.99532014014738
 51
59.995320140151293
  0
ARC
  5
B11
  8
DATA
  6
CONTINUOUS
 62
     7
 10
1667.649111821037
 20
312.99999029433638
 30
0.0
 40
5.6246597452647791
 50
149.9961350790791
 51
240.00234990249601
  0
ARC
  5
B12
  8
DATA
  6
CONTINUOUS
 62
     7
 10
1667.649111821037
 20
312.99999029433638
 30
0.0
 40
3.6002672123051309
 50
59.99532014015233
 51
150.00245515181149
  0
LINE
  5
B13
  8
DATA
  6
CONTINUOUS
 62
     7
 10
1666.1491118210381
 20
303.31532115264582
 30
0.0
 11
1666.1491118210381
 21
304.3286277139801
 31
0.0
  0
LINE
  5
B14
  8
DATA
  6
CONTINUOUS
 62
     7
 10
1669.149111821037
 20
303.31532115264582
 30
0.0
 11
1669.149111821037
 21
304.3286277139801
 31
0.0
  0
ARC
  5
B15
  8
DATA
  6
CONTINUOUS
 62
     7
 10
1667.649111821037
 20
312.99999029433638
 30
0.0
 40
9.8001436920087528
 50
261.19575921336138
 51
278.80424078663862
  0
LINE
  5
B16
  8
DATA
  6
CONTINUOUS
 62
     7
 10
1664.8364817317311
 20
308.12877672779911
 30
0.0
 11
1664.5491118210371
 21
307.63099029433653
 31
0.0
  0
ARC
  5
B17
  8
DATA
  6
CONTINUOUS
 62
     7
 10
1667.649111821037
 20
312.99999029433638
 30
0.0
 40
6.1996903954956757
 50
239.99834802721119
 51
329.99834802721421
  0
ARC
  5
B18
  8
DATA
  6
CONTINUOUS
 62
     7
 10
1667.649111821037
 20
312.99999029433638
 30
0.0
 40
8.8001436920085272
 50
278.8042407866364
 51
73.495761680205845
  0
ARC
  5
B19
  8
DATA
  6
CONTINUOUS
 62
     7
 10
1667.649111821037
 20
312.99999029433638
 30
0.0
 40
8.8001436920087048
 50
106.5042383197937
 51
260.18591350361152
  0
CIRCLE
  5
B1A
  8
DATA
  6
CONTINUOUS
 62
     7
 10
1667.649111821037
 20
312.99999029433638
 30
0.0
 40
11.75
  0
LINE
  5
B1B
  8
DATA
  6
CONTINUOUS
 62
     7
 10
1669.099111821037
 20
277.51099029433652
 30
0.0
 11
1669.449500089891
 21
278.117766117158
 31
0.0
  0
LINE
  5
B1C
  8
DATA
  6
CONTINUOUS
 62
     7
 10
1670.461111821038
 20
279.87099029433602
 30
0.0
 11
1670.748731190344
 21
280.36921004821198
 31
0.0
  0
LINE
  5
B1D
  8
DATA
  6
CONTINUOUS
 62
     7
 10
1662.777703312463
 20
277.81264874340098
 30
0.0
 11
1662.279861848446
 21
278.09955731761971
 31
0.0
  0
ARC
  5
B1E
  8
DATA
  6
CONTINUOUS
 62
     7
 10
1667.649111821037
 20
274.99999029433638
 30
0.0
 40
6.199690395495332
 50
60.002409879683043
 51
150.00296847067909
  0
LINE
  5
B1F
  8
DATA
  6
CONTINUOUS
 62
     7
 10
1665.1491118210381
 20
283.43755682740721
 30
0.0
 11
1665.1491118210381
 21
284.4758974479555
 31
0.0
  0
LINE
  5
B20
  8
DATA
  6
CONTINUOUS
 62
     7
 10
1670.1491118210381
 20
283.43755682740721
 30
0.0
 11
1670.1491118210381
 21
284.4758974479555
 31
0.0
  0
ARC
  5
B21
  8
DATA
  6
CONTINUOUS
 62
     7
 10
1667.649111821037
 20
274.99999029433638
 30
0.0
 40
9.8001436920087368
 50
75.220590009595696
 51
104.7794099904043
  0
LINE
  5
B22
  8
DATA
  6
CONTINUOUS
 62
     7
 10
1666.1994245257181
 20
272.48880974611001
 30
0.0
 11
1665.849111821037
 21
271.88199029433667
 31
0.0
  0
LINE
  5
B23
  8
DATA
  6
CONTINUOUS
 62
     7
 10
1665.137861862285
 20
276.44955734855239
 30
0.0
 11
1664.531111821037
 21
276.79999029433679
 31
0.0
  0
LINE
  5
B24
  8
DATA
  6
CONTINUOUS
 62
     7
 10
1670.1601118210381
 20
273.54999029433628
 30
0.0
 11
1670.766861767926
 21
273.19955721624819
 31
0.0
  0
LINE
  5
B25
  8
DATA
  6
CONTINUOUS
 62
     7
 10
1672.519953304218
 20
272.18808179578241
 30
0.0
 11
1673.0181118210371
 21
271.8999902943367
 31
0.0
  0
ARC
  5
B26
  8
DATA
  6
CONTINUOUS
 62
     7
 10
1667.649111821037
 20
274.99999029433638
 30
0.0
 40
3.600267212305257
 50
240.00245515180839
 51
329.99449667149338
  0
ARC
  5
B27
  8
DATA
  6
CONTINUOUS
 62
     7
 10
1667.649111821037
 20
274.99999029433638
 30
0.0
 40
2.899589798575168
 50
150.0051985676777
 51
240.00245515180671
  0
ARC
  5
B28
  8
DATA
  6
CONTINUOUS
 62
     7
 10
1667.649111821037
 20
274.99999029433638
 30
0.0
 40
5.6246597452645331
 50
330.00495624442863
 51
59.997998874590678
  0
ARC
  5
B29
  8
DATA
  6
CONTINUOUS
 62
     7
 10
1667.649111821037
 20
274.99999029433638
 30
0.0
 40
2.8995897985749579
 50
329.99532014014738
 51
59.995320140151293
  0
ARC
  5
B2A
  8
DATA
  6
CONTINUOUS
 62
     7
 10
1667.649111821037
 20
274.99999029433638
 30
0.0
 40
5.6246597452647791
 50
149.9961350790791
 51
240.00234990249601
  0
ARC
  5
B2B
  8
DATA
  6
CONTINUOUS
 62
     7
 10
1667.649111821037
 20
274.99999029433638
 30
0.0
 40
3.6002672123051309
 50
59.99532014015233
 51
150.00245515181149
  0
LINE
  5
B2C
  8
DATA
  6
CONTINUOUS
 62
     7
 10
1666.1491118210381
 20
265.31532115264582
 30
0.0
 11
1666.1491118210381
 21
266.32862771397998
 31
0.0
  0
LINE
  5
B2D
  8
DATA
  6
CONTINUOUS
 62
     7
 10
1669.149111821037
 20
265.31532115264582
 30
0.0
 11
1669.149111821037
 21
266.32862771397998
 31
0.0
  0
ARC
  5
B2E
  8
DATA
  6
CONTINUOUS
 62
     7
 10
1667.649111821037
 20
274.99999029433638
 30
0.0
 40
9.8001436920087528
 50
261.19575921336138
 51
278.80424078663862
  0
LINE
  5
B2F
  8
DATA
  6
CONTINUOUS
 62
     7
 10
1664.8364817317311
 20
270.12877672779911
 30
0.0
 11
1664.5491118210371
 21
269.63099029433653
 31
0.0
  0
ARC
  5
B30
  8
DATA
  6
CONTINUOUS
 62
     7
 10
1667.649111821037
 20
274.99999029433638
 30
0.0
 40
6.1996903954956757
 50
239.99834802721119
 51
329.99834802721421
  0
ARC
  5
B31
  8
DATA
  6
CONTINUOUS
 62
     7
 10
1667.649111821037
 20
274.99999029433638
 30
0.0
 40
8.8001436920085272
 50
278.8042407866364
 51
73.495761680205845
  0
ARC
  5
B32
  8
DATA
  6
CONTINUOUS
 62
     7
 10
1667.649111821037
 20
274.99999029433638
 30
0.0
 40
8.8001436920087048
 50
106.5042383197937
 51
260.18591350361152
  0
CIRCLE
  5
B33
  8
DATA
  6
CONTINUOUS
 62
     7
 10
1667.649111821037
 20
274.99999029433638
 30
0.0
 40
11.75
  0
LINE
  5
B34
  8
DATA
  6
CONTINUOUS
 62
     7
 10
2572.2293361315119
 20
439.06594176601942
 30
0.0
 11
2574.3316657446348
 21
442.70659670294799
 31
0.0
  0
LINE
  5
B35
  8
DATA
  6
CONTINUOUS
 62
     7
 10
2580.401336131516
 20
453.22594176601609
 30
0.0
 11
2582.1270523473572
 21
456.21526028927161
 31
0.0
  0
LINE
  5
B36
  8
DATA
  6
CONTINUOUS
 62
     7
 10
2534.3008850800702
 20
440.87589246040642
 30
0.0
 11
2531.3138362959671
 21
442.59734390571788
 31
0.0
  0
ARC
  5
B37
  8
DATA
  6
CONTINUOUS
 62
     7
 10
2563.529336131513
 20
423.9999417660182
 30
0.0
 40
37.198142372972001
 50
60.002409879683043
 51
150.00296847067909
  0
LINE
  5
B38
  8
DATA
  6
CONTINUOUS
 62
     7
 10
2548.5293361315162
 20
474.62534096444313
 30
0.0
 11
2548.5293361315162
 21
480.85538468773291
 31
0.0
  0
LINE
  5
B39
  8
DATA
  6
CONTINUOUS
 62
     7
 10
2578.529336131513
 20
474.62534096444313
 30
0.0
 11
2578.529336131513
 21
480.85538468773291
 31
0.0
  0
ARC
  5
B3A
  8
DATA
  6
CONTINUOUS
 62
     7
 10
2563.529336131513
 20
423.9999417660182
 30
0.0
 40
58.800862152052403
 50
75.220590009595696
 51
104.7794099904043
  0
LINE
  5
B3B
  8
DATA
  6
CONTINUOUS
 62
     7
 10
2554.831212359597
 20
408.93285847666039
 30
0.0
 11
2552.7293361315128
 21
405.29194176601999
 31
0.0
  0
LINE
  5
B3C
  8
DATA
  6
CONTINUOUS
 62
     7
 10
2548.4618363790032
 20
432.69734409131428
 30
0.0
 11
2544.8213361315129
 21
434.79994176602082
 31
0.0
  0
LINE
  5
B3D
  8
DATA
  6
CONTINUOUS
 62
     7
 10
2578.5953361315142
 20
415.29994176601809
 30
0.0
 11
2582.2358358128481
 21
413.19734329748911
 31
0.0
  0
LINE
  5
B3E
  8
DATA
  6
CONTINUOUS
 62
     7
 10
2592.754385030601
 20
407.12849077469451
 30
0.0
 11
2595.743336131512
 21
405.39994176602022
 31
0.0
  0
ARC
  5
B3F
  8
DATA
  6
CONTINUOUS
 62
     7
 10
2563.529336131513
 20
423.9999417660182
 30
0.0
 40
21.60160327383155
 50
240.00245515180839
 51
329.99449667149361
  0
ARC
  5
B40
  8
DATA
  6
CONTINUOUS
 62
     7
 10
2563.529336131513
 20
423.9999417660182
 30
0.0
 40
17.397538791451009
 50
150.0051985676777
 51
240.0024551518064
  0
ARC
  5
B41
  8
DATA
  6
CONTINUOUS
 62
     7
 10
2563.529336131513
 20
423.9999417660182
 30
0.0
 40
33.747958471587211
 50
330.00495624442863
 51
59.997998874590493
  0
ARC
  5
B42
  8
DATA
  6
CONTINUOUS
 62
     7
 10
2563.529336131513
 20
423.9999417660182
 30
0.0
 40
17.397538791449751
 50
329.99532014014738
 51
59.995320140151136
  0
ARC
  5
B43
  8
DATA
  6
CONTINUOUS
 62
     7
 10
2563.529336131513
 20
423.9999417660182
 30
0.0
 40
33.747958471588682
 50
149.9961350790791
 51
240.00234990249609
  0
ARC
  5
B44
  8
DATA
  6
CONTINUOUS
 62
     7
 10
2563.529336131513
 20
423.9999417660182
 30
0.0
 40
21.601603273830801
 50
59.99532014015233
 51
150.00245515181149
  0
LINE
  5
B45
  8
DATA
  6
CONTINUOUS
 62
     7
 10
2554.529336131513
 20
365.89192691587448
 30
0.0
 11
2554.529336131513
 21
371.97176628388019
 31
0.0
  0
LINE
  5
B46
  8
DATA
  6
CONTINUOUS
 62
     7
 10
2572.529336131513
 20
365.89192691587448
 30
0.0
 11
2572.529336131513
 21
371.97176628388019
 31
0.0
  0
ARC
  5
B47
  8
DATA
  6
CONTINUOUS
 62
     7
 10
2563.529336131513
 20
423.9999417660182
 30
0.0
 40
58.80086215205251
 50
261.19575921336138
 51
278.80424078663862
  0
LINE
  5
B48
  8
DATA
  6
CONTINUOUS
 62
     7
 10
2546.653555595678
 20
394.7726603667943
 30
0.0
 11
2544.929336131514
 21
391.78594176601882
 31
0.0
  0
ARC
  5
B49
  8
DATA
  6
CONTINUOUS
 62
     7
 10
2563.529336131513
 20
423.9999417660182
 30
0.0
 40
37.198142372974061
 50
239.99834802721119
 51
329.99834802721398
  0
ARC
  5
B4A
  8
DATA
  6
CONTINUOUS
 62
     7
 10
2563.529336131513
 20
423.9999417660182
 30
0.0
 40
52.800862152051188
 50
278.8042407866364
 51
73.495761680205931
  0
ARC
  5
B4B
  8
DATA
  6
CONTINUOUS
 62
     7
 10
2563.529336131513
 20
423.9999417660182
 30
0.0
 40
52.800862152052233
 50
106.5042383197937
 51
260.18591350361152
  0
CIRCLE
  5
B4C
  8
DATA
  6
CONTINUOUS
 62
     7
 10
2563.529336131513
 20
423.9999417660182
 30
0.0
 40
70.5
  0
LINE
  5
B4D
  8
DATA
  6
CONTINUOUS
 62
     7
 10
2572.2293361315119
 20
211.06594176601951
 30
0.0
 11
2574.3316657446348
 21
214.70659670294799
 31
0.0
  0
LINE
  5
B4E
  8
DATA
  6
CONTINUOUS
 62
     7
 10
2580.401336131516
 20
225.22594176601609
 30
0.0
 11
2582.1270523473572
 21
228.21526028927161
 31
0.0
  0
LINE
  5
B4F
  8
DATA
  6
CONTINUOUS
 62
     7
 10
2534.3008850800702
 20
212.87589246040631
 30
0.0
 11
2531.3138362959671
 21
214.59734390571799
 31
0.0
  0
ARC
  5
B50
  8
DATA
  6
CONTINUOUS
 62
     7
 10
2563.529336131513
 20
195.99994176601831
 30
0.0
 40
37.198142372972001
 50
60.002409879683043
 51
150.00296847067909
  0
LINE
  5
B51
  8
DATA
  6
CONTINUOUS
 62
     7
 10
2548.5293361315162
 20
246.6253409644433
 30
0.0
 11
2548.5293361315162
 21
252.85538468773299
 31
0.0
  0
LINE
  5
B52
  8
DATA
  6
CONTINUOUS
 62
     7
 10
2578.529336131513
 20
246.6253409644433
 30
0.0
 11
2578.529336131513
 21
252.85538468773299
 31
0.0
  0
ARC
  5
B53
  8
DATA
  6
CONTINUOUS
 62
     7
 10
2563.529336131513
 20
195.99994176601831
 30
0.0
 40
58.800862152052403
 50
75.220590009595696
 51
104.7794099904043
  0
LINE
  5
B54
  8
DATA
  6
CONTINUOUS
 62
     7
 10
2554.831212359597
 20
180.93285847666041
 30
0.0
 11
2552.7293361315128
 21
177.29194176601999
 31
0.0
  0
LINE
  5
B55
  8
DATA
  6
CONTINUOUS
 62
     7
 10
2548.4618363790032
 20
204.69734409131439
 30
0.0
 11
2544.8213361315129
 21
206.79994176602079
 31
0.0
  0
LINE
  5
B56
  8
DATA
  6
CONTINUOUS
 62
     7
 10
2578.5953361315142
 20
187.29994176601801
 30
0.0
 11
2582.2358358128481
 21
185.1973432974892
 31
0.0
  0
LINE
  5
B57
  8
DATA
  6
CONTINUOUS
 62
     7
 10
2592.754385030601
 20
179.12849077469451
 30
0.0
 11
2595.743336131512
 21
177.39994176602019
 31
0.0
  0
ARC
  5
B58
  8
DATA
  6
CONTINUOUS
 62
     7
 10
2563.529336131513
 20
195.99994176601831
 30
0.0
 40
21.60160327383155
 50
240.00245515180839
 51
329.99449667149361
  0
ARC
  5
B59
  8
DATA
  6
CONTINUOUS
 62
     7
 10
2563.529336131513
 20
195.99994176601831
 30
0.0
 40
17.397538791451009
 50
150.0051985676777
 51
240.0024551518064
  0
ARC
  5
B5A
  8
DATA
  6
CONTINUOUS
 62
     7
 10
2563.529336131513
 20
195.99994176601831
 30
0.0
 40
33.747958471587211
 50
330.00495624442863
 51
59.997998874590493
  0
ARC
  5
B5B
  8
DATA
  6
CONTINUOUS
 62
     7
 10
2563.529336131513
 20
195.99994176601831
 30
0.0
 40
17.397538791449751
 50
329.99532014014738
 51
59.995320140151136
  0
ARC
  5
B5C
  8
DATA
  6
CONTINUOUS
 62
     7
 10
2563.529336131513
 20
195.99994176601831
 30
0.0
 40
33.747958471588682
 50
149.9961350790791
 51
240.00234990249609
  0
ARC
  5
B5D
  8
DATA
  6
CONTINUOUS
 62
     7
 10
2563.529336131513
 20
195.99994176601831
 30
0.0
 40
21.601603273830801
 50
59.99532014015233
 51
150.00245515181149
  0
LINE
  5
B5E
  8
DATA
  6
CONTINUOUS
 62
     7
 10
2554.529336131513
 20
137.89192691587459
 30
0.0
 11
2554.529336131513
 21
143.97176628388021
 31
0.0
  0
LINE
  5
B5F
  8
DATA
  6
CONTINUOUS
 62
     7
 10
2572.529336131513
 20
137.89192691587459
 30
0.0
 11
2572.529336131513
 21
143.97176628388021
 31
0.0
  0
ARC
  5
B60
  8
DATA
  6
CONTINUOUS
 62
     7
 10
2563.529336131513
 20
195.99994176601831
 30
0.0
 40
58.80086215205251
 50
261.19575921336138
 51
278.80424078663862
  0
LINE
  5
B61
  8
DATA
  6
CONTINUOUS
 62
     7
 10
2546.653555595678
 20
166.7726603667943
 30
0.0
 11
2544.929336131514
 21
163.78594176601879
 31
0.0
  0
ARC
  5
B62
  8
DATA
  6
CONTINUOUS
 62
     7
 10
2563.529336131513
 20
195.99994176601831
 30
0.0
 40
37.198142372974061
 50
239.99834802721119
 51
329.99834802721398
  0
ARC
  5
B63
  8
DATA
  6
CONTINUOUS
 62
     7
 10
2563.529336131513
 20
195.99994176601831
 30
0.0
 40
52.800862152051188
 50
278.8042407866364
 51
73.495761680205931
  0
ARC
  5
B64
  8
DATA
  6
CONTINUOUS
 62
     7
 10
2563.529336131513
 20
195.99994176601831
 30
0.0
 40
52.800862152052233
 50
106.5042383197937
 51
260.18591350361152
  0
CIRCLE
  5
B65
  8
DATA
  6
CONTINUOUS
 62
     7
 10
2563.529336131513
 20
195.99994176601831
 30
0.0
 40
70.5
  0
ENDSEC
  0
EOF
