  0
SECTION
  2
HEADER
  9
$ACADVER
  1
AC1009
  9
$INSBASE
 10
0.0
 20
0.0
 30
0.0
  9
$EXTMIN
 10
-1350.0823911746049
 20
-1996.669629593335
 30
-0.0015258207003583
  9
$EXTMAX
 10
1350.082403747462
 20
2017.7813363551249
 30
0.0000000349246037
  9
$LIMMIN
 10
0.0
 20
0.0
  9
$LIMMAX
 10
0.0
 20
0.0
  9
$ORTHOMODE
 70
     0
  9
$REGENMODE
 70
     1
  9
$FILLMODE
 70
     1
  9
$QTEXTMODE
 70
     0
  9
$MIRRTEXT
 70
     1
  9
$DRAGMODE
 70
     2
  9
$LTSCALE
 40
190.5
  9
$OSMODE
 70
   231
  9
$ATTMODE
 70
     1
  9
$TEXTSIZE
 40
0.0
  9
$TRACEWID
 40
1.0
  9
$TEXTSTYLE
  7
STANDARD
  9
$CLAYER
  8
DATA
  9
$CELTYPE
  6
BYLAYER
  9
$CECOLOR
 62
   256
  9
$DIMSCALE
 40
1.0
  9
$DIMASZ
 40
0.18
  9
$DIMEXO
 40
0.0625
  9
$DIMDLI
 40
0.38
  9
$DIMRND
 40
0.0
  9
$DIMDLE
 40
0.0
  9
$DIMEXE
 40
0.18
  9
$DIMTP
 40
0.0
  9
$DIMTM
 40
0.0
  9
$DIMTXT
 40
0.18
  9
$DIMCEN
 40
0.09
  9
$DIMTSZ
 40
0.0
  9
$DIMTOL
 70
     0
  9
$DIMLIM
 70
     0
  9
$DIMTIH
 70
     1
  9
$DIMTOH
 70
     1
  9
$DIMSE1
 70
     0
  9
$DIMSE2
 70
     0
  9
$DIMTAD
 70
     0
  9
$DIMZIN
 70
     0
  9
$DIMBLK
  1

  9
$DIMASO
 70
     1
  9
$DIMSHO
 70
     1
  9
$DIMPOST
  1

  9
$DIMAPOST
  1

  9
$DIMALT
 70
     0
  9
$DIMALTD
 70
     2
  9
$DIMALTF
 40
25.399999999999999
  9
$DIMLFAC
 40
1.0
  9
$DIMTOFL
 70
     0
  9
$DIMTVP
 40
0.0
  9
$DIMTIX
 70
     0
  9
$DIMSOXD
 70
     0
  9
$DIMSAH
 70
     0
  9
$DIMBLK1
  1

  9
$DIMBLK2
  1

  9
$DIMSTYLE
  2
STANDARD
  9
$DIMCLRD
 70
     0
  9
$DIMCLRE
 70
     0
  9
$DIMCLRT
 70
     0
  9
$DIMTFAC
 40
1.0
  9
$DIMGAP
 40
0.09
  9
$LUNITS
 70
     2
  9
$LUPREC
 70
     4
  9
$SKETCHINC
 40
0.1
  9
$FILLETRAD
 40
0.0
  9
$AUNITS
 70
     0
  9
$AUPREC
 70
     0
  9
$MENU
  1
acad
  9
$ELEVATION
 40
0.0
  9
$PELEVATION
 40
0.0
  9
$THICKNESS
 40
0.0
  9
$LIMCHECK
 70
     0
  9
$BLIPMODE
 70
     0
  9
$CHAMFERA
 40
0.0
  9
$CHAMFERB
 40
0.0
  9
$SKPOLY
 70
     0
  9
$TDCREATE
 40
2456514.4710069438
  9
$TDUPDATE
 40
2456514.471623322
  9
$TDINDWG
 40
0.0004928356
  9
$TDUSRTIMER
 40
0.0004875694
  9
$USRTIMER
 70
     1
  9
$ANGBASE
 50
0.0
  9
$ANGDIR
 70
     0
  9
$PDMODE
 70
     1
  9
$PDSIZE
 40
-2.0
  9
$PLINEWID
 40
0.0
  9
$COORDS
 70
     2
  9
$SPLFRAME
 70
     0
  9
$SPLINETYPE
 70
     6
  9
$SPLINESEGS
 70
     8
  9
$ATTDIA
 70
     0
  9
$ATTREQ
 70
     1
  9
$HANDLING
 70
     1
  9
$HANDSEED
  5
6E8
  9
$SURFTAB1
 70
     6
  9
$SURFTAB2
 70
     6
  9
$SURFTYPE
 70
     6
  9
$SURFU
 70
     6
  9
$SURFV
 70
     6
  9
$UCSNAME
  2

  9
$UCSORG
 10
0.0
 20
0.0
 30
0.0
  9
$UCSXDIR
 10
1.0
 20
0.0
 30
0.0
  9
$UCSYDIR
 10
0.0
 20
1.0
 30
0.0
  9
$PUCSNAME
  2

  9
$PUCSORG
 10
0.0
 20
0.0
 30
0.0
  9
$PUCSXDIR
 10
1.0
 20
0.0
 30
0.0
  9
$PUCSYDIR
 10
0.0
 20
1.0
 30
0.0
  9
$USERI1
 70
     0
  9
$USERI2
 70
     0
  9
$USERI3
 70
     0
  9
$USERI4
 70
     0
  9
$USERI5
 70
     0
  9
$USERR1
 40
0.0
  9
$USERR2
 40
0.0
  9
$USERR3
 40
0.0
  9
$USERR4
 40
0.0
  9
$USERR5
 40
0.0
  9
$WORLDVIEW
 70
     1
  9
$SHADEDGE
 70
     3
  9
$SHADEDIF
 70
    70
  9
$TILEMODE
 70
     1
  9
$MAXACTVP
 70
    64
  9
$PLIMCHECK
 70
     0
  9
$PEXTMIN
 10
1.0000000000000000E+020
 20
1.0000000000000000E+020
 30
1.0000000000000000E+020
  9
$PEXTMAX
 10
-1.0000000000000000E+020
 20
-1.0000000000000000E+020
 30
-1.0000000000000000E+020
  9
$PLIMMIN
 10
0.0
 20
0.0
  9
$PLIMMAX
 10
12.0
 20
9.0
  9
$UNITMODE
 70
     0
  9
$VISRETAIN
 70
     0
  9
$PLINEGEN
 70
     1
  9
$PSLTSCALE
 70
     0
  0
ENDSEC
  0
SECTION
  2
TABLES
  0
TABLE
  2
VPORT
 70
     1
  0
VPORT
  2
*ACTIVE
 70
     0
 10
0.0
 20
0.0
 11
1.0
 21
1.0
 12
0.0000062864287429
 22
10.55585338089486
 13
0.0
 23
0.0
 14
1.0
 24
1.0
 15
0.0
 25
0.0
 16
0.0
 26
0.0
 36
1.0
 17
0.0
 27
0.0
 37
0.0
 40
4045.4505873071362
 41
2.1585051546391751
 42
50.0
 43
0.0
 44
0.0
 50
0.0
 51
0.0
 71
     0
 72
  2000
 73
     1
 74
     1
 75
     0
 76
     0
 77
     0
 78
     0
  0
ENDTAB
  0
TABLE
  2
LTYPE
 70
    13
  0
LTYPE
  2
CONTINUOUS
 70
     0
  3
Solid line
 72
    65
 73
     0
 40
0.0
  0
ENDTAB
  0
TABLE
  2
LAYER
 70
     5
  0
LAYER
  2
0
 70
     0
 62
     7
  6
CONTINUOUS
  0
LAYER
  2
DATA
 70
     0
 62
     7
  6
CONTINUOUS
  0
LAYER
  2
HIBINO-BASE
 70
     0
 62
     7
  6
CONTINUOUS
  0
LAYER
  2
SPEC
 70
     0
 62
     7
  6
CONTINUOUS
  0
LAYER
  2
DIMNSIONS
 70
     0
 62
     7
  6
CONTINUOUS
  0
ENDTAB
  0
TABLE
  2
STYLE
 70
     3
  0
STYLE
  2
STANDARD
 70
     0
 40
0.0
 41
1.0
 50
0.0
 71
     0
 42
0.0
  3
txt
  4
BIGFONT.SHX
  0
ENDTAB
  0
TABLE
  2
VIEW
 70
     0
  0
ENDTAB
  0
TABLE
  2
UCS
 70
     0
  0
ENDTAB
  0
TABLE
  2
APPID
 70
     4
  0
APPID
  2
ACAD
 70
     0
  0
APPID
  2
ACADANNOTATIVE
 70
     0
  0
APPID
  2
ACAD_NAV_VCDISPLAY
 70
     0
  0
APPID
  2
ACAD_MLEADERVER
 70
     0
  0
ENDTAB
  0
TABLE
  2
DIMSTYLE
 70
     2
  0
DIMSTYLE
  2
STANDARD
 70
     0
  3

  4

  5

  6

  7

 40
1.0
 41
0.18
 42
0.0625
 43
0.38
 44
0.18
 45
0.0
 46
0.0
 47
0.0
 48
0.0
140
0.18
141
0.09
142
0.0
143
25.399999999999999
144
1.0
145
0.0
146
1.0
147
0.09
 71
     0
 72
     0
 73
     1
 74
     1
 75
     0
 76
     0
 77
     0
 78
     0
170
     0
171
     2
172
     0
173
     0
174
     0
175
     0
176
     0
177
     0
178
     0
  0
ENDTAB
  0
ENDSEC
  0
SECTION
  2
BLOCKS
  0
BLOCK
  8
0
  2
$MODEL_SPACE
 70
     0
 10
0.0
 20
0.0
 30
0.0
  3
$MODEL_SPACE
  1

  0
ENDBLK
  5
64B
  8
0
  0
BLOCK
 67
     1
  8
0
  2
$PAPER_SPACE
 70
     0
 10
0.0
 20
0.0
 30
0.0
  3
$PAPER_SPACE
  1

  0
ENDBLK
  5
647
 67
     1
  8
0
  0
ENDSEC
  0
SECTION
  2
ENTITIES
  0
LINE
  5
2E
  8
HIBINO-BASE
  6
CONTINUOUS
 62
     7
 10
-1349.9999999999991
 20
2017.659075
 30
0.0
 11
1350.0
 21
2017.659075
 31
0.0
  0
LINE
  5
2F
  8
HIBINO-BASE
  6
CONTINUOUS
 62
     7
 10
1350.0
 20
-1882.340925
 30
0.0
 11
-1349.9999999999991
 21
-1882.340925
 31
0.0
  0
LINE
  5
30
  8
HIBINO-BASE
  6
CONTINUOUS
 62
     7
 10
-1349.9999999999991
 20
-1882.340925
 30
0.0
 11
-1349.9999999999991
 21
2017.659075
 31
0.0
  0
LINE
  5
31
  8
HIBINO-BASE
  6
CONTINUOUS
 62
     7
 10
1350.0
 20
2017.659075
 30
0.0
 11
1350.0
 21
-1882.340925
 31
0.0
  0
LINE
  5
32
  8
HIBINO-BASE
  6
CONTINUOUS
 62
     7
 10
0.0000000000002203
 20
-1544.840925
 30
0.0
 11
1350.0
 21
-1544.840925
 31
0.0
  0
LINE
  5
33
  8
HIBINO-BASE
  6
CONTINUOUS
 62
     7
 10
0.0000000000002203
 20
-1882.340925
 30
0.0
 11
0.0000000000002203
 21
-1544.840925
 31
0.0
  0
TEXT
  5
34
  8
HIBINO-BASE
 62
     7
 10
13.5000000000003
 20
-1582.471325
 30
0.0
 40
24.4326171875
  1
NOTE
 41
0.7
 11
13.5000000000003
 21
-1558.0387078125
 31
0.0
 73
     3
  0
LINE
  5
35
  8
HIBINO-BASE
  6
CONTINUOUS
 62
     7
 10
525.00000000000057
 20
-1882.340925
 30
0.0
 11
525.00000000000057
 21
-1544.840925
 31
0.0
  0
TEXT
  5
36
  8
HIBINO-BASE
 62
     7
 10
538.50000000000011
 20
-1582.471325
 30
0.0
 40
24.4326171875
  1
TITLE
 41
0.7
 11
538.50000000000011
 21
-1558.0387078125
 31
0.0
 73
     3
  0
LINE
  5
37
  8
HIBINO-BASE
  6
CONTINUOUS
 62
     7
 10
0.0000000000002203
 20
-1732.340925
 30
0.0
 11
1350.0
 21
-1732.340925
 31
0.0
  0
TEXT
  5
38
  8
HIBINO-BASE
 62
     7
 10
726.0
 20
-1769.1265249999999
 30
0.0
 40
24.4326171875
  1
DRAWN
 41
0.7
 11
726.0
 21
-1744.6939078124999
 31
0.0
 73
     3
  0
TEXT
  5
39
  8
HIBINO-BASE
 62
     7
 10
351.00000000000011
 20
-1769.1265249999999
 30
0.0
 40
24.4326171875
  1
DATE
 41
0.7
 11
351.00000000000011
 21
-1744.6939078124999
 31
0.0
 73
     3
  0
TEXT
  5
3A
  8
HIBINO-BASE
 62
     7
 10
201.00000000000011
 20
-1769.1265249999999
 30
0.0
 40
24.4326171875
  1
SCALE
 41
0.7
 11
201.00000000000011
 21
-1744.6939078124999
 31
0.0
 73
     3
  0
TEXT
  5
3B
  8
HIBINO-BASE
 62
     7
 10
538.50000000000011
 20
-1769.1265249999999
 30
0.0
 40
24.4326171875
  1
DESIGN
 41
0.7
 11
538.50000000000011
 21
-1744.6939078124999
 31
0.0
 73
     3
  0
TEXT
  5
3C
  8
HIBINO-BASE
 62
     7
 10
1101.0
 20
-1769.1265249999999
 30
0.0
 40
24.4326171875
  1
DRAWING NO.
 41
0.7
 11
1101.0
 21
-1744.6939078124999
 31
0.0
 73
     3
  0
TEXT
  5
3D
  8
HIBINO-BASE
 62
     7
 10
913.49999999999989
 20
-1769.1265249999999
 30
0.0
 40
24.4326171875
  1
CHECK
 41
0.7
 11
913.49999999999989
 21
-1744.6939078124999
 31
0.0
 73
     3
  0
LINE
  5
3E
  8
HIBINO-BASE
  6
CONTINUOUS
 62
     7
 10
215.6250000000002
 20
-1863.590925
 30
0.0
 11
271.8750000000004
 21
-1807.340925
 31
0.0
  0
TEXT
  5
3F
  8
HIBINO-BASE
 62
     7
 10
206.2500000000002
 20
-1823.9750750000001
 30
0.0
 40
24.4326171875
  1
1
 41
0.7
 11
206.2500000000002
 21
-1799.5424578125001
 31
0.0
 73
     3
  0
LINE
  5
40
  8
HIBINO-BASE
  6
CONTINUOUS
 62
     7
 10
187.5000000000002
 20
-1882.340925
 30
0.0
 11
187.5000000000002
 21
-1732.340925
 31
0.0
  0
LINE
  5
41
  8
HIBINO-BASE
  6
CONTINUOUS
 62
     7
 10
337.5
 20
-1882.340925
 30
0.0
 11
337.5
 21
-1732.340925
 31
0.0
  0
LINE
  5
42
  8
HIBINO-BASE
  6
CONTINUOUS
 62
     7
 10
712.49999999999989
 20
-1732.340925
 30
0.0
 11
712.49999999999989
 21
-1882.340925
 31
0.0
  0
LINE
  5
43
  8
HIBINO-BASE
  6
CONTINUOUS
 62
     7
 10
1087.5
 20
-1732.340925
 30
0.0
 11
1087.5
 21
-1882.340925
 31
0.0
  0
LINE
  5
44
  8
HIBINO-BASE
  6
CONTINUOUS
 62
     7
 10
900.0
 20
-1882.340925
 30
0.0
 11
900.0
 21
-1732.340925
 31
0.0
  0
TEXT
  5
45
  8
HIBINO-BASE
 62
     7
 10
350.34810000000039
 20
-1839.3862249999991
 30
0.0
 40
24.4326171875
  1
'13.07.
 41
0.7
 11
350.34810000000039
 21
-1814.9536078124991
 31
0.0
 73
     3
  0
TEXT
  5
46
  8
HIBINO-BASE
 62
     7
 10
262.50000000000028
 20
-1852.1000750000001
 30
0.0
 40
24.4326171875
  1
15
 41
0.7
 11
262.50000000000028
 21
-1827.6674578125001
 31
0.0
 73
     3
  0
TEXT
  5
47
  8
HIBINO-BASE
 62
     7
 10
735.08715016551935
 20
-1839.3862249999991
 30
0.0
 40
24.4326171875
  1
N.Sasaki
 41
0.7
 11
735.08715016551935
 21
-1814.9536078124991
 31
0.0
 73
     3
  0
TEXT
  5
48
  8
HIBINO-BASE
 62
     7
 10
58.250000000000533
 20
-1852.7009250000001
 30
0.0
 40
48.865234375
  1
A4
 41
0.7
 11
58.250000000000533
 21
-1803.8356906250001
 31
0.0
 73
     3
  0
TEXT
  5
49
  8
HIBINO-BASE
 62
     7
 10
14.37500000000014
 20
-1771.63275
 30
0.0
 40
24.4326171875
  1
PAPER SIZE
 41
0.7
 11
14.375000000000149
 21
-1747.2001328125
 31
0.0
 73
     3
  0
TEXT
  5
4A
  8
HIBINO-BASE
 62
     7
 10
-1242.2399999999991
 20
-1978.471092
 30
0.0
 40
54.000662695312492
  1
Hibino Corporation
 41
0.7
 11
-1242.2399999999991
 21
-1924.470429304688
 31
0.0
 73
     3
  0
TEXT
  5
4B
  8
HIBINO-BASE
 62
     7
 10
751.02585000000033
 20
-1978.471092
 30
0.0
 40
54.000662695312492
  1
ヒビノ株式会社
 41
0.7
 11
751.02585000000033
 21
-1924.470429304688
 31
0.0
 73
     3
  0
LINE
  5
4C
  8
SPEC
  6
CONTINUOUS
 62
     7
 10
-1237.5
 20
1849.44541
 30
0.0
 11
975.00000000000034
 21
1849.44541
 31
0.0
  0
LINE
  5
4D
  8
SPEC
  6
CONTINUOUS
 62
     7
 10
-1237.5
 20
1793.1954099999989
 30
0.0
 11
975.00000000000034
 21
1793.1954099999989
 31
0.0
  0
TEXT
  5
4E
  8
SPEC
 62
     7
 10
-486.5
 20
1805.014176666665
 30
0.0
 40
28.504720052083329
  1
2-Wayフルレンジ
 41
0.7
 11
-486.5
 21
1833.518896718748
 31
0.0
 73
     3
  0
LINE
  5
4F
  8
SPEC
  6
CONTINUOUS
 62
     7
 10
-1237.5
 20
1849.44541
 30
0.0
 11
-1237.5
 21
780.69541000000061
 31
0.0
  0
TEXT
  5
50
  8
SPEC
 62
     7
 10
-1218.75
 20
1870.3444599999989
 30
0.0
 40
36.64892578125
  1
仕様
 41
0.7
 11
-1218.75
 21
1906.9933857812489
 31
0.0
 73
     3
  0
LINE
  5
51
  8
SPEC
  6
CONTINUOUS
 62
     7
 10
-500.0
 20
1849.44541
 30
0.0
 11
-500.0
 21
780.69541000000061
 31
0.0
  0
LINE
  5
52
  8
SPEC
  6
CONTINUOUS
 62
     7
 10
975.00000000000034
 20
1849.44541
 30
0.0
 11
975.00000000000034
 21
780.69541000000061
 31
0.0
  0
TEXT
  5
53
  8
SPEC
 62
     7
 10
-1224.0
 20
1805.014176666665
 30
0.0
 40
28.504720052083329
  1
形式
 41
0.7
 11
-1224.0
 21
1833.518896718748
 31
0.0
 73
     3
  0
TEXT
  5
54
  8
SPEC
 62
     7
 10
-1224.0
 20
1748.7641766666659
 30
0.0
 40
28.504720052083329
  1
駆動方式
 41
0.7
 11
-1224.0
 21
1777.2688967187489
 31
0.0
 73
     3
  0
TEXT
  5
55
  8
SPEC
 62
     7
 10
-486.5
 20
1636.2641766666659
 30
0.0
 40
28.504720052083329
  1
70\U+00B0\U+00D770\U+00B0
 41
0.7
 11
-486.5
 21
1664.7688967187489
 31
0.0
 73
     3
  0
TEXT
  5
56
  8
SPEC
 62
     7
 10
-1224.0
 20
1523.7641766666659
 30
0.0
 40
28.504720052083329
  1
感度(1W、1m)
 41
0.7
 11
-1224.0
 21
1552.2688967187489
 31
0.0
 73
     3
  0
TEXT
  5
57
  8
SPEC
 62
     7
 10
-1224.0
 20
1580.0141766666659
 30
0.0
 40
28.504720052083329
  1
最大音圧レベル
 41
0.7
 11
-1224.0
 21
1608.5188967187489
 31
0.0
 73
     3
  0
LINE
  5
58
  8
SPEC
  6
CONTINUOUS
 62
     7
 10
-1237.5
 20
1511.9454099999989
 30
0.0
 11
975.00000000000034
 21
1511.9454099999989
 31
0.0
  0
LINE
  5
59
  8
SPEC
  6
CONTINUOUS
 62
     7
 10
-1237.5
 20
1568.1954099999989
 30
0.0
 11
975.00000000000034
 21
1568.1954099999989
 31
0.0
  0
LINE
  5
5A
  8
SPEC
  6
CONTINUOUS
 62
     7
 10
-1237.5
 20
1624.4454099999989
 30
0.0
 11
975.00000000000034
 21
1624.4454099999989
 31
0.0
  0
LINE
  5
5B
  8
SPEC
  6
CONTINUOUS
 62
     7
 10
-1237.5
 20
1680.6954099999989
 30
0.0
 11
975.00000000000034
 21
1680.6954099999989
 31
0.0
  0
TEXT
  5
5C
  8
SPEC
 62
     7
 10
-1224.0
 20
1636.2641766666659
 30
0.0
 40
28.504720052083329
  1
指向角度（水平\U+00D7垂直）
 41
0.7
 11
-1224.0
 21
1664.7688967187489
 31
0.0
 73
     3
  0
TEXT
  5
5D
  8
SPEC
 62
     7
 10
-486.5
 20
1580.0141766666659
 30
0.0
 40
28.504720052083329
  1
131dB SPL(ピーク)
 41
0.7
 11
-486.5
 21
1608.5188967187489
 31
0.0
 73
     3
  0
TEXT
  5
5E
  8
SPEC
 62
     7
 10
-486.5
 20
1523.7641766666659
 30
0.0
 40
28.504720052083329
  1
96dB SPL(パッシブモード)
 41
0.7
 11
-486.5
 21
1552.2688967187489
 31
0.0
 73
     3
  0
TEXT
  5
5F
  8
SPEC
 62
     7
 10
-486.5
 20
1411.2641766666659
 30
0.0
 40
28.504720052083329
  1
LF：8\U+03A9、HF：8\U+03A9
 41
0.7
 11
-486.5
 21
1439.7688967187489
 31
0.0
 73
     3
  0
TEXT
  5
60
  8
SPEC
 62
     7
 10
-486.5
 20
1467.5141766666659
 30
0.0
 40
28.504720052083329
  1
8\U+03A9
 41
0.7
 11
-486.5
 21
1496.0188967187489
 31
0.0
 73
     3
  0
TEXT
  5
61
  8
SPEC
 62
     7
 10
-486.5
 20
1298.7641766666659
 30
0.0
 40
28.504720052083329
  1
LF：800W(連続)、3200W(ピーク)
 41
0.7
 11
-486.5
 21
1327.2688967187501
 31
0.0
 73
     3
  0
TEXT
  5
62
  8
SPEC
 62
     7
 10
-486.5
 20
1355.0141766666659
 30
0.0
 40
28.504720052083329
  1
800W(連続)、3200W(ピーク)
 41
0.7
 11
-486.5
 21
1383.5188967187489
 31
0.0
 73
     3
  0
LINE
  5
63
  8
SPEC
  6
CONTINUOUS
 62
     7
 10
-1237.5
 20
1399.4454099999989
 30
0.0
 11
975.00000000000034
 21
1399.4454099999989
 31
0.0
  0
TEXT
  5
64
  8
SPEC
 62
     7
 10
-1225.0
 20
1466.9553438064031
 30
0.0
 40
28.504720052083329
  1
公称インピーダンス
 41
0.7
 11
-1225.0
 21
1495.4600638584859
 31
0.0
 73
     3
  0
TEXT
  5
65
  8
SPEC
 62
     7
 10
-1225.0
 20
1358.252694155994
 30
0.0
 40
28.504720052083329
  1
許容入力
 41
0.7
 11
-1225.0
 21
1386.7574142080771
 31
0.0
 73
     3
  0
LINE
  5
66
  8
SPEC
  6
CONTINUOUS
 62
     7
 10
-750.0
 20
1511.9454099999989
 30
0.0
 11
-750.0
 21
1230.69541
 31
0.0
  0
TEXT
  5
67
  8
SPEC
 62
     7
 10
-736.5
 20
1411.2641766666659
 30
0.0
 40
28.504720052083329
  1
バイアンプ
 41
0.7
 11
-736.5
 21
1439.7688967187489
 31
0.0
 73
     3
  0
TEXT
  5
68
  8
SPEC
 62
     7
 10
-736.5
 20
1467.5141766666659
 30
0.0
 40
28.504720052083329
  1
パッシブ
 41
0.7
 11
-736.5
 21
1496.0188967187489
 31
0.0
 73
     3
  0
TEXT
  5
69
  8
SPEC
 62
     7
 10
-736.5
 20
1298.7641766666659
 30
0.0
 40
28.504720052083329
  1
バイアンプ
 41
0.7
 11
-736.5
 21
1327.2688967187501
 31
0.0
 73
     3
  0
TEXT
  5
6A
  8
SPEC
 62
     7
 10
-736.5
 20
1355.0141766666659
 30
0.0
 40
28.504720052083329
  1
パッシブ
 41
0.7
 11
-736.5
 21
1383.5188967187489
 31
0.0
 73
     3
  0
LINE
  5
6B
  8
SPEC
  6
CONTINUOUS
 62
     7
 10
-1237.5
 20
1230.69541
 30
0.0
 11
975.00000000000034
 21
1230.69541
 31
0.0
  0
TEXT
  5
6C
  8
SPEC
 62
     7
 10
-486.5
 20
1186.2641766666659
 30
0.0
 40
28.504720052083329
  1
LF：380mm(2226H)、HF：75mm(2432H)
 41
0.7
 11
-486.5
 21
1214.7688967187489
 31
0.0
 73
     3
  0
TEXT
  5
6D
  8
SPEC
 62
     7
 10
-1225.0
 20
1186.8941666666669
 30
0.0
 40
28.504720052083329
  1
ドライバー構成
 41
0.7
 11
-1225.0
 21
1215.39888671875
 31
0.0
 73
     3
  0
TEXT
  5
6E
  8
SPEC
 62
     7
 10
-1225.0
 20
1130.6441666666669
 30
0.0
 40
28.504720052083329
  1
クロスオーバー周波数
 41
0.7
 11
-1225.0
 21
1159.14888671875
 31
0.0
 73
     3
  0
TEXT
  5
6F
  8
SPEC
 62
     7
 10
-486.5
 20
1130.0141766666659
 30
0.0
 40
28.504720052083329
  1
1.8kHz
 41
0.7
 11
-486.5
 21
1158.5188967187489
 31
0.0
 73
     3
  0
LINE
  5
70
  8
SPEC
  6
CONTINUOUS
 62
     7
 10
-1237.5
 20
1174.4454099999989
 30
0.0
 11
975.00000000000034
 21
1174.4454099999989
 31
0.0
  0
LINE
  5
71
  8
SPEC
  6
CONTINUOUS
 62
     7
 10
-1237.5
 20
1118.1954099999989
 30
0.0
 11
975.00000000000034
 21
1118.1954099999989
 31
0.0
  0
TEXT
  5
72
  8
SPEC
 62
     7
 10
-486.5
 20
1073.7642099999989
 30
0.0
 40
28.504720052083329
  1
35mmポールソケット
 41
0.7
 11
-486.5
 21
1102.2689300520831
 31
0.0
 73
     3
  0
TEXT
  5
73
  8
SPEC
 62
     7
 10
-1225.0
 20
1074.3942
 30
0.0
 40
28.504720052083329
  1
金具用取付穴
 41
0.7
 11
-1225.0
 21
1102.898920052083
 31
0.0
 73
     3
  0
TEXT
  5
74
  8
SPEC
 62
     7
 10
-486.49999999999949
 20
1023.764209999999
 30
0.0
 40
28.504720052083329
  1
M10---8ヶ所
 41
0.7
 11
-486.49999999999949
 21
1052.2689300520831
 31
0.0
 73
     3
  0
LINE
  5
75
  8
SPEC
  6
CONTINUOUS
 62
     7
 10
-1237.5
 20
893.19540999999981
 30
0.0
 11
975.00000000000034
 21
893.19540999999981
 31
0.0
  0
TEXT
  5
76
  8
SPEC
 62
     7
 10
-1224.0
 20
905.01417666666634
 30
0.0
 40
28.504720052083329
  1
エンクロージャー
 41
0.7
 11
-1224.0
 21
933.5188967187496
 31
0.0
 73
     3
  0
TEXT
  5
77
  8
SPEC
 62
     7
 10
-482.52744952734491
 20
910.14416666666671
 30
0.0
 40
28.504720052083329
  1
18mmカバ/ポプラ合板、黒、DuraFlex仕上げ
 41
0.7
 11
-482.52744952734491
 21
938.64888671875019
 31
0.0
 73
     3
  0
LINE
  5
78
  8
SPEC
  6
CONTINUOUS
 62
     7
 10
-1237.5
 20
836.94541000000015
 30
0.0
 11
975.00000000000034
 21
836.94541000000015
 31
0.0
  0
TEXT
  5
79
  8
SPEC
 62
     7
 10
-482.52744952734503
 20
853.89416666666693
 30
0.0
 40
28.504720052083329
  1
438\U+00D7719\U+00D7331mm(除突起部)
 41
0.7
 11
-482.52744952734503
 21
882.3988867187503
 31
0.0
 73
     3
  0
LINE
  5
7A
  8
SPEC
  6
CONTINUOUS
 62
     7
 10
-1237.5
 20
780.69541000000061
 30
0.0
 11
975.00000000000034
 21
780.69541000000061
 31
0.0
  0
TEXT
  5
7B
  8
SPEC
 62
     7
 10
-1224.0
 20
792.51417666666714
 30
0.0
 40
28.504720052083329
  1
質量
 41
0.7
 11
-1224.0
 21
821.01889671875051
 31
0.0
 73
     3
  0
TEXT
  5
7C
  8
SPEC
 62
     7
 10
-482.52744952734508
 20
797.64416666666739
 30
0.0
 40
28.504720052083329
  1
28kg
 41
0.7
 11
-482.52744952734508
 21
826.14888671875065
 31
0.0
 73
     3
  0
LINE
  5
7D
  8
SPEC
  6
CONTINUOUS
 62
     7
 10
-1237.5
 20
1005.695409999999
 30
0.0
 11
975.00000000000034
 21
1005.695409999999
 31
0.0
  0
TEXT
  5
7E
  8
SPEC
 62
     7
 10
-486.49999999999949
 20
961.26420999999948
 30
0.0
 40
28.504720052083329
  1
4Pスピコン\U+00D72
 41
0.7
 11
-486.49999999999949
 21
989.76893005208285
 31
0.0
 73
     3
  0
TEXT
  5
7F
  8
SPEC
 62
     7
 10
-1223.9999999999991
 20
961.66499999999985
 30
0.0
 40
28.504720052083329
  1
入力端子
 41
0.7
 11
-1223.9999999999991
 21
990.16972005208345
 31
0.0
 73
     3
  0
LINE
  5
80
  8
SPEC
  6
CONTINUOUS
 62
     7
 10
-1237.5
 20
949.44540999999936
 30
0.0
 11
975.00000000000034
 21
949.44540999999936
 31
0.0
  0
TEXT
  5
81
  8
SPEC
 62
     7
 10
-486.5
 20
1242.5141766666659
 30
0.0
 40
28.504720052083329
  1
HF：75W(連続)、300W(ピーク)　
 41
0.7
 11
-486.5
 21
1271.0188967187489
 31
0.0
 73
     3
  0
LINE
  5
82
  8
SPEC
  6
CONTINUOUS
 62
     7
 10
-750.0
 20
1455.6954099999989
 30
0.0
 11
975.00000000000034
 21
1455.6954099999989
 31
0.0
  0
LINE
  5
83
  8
SPEC
  6
CONTINUOUS
 62
     7
 10
-750.0
 20
1343.19541
 30
0.0
 11
975.00000000000034
 21
1343.19541
 31
0.0
  0
LINE
  5
84
  8
SPEC
  6
CONTINUOUS
 62
     7
 10
-1237.5
 20
1736.9454099999989
 30
0.0
 11
975.00000000000034
 21
1736.9454099999989
 31
0.0
  0
TEXT
  5
85
  8
SPEC
 62
     7
 10
-1224.0
 20
1692.5141766666659
 30
0.0
 40
28.504720052083329
  1
周波数レンジ(-10dB)
 41
0.7
 11
-1224.0
 21
1721.0188967187489
 31
0.0
 73
     3
  0
TEXT
  5
86
  8
SPEC
 62
     7
 10
-486.5
 20
1692.5141766666659
 30
0.0
 40
28.504720052083329
  1
41Hz～20kHz
 41
0.7
 11
-486.5
 21
1721.0188967187489
 31
0.0
 73
     3
  0
TEXT
  5
87
  8
SPEC
 62
     7
 10
-486.5
 20
1748.7641766666659
 30
0.0
 40
28.504720052083329
  1
バイアンプ/パッシブ(スイッチ切替)
 41
0.7
 11
-486.5
 21
1777.2688967187489
 31
0.0
 73
     3
  0
TEXT
  5
88
  8
SPEC
 62
     7
 10
-1224.0
 20
848.76417666666669
 30
0.0
 40
28.504720052083329
  1
寸法(W\U+00D7H\U+00D7D)
 41
0.7
 11
-1224.0
 21
877.26889671875017
 31
0.0
 73
     3
  0
LINE
  5
89
  8
DIMNSIONS
  6
CONTINUOUS
 62
     7
 10
-618.75
 20
-865.0
 30
0.0
 11
-618.75
 21
-1005.0
 31
0.0
  0
LINE
  5
8A
  8
DIMNSIONS
  6
CONTINUOUS
 62
     7
 10
-181.25
 20
-865.0
 30
0.0
 11
-181.25
 21
-1005.0
 31
0.0
  0
LINE
  5
8B
  8
DIMNSIONS
  6
CONTINUOUS
 62
     7
 10
-618.75
 20
-975.0
 30
0.0
 11
-181.25
 21
-975.0
 31
0.0
  0
LINE
  5
8C
  8
DIMNSIONS
  6
CONTINUOUS
 62
     7
 10
-618.75
 20
-975.0
 30
0.0
 11
-581.24066162109375
 21
-964.94940307274646
 31
0.0
  0
LINE
  5
8D
  8
DIMNSIONS
  6
CONTINUOUS
 62
     7
 10
-618.75
 20
-975.0
 30
0.0
 11
-581.24066162109375
 21
-985.05059692725365
 31
0.0
  0
LINE
  5
8E
  8
DIMNSIONS
  6
CONTINUOUS
 62
     7
 10
-181.25
 20
-975.0
 30
0.0
 11
-218.75933837890619
 21
-985.05059692725365
 31
0.0
  0
LINE
  5
8F
  8
DIMNSIONS
  6
CONTINUOUS
 62
     7
 10
-181.25
 20
-975.0
 30
0.0
 11
-218.75933837890619
 21
-964.94940307274646
 31
0.0
  0
TEXT
  5
90
  8
DIMNSIONS
 62
     7
 10
-439.6875
 20
-960.09166666666658
 30
0.0
 40
40.721028645833371
  1
438
 41
0.7
 11
-439.6875
 21
-919.37063802083321
 31
0.0
 73
     3
  0
LINE
  5
91
  8
DIMNSIONS
  6
CONTINUOUS
 62
     7
 10
-171.25
 20
-130.50300000000021
 30
0.0
 11
-20.0
 21
-130.50300000000021
 31
0.0
  0
LINE
  5
92
  8
DIMNSIONS
  6
CONTINUOUS
 62
     7
 10
-171.25
 20
-850.0
 30
0.0
 11
-20.0
 21
-850.0
 31
0.0
  0
LINE
  5
93
  8
DIMNSIONS
  6
CONTINUOUS
 62
     7
 10
-50.0
 20
-130.50300000000021
 30
0.0
 11
-50.0
 21
-850.0
 31
0.0
  0
LINE
  5
94
  8
DIMNSIONS
  6
CONTINUOUS
 62
     7
 10
-50.0
 20
-130.50300000000021
 30
0.0
 11
-39.94940307274635
 21
-168.01233837890641
 31
0.0
  0
LINE
  5
95
  8
DIMNSIONS
  6
CONTINUOUS
 62
     7
 10
-50.0
 20
-130.50300000000021
 30
0.0
 11
-60.05059692725365
 21
-168.01233837890641
 31
0.0
  0
LINE
  5
96
  8
DIMNSIONS
  6
CONTINUOUS
 62
     7
 10
-50.0
 20
-850.0
 30
0.0
 11
-60.05059692725365
 21
-812.49066162109375
 31
0.0
  0
LINE
  5
97
  8
DIMNSIONS
  6
CONTINUOUS
 62
     7
 10
-50.0
 20
-850.0
 30
0.0
 11
-39.94940307274635
 21
-812.49066162109375
 31
0.0
  0
TEXT
  5
98
  8
DIMNSIONS
 62
     7
 10
-64.908333333333331
 20
-529.93899999999996
 30
0.0
 40
40.721028645833371
  1
719
 50
90.0
 41
0.7
 11
-105.6293619791667
 21
-529.93899999999996
 31
0.0
 73
     3
  0
LINE
  5
99
  8
DIMNSIONS
  6
CONTINUOUS
 62
     7
 10
100.0
 20
-865.00000000000023
 30
0.0
 11
100.0
 21
-1005.0
 31
0.0
  0
LINE
  5
9A
  8
DIMNSIONS
  6
CONTINUOUS
 62
     7
 10
431.0
 20
-865.00000000000023
 30
0.0
 11
431.0
 21
-1005.0
 31
0.0
  0
LINE
  5
9B
  8
DIMNSIONS
  6
CONTINUOUS
 62
     7
 10
100.0
 20
-975.0
 30
0.0
 11
431.0
 21
-975.0
 31
0.0
  0
LINE
  5
9C
  8
DIMNSIONS
  6
CONTINUOUS
 62
     7
 10
100.0
 20
-975.0
 30
0.0
 11
137.50933837890619
 21
-964.94940307274646
 31
0.0
  0
LINE
  5
9D
  8
DIMNSIONS
  6
CONTINUOUS
 62
     7
 10
100.0
 20
-975.0
 30
0.0
 11
137.50933837890619
 21
-985.05059692725365
 31
0.0
  0
LINE
  5
9E
  8
DIMNSIONS
  6
CONTINUOUS
 62
     7
 10
431.0
 20
-975.0
 30
0.0
 11
393.49066162109381
 21
-985.05059692725365
 31
0.0
  0
LINE
  5
9F
  8
DIMNSIONS
  6
CONTINUOUS
 62
     7
 10
431.0
 20
-975.0
 30
0.0
 11
393.49066162109381
 21
-964.94940307274646
 31
0.0
  0
TEXT
  5
A0
  8
DIMNSIONS
 62
     7
 10
225.8125
 20
-960.09166666666658
 30
0.0
 40
40.721028645833371
  1
331
 41
0.7
 11
225.8125
 21
-919.37063802083321
 31
0.0
 73
     3
  0
LINE
  5
A1
  8
DIMNSIONS
  6
CONTINUOUS
 62
     7
 10
-171.25
 20
-850.0
 30
0.0
 11
-20.0
 21
-850.0
 31
0.0
  0
LINE
  5
A2
  8
DIMNSIONS
  6
CONTINUOUS
 62
     7
 10
-192.25
 20
-854.0
 30
0.0
 11
-20.0
 21
-854.0
 31
0.0
  0
LINE
  5
A3
  8
DIMNSIONS
  6
CONTINUOUS
 62
     7
 10
-50.0
 20
-854.0
 30
0.0
 11
-50.0
 21
-850.0
 31
0.0
  0
LINE
  5
A4
  8
DIMNSIONS
  6
CONTINUOUS
 62
     7
 10
-50.0
 20
-850.0
 30
0.0
 11
-50.0
 21
-775.0
 31
0.0
  0
LINE
  5
A5
  8
DIMNSIONS
  6
CONTINUOUS
 62
     7
 10
-50.0
 20
-850.0
 30
0.0
 11
-60.05059692725365
 21
-812.49066162109375
 31
0.0
  0
LINE
  5
A6
  8
DIMNSIONS
  6
CONTINUOUS
 62
     7
 10
-50.0
 20
-850.0
 30
0.0
 11
-39.94940307274635
 21
-812.49066162109375
 31
0.0
  0
LINE
  5
A7
  8
DIMNSIONS
  6
CONTINUOUS
 62
     7
 10
-50.0
 20
-854.0
 30
0.0
 11
-50.0
 21
-979.37500000000011
 31
0.0
  0
LINE
  5
A8
  8
DIMNSIONS
  6
CONTINUOUS
 62
     7
 10
-50.0
 20
-854.0
 30
0.0
 11
-39.94940307274635
 21
-891.50933837890625
 31
0.0
  0
LINE
  5
A9
  8
DIMNSIONS
  6
CONTINUOUS
 62
     7
 10
-50.0
 20
-854.0
 30
0.0
 11
-60.05059692725365
 21
-891.50933837890625
 31
0.0
  0
TEXT
  5
AA
  8
DIMNSIONS
 62
     7
 10
-64.908333333333331
 20
-979.37500000000011
 30
0.0
 40
40.721028645833343
  1
4.0
 50
90.0
 41
0.7
 11
-105.6293619791667
 21
-979.37500000000011
 31
0.0
 73
     3
  0
TEXT
  5
AB
  8
DIMNSIONS
 62
     7
 10
-299.99999999999972
 20
-1698.2985749999989
 30
0.0
 40
36.64892578125
  1
(単位：mm)
 41
0.7
 11
-299.99999999999972
 21
-1661.6496492187489
 31
0.0
 73
     3
  0
LINE
  5
AC
  8
DIMNSIONS
  6
CONTINUOUS
 62
     7
 10
-351.61955291479518
 20
-1219.377308534403
 30
0.0
 11
0.0
 21
-1150.0
 31
0.0
  0
LINE
  5
AD
  8
DIMNSIONS
  6
CONTINUOUS
 62
     7
 10
-351.61955291479518
 20
-1219.377308534403
 30
0.0
 11
-307.30448721306527
 21
-1197.7634068272321
 31
0.0
  0
LINE
  5
AE
  8
DIMNSIONS
  6
CONTINUOUS
 62
     7
 10
-351.61955291479518
 20
-1219.377308534403
 30
0.0
 11
-302.4346293931352
 21
-1222.816653431958
 31
0.0
  0
TEXT
  5
AF
  8
DIMNSIONS
 62
     7
 10
25.0
 20
-1144.05
 30
0.0
 40
40.721028645833343
  1
\U+03C635ポールソケット
 41
0.7
 11
25.0
 21
-1103.328971354166
 31
0.0
 73
     3
  0
TEXT
  5
B0
  8
DIMNSIONS
 62
     7
 10
25.0
 20
-1219.05
 30
0.0
 40
40.721028645833343
  1
(穴:\U+03A635.3 - 深さ80)
 41
0.7
 11
25.0
 21
-1178.328971354166
 31
0.0
 73
     3
  0
LINE
  5
B1
  8
DIMNSIONS
  6
CONTINUOUS
 62
     7
 10
-355.54762773099321
 20
381.0
 30
0.0
 11
-68.092908584442554
 21
381.0
 31
0.0
  0
LINE
  5
B2
  8
DIMNSIONS
  6
CONTINUOUS
 62
     7
 10
-162.76923788646681
 20
248.92584203742399
 30
0.0
 11
-111.42504658804791
 21
219.2822593699583
 31
0.0
  0
ARC
  5
B3
  8
DIMNSIONS
  6
CONTINUOUS
 62
     7
 10
-391.5283898445262
 20
381.0
 30
0.0
 40
293.43548126008358
 50
329.99999999999989
 51
0.0
  0
LINE
  5
B4
  8
DIMNSIONS
  6
CONTINUOUS
 62
     7
 10
-98.092908584442583
 20
381.0
 30
0.0
 11
-88.042311657188947
 21
343.49066162109381
 31
0.0
  0
LINE
  5
B5
  8
DIMNSIONS
  6
CONTINUOUS
 62
     7
 10
-98.092908584442583
 20
381.0
 30
0.0
 11
-108.1435055116962
 21
343.49066162109381
 31
0.0
  0
LINE
  5
B6
  8
DIMNSIONS
  6
CONTINUOUS
 62
     7
 10
-137.40580870158121
 20
234.28225936995821
 30
0.0
 11
-127.3552117743275
 21
271.79159774886438
 31
0.0
  0
LINE
  5
B7
  8
DIMNSIONS
  6
CONTINUOUS
 62
     7
 10
-137.40580870158121
 20
234.28225936995821
 30
0.0
 11
-109.94706724992849
 21
261.74100082161078
 31
0.0
  0
TEXT
  5
B8
  8
DIMNSIONS
 62
     7
 10
-63.390695725711183
 20
257.91814114364388
 30
0.0
 40
40.721028645833343
  1
30\U+00B0
 50
78.12370317403871
 41
0.7
 11
-103.2400584906386
 21
266.2985027828571
 31
0.0
 73
     3
  0
LINE
  5
B9
  8
DIMNSIONS
  6
CONTINUOUS
 62
     7
 10
-400.0
 20
-1152.0000000000009
 30
0.0
 11
-400.0
 21
-1045.0
 31
0.0
  0
LINE
  5
BA
  8
DIMNSIONS
  6
CONTINUOUS
 62
     7
 10
-618.75
 20
-1110.972940815564
 30
0.0
 11
-618.75
 21
-1045.0
 31
0.0
  0
LINE
  5
BB
  8
DIMNSIONS
  6
CONTINUOUS
 62
     7
 10
-400.0
 20
-1075.0
 30
0.0
 11
-618.75
 21
-1075.0
 31
0.0
  0
LINE
  5
BC
  8
DIMNSIONS
  6
CONTINUOUS
 62
     7
 10
-400.0
 20
-1075.0
 30
0.0
 11
-437.50933837890631
 21
-1085.050596927254
 31
0.0
  0
LINE
  5
BD
  8
DIMNSIONS
  6
CONTINUOUS
 62
     7
 10
-400.0
 20
-1075.0
 30
0.0
 11
-437.50933837890631
 21
-1064.949403072746
 31
0.0
  0
LINE
  5
BE
  8
DIMNSIONS
  6
CONTINUOUS
 62
     7
 10
-618.75
 20
-1075.0
 30
0.0
 11
-581.24066162109375
 21
-1064.949403072746
 31
0.0
  0
LINE
  5
BF
  8
DIMNSIONS
  6
CONTINUOUS
 62
     7
 10
-618.75
 20
-1075.0
 30
0.0
 11
-581.24066162109375
 21
-1085.0505969272531
 31
0.0
  0
TEXT
  5
C0
  8
DIMNSIONS
 62
     7
 10
-549.0625
 20
-1060.091666666666
 30
0.0
 40
40.721028645833343
  1
219
 41
0.7
 11
-549.0625
 21
-1019.370638020833
 31
0.0
 73
     3
  0
LINE
  5
C1
  8
DIMNSIONS
  6
CONTINUOUS
 62
     7
 10
-573.74999999999989
 20
-1291.1759999999999
 30
0.0
 11
-573.74999999999989
 21
-1580.0
 31
0.0
  0
LINE
  5
C2
  8
DIMNSIONS
  6
CONTINUOUS
 62
     7
 10
-618.75
 20
-1451.0
 30
0.0
 11
-618.75
 21
-1580.0
 31
0.0
  0
LINE
  5
C3
  8
DIMNSIONS
  6
CONTINUOUS
 62
     7
 10
-618.75
 20
-1550.0
 30
0.0
 11
-573.74999999999989
 21
-1550.0
 31
0.0
  0
LINE
  5
C4
  8
DIMNSIONS
  6
CONTINUOUS
 62
     7
 10
-573.74999999999989
 20
-1550.0
 30
0.0
 11
-444.16666666666652
 21
-1550.0
 31
0.0
  0
LINE
  5
C5
  8
DIMNSIONS
  6
CONTINUOUS
 62
     7
 10
-573.74999999999989
 20
-1550.0
 30
0.0
 11
-536.24066162109375
 21
-1539.949403072746
 31
0.0
  0
LINE
  5
C6
  8
DIMNSIONS
  6
CONTINUOUS
 62
     7
 10
-573.74999999999989
 20
-1550.0
 30
0.0
 11
-536.24066162109375
 21
-1560.0505969272531
 31
0.0
  0
LINE
  5
C7
  8
DIMNSIONS
  6
CONTINUOUS
 62
     7
 10
-618.75
 20
-1550.0
 30
0.0
 11
-693.75
 21
-1550.0
 31
0.0
  0
LINE
  5
C8
  8
DIMNSIONS
  6
CONTINUOUS
 62
     7
 10
-618.75
 20
-1550.0
 30
0.0
 11
-656.25933837890636
 21
-1560.0505969272531
 31
0.0
  0
LINE
  5
C9
  8
DIMNSIONS
  6
CONTINUOUS
 62
     7
 10
-618.75
 20
-1550.0
 30
0.0
 11
-656.25933837890636
 21
-1539.949403072746
 31
0.0
  0
TEXT
  5
CA
  8
DIMNSIONS
 62
     7
 10
-550.0
 20
-1535.091666666666
 30
0.0
 40
40.721028645833343
  1
45.0
 41
0.7
 11
-550.0
 21
-1494.370638020833
 31
0.0
 73
     3
  0
LINE
  5
CB
  8
DIMNSIONS
  6
CONTINUOUS
 62
     7
 10
-226.25
 20
-1291.1759999999999
 30
0.0
 11
-226.25
 21
-1580.0
 31
0.0
  0
LINE
  5
CC
  8
DIMNSIONS
  6
CONTINUOUS
 62
     7
 10
-181.25
 20
-1330.8274267137849
 30
0.0
 11
-181.25
 21
-1580.0
 31
0.0
  0
LINE
  5
CD
  8
DIMNSIONS
  6
CONTINUOUS
 62
     7
 10
-181.25
 20
-1550.0
 30
0.0
 11
-226.25
 21
-1550.0
 31
0.0
  0
LINE
  5
CE
  8
DIMNSIONS
  6
CONTINUOUS
 62
     7
 10
-226.25
 20
-1550.0
 30
0.0
 11
-355.83333333333343
 21
-1550.0
 31
0.0
  0
LINE
  5
CF
  8
DIMNSIONS
  6
CONTINUOUS
 62
     7
 10
-226.25
 20
-1550.0
 30
0.0
 11
-263.75933837890631
 21
-1560.0505969272531
 31
0.0
  0
LINE
  5
D0
  8
DIMNSIONS
  6
CONTINUOUS
 62
     7
 10
-226.25
 20
-1550.0
 30
0.0
 11
-263.75933837890631
 21
-1539.949403072746
 31
0.0
  0
LINE
  5
D1
  8
DIMNSIONS
  6
CONTINUOUS
 62
     7
 10
-181.25
 20
-1550.0
 30
0.0
 11
-106.25
 21
-1550.0
 31
0.0
  0
LINE
  5
D2
  8
DIMNSIONS
  6
CONTINUOUS
 62
     7
 10
-181.25
 20
-1550.0
 30
0.0
 11
-143.74066162109369
 21
-1539.949403072746
 31
0.0
  0
LINE
  5
D3
  8
DIMNSIONS
  6
CONTINUOUS
 62
     7
 10
-181.25
 20
-1550.0
 30
0.0
 11
-143.74066162109369
 21
-1560.0505969272531
 31
0.0
  0
TEXT
  5
D4
  8
DIMNSIONS
 62
     7
 10
-355.83333333333343
 20
-1535.091666666666
 30
0.0
 40
40.721028645833343
  1
45.0
 41
0.7
 11
-355.83333333333343
 21
-1494.370638020833
 31
0.0
 73
     3
  0
LINE
  5
D5
  8
DIMNSIONS
  6
CONTINUOUS
 62
     7
 10
-573.74999999999989
 20
241.17600000000041
 30
0.0
 11
-573.74999999999989
 21
480.0
 31
0.0
  0
LINE
  5
D6
  8
DIMNSIONS
  6
CONTINUOUS
 62
     7
 10
-618.75
 20
401.0
 30
0.0
 11
-618.75
 21
480.0
 31
0.0
  0
LINE
  5
D7
  8
DIMNSIONS
  6
CONTINUOUS
 62
     7
 10
-618.75
 20
450.0
 30
0.0
 11
-573.74999999999989
 21
450.0
 31
0.0
  0
LINE
  5
D8
  8
DIMNSIONS
  6
CONTINUOUS
 62
     7
 10
-573.74999999999989
 20
450.0
 30
0.0
 11
-444.16666666666652
 21
450.0
 31
0.0
  0
LINE
  5
D9
  8
DIMNSIONS
  6
CONTINUOUS
 62
     7
 10
-573.74999999999989
 20
450.0
 30
0.0
 11
-536.24066162109375
 21
460.05059692725359
 31
0.0
  0
LINE
  5
DA
  8
DIMNSIONS
  6
CONTINUOUS
 62
     7
 10
-573.74999999999989
 20
450.0
 30
0.0
 11
-536.24066162109375
 21
439.94940307274629
 31
0.0
  0
LINE
  5
DB
  8
DIMNSIONS
  6
CONTINUOUS
 62
     7
 10
-618.75
 20
450.0
 30
0.0
 11
-693.75
 21
450.0
 31
0.0
  0
LINE
  5
DC
  8
DIMNSIONS
  6
CONTINUOUS
 62
     7
 10
-618.75
 20
450.0
 30
0.0
 11
-656.25933837890636
 21
439.94940307274629
 31
0.0
  0
LINE
  5
DD
  8
DIMNSIONS
  6
CONTINUOUS
 62
     7
 10
-618.75
 20
450.0
 30
0.0
 11
-656.25933837890636
 21
460.05059692725359
 31
0.0
  0
TEXT
  5
DE
  8
DIMNSIONS
 62
     7
 10
-550.0
 20
464.9083333333333
 30
0.0
 40
40.721028645833343
  1
45.0
 41
0.7
 11
-550.0
 21
505.62936197916662
 31
0.0
 73
     3
  0
LINE
  5
DF
  8
DIMNSIONS
  6
CONTINUOUS
 62
     7
 10
-226.25
 20
241.17600000000041
 30
0.0
 11
-226.25
 21
480.0
 31
0.0
  0
LINE
  5
E0
  8
DIMNSIONS
  6
CONTINUOUS
 62
     7
 10
-181.27919799230281
 20
280.0
 30
0.0
 11
-181.27919799230281
 21
480.0
 31
0.0
  0
LINE
  5
E1
  8
DIMNSIONS
  6
CONTINUOUS
 62
     7
 10
-181.27919799230281
 20
450.0
 30
0.0
 11
-226.25
 21
450.0
 31
0.0
  0
LINE
  5
E2
  8
DIMNSIONS
  6
CONTINUOUS
 62
     7
 10
-226.25
 20
450.0
 30
0.0
 11
-355.83333333333343
 21
450.0
 31
0.0
  0
LINE
  5
E3
  8
DIMNSIONS
  6
CONTINUOUS
 62
     7
 10
-226.25
 20
450.0
 30
0.0
 11
-263.75933837890631
 21
439.94940307274629
 31
0.0
  0
LINE
  5
E4
  8
DIMNSIONS
  6
CONTINUOUS
 62
     7
 10
-226.25
 20
450.0
 30
0.0
 11
-263.75933837890631
 21
460.05059692725359
 31
0.0
  0
LINE
  5
E5
  8
DIMNSIONS
  6
CONTINUOUS
 62
     7
 10
-181.27919799230281
 20
450.0
 30
0.0
 11
-106.2791979923028
 21
450.0
 31
0.0
  0
LINE
  5
E6
  8
DIMNSIONS
  6
CONTINUOUS
 62
     7
 10
-181.27919799230281
 20
450.0
 30
0.0
 11
-143.76985961339659
 21
460.05059692725359
 31
0.0
  0
LINE
  5
E7
  8
DIMNSIONS
  6
CONTINUOUS
 62
     7
 10
-181.27919799230281
 20
450.0
 30
0.0
 11
-143.76985961339659
 21
439.94940307274629
 31
0.0
  0
TEXT
  5
E8
  8
DIMNSIONS
 62
     7
 10
-355.83333333333343
 20
464.9083333333333
 30
0.0
 40
40.721028645833343
  1
45.0
 41
0.7
 11
-355.83333333333343
 21
505.62936197916662
 31
0.0
 73
     3
  0
LINE
  5
E9
  8
DIMNSIONS
  6
CONTINUOUS
 62
     7
 10
-614.92600000000039
 20
-1250.0
 30
0.0
 11
-730.0
 21
-1250.0
 31
0.0
  0
LINE
  5
EA
  8
DIMNSIONS
  6
CONTINUOUS
 62
     7
 10
-638.75
 20
-1431.0
 30
0.0
 11
-730.0
 21
-1431.0
 31
0.0
  0
LINE
  5
EB
  8
DIMNSIONS
  6
CONTINUOUS
 62
     7
 10
-700.0
 20
-1250.0
 30
0.0
 11
-700.0
 21
-1431.0
 31
0.0
  0
LINE
  5
EC
  8
DIMNSIONS
  6
CONTINUOUS
 62
     7
 10
-700.0
 20
-1250.0
 30
0.0
 11
-689.94940307274635
 21
-1287.509338378906
 31
0.0
  0
LINE
  5
ED
  8
DIMNSIONS
  6
CONTINUOUS
 62
     7
 10
-700.0
 20
-1250.0
 30
0.0
 11
-710.05059692725354
 21
-1287.509338378906
 31
0.0
  0
LINE
  5
EE
  8
DIMNSIONS
  6
CONTINUOUS
 62
     7
 10
-700.0
 20
-1431.0
 30
0.0
 11
-710.05059692725354
 21
-1393.490661621094
 31
0.0
  0
LINE
  5
EF
  8
DIMNSIONS
  6
CONTINUOUS
 62
     7
 10
-700.0
 20
-1431.0
 30
0.0
 11
-689.94940307274635
 21
-1393.490661621094
 31
0.0
  0
TEXT
  5
F0
  8
DIMNSIONS
 62
     7
 10
-714.90833333333353
 20
-1380.1875
 30
0.0
 40
40.721028645833343
  1
181
 50
90.0
 41
0.7
 11
-755.62936197916679
 21
-1380.1875
 31
0.0
 73
     3
  0
LINE
  5
F1
  8
DIMNSIONS
  6
CONTINUOUS
 62
     7
 10
-638.75
 20
381.0
 30
0.0
 11
-780.0
 21
381.0
 31
0.0
  0
LINE
  5
F2
  8
DIMNSIONS
  6
CONTINUOUS
 62
     7
 10
-630.0
 20
200.0
 30
0.0
 11
-780.0
 21
200.0
 31
0.0
  0
LINE
  5
F3
  8
DIMNSIONS
  6
CONTINUOUS
 62
     7
 10
-750.0
 20
381.0
 30
0.0
 11
-750.0
 21
200.0
 31
0.0
  0
LINE
  5
F4
  8
DIMNSIONS
  6
CONTINUOUS
 62
     7
 10
-750.0
 20
381.0
 30
0.0
 11
-739.94940307274624
 21
343.49066162109381
 31
0.0
  0
LINE
  5
F5
  8
DIMNSIONS
  6
CONTINUOUS
 62
     7
 10
-750.0
 20
381.0
 30
0.0
 11
-760.05059692725354
 21
343.49066162109381
 31
0.0
  0
LINE
  5
F6
  8
DIMNSIONS
  6
CONTINUOUS
 62
     7
 10
-750.0
 20
200.0
 30
0.0
 11
-760.05059692725354
 21
237.50933837890619
 31
0.0
  0
LINE
  5
F7
  8
DIMNSIONS
  6
CONTINUOUS
 62
     7
 10
-750.0
 20
200.0
 30
0.0
 11
-739.94940307274624
 21
237.50933837890619
 31
0.0
  0
TEXT
  5
F8
  8
DIMNSIONS
 62
     7
 10
-764.90833333333353
 20
250.8125
 30
0.0
 40
40.721028645833343
  1
181
 50
90.0
 41
0.7
 11
-805.62936197916679
 21
250.8125
 31
0.0
 73
     3
  0
LINE
  5
F9
  8
DIMNSIONS
  6
CONTINUOUS
 62
     7
 10
-977.82399999999961
 20
-180.5030000000001
 30
0.0
 11
-720.0
 21
-180.5030000000001
 31
0.0
  0
LINE
  5
FA
  8
DIMNSIONS
  6
CONTINUOUS
 62
     7
 10
-859.0
 20
-130.50300000000021
 30
0.0
 11
-720.0
 21
-130.50300000000021
 31
0.0
  0
LINE
  5
FB
  8
DIMNSIONS
  6
CONTINUOUS
 62
     7
 10
-750.0
 20
-130.50300000000021
 30
0.0
 11
-750.0
 21
-180.5030000000001
 31
0.0
  0
LINE
  5
FC
  8
DIMNSIONS
  6
CONTINUOUS
 62
     7
 10
-750.0
 20
-180.5030000000001
 30
0.0
 11
-750.0
 21
-311.3363333333337
 31
0.0
  0
LINE
  5
FD
  8
DIMNSIONS
  6
CONTINUOUS
 62
     7
 10
-750.0
 20
-180.5030000000001
 30
0.0
 11
-739.94940307274624
 21
-218.01233837890649
 31
0.0
  0
LINE
  5
FE
  8
DIMNSIONS
  6
CONTINUOUS
 62
     7
 10
-750.0
 20
-180.5030000000001
 30
0.0
 11
-760.05059692725354
 21
-218.01233837890649
 31
0.0
  0
LINE
  5
FF
  8
DIMNSIONS
  6
CONTINUOUS
 62
     7
 10
-750.0
 20
-130.50300000000021
 30
0.0
 11
-750.0
 21
-55.503000000000171
 31
0.0
  0
LINE
  5
100
  8
DIMNSIONS
  6
CONTINUOUS
 62
     7
 10
-750.0
 20
-130.50300000000021
 30
0.0
 11
-760.05059692725354
 21
-92.993661621093906
 31
0.0
  0
LINE
  5
101
  8
DIMNSIONS
  6
CONTINUOUS
 62
     7
 10
-750.0
 20
-130.50300000000021
 30
0.0
 11
-739.94940307274624
 21
-92.993661621093906
 31
0.0
  0
TEXT
  5
102
  8
DIMNSIONS
 62
     7
 10
-764.90833333333308
 20
-311.3363333333337
 30
0.0
 40
40.721028645833343
  1
50.0
 50
90.0
 41
0.7
 11
-805.62936197916645
 21
-311.3363333333337
 31
0.0
 73
     3
  0
LINE
  5
103
  8
DIMNSIONS
  6
CONTINUOUS
 62
     7
 10
-977.82399999999961
 20
-800.0
 30
0.0
 11
-720.0
 21
-800.0
 31
0.0
  0
LINE
  5
104
  8
DIMNSIONS
  6
CONTINUOUS
 62
     7
 10
-859.0
 20
-850.0
 30
0.0
 11
-720.0
 21
-850.0
 31
0.0
  0
LINE
  5
105
  8
DIMNSIONS
  6
CONTINUOUS
 62
     7
 10
-750.0
 20
-850.0
 30
0.0
 11
-750.0
 21
-800.0
 31
0.0
  0
LINE
  5
106
  8
DIMNSIONS
  6
CONTINUOUS
 62
     7
 10
-750.0
 20
-800.0
 30
0.0
 11
-750.0
 21
-669.16666666666652
 31
0.0
  0
LINE
  5
107
  8
DIMNSIONS
  6
CONTINUOUS
 62
     7
 10
-750.0
 20
-800.0
 30
0.0
 11
-760.05059692725354
 21
-762.49066162109375
 31
0.0
  0
LINE
  5
108
  8
DIMNSIONS
  6
CONTINUOUS
 62
     7
 10
-750.0
 20
-800.0
 30
0.0
 11
-739.94940307274624
 21
-762.49066162109375
 31
0.0
  0
LINE
  5
109
  8
DIMNSIONS
  6
CONTINUOUS
 62
     7
 10
-750.0
 20
-850.0
 30
0.0
 11
-750.0
 21
-925.0
 31
0.0
  0
LINE
  5
10A
  8
DIMNSIONS
  6
CONTINUOUS
 62
     7
 10
-750.0
 20
-850.0
 30
0.0
 11
-739.94940307274624
 21
-887.50933837890625
 31
0.0
  0
LINE
  5
10B
  8
DIMNSIONS
  6
CONTINUOUS
 62
     7
 10
-750.0
 20
-850.0
 30
0.0
 11
-760.05059692725354
 21
-887.50933837890625
 31
0.0
  0
TEXT
  5
10C
  8
DIMNSIONS
 62
     7
 10
-764.90833333333308
 20
-775.0
 30
0.0
 40
40.721028645833343
  1
50.0
 50
90.0
 41
0.7
 11
-805.62936197916645
 21
-775.0
 31
0.0
 73
     3
  0
LINE
  5
10D
  8
DIMNSIONS
  6
CONTINUOUS
 62
     7
 10
-217.48926301559919
 20
193.0608023885934
 30
0.0
 11
-100.0
 21
99.999999999999957
 31
0.0
  0
LINE
  5
10E
  8
DIMNSIONS
  6
CONTINUOUS
 62
     7
 10
-217.48926301559919
 20
193.0608023885934
 30
0.0
 11
-181.7437356802113
 21
177.8877262425892
 31
0.0
  0
LINE
  5
10F
  8
DIMNSIONS
  6
CONTINUOUS
 62
     7
 10
-217.48926301559919
 20
193.0608023885934
 30
0.0
 11
-194.11926634448429
 21
162.0477693249041
 31
0.0
  0
LINE
  5
110
  8
DIMNSIONS
  6
CONTINUOUS
 62
     7
 10
-100.0
 20
99.999999999999957
 30
0.0
 11
62.291666666666679
 21
99.999999999999957
 31
0.0
  0
TEXT
  5
111
  8
DIMNSIONS
 62
     7
 10
-70.0
 20
114.9083333333333
 30
0.0
 40
40.721028645833343
  1
2-M10
 41
0.7
 11
-70.0
 21
155.62936197916659
 31
0.0
 73
     3
  0
LINE
  5
112
  8
DIMNSIONS
  6
CONTINUOUS
 62
     7
 10
-219.05333335357909
 20
-1258.5504950254499
 30
0.0
 11
-100.0
 21
-1400.0
 31
0.0
  0
LINE
  5
113
  8
DIMNSIONS
  6
CONTINUOUS
 62
     7
 10
-219.05333335357909
 20
-1258.5504950254499
 30
0.0
 11
-186.8597114506816
 21
-1280.26536718696
 31
0.0
  0
LINE
  5
114
  8
DIMNSIONS
  6
CONTINUOUS
 62
     7
 10
-219.05333335357909
 20
-1258.5504950254499
 30
0.0
 11
-202.0302750265933
 21
-1293.4529369086979
 31
0.0
  0
LINE
  5
115
  8
DIMNSIONS
  6
CONTINUOUS
 62
     7
 10
-100.0
 20
-1400.0
 30
0.0
 11
62.2916666666667
 21
-1400.0
 31
0.0
  0
TEXT
  5
116
  8
DIMNSIONS
 62
     7
 10
-69.999999999999986
 20
-1385.091666666666
 30
0.0
 40
40.721028645833343
  1
2-M10
 41
0.7
 11
-69.999999999999986
 21
-1344.370638020833
 31
0.0
 73
     3
  0
LINE
  5
117
  8
DIMNSIONS
  6
CONTINUOUS
 62
     7
 10
291.17600000000039
 20
-800.0
 30
0.0
 11
580.0
 21
-800.0
 31
0.0
  0
LINE
  5
118
  8
DIMNSIONS
  6
CONTINUOUS
 62
     7
 10
441.0
 20
-850.00000000000011
 30
0.0
 11
580.0
 21
-850.00000000000011
 31
0.0
  0
LINE
  5
119
  8
DIMNSIONS
  6
CONTINUOUS
 62
     7
 10
550.0
 20
-850.00000000000011
 30
0.0
 11
550.0
 21
-800.0
 31
0.0
  0
LINE
  5
11A
  8
DIMNSIONS
  6
CONTINUOUS
 62
     7
 10
550.0
 20
-800.0
 30
0.0
 11
550.0
 21
-669.16666666666652
 31
0.0
  0
LINE
  5
11B
  8
DIMNSIONS
  6
CONTINUOUS
 62
     7
 10
550.0
 20
-800.0
 30
0.0
 11
539.94940307274635
 21
-762.49066162109375
 31
0.0
  0
LINE
  5
11C
  8
DIMNSIONS
  6
CONTINUOUS
 62
     7
 10
550.0
 20
-800.0
 30
0.0
 11
560.05059692725365
 21
-762.49066162109375
 31
0.0
  0
LINE
  5
11D
  8
DIMNSIONS
  6
CONTINUOUS
 62
     7
 10
550.0
 20
-850.00000000000011
 30
0.0
 11
550.0
 21
-925.0
 31
0.0
  0
LINE
  5
11E
  8
DIMNSIONS
  6
CONTINUOUS
 62
     7
 10
550.0
 20
-850.00000000000011
 30
0.0
 11
560.05059692725365
 21
-887.50933837890625
 31
0.0
  0
LINE
  5
11F
  8
DIMNSIONS
  6
CONTINUOUS
 62
     7
 10
550.0
 20
-850.00000000000011
 30
0.0
 11
539.94940307274635
 21
-887.50933837890625
 31
0.0
  0
TEXT
  5
120
  8
DIMNSIONS
 62
     7
 10
535.09166666666647
 20
-775.0
 30
0.0
 40
40.721028645833343
  1
50.0
 50
90.0
 41
0.7
 11
494.37063802083321
 21
-775.0
 31
0.0
 73
     3
  0
LINE
  5
121
  8
DIMNSIONS
  6
CONTINUOUS
 62
     7
 10
441.0
 20
-130.5030000000001
 30
0.0
 11
580.0
 21
-130.5030000000001
 31
0.0
  0
LINE
  5
122
  8
DIMNSIONS
  6
CONTINUOUS
 62
     7
 10
291.17600000000039
 20
-180.5030000000001
 30
0.0
 11
580.0
 21
-180.5030000000001
 31
0.0
  0
LINE
  5
123
  8
DIMNSIONS
  6
CONTINUOUS
 62
     7
 10
550.0
 20
-180.5030000000001
 30
0.0
 11
550.0
 21
-130.5030000000001
 31
0.0
  0
LINE
  5
124
  8
DIMNSIONS
  6
CONTINUOUS
 62
     7
 10
550.0
 20
-130.5030000000001
 30
0.0
 11
550.0
 21
-55.503000000000071
 31
0.0
  0
LINE
  5
125
  8
DIMNSIONS
  6
CONTINUOUS
 62
     7
 10
550.0
 20
-130.5030000000001
 30
0.0
 11
539.94940307274635
 21
-92.993661621093807
 31
0.0
  0
LINE
  5
126
  8
DIMNSIONS
  6
CONTINUOUS
 62
     7
 10
550.0
 20
-130.5030000000001
 30
0.0
 11
560.05059692725365
 21
-92.993661621093807
 31
0.0
  0
LINE
  5
127
  8
DIMNSIONS
  6
CONTINUOUS
 62
     7
 10
550.0
 20
-180.5030000000001
 30
0.0
 11
550.0
 21
-330.83333333333343
 31
0.0
  0
LINE
  5
128
  8
DIMNSIONS
  6
CONTINUOUS
 62
     7
 10
550.0
 20
-180.5030000000001
 30
0.0
 11
560.05059692725365
 21
-218.01233837890649
 31
0.0
  0
LINE
  5
129
  8
DIMNSIONS
  6
CONTINUOUS
 62
     7
 10
550.0
 20
-180.5030000000001
 30
0.0
 11
539.94940307274635
 21
-218.01233837890649
 31
0.0
  0
TEXT
  5
12A
  8
DIMNSIONS
 62
     7
 10
535.09166666666647
 20
-330.83333333333331
 30
0.0
 40
40.721028645833343
  1
50.0
 50
90.0
 41
0.7
 11
494.37063802083321
 21
-330.83333333333331
 31
0.0
 73
     3
  0
LINE
  5
12B
  8
DIMNSIONS
  6
CONTINUOUS
 62
     7
 10
-1014.329486922386
 20
-810.15328929916075
 30
0.0
 11
-950.0
 21
-950.0
 31
0.0
  0
LINE
  5
12C
  8
DIMNSIONS
  6
CONTINUOUS
 62
     7
 10
-1014.329486922386
 20
-810.15328929916075
 30
0.0
 11
-989.36842127811224
 21
-839.90072895570381
 31
0.0
  0
LINE
  5
12D
  8
DIMNSIONS
  6
CONTINUOUS
 62
     7
 10
-1014.329486922386
 20
-810.15328929916075
 30
0.0
 11
-1007.5862897971861
 21
-848.39586056140865
 31
0.0
  0
LINE
  5
12E
  8
DIMNSIONS
  6
CONTINUOUS
 62
     7
 10
-950.0
 20
-950.0
 30
0.0
 11
-787.70833333333314
 21
-950.0
 31
0.0
  0
TEXT
  5
12F
  8
DIMNSIONS
 62
     7
 10
-920.0
 20
-935.09166666666658
 30
0.0
 40
40.721028645833343
  1
2-M10
 41
0.7
 11
-920.0
 21
-894.37063802083321
 31
0.0
 73
     3
  0
LINE
  5
130
  8
DIMNSIONS
  6
CONTINUOUS
 62
     7
 10
259.29899408952008
 20
-806.19932939301339
 30
0.0
 11
550.0
 21
-1000.0
 31
0.0
  0
LINE
  5
131
  8
DIMNSIONS
  6
CONTINUOUS
 62
     7
 10
259.29899408952008
 20
-806.19932939301339
 30
0.0
 11
296.23091962279892
 21
-818.19923941858281
 31
0.0
  0
LINE
  5
132
  8
DIMNSIONS
  6
CONTINUOUS
 62
     7
 10
259.29899408952008
 20
-806.19932939301339
 30
0.0
 11
285.28302479923002
 21
-835.05751908492346
 31
0.0
  0
LINE
  5
133
  8
DIMNSIONS
  6
CONTINUOUS
 62
     7
 10
550.0
 20
-1000.0
 30
0.0
 11
712.29166666666674
 21
-1000.0
 31
0.0
  0
TEXT
  5
134
  8
DIMNSIONS
 62
     7
 10
580.0
 20
-985.09166666666658
 30
0.0
 40
40.721028645833343
  1
2-M10
 41
0.7
 11
580.0
 21
-944.37063802083321
 31
0.0
 73
     3
  0
LINE
  5
135
  8
DIMNSIONS
  6
CONTINUOUS
 62
     7
 10
431.0
 20
-115.503
 30
0.0
 11
431.0
 21
-20.0
 31
0.0
  0
LINE
  5
136
  8
DIMNSIONS
  6
CONTINUOUS
 62
     7
 10
250.0
 20
-139.3269999999998
 30
0.0
 11
250.0
 21
-20.0
 31
0.0
  0
LINE
  5
137
  8
DIMNSIONS
  6
CONTINUOUS
 62
     7
 10
431.0
 20
-50.0
 30
0.0
 11
250.0
 21
-50.0
 31
0.0
  0
LINE
  5
138
  8
DIMNSIONS
  6
CONTINUOUS
 62
     7
 10
431.0
 20
-50.0
 30
0.0
 11
393.49066162109381
 21
-60.050596927253657
 31
0.0
  0
LINE
  5
139
  8
DIMNSIONS
  6
CONTINUOUS
 62
     7
 10
431.0
 20
-50.0
 30
0.0
 11
393.49066162109381
 21
-39.94940307274635
 31
0.0
  0
LINE
  5
13A
  8
DIMNSIONS
  6
CONTINUOUS
 62
     7
 10
250.0
 20
-50.0
 30
0.0
 11
287.50933837890619
 21
-39.949403072746357
 31
0.0
  0
LINE
  5
13B
  8
DIMNSIONS
  6
CONTINUOUS
 62
     7
 10
250.0
 20
-50.0
 30
0.0
 11
287.50933837890619
 21
-60.050596927253643
 31
0.0
  0
TEXT
  5
13C
  8
DIMNSIONS
 62
     7
 10
300.8125
 20
-35.091666666666661
 30
0.0
 40
40.721028645833343
  1
181
 41
0.7
 11
300.8125
 21
5.6293619791666814
 31
0.0
 73
     3
  0
LINE
  5
13D
  8
DIMNSIONS
  6
CONTINUOUS
 62
     7
 10
-1200.0
 20
-115.5030000000001
 30
0.0
 11
-1200.0
 21
-20.0
 31
0.0
  0
LINE
  5
13E
  8
DIMNSIONS
  6
CONTINUOUS
 62
     7
 10
-1019.0
 20
-139.3269999999998
 30
0.0
 11
-1019.0
 21
-20.0
 31
0.0
  0
LINE
  5
13F
  8
DIMNSIONS
  6
CONTINUOUS
 62
     7
 10
-1200.0
 20
-50.0
 30
0.0
 11
-1019.0
 21
-50.0
 31
0.0
  0
LINE
  5
140
  8
DIMNSIONS
  6
CONTINUOUS
 62
     7
 10
-1200.0
 20
-50.0
 30
0.0
 11
-1162.4906616210931
 21
-39.949403072746357
 31
0.0
  0
LINE
  5
141
  8
DIMNSIONS
  6
CONTINUOUS
 62
     7
 10
-1200.0
 20
-50.0
 30
0.0
 11
-1162.4906616210931
 21
-60.050596927253643
 31
0.0
  0
LINE
  5
142
  8
DIMNSIONS
  6
CONTINUOUS
 62
     7
 10
-1019.0
 20
-50.0
 30
0.0
 11
-1056.509338378906
 21
-60.050596927253657
 31
0.0
  0
LINE
  5
143
  8
DIMNSIONS
  6
CONTINUOUS
 62
     7
 10
-1019.0
 20
-50.0
 30
0.0
 11
-1056.509338378906
 21
-39.94940307274635
 31
0.0
  0
TEXT
  5
144
  8
DIMNSIONS
 62
     7
 10
-1149.1875
 20
-35.091666666666661
 30
0.0
 40
40.721028645833343
  1
181
 41
0.7
 11
-1149.1875
 21
5.6293619791666814
 31
0.0
 73
     3
  0
LINE
  5
145
  8
DIMNSIONS
  6
CONTINUOUS
 62
     7
 10
-479.99999999999932
 20
-1232.0
 30
0.0
 11
-830.0
 21
-1232.0
 31
0.0
  0
LINE
  5
146
  8
DIMNSIONS
  6
CONTINUOUS
 62
     7
 10
-638.75
 20
-1431.0
 30
0.0
 11
-830.0
 21
-1431.0
 31
0.0
  0
LINE
  5
147
  8
DIMNSIONS
  6
CONTINUOUS
 62
     7
 10
-800.0
 20
-1232.0
 30
0.0
 11
-800.0
 21
-1431.0
 31
0.0
  0
LINE
  5
148
  8
DIMNSIONS
  6
CONTINUOUS
 62
     7
 10
-800.0
 20
-1232.0
 30
0.0
 11
-789.94940307274624
 21
-1269.509338378906
 31
0.0
  0
LINE
  5
149
  8
DIMNSIONS
  6
CONTINUOUS
 62
     7
 10
-800.0
 20
-1232.0
 30
0.0
 11
-810.05059692725365
 21
-1269.509338378906
 31
0.0
  0
LINE
  5
14A
  8
DIMNSIONS
  6
CONTINUOUS
 62
     7
 10
-800.0
 20
-1431.0
 30
0.0
 11
-810.05059692725365
 21
-1393.490661621094
 31
0.0
  0
LINE
  5
14B
  8
DIMNSIONS
  6
CONTINUOUS
 62
     7
 10
-800.0
 20
-1431.0
 30
0.0
 11
-789.94940307274624
 21
-1393.490661621094
 31
0.0
  0
TEXT
  5
14C
  8
DIMNSIONS
 62
     7
 10
-814.90833333333353
 20
-1371.1875
 30
0.0
 40
40.721028645833343
  1
199
 50
90.0
 41
0.7
 11
-855.62936197916679
 21
-1371.1875
 31
0.0
 73
     3
  0
TEXT
  5
14D
  8
DATA
 62
     7
 10
927.24622726240455
 20
486.99018299654989
 30
0.0
 40
57.009440104166657
  1
STX800
 41
0.7
 11
927.24622726240455
 21
543.99962310071658
 31
0.0
 73
     3
  0
TEXT
  5
14E
  8
DATA
 62
     7
 10
660.37312866576201
 20
312.5546592696985
 30
0.0
 40
26.604405381944449
  1
STX815M
 41
0.7
 72
     1
 11
719.34622726240559
 21
309.00740521877248
 31
0.0
 73
     1
  0
TEXT
  5
14F
  8
DATA
 62
     7
 10
633.76810560972842
 20
190.48111612109801
 30
0.0
 40
24.240234375000011
  1
BI-AMP
 50
90.0
 41
0.7
 72
     1
 11
621.64798842222842
 21
235.72955362109801
 31
0.0
 73
     2
  0
TEXT
  5
150
  8
DATA
 62
     7
 10
881.41566894847836
 20
373.88728803127202
 30
0.0
 40
24.240234375000011
  1
\U+00B11 LF：8\U+03A9
 41
0.7
 11
881.41566894847836
 21
386.00740521877202
 31
0.0
 73
     2
  0
TEXT
  5
151
  8
DATA
 62
     7
 10
881.41566894847836
 20
338.88728803127202
 30
0.0
 40
24.240234375000011
  1
\U+00B12 HF：8\U+03A9
 41
0.7
 11
881.41566894847836
 21
351.00740521877202
 31
0.0
 73
     2
  0
TEXT
  5
152
  8
DATA
 62
     7
 10
1093.8462272624049
 20
338.88728803127202
 30
0.0
 40
24.240234375000011
  1
\U+00B12 N/C
 41
0.7
 11
1093.8462272624049
 21
351.00740521877202
 31
0.0
 73
     2
  0
TEXT
  5
153
  8
DATA
 62
     7
 10
1081.936507775373
 20
408.88728803127191
 30
0.0
 40
24.240234375000011
  1
PASSIVE
 41
0.7
 11
1081.936507775373
 21
421.00740521877202
 31
0.0
 73
     2
  0
TEXT
  5
154
  8
DATA
 62
     7
 10
908.63789438107392
 20
408.88728803127191
 30
0.0
 40
24.240234375000011
  1
BI-AMP
 41
0.7
 11
908.63789438107392
 21
421.00740521877202
 31
0.0
 73
     2
  0
TEXT
  5
155
  8
DATA
 62
     7
 10
845.31356667212935
 20
168.4468583437725
 30
0.0
 40
24.240234375000011
  1
PASSIVE
 50
90.0
 41
0.7
 72
     1
 11
833.19344948462935
 21
225.0074052187725
 31
0.0
 73
     2
  0
TEXT
  5
156
  8
DATA
 62
     7
 10
1121.0826558947449
 20
373.88728803127202
 30
0.0
 40
24.240234375000011
  1
\U+00B11 IN：8\U+03A9
 41
0.7
 72
     1
 11
1180.471230113495
 21
386.00740521877202
 31
0.0
 73
     2
  0
TEXT
  5
157
  8
DATA
 62
     7
 10
714.71931966145814
 20
631.88780381944434
 30
0.0
 40
40.721028645833343
  1
コネクターパネル拡大図
 41
0.7
 72
     1
 11
900.0
 21
626.45833333333314
 31
0.0
 73
     1
  0
TEXT
  5
158
  8
DATA
 62
     7
 10
-404.20425749096421
 20
246.1783897700669
 30
0.0
 40
8.1442057291666661
  1
STX800
 50
180.0
 41
0.7
 11
-404.20425749096421
 21
238.0341840409003
 31
0.0
 73
     3
  0
TEXT
  5
159
  8
DATA
 62
     7
 10
-366.07952912001531
 20
271.09775030247442
 30
0.0
 40
3.8006293402777791
  1
STX815M
 50
180.0
 41
0.7
 72
     1
 11
-374.50425749096428
 21
271.60450088117813
 31
0.0
 73
     1
  0
TEXT
  5
15A
  8
DATA
 62
     7
 10
750.0
 20
-1715.3775749999991
 30
0.0
 40
36.64892578125
  1
STX815M
 41
0.7
 11
750.0
 21
-1678.7286492187491
 31
0.0
 73
     3
  0
TEXT
  5
15B
  8
DATA
 62
     7
 10
750.0
 20
-1606.6275749999991
 30
0.0
 40
36.64892578125
  1
JBL PROFESSIONAL
 41
0.7
 11
750.0
 21
-1569.9786492187491
 31
0.0
 73
     3
  0
TEXT
  5
15C
  8
DATA
 62
     7
 10
727.53502526358034
 20
-1658.781917999999
 30
0.0
 40
24.432655664062501
  1
2-Wayフルレンジ・スピーカー
 41
0.7
 11
727.53502526358034
 21
-1634.3492623359371
 31
0.0
 73
     3
  0
TEXT
  5
15D
  8
DATA
 62
     7
 10
-1312.5
 20
-1764.196758333333
 30
0.0
 40
28.504720052083339
  1
※仕様及び外観は予告なく変更されることがあります。
 41
0.7
 11
-1312.5
 21
-1735.69203828125
 31
0.0
 73
     3
  0
TEXT
  5
15E
  8
DATA
 62
     7
 10
-1312.5
 20
-1801.238425
 30
0.0
 40
28.504720052083339
  1
　また、同一商品でも若干の個体差があることがあります。ご了承ください。
 41
0.7
 11
-1312.5
 21
-1772.7337049479161
 31
0.0
 73
     3
  0
TEXT
  5
15F
  8
DATA
 62
     7
 10
-362.27881154058218
 20
288.53682789513152
 30
0.0
 40
3.462890625
  1
BI-AMP
 50
270.0
 41
0.7
 72
     1
 11
-360.54736622808218
 21
282.07276539513151
 31
0.0
 73
     2
  0
TEXT
  5
160
  8
DATA
 62
     7
 10
-397.6570348746892
 20
262.33594619367813
 30
0.0
 40
3.462890625
  1
\U+00B11 LF：8\U+03A9
 50
180.0
 41
0.7
 11
-397.6570348746892
 21
260.60450088117813
 31
0.0
 73
     2
  0
TEXT
  5
161
  8
DATA
 62
     7
 10
-397.6570348746892
 20
267.33594619367813
 30
0.0
 40
3.462890625
  1
\U+00B12 HF：8\U+03A9
 50
180.0
 41
0.7
 11
-397.6570348746892
 21
265.60450088117813
 31
0.0
 73
     2
  0
TEXT
  5
162
  8
DATA
 62
     7
 10
-428.00425749096428
 20
267.33594619367813
 30
0.0
 40
3.462890625
  1
\U+00B12 N/C
 50
180.0
 41
0.7
 11
-428.00425749096428
 21
265.60450088117813
 31
0.0
 73
     2
  0
TEXT
  5
163
  8
DATA
 62
     7
 10
-426.30286899281691
 20
257.33594619367801
 30
0.0
 40
3.462890625
  1
PASSIVE
 50
180.0
 41
0.7
 11
-426.30286899281691
 21
255.60450088117801
 31
0.0
 73
     2
  0
TEXT
  5
164
  8
DATA
 62
     7
 10
-401.54592422220281
 20
257.33594619367801
 30
0.0
 40
3.462890625
  1
BI-AMP
 50
180.0
 41
0.7
 11
-401.54592422220281
 21
255.60450088117801
 31
0.0
 73
     2
  0
TEXT
  5
165
  8
DATA
 62
     7
 10
-392.49959169235331
 20
291.68457900617813
 30
0.0
 40
3.462890625
  1
PASSIVE
 50
270.0
 41
0.7
 72
     1
 11
-390.76814637985331
 21
283.60450088117813
 31
0.0
 73
     2
  0
TEXT
  5
166
  8
DATA
 62
     7
 10
-431.89517586701271
 20
262.33594619367813
 30
0.0
 40
3.462890625
  1
\U+00B11 IN：8\U+03A9
 50
180.0
 41
0.7
 72
     1
 11
-440.37925789826278
 21
260.60450088117813
 31
0.0
 73
     2
  0
POLYLINE
  5
167
  8
DATA
  6
CONTINUOUS
 62
     7
 66
     1
 10
0.0
 20
0.0
 30
0.0
 70
     1
  0
VERTEX
  5
67D
  8
DATA
  6
CONTINUOUS
 62
     7
 10
-401.0
 20
-1251.5
 30
0.0
  0
VERTEX
  5
67E
  8
DATA
  6
CONTINUOUS
 62
     7
 10
-399.0
 20
-1251.5
 30
0.0
  0
VERTEX
  5
67F
  8
DATA
  6
CONTINUOUS
 62
     7
 10
-399.0
 20
-1259.5
 30
0.0
  0
VERTEX
  5
680
  8
DATA
  6
CONTINUOUS
 62
     7
 10
-401.0
 20
-1259.5
 30
0.0
  0
SEQEND
  5
681
  8
DATA
  6
CONTINUOUS
 62
     7
  0
POLYLINE
  5
16E
  8
DATA
  6
CONTINUOUS
 62
     7
 66
     1
 10
0.0
 20
0.0
 30
0.0
 70
     1
  0
VERTEX
  5
682
  8
DATA
  6
CONTINUOUS
 62
     7
 10
-401.0
 20
-1204.5
 30
0.0
  0
VERTEX
  5
683
  8
DATA
  6
CONTINUOUS
 62
     7
 10
-399.0
 20
-1204.5
 30
0.0
  0
VERTEX
  5
684
  8
DATA
  6
CONTINUOUS
 62
     7
 10
-399.0
 20
-1212.5
 30
0.0
  0
VERTEX
  5
685
  8
DATA
  6
CONTINUOUS
 62
     7
 10
-401.0
 20
-1212.5
 30
0.0
  0
SEQEND
  5
686
  8
DATA
  6
CONTINUOUS
 62
     7
  0
LINE
  5
175
  8
DATA
  6
CONTINUOUS
 62
     7
 10
-264.25
 20
-854.0
 30
0.0
 11
-264.25
 21
-850.0
 31
0.0
  0
LINE
  5
176
  8
DATA
  6
CONTINUOUS
 62
     7
 10
-222.25
 20
-854.0
 30
0.0
 11
-264.25
 21
-854.0
 31
0.0
  0
LINE
  5
177
  8
DATA
  6
CONTINUOUS
 62
     7
 10
-222.25
 20
-850.0
 30
0.0
 11
-222.25
 21
-854.0
 31
0.0
  0
LINE
  5
178
  8
DATA
  6
CONTINUOUS
 62
     7
 10
-577.74999999999989
 20
-854.0
 30
0.0
 11
-577.74999999999989
 21
-850.0
 31
0.0
  0
LINE
  5
179
  8
DATA
  6
CONTINUOUS
 62
     7
 10
-535.74999999999989
 20
-854.0
 30
0.0
 11
-577.74999999999989
 21
-854.0
 31
0.0
  0
LINE
  5
17A
  8
DATA
  6
CONTINUOUS
 62
     7
 10
-535.74999999999989
 20
-850.0
 30
0.0
 11
-535.74999999999989
 21
-854.0
 31
0.0
  0
LINE
  5
17B
  8
DATA
  6
CONTINUOUS
 62
     7
 10
741.0
 20
-854.0
 30
0.0
 11
741.0
 21
-850.00000000000011
 31
0.0
  0
LINE
  5
17C
  8
DATA
  6
CONTINUOUS
 62
     7
 10
783.0
 20
-854.0
 30
0.0
 11
741.0
 21
-854.0
 31
0.0
  0
LINE
  5
17D
  8
DATA
  6
CONTINUOUS
 62
     7
 10
783.0
 20
-850.00000000000011
 30
0.0
 11
783.0
 21
-854.0
 31
0.0
  0
LINE
  5
17E
  8
DATA
  6
CONTINUOUS
 62
     7
 10
1054.5
 20
-854.0
 30
0.0
 11
1054.5
 21
-850.00000000000011
 31
0.0
  0
LINE
  5
17F
  8
DATA
  6
CONTINUOUS
 62
     7
 10
1096.5
 20
-854.0
 30
0.0
 11
1054.5
 21
-854.0
 31
0.0
  0
LINE
  5
180
  8
DATA
  6
CONTINUOUS
 62
     7
 10
1096.5
 20
-850.00000000000011
 30
0.0
 11
1096.5
 21
-854.0
 31
0.0
  0
LINE
  5
181
  8
DATA
  6
CONTINUOUS
 62
     7
 10
348.0
 20
-854.0
 30
0.0
 11
348.0
 21
-850.00000000000011
 31
0.0
  0
LINE
  5
182
  8
DATA
  6
CONTINUOUS
 62
     7
 10
390.0
 20
-854.0
 30
0.0
 11
348.0
 21
-854.0
 31
0.0
  0
LINE
  5
183
  8
DATA
  6
CONTINUOUS
 62
     7
 10
390.0
 20
-850.00000000000011
 30
0.0
 11
390.0
 21
-854.0
 31
0.0
  0
LINE
  5
184
  8
DATA
  6
CONTINUOUS
 62
     7
 10
-952.0
 20
-854.0
 30
0.0
 11
-952.0
 21
-850.0
 31
0.0
  0
LINE
  5
185
  8
DATA
  6
CONTINUOUS
 62
     7
 10
-910.0
 20
-854.0
 30
0.0
 11
-952.0
 21
-854.0
 31
0.0
  0
LINE
  5
186
  8
DATA
  6
CONTINUOUS
 62
     7
 10
-910.0
 20
-850.0
 30
0.0
 11
-910.0
 21
-854.0
 31
0.0
  0
LINE
  5
187
  8
DATA
  6
CONTINUOUS
 62
     7
 10
568.81642482565485
 20
575.0
 30
0.0
 11
1226.8164248256551
 21
575.0
 31
0.0
  0
LINE
  5
188
  8
DATA
  6
CONTINUOUS
 62
     7
 10
498.81642482565479
 20
505.0
 30
0.0
 11
498.81642482565479
 21
191.3935666735961
 31
0.0
  0
LINE
  5
189
  8
DATA
  6
CONTINUOUS
 62
     7
 10
1296.8164248256551
 20
505.0
 30
0.0
 11
1296.8164248256551
 21
191.3935666735961
 31
0.0
  0
LINE
  5
18A
  8
DATA
  6
CONTINUOUS
 62
     7
 10
857.6066223889087
 20
-96.782594781228454
 30
0.0
 11
528.60662238890882
 21
134.0945982012262
 31
0.0
  0
LINE
  5
18B
  8
DATA
  6
CONTINUOUS
 62
     7
 10
938.02622726240099
 20
-96.782594781228454
 30
0.0
 11
1267.0262272624011
 21
134.0945982012262
 31
0.0
  0
LINE
  5
18C
  8
DATA
  6
CONTINUOUS
 62
     7
 10
1226.8164248256551
 20
575.0
 30
0.0
 11
568.81642482565485
 21
575.0
 31
0.0
  0
LINE
  5
18D
  8
DATA
  6
CONTINUOUS
 62
     7
 10
1296.8164248256551
 20
505.0
 30
0.0
 11
1296.8164248256551
 21
191.39356667359769
 31
0.0
  0
LINE
  5
18E
  8
DATA
  6
CONTINUOUS
 62
     7
 10
498.81642482565479
 20
505.0
 30
0.0
 11
498.81642482565479
 21
191.39356667359769
 31
0.0
  0
LINE
  5
18F
  8
DATA
  6
CONTINUOUS
 62
     7
 10
938.02622726240099
 20
-96.782594781228454
 30
0.0
 11
1267.0262272624011
 21
134.0945982012295
 31
0.0
  0
LINE
  5
190
  8
DATA
  6
CONTINUOUS
 62
     7
 10
857.6066223889087
 20
-96.782594781228454
 30
0.0
 11
528.60662238890882
 21
134.0945982012295
 31
0.0
  0
LINE
  5
191
  8
DATA
  6
CONTINUOUS
 62
     7
 10
1226.8164248256551
 20
575.0
 30
0.0
 11
568.81642482565485
 21
575.0
 31
0.0
  0
LINE
  5
192
  8
DATA
  6
CONTINUOUS
 62
     7
 10
1296.8164248256551
 20
505.0
 30
0.0
 11
1296.8164248256551
 21
191.39356667359769
 31
0.0
  0
LINE
  5
193
  8
DATA
  6
CONTINUOUS
 62
     7
 10
498.81642482565479
 20
505.0
 30
0.0
 11
498.81642482565479
 21
191.39356667359769
 31
0.0
  0
LINE
  5
194
  8
DATA
  6
CONTINUOUS
 62
     7
 10
938.02622726240395
 20
-96.782594781228454
 30
0.0
 11
1267.0262272624041
 21
134.09459820122871
 31
0.0
  0
LINE
  5
195
  8
DATA
  6
CONTINUOUS
 62
     7
 10
857.60662238890552
 20
-96.782594781228454
 30
0.0
 11
528.60662238890563
 21
134.09459820122871
 31
0.0
  0
LINE
  5
196
  8
DATA
  6
CONTINUOUS
 62
     7
 10
978.34622726240559
 20
204.0074052187725
 30
0.0
 11
978.34622726240559
 21
246.0074052187725
 31
0.0
  0
LINE
  5
197
  8
DATA
  6
CONTINUOUS
 62
     7
 10
1118.3462272624049
 20
211.0074052187725
 30
0.0
 11
1118.3462272624049
 21
239.0074052187725
 31
0.0
  0
LINE
  5
198
  8
DATA
  6
CONTINUOUS
 62
     7
 10
1118.3462272624049
 20
211.0074052187725
 30
0.0
 11
1109.946227262406
 21
211.0074052187725
 31
0.0
  0
LINE
  5
199
  8
DATA
  6
CONTINUOUS
 62
     7
 10
1118.3462272624049
 20
239.0074052187725
 30
0.0
 11
1109.946227262406
 21
239.0074052187725
 31
0.0
  0
LINE
  5
19A
  8
DATA
  6
CONTINUOUS
 62
     7
 10
978.34622726240559
 20
204.0074052187725
 30
0.0
 11
990.43627726240663
 21
204.0074052187725
 31
0.0
  0
LINE
  5
19B
  8
DATA
  6
CONTINUOUS
 62
     7
 10
978.34622726240559
 20
246.0074052187725
 30
0.0
 11
990.43627726240663
 21
246.0074052187725
 31
0.0
  0
LINE
  5
19C
  8
DATA
  6
CONTINUOUS
 62
     7
 10
1026.6460172624049
 20
187.4220252187728
 30
0.0
 11
1028.6585172624041
 21
190.90774521877219
 31
0.0
  0
LINE
  5
19D
  8
DATA
  6
CONTINUOUS
 62
     7
 10
1010.7605672624049
 20
246.7071952187724
 30
0.0
 11
1014.2463572624069
 21
244.69469521877221
 31
0.0
  0
LINE
  5
19E
  8
DATA
  6
CONTINUOUS
 62
     7
 10
1085.931747262407
 20
203.3074052187724
 30
0.0
 11
1082.4459572624071
 21
205.3199052187725
 31
0.0
  0
LINE
  5
19F
  8
DATA
  6
CONTINUOUS
 62
     7
 10
1070.0460872624051
 20
262.59299521877261
 30
0.0
 11
1068.0335872624059
 21
259.10720521877249
 31
0.0
  0
LINE
  5
1A0
  8
DATA
  6
CONTINUOUS
 62
     7
 10
1026.5223972624051
 20
237.60726521877251
 30
0.0
 11
1030.7658672624041
 21
235.1573352187722
 31
0.0
  0
LINE
  5
1A1
  8
DATA
  6
CONTINUOUS
 62
     7
 10
1035.7461572624061
 20
203.1837152187727
 30
0.0
 11
1038.196157262405
 21
207.42711521877229
 31
0.0
  0
LINE
  5
1A2
  8
DATA
  6
CONTINUOUS
 62
     7
 10
1070.169987262404
 20
212.40740521877291
 30
0.0
 11
1065.926517262405
 21
214.85740521877219
 31
0.0
  0
LINE
  5
1A3
  8
DATA
  6
CONTINUOUS
 62
     7
 10
1060.946087262404
 20
246.8312352187728
 30
0.0
 11
1058.4961572624061
 21
242.58776521877249
 31
0.0
  0
LINE
  5
1A4
  8
DATA
  6
CONTINUOUS
 62
     7
 10
600.0
 20
600.0
 30
0.0
 11
1200.0
 21
600.0
 31
0.0
  0
LINE
  5
1A5
  8
DATA
  6
CONTINUOUS
 62
     7
 10
-608.75
 20
381.0
 30
0.0
 11
-395.54762773099321
 21
381.0
 31
0.0
  0
LINE
  5
1A6
  8
DATA
  6
CONTINUOUS
 62
     7
 10
-588.75
 20
361.0
 30
0.0
 11
-400.90661157961563
 21
361.0
 31
0.0
  0
LINE
  5
1A7
  8
DATA
  6
CONTINUOUS
 62
     7
 10
-618.75
 20
371.0
 30
0.0
 11
-618.75
 21
90.972940815564002
 31
0.0
  0
LINE
  5
1A8
  8
DATA
  6
CONTINUOUS
 62
     7
 10
-598.74999999999989
 20
351.0
 30
0.0
 11
-598.74999999999989
 21
102.9188224466925
 31
0.0
  0
LINE
  5
1A9
  8
DATA
  6
CONTINUOUS
 62
     7
 10
-568.75
 20
175.48710422447721
 30
0.0
 11
-568.75
 21
120.837644893385
 31
0.0
  0
LINE
  5
1AA
  8
DATA
  6
CONTINUOUS
 62
     7
 10
-563.75
 20
175.48710422447721
 30
0.0
 11
-563.75
 21
120.837644893385
 31
0.0
  0
LINE
  5
1AB
  8
DATA
  6
CONTINUOUS
 62
     7
 10
-181.25
 20
250.9354609806575
 30
0.0
 11
-181.25
 21
90.972940815564002
 31
0.0
  0
LINE
  5
1AC
  8
DATA
  6
CONTINUOUS
 62
     7
 10
-201.25
 20
239.38845559686479
 30
0.0
 11
-201.25
 21
102.9188224466925
 31
0.0
  0
LINE
  5
1AD
  8
DATA
  6
CONTINUOUS
 62
     7
 10
-231.25
 20
175.48710422447721
 30
0.0
 11
-231.25
 21
120.837644893385
 31
0.0
  0
LINE
  5
1AE
  8
DATA
  6
CONTINUOUS
 62
     7
 10
-236.25
 20
175.48710422447721
 30
0.0
 11
-236.25
 21
120.837644893385
 31
0.0
  0
LINE
  5
1AF
  8
DATA
  6
CONTINUOUS
 62
     7
 10
-551.22882419966663
 20
50.0
 30
0.0
 11
-248.7711758003334
 21
50.0
 31
0.0
  0
LINE
  5
1B0
  8
DATA
  6
CONTINUOUS
 62
     7
 10
-546.1864725989999
 20
70.0
 30
0.0
 11
-253.8135274010001
 21
70.0
 31
0.0
  0
LINE
  5
1B1
  8
DATA
  6
CONTINUOUS
 62
     7
 10
-538.6229451979998
 20
100.0
 30
0.0
 11
-261.3770548020002
 21
100.0
 31
0.0
  0
LINE
  5
1B2
  8
DATA
  6
CONTINUOUS
 62
     7
 10
-538.6229451979998
 20
105.0
 30
0.0
 11
-261.3770548020002
 21
105.0
 31
0.0
  0
LINE
  5
1B3
  8
DATA
  6
CONTINUOUS
 62
     7
 10
-551.22882419966663
 20
50.0
 30
0.0
 11
-248.7711758003334
 21
50.0
 31
0.0
  0
LINE
  5
1B4
  8
DATA
  6
CONTINUOUS
 62
     7
 10
-244.0301775699827
 20
51.195289000778288
 30
0.0
 11
-186.5090017696493
 21
82.168229816342276
 31
0.0
  0
LINE
  5
1B5
  8
DATA
  6
CONTINUOUS
 62
     7
 10
-249.0725291706504
 20
71.195289000778288
 30
0.0
 11
-206.5090017696493
 21
94.114111447470805
 31
0.0
  0
LINE
  5
1B6
  8
DATA
  6
CONTINUOUS
 62
     7
 10
-256.63605657165039
 20
101.1952890007783
 30
0.0
 11
-236.5090017696493
 21
112.03293389416331
 31
0.0
  0
LINE
  5
1B7
  8
DATA
  6
CONTINUOUS
 62
     7
 10
-259.00655568682492
 20
105.5976445003889
 30
0.0
 11
-238.87950088482469
 21
116.4352893937739
 31
0.0
  0
LINE
  5
1B8
  8
DATA
  6
CONTINUOUS
 62
     7
 10
-555.9698224300173
 20
51.195289000778288
 30
0.0
 11
-613.49099823035056
 21
82.168229816342276
 31
0.0
  0
LINE
  5
1B9
  8
DATA
  6
CONTINUOUS
 62
     7
 10
-550.92747082934955
 20
71.195289000778288
 30
0.0
 11
-593.49099823035067
 21
94.114111447470805
 31
0.0
  0
LINE
  5
1BA
  8
DATA
  6
CONTINUOUS
 62
     7
 10
-543.36394342834944
 20
101.1952890007783
 30
0.0
 11
-563.49099823035056
 21
112.03293389416331
 31
0.0
  0
LINE
  5
1BB
  8
DATA
  6
CONTINUOUS
 62
     7
 10
-540.99344431317434
 20
105.5976445003889
 30
0.0
 11
-561.12049911517522
 21
116.4352893937739
 31
0.0
  0
LINE
  5
1BC
  8
DATA
  6
CONTINUOUS
 62
     7
 10
-353.0
 20
233.605558769574
 30
0.0
 11
-447.0
 21
233.605558769574
 31
0.0
  0
LINE
  5
1BD
  8
DATA
  6
CONTINUOUS
 62
     7
 10
-343.0
 20
243.605558769574
 30
0.0
 11
-343.0
 21
288.40647781620322
 31
0.0
  0
LINE
  5
1BE
  8
DATA
  6
CONTINUOUS
 62
     7
 10
-457.0
 20
243.605558769574
 30
0.0
 11
-457.0
 21
288.40647781620322
 31
0.0
  0
LINE
  5
1BF
  8
DATA
  6
CONTINUOUS
 62
     7
 10
-394.25574250903628
 20
329.57450088117821
 30
0.0
 11
-347.25574250903628
 21
296.59204474082748
 31
0.0
  0
LINE
  5
1C0
  8
DATA
  6
CONTINUOUS
 62
     7
 10
-405.74425749096361
 20
329.57450088117821
 30
0.0
 11
-452.74425749096361
 21
296.59204474082748
 31
0.0
  0
LINE
  5
1C1
  8
DATA
  6
CONTINUOUS
 62
     7
 10
-608.75
 20
-1431.0
 30
0.0
 11
-395.73474857017447
 21
-1431.0
 31
0.0
  0
LINE
  5
1C2
  8
DATA
  6
CONTINUOUS
 62
     7
 10
-588.75
 20
-1411.0
 30
0.0
 11
-401.09373241879678
 21
-1411.0
 31
0.0
  0
LINE
  5
1C3
  8
DATA
  6
CONTINUOUS
 62
     7
 10
-618.75
 20
-1421.0
 30
0.0
 11
-618.75
 21
-1140.972940815564
 31
0.0
  0
LINE
  5
1C4
  8
DATA
  6
CONTINUOUS
 62
     7
 10
-598.74999999999989
 20
-1401.0
 30
0.0
 11
-598.74999999999989
 21
-1152.918822446692
 31
0.0
  0
LINE
  5
1C5
  8
DATA
  6
CONTINUOUS
 62
     7
 10
-181.25
 20
-1300.8274267137849
 30
0.0
 11
-181.25
 21
-1140.972940815564
 31
0.0
  0
LINE
  5
1C6
  8
DATA
  6
CONTINUOUS
 62
     7
 10
-201.25
 20
-1289.2804213299919
 30
0.0
 11
-201.25
 21
-1152.918822446692
 31
0.0
  0
LINE
  5
1C7
  8
DATA
  6
CONTINUOUS
 62
     7
 10
-551.22882419966663
 20
-1100.0
 30
0.0
 11
-248.7711758003334
 21
-1100.0
 31
0.0
  0
LINE
  5
1C8
  8
DATA
  6
CONTINUOUS
 62
     7
 10
-546.1864725989999
 20
-1120.0
 30
0.0
 11
-253.8135274010001
 21
-1120.0
 31
0.0
  0
LINE
  5
1C9
  8
DATA
  6
CONTINUOUS
 62
     7
 10
-551.22882419966663
 20
-1100.0
 30
0.0
 11
-248.7711758003334
 21
-1100.0
 31
0.0
  0
LINE
  5
1CA
  8
DATA
  6
CONTINUOUS
 62
     7
 10
-244.0301775699827
 20
-1101.1952890007781
 30
0.0
 11
-186.5090017696493
 21
-1132.1682298163421
 31
0.0
  0
LINE
  5
1CB
  8
DATA
  6
CONTINUOUS
 62
     7
 10
-249.07252917064949
 20
-1121.1952890007781
 30
0.0
 11
-206.5090017696493
 21
-1144.114111447471
 31
0.0
  0
LINE
  5
1CC
  8
DATA
  6
CONTINUOUS
 62
     7
 10
-555.96982243001639
 20
-1101.1952890007781
 30
0.0
 11
-613.49099823034965
 21
-1132.1682298163421
 31
0.0
  0
LINE
  5
1CD
  8
DATA
  6
CONTINUOUS
 62
     7
 10
-550.92747082934875
 20
-1121.1952890007781
 30
0.0
 11
-593.49099823034965
 21
-1144.114111447471
 31
0.0
  0
LINE
  5
1CE
  8
DATA
  6
CONTINUOUS
 62
     7
 10
-243.75
 20
-1156.5
 30
0.0
 11
-242.75
 21
-1156.5
 31
0.0
  0
LINE
  5
1CF
  8
DATA
  6
CONTINUOUS
 62
     7
 10
-242.75
 20
-1156.5
 30
0.0
 11
-242.75
 21
-1158.5
 31
0.0
  0
LINE
  5
1D0
  8
DATA
  6
CONTINUOUS
 62
     7
 10
-242.75
 20
-1158.5
 30
0.0
 11
-240.75
 21
-1158.5
 31
0.0
  0
LINE
  5
1D1
  8
DATA
  6
CONTINUOUS
 62
     7
 10
-240.75
 20
-1158.5
 30
0.0
 11
-240.75
 21
-1159.5
 31
0.0
  0
LINE
  5
1D2
  8
DATA
  6
CONTINUOUS
 62
     7
 10
-240.75
 20
-1159.5
 30
0.0
 11
-242.75
 21
-1159.5
 31
0.0
  0
LINE
  5
1D3
  8
DATA
  6
CONTINUOUS
 62
     7
 10
-242.75
 20
-1159.5
 30
0.0
 11
-242.75
 21
-1161.5
 31
0.0
  0
LINE
  5
1D4
  8
DATA
  6
CONTINUOUS
 62
     7
 10
-242.75
 20
-1161.5
 30
0.0
 11
-243.75
 21
-1161.5
 31
0.0
  0
LINE
  5
1D5
  8
DATA
  6
CONTINUOUS
 62
     7
 10
-243.75
 20
-1161.5
 30
0.0
 11
-243.75
 21
-1159.5
 31
0.0
  0
LINE
  5
1D6
  8
DATA
  6
CONTINUOUS
 62
     7
 10
-243.75
 20
-1159.5
 30
0.0
 11
-245.75
 21
-1159.5
 31
0.0
  0
LINE
  5
1D7
  8
DATA
  6
CONTINUOUS
 62
     7
 10
-245.75
 20
-1159.5
 30
0.0
 11
-245.75
 21
-1158.5
 31
0.0
  0
LINE
  5
1D8
  8
DATA
  6
CONTINUOUS
 62
     7
 10
-245.75
 20
-1158.5
 30
0.0
 11
-243.75
 21
-1158.5
 31
0.0
  0
LINE
  5
1D9
  8
DATA
  6
CONTINUOUS
 62
     7
 10
-243.75
 20
-1158.5
 30
0.0
 11
-243.75
 21
-1156.5
 31
0.0
  0
LINE
  5
1DA
  8
DATA
  6
CONTINUOUS
 62
     7
 10
-247.75
 20
-1280.5
 30
0.0
 11
-246.75
 21
-1280.5
 31
0.0
  0
LINE
  5
1DB
  8
DATA
  6
CONTINUOUS
 62
     7
 10
-246.75
 20
-1280.5
 30
0.0
 11
-246.75
 21
-1282.5
 31
0.0
  0
LINE
  5
1DC
  8
DATA
  6
CONTINUOUS
 62
     7
 10
-246.75
 20
-1282.5
 30
0.0
 11
-244.75
 21
-1282.5
 31
0.0
  0
LINE
  5
1DD
  8
DATA
  6
CONTINUOUS
 62
     7
 10
-244.75
 20
-1282.5
 30
0.0
 11
-244.75
 21
-1283.5
 31
0.0
  0
LINE
  5
1DE
  8
DATA
  6
CONTINUOUS
 62
     7
 10
-244.75
 20
-1283.5
 30
0.0
 11
-246.75
 21
-1283.5
 31
0.0
  0
LINE
  5
1DF
  8
DATA
  6
CONTINUOUS
 62
     7
 10
-246.75
 20
-1283.5
 30
0.0
 11
-246.75
 21
-1285.5
 31
0.0
  0
LINE
  5
1E0
  8
DATA
  6
CONTINUOUS
 62
     7
 10
-246.75
 20
-1285.5
 30
0.0
 11
-247.75
 21
-1285.5
 31
0.0
  0
LINE
  5
1E1
  8
DATA
  6
CONTINUOUS
 62
     7
 10
-247.75
 20
-1285.5
 30
0.0
 11
-247.75
 21
-1283.5
 31
0.0
  0
LINE
  5
1E2
  8
DATA
  6
CONTINUOUS
 62
     7
 10
-247.75
 20
-1283.5
 30
0.0
 11
-249.75
 21
-1283.5
 31
0.0
  0
LINE
  5
1E3
  8
DATA
  6
CONTINUOUS
 62
     7
 10
-249.75
 20
-1283.5
 30
0.0
 11
-249.75
 21
-1282.5
 31
0.0
  0
LINE
  5
1E4
  8
DATA
  6
CONTINUOUS
 62
     7
 10
-249.75
 20
-1282.5
 30
0.0
 11
-247.75
 21
-1282.5
 31
0.0
  0
LINE
  5
1E5
  8
DATA
  6
CONTINUOUS
 62
     7
 10
-247.75
 20
-1282.5
 30
0.0
 11
-247.75
 21
-1280.5
 31
0.0
  0
LINE
  5
1E6
  8
DATA
  6
CONTINUOUS
 62
     7
 10
-563.25
 20
-1156.5
 30
0.0
 11
-562.25
 21
-1156.5
 31
0.0
  0
LINE
  5
1E7
  8
DATA
  6
CONTINUOUS
 62
     7
 10
-562.25
 20
-1156.5
 30
0.0
 11
-562.25
 21
-1158.5
 31
0.0
  0
LINE
  5
1E8
  8
DATA
  6
CONTINUOUS
 62
     7
 10
-562.25
 20
-1158.5
 30
0.0
 11
-560.25
 21
-1158.5
 31
0.0
  0
LINE
  5
1E9
  8
DATA
  6
CONTINUOUS
 62
     7
 10
-560.25
 20
-1158.5
 30
0.0
 11
-560.25
 21
-1159.5
 31
0.0
  0
LINE
  5
1EA
  8
DATA
  6
CONTINUOUS
 62
     7
 10
-560.25
 20
-1159.5
 30
0.0
 11
-562.25
 21
-1159.5
 31
0.0
  0
LINE
  5
1EB
  8
DATA
  6
CONTINUOUS
 62
     7
 10
-562.25
 20
-1159.5
 30
0.0
 11
-562.25
 21
-1161.5
 31
0.0
  0
LINE
  5
1EC
  8
DATA
  6
CONTINUOUS
 62
     7
 10
-562.25
 20
-1161.5
 30
0.0
 11
-563.25
 21
-1161.5
 31
0.0
  0
LINE
  5
1ED
  8
DATA
  6
CONTINUOUS
 62
     7
 10
-563.25
 20
-1161.5
 30
0.0
 11
-563.25
 21
-1159.5
 31
0.0
  0
LINE
  5
1EE
  8
DATA
  6
CONTINUOUS
 62
     7
 10
-563.25
 20
-1159.5
 30
0.0
 11
-565.24999999999989
 21
-1159.5
 31
0.0
  0
LINE
  5
1EF
  8
DATA
  6
CONTINUOUS
 62
     7
 10
-565.24999999999989
 20
-1159.5
 30
0.0
 11
-565.24999999999989
 21
-1158.5
 31
0.0
  0
LINE
  5
1F0
  8
DATA
  6
CONTINUOUS
 62
     7
 10
-565.24999999999989
 20
-1158.5
 30
0.0
 11
-563.25
 21
-1158.5
 31
0.0
  0
LINE
  5
1F1
  8
DATA
  6
CONTINUOUS
 62
     7
 10
-563.25
 20
-1158.5
 30
0.0
 11
-563.25
 21
-1156.5
 31
0.0
  0
LINE
  5
1F2
  8
DATA
  6
CONTINUOUS
 62
     7
 10
-566.25
 20
-1378.5
 30
0.0
 11
-565.24999999999989
 21
-1378.5
 31
0.0
  0
LINE
  5
1F3
  8
DATA
  6
CONTINUOUS
 62
     7
 10
-565.24999999999989
 20
-1378.5
 30
0.0
 11
-565.24999999999989
 21
-1380.5
 31
0.0
  0
LINE
  5
1F4
  8
DATA
  6
CONTINUOUS
 62
     7
 10
-565.24999999999989
 20
-1380.5
 30
0.0
 11
-563.25
 21
-1380.5
 31
0.0
  0
LINE
  5
1F5
  8
DATA
  6
CONTINUOUS
 62
     7
 10
-563.25
 20
-1380.5
 30
0.0
 11
-563.25
 21
-1381.5
 31
0.0
  0
LINE
  5
1F6
  8
DATA
  6
CONTINUOUS
 62
     7
 10
-563.25
 20
-1381.5
 30
0.0
 11
-565.24999999999989
 21
-1381.5
 31
0.0
  0
LINE
  5
1F7
  8
DATA
  6
CONTINUOUS
 62
     7
 10
-565.24999999999989
 20
-1381.5
 30
0.0
 11
-565.24999999999989
 21
-1383.5
 31
0.0
  0
LINE
  5
1F8
  8
DATA
  6
CONTINUOUS
 62
     7
 10
-565.24999999999989
 20
-1383.5
 30
0.0
 11
-566.25
 21
-1383.5
 31
0.0
  0
LINE
  5
1F9
  8
DATA
  6
CONTINUOUS
 62
     7
 10
-566.25
 20
-1383.5
 30
0.0
 11
-566.25
 21
-1381.5
 31
0.0
  0
LINE
  5
1FA
  8
DATA
  6
CONTINUOUS
 62
     7
 10
-566.25
 20
-1381.5
 30
0.0
 11
-568.25
 21
-1381.5
 31
0.0
  0
LINE
  5
1FB
  8
DATA
  6
CONTINUOUS
 62
     7
 10
-568.25
 20
-1381.5
 30
0.0
 11
-568.25
 21
-1380.5
 31
0.0
  0
LINE
  5
1FC
  8
DATA
  6
CONTINUOUS
 62
     7
 10
-568.25
 20
-1380.5
 30
0.0
 11
-566.25
 21
-1380.5
 31
0.0
  0
LINE
  5
1FD
  8
DATA
  6
CONTINUOUS
 62
     7
 10
-566.25
 20
-1380.5
 30
0.0
 11
-566.25
 21
-1378.5
 31
0.0
  0
LINE
  5
1FE
  8
DATA
  6
CONTINUOUS
 62
     7
 10
-400.49999999999989
 20
-1276.0
 30
0.0
 11
-400.49999999999989
 21
-1274.5
 31
0.0
  0
LINE
  5
1FF
  8
DATA
  6
CONTINUOUS
 62
     7
 10
-402.5
 20
-1272.5
 30
0.0
 11
-404.0
 21
-1272.5
 31
0.0
  0
LINE
  5
200
  8
DATA
  6
CONTINUOUS
 62
     7
 10
-404.0
 20
-1271.5
 30
0.0
 11
-402.5
 21
-1271.5
 31
0.0
  0
LINE
  5
201
  8
DATA
  6
CONTINUOUS
 62
     7
 10
-400.49999999999989
 20
-1269.5
 30
0.0
 11
-400.49999999999989
 21
-1268.0
 31
0.0
  0
LINE
  5
202
  8
DATA
  6
CONTINUOUS
 62
     7
 10
-400.49999999999989
 20
-1268.0
 30
0.0
 11
-399.5
 21
-1268.0
 31
0.0
  0
LINE
  5
203
  8
DATA
  6
CONTINUOUS
 62
     7
 10
-399.5
 20
-1268.0
 30
0.0
 11
-399.5
 21
-1269.5
 31
0.0
  0
LINE
  5
204
  8
DATA
  6
CONTINUOUS
 62
     7
 10
-397.5
 20
-1271.5
 30
0.0
 11
-396.0
 21
-1271.5
 31
0.0
  0
LINE
  5
205
  8
DATA
  6
CONTINUOUS
 62
     7
 10
-396.0
 20
-1271.5
 30
0.0
 11
-396.0
 21
-1272.5
 31
0.0
  0
LINE
  5
206
  8
DATA
  6
CONTINUOUS
 62
     7
 10
-396.0
 20
-1272.5
 30
0.0
 11
-397.5
 21
-1272.5
 31
0.0
  0
LINE
  5
207
  8
DATA
  6
CONTINUOUS
 62
     7
 10
-399.5
 20
-1274.5
 30
0.0
 11
-399.5
 21
-1276.0
 31
0.0
  0
LINE
  5
208
  8
DATA
  6
CONTINUOUS
 62
     7
 10
-400.49999999999989
 20
-1276.0
 30
0.0
 11
-399.5
 21
-1276.0
 31
0.0
  0
LINE
  5
209
  8
DATA
  6
CONTINUOUS
 62
     7
 10
-404.0
 20
-1271.5
 30
0.0
 11
-404.0
 21
-1272.5
 31
0.0
  0
LINE
  5
20A
  8
DATA
  6
CONTINUOUS
 62
     7
 10
-365.8589838486223
 20
-1216.0
 30
0.0
 11
-365.8589838486223
 21
-1214.5
 31
0.0
  0
LINE
  5
20B
  8
DATA
  6
CONTINUOUS
 62
     7
 10
-367.8589838486223
 20
-1212.5
 30
0.0
 11
-369.3589838486223
 21
-1212.5
 31
0.0
  0
LINE
  5
20C
  8
DATA
  6
CONTINUOUS
 62
     7
 10
-369.3589838486223
 20
-1211.5
 30
0.0
 11
-367.8589838486223
 21
-1211.5
 31
0.0
  0
LINE
  5
20D
  8
DATA
  6
CONTINUOUS
 62
     7
 10
-365.8589838486223
 20
-1209.5
 30
0.0
 11
-365.8589838486223
 21
-1208.0
 31
0.0
  0
LINE
  5
20E
  8
DATA
  6
CONTINUOUS
 62
     7
 10
-365.8589838486223
 20
-1208.0
 30
0.0
 11
-364.8589838486223
 21
-1208.0
 31
0.0
  0
LINE
  5
20F
  8
DATA
  6
CONTINUOUS
 62
     7
 10
-364.8589838486223
 20
-1208.0
 30
0.0
 11
-364.8589838486223
 21
-1209.5
 31
0.0
  0
LINE
  5
210
  8
DATA
  6
CONTINUOUS
 62
     7
 10
-362.8589838486223
 20
-1211.5
 30
0.0
 11
-361.3589838486223
 21
-1211.5
 31
0.0
  0
LINE
  5
211
  8
DATA
  6
CONTINUOUS
 62
     7
 10
-361.3589838486223
 20
-1211.5
 30
0.0
 11
-361.3589838486223
 21
-1212.5
 31
0.0
  0
LINE
  5
212
  8
DATA
  6
CONTINUOUS
 62
     7
 10
-361.3589838486223
 20
-1212.5
 30
0.0
 11
-362.8589838486223
 21
-1212.5
 31
0.0
  0
LINE
  5
213
  8
DATA
  6
CONTINUOUS
 62
     7
 10
-364.8589838486223
 20
-1214.5
 30
0.0
 11
-364.8589838486223
 21
-1216.0
 31
0.0
  0
LINE
  5
214
  8
DATA
  6
CONTINUOUS
 62
     7
 10
-365.8589838486223
 20
-1216.0
 30
0.0
 11
-364.8589838486223
 21
-1216.0
 31
0.0
  0
LINE
  5
215
  8
DATA
  6
CONTINUOUS
 62
     7
 10
-369.3589838486223
 20
-1211.5
 30
0.0
 11
-369.3589838486223
 21
-1212.5
 31
0.0
  0
LINE
  5
216
  8
DATA
  6
CONTINUOUS
 62
     7
 10
-435.1410161513777
 20
-1216.0
 30
0.0
 11
-435.1410161513777
 21
-1214.5
 31
0.0
  0
LINE
  5
217
  8
DATA
  6
CONTINUOUS
 62
     7
 10
-437.1410161513777
 20
-1212.5
 30
0.0
 11
-438.6410161513777
 21
-1212.5
 31
0.0
  0
LINE
  5
218
  8
DATA
  6
CONTINUOUS
 62
     7
 10
-438.6410161513777
 20
-1211.5
 30
0.0
 11
-437.1410161513777
 21
-1211.5
 31
0.0
  0
LINE
  5
219
  8
DATA
  6
CONTINUOUS
 62
     7
 10
-435.1410161513777
 20
-1209.5
 30
0.0
 11
-435.1410161513777
 21
-1208.0
 31
0.0
  0
LINE
  5
21A
  8
DATA
  6
CONTINUOUS
 62
     7
 10
-435.1410161513777
 20
-1208.0
 30
0.0
 11
-434.1410161513777
 21
-1208.0
 31
0.0
  0
LINE
  5
21B
  8
DATA
  6
CONTINUOUS
 62
     7
 10
-434.1410161513777
 20
-1208.0
 30
0.0
 11
-434.1410161513777
 21
-1209.5
 31
0.0
  0
LINE
  5
21C
  8
DATA
  6
CONTINUOUS
 62
     7
 10
-432.14101615137758
 20
-1211.5
 30
0.0
 11
-430.6410161513777
 21
-1211.5
 31
0.0
  0
LINE
  5
21D
  8
DATA
  6
CONTINUOUS
 62
     7
 10
-430.6410161513777
 20
-1211.5
 30
0.0
 11
-430.6410161513777
 21
-1212.5
 31
0.0
  0
LINE
  5
21E
  8
DATA
  6
CONTINUOUS
 62
     7
 10
-430.6410161513777
 20
-1212.5
 30
0.0
 11
-432.14101615137758
 21
-1212.5
 31
0.0
  0
LINE
  5
21F
  8
DATA
  6
CONTINUOUS
 62
     7
 10
-434.1410161513777
 20
-1214.5
 30
0.0
 11
-434.1410161513777
 21
-1216.0
 31
0.0
  0
LINE
  5
220
  8
DATA
  6
CONTINUOUS
 62
     7
 10
-435.1410161513777
 20
-1216.0
 30
0.0
 11
-434.1410161513777
 21
-1216.0
 31
0.0
  0
LINE
  5
221
  8
DATA
  6
CONTINUOUS
 62
     7
 10
-438.6410161513777
 20
-1211.5
 30
0.0
 11
-438.6410161513777
 21
-1212.5
 31
0.0
  0
LINE
  5
222
  8
DATA
  6
CONTINUOUS
 62
     7
 10
-618.75
 20
-835.0
 30
0.0
 11
-618.75
 21
-145.47300000000021
 31
0.0
  0
LINE
  5
223
  8
DATA
  6
CONTINUOUS
 62
     7
 10
-618.75
 20
-835.0
 30
0.0
 11
-598.74999999999989
 21
-850.0
 31
0.0
  0
LINE
  5
224
  8
DATA
  6
CONTINUOUS
 62
     7
 10
-613.75
 20
-820.0
 30
0.0
 11
-613.75
 21
-160.4730000000001
 31
0.0
  0
LINE
  5
225
  8
DATA
  6
CONTINUOUS
 62
     7
 10
-598.74999999999989
 20
-805.0
 30
0.0
 11
-598.74999999999989
 21
-756.99650000000031
 31
0.0
  0
LINE
  5
226
  8
DATA
  6
CONTINUOUS
 62
     7
 10
-598.74999999999989
 20
-743.82572220386692
 30
0.0
 11
-598.74999999999989
 21
-236.6472777961333
 31
0.0
  0
LINE
  5
227
  8
DATA
  6
CONTINUOUS
 62
     7
 10
-598.74999999999989
 20
-223.47649999999999
 30
0.0
 11
-598.74999999999989
 21
-175.47300000000021
 31
0.0
  0
LINE
  5
228
  8
DATA
  6
CONTINUOUS
 62
     7
 10
-618.75
 20
-145.50300000000021
 30
0.0
 11
-598.74999999999989
 21
-130.50300000000021
 31
0.0
  0
LINE
  5
229
  8
DATA
  6
CONTINUOUS
 62
     7
 10
-201.25
 20
-850.0
 30
0.0
 11
-598.74999999999989
 21
-850.0
 31
0.0
  0
LINE
  5
22A
  8
DATA
  6
CONTINUOUS
 62
     7
 10
-181.25
 20
-835.0
 30
0.0
 11
-618.75
 21
-835.0
 31
0.0
  0
LINE
  5
22B
  8
DATA
  6
CONTINUOUS
 62
     7
 10
-186.25
 20
-820.0
 30
0.0
 11
-613.75
 21
-820.0
 31
0.0
  0
LINE
  5
22C
  8
DATA
  6
CONTINUOUS
 62
     7
 10
-201.25
 20
-805.0
 30
0.0
 11
-598.74999999999989
 21
-805.0
 31
0.0
  0
LINE
  5
22D
  8
DATA
  6
CONTINUOUS
 62
     7
 10
-181.25
 20
-145.47300000000021
 30
0.0
 11
-181.25
 21
-835.0
 31
0.0
  0
LINE
  5
22E
  8
DATA
  6
CONTINUOUS
 62
     7
 10
-181.25
 20
-835.0
 30
0.0
 11
-201.25
 21
-850.0
 31
0.0
  0
LINE
  5
22F
  8
DATA
  6
CONTINUOUS
 62
     7
 10
-186.25
 20
-160.4730000000001
 30
0.0
 11
-186.25
 21
-820.0
 31
0.0
  0
LINE
  5
230
  8
DATA
  6
CONTINUOUS
 62
     7
 10
-201.25
 20
-175.47300000000021
 30
0.0
 11
-201.25
 21
-223.47649999999999
 31
0.0
  0
LINE
  5
231
  8
DATA
  6
CONTINUOUS
 62
     7
 10
-201.25
 20
-236.6472777961333
 30
0.0
 11
-201.25
 21
-743.82572220386692
 31
0.0
  0
LINE
  5
232
  8
DATA
  6
CONTINUOUS
 62
     7
 10
-201.25
 20
-756.99650000000031
 30
0.0
 11
-201.25
 21
-805.0
 31
0.0
  0
LINE
  5
233
  8
DATA
  6
CONTINUOUS
 62
     7
 10
-181.25
 20
-145.50300000000021
 30
0.0
 11
-201.25
 21
-130.50300000000021
 31
0.0
  0
LINE
  5
234
  8
DATA
  6
CONTINUOUS
 62
     7
 10
-598.74999999999989
 20
-130.50300000000021
 30
0.0
 11
-201.25
 21
-130.50300000000021
 31
0.0
  0
LINE
  5
235
  8
DATA
  6
CONTINUOUS
 62
     7
 10
-618.75
 20
-145.50300000000021
 30
0.0
 11
-181.25
 21
-145.50300000000021
 31
0.0
  0
LINE
  5
236
  8
DATA
  6
CONTINUOUS
 62
     7
 10
-613.75
 20
-160.4730000000001
 30
0.0
 11
-186.25
 21
-160.4730000000001
 31
0.0
  0
LINE
  5
237
  8
DATA
  6
CONTINUOUS
 62
     7
 10
-598.74999999999989
 20
-175.47300000000021
 30
0.0
 11
-201.25
 21
-175.47300000000021
 31
0.0
  0
LINE
  5
238
  8
DATA
  6
CONTINUOUS
 62
     7
 10
-563.75
 20
-713.82572220386726
 30
0.0
 11
-563.75
 21
-266.6472777961331
 31
0.0
  0
LINE
  5
239
  8
DATA
  6
CONTINUOUS
 62
     7
 10
-598.74999999999989
 20
-223.47649999999999
 30
0.0
 11
-553.75
 21
-262.04792857142888
 31
0.0
  0
LINE
  5
23A
  8
DATA
  6
CONTINUOUS
 62
     7
 10
-598.74999999999989
 20
-236.6472777961333
 30
0.0
 11
-563.75
 21
-266.6472777961331
 31
0.0
  0
LINE
  5
23B
  8
DATA
  6
CONTINUOUS
 62
     7
 10
-553.75
 20
-718.42507142857119
 30
0.0
 11
-553.75
 21
-262.04792857142888
 31
0.0
  0
LINE
  5
23C
  8
DATA
  6
CONTINUOUS
 62
     7
 10
-598.74999999999989
 20
-756.99650000000031
 30
0.0
 11
-553.75
 21
-718.42507142857119
 31
0.0
  0
LINE
  5
23D
  8
DATA
  6
CONTINUOUS
 62
     7
 10
-598.74999999999989
 20
-743.82572220386692
 30
0.0
 11
-563.75
 21
-713.82572220386726
 31
0.0
  0
LINE
  5
23E
  8
DATA
  6
CONTINUOUS
 62
     7
 10
-236.25
 20
-713.82572220386726
 30
0.0
 11
-236.25
 21
-266.6472777961331
 31
0.0
  0
LINE
  5
23F
  8
DATA
  6
CONTINUOUS
 62
     7
 10
-246.25
 20
-718.42507142857119
 30
0.0
 11
-246.25
 21
-262.04792857142888
 31
0.0
  0
LINE
  5
240
  8
DATA
  6
CONTINUOUS
 62
     7
 10
-201.25
 20
-756.99650000000031
 30
0.0
 11
-246.25
 21
-718.42507142857119
 31
0.0
  0
LINE
  5
241
  8
DATA
  6
CONTINUOUS
 62
     7
 10
-201.25
 20
-743.82572220386692
 30
0.0
 11
-236.25
 21
-713.82572220386726
 31
0.0
  0
LINE
  5
242
  8
DATA
  6
CONTINUOUS
 62
     7
 10
-201.25
 20
-223.47649999999999
 30
0.0
 11
-246.25
 21
-262.04792857142888
 31
0.0
  0
LINE
  5
243
  8
DATA
  6
CONTINUOUS
 62
     7
 10
-201.25
 20
-236.6472777961333
 30
0.0
 11
-236.25
 21
-266.6472777961331
 31
0.0
  0
LINE
  5
244
  8
DATA
  6
CONTINUOUS
 62
     7
 10
-610.05249999999523
 20
-813.00300000000016
 30
0.0
 11
-607.44750000000556
 21
-813.00300000000016
 31
0.0
  0
LINE
  5
245
  8
DATA
  6
CONTINUOUS
 62
     7
 10
-608.75
 20
-814.50300000000016
 30
0.0
 11
-608.75
 21
-811.50300000000004
 31
0.0
  0
LINE
  5
246
  8
DATA
  6
CONTINUOUS
 62
     7
 10
-610.05249999999523
 20
-650.00300000000016
 30
0.0
 11
-607.44750000000556
 21
-650.00300000000016
 31
0.0
  0
LINE
  5
247
  8
DATA
  6
CONTINUOUS
 62
     7
 10
-608.75
 20
-651.50300000000016
 30
0.0
 11
-608.75
 21
-648.50300000000016
 31
0.0
  0
LINE
  5
248
  8
DATA
  6
CONTINUOUS
 62
     7
 10
-610.05249999999523
 20
-490.23649999999992
 30
0.0
 11
-607.44750000000556
 21
-490.23649999999992
 31
0.0
  0
LINE
  5
249
  8
DATA
  6
CONTINUOUS
 62
     7
 10
-608.75
 20
-491.73649999999998
 30
0.0
 11
-608.75
 21
-488.73649999999992
 31
0.0
  0
LINE
  5
24A
  8
DATA
  6
CONTINUOUS
 62
     7
 10
-610.05249999999523
 20
-167.47
 30
0.0
 11
-607.44750000000556
 21
-167.47
 31
0.0
  0
LINE
  5
24B
  8
DATA
  6
CONTINUOUS
 62
     7
 10
-608.75
 20
-165.97
 30
0.0
 11
-608.75
 21
-168.97
 31
0.0
  0
LINE
  5
24C
  8
DATA
  6
CONTINUOUS
 62
     7
 10
-610.05249999999523
 20
-330.47300000000018
 30
0.0
 11
-607.44750000000465
 21
-330.47300000000018
 31
0.0
  0
LINE
  5
24D
  8
DATA
  6
CONTINUOUS
 62
     7
 10
-608.75
 20
-328.97300000000018
 30
0.0
 11
-608.75
 21
-331.97300000000018
 31
0.0
  0
LINE
  5
24E
  8
DATA
  6
CONTINUOUS
 62
     7
 10
-552.24999999999989
 20
-813.00300000000016
 30
0.0
 11
-555.25
 21
-813.00300000000016
 31
0.0
  0
LINE
  5
24F
  8
DATA
  6
CONTINUOUS
 62
     7
 10
-553.75
 20
-814.50300000000016
 30
0.0
 11
-553.75
 21
-811.50300000000004
 31
0.0
  0
LINE
  5
250
  8
DATA
  6
CONTINUOUS
 62
     7
 10
-247.75
 20
-813.00300000000016
 30
0.0
 11
-244.75
 21
-813.00300000000016
 31
0.0
  0
LINE
  5
251
  8
DATA
  6
CONTINUOUS
 62
     7
 10
-246.25
 20
-814.50300000000016
 30
0.0
 11
-246.25
 21
-811.50300000000004
 31
0.0
  0
LINE
  5
252
  8
DATA
  6
CONTINUOUS
 62
     7
 10
-552.24999999999989
 20
-167.4700000000002
 30
0.0
 11
-555.25
 21
-167.4700000000002
 31
0.0
  0
LINE
  5
253
  8
DATA
  6
CONTINUOUS
 62
     7
 10
-553.75
 20
-165.9700000000002
 30
0.0
 11
-553.75
 21
-168.9700000000002
 31
0.0
  0
LINE
  5
254
  8
DATA
  6
CONTINUOUS
 62
     7
 10
-247.75
 20
-167.4700000000002
 30
0.0
 11
-244.75
 21
-167.4700000000002
 31
0.0
  0
LINE
  5
255
  8
DATA
  6
CONTINUOUS
 62
     7
 10
-246.25
 20
-165.9700000000002
 30
0.0
 11
-246.25
 21
-168.9700000000002
 31
0.0
  0
LINE
  5
256
  8
DATA
  6
CONTINUOUS
 62
     7
 10
-189.94750000000479
 20
-813.00300000000016
 30
0.0
 11
-192.5524999999943
 21
-813.00300000000016
 31
0.0
  0
LINE
  5
257
  8
DATA
  6
CONTINUOUS
 62
     7
 10
-191.25
 20
-814.50300000000016
 30
0.0
 11
-191.25
 21
-811.50300000000004
 31
0.0
  0
LINE
  5
258
  8
DATA
  6
CONTINUOUS
 62
     7
 10
-189.94750000000479
 20
-650.00300000000016
 30
0.0
 11
-192.5524999999943
 21
-650.00300000000016
 31
0.0
  0
LINE
  5
259
  8
DATA
  6
CONTINUOUS
 62
     7
 10
-191.25
 20
-651.50300000000016
 30
0.0
 11
-191.25
 21
-648.50300000000016
 31
0.0
  0
LINE
  5
25A
  8
DATA
  6
CONTINUOUS
 62
     7
 10
-189.94750000000479
 20
-490.23649999999992
 30
0.0
 11
-192.5524999999943
 21
-490.23649999999992
 31
0.0
  0
LINE
  5
25B
  8
DATA
  6
CONTINUOUS
 62
     7
 10
-191.25
 20
-491.73649999999998
 30
0.0
 11
-191.25
 21
-488.73649999999992
 31
0.0
  0
LINE
  5
25C
  8
DATA
  6
CONTINUOUS
 62
     7
 10
-189.94750000000479
 20
-167.47
 30
0.0
 11
-192.5524999999943
 21
-167.47
 31
0.0
  0
LINE
  5
25D
  8
DATA
  6
CONTINUOUS
 62
     7
 10
-191.25
 20
-165.97
 30
0.0
 11
-191.25
 21
-168.97
 31
0.0
  0
LINE
  5
25E
  8
DATA
  6
CONTINUOUS
 62
     7
 10
-189.94750000000479
 20
-330.47300000000018
 30
0.0
 11
-192.55249999999521
 21
-330.47300000000018
 31
0.0
  0
LINE
  5
25F
  8
DATA
  6
CONTINUOUS
 62
     7
 10
-191.25
 20
-328.97300000000018
 30
0.0
 11
-191.25
 21
-331.97300000000018
 31
0.0
  0
LINE
  5
260
  8
DATA
  6
CONTINUOUS
 62
     7
 10
1137.5
 20
-835.00000000000011
 30
0.0
 11
1137.5
 21
-145.4730000000001
 31
0.0
  0
LINE
  5
261
  8
DATA
  6
CONTINUOUS
 62
     7
 10
1137.5
 20
-835.00000000000011
 30
0.0
 11
1117.5
 21
-850.00000000000011
 31
0.0
  0
LINE
  5
262
  8
DATA
  6
CONTINUOUS
 62
     7
 10
1137.5
 20
-145.5030000000001
 30
0.0
 11
1117.5
 21
-130.5030000000001
 31
0.0
  0
LINE
  5
263
  8
DATA
  6
CONTINUOUS
 62
     7
 10
720.0
 20
-850.00000000000011
 30
0.0
 11
1117.5
 21
-850.00000000000011
 31
0.0
  0
LINE
  5
264
  8
DATA
  6
CONTINUOUS
 62
     7
 10
700.0
 20
-835.00000000000011
 30
0.0
 11
1137.5
 21
-835.00000000000011
 31
0.0
  0
LINE
  5
265
  8
DATA
  6
CONTINUOUS
 62
     7
 10
700.0
 20
-145.4730000000001
 30
0.0
 11
700.0
 21
-835.00000000000011
 31
0.0
  0
LINE
  5
266
  8
DATA
  6
CONTINUOUS
 62
     7
 10
700.0
 20
-835.00000000000011
 30
0.0
 11
720.0
 21
-850.00000000000011
 31
0.0
  0
LINE
  5
267
  8
DATA
  6
CONTINUOUS
 62
     7
 10
700.0
 20
-145.5030000000001
 30
0.0
 11
720.0
 21
-130.5030000000001
 31
0.0
  0
LINE
  5
268
  8
DATA
  6
CONTINUOUS
 62
     7
 10
1117.5
 20
-130.5030000000001
 30
0.0
 11
720.0
 21
-130.5030000000001
 31
0.0
  0
LINE
  5
269
  8
DATA
  6
CONTINUOUS
 62
     7
 10
1137.5
 20
-145.5030000000001
 30
0.0
 11
700.0
 21
-145.5030000000001
 31
0.0
  0
LINE
  5
26A
  8
DATA
  6
CONTINUOUS
 62
     7
 10
918.75
 20
-130.4730000000001
 30
0.0
 11
918.75
 21
-850.00000000000011
 31
0.0
  0
LINE
  5
26B
  8
DATA
  6
CONTINUOUS
 62
     7
 10
305.0
 20
-130.4730000000001
 30
0.0
 11
305.0
 21
-850.00000000000011
 31
0.0
  0
LINE
  5
26C
  8
DATA
  6
CONTINUOUS
 62
     7
 10
431.0
 20
-835.00000000000011
 30
0.0
 11
212.25
 21
-835.00000000000011
 31
0.0
  0
LINE
  5
26D
  8
DATA
  6
CONTINUOUS
 62
     7
 10
100.0
 20
-835.00000000000011
 30
0.0
 11
100.0
 21
-145.4730000000001
 31
0.0
  0
LINE
  5
26E
  8
DATA
  6
CONTINUOUS
 62
     7
 10
100.0
 20
-835.00000000000011
 30
0.0
 11
120.0
 21
-850.00000000000011
 31
0.0
  0
LINE
  5
26F
  8
DATA
  6
CONTINUOUS
 62
     7
 10
100.0
 20
-145.5030000000001
 30
0.0
 11
120.0
 21
-130.5030000000001
 31
0.0
  0
LINE
  5
270
  8
DATA
  6
CONTINUOUS
 62
     7
 10
411.0
 20
-850.00000000000011
 30
0.0
 11
120.0
 21
-850.00000000000011
 31
0.0
  0
LINE
  5
271
  8
DATA
  6
CONTINUOUS
 62
     7
 10
431.0
 20
-835.00000000000011
 30
0.0
 11
100.0
 21
-835.00000000000011
 31
0.0
  0
LINE
  5
272
  8
DATA
  6
CONTINUOUS
 62
     7
 10
431.0
 20
-145.4730000000001
 30
0.0
 11
431.0
 21
-835.00000000000011
 31
0.0
  0
LINE
  5
273
  8
DATA
  6
CONTINUOUS
 62
     7
 10
431.0
 20
-835.00000000000011
 30
0.0
 11
411.0
 21
-850.00000000000011
 31
0.0
  0
LINE
  5
274
  8
DATA
  6
CONTINUOUS
 62
     7
 10
431.0
 20
-145.5030000000001
 30
0.0
 11
411.0
 21
-130.5030000000001
 31
0.0
  0
LINE
  5
275
  8
DATA
  6
CONTINUOUS
 62
     7
 10
120.0
 20
-130.5030000000001
 30
0.0
 11
411.0
 21
-130.5030000000001
 31
0.0
  0
LINE
  5
276
  8
DATA
  6
CONTINUOUS
 62
     7
 10
100.0
 20
-145.5030000000001
 30
0.0
 11
431.0
 21
-145.5030000000001
 31
0.0
  0
LINE
  5
277
  8
DATA
  6
CONTINUOUS
 62
     7
 10
-869.0
 20
-835.0
 30
0.0
 11
-1087.75
 21
-835.0
 31
0.0
  0
LINE
  5
278
  8
DATA
  6
CONTINUOUS
 62
     7
 10
-1200.0
 20
-835.0
 30
0.0
 11
-1200.0
 21
-145.47300000000021
 31
0.0
  0
LINE
  5
279
  8
DATA
  6
CONTINUOUS
 62
     7
 10
-1200.0
 20
-835.0
 30
0.0
 11
-1180.0
 21
-850.0
 31
0.0
  0
LINE
  5
27A
  8
DATA
  6
CONTINUOUS
 62
     7
 10
-1200.0
 20
-145.50300000000021
 30
0.0
 11
-1180.0
 21
-130.50300000000021
 31
0.0
  0
LINE
  5
27B
  8
DATA
  6
CONTINUOUS
 62
     7
 10
-889.0
 20
-850.0
 30
0.0
 11
-1180.0
 21
-850.0
 31
0.0
  0
LINE
  5
27C
  8
DATA
  6
CONTINUOUS
 62
     7
 10
-869.0
 20
-835.0
 30
0.0
 11
-1200.0
 21
-835.0
 31
0.0
  0
LINE
  5
27D
  8
DATA
  6
CONTINUOUS
 62
     7
 10
-869.0
 20
-145.47300000000021
 30
0.0
 11
-869.0
 21
-835.0
 31
0.0
  0
LINE
  5
27E
  8
DATA
  6
CONTINUOUS
 62
     7
 10
-869.0
 20
-835.0
 30
0.0
 11
-889.0
 21
-850.0
 31
0.0
  0
LINE
  5
27F
  8
DATA
  6
CONTINUOUS
 62
     7
 10
-869.0
 20
-145.50300000000021
 30
0.0
 11
-889.0
 21
-130.50300000000021
 31
0.0
  0
LINE
  5
280
  8
DATA
  6
CONTINUOUS
 62
     7
 10
-1180.0
 20
-130.50300000000021
 30
0.0
 11
-889.0
 21
-130.50300000000021
 31
0.0
  0
LINE
  5
281
  8
DATA
  6
CONTINUOUS
 62
     7
 10
-1200.0
 20
-145.50300000000021
 30
0.0
 11
-869.0
 21
-145.50300000000021
 31
0.0
  0
LINE
  5
282
  8
DATA
  6
CONTINUOUS
 62
     7
 10
-1122.40625
 20
-562.06702032952921
 30
0.0
 11
-1122.40625
 21
-412.87897967047132
 31
0.0
  0
LINE
  5
283
  8
DATA
  6
CONTINUOUS
 62
     7
 10
-944.40624999999989
 20
-402.4730000000003
 30
0.0
 11
-944.40624999999989
 21
-562.06702032952921
 31
0.0
  0
LINE
  5
284
  8
DATA
  6
CONTINUOUS
 62
     7
 10
-1088.90625
 20
-463.97300000000013
 30
0.0
 11
-1088.90625
 21
-422.90374902771998
 31
0.0
  0
LINE
  5
285
  8
DATA
  6
CONTINUOUS
 62
     7
 10
-977.90625
 20
-422.90374902771998
 30
0.0
 11
-977.90625
 21
-463.97300000000013
 31
0.0
  0
LINE
  5
286
  8
DATA
  6
CONTINUOUS
 62
     7
 10
-1088.90625
 20
-510.9730000000003
 30
0.0
 11
-1088.90625
 21
-552.47300000000007
 31
0.0
  0
LINE
  5
287
  8
DATA
  6
CONTINUOUS
 62
     7
 10
-1056.8806258102329
 20
-587.47300000000018
 30
0.0
 11
-1009.9318741897659
 21
-587.47300000000018
 31
0.0
  0
LINE
  5
288
  8
DATA
  6
CONTINUOUS
 62
     7
 10
-977.90625
 20
-552.47300000000007
 30
0.0
 11
-977.90625
 21
-510.9730000000003
 31
0.0
  0
LINE
  5
289
  8
DATA
  6
CONTINUOUS
 62
     7
 10
-944.40624999999989
 20
-450.97300000000013
 30
0.0
 11
-977.90625
 21
-450.97300000000013
 31
0.0
  0
LINE
  5
28A
  8
DATA
  6
CONTINUOUS
 62
     7
 10
-1088.90625
 20
-450.97300000000013
 30
0.0
 11
-1122.40625
 21
-450.97300000000013
 31
0.0
  0
LINE
  5
28B
  8
DATA
  6
CONTINUOUS
 62
     7
 10
-944.40624999999989
 20
-523.97300000000007
 30
0.0
 11
-977.90625
 21
-523.97300000000007
 31
0.0
  0
LINE
  5
28C
  8
DATA
  6
CONTINUOUS
 62
     7
 10
-1088.90625
 20
-523.97300000000007
 30
0.0
 11
-1122.40625
 21
-523.97300000000007
 31
0.0
  0
LINE
  5
28D
  8
DATA
  6
CONTINUOUS
 62
     7
 10
-992.90625
 20
-567.47300000000018
 30
0.0
 11
-1073.90625
 21
-567.47300000000018
 31
0.0
  0
LINE
  5
28E
  8
DATA
  6
CONTINUOUS
 62
     7
 10
-992.90625
 20
-407.4730000000003
 30
0.0
 11
-1073.90625
 21
-407.4730000000003
 31
0.0
  0
LINE
  5
28F
  8
DATA
  6
CONTINUOUS
 62
     7
 10
-447.0
 20
233.605558769574
 30
0.0
 11
-353.0
 21
233.605558769574
 31
0.0
  0
LINE
  5
290
  8
DATA
  6
CONTINUOUS
 62
     7
 10
-457.0
 20
243.605558769574
 30
0.0
 11
-457.0
 21
288.40647781620311
 31
0.0
  0
LINE
  5
291
  8
DATA
  6
CONTINUOUS
 62
     7
 10
-343.0
 20
243.605558769574
 30
0.0
 11
-343.0
 21
288.40647781620311
 31
0.0
  0
LINE
  5
292
  8
DATA
  6
CONTINUOUS
 62
     7
 10
-405.74425749096361
 20
329.57450088117821
 30
0.0
 11
-452.74425749096361
 21
296.59204474082708
 31
0.0
  0
LINE
  5
293
  8
DATA
  6
CONTINUOUS
 62
     7
 10
-394.25574250903628
 20
329.57450088117821
 30
0.0
 11
-347.25574250903628
 21
296.59204474082708
 31
0.0
  0
LINE
  5
294
  8
DATA
  6
CONTINUOUS
 62
     7
 10
-388.23474857017447
 20
-1428.990381056766
 30
0.0
 11
-188.75
 21
-1313.817807770552
 31
0.0
  0
LINE
  5
295
  8
DATA
  6
CONTINUOUS
 62
     7
 10
-393.59373241879678
 20
-1408.990381056766
 30
0.0
 11
-208.75
 21
-1302.270802386759
 31
0.0
  0
LINE
  5
296
  8
DATA
  6
CONTINUOUS
 62
     7
 10
-1107.40625
 20
-387.4730000000003
 30
0.0
 11
-959.40624999999989
 21
-387.4730000000003
 31
0.0
  0
LINE
  5
297
  8
DATA
  6
CONTINUOUS
 62
     7
 10
-1107.40625
 20
-587.47300000000018
 30
0.0
 11
-959.40624999999989
 21
-587.47300000000018
 31
0.0
  0
LINE
  5
298
  8
DATA
  6
CONTINUOUS
 62
     7
 10
-1122.40625
 20
-572.47300000000007
 30
0.0
 11
-1122.40625
 21
-402.4730000000003
 31
0.0
  0
LINE
  5
299
  8
DATA
  6
CONTINUOUS
 62
     7
 10
-944.40624999999989
 20
-572.47300000000007
 30
0.0
 11
-944.40624999999989
 21
-402.4730000000003
 31
0.0
  0
LINE
  5
29A
  8
DATA
  6
CONTINUOUS
 62
     7
 10
-388.04762773099321
 20
378.99038105676658
 30
0.0
 11
-188.75
 21
263.92584203742399
 31
0.0
  0
LINE
  5
29B
  8
DATA
  6
CONTINUOUS
 62
     7
 10
-393.40661157961563
 20
358.99038105676658
 30
0.0
 11
-208.75
 21
252.37883665363151
 31
0.0
  0
LINE
  5
29C
  8
DATA
  6
CONTINUOUS
 62
     7
 10
-447.0
 20
233.605558769574
 30
0.0
 11
-353.0
 21
233.605558769574
 31
0.0
  0
LINE
  5
29D
  8
DATA
  6
CONTINUOUS
 62
     7
 10
-457.0
 20
243.605558769574
 30
0.0
 11
-457.0
 21
288.40647781620311
 31
0.0
  0
LINE
  5
29E
  8
DATA
  6
CONTINUOUS
 62
     7
 10
-343.0
 20
243.605558769574
 30
0.0
 11
-343.0
 21
288.40647781620311
 31
0.0
  0
LINE
  5
29F
  8
DATA
  6
CONTINUOUS
 62
     7
 10
-405.74425749096417
 20
329.57450088117821
 30
0.0
 11
-452.74425749096417
 21
296.59204474082719
 31
0.0
  0
LINE
  5
2A0
  8
DATA
  6
CONTINUOUS
 62
     7
 10
-394.25574250903583
 20
329.57450088117821
 30
0.0
 11
-347.25574250903583
 21
296.59204474082719
 31
0.0
  0
LINE
  5
2A1
  8
DATA
  6
CONTINUOUS
 62
     7
 10
-411.50425749096428
 20
286.60450088117813
 30
0.0
 11
-411.50425749096428
 21
280.60450088117813
 31
0.0
  0
LINE
  5
2A2
  8
DATA
  6
CONTINUOUS
 62
     7
 10
-431.50425749096428
 20
285.60450088117813
 30
0.0
 11
-431.50425749096428
 21
281.60450088117801
 31
0.0
  0
LINE
  5
2A3
  8
DATA
  6
CONTINUOUS
 62
     7
 10
-431.50425749096428
 20
285.60450088117813
 30
0.0
 11
-430.30425749096452
 21
285.60450088117813
 31
0.0
  0
LINE
  5
2A4
  8
DATA
  6
CONTINUOUS
 62
     7
 10
-431.50425749096428
 20
281.60450088117801
 30
0.0
 11
-430.30425749096452
 21
281.60450088117801
 31
0.0
  0
LINE
  5
2A5
  8
DATA
  6
CONTINUOUS
 62
     7
 10
-411.50425749096428
 20
286.60450088117813
 30
0.0
 11
-413.2314074909645
 21
286.60450088117813
 31
0.0
  0
LINE
  5
2A6
  8
DATA
  6
CONTINUOUS
 62
     7
 10
-411.50425749096428
 20
280.60450088117813
 30
0.0
 11
-413.2314074909645
 21
280.60450088117813
 31
0.0
  0
LINE
  5
2A7
  8
DATA
  6
CONTINUOUS
 62
     7
 10
-418.40422749096422
 20
288.97384088117798
 30
0.0
 11
-418.69172749096413
 21
288.47588088117811
 31
0.0
  0
LINE
  5
2A8
  8
DATA
  6
CONTINUOUS
 62
     7
 10
-416.1348774909643
 20
280.50453088117808
 30
0.0
 11
-416.63284749096471
 21
280.79203088117811
 31
0.0
  0
LINE
  5
2A9
  8
DATA
  6
CONTINUOUS
 62
     7
 10
-426.87361749096448
 20
286.70450088117798
 30
0.0
 11
-426.37564749096458
 21
286.41700088117813
 31
0.0
  0
LINE
  5
2AA
  8
DATA
  6
CONTINUOUS
 62
     7
 10
-424.60423749096429
 20
278.23513088117812
 30
0.0
 11
-424.3167374909645
 21
278.73310088117807
 31
0.0
  0
LINE
  5
2AB
  8
DATA
  6
CONTINUOUS
 62
     7
 10
-418.3865674909643
 20
281.80452088117812
 30
0.0
 11
-418.99277749096427
 21
282.154510881178
 31
0.0
  0
LINE
  5
2AC
  8
DATA
  6
CONTINUOUS
 62
     7
 10
-419.70424749096452
 20
286.7221708811781
 30
0.0
 11
-420.05424749096431
 21
286.1159708811781
 31
0.0
  0
LINE
  5
2AD
  8
DATA
  6
CONTINUOUS
 62
     7
 10
-424.62193749096411
 20
285.40450088117802
 30
0.0
 11
-424.0157274909642
 21
285.054500881178
 31
0.0
  0
LINE
  5
2AE
  8
DATA
  6
CONTINUOUS
 62
     7
 10
-423.30423749096423
 20
280.48681088117797
 30
0.0
 11
-422.95424749096452
 21
281.09302088117812
 31
0.0
  0
LINE
  5
2AF
  8
DATA
  6
CONTINUOUS
 62
     7
 10
-1017.222
 20
-177.70900000000029
 30
0.0
 11
-1015.444
 21
-180.5030000000001
 31
0.0
  0
LINE
  5
2B0
  8
DATA
  6
CONTINUOUS
 62
     7
 10
-1020.524
 20
-183.297
 30
0.0
 11
-1022.301999999999
 21
-180.5030000000001
 31
0.0
  0
LINE
  5
2B1
  8
DATA
  6
CONTINUOUS
 62
     7
 10
-1020.524
 20
-177.70900000000029
 30
0.0
 11
-1017.222
 21
-177.70900000000029
 31
0.0
  0
LINE
  5
2B2
  8
DATA
  6
CONTINUOUS
 62
     7
 10
-1017.222
 20
-183.297
 30
0.0
 11
-1020.524
 21
-183.297
 31
0.0
  0
LINE
  5
2B3
  8
DATA
  6
CONTINUOUS
 62
     7
 10
-1022.301999999999
 20
-180.5030000000001
 30
0.0
 11
-1020.524
 21
-177.70900000000029
 31
0.0
  0
LINE
  5
2B4
  8
DATA
  6
CONTINUOUS
 62
     7
 10
-1015.444
 20
-180.5030000000001
 30
0.0
 11
-1017.222
 21
-183.297
 31
0.0
  0
LINE
  5
2B5
  8
DATA
  6
CONTINUOUS
 62
     7
 10
-1017.222
 20
-797.20600000000013
 30
0.0
 11
-1015.444
 21
-800.0
 31
0.0
  0
LINE
  5
2B6
  8
DATA
  6
CONTINUOUS
 62
     7
 10
-1020.524
 20
-802.79399999999987
 30
0.0
 11
-1022.301999999999
 21
-800.0
 31
0.0
  0
LINE
  5
2B7
  8
DATA
  6
CONTINUOUS
 62
     7
 10
-1020.524
 20
-797.20600000000013
 30
0.0
 11
-1017.222
 21
-797.20600000000013
 31
0.0
  0
LINE
  5
2B8
  8
DATA
  6
CONTINUOUS
 62
     7
 10
-1017.222
 20
-802.79399999999987
 30
0.0
 11
-1020.524
 21
-802.79399999999987
 31
0.0
  0
LINE
  5
2B9
  8
DATA
  6
CONTINUOUS
 62
     7
 10
-1022.301999999999
 20
-800.0
 30
0.0
 11
-1020.524
 21
-797.20600000000013
 31
0.0
  0
LINE
  5
2BA
  8
DATA
  6
CONTINUOUS
 62
     7
 10
-1015.444
 20
-800.0
 30
0.0
 11
-1017.222
 21
-802.79399999999987
 31
0.0
  0
LINE
  5
2BB
  8
DATA
  6
CONTINUOUS
 62
     7
 10
-571.97200000000021
 20
202.7939999999999
 30
0.0
 11
-570.19399999999985
 21
200.0
 31
0.0
  0
LINE
  5
2BC
  8
DATA
  6
CONTINUOUS
 62
     7
 10
-575.27399999999989
 20
197.2060000000001
 30
0.0
 11
-577.05199999999945
 21
200.0
 31
0.0
  0
LINE
  5
2BD
  8
DATA
  6
CONTINUOUS
 62
     7
 10
-575.27399999999989
 20
202.7939999999999
 30
0.0
 11
-571.97200000000021
 21
202.7939999999999
 31
0.0
  0
LINE
  5
2BE
  8
DATA
  6
CONTINUOUS
 62
     7
 10
-571.97200000000021
 20
197.2060000000001
 30
0.0
 11
-575.27399999999989
 21
197.2060000000001
 31
0.0
  0
LINE
  5
2BF
  8
DATA
  6
CONTINUOUS
 62
     7
 10
-577.05199999999945
 20
200.0
 30
0.0
 11
-575.27399999999989
 21
202.7939999999999
 31
0.0
  0
LINE
  5
2C0
  8
DATA
  6
CONTINUOUS
 62
     7
 10
-570.19399999999985
 20
200.0
 30
0.0
 11
-571.97200000000021
 21
197.2060000000001
 31
0.0
  0
LINE
  5
2C1
  8
DATA
  6
CONTINUOUS
 62
     7
 10
-224.47200000000021
 20
202.7939999999999
 30
0.0
 11
-222.69399999999999
 21
200.0
 31
0.0
  0
LINE
  5
2C2
  8
DATA
  6
CONTINUOUS
 62
     7
 10
-227.77399999999989
 20
197.2060000000001
 30
0.0
 11
-229.55199999999971
 21
200.0
 31
0.0
  0
LINE
  5
2C3
  8
DATA
  6
CONTINUOUS
 62
     7
 10
-227.77399999999989
 20
202.7939999999999
 30
0.0
 11
-224.47200000000021
 21
202.7939999999999
 31
0.0
  0
LINE
  5
2C4
  8
DATA
  6
CONTINUOUS
 62
     7
 10
-224.47200000000021
 20
197.2060000000001
 30
0.0
 11
-227.77399999999989
 21
197.2060000000001
 31
0.0
  0
LINE
  5
2C5
  8
DATA
  6
CONTINUOUS
 62
     7
 10
-229.55199999999971
 20
200.0
 30
0.0
 11
-227.77399999999989
 21
202.7939999999999
 31
0.0
  0
LINE
  5
2C6
  8
DATA
  6
CONTINUOUS
 62
     7
 10
-222.69399999999999
 20
200.0
 30
0.0
 11
-224.47200000000021
 21
197.2060000000001
 31
0.0
  0
LINE
  5
2C7
  8
DATA
  6
CONTINUOUS
 62
     7
 10
-571.97200000000021
 20
-1247.2059999999999
 30
0.0
 11
-570.19399999999985
 21
-1250.0
 31
0.0
  0
LINE
  5
2C8
  8
DATA
  6
CONTINUOUS
 62
     7
 10
-575.27399999999989
 20
-1252.7940000000001
 30
0.0
 11
-577.05199999999945
 21
-1250.0
 31
0.0
  0
LINE
  5
2C9
  8
DATA
  6
CONTINUOUS
 62
     7
 10
-575.27399999999989
 20
-1247.2059999999999
 30
0.0
 11
-571.97200000000021
 21
-1247.2059999999999
 31
0.0
  0
LINE
  5
2CA
  8
DATA
  6
CONTINUOUS
 62
     7
 10
-571.97200000000021
 20
-1252.7940000000001
 30
0.0
 11
-575.27399999999989
 21
-1252.7940000000001
 31
0.0
  0
LINE
  5
2CB
  8
DATA
  6
CONTINUOUS
 62
     7
 10
-577.05199999999945
 20
-1250.0
 30
0.0
 11
-575.27399999999989
 21
-1247.2059999999999
 31
0.0
  0
LINE
  5
2CC
  8
DATA
  6
CONTINUOUS
 62
     7
 10
-570.19399999999985
 20
-1250.0
 30
0.0
 11
-571.97200000000021
 21
-1252.7940000000001
 31
0.0
  0
LINE
  5
2CD
  8
DATA
  6
CONTINUOUS
 62
     7
 10
-224.47200000000021
 20
-1247.2059999999999
 30
0.0
 11
-222.69399999999999
 21
-1250.0
 31
0.0
  0
LINE
  5
2CE
  8
DATA
  6
CONTINUOUS
 62
     7
 10
-227.77399999999989
 20
-1252.7940000000001
 30
0.0
 11
-229.55199999999971
 21
-1250.0
 31
0.0
  0
LINE
  5
2CF
  8
DATA
  6
CONTINUOUS
 62
     7
 10
-227.77399999999989
 20
-1247.2059999999999
 30
0.0
 11
-224.47200000000021
 21
-1247.2059999999999
 31
0.0
  0
LINE
  5
2D0
  8
DATA
  6
CONTINUOUS
 62
     7
 10
-224.47200000000021
 20
-1252.7940000000001
 30
0.0
 11
-227.77399999999989
 21
-1252.7940000000001
 31
0.0
  0
LINE
  5
2D1
  8
DATA
  6
CONTINUOUS
 62
     7
 10
-229.55199999999971
 20
-1250.0
 30
0.0
 11
-227.77399999999989
 21
-1247.2059999999999
 31
0.0
  0
LINE
  5
2D2
  8
DATA
  6
CONTINUOUS
 62
     7
 10
-222.69399999999999
 20
-1250.0
 30
0.0
 11
-224.47200000000021
 21
-1252.7940000000001
 31
0.0
  0
LINE
  5
2D3
  8
DATA
  6
CONTINUOUS
 62
     7
 10
251.77799999999971
 20
-177.70900000000029
 30
0.0
 11
253.55600000000001
 21
-180.5030000000001
 31
0.0
  0
LINE
  5
2D4
  8
DATA
  6
CONTINUOUS
 62
     7
 10
248.47600000000011
 20
-183.297
 30
0.0
 11
246.69800000000029
 21
-180.5030000000001
 31
0.0
  0
LINE
  5
2D5
  8
DATA
  6
CONTINUOUS
 62
     7
 10
248.47600000000011
 20
-177.70900000000029
 30
0.0
 11
251.77799999999971
 21
-177.70900000000029
 31
0.0
  0
LINE
  5
2D6
  8
DATA
  6
CONTINUOUS
 62
     7
 10
251.77799999999971
 20
-183.297
 30
0.0
 11
248.47600000000011
 21
-183.297
 31
0.0
  0
LINE
  5
2D7
  8
DATA
  6
CONTINUOUS
 62
     7
 10
246.69800000000029
 20
-180.5030000000001
 30
0.0
 11
248.47600000000011
 21
-177.70900000000029
 31
0.0
  0
LINE
  5
2D8
  8
DATA
  6
CONTINUOUS
 62
     7
 10
253.55600000000001
 20
-180.5030000000001
 30
0.0
 11
251.77799999999971
 21
-183.297
 31
0.0
  0
LINE
  5
2D9
  8
DATA
  6
CONTINUOUS
 62
     7
 10
251.77799999999971
 20
-797.20600000000013
 30
0.0
 11
253.55600000000001
 21
-800.0
 31
0.0
  0
LINE
  5
2DA
  8
DATA
  6
CONTINUOUS
 62
     7
 10
248.47600000000011
 20
-802.79399999999987
 30
0.0
 11
246.69800000000029
 21
-800.0
 31
0.0
  0
LINE
  5
2DB
  8
DATA
  6
CONTINUOUS
 62
     7
 10
248.47600000000011
 20
-797.20600000000013
 30
0.0
 11
251.77799999999971
 21
-797.20600000000013
 31
0.0
  0
LINE
  5
2DC
  8
DATA
  6
CONTINUOUS
 62
     7
 10
251.77799999999971
 20
-802.79399999999987
 30
0.0
 11
248.47600000000011
 21
-802.79399999999987
 31
0.0
  0
LINE
  5
2DD
  8
DATA
  6
CONTINUOUS
 62
     7
 10
246.69800000000029
 20
-800.0
 30
0.0
 11
248.47600000000011
 21
-797.20600000000013
 31
0.0
  0
LINE
  5
2DE
  8
DATA
  6
CONTINUOUS
 62
     7
 10
253.55600000000001
 20
-800.0
 30
0.0
 11
251.77799999999971
 21
-802.79399999999987
 31
0.0
  0
ARC
  5
2DF
  8
DATA
  6
CONTINUOUS
 62
     7
 10
897.81642482565474
 20
-39.483626308861851
 30
0.0
 40
69.999999999995779
 50
234.9405730331147
 51
305.05942696688533
  0
ARC
  5
2E0
  8
DATA
  6
CONTINUOUS
 62
     7
 10
568.81642482565485
 20
191.3935666735961
 30
0.0
 40
70.0
 50
180.0
 51
234.9405730331161
  0
ARC
  5
2E1
  8
DATA
  6
CONTINUOUS
 62
     7
 10
568.81642482565485
 20
505.0
 30
0.0
 40
70.0
 50
90.0
 51
180.0
  0
ARC
  5
2E2
  8
DATA
  6
CONTINUOUS
 62
     7
 10
1226.8164248256551
 20
505.0
 30
0.0
 40
70.0
 50
0.0
 51
90.0
  0
ARC
  5
2E3
  8
DATA
  6
CONTINUOUS
 62
     7
 10
1226.8164248256551
 20
191.3935666735961
 30
0.0
 40
69.99999999999838
 50
305.05942696688379
 51
0.0
  0
ARC
  5
2E4
  8
DATA
  6
CONTINUOUS
 62
     7
 10
897.81642482565474
 20
-39.483626308858682
 30
0.0
 40
69.99999999999838
 50
234.9405730331161
 51
305.05942696688379
  0
ARC
  5
2E5
  8
DATA
  6
CONTINUOUS
 62
     7
 10
1226.8164248256551
 20
191.39356667359769
 30
0.0
 40
69.999999999997073
 50
305.05942696688459
 51
0.0
  0
ARC
  5
2E6
  8
DATA
  6
CONTINUOUS
 62
     7
 10
1226.8164248256551
 20
505.0
 30
0.0
 40
70.0
 50
0.0
 51
90.0
  0
ARC
  5
2E7
  8
DATA
  6
CONTINUOUS
 62
     7
 10
568.81642482565485
 20
505.0
 30
0.0
 40
70.0
 50
90.0
 51
180.0
  0
ARC
  5
2E8
  8
DATA
  6
CONTINUOUS
 62
     7
 10
568.81642482565485
 20
191.39356667359769
 30
0.0
 40
70.0
 50
180.0
 51
234.9405730331153
  0
ARC
  5
2E9
  8
DATA
  6
CONTINUOUS
 62
     7
 10
897.81642482565474
 20
-39.483626308858682
 30
0.0
 40
70.000000000000213
 50
234.94057303311399
 51
305.05942696688589
  0
ARC
  5
2EA
  8
DATA
  6
CONTINUOUS
 62
     7
 10
1226.8164248256551
 20
191.39356667359769
 30
0.0
 40
69.999999999999559
 50
305.05942696688629
 51
0.0
  0
ARC
  5
2EB
  8
DATA
  6
CONTINUOUS
 62
     7
 10
1226.8164248256551
 20
505.0
 30
0.0
 40
70.0
 50
0.0
 51
90.0
  0
ARC
  5
2EC
  8
DATA
  6
CONTINUOUS
 62
     7
 10
568.81642482565485
 20
505.0
 30
0.0
 40
70.0
 50
90.0
 51
180.0
  0
ARC
  5
2ED
  8
DATA
  6
CONTINUOUS
 62
     7
 10
568.81642482565485
 20
191.39356667359769
 30
0.0
 40
70.0
 50
180.0
 51
234.94057303311391
  0
CIRCLE
  5
2EE
  8
DATA
  6
CONTINUOUS
 62
     7
 10
1048.3462272624049
 20
225.0074052187725
 30
0.0
 40
82.249999999999986
  0
ARC
  5
2EF
  8
DATA
  6
CONTINUOUS
 62
     7
 10
1048.3462272624049
 20
225.0074052187725
 30
0.0
 40
61.600018741899461
 50
199.93226415067929
 51
347.19616681969978
  0
ARC
  5
2F0
  8
DATA
  6
CONTINUOUS
 62
     7
 10
1048.3462272624049
 20
225.0074052187725
 30
0.0
 40
61.600024530419951
 50
12.999999555421519
 51
159.99999423796189
  0
ARC
  5
2F1
  8
DATA
  6
CONTINUOUS
 62
     7
 10
1048.3462272624049
 20
225.0074052187725
 30
0.0
 40
43.400015134449923
 50
150.0000115355613
 51
240.00001153556249
  0
ARC
  5
2F2
  8
DATA
  6
CONTINUOUS
 62
     7
 10
1048.3462272624049
 20
225.0074052187725
 30
0.0
 40
43.400015134449923
 50
330.00001153556133
 51
60.0000115355624
  0
ARC
  5
2F3
  8
DATA
  6
CONTINUOUS
 62
     7
 10
1048.3462272624049
 20
225.0074052187725
 30
0.0
 40
39.375026821067209
 50
239.9996696821014
 51
330.00021260430208
  0
ARC
  5
2F4
  8
DATA
  6
CONTINUOUS
 62
     7
 10
1048.3462272624049
 20
225.0074052187725
 30
0.0
 40
39.374973064239811
 50
60.000212604302341
 51
150.0007182431236
  0
ARC
  5
2F5
  8
DATA
  6
CONTINUOUS
 62
     7
 10
1048.3462272624049
 20
225.0074052187725
 30
0.0
 40
25.19993056612542
 50
149.9999088547045
 51
239.99990885470149
  0
ARC
  5
2F6
  8
DATA
  6
CONTINUOUS
 62
     7
 10
1048.3462272624049
 20
225.0074052187725
 30
0.0
 40
25.19993056612542
 50
329.99990885470447
 51
59.99990885470045
  0
ARC
  5
2F7
  8
DATA
  6
CONTINUOUS
 62
     7
 10
1048.3462272624049
 20
225.0074052187725
 30
0.0
 40
20.300012746030738
 50
239.99979263403051
 51
330.00023362383268
  0
ARC
  5
2F8
  8
DATA
  6
CONTINUOUS
 62
     7
 10
1048.3462272624049
 20
225.0074052187725
 30
0.0
 40
20.300003367844841
 50
60.000233623829061
 51
149.99979263403489
  0
ARC
  5
2F9
  8
DATA
  6
CONTINUOUS
 62
     7
 10
-608.75
 20
371.0
 30
0.0
 40
10.0
 50
90.0
 51
180.0
  0
ARC
  5
2FA
  8
DATA
  6
CONTINUOUS
 62
     7
 10
-608.75
 20
90.972940815564229
 30
0.0
 40
10.0
 50
180.00000000000131
 51
241.69924423399161
  0
ARC
  5
2FB
  8
DATA
  6
CONTINUOUS
 62
     7
 10
-551.22882419966663
 20
60.0
 30
0.0
 40
10.000000000000179
 50
241.6992442339909
 51
270.0
  0
ARC
  5
2FC
  8
DATA
  6
CONTINUOUS
 62
     7
 10
-248.7711758003334
 20
60.0
 30
0.0
 40
10.0
 50
270.0
 51
298.30075576600888
  0
ARC
  5
2FD
  8
DATA
  6
CONTINUOUS
 62
     7
 10
-191.25
 20
90.972940815564002
 30
0.0
 40
10.000000000000179
 50
298.30075576600888
 51
0.0
  0
ARC
  5
2FE
  8
DATA
  6
CONTINUOUS
 62
     7
 10
-588.75
 20
102.9188224466925
 30
0.0
 40
10.0
 50
180.0
 51
241.6992442339909
  0
ARC
  5
2FF
  8
DATA
  6
CONTINUOUS
 62
     7
 10
-546.1864725989999
 20
80.0
 30
0.0
 40
9.9999999999997549
 50
241.69924423399561
 51
270.0
  0
ARC
  5
300
  8
DATA
  6
CONTINUOUS
 62
     7
 10
-253.8135274010001
 20
80.0
 30
0.0
 40
10.0
 50
270.0
 51
298.30075576600439
  0
ARC
  5
301
  8
DATA
  6
CONTINUOUS
 62
     7
 10
-211.25
 20
102.9188224466925
 30
0.0
 40
10.000000000000179
 50
298.30075576600888
 51
0.0
  0
ARC
  5
302
  8
DATA
  6
CONTINUOUS
 62
     7
 10
-400.0
 20
321.38893395655441
 30
0.0
 40
9.999999999999396
 50
54.940573033114681
 51
125.0594269668853
  0
ARC
  5
303
  8
DATA
  6
CONTINUOUS
 62
     7
 10
-353.0
 20
288.40647781620322
 30
0.0
 40
10.0
 50
0.0
 51
54.940573033116223
  0
ARC
  5
304
  8
DATA
  6
CONTINUOUS
 62
     7
 10
-353.0
 20
243.605558769574
 30
0.0
 40
10.0
 50
270.0
 51
0.0
  0
ARC
  5
305
  8
DATA
  6
CONTINUOUS
 62
     7
 10
-447.0
 20
243.605558769574
 30
0.0
 40
10.0
 50
180.0
 51
270.0
  0
ARC
  5
306
  8
DATA
  6
CONTINUOUS
 62
     7
 10
-447.0
 20
288.40647781620322
 30
0.0
 40
9.9999999999997673
 50
125.05942696688381
 51
180.0
  0
ARC
  5
307
  8
DATA
  6
CONTINUOUS
 62
     7
 10
-241.25
 20
120.837644893385
 30
0.0
 40
10.000000000000179
 50
298.30075576600888
 51
0.0
  0
ARC
  5
308
  8
DATA
  6
CONTINUOUS
 62
     7
 10
-261.3770548020002
 20
110.0
 30
0.0
 40
10.0
 50
270.0
 51
298.30075576600439
  0
ARC
  5
309
  8
DATA
  6
CONTINUOUS
 62
     7
 10
-538.6229451979998
 20
110.0
 30
0.0
 40
9.9999999999997549
 50
241.69924423399561
 51
270.0
  0
ARC
  5
30A
  8
DATA
  6
CONTINUOUS
 62
     7
 10
-558.75
 20
120.837644893385
 30
0.0
 40
10.0
 50
180.0
 51
241.6992442339909
  0
ARC
  5
30B
  8
DATA
  6
CONTINUOUS
 62
     7
 10
-588.75
 20
351.0
 30
0.0
 40
10.0
 50
90.0
 51
180.0
  0
ARC
  5
30C
  8
DATA
  6
CONTINUOUS
 62
     7
 10
-241.25
 20
120.837644893385
 30
0.0
 40
5.0000000000002931
 50
298.3007557660078
 51
0.0
  0
ARC
  5
30D
  8
DATA
  6
CONTINUOUS
 62
     7
 10
-261.3770548020002
 20
110.0
 30
0.0
 40
5.0
 50
270.0
 51
298.3007557660078
  0
ARC
  5
30E
  8
DATA
  6
CONTINUOUS
 62
     7
 10
-538.6229451979998
 20
110.0
 30
0.0
 40
4.9999999999998623
 50
241.69924423400141
 51
270.0
  0
ARC
  5
30F
  8
DATA
  6
CONTINUOUS
 62
     7
 10
-558.75
 20
120.837644893385
 30
0.0
 40
5.0
 50
180.0
 51
241.6992442339922
  0
ARC
  5
310
  8
DATA
  6
CONTINUOUS
 62
     7
 10
-608.75
 20
-1421.0
 30
0.0
 40
10.0
 50
180.0
 51
270.0
  0
ARC
  5
311
  8
DATA
  6
CONTINUOUS
 62
     7
 10
-608.75
 20
-1140.972940815564
 30
0.0
 40
9.9999999999997549
 50
118.3007557660044
 51
180.0
  0
ARC
  5
312
  8
DATA
  6
CONTINUOUS
 62
     7
 10
-551.22882419966663
 20
-1110.0
 30
0.0
 40
10.0
 50
90.0
 51
118.3007557660044
  0
ARC
  5
313
  8
DATA
  6
CONTINUOUS
 62
     7
 10
-248.7711758003334
 20
-1110.0
 30
0.0
 40
10.000000000000179
 50
61.699244233990967
 51
90.0
  0
ARC
  5
314
  8
DATA
  6
CONTINUOUS
 62
     7
 10
-191.25
 20
-1140.972940815564
 30
0.0
 40
10.0
 50
0.0
 51
61.69924423399101
  0
ARC
  5
315
  8
DATA
  6
CONTINUOUS
 62
     7
 10
-588.75
 20
-1152.918822446692
 30
0.0
 40
9.9999999999997549
 50
118.3007557660044
 51
180.0
  0
ARC
  5
316
  8
DATA
  6
CONTINUOUS
 62
     7
 10
-546.1864725989999
 20
-1130.0
 30
0.0
 40
10.0
 50
90.0
 51
118.3007557659998
  0
ARC
  5
317
  8
DATA
  6
CONTINUOUS
 62
     7
 10
-253.8135274010001
 20
-1130.0
 30
0.0
 40
10.000000000000179
 50
61.699244233990967
 51
90.0
  0
ARC
  5
318
  8
DATA
  6
CONTINUOUS
 62
     7
 10
-211.25
 20
-1152.918822446692
 30
0.0
 40
10.0
 50
0.0
 51
61.69924423399101
  0
ARC
  5
319
  8
DATA
  6
CONTINUOUS
 62
     7
 10
-588.75
 20
-1401.0
 30
0.0
 40
10.0
 50
180.0
 51
270.0
  0
CIRCLE
  5
31A
  8
DATA
  6
CONTINUOUS
 62
     7
 10
-243.25
 20
-1159.0
 30
0.0
 40
20.999999999999918
  0
CIRCLE
  5
31B
  8
DATA
  6
CONTINUOUS
 62
     7
 10
-243.25
 20
-1159.0
 30
0.0
 40
16.000000000000892
  0
CIRCLE
  5
31C
  8
DATA
  6
CONTINUOUS
 62
     7
 10
-243.25
 20
-1159.0
 30
0.0
 40
5.0000000000006466
  0
CIRCLE
  5
31D
  8
DATA
  6
CONTINUOUS
 62
     7
 10
-243.25
 20
-1159.0
 30
0.0
 40
4.5000000000006048
  0
CIRCLE
  5
31E
  8
DATA
  6
CONTINUOUS
 62
     7
 10
-247.25
 20
-1283.0
 30
0.0
 40
20.999999999999918
  0
CIRCLE
  5
31F
  8
DATA
  6
CONTINUOUS
 62
     7
 10
-247.25
 20
-1283.0
 30
0.0
 40
16.000000000000892
  0
CIRCLE
  5
320
  8
DATA
  6
CONTINUOUS
 62
     7
 10
-247.25
 20
-1283.0
 30
0.0
 40
5.0000000000006466
  0
CIRCLE
  5
321
  8
DATA
  6
CONTINUOUS
 62
     7
 10
-247.25
 20
-1283.0
 30
0.0
 40
4.5000000000006048
  0
CIRCLE
  5
322
  8
DATA
  6
CONTINUOUS
 62
     7
 10
-562.75
 20
-1159.0
 30
0.0
 40
20.999999999999918
  0
CIRCLE
  5
323
  8
DATA
  6
CONTINUOUS
 62
     7
 10
-562.75
 20
-1159.0
 30
0.0
 40
16.000000000000892
  0
CIRCLE
  5
324
  8
DATA
  6
CONTINUOUS
 62
     7
 10
-562.75
 20
-1159.0
 30
0.0
 40
5.0000000000006466
  0
CIRCLE
  5
325
  8
DATA
  6
CONTINUOUS
 62
     7
 10
-562.75
 20
-1159.0
 30
0.0
 40
4.5000000000006048
  0
CIRCLE
  5
326
  8
DATA
  6
CONTINUOUS
 62
     7
 10
-565.74999999999989
 20
-1381.0
 30
0.0
 40
20.999999999999918
  0
CIRCLE
  5
327
  8
DATA
  6
CONTINUOUS
 62
     7
 10
-565.74999999999989
 20
-1381.0
 30
0.0
 40
16.000000000000892
  0
CIRCLE
  5
328
  8
DATA
  6
CONTINUOUS
 62
     7
 10
-565.74999999999989
 20
-1381.0
 30
0.0
 40
5.0000000000006466
  0
CIRCLE
  5
329
  8
DATA
  6
CONTINUOUS
 62
     7
 10
-565.74999999999989
 20
-1381.0
 30
0.0
 40
4.5000000000006048
  0
CIRCLE
  5
32A
  8
DATA
  6
CONTINUOUS
 62
     7
 10
-400.0
 20
-1232.0
 30
0.0
 40
49.999999999999389
  0
CIRCLE
  5
32B
  8
DATA
  6
CONTINUOUS
 62
     7
 10
-400.0
 20
-1232.0
 30
0.0
 40
27.499999999999599
  0
ARC
  5
32C
  8
DATA
  6
CONTINUOUS
 62
     7
 10
-400.0
 20
-1232.0
 30
0.0
 40
21.999999999999609
 50
212.6052512650578
 51
237.39474873494279
  0
ARC
  5
32D
  8
DATA
  6
CONTINUOUS
 62
     7
 10
-400.0
 20
-1232.0
 30
0.0
 40
21.99999999999882
 50
182.6052512650574
 51
207.45685924340199
  0
ARC
  5
32E
  8
DATA
  6
CONTINUOUS
 62
     7
 10
-400.0
 20
-1232.0
 30
0.0
 40
21.99999999999951
 50
152.60525126505729
 51
177.3947487349426
  0
ARC
  5
32F
  8
DATA
  6
CONTINUOUS
 62
     7
 10
-400.0
 20
-1232.0
 30
0.0
 40
22.0
 50
122.60525126505711
 51
147.3947487349422
  0
ARC
  5
330
  8
DATA
  6
CONTINUOUS
 62
     7
 10
-400.0
 20
-1232.0
 30
0.0
 40
21.99999999999973
 50
92.605251265057305
 51
117.39474873493999
  0
ARC
  5
331
  8
DATA
  6
CONTINUOUS
 62
     7
 10
-400.0
 20
-1232.0
 30
0.0
 40
22.00000000000033
 50
62.60525126505577
 51
87.394748734942681
  0
ARC
  5
332
  8
DATA
  6
CONTINUOUS
 62
     7
 10
-400.0
 20
-1232.0
 30
0.0
 40
22.000000000000391
 50
32.605251265056523
 51
57.394748734942858
  0
ARC
  5
333
  8
DATA
  6
CONTINUOUS
 62
     7
 10
-400.0
 20
-1232.0
 30
0.0
 40
22.000000000000639
 50
2.6052512650572122
 51
27.394748734941601
  0
ARC
  5
334
  8
DATA
  6
CONTINUOUS
 62
     7
 10
-400.0
 20
-1232.0
 30
0.0
 40
22.000000000000529
 50
332.60525126505729
 51
357.39474873494282
  0
ARC
  5
335
  8
DATA
  6
CONTINUOUS
 62
     7
 10
-400.0
 20
-1232.0
 30
0.0
 40
22.0
 50
302.60525126505718
 51
327.39474873494351
  0
ARC
  5
336
  8
DATA
  6
CONTINUOUS
 62
     7
 10
-400.0
 20
-1232.0
 30
0.0
 40
21.99999999999973
 50
272.60525126505729
 51
297.39474873494419
  0
ARC
  5
337
  8
DATA
  6
CONTINUOUS
 62
     7
 10
-400.0
 20
-1232.0
 30
0.0
 40
21.999999999999488
 50
242.60525126505999
 51
267.39474873494271
  0
CIRCLE
  5
338
  8
DATA
  6
CONTINUOUS
 62
     7
 10
-400.0
 20
-1272.0
 30
0.0
 40
7.0
  0
CIRCLE
  5
339
  8
DATA
  6
CONTINUOUS
 62
     7
 10
-400.0
 20
-1272.0
 30
0.0
 40
6.0
  0
ARC
  5
33A
  8
DATA
  6
CONTINUOUS
 62
     7
 10
-402.5
 20
-1274.5
 30
0.0
 40
2.0
 50
0.0
 51
90.0
  0
ARC
  5
33B
  8
DATA
  6
CONTINUOUS
 62
     7
 10
-402.5
 20
-1269.5
 30
0.0
 40
2.0
 50
270.0
 51
0.0
  0
ARC
  5
33C
  8
DATA
  6
CONTINUOUS
 62
     7
 10
-397.5
 20
-1269.5
 30
0.0
 40
2.0
 50
180.0
 51
270.0
  0
ARC
  5
33D
  8
DATA
  6
CONTINUOUS
 62
     7
 10
-397.5
 20
-1274.5
 30
0.0
 40
2.0
 50
90.0
 51
180.0
  0
CIRCLE
  5
33E
  8
DATA
  6
CONTINUOUS
 62
     7
 10
-365.3589838486223
 20
-1212.0
 30
0.0
 40
7.0
  0
CIRCLE
  5
33F
  8
DATA
  6
CONTINUOUS
 62
     7
 10
-365.3589838486223
 20
-1212.0
 30
0.0
 40
6.0
  0
ARC
  5
340
  8
DATA
  6
CONTINUOUS
 62
     7
 10
-367.8589838486223
 20
-1214.5
 30
0.0
 40
2.0
 50
0.0
 51
90.0
  0
ARC
  5
341
  8
DATA
  6
CONTINUOUS
 62
     7
 10
-367.8589838486223
 20
-1209.5
 30
0.0
 40
2.0
 50
270.0
 51
0.0
  0
ARC
  5
342
  8
DATA
  6
CONTINUOUS
 62
     7
 10
-362.8589838486223
 20
-1209.5
 30
0.0
 40
2.0
 50
180.0
 51
270.0
  0
ARC
  5
343
  8
DATA
  6
CONTINUOUS
 62
     7
 10
-362.8589838486223
 20
-1214.5
 30
0.0
 40
2.0
 50
90.0
 51
180.0
  0
CIRCLE
  5
344
  8
DATA
  6
CONTINUOUS
 62
     7
 10
-434.6410161513777
 20
-1212.0
 30
0.0
 40
7.0
  0
CIRCLE
  5
345
  8
DATA
  6
CONTINUOUS
 62
     7
 10
-434.6410161513777
 20
-1212.0
 30
0.0
 40
6.0
  0
ARC
  5
346
  8
DATA
  6
CONTINUOUS
 62
     7
 10
-437.1410161513777
 20
-1214.5
 30
0.0
 40
2.0
 50
0.0
 51
90.0
  0
ARC
  5
347
  8
DATA
  6
CONTINUOUS
 62
     7
 10
-437.1410161513777
 20
-1209.5
 30
0.0
 40
2.0
 50
270.0
 51
0.0
  0
ARC
  5
348
  8
DATA
  6
CONTINUOUS
 62
     7
 10
-432.14101615137758
 20
-1209.5
 30
0.0
 40
2.0
 50
180.0
 51
270.0
  0
ARC
  5
349
  8
DATA
  6
CONTINUOUS
 62
     7
 10
-432.14101615137758
 20
-1214.5
 30
0.0
 40
2.0
 50
90.0
 51
180.0
  0
ARC
  5
34A
  8
DATA
  6
CONTINUOUS
 62
     7
 10
-608.67222926167415
 20
-813.43952675778905
 30
0.0
 40
2.56465267653636
 50
204.49825952213189
 51
268.26229169027488
  0
ARC
  5
34B
  8
DATA
  6
CONTINUOUS
 62
     7
 10
-607.95703769799366
 20
-813.00300000000016
 30
0.0
 40
3.3979623019959599
 50
153.80413887892911
 51
206.19586112107089
  0
ARC
  5
34C
  8
DATA
  6
CONTINUOUS
 62
     7
 10
-608.67222926167415
 20
-812.56647324221103
 30
0.0
 40
2.564652676537484
 50
91.737708309725335
 51
155.50174047787269
  0
ARC
  5
34D
  8
DATA
  6
CONTINUOUS
 62
     7
 10
-608.82777073832767
 20
-813.43952675778905
 30
0.0
 40
2.5646526765377682
 50
271.73770830976588
 51
335.50174047788488
  0
ARC
  5
34E
  8
DATA
  6
CONTINUOUS
 62
     7
 10
-609.54296230200725
 20
-813.00300000000016
 30
0.0
 40
3.3979623019967762
 50
333.80413887893587
 51
26.19586112106413
  0
ARC
  5
34F
  8
DATA
  6
CONTINUOUS
 62
     7
 10
-608.82777073832767
 20
-812.56647324221103
 30
0.0
 40
2.564652676537921
 50
24.49825952211047
 51
88.262291690234008
  0
ARC
  5
350
  8
DATA
  6
CONTINUOUS
 62
     7
 10
-608.67222926167415
 20
-650.43952675778905
 30
0.0
 40
2.56465267653636
 50
204.49825952213189
 51
268.26229169027488
  0
ARC
  5
351
  8
DATA
  6
CONTINUOUS
 62
     7
 10
-607.95703769799366
 20
-650.00300000000016
 30
0.0
 40
3.3979623019959599
 50
153.80413887892911
 51
206.19586112107089
  0
ARC
  5
352
  8
DATA
  6
CONTINUOUS
 62
     7
 10
-608.67222926167415
 20
-649.56647324221103
 30
0.0
 40
2.564652676537484
 50
91.737708309725335
 51
155.50174047787269
  0
ARC
  5
353
  8
DATA
  6
CONTINUOUS
 62
     7
 10
-608.82777073832767
 20
-650.43952675778905
 30
0.0
 40
2.5646526765377682
 50
271.73770830976588
 51
335.50174047788488
  0
ARC
  5
354
  8
DATA
  6
CONTINUOUS
 62
     7
 10
-609.54296230200725
 20
-650.00300000000016
 30
0.0
 40
3.3979623019967762
 50
333.80413887893587
 51
26.19586112106413
  0
ARC
  5
355
  8
DATA
  6
CONTINUOUS
 62
     7
 10
-608.82777073832767
 20
-649.56647324221103
 30
0.0
 40
2.564652676537921
 50
24.49825952211047
 51
88.262291690234008
  0
ARC
  5
356
  8
DATA
  6
CONTINUOUS
 62
     7
 10
-608.67222926167415
 20
-490.6730267577891
 30
0.0
 40
2.5646526765362649
 50
204.49825952212731
 51
268.26229169027459
  0
ARC
  5
357
  8
DATA
  6
CONTINUOUS
 62
     7
 10
-607.95703769799366
 20
-490.23649999999992
 30
0.0
 40
3.3979623019959599
 50
153.80413887892911
 51
206.19586112107089
  0
ARC
  5
358
  8
DATA
  6
CONTINUOUS
 62
     7
 10
-608.67222926167415
 20
-489.79997324221108
 30
0.0
 40
2.5646526765377109
 50
91.737708309725164
 51
155.50174047786811
  0
ARC
  5
359
  8
DATA
  6
CONTINUOUS
 62
     7
 10
-608.82777073832767
 20
-490.6730267577891
 30
0.0
 40
2.5646526765375399
 50
271.73770830976599
 51
335.50174047788971
  0
ARC
  5
35A
  8
DATA
  6
CONTINUOUS
 62
     7
 10
-609.54296230200725
 20
-490.23649999999992
 30
0.0
 40
3.3979623019967762
 50
333.80413887893587
 51
26.19586112106413
  0
ARC
  5
35B
  8
DATA
  6
CONTINUOUS
 62
     7
 10
-608.82777073832767
 20
-489.79997324221108
 30
0.0
 40
2.5646526765380151
 50
24.498259522115092
 51
88.262291690234207
  0
ARC
  5
35C
  8
DATA
  6
CONTINUOUS
 62
     7
 10
-608.67222926167415
 20
-167.0334732422111
 30
0.0
 40
2.5646526765377109
 50
91.737708309725164
 51
155.50174047786811
  0
ARC
  5
35D
  8
DATA
  6
CONTINUOUS
 62
     7
 10
-607.95703769799366
 20
-167.47
 30
0.0
 40
3.3979623019959599
 50
153.80413887892911
 51
206.19586112107089
  0
ARC
  5
35E
  8
DATA
  6
CONTINUOUS
 62
     7
 10
-608.67222926167415
 20
-167.90652675778909
 30
0.0
 40
2.5646526765362649
 50
204.49825952212731
 51
268.26229169027459
  0
ARC
  5
35F
  8
DATA
  6
CONTINUOUS
 62
     7
 10
-608.82777073832767
 20
-167.0334732422111
 30
0.0
 40
2.5646526765380151
 50
24.498259522115092
 51
88.262291690234207
  0
ARC
  5
360
  8
DATA
  6
CONTINUOUS
 62
     7
 10
-609.54296230200725
 20
-167.47
 30
0.0
 40
3.3979623019967762
 50
333.80413887893587
 51
26.19586112106413
  0
ARC
  5
361
  8
DATA
  6
CONTINUOUS
 62
     7
 10
-608.82777073832767
 20
-167.90652675778909
 30
0.0
 40
2.5646526765375399
 50
271.73770830976599
 51
335.50174047788971
  0
ARC
  5
362
  8
DATA
  6
CONTINUOUS
 62
     7
 10
-608.67222926167324
 20
-330.03647324221112
 30
0.0
 40
2.5646526765375119
 50
91.737708309745642
 51
155.5017404778811
  0
ARC
  5
363
  8
DATA
  6
CONTINUOUS
 62
     7
 10
-607.95703769799275
 20
-330.47300000000018
 30
0.0
 40
3.3979623019967762
 50
153.80413887893579
 51
206.1958611210641
  0
ARC
  5
364
  8
DATA
  6
CONTINUOUS
 62
     7
 10
-608.67222926167324
 20
-330.90952675778908
 30
0.0
 40
2.5646526765371882
 50
204.4982595221235
 51
268.26229169025447
  0
ARC
  5
365
  8
DATA
  6
CONTINUOUS
 62
     7
 10
-608.82777073832676
 20
-330.03647324221112
 30
0.0
 40
2.564652676537921
 50
24.49825952211047
 51
88.262291690254386
  0
ARC
  5
366
  8
DATA
  6
CONTINUOUS
 62
     7
 10
-609.54296230200725
 20
-330.47300000000018
 30
0.0
 40
3.397962301997592
 50
333.80413887894258
 51
26.195861121057359
  0
ARC
  5
367
  8
DATA
  6
CONTINUOUS
 62
     7
 10
-608.82777073832676
 20
-330.90952675778908
 30
0.0
 40
2.5646526765377402
 50
271.73770830974559
 51
335.50174047788488
  0
CIRCLE
  5
368
  8
DATA
  6
CONTINUOUS
 62
     7
 10
-553.75
 20
-813.00300000000016
 30
0.0
 40
3.0
  0
CIRCLE
  5
369
  8
DATA
  6
CONTINUOUS
 62
     7
 10
-246.25
 20
-813.00300000000016
 30
0.0
 40
3.0
  0
CIRCLE
  5
36A
  8
DATA
  6
CONTINUOUS
 62
     7
 10
-553.75
 20
-167.4700000000002
 30
0.0
 40
3.0
  0
CIRCLE
  5
36B
  8
DATA
  6
CONTINUOUS
 62
     7
 10
-246.25
 20
-167.4700000000002
 30
0.0
 40
3.0
  0
ARC
  5
36C
  8
DATA
  6
CONTINUOUS
 62
     7
 10
-191.3277707383258
 20
-813.43952675778905
 30
0.0
 40
2.5646526765377109
 50
271.73770830972518
 51
335.501740477868
  0
ARC
  5
36D
  8
DATA
  6
CONTINUOUS
 62
     7
 10
-192.0429623020064
 20
-813.00300000000016
 30
0.0
 40
3.3979623019959599
 50
333.80413887892922
 51
26.195861121070891
  0
ARC
  5
36E
  8
DATA
  6
CONTINUOUS
 62
     7
 10
-191.3277707383258
 20
-812.56647324221103
 30
0.0
 40
2.5646526765362649
 50
24.49825952212732
 51
88.262291690274694
  0
ARC
  5
36F
  8
DATA
  6
CONTINUOUS
 62
     7
 10
-191.1722292616723
 20
-813.43952675778905
 30
0.0
 40
2.5646526765380151
 50
204.49825952211509
 51
268.26229169023412
  0
ARC
  5
370
  8
DATA
  6
CONTINUOUS
 62
     7
 10
-190.45703769799269
 20
-813.00300000000016
 30
0.0
 40
3.3979623019967762
 50
153.80413887893579
 51
206.1958611210641
  0
ARC
  5
371
  8
DATA
  6
CONTINUOUS
 62
     7
 10
-191.1722292616723
 20
-812.56647324221103
 30
0.0
 40
2.5646526765375399
 50
91.737708309765949
 51
155.50174047788951
  0
ARC
  5
372
  8
DATA
  6
CONTINUOUS
 62
     7
 10
-191.3277707383258
 20
-650.43952675778905
 30
0.0
 40
2.5646526765377109
 50
271.73770830972518
 51
335.501740477868
  0
ARC
  5
373
  8
DATA
  6
CONTINUOUS
 62
     7
 10
-192.0429623020064
 20
-650.00300000000016
 30
0.0
 40
3.3979623019959599
 50
333.80413887892922
 51
26.195861121070891
  0
ARC
  5
374
  8
DATA
  6
CONTINUOUS
 62
     7
 10
-191.3277707383258
 20
-649.56647324221103
 30
0.0
 40
2.5646526765362649
 50
24.49825952212732
 51
88.262291690274694
  0
ARC
  5
375
  8
DATA
  6
CONTINUOUS
 62
     7
 10
-191.1722292616723
 20
-650.43952675778905
 30
0.0
 40
2.5646526765380151
 50
204.49825952211509
 51
268.26229169023412
  0
ARC
  5
376
  8
DATA
  6
CONTINUOUS
 62
     7
 10
-190.45703769799269
 20
-650.00300000000016
 30
0.0
 40
3.3979623019967762
 50
153.80413887893579
 51
206.1958611210641
  0
ARC
  5
377
  8
DATA
  6
CONTINUOUS
 62
     7
 10
-191.1722292616723
 20
-649.56647324221103
 30
0.0
 40
2.5646526765375399
 50
91.737708309765949
 51
155.50174047788951
  0
ARC
  5
378
  8
DATA
  6
CONTINUOUS
 62
     7
 10
-191.3277707383258
 20
-490.6730267577891
 30
0.0
 40
2.564652676537484
 50
271.73770830972529
 51
335.50174047787272
  0
ARC
  5
379
  8
DATA
  6
CONTINUOUS
 62
     7
 10
-192.0429623020064
 20
-490.23649999999992
 30
0.0
 40
3.3979623019959599
 50
333.80413887892922
 51
26.195861121070891
  0
ARC
  5
37A
  8
DATA
  6
CONTINUOUS
 62
     7
 10
-191.3277707383258
 20
-489.79997324221108
 30
0.0
 40
2.56465267653636
 50
24.498259522131939
 51
88.262291690274807
  0
ARC
  5
37B
  8
DATA
  6
CONTINUOUS
 62
     7
 10
-191.1722292616723
 20
-490.6730267577891
 30
0.0
 40
2.564652676537921
 50
204.49825952211049
 51
268.26229169023412
  0
ARC
  5
37C
  8
DATA
  6
CONTINUOUS
 62
     7
 10
-190.45703769799269
 20
-490.23649999999992
 30
0.0
 40
3.3979623019967762
 50
153.80413887893579
 51
206.1958611210641
  0
ARC
  5
37D
  8
DATA
  6
CONTINUOUS
 62
     7
 10
-191.1722292616723
 20
-489.79997324221108
 30
0.0
 40
2.5646526765377682
 50
91.737708309765807
 51
155.50174047788491
  0
ARC
  5
37E
  8
DATA
  6
CONTINUOUS
 62
     7
 10
-191.3277707383258
 20
-167.0334732422111
 30
0.0
 40
2.56465267653636
 50
24.498259522131939
 51
88.262291690274807
  0
ARC
  5
37F
  8
DATA
  6
CONTINUOUS
 62
     7
 10
-192.0429623020064
 20
-167.47
 30
0.0
 40
3.3979623019959599
 50
333.80413887892922
 51
26.195861121070891
  0
ARC
  5
380
  8
DATA
  6
CONTINUOUS
 62
     7
 10
-191.3277707383258
 20
-167.90652675778909
 30
0.0
 40
2.564652676537484
 50
271.73770830972529
 51
335.50174047787272
  0
ARC
  5
381
  8
DATA
  6
CONTINUOUS
 62
     7
 10
-191.1722292616723
 20
-167.0334732422111
 30
0.0
 40
2.5646526765377682
 50
91.737708309765807
 51
155.50174047788491
  0
ARC
  5
382
  8
DATA
  6
CONTINUOUS
 62
     7
 10
-190.45703769799269
 20
-167.47
 30
0.0
 40
3.3979623019967762
 50
153.80413887893579
 51
206.1958611210641
  0
ARC
  5
383
  8
DATA
  6
CONTINUOUS
 62
     7
 10
-191.1722292616723
 20
-167.90652675778909
 30
0.0
 40
2.564652676537921
 50
204.49825952211049
 51
268.26229169023412
  0
ARC
  5
384
  8
DATA
  6
CONTINUOUS
 62
     7
 10
-191.32777073832679
 20
-330.03647324221112
 30
0.0
 40
2.5646526765370932
 50
24.498259522118889
 51
88.262291690254386
  0
ARC
  5
385
  8
DATA
  6
CONTINUOUS
 62
     7
 10
-192.0429623020072
 20
-330.47300000000018
 30
0.0
 40
3.3979623019967762
 50
333.80413887893587
 51
26.19586112106413
  0
ARC
  5
386
  8
DATA
  6
CONTINUOUS
 62
     7
 10
-191.32777073832679
 20
-330.90952675778908
 30
0.0
 40
2.5646526765377402
 50
271.73770830974559
 51
335.50174047787652
  0
ARC
  5
387
  8
DATA
  6
CONTINUOUS
 62
     7
 10
-191.17222926167321
 20
-330.03647324221112
 30
0.0
 40
2.5646526765375119
 50
91.737708309745642
 51
155.50174047788951
  0
ARC
  5
388
  8
DATA
  6
CONTINUOUS
 62
     7
 10
-190.45703769799269
 20
-330.47300000000018
 30
0.0
 40
3.397962301997592
 50
153.80413887894261
 51
206.19586112105731
  0
ARC
  5
389
  8
DATA
  6
CONTINUOUS
 62
     7
 10
-191.17222926167321
 20
-330.90952675778908
 30
0.0
 40
2.5646526765380151
 50
204.49825952211509
 51
268.26229169025447
  0
CIRCLE
  5
38A
  8
DATA
  6
CONTINUOUS
 62
     7
 10
-1107.40625
 20
-462.22300000000001
 30
0.0
 40
3.5
  0
CIRCLE
  5
38B
  8
DATA
  6
CONTINUOUS
 62
     7
 10
-959.40624999999989
 20
-462.22300000000001
 30
0.0
 40
3.5
  0
CIRCLE
  5
38C
  8
DATA
  6
CONTINUOUS
 62
     7
 10
-1107.40625
 20
-512.72300000000007
 30
0.0
 40
3.5
  0
CIRCLE
  5
38D
  8
DATA
  6
CONTINUOUS
 62
     7
 10
-959.40624999999989
 20
-512.72300000000007
 30
0.0
 40
3.5
  0
ARC
  5
38E
  8
DATA
  6
CONTINUOUS
 62
     7
 10
-1081.40625
 20
-463.97300000000013
 30
0.0
 40
7.5
 50
180.0
 51
279.05407761439278
  0
ARC
  5
38F
  8
DATA
  6
CONTINUOUS
 62
     7
 10
-985.40624999999989
 20
-463.97300000000013
 30
0.0
 40
7.500000000000191
 50
282.7115793050458
 51
0.0
  0
ARC
  5
390
  8
DATA
  6
CONTINUOUS
 62
     7
 10
-1031.40625
 20
-1095.473
 30
0.0
 40
625.99999999999977
 50
85.634495406079921
 51
94.581220085277053
  0
ARC
  5
391
  8
DATA
  6
CONTINUOUS
 62
     7
 10
-1081.40625
 20
-510.97300000000013
 30
0.0
 40
7.4999999999999316
 50
80.94592238560702
 51
180.0
  0
ARC
  5
392
  8
DATA
  6
CONTINUOUS
 62
     7
 10
-985.40624999999989
 20
-510.97300000000013
 30
0.0
 40
7.5
 50
0.0
 51
77.288420694953857
  0
ARC
  5
393
  8
DATA
  6
CONTINUOUS
 62
     7
 10
-1031.40625
 20
120.5269999999998
 30
0.0
 40
626.00000000000011
 50
265.4187799147229
 51
274.36550459392032
  0
ARC
  5
394
  8
DATA
  6
CONTINUOUS
 62
     7
 10
-992.90625
 20
-552.47300000000007
 30
0.0
 40
15.0
 50
270.0
 51
0.0
  0
ARC
  5
395
  8
DATA
  6
CONTINUOUS
 62
     7
 10
-1073.90625
 20
-552.47300000000007
 30
0.0
 40
15.0
 50
180.0
 51
270.0
  0
ARC
  5
396
  8
DATA
  6
CONTINUOUS
 62
     7
 10
-992.90625
 20
-422.47300000000001
 30
0.0
 40
15.0
 50
0.0
 51
90.0
  0
ARC
  5
397
  8
DATA
  6
CONTINUOUS
 62
     7
 10
-1073.90625
 20
-422.47300000000001
 30
0.0
 40
14.999999999999879
 50
90.0
 51
180.0
  0
ARC
  5
398
  8
DATA
  6
CONTINUOUS
 62
     7
 10
-400.0
 20
321.38893395655401
 30
0.0
 40
9.9999999999997673
 50
54.940573033116173
 51
125.05942696688381
  0
ARC
  5
399
  8
DATA
  6
CONTINUOUS
 62
     7
 10
-447.0
 20
288.40647781620311
 30
0.0
 40
9.9999999999995826
 50
125.0594269668845
 51
180.0
  0
ARC
  5
39A
  8
DATA
  6
CONTINUOUS
 62
     7
 10
-447.0
 20
243.605558769574
 30
0.0
 40
10.0
 50
180.0
 51
270.0
  0
ARC
  5
39B
  8
DATA
  6
CONTINUOUS
 62
     7
 10
-353.0
 20
243.605558769574
 30
0.0
 40
10.0
 50
270.0
 51
0.0
  0
ARC
  5
39C
  8
DATA
  6
CONTINUOUS
 62
     7
 10
-353.0
 20
288.40647781620311
 30
0.0
 40
10.0
 50
0.0
 51
54.940573033115399
  0
ARC
  5
39D
  8
DATA
  6
CONTINUOUS
 62
     7
 10
-196.25
 20
-1300.8274267137849
 30
0.0
 40
15.00000000000005
 50
300.0
 51
0.0
  0
ARC
  5
39E
  8
DATA
  6
CONTINUOUS
 62
     7
 10
-216.25
 20
-1289.2804213299919
 30
0.0
 40
15.00000000000005
 50
300.0
 51
0.0
  0
ARC
  5
39F
  8
DATA
  6
CONTINUOUS
 62
     7
 10
-395.73474857017442
 20
-1416.0
 30
0.0
 40
15.0
 50
269.9999999999996
 51
299.9999999999996
  0
ARC
  5
3A0
  8
DATA
  6
CONTINUOUS
 62
     7
 10
-401.09373241879678
 20
-1396.0
 30
0.0
 40
15.0
 50
269.9999999999996
 51
299.9999999999996
  0
ARC
  5
3A1
  8
DATA
  6
CONTINUOUS
 62
     7
 10
-959.40624999999989
 20
-402.4730000000003
 30
0.0
 40
15.0
 50
0.0
 51
90.0
  0
ARC
  5
3A2
  8
DATA
  6
CONTINUOUS
 62
     7
 10
-1107.40625
 20
-402.4730000000003
 30
0.0
 40
15.0
 50
90.0
 51
180.0
  0
ARC
  5
3A3
  8
DATA
  6
CONTINUOUS
 62
     7
 10
-1107.40625
 20
-572.47300000000007
 30
0.0
 40
15.0
 50
180.0
 51
270.0
  0
ARC
  5
3A4
  8
DATA
  6
CONTINUOUS
 62
     7
 10
-959.40624999999989
 20
-572.47300000000007
 30
0.0
 40
15.0
 50
270.0
 51
0.0
  0
ARC
  5
3A5
  8
DATA
  6
CONTINUOUS
 62
     7
 10
-196.25
 20
250.9354609806575
 30
0.0
 40
15.0
 50
0.0
 51
60.000000000000057
  0
ARC
  5
3A6
  8
DATA
  6
CONTINUOUS
 62
     7
 10
-216.25
 20
239.38845559686479
 30
0.0
 40
15.0
 50
0.0
 51
60.000000000000057
  0
ARC
  5
3A7
  8
DATA
  6
CONTINUOUS
 62
     7
 10
-395.54762773099299
 20
366.0
 30
0.0
 40
14.999999999999989
 50
60.00000000000049
 51
90.000000000000455
  0
ARC
  5
3A8
  8
DATA
  6
CONTINUOUS
 62
     7
 10
-400.90661157961529
 20
346.0
 30
0.0
 40
14.999999999999989
 50
60.00000000000049
 51
90.000000000000455
  0
ARC
  5
3A9
  8
DATA
  6
CONTINUOUS
 62
     7
 10
-400.0
 20
321.38893395655401
 30
0.0
 40
10.00000000000003
 50
54.940573033114042
 51
125.05942696688589
  0
ARC
  5
3AA
  8
DATA
  6
CONTINUOUS
 62
     7
 10
-447.0
 20
288.40647781620311
 30
0.0
 40
9.9999999999999361
 50
125.05942696688631
 51
180.0
  0
ARC
  5
3AB
  8
DATA
  6
CONTINUOUS
 62
     7
 10
-447.0
 20
243.605558769574
 30
0.0
 40
10.0
 50
180.0
 51
270.0
  0
ARC
  5
3AC
  8
DATA
  6
CONTINUOUS
 62
     7
 10
-353.0
 20
243.605558769574
 30
0.0
 40
10.0
 50
270.0
 51
0.0
  0
ARC
  5
3AD
  8
DATA
  6
CONTINUOUS
 62
     7
 10
-353.0
 20
288.40647781620311
 30
0.0
 40
10.0
 50
0.0
 51
54.940573033113822
  0
CIRCLE
  5
3AE
  8
DATA
  6
CONTINUOUS
 62
     7
 10
-421.50425749096428
 20
283.60450088117813
 30
0.0
 40
11.75
  0
ARC
  5
3AF
  8
DATA
  6
CONTINUOUS
 62
     7
 10
-421.50425749096428
 20
283.60450088117813
 30
0.0
 40
8.8000026774142093
 50
19.93226415067932
 51
167.19616681970041
  0
ARC
  5
3B0
  8
DATA
  6
CONTINUOUS
 62
     7
 10
-421.50425749096428
 20
283.60450088117813
 30
0.0
 40
8.8000035043457085
 50
192.99999955542151
 51
339.99999423796248
  0
ARC
  5
3B1
  8
DATA
  6
CONTINUOUS
 62
     7
 10
-421.50425749096428
 20
283.60450088117813
 30
0.0
 40
6.2000021620642736
 50
330.00001153556133
 51
60.000011535562457
  0
ARC
  5
3B2
  8
DATA
  6
CONTINUOUS
 62
     7
 10
-421.50425749096428
 20
283.60450088117813
 30
0.0
 40
6.2000021620642736
 50
150.0000115355613
 51
240.00001153556221
  0
ARC
  5
3B3
  8
DATA
  6
CONTINUOUS
 62
     7
 10
-421.50425749096428
 20
283.60450088117813
 30
0.0
 40
5.625003831581032
 50
59.999669682101363
 51
150.00021260430259
  0
ARC
  5
3B4
  8
DATA
  6
CONTINUOUS
 62
     7
 10
-421.50425749096428
 20
283.60450088117813
 30
0.0
 40
5.6249961520342593
 50
240.00021260430231
 51
330.00071824312357
  0
ARC
  5
3B5
  8
DATA
  6
CONTINUOUS
 62
     7
 10
-421.50425749096428
 20
283.60450088117813
 30
0.0
 40
3.59999008087506
 50
329.99990885470447
 51
59.999908854700948
  0
ARC
  5
3B6
  8
DATA
  6
CONTINUOUS
 62
     7
 10
-421.50425749096428
 20
283.60450088117813
 30
0.0
 40
3.59999008087506
 50
149.9999088547045
 51
239.99990885470049
  0
ARC
  5
3B7
  8
DATA
  6
CONTINUOUS
 62
     7
 10
-421.50425749096428
 20
283.60450088117813
 30
0.0
 40
2.9000018208615339
 50
59.999792634030399
 51
150.00023362383249
  0
ARC
  5
3B8
  8
DATA
  6
CONTINUOUS
 62
     7
 10
-421.50425749096428
 20
283.60450088117813
 30
0.0
 40
2.9000004811206899
 50
240.0002336238291
 51
329.99979263403372
  0
CIRCLE
  5
3B9
  8
DATA
  6
CONTINUOUS
 62
     7
 10
-1019.0
 20
-180.5030000000001
 30
0.0
 40
11.17600000000038
  0
CIRCLE
  5
3BA
  8
DATA
  6
CONTINUOUS
 62
     7
 10
-1019.0
 20
-800.0
 30
0.0
 40
11.17600000000038
  0
CIRCLE
  5
3BB
  8
DATA
  6
CONTINUOUS
 62
     7
 10
-573.74999999999989
 20
200.0
 30
0.0
 40
11.17600000000038
  0
CIRCLE
  5
3BC
  8
DATA
  6
CONTINUOUS
 62
     7
 10
-226.25
 20
200.0
 30
0.0
 40
11.17600000000038
  0
CIRCLE
  5
3BD
  8
DATA
  6
CONTINUOUS
 62
     7
 10
-573.74999999999989
 20
-1250.0
 30
0.0
 40
11.17600000000038
  0
CIRCLE
  5
3BE
  8
DATA
  6
CONTINUOUS
 62
     7
 10
-226.25
 20
-1250.0
 30
0.0
 40
11.17600000000038
  0
CIRCLE
  5
3BF
  8
DATA
  6
CONTINUOUS
 62
     7
 10
250.0
 20
-180.5030000000001
 30
0.0
 40
11.17600000000038
  0
CIRCLE
  5
3C0
  8
DATA
  6
CONTINUOUS
 62
     7
 10
250.0
 20
-800.0
 30
0.0
 40
11.17600000000038
  0
CIRCLE
  5
3C1
  8
DATA
  6
CONTINUOUS
 62
     7
 10
-400.0
 20
-1365.0
 30
0.0
 40
11.75
  0
CIRCLE
  5
3C2
  8
DATA
  6
CONTINUOUS
 62
     7
 10
-414.59999999999991
 20
-1379.5999999999999
 30
0.0
 40
3.5
  0
CIRCLE
  5
3C3
  8
DATA
  6
CONTINUOUS
 62
     7
 10
-385.39999999999998
 20
-1379.5999999999999
 30
0.0
 40
3.5
  0
CIRCLE
  5
3C4
  8
DATA
  6
CONTINUOUS
 62
     7
 10
-385.39999999999998
 20
-1350.4000000000001
 30
0.0
 40
3.5
  0
CIRCLE
  5
3C5
  8
DATA
  6
CONTINUOUS
 62
     7
 10
-414.59999999999991
 20
-1350.4000000000001
 30
0.0
 40
3.5
  0
CIRCLE
  5
3C6
  8
DATA
  6
CONTINUOUS
 62
     7
 10
-400.0
 20
-1365.0
 30
0.0
 40
25.399999999999981
  0
ARC
  5
3C7
  8
DATA
  6
CONTINUOUS
 62
     7
 10
-400.0
 20
-1365.0
 30
0.0
 40
8.8000026774144242
 50
109.9322641506788
 51
257.19616681969973
  0
ARC
  5
3C8
  8
DATA
  6
CONTINUOUS
 62
     7
 10
-400.0
 20
-1365.0
 30
0.0
 40
8.7999959934138481
 50
283.13656487499628
 51
70.067880462583702
  0
ARC
  5
3C9
  8
DATA
  6
CONTINUOUS
 62
     7
 10
-400.0
 20
-1365.0
 30
0.0
 40
6.2000021620640764
 50
60.000011535560219
 51
150.00001153556141
  0
ARC
  5
3CA
  8
DATA
  6
CONTINUOUS
 62
     7
 10
-400.0
 20
-1365.0
 30
0.0
 40
6.2000021620640764
 50
240.00001153556019
 51
330.0000115355615
  0
ARC
  5
3CB
  8
DATA
  6
CONTINUOUS
 62
     7
 10
-400.0
 20
-1365.0
 30
0.0
 40
5.6250038315808677
 50
149.9996696821031
 51
240.00021260430319
  0
ARC
  5
3CC
  8
DATA
  6
CONTINUOUS
 62
     7
 10
-400.0
 20
-1365.0
 30
0.0
 40
5.6249961520342593
 50
330.00021260430242
 51
60.000718243123117
  0
ARC
  5
3CD
  8
DATA
  6
CONTINUOUS
 62
     7
 10
-400.0
 20
-1365.0
 30
0.0
 40
3.5999900808752838
 50
59.999908854705588
 51
149.99990885470589
  0
ARC
  5
3CE
  8
DATA
  6
CONTINUOUS
 62
     7
 10
-400.0
 20
-1365.0
 30
0.0
 40
3.5999900808752838
 50
239.99990885470561
 51
329.99990885470589
  0
ARC
  5
3CF
  8
DATA
  6
CONTINUOUS
 62
     7
 10
-400.0
 20
-1365.0
 30
0.0
 40
2.9000018208614842
 50
149.9997926340298
 51
240.0002336238293
  0
ARC
  5
3D0
  8
DATA
  6
CONTINUOUS
 62
     7
 10
-400.0
 20
-1365.0
 30
0.0
 40
2.9000004811206899
 50
330.0002336238291
 51
59.999792634029397
  0
LINE
  5
3D1
  8
DATA
  6
CONTINUOUS
 62
     7
 10
-403.0
 20
-1355.0
 30
0.0
 11
-397.0
 21
-1355.0
 31
0.0
  0
LINE
  5
3D2
  8
DATA
  6
CONTINUOUS
 62
     7
 10
-402.0
 20
-1375.0
 30
0.0
 11
-398.0
 21
-1375.0
 31
0.0
  0
LINE
  5
3D3
  8
DATA
  6
CONTINUOUS
 62
     7
 10
-402.0
 20
-1375.0
 30
0.0
 11
-402.0
 21
-1373.8
 31
0.0
  0
LINE
  5
3D4
  8
DATA
  6
CONTINUOUS
 62
     7
 10
-398.0
 20
-1375.0
 30
0.0
 11
-398.0
 21
-1373.8
 31
0.0
  0
LINE
  5
3D5
  8
DATA
  6
CONTINUOUS
 62
     7
 10
-403.0
 20
-1355.0
 30
0.0
 11
-403.0
 21
-1356.7271499999999
 31
0.0
  0
LINE
  5
3D6
  8
DATA
  6
CONTINUOUS
 62
     7
 10
-397.0
 20
-1355.0
 30
0.0
 11
-397.0
 21
-1356.7271499999999
 31
0.0
  0
LINE
  5
3D7
  8
DATA
  6
CONTINUOUS
 62
     7
 10
-405.36934000000002
 20
-1361.8999699999999
 30
0.0
 11
-404.87137999999987
 21
-1362.1874700000001
 31
0.0
  0
LINE
  5
3D8
  8
DATA
  6
CONTINUOUS
 62
     7
 10
-396.90003000000002
 20
-1359.6306199999999
 30
0.0
 11
-397.18752999999998
 21
-1360.12859
 31
0.0
  0
LINE
  5
3D9
  8
DATA
  6
CONTINUOUS
 62
     7
 10
-403.10000000000002
 20
-1370.3693599999999
 30
0.0
 11
-402.8125
 21
-1369.87139
 31
0.0
  0
LINE
  5
3DA
  8
DATA
  6
CONTINUOUS
 62
     7
 10
-394.63063
 20
-1368.09998
 30
0.0
 11
-395.12860000000001
 21
-1367.8124800000001
 31
0.0
  0
LINE
  5
3DB
  8
DATA
  6
CONTINUOUS
 62
     7
 10
-398.20001999999999
 20
-1361.88231
 30
0.0
 11
-398.55000999999999
 21
-1362.4885200000001
 31
0.0
  0
LINE
  5
3DC
  8
DATA
  6
CONTINUOUS
 62
     7
 10
-403.11766999999992
 20
-1363.1999900000001
 30
0.0
 11
-402.51146999999992
 21
-1363.54999
 31
0.0
  0
LINE
  5
3DD
  8
DATA
  6
CONTINUOUS
 62
     7
 10
-401.7999999999999
 20
-1368.1176800000001
 30
0.0
 11
-401.44999999999987
 21
-1367.5114699999999
 31
0.0
  0
LINE
  5
3DE
  8
DATA
  6
CONTINUOUS
 62
     7
 10
-396.88231000000002
 20
-1366.79998
 30
0.0
 11
-397.48851999999999
 21
-1366.4499900000001
 31
0.0
  0
LINE
  5
3DF
  8
DATA
  6
CONTINUOUS
 62
     7
 10
-416.60000000000002
 20
-1350.4000000000001
 30
0.0
 11
-412.60000000000002
 21
-1350.4000000000001
 31
0.0
  0
LINE
  5
3E0
  8
DATA
  6
CONTINUOUS
 62
     7
 10
-414.59999999999991
 20
-1348.4000000000001
 30
0.0
 11
-414.59999999999991
 21
-1352.4000000000001
 31
0.0
  0
LINE
  5
3E1
  8
DATA
  6
CONTINUOUS
 62
     7
 10
-416.60000000000002
 20
-1379.5999999999999
 30
0.0
 11
-412.60000000000002
 21
-1379.5999999999999
 31
0.0
  0
LINE
  5
3E2
  8
DATA
  6
CONTINUOUS
 62
     7
 10
-414.59999999999991
 20
-1377.5999999999999
 30
0.0
 11
-414.59999999999991
 21
-1381.5999999999999
 31
0.0
  0
LINE
  5
3E3
  8
DATA
  6
CONTINUOUS
 62
     7
 10
-387.39999999999998
 20
-1379.5999999999999
 30
0.0
 11
-383.39999999999992
 21
-1379.5999999999999
 31
0.0
  0
LINE
  5
3E4
  8
DATA
  6
CONTINUOUS
 62
     7
 10
-385.39999999999998
 20
-1377.5999999999999
 30
0.0
 11
-385.39999999999998
 21
-1381.5999999999999
 31
0.0
  0
LINE
  5
3E5
  8
DATA
  6
CONTINUOUS
 62
     7
 10
-387.39999999999998
 20
-1350.4000000000001
 30
0.0
 11
-383.39999999999992
 21
-1350.4000000000001
 31
0.0
  0
LINE
  5
3E6
  8
DATA
  6
CONTINUOUS
 62
     7
 10
-385.39999999999998
 20
-1348.4000000000001
 30
0.0
 11
-385.39999999999998
 21
-1352.4000000000001
 31
0.0
  0
LINE
  5
3E7
  8
DATA
  6
CONTINUOUS
 62
     7
 10
-389.38397459621513
 20
-1248.387495373797
 30
0.0
 11
-385.38397459621513
 21
-1255.3156986040719
 31
0.0
  0
LINE
  5
3E8
  8
DATA
  6
CONTINUOUS
 62
     7
 10
-391.11602540378402
 20
-1249.3874953737959
 30
0.0
 11
-389.38397459621513
 21
-1248.387495373797
 31
0.0
  0
LINE
  5
3E9
  8
DATA
  6
CONTINUOUS
 62
     7
 10
-387.11602540378402
 20
-1256.3156986040719
 30
0.0
 11
-391.11602540378402
 21
-1249.3874953737959
 31
0.0
  0
LINE
  5
3EA
  8
DATA
  6
CONTINUOUS
 62
     7
 10
-385.38397459621513
 20
-1255.3156986040719
 30
0.0
 11
-387.11602540378402
 21
-1256.3156986040719
 31
0.0
  0
LINE
  5
3EB
  8
DATA
  6
CONTINUOUS
 62
     7
 10
-382.61250462620228
 20
-1240.883974596215
 30
0.0
 11
-375.68430139592681
 21
-1244.883974596215
 31
0.0
  0
LINE
  5
3EC
  8
DATA
  6
CONTINUOUS
 62
     7
 10
-383.61250462620239
 20
-1242.616025403785
 30
0.0
 11
-382.61250462620228
 21
-1240.883974596215
 31
0.0
  0
LINE
  5
3ED
  8
DATA
  6
CONTINUOUS
 62
     7
 10
-376.68430139592681
 20
-1246.6160254037841
 30
0.0
 11
-383.61250462620239
 21
-1242.616025403785
 31
0.0
  0
LINE
  5
3EE
  8
DATA
  6
CONTINUOUS
 62
     7
 10
-375.68430139592681
 20
-1244.883974596215
 30
0.0
 11
-376.68430139592681
 21
-1246.6160254037841
 31
0.0
  0
LINE
  5
3EF
  8
DATA
  6
CONTINUOUS
 62
     7
 10
-414.61602540378402
 20
-1255.3156986040719
 30
0.0
 11
-410.61602540378402
 21
-1248.387495373797
 31
0.0
  0
LINE
  5
3F0
  8
DATA
  6
CONTINUOUS
 62
     7
 10
-412.88397459621513
 20
-1256.3156986040719
 30
0.0
 11
-414.61602540378402
 21
-1255.3156986040719
 31
0.0
  0
LINE
  5
3F1
  8
DATA
  6
CONTINUOUS
 62
     7
 10
-408.88397459621513
 20
-1249.3874953737959
 30
0.0
 11
-412.88397459621513
 21
-1256.3156986040719
 31
0.0
  0
LINE
  5
3F2
  8
DATA
  6
CONTINUOUS
 62
     7
 10
-410.61602540378402
 20
-1248.387495373797
 30
0.0
 11
-408.88397459621513
 21
-1249.3874953737959
 31
0.0
  0
LINE
  5
3F3
  8
DATA
  6
CONTINUOUS
 62
     7
 10
-424.31569860407132
 20
-1244.883974596215
 30
0.0
 11
-417.38749537379579
 21
-1240.883974596215
 31
0.0
  0
LINE
  5
3F4
  8
DATA
  6
CONTINUOUS
 62
     7
 10
-423.31569860407137
 20
-1246.6160254037841
 30
0.0
 11
-424.31569860407132
 21
-1244.883974596215
 31
0.0
  0
LINE
  5
3F5
  8
DATA
  6
CONTINUOUS
 62
     7
 10
-416.38749537379579
 20
-1242.616025403785
 30
0.0
 11
-423.31569860407137
 21
-1246.6160254037841
 31
0.0
  0
LINE
  5
3F6
  8
DATA
  6
CONTINUOUS
 62
     7
 10
-417.38749537379579
 20
-1240.883974596215
 30
0.0
 11
-416.38749537379579
 21
-1242.616025403785
 31
0.0
  0
LINE
  5
3F7
  8
DATA
  6
CONTINUOUS
 62
     7
 10
201.37441897478951
 20
-854.0
 30
0.0
 11
201.37441897478951
 21
-850.00000000000011
 31
0.0
  0
LINE
  5
3F8
  8
DATA
  6
CONTINUOUS
 62
     7
 10
150.62441897478951
 20
-854.0
 30
0.0
 11
201.37441897478951
 21
-854.0
 31
0.0
  0
LINE
  5
3F9
  8
DATA
  6
CONTINUOUS
 62
     7
 10
150.62441897478951
 20
-850.00000000000011
 30
0.0
 11
150.62441897478951
 21
-854.0
 31
0.0
  0
LINE
  5
3FA
  8
DATA
  6
CONTINUOUS
 62
     7
 10
-1103.0050000000001
 20
-854.0
 30
0.0
 11
-1103.0050000000001
 21
-850.0
 31
0.0
  0
LINE
  5
3FB
  8
DATA
  6
CONTINUOUS
 62
     7
 10
-1153.7550000000001
 20
-854.0
 30
0.0
 11
-1103.0050000000001
 21
-854.0
 31
0.0
  0
LINE
  5
3FC
  8
DATA
  6
CONTINUOUS
 62
     7
 10
-1153.7550000000001
 20
-850.0
 30
0.0
 11
-1153.7550000000001
 21
-854.0
 31
0.0
  0
LINE
  5
3FD
  8
DATA
  6
CONTINUOUS
 62
     7
 10
-376.03695475313032
 20
-1426.5667836664929
 30
0.0
 11
-378.03695475313032
 21
-1423.1026820513559
 31
0.0
  0
LINE
  5
3FE
  8
DATA
  6
CONTINUOUS
 62
     7
 10
-339.66388779418389
 20
-1405.5667836664929
 30
0.0
 11
-376.03695475313032
 21
-1426.5667836664929
 31
0.0
  0
LINE
  5
3FF
  8
DATA
  6
CONTINUOUS
 62
     7
 10
-341.66388779418389
 20
-1402.1026820513559
 30
0.0
 11
-339.66388779418389
 21
-1405.5667836664929
 31
0.0
  0
LINE
  5
400
  8
DATA
  6
CONTINUOUS
 62
     7
 10
-237.6495810599817
 20
-1346.668796212309
 30
0.0
 11
-239.6495810599817
 21
-1343.2046945971711
 31
0.0
  0
LINE
  5
401
  8
DATA
  6
CONTINUOUS
 62
     7
 10
-201.2765141010353
 20
-1325.668796212309
 30
0.0
 11
-237.6495810599817
 21
-1346.668796212309
 31
0.0
  0
LINE
  5
402
  8
DATA
  6
CONTINUOUS
 62
     7
 10
-203.2765141010353
 20
-1322.2046945971711
 30
0.0
 11
-201.2765141010353
 21
-1325.668796212309
 31
0.0
  0
LINE
  5
403
  8
DATA
  6
CONTINUOUS
 62
     7
 10
-375.07390717262189
 20
371.5
 30
0.0
 11
-373.07390717262177
 21
374.96410161513779
 31
0.0
  0
LINE
  5
404
  8
DATA
  6
CONTINUOUS
 62
     7
 10
-336.70084021367541
 20
353.96410161513779
 30
0.0
 11
-338.70084021367541
 21
350.5
 31
0.0
  0
LINE
  5
405
  8
DATA
  6
CONTINUOUS
 62
     7
 10
-373.07390717262177
 20
374.96410161513779
 30
0.0
 11
-336.70084021367541
 21
353.96410161513779
 31
0.0
  0
LINE
  5
406
  8
DATA
  6
CONTINUOUS
 62
     7
 10
-236.68653347947321
 20
291.60201254581528
 30
0.0
 11
-234.68653347947321
 21
295.06611416095319
 31
0.0
  0
LINE
  5
407
  8
DATA
  6
CONTINUOUS
 62
     7
 10
-198.31346652052679
 20
274.06611416095308
 30
0.0
 11
-200.31346652052679
 21
270.60201254581528
 31
0.0
  0
LINE
  5
408
  8
DATA
  6
CONTINUOUS
 62
     7
 10
-234.68653347947321
 20
295.06611416095319
 30
0.0
 11
-198.31346652052679
 21
274.06611416095308
 31
0.0
  0
POLYLINE
  5
409
  8
DATA
  6
CONTINUOUS
 62
     7
 66
     1
 10
0.0
 20
0.0
 30
0.0
 70
     1
  0
VERTEX
  5
687
  8
DATA
  6
CONTINUOUS
 62
     7
 10
-372.5
 20
-1231.0
 30
0.0
  0
VERTEX
  5
688
  8
DATA
  6
CONTINUOUS
 62
     7
 10
-372.5
 20
-1233.0
 30
0.0
  0
VERTEX
  5
689
  8
DATA
  6
CONTINUOUS
 62
     7
 10
-380.5
 20
-1233.0
 30
0.0
  0
VERTEX
  5
68A
  8
DATA
  6
CONTINUOUS
 62
     7
 10
-380.5
 20
-1231.0
 30
0.0
  0
SEQEND
  5
68B
  8
DATA
  6
CONTINUOUS
 62
     7
  0
POLYLINE
  5
410
  8
DATA
  6
CONTINUOUS
 62
     7
 66
     1
 10
0.0
 20
0.0
 30
0.0
 70
     1
  0
VERTEX
  5
68C
  8
DATA
  6
CONTINUOUS
 62
     7
 10
-389.38397459621513
 20
-1215.612504626203
 30
0.0
  0
VERTEX
  5
68D
  8
DATA
  6
CONTINUOUS
 62
     7
 10
-391.11602540378402
 20
-1214.612504626203
 30
0.0
  0
VERTEX
  5
68E
  8
DATA
  6
CONTINUOUS
 62
     7
 10
-387.11602540378402
 20
-1207.6843013959281
 30
0.0
  0
VERTEX
  5
68F
  8
DATA
  6
CONTINUOUS
 62
     7
 10
-385.38397459621513
 20
-1208.6843013959281
 30
0.0
  0
SEQEND
  5
690
  8
DATA
  6
CONTINUOUS
 62
     7
  0
POLYLINE
  5
417
  8
DATA
  6
CONTINUOUS
 62
     7
 66
     1
 10
0.0
 20
0.0
 30
0.0
 70
     1
  0
VERTEX
  5
691
  8
DATA
  6
CONTINUOUS
 62
     7
 10
-382.61250462620228
 20
-1223.1160254037841
 30
0.0
  0
VERTEX
  5
692
  8
DATA
  6
CONTINUOUS
 62
     7
 10
-383.61250462620239
 20
-1221.383974596215
 30
0.0
  0
VERTEX
  5
693
  8
DATA
  6
CONTINUOUS
 62
     7
 10
-376.68430139592681
 20
-1217.383974596215
 30
0.0
  0
VERTEX
  5
694
  8
DATA
  6
CONTINUOUS
 62
     7
 10
-375.68430139592681
 20
-1219.1160254037841
 30
0.0
  0
SEQEND
  5
695
  8
DATA
  6
CONTINUOUS
 62
     7
  0
POLYLINE
  5
41E
  8
DATA
  6
CONTINUOUS
 62
     7
 66
     1
 10
0.0
 20
0.0
 30
0.0
 70
     1
  0
VERTEX
  5
696
  8
DATA
  6
CONTINUOUS
 62
     7
 10
-419.5
 20
-1231.0
 30
0.0
  0
VERTEX
  5
697
  8
DATA
  6
CONTINUOUS
 62
     7
 10
-419.5
 20
-1233.0
 30
0.0
  0
VERTEX
  5
698
  8
DATA
  6
CONTINUOUS
 62
     7
 10
-427.5
 20
-1233.0
 30
0.0
  0
VERTEX
  5
699
  8
DATA
  6
CONTINUOUS
 62
     7
 10
-427.5
 20
-1231.0
 30
0.0
  0
SEQEND
  5
69A
  8
DATA
  6
CONTINUOUS
 62
     7
  0
POLYLINE
  5
425
  8
DATA
  6
CONTINUOUS
 62
     7
 66
     1
 10
0.0
 20
0.0
 30
0.0
  0
VERTEX
  5
69B
  8
DATA
  6
CONTINUOUS
 62
     7
 10
-411.49403370981048
 20
-1214.0917496306979
 30
0.0
  0
VERTEX
  5
69C
  8
DATA
  6
CONTINUOUS
 62
     7
 10
-414.61602540378402
 20
-1208.6843013959281
 30
0.0
  0
VERTEX
  5
69D
  8
DATA
  6
CONTINUOUS
 62
     7
 10
-412.88397459621501
 20
-1207.6843013959281
 30
0.0
  0
VERTEX
  5
69E
  8
DATA
  6
CONTINUOUS
 62
     7
 10
-408.88397459621501
 20
-1214.612504626203
 30
0.0
  0
VERTEX
  5
69F
  8
DATA
  6
CONTINUOUS
 62
     7
 10
-410.61602540378402
 20
-1215.612504626203
 30
0.0
  0
VERTEX
  5
6A0
  8
DATA
  6
CONTINUOUS
 62
     7
 10
-411.49403370981048
 20
-1214.0917496306979
 30
0.0
  0
SEQEND
  5
6A1
  8
DATA
  6
CONTINUOUS
 62
     7
  0
POLYLINE
  5
42E
  8
DATA
  6
CONTINUOUS
 62
     7
 66
     1
 10
0.0
 20
0.0
 30
0.0
 70
     1
  0
VERTEX
  5
6A2
  8
DATA
  6
CONTINUOUS
 62
     7
 10
-424.31569860407132
 20
-1219.1160254037841
 30
0.0
  0
VERTEX
  5
6A3
  8
DATA
  6
CONTINUOUS
 62
     7
 10
-423.31569860407137
 20
-1217.383974596215
 30
0.0
  0
VERTEX
  5
6A4
  8
DATA
  6
CONTINUOUS
 62
     7
 10
-416.38749537379579
 20
-1221.383974596215
 30
0.0
  0
VERTEX
  5
6A5
  8
DATA
  6
CONTINUOUS
 62
     7
 10
-417.38749537379579
 20
-1223.1160254037841
 30
0.0
  0
SEQEND
  5
6A6
  8
DATA
  6
CONTINUOUS
 62
     7
  0
LINE
  5
435
  8
DATA
  6
CONTINUOUS
 62
     7
 10
-563.7499998095044
 20
184.1473583723043
 30
0.0
 11
-457.0
 21
245.77949636747519
 31
0.0
  0
LINE
  5
436
  8
DATA
  6
CONTINUOUS
 62
     7
 10
-561.24999990475214
 20
179.81723129839071
 30
0.0
 11
-456.44673045299203
 21
240.32542405457349
 31
0.0
  0
ARC
  5
437
  8
DATA
  6
CONTINUOUS
 62
     7
 10
-558.75
 20
175.48710422447721
 30
0.0
 40
10.00000000000002
 50
119.9999987396919
 51
180.0
  0
ARC
  5
438
  8
DATA
  6
CONTINUOUS
 62
     7
 10
-558.75
 20
175.48710422447721
 30
0.0
 40
5.0
 50
119.999998739692
 51
180.0
  0
LINE
  5
439
  8
DATA
  6
CONTINUOUS
 62
     7
 10
-236.25000019049551
 20
184.1473583723043
 30
0.0
 11
-343.0
 21
245.77949636747519
 31
0.0
  0
LINE
  5
43A
  8
DATA
  6
CONTINUOUS
 62
     7
 10
-238.75000009524771
 20
179.81723129839071
 30
0.0
 11
-343.5532695470078
 21
240.32542405457349
 31
0.0
  0
ARC
  5
43B
  8
DATA
  6
CONTINUOUS
 62
     7
 10
-241.25
 20
175.48710422447721
 30
0.0
 40
10.0
 50
0.0
 51
60.000001260308068
  0
ARC
  5
43C
  8
DATA
  6
CONTINUOUS
 62
     7
 10
-241.25
 20
175.48710422447721
 30
0.0
 40
5.0
 50
0.0
 51
60.000001260307997
  0
LINE
  5
43D
  8
DATA
  6
CONTINUOUS
 62
     7
 10
-388.00425749096428
 20
275.60450088117813
 30
0.0
 11
-388.00425749096428
 21
291.60450088117813
 31
0.0
  0
LINE
  5
43E
  8
DATA
  6
CONTINUOUS
 62
     7
 10
-365.00425749096428
 20
273.60450088117813
 30
0.0
 11
-386.00425749096428
 21
273.60450088117813
 31
0.0
  0
LINE
  5
43F
  8
DATA
  6
CONTINUOUS
 62
     7
 10
-363.00425749096428
 20
291.60450088117813
 30
0.0
 11
-363.00425749096428
 21
275.60450088117813
 31
0.0
  0
LINE
  5
440
  8
DATA
  6
CONTINUOUS
 62
     7
 10
-386.00425749096428
 20
293.60450088117813
 30
0.0
 11
-365.00425749096428
 21
293.60450088117813
 31
0.0
  0
LINE
  5
441
  8
DATA
  6
CONTINUOUS
 62
     7
 10
-381.50425749096428
 20
278.60450088117813
 30
0.0
 11
-381.50425749096428
 21
288.60450088117813
 31
0.0
  0
LINE
  5
442
  8
DATA
  6
CONTINUOUS
 62
     7
 10
-370.50425749096439
 20
277.60450088117813
 30
0.0
 11
-380.50425749096428
 21
277.60450088117813
 31
0.0
  0
LINE
  5
443
  8
DATA
  6
CONTINUOUS
 62
     7
 10
-369.50425749096428
 20
288.60450088117813
 30
0.0
 11
-369.50425749096428
 21
278.60450088117813
 31
0.0
  0
LINE
  5
444
  8
DATA
  6
CONTINUOUS
 62
     7
 10
-380.50425749096428
 20
289.60450088117801
 30
0.0
 11
-370.50425749096439
 21
289.60450088117801
 31
0.0
  0
LINE
  5
445
  8
DATA
  6
CONTINUOUS
 62
     7
 10
-378.00425749096428
 20
278.60450088117813
 30
0.0
 11
-379.00425749096439
 21
278.60450088117813
 31
0.0
  0
LINE
  5
446
  8
DATA
  6
CONTINUOUS
 62
     7
 10
-377.00425749096439
 20
287.60450088117813
 30
0.0
 11
-377.00425749096439
 21
279.60450088117801
 31
0.0
  0
LINE
  5
447
  8
DATA
  6
CONTINUOUS
 62
     7
 10
-379.00425749096439
 20
288.60450088117813
 30
0.0
 11
-378.00425749096428
 21
288.60450088117813
 31
0.0
  0
LINE
  5
448
  8
DATA
  6
CONTINUOUS
 62
     7
 10
-380.00425749096428
 20
279.60450088117801
 30
0.0
 11
-380.00425749096428
 21
287.60450088117813
 31
0.0
  0
ARC
  5
449
  8
DATA
  6
CONTINUOUS
 62
     7
 10
-386.00425749096428
 20
275.60450088117813
 30
0.0
 40
2.0
 50
180.0
 51
270.0
  0
ARC
  5
44A
  8
DATA
  6
CONTINUOUS
 62
     7
 10
-386.00425749096428
 20
291.60450088117813
 30
0.0
 40
2.0
 50
90.0
 51
180.0
  0
ARC
  5
44B
  8
DATA
  6
CONTINUOUS
 62
     7
 10
-365.00425749096428
 20
291.60450088117813
 30
0.0
 40
2.0
 50
0.0
 51
90.0
  0
ARC
  5
44C
  8
DATA
  6
CONTINUOUS
 62
     7
 10
-365.00425749096428
 20
275.60450088117813
 30
0.0
 40
2.0
 50
270.0
 51
0.0
  0
ARC
  5
44D
  8
DATA
  6
CONTINUOUS
 62
     7
 10
-380.50425749096428
 20
278.60450088117813
 30
0.0
 40
1.0
 50
180.0
 51
270.0
  0
ARC
  5
44E
  8
DATA
  6
CONTINUOUS
 62
     7
 10
-380.50425749096428
 20
288.60450088117813
 30
0.0
 40
1.0
 50
90.0
 51
180.0
  0
ARC
  5
44F
  8
DATA
  6
CONTINUOUS
 62
     7
 10
-370.50425749096439
 20
288.60450088117813
 30
0.0
 40
1.0
 50
0.0
 51
90.0
  0
ARC
  5
450
  8
DATA
  6
CONTINUOUS
 62
     7
 10
-370.50425749096439
 20
278.60450088117813
 30
0.0
 40
1.0
 50
270.0
 51
0.0
  0
LINE
  5
451
  8
DATA
  6
CONTINUOUS
 62
     7
 10
-381.00425749096439
 20
278.60450088117813
 30
0.0
 11
-381.00425749096439
 21
288.60450088117813
 31
0.0
  0
LINE
  5
452
  8
DATA
  6
CONTINUOUS
 62
     7
 10
-376.00425749096428
 20
288.60450088117813
 30
0.0
 11
-376.00425749096428
 21
278.60450088117813
 31
0.0
  0
ARC
  5
453
  8
DATA
  6
CONTINUOUS
 62
     7
 10
-380.00425749096428
 20
278.60450088117813
 30
0.0
 40
1.0
 50
180.0
 51
270.0
  0
ARC
  5
454
  8
DATA
  6
CONTINUOUS
 62
     7
 10
-380.00425749096428
 20
288.60450088117813
 30
0.0
 40
1.0
 50
90.0
 51
180.0
  0
ARC
  5
455
  8
DATA
  6
CONTINUOUS
 62
     7
 10
-377.00425749096439
 20
288.60450088117813
 30
0.0
 40
1.0
 50
0.0
 51
90.0
  0
ARC
  5
456
  8
DATA
  6
CONTINUOUS
 62
     7
 10
-377.00425749096439
 20
278.60450088117813
 30
0.0
 40
1.0
 50
270.0
 51
0.0
  0
ARC
  5
457
  8
DATA
  6
CONTINUOUS
 62
     7
 10
-379.00425749096439
 20
287.60450088117813
 30
0.0
 40
1.0
 50
90.0
 51
180.0
  0
ARC
  5
458
  8
DATA
  6
CONTINUOUS
 62
     7
 10
-379.00425749096439
 20
279.60450088117801
 30
0.0
 40
1.0
 50
180.0
 51
270.0
  0
ARC
  5
459
  8
DATA
  6
CONTINUOUS
 62
     7
 10
-378.00425749096428
 20
279.60450088117801
 30
0.0
 40
1.0
 50
270.0
 51
0.0
  0
ARC
  5
45A
  8
DATA
  6
CONTINUOUS
 62
     7
 10
-378.00425749096428
 20
287.60450088117813
 30
0.0
 40
1.0
 50
0.0
 51
90.0
  0
LINE
  5
45B
  8
DATA
  6
CONTINUOUS
 62
     7
 10
813.84622726240571
 20
281.00740521877248
 30
0.0
 11
813.84622726240571
 21
169.0074052187725
 31
0.0
  0
LINE
  5
45C
  8
DATA
  6
CONTINUOUS
 62
     7
 10
652.84622726240548
 20
295.00740521877259
 30
0.0
 11
799.84622726240571
 21
295.00740521877259
 31
0.0
  0
LINE
  5
45D
  8
DATA
  6
CONTINUOUS
 62
     7
 10
638.84622726240559
 20
169.0074052187725
 30
0.0
 11
638.84622726240559
 21
281.00740521877248
 31
0.0
  0
LINE
  5
45E
  8
DATA
  6
CONTINUOUS
 62
     7
 10
799.84622726240571
 20
155.0074052187725
 30
0.0
 11
652.84622726240548
 21
155.0074052187725
 31
0.0
  0
LINE
  5
45F
  8
DATA
  6
CONTINUOUS
 62
     7
 10
768.34622726240571
 20
260.00740521877248
 30
0.0
 11
768.34622726240571
 21
190.0074052187725
 31
0.0
  0
LINE
  5
460
  8
DATA
  6
CONTINUOUS
 62
     7
 10
691.34622726240571
 20
267.00740521877248
 30
0.0
 11
761.34622726240559
 21
267.00740521877248
 31
0.0
  0
LINE
  5
461
  8
DATA
  6
CONTINUOUS
 62
     7
 10
684.34622726240559
 20
190.0074052187725
 30
0.0
 11
684.34622726240559
 21
260.00740521877248
 31
0.0
  0
LINE
  5
462
  8
DATA
  6
CONTINUOUS
 62
     7
 10
761.34622726240559
 20
183.0074052187725
 30
0.0
 11
691.34622726240571
 21
183.0074052187725
 31
0.0
  0
LINE
  5
463
  8
DATA
  6
CONTINUOUS
 62
     7
 10
743.84622726240571
 20
260.00740521877248
 30
0.0
 11
750.84622726240571
 21
260.00740521877248
 31
0.0
  0
LINE
  5
464
  8
DATA
  6
CONTINUOUS
 62
     7
 10
736.84622726240571
 20
197.0074052187725
 30
0.0
 11
736.84622726240571
 21
253.0074052187725
 31
0.0
  0
LINE
  5
465
  8
DATA
  6
CONTINUOUS
 62
     7
 10
750.84622726240571
 20
190.0074052187725
 30
0.0
 11
743.84622726240571
 21
190.0074052187725
 31
0.0
  0
LINE
  5
466
  8
DATA
  6
CONTINUOUS
 62
     7
 10
757.84622726240571
 20
253.0074052187725
 30
0.0
 11
757.84622726240571
 21
197.0074052187725
 31
0.0
  0
ARC
  5
467
  8
DATA
  6
CONTINUOUS
 62
     7
 10
799.84622726240571
 20
281.00740521877248
 30
0.0
 40
14.0
 50
0.0
 51
90.0
  0
ARC
  5
468
  8
DATA
  6
CONTINUOUS
 62
     7
 10
799.84622726240571
 20
169.0074052187725
 30
0.0
 40
14.0
 50
270.0
 51
0.0
  0
ARC
  5
469
  8
DATA
  6
CONTINUOUS
 62
     7
 10
652.84622726240548
 20
169.0074052187725
 30
0.0
 40
14.0
 50
180.0
 51
270.0
  0
ARC
  5
46A
  8
DATA
  6
CONTINUOUS
 62
     7
 10
652.84622726240548
 20
281.00740521877248
 30
0.0
 40
14.0
 50
90.0
 51
180.0
  0
ARC
  5
46B
  8
DATA
  6
CONTINUOUS
 62
     7
 10
761.34622726240559
 20
260.00740521877248
 30
0.0
 40
7.0
 50
0.0
 51
90.0
  0
ARC
  5
46C
  8
DATA
  6
CONTINUOUS
 62
     7
 10
761.34622726240559
 20
190.0074052187725
 30
0.0
 40
7.0
 50
270.0
 51
0.0
  0
ARC
  5
46D
  8
DATA
  6
CONTINUOUS
 62
     7
 10
691.34622726240571
 20
190.0074052187725
 30
0.0
 40
7.0
 50
180.0
 51
270.0
  0
ARC
  5
46E
  8
DATA
  6
CONTINUOUS
 62
     7
 10
691.34622726240571
 20
260.00740521877248
 30
0.0
 40
7.0
 50
90.0
 51
180.0
  0
LINE
  5
46F
  8
DATA
  6
CONTINUOUS
 62
     7
 10
764.84622726240559
 20
260.00740521877248
 30
0.0
 11
764.84622726240559
 21
190.0074052187725
 31
0.0
  0
LINE
  5
470
  8
DATA
  6
CONTINUOUS
 62
     7
 10
729.84622726240571
 20
190.0074052187725
 30
0.0
 11
729.84622726240571
 21
260.00740521877248
 31
0.0
  0
ARC
  5
471
  8
DATA
  6
CONTINUOUS
 62
     7
 10
757.84622726240571
 20
260.00740521877248
 30
0.0
 40
7.0
 50
0.0
 51
90.0
  0
ARC
  5
472
  8
DATA
  6
CONTINUOUS
 62
     7
 10
757.84622726240571
 20
190.0074052187725
 30
0.0
 40
7.0
 50
270.0
 51
0.0
  0
ARC
  5
473
  8
DATA
  6
CONTINUOUS
 62
     7
 10
736.84622726240571
 20
190.0074052187725
 30
0.0
 40
7.0
 50
180.0
 51
270.0
  0
ARC
  5
474
  8
DATA
  6
CONTINUOUS
 62
     7
 10
736.84622726240571
 20
260.00740521877248
 30
0.0
 40
7.0
 50
90.0
 51
180.0
  0
ARC
  5
475
  8
DATA
  6
CONTINUOUS
 62
     7
 10
750.84622726240571
 20
197.0074052187725
 30
0.0
 40
7.0
 50
270.0
 51
0.0
  0
ARC
  5
476
  8
DATA
  6
CONTINUOUS
 62
     7
 10
750.84622726240571
 20
253.0074052187725
 30
0.0
 40
7.0
 50
0.0
 51
90.0
  0
ARC
  5
477
  8
DATA
  6
CONTINUOUS
 62
     7
 10
743.84622726240571
 20
253.0074052187725
 30
0.0
 40
7.0
 50
90.0
 51
180.0
  0
ARC
  5
478
  8
DATA
  6
CONTINUOUS
 62
     7
 10
743.84622726240571
 20
197.0074052187725
 30
0.0
 40
7.0
 50
180.0
 51
270.0
  0
LINE
  5
479
  8
DATA
  6
CONTINUOUS
 62
     7
 10
337.5254116224524
 20
-190.47000000000011
 30
0.0
 11
339.97541162245312
 21
-190.47000000000011
 31
0.0
  0
LINE
  5
47A
  8
DATA
  6
CONTINUOUS
 62
     7
 10
338.7504116224527
 20
-187.97000000000011
 30
0.0
 11
338.7504116224527
 21
-192.97000000000011
 31
0.0
  0
LINE
  5
47B
  8
DATA
  6
CONTINUOUS
 62
     7
 10
728.2504116224527
 20
-190.47000000000011
 30
0.0
 11
731.7504116224527
 21
-190.47000000000011
 31
0.0
  0
LINE
  5
47C
  8
DATA
  6
CONTINUOUS
 62
     7
 10
730.0004116224527
 20
-187.97000000000011
 30
0.0
 11
730.0004116224527
 21
-192.97000000000011
 31
0.0
  0
ARC
  5
47D
  8
DATA
  6
CONTINUOUS
 62
     7
 10
368.61061597239188
 20
-190.3808961449281
 30
0.0
 40
40.15130131406039
 50
165.6902638495441
 51
180.1271510226905
  0
ARC
  5
47E
  8
DATA
  6
CONTINUOUS
 62
     7
 10
352.73936770733559
 20
-186.16830713837999
 30
0.0
 40
23.73181273428548
 50
149.04443384723481
 51
166.07436332847749
  0
ARC
  5
47F
  8
DATA
  6
CONTINUOUS
 62
     7
 10
343.30816366228072
 20
-180.61144971661369
 30
0.0
 40
12.7859178282872
 50
131.75875937215841
 51
148.660019898549
  0
ARC
  5
480
  8
DATA
  6
CONTINUOUS
 62
     7
 10
338.9579299504378
 20
-175.6593951866721
 30
0.0
 40
6.1948946060942012
 50
91.919669329045561
 51
132.2486414604713
  0
ARC
  5
481
  8
DATA
  6
CONTINUOUS
 62
     7
 10
308.89020727251341
 20
-190.3808961449281
 30
0.0
 40
40.15130131406039
 50
359.87284897730939
 51
14.309736150455871
  0
ARC
  5
482
  8
DATA
  6
CONTINUOUS
 62
     7
 10
324.76145553756987
 20
-186.16830713837999
 30
0.0
 40
23.731812734285469
 50
13.925636671522479
 51
30.955566152765162
  0
ARC
  5
483
  8
DATA
  6
CONTINUOUS
 62
     7
 10
334.19265958262469
 20
-180.61144971661369
 30
0.0
 40
12.785917828287181
 50
31.339980101451012
 51
48.241240627841613
  0
ARC
  5
484
  8
DATA
  6
CONTINUOUS
 62
     7
 10
338.5428932944676
 20
-175.6593951866721
 30
0.0
 40
6.1948946060941932
 50
47.751358539528717
 51
88.080330670954453
  0
ARC
  5
485
  8
DATA
  6
CONTINUOUS
 62
     7
 10
368.61061597239188
 20
-190.55908825735449
 30
0.0
 40
40.15130131406039
 50
179.87284897730939
 51
194.30973615045579
  0
ARC
  5
486
  8
DATA
  6
CONTINUOUS
 62
     7
 10
352.73936770733559
 20
-194.77167726390269
 30
0.0
 40
23.731812734285469
 50
193.92563667152251
 51
210.95556615276519
  0
ARC
  5
487
  8
DATA
  6
CONTINUOUS
 62
     7
 10
343.30816366228072
 20
-200.3285346856689
 30
0.0
 40
12.785917828287181
 50
211.339980101451
 51
228.24124062784159
  0
ARC
  5
488
  8
DATA
  6
CONTINUOUS
 62
     7
 10
338.9579299504378
 20
-205.2805892156106
 30
0.0
 40
6.1948946060941932
 50
227.7513585395287
 51
268.08033067095448
  0
ARC
  5
489
  8
DATA
  6
CONTINUOUS
 62
     7
 10
308.89020727251341
 20
-190.55908825735449
 30
0.0
 40
40.15130131406039
 50
345.69026384954412
 51
0.1271510226905548
  0
ARC
  5
48A
  8
DATA
  6
CONTINUOUS
 62
     7
 10
324.76145553756987
 20
-194.77167726390269
 30
0.0
 40
23.73181273428548
 50
329.04443384723493
 51
346.0743633284776
  0
ARC
  5
48B
  8
DATA
  6
CONTINUOUS
 62
     7
 10
334.19265958262469
 20
-200.3285346856689
 30
0.0
 40
12.7859178282872
 50
311.75875937215852
 51
328.66001989854908
  0
ARC
  5
48C
  8
DATA
  6
CONTINUOUS
 62
     7
 10
338.5428932944676
 20
-205.2805892156106
 30
0.0
 40
6.1948946060942012
 50
271.91966932904558
 51
312.24864146047128
  0
ARC
  5
48D
  8
DATA
  6
CONTINUOUS
 62
     7
 10
361.4441669284065
 20
-190.40227919841931
 30
0.0
 40
30.51498899868588
 50
165.6902638495441
 51
180.1271510226905
  0
ARC
  5
48E
  8
DATA
  6
CONTINUOUS
 62
     7
 10
349.3820182469637
 20
-187.2007115534426
 30
0.0
 40
18.036177678056919
 50
149.04443384723481
 51
166.07436332847749
  0
ARC
  5
48F
  8
DATA
  6
CONTINUOUS
 62
     7
 10
342.214303172722
 20
-182.97749991290041
 30
0.0
 40
9.7172975494982587
 50
131.75875937215841
 51
148.66001989854919
  0
ARC
  5
490
  8
DATA
  6
CONTINUOUS
 62
     7
 10
338.9081255517213
 20
-179.21393847014471
 30
0.0
 40
4.7081199006315968
 50
91.919669329045277
 51
132.24864146047099
  0
ARC
  5
491
  8
DATA
  6
CONTINUOUS
 62
     7
 10
316.0566563164989
 20
-190.40227919841931
 30
0.0
 40
30.51498899868589
 50
359.87284897730939
 51
14.30973615045593
  0
ARC
  5
492
  8
DATA
  6
CONTINUOUS
 62
     7
 10
328.11880499794182
 20
-187.2007115534426
 30
0.0
 40
18.03617767805693
 50
13.92563667152249
 51
30.955566152765211
  0
ARC
  5
493
  8
DATA
  6
CONTINUOUS
 62
     7
 10
335.28652007218341
 20
-182.97749991290041
 30
0.0
 40
9.7172975494982374
 50
31.33998010145098
 51
48.241240627841577
  0
ARC
  5
494
  8
DATA
  6
CONTINUOUS
 62
     7
 10
338.59269769318411
 20
-179.21393847014471
 30
0.0
 40
4.7081199006315604
 50
47.751358539528972
 51
88.080330670954723
  0
ARC
  5
495
  8
DATA
  6
CONTINUOUS
 62
     7
 10
361.4441669284065
 20
-190.5377052038634
 30
0.0
 40
30.51498899868589
 50
179.87284897730939
 51
194.3097361504559
  0
ARC
  5
496
  8
DATA
  6
CONTINUOUS
 62
     7
 10
349.3820182469637
 20
-193.73927284883999
 30
0.0
 40
18.03617767805693
 50
193.92563667152251
 51
210.95556615276519
  0
ARC
  5
497
  8
DATA
  6
CONTINUOUS
 62
     7
 10
342.214303172722
 20
-197.96248448938229
 30
0.0
 40
9.7172975494982374
 50
211.339980101451
 51
228.24124062784159
  0
ARC
  5
498
  8
DATA
  6
CONTINUOUS
 62
     7
 10
338.9081255517213
 20
-201.72604593213799
 30
0.0
 40
4.7081199006315604
 50
227.75135853952889
 51
268.08033067095471
  0
ARC
  5
499
  8
DATA
  6
CONTINUOUS
 62
     7
 10
316.0566563164989
 20
-190.5377052038634
 30
0.0
 40
30.51498899868588
 50
345.69026384954401
 51
0.1271510226904979
  0
ARC
  5
49A
  8
DATA
  6
CONTINUOUS
 62
     7
 10
328.11880499794182
 20
-193.73927284883999
 30
0.0
 40
18.036177678056919
 50
329.04443384723493
 51
346.07436332847749
  0
ARC
  5
49B
  8
DATA
  6
CONTINUOUS
 62
     7
 10
335.28652007218341
 20
-197.96248448938229
 30
0.0
 40
9.7172975494982587
 50
311.75875937215852
 51
328.66001989854919
  0
ARC
  5
49C
  8
DATA
  6
CONTINUOUS
 62
     7
 10
338.59269769318411
 20
-201.72604593213799
 30
0.0
 40
4.7081199006315968
 50
271.91966932904518
 51
312.24864146047099
  0
ARC
  5
49D
  8
DATA
  6
CONTINUOUS
 62
     7
 10
345.78547576729841
 20
-190.44900117029749
 30
0.0
 40
9.4596465895926425
 50
165.69026384954401
 51
180.1271510226905
  0
ARC
  5
49E
  8
DATA
  6
CONTINUOUS
 62
     7
 10
342.04620967605109
 20
-189.45651520035469
 30
0.0
 40
5.591215080197637
 50
149.0444338472347
 51
166.0743633284776
  0
ARC
  5
49F
  8
DATA
  6
CONTINUOUS
 62
     7
 10
339.82421800303621
 20
-188.14731959178661
 30
0.0
 40
3.0123622403444981
 50
131.75875937215861
 51
148.66001989854939
  0
ARC
  5
4A0
  8
DATA
  6
CONTINUOUS
 62
     7
 10
338.79930294052599
 20
-186.9806155445323
 30
0.0
 40
1.4595171691958051
 50
91.91966932904549
 51
132.24864146047111
  0
ARC
  5
4A1
  8
DATA
  6
CONTINUOUS
 62
     7
 10
331.715347477607
 20
-190.44900117029749
 30
0.0
 40
9.459646589592646
 50
359.87284897730967
 51
14.30973615045593
  0
ARC
  5
4A2
  8
DATA
  6
CONTINUOUS
 62
     7
 10
335.45461356885431
 20
-189.45651520035469
 30
0.0
 40
5.5912150801976521
 50
13.925636671522421
 51
30.955566152765289
  0
ARC
  5
4A3
  8
DATA
  6
CONTINUOUS
 62
     7
 10
337.6766052418692
 20
-188.14731959178661
 30
0.0
 40
3.0123622403444581
 50
31.339980101451221
 51
48.241240627841023
  0
ARC
  5
4A4
  8
DATA
  6
CONTINUOUS
 62
     7
 10
338.70152030437941
 20
-186.9806155445323
 30
0.0
 40
1.459517169195804
 50
47.751358539528923
 51
88.080330670954496
  0
ARC
  5
4A5
  8
DATA
  6
CONTINUOUS
 62
     7
 10
345.78547576729841
 20
-190.4909832319851
 30
0.0
 40
9.459646589592646
 50
179.8728489773095
 51
194.3097361504559
  0
ARC
  5
4A6
  8
DATA
  6
CONTINUOUS
 62
     7
 10
342.04620967605109
 20
-191.48346920192799
 30
0.0
 40
5.5912150801976521
 50
193.92563667152251
 51
210.9555661527653
  0
ARC
  5
4A7
  8
DATA
  6
CONTINUOUS
 62
     7
 10
339.82421800303621
 20
-192.79266481049601
 30
0.0
 40
3.0123622403444581
 50
211.3399801014512
 51
228.24124062784099
  0
ARC
  5
4A8
  8
DATA
  6
CONTINUOUS
 62
     7
 10
338.79930294052599
 20
-193.95936885775029
 30
0.0
 40
1.459517169195804
 50
227.75135853952889
 51
268.08033067095448
  0
ARC
  5
4A9
  8
DATA
  6
CONTINUOUS
 62
     7
 10
331.715347477607
 20
-190.4909832319851
 30
0.0
 40
9.4596465895926425
 50
345.69026384954401
 51
0.1271510226904411
  0
ARC
  5
4AA
  8
DATA
  6
CONTINUOUS
 62
     7
 10
335.45461356885431
 20
-191.48346920192799
 30
0.0
 40
5.591215080197637
 50
329.0444338472347
 51
346.0743633284776
  0
ARC
  5
4AB
  8
DATA
  6
CONTINUOUS
 62
     7
 10
337.6766052418692
 20
-192.79266481049601
 30
0.0
 40
3.0123622403444981
 50
311.75875937215858
 51
328.66001989854919
  0
ARC
  5
4AC
  8
DATA
  6
CONTINUOUS
 62
     7
 10
338.70152030437941
 20
-193.95936885775029
 30
0.0
 40
1.4595171691958051
 50
271.9196693290454
 51
312.24864146047111
  0
LINE
  5
4AD
  8
DATA
  6
CONTINUOUS
 62
     7
 10
409.77458837754682
 20
-190.47000000000011
 30
0.0
 11
412.2245883775476
 21
-190.47000000000011
 31
0.0
  0
LINE
  5
4AE
  8
DATA
  6
CONTINUOUS
 62
     7
 10
410.99958837754718
 20
-187.97000000000011
 30
0.0
 11
410.99958837754718
 21
-192.97000000000011
 31
0.0
  0
ARC
  5
4AF
  8
DATA
  6
CONTINUOUS
 62
     7
 10
440.85979272748659
 20
-190.3808961449281
 30
0.0
 40
40.15130131406039
 50
165.6902638495441
 51
180.1271510226905
  0
ARC
  5
4B0
  8
DATA
  6
CONTINUOUS
 62
     7
 10
424.9885444624299
 20
-186.16830713837999
 30
0.0
 40
23.73181273428548
 50
149.04443384723481
 51
166.07436332847749
  0
ARC
  5
4B1
  8
DATA
  6
CONTINUOUS
 62
     7
 10
415.5573404173752
 20
-180.61144971661369
 30
0.0
 40
12.7859178282872
 50
131.75875937215841
 51
148.660019898549
  0
ARC
  5
4B2
  8
DATA
  6
CONTINUOUS
 62
     7
 10
411.2071067055324
 20
-175.6593951866721
 30
0.0
 40
6.1948946060942012
 50
91.919669329045561
 51
132.2486414604713
  0
ARC
  5
4B3
  8
DATA
  6
CONTINUOUS
 62
     7
 10
381.139384027608
 20
-190.3808961449281
 30
0.0
 40
40.15130131406039
 50
359.87284897730939
 51
14.309736150455871
  0
ARC
  5
4B4
  8
DATA
  6
CONTINUOUS
 62
     7
 10
397.01063229266452
 20
-186.16830713837999
 30
0.0
 40
23.731812734285469
 50
13.925636671522479
 51
30.955566152765162
  0
ARC
  5
4B5
  8
DATA
  6
CONTINUOUS
 62
     7
 10
406.44183633771928
 20
-180.61144971661369
 30
0.0
 40
12.785917828287181
 50
31.339980101451012
 51
48.241240627841613
  0
ARC
  5
4B6
  8
DATA
  6
CONTINUOUS
 62
     7
 10
410.7920700495622
 20
-175.6593951866721
 30
0.0
 40
6.1948946060941932
 50
47.751358539528717
 51
88.080330670954453
  0
ARC
  5
4B7
  8
DATA
  6
CONTINUOUS
 62
     7
 10
440.85979272748659
 20
-190.55908825735449
 30
0.0
 40
40.15130131406039
 50
179.87284897730939
 51
194.30973615045579
  0
ARC
  5
4B8
  8
DATA
  6
CONTINUOUS
 62
     7
 10
424.9885444624299
 20
-194.77167726390269
 30
0.0
 40
23.731812734285469
 50
193.92563667152251
 51
210.95556615276519
  0
ARC
  5
4B9
  8
DATA
  6
CONTINUOUS
 62
     7
 10
415.5573404173752
 20
-200.3285346856689
 30
0.0
 40
12.785917828287181
 50
211.339980101451
 51
228.24124062784159
  0
ARC
  5
4BA
  8
DATA
  6
CONTINUOUS
 62
     7
 10
411.2071067055324
 20
-205.2805892156106
 30
0.0
 40
6.1948946060941932
 50
227.7513585395287
 51
268.08033067095448
  0
ARC
  5
4BB
  8
DATA
  6
CONTINUOUS
 62
     7
 10
381.139384027608
 20
-190.55908825735449
 30
0.0
 40
40.15130131406039
 50
345.69026384954412
 51
0.1271510226905548
  0
ARC
  5
4BC
  8
DATA
  6
CONTINUOUS
 62
     7
 10
397.01063229266452
 20
-194.77167726390269
 30
0.0
 40
23.73181273428548
 50
329.04443384723493
 51
346.0743633284776
  0
ARC
  5
4BD
  8
DATA
  6
CONTINUOUS
 62
     7
 10
406.44183633771928
 20
-200.3285346856689
 30
0.0
 40
12.7859178282872
 50
311.75875937215852
 51
328.66001989854908
  0
ARC
  5
4BE
  8
DATA
  6
CONTINUOUS
 62
     7
 10
410.7920700495622
 20
-205.2805892156106
 30
0.0
 40
6.1948946060942012
 50
271.91966932904558
 51
312.24864146047128
  0
ARC
  5
4BF
  8
DATA
  6
CONTINUOUS
 62
     7
 10
433.6933436835011
 20
-190.40227919841931
 30
0.0
 40
30.51498899868588
 50
165.6902638495441
 51
180.1271510226905
  0
ARC
  5
4C0
  8
DATA
  6
CONTINUOUS
 62
     7
 10
421.63119500205812
 20
-187.2007115534426
 30
0.0
 40
18.036177678056919
 50
149.04443384723481
 51
166.07436332847749
  0
ARC
  5
4C1
  8
DATA
  6
CONTINUOUS
 62
     7
 10
414.46347992781648
 20
-182.97749991290041
 30
0.0
 40
9.7172975494982587
 50
131.75875937215841
 51
148.66001989854919
  0
ARC
  5
4C2
  8
DATA
  6
CONTINUOUS
 62
     7
 10
411.15730230681589
 20
-179.21393847014471
 30
0.0
 40
4.7081199006315968
 50
91.919669329045277
 51
132.24864146047099
  0
ARC
  5
4C3
  8
DATA
  6
CONTINUOUS
 62
     7
 10
388.3058330715935
 20
-190.40227919841931
 30
0.0
 40
30.51498899868589
 50
359.87284897730939
 51
14.30973615045593
  0
ARC
  5
4C4
  8
DATA
  6
CONTINUOUS
 62
     7
 10
400.3679817530363
 20
-187.2007115534426
 30
0.0
 40
18.03617767805693
 50
13.92563667152249
 51
30.955566152765211
  0
ARC
  5
4C5
  8
DATA
  6
CONTINUOUS
 62
     7
 10
407.535696827278
 20
-182.97749991290041
 30
0.0
 40
9.7172975494982374
 50
31.33998010145098
 51
48.241240627841577
  0
ARC
  5
4C6
  8
DATA
  6
CONTINUOUS
 62
     7
 10
410.84187444827859
 20
-179.21393847014471
 30
0.0
 40
4.7081199006315604
 50
47.751358539528972
 51
88.080330670954723
  0
ARC
  5
4C7
  8
DATA
  6
CONTINUOUS
 62
     7
 10
433.6933436835011
 20
-190.5377052038634
 30
0.0
 40
30.51498899868589
 50
179.87284897730939
 51
194.3097361504559
  0
ARC
  5
4C8
  8
DATA
  6
CONTINUOUS
 62
     7
 10
421.63119500205812
 20
-193.73927284883999
 30
0.0
 40
18.03617767805693
 50
193.92563667152251
 51
210.95556615276519
  0
ARC
  5
4C9
  8
DATA
  6
CONTINUOUS
 62
     7
 10
414.46347992781648
 20
-197.96248448938229
 30
0.0
 40
9.7172975494982374
 50
211.339980101451
 51
228.24124062784159
  0
ARC
  5
4CA
  8
DATA
  6
CONTINUOUS
 62
     7
 10
411.15730230681589
 20
-201.72604593213799
 30
0.0
 40
4.7081199006315604
 50
227.75135853952889
 51
268.08033067095471
  0
ARC
  5
4CB
  8
DATA
  6
CONTINUOUS
 62
     7
 10
388.3058330715935
 20
-190.5377052038634
 30
0.0
 40
30.51498899868588
 50
345.69026384954401
 51
0.1271510226904979
  0
ARC
  5
4CC
  8
DATA
  6
CONTINUOUS
 62
     7
 10
400.3679817530363
 20
-193.73927284883999
 30
0.0
 40
18.036177678056919
 50
329.04443384723493
 51
346.07436332847749
  0
ARC
  5
4CD
  8
DATA
  6
CONTINUOUS
 62
     7
 10
407.535696827278
 20
-197.96248448938229
 30
0.0
 40
9.7172975494982587
 50
311.75875937215852
 51
328.66001989854919
  0
ARC
  5
4CE
  8
DATA
  6
CONTINUOUS
 62
     7
 10
410.84187444827859
 20
-201.72604593213799
 30
0.0
 40
4.7081199006315968
 50
271.91966932904518
 51
312.24864146047099
  0
ARC
  5
4CF
  8
DATA
  6
CONTINUOUS
 62
     7
 10
418.034652522393
 20
-190.44900117029749
 30
0.0
 40
9.4596465895926425
 50
165.69026384954401
 51
180.1271510226905
  0
ARC
  5
4D0
  8
DATA
  6
CONTINUOUS
 62
     7
 10
414.29538643114557
 20
-189.45651520035469
 30
0.0
 40
5.591215080197637
 50
149.0444338472347
 51
166.0743633284776
  0
ARC
  5
4D1
  8
DATA
  6
CONTINUOUS
 62
     7
 10
412.0733947581308
 20
-188.14731959178661
 30
0.0
 40
3.0123622403444981
 50
131.75875937215861
 51
148.66001989854939
  0
ARC
  5
4D2
  8
DATA
  6
CONTINUOUS
 62
     7
 10
411.04847969562047
 20
-186.9806155445323
 30
0.0
 40
1.4595171691958051
 50
91.91966932904549
 51
132.24864146047111
  0
ARC
  5
4D3
  8
DATA
  6
CONTINUOUS
 62
     7
 10
403.96452423270159
 20
-190.44900117029749
 30
0.0
 40
9.459646589592646
 50
359.87284897730967
 51
14.30973615045593
  0
ARC
  5
4D4
  8
DATA
  6
CONTINUOUS
 62
     7
 10
407.70379032394891
 20
-189.45651520035469
 30
0.0
 40
5.5912150801976521
 50
13.925636671522421
 51
30.955566152765289
  0
ARC
  5
4D5
  8
DATA
  6
CONTINUOUS
 62
     7
 10
409.92578199696368
 20
-188.14731959178661
 30
0.0
 40
3.0123622403444581
 50
31.339980101451221
 51
48.241240627841023
  0
ARC
  5
4D6
  8
DATA
  6
CONTINUOUS
 62
     7
 10
410.95069705947401
 20
-186.9806155445323
 30
0.0
 40
1.459517169195804
 50
47.751358539528923
 51
88.080330670954496
  0
ARC
  5
4D7
  8
DATA
  6
CONTINUOUS
 62
     7
 10
418.034652522393
 20
-190.4909832319851
 30
0.0
 40
9.459646589592646
 50
179.8728489773095
 51
194.3097361504559
  0
ARC
  5
4D8
  8
DATA
  6
CONTINUOUS
 62
     7
 10
414.29538643114557
 20
-191.48346920192799
 30
0.0
 40
5.5912150801976521
 50
193.92563667152251
 51
210.9555661527653
  0
ARC
  5
4D9
  8
DATA
  6
CONTINUOUS
 62
     7
 10
412.0733947581308
 20
-192.79266481049601
 30
0.0
 40
3.0123622403444581
 50
211.3399801014512
 51
228.24124062784099
  0
ARC
  5
4DA
  8
DATA
  6
CONTINUOUS
 62
     7
 10
411.04847969562047
 20
-193.95936885775029
 30
0.0
 40
1.459517169195804
 50
227.75135853952889
 51
268.08033067095448
  0
ARC
  5
4DB
  8
DATA
  6
CONTINUOUS
 62
     7
 10
403.96452423270159
 20
-190.4909832319851
 30
0.0
 40
9.4596465895926425
 50
345.69026384954401
 51
0.1271510226904411
  0
ARC
  5
4DC
  8
DATA
  6
CONTINUOUS
 62
     7
 10
407.70379032394891
 20
-191.48346920192799
 30
0.0
 40
5.591215080197637
 50
329.0444338472347
 51
346.0743633284776
  0
ARC
  5
4DD
  8
DATA
  6
CONTINUOUS
 62
     7
 10
409.92578199696368
 20
-192.79266481049601
 30
0.0
 40
3.0123622403444981
 50
311.75875937215858
 51
328.66001989854919
  0
ARC
  5
4DE
  8
DATA
  6
CONTINUOUS
 62
     7
 10
410.95069705947401
 20
-193.95936885775029
 30
0.0
 40
1.4595171691958051
 50
271.9196693290454
 51
312.24864146047111
  0
LINE
  5
4DF
  8
DATA
  6
CONTINUOUS
 62
     7
 10
337.5254116224524
 20
-790.00300000000004
 30
0.0
 11
339.97541162245312
 21
-790.00300000000004
 31
0.0
  0
LINE
  5
4E0
  8
DATA
  6
CONTINUOUS
 62
     7
 10
338.7504116224527
 20
-787.50300000000004
 30
0.0
 11
338.7504116224527
 21
-792.50300000000004
 31
0.0
  0
ARC
  5
4E1
  8
DATA
  6
CONTINUOUS
 62
     7
 10
368.61061597239188
 20
-789.91389614492789
 30
0.0
 40
40.151301314060383
 50
165.69026384954421
 51
180.12715102269061
  0
ARC
  5
4E2
  8
DATA
  6
CONTINUOUS
 62
     7
 10
352.73936770733559
 20
-785.70130713838
 30
0.0
 40
23.731812734285491
 50
149.04443384723481
 51
166.07436332847749
  0
ARC
  5
4E3
  8
DATA
  6
CONTINUOUS
 62
     7
 10
343.30816366228072
 20
-780.14444971661362
 30
0.0
 40
12.785917828287181
 50
131.75875937215849
 51
148.66001989854919
  0
ARC
  5
4E4
  8
DATA
  6
CONTINUOUS
 62
     7
 10
338.9579299504378
 20
-775.192395186672
 30
0.0
 40
6.1948946060942314
 50
91.919669329045561
 51
132.2486414604713
  0
ARC
  5
4E5
  8
DATA
  6
CONTINUOUS
 62
     7
 10
308.89020727251341
 20
-789.91389614492789
 30
0.0
 40
40.15130131406039
 50
359.87284897730939
 51
14.309736150455819
  0
ARC
  5
4E6
  8
DATA
  6
CONTINUOUS
 62
     7
 10
324.76145553756987
 20
-785.70130713838
 30
0.0
 40
23.731812734285469
 50
13.925636671522479
 51
30.955566152765218
  0
ARC
  5
4E7
  8
DATA
  6
CONTINUOUS
 62
     7
 10
334.19265958262469
 20
-780.14444971661362
 30
0.0
 40
12.78591782828715
 50
31.339980101450791
 51
48.241240627841513
  0
ARC
  5
4E8
  8
DATA
  6
CONTINUOUS
 62
     7
 10
338.5428932944676
 20
-775.192395186672
 30
0.0
 40
6.1948946060941932
 50
47.751358539528717
 51
88.080330670954453
  0
ARC
  5
4E9
  8
DATA
  6
CONTINUOUS
 62
     7
 10
368.61061597239188
 20
-790.09208825735448
 30
0.0
 40
40.15130131406039
 50
179.87284897730939
 51
194.3097361504559
  0
ARC
  5
4EA
  8
DATA
  6
CONTINUOUS
 62
     7
 10
352.73936770733559
 20
-794.3046772639027
 30
0.0
 40
23.731812734285469
 50
193.92563667152251
 51
210.95556615276499
  0
ARC
  5
4EB
  8
DATA
  6
CONTINUOUS
 62
     7
 10
343.30816366228072
 20
-799.86153468566874
 30
0.0
 40
12.78591782828715
 50
211.33998010145081
 51
228.24124062784159
  0
ARC
  5
4EC
  8
DATA
  6
CONTINUOUS
 62
     7
 10
338.9579299504378
 20
-804.81358921561048
 30
0.0
 40
6.1948946060941932
 50
227.7513585395287
 51
268.08033067095448
  0
ARC
  5
4ED
  8
DATA
  6
CONTINUOUS
 62
     7
 10
308.89020727251341
 20
-790.09208825735448
 30
0.0
 40
40.15130131406039
 50
345.69026384954401
 51
0.1271510226906116
  0
ARC
  5
4EE
  8
DATA
  6
CONTINUOUS
 62
     7
 10
324.76145553756987
 20
-794.3046772639027
 30
0.0
 40
23.73181273428543
 50
329.04443384723493
 51
346.0743633284776
  0
ARC
  5
4EF
  8
DATA
  6
CONTINUOUS
 62
     7
 10
334.19265958262469
 20
-799.86153468566874
 30
0.0
 40
12.785917828287181
 50
311.75875937215852
 51
328.66001989854919
  0
ARC
  5
4F0
  8
DATA
  6
CONTINUOUS
 62
     7
 10
338.5428932944676
 20
-804.81358921561048
 30
0.0
 40
6.1948946060942314
 50
271.9196693290454
 51
312.24864146047128
  0
ARC
  5
4F1
  8
DATA
  6
CONTINUOUS
 62
     7
 10
361.4441669284065
 20
-789.93527919841915
 30
0.0
 40
30.51498899868589
 50
165.6902638495439
 51
180.1271510226905
  0
ARC
  5
4F2
  8
DATA
  6
CONTINUOUS
 62
     7
 10
349.3820182469637
 20
-786.7337115534425
 30
0.0
 40
18.03617767805693
 50
149.0444338472347
 51
166.0743633284772
  0
ARC
  5
4F3
  8
DATA
  6
CONTINUOUS
 62
     7
 10
342.214303172722
 20
-782.5104999129004
 30
0.0
 40
9.7172975494982818
 50
131.75875937215821
 51
148.66001989854919
  0
ARC
  5
4F4
  8
DATA
  6
CONTINUOUS
 62
     7
 10
338.9081255517213
 20
-778.74693847014464
 30
0.0
 40
4.7081199006316554
 50
91.919669329045277
 51
132.24864146047079
  0
ARC
  5
4F5
  8
DATA
  6
CONTINUOUS
 62
     7
 10
316.0566563164989
 20
-789.93527919841915
 30
0.0
 40
30.51498899868589
 50
359.87284897730967
 51
14.3097361504561
  0
ARC
  5
4F6
  8
DATA
  6
CONTINUOUS
 62
     7
 10
328.11880499794182
 20
-786.7337115534425
 30
0.0
 40
18.036177678056941
 50
13.92563667152276
 51
30.955566152765279
  0
ARC
  5
4F7
  8
DATA
  6
CONTINUOUS
 62
     7
 10
335.28652007218341
 20
-782.5104999129004
 30
0.0
 40
9.7172975494982374
 50
31.33998010145098
 51
48.241240627841712
  0
ARC
  5
4F8
  8
DATA
  6
CONTINUOUS
 62
     7
 10
338.59269769318411
 20
-778.74693847014464
 30
0.0
 40
4.7081199006315826
 50
47.7513585395292
 51
88.080330670954737
  0
ARC
  5
4F9
  8
DATA
  6
CONTINUOUS
 62
     7
 10
361.4441669284065
 20
-790.07070520386333
 30
0.0
 40
30.51498899868589
 50
179.87284897730939
 51
194.30973615045579
  0
ARC
  5
4FA
  8
DATA
  6
CONTINUOUS
 62
     7
 10
349.3820182469637
 20
-793.27227284883998
 30
0.0
 40
18.036177678056919
 50
193.92563667152251
 51
210.95556615276499
  0
ARC
  5
4FB
  8
DATA
  6
CONTINUOUS
 62
     7
 10
342.214303172722
 20
-797.49548448938231
 30
0.0
 40
9.7172975494982374
 50
211.339980101451
 51
228.24124062784171
  0
ARC
  5
4FC
  8
DATA
  6
CONTINUOUS
 62
     7
 10
338.9081255517213
 20
-801.25904593213761
 30
0.0
 40
4.7081199006315826
 50
227.75135853952921
 51
268.08033067095471
  0
ARC
  5
4FD
  8
DATA
  6
CONTINUOUS
 62
     7
 10
316.0566563164989
 20
-790.07070520386333
 30
0.0
 40
30.514988998685869
 50
345.69026384954412
 51
0.1271510226906685
  0
ARC
  5
4FE
  8
DATA
  6
CONTINUOUS
 62
     7
 10
328.11880499794182
 20
-793.27227284883998
 30
0.0
 40
18.03617767805687
 50
329.04443384723493
 51
346.0743633284776
  0
ARC
  5
4FF
  8
DATA
  6
CONTINUOUS
 62
     7
 10
335.28652007218341
 20
-797.49548448938231
 30
0.0
 40
9.7172975494982818
 50
311.75875937215841
 51
328.66001989854919
  0
ARC
  5
500
  8
DATA
  6
CONTINUOUS
 62
     7
 10
338.59269769318411
 20
-801.25904593213761
 30
0.0
 40
4.7081199006316554
 50
271.91966932904518
 51
312.24864146047082
  0
ARC
  5
501
  8
DATA
  6
CONTINUOUS
 62
     7
 10
345.78547576729841
 20
-789.98200117029751
 30
0.0
 40
9.4596465895926265
 50
165.69026384954429
 51
180.12715102269081
  0
ARC
  5
502
  8
DATA
  6
CONTINUOUS
 62
     7
 10
342.04620967605109
 20
-788.98951520035439
 30
0.0
 40
5.591215080197637
 50
149.0444338472347
 51
166.0743633284782
  0
ARC
  5
503
  8
DATA
  6
CONTINUOUS
 62
     7
 10
339.82421800303621
 20
-787.68031959178654
 30
0.0
 40
3.0123622403444981
 50
131.75875937215861
 51
148.66001989854891
  0
ARC
  5
504
  8
DATA
  6
CONTINUOUS
 62
     7
 10
338.79930294052599
 20
-786.51361554453217
 30
0.0
 40
1.459517169195776
 50
91.919669329045547
 51
132.24864146047111
  0
ARC
  5
505
  8
DATA
  6
CONTINUOUS
 62
     7
 10
331.715347477607
 20
-789.98200117029751
 30
0.0
 40
9.459646589592646
 50
359.87284897730922
 51
14.309736150455651
  0
ARC
  5
506
  8
DATA
  6
CONTINUOUS
 62
     7
 10
335.45461356885431
 20
-788.98951520035439
 30
0.0
 40
5.5912150801976379
 50
13.925636671521859
 51
30.955566152765289
  0
ARC
  5
507
  8
DATA
  6
CONTINUOUS
 62
     7
 10
337.6766052418692
 20
-787.68031959178654
 30
0.0
 40
3.0123622403444719
 50
31.339980101451701
 51
48.241240627841378
  0
ARC
  5
508
  8
DATA
  6
CONTINUOUS
 62
     7
 10
338.70152030437941
 20
-786.51361554453217
 30
0.0
 40
1.459517169195804
 50
47.751358539528923
 51
88.080330670954496
  0
ARC
  5
509
  8
DATA
  6
CONTINUOUS
 62
     7
 10
345.78547576729841
 20
-790.02398323198486
 30
0.0
 40
9.459646589592646
 50
179.8728489773091
 51
194.30973615045559
  0
ARC
  5
50A
  8
DATA
  6
CONTINUOUS
 62
     7
 10
342.04620967605109
 20
-791.01646920192798
 30
0.0
 40
5.5912150801976379
 50
193.9256366715218
 51
210.9555661527653
  0
ARC
  5
50B
  8
DATA
  6
CONTINUOUS
 62
     7
 10
339.82421800303621
 20
-792.32566481049594
 30
0.0
 40
3.0123622403444719
 50
211.33998010145169
 51
228.24124062784131
  0
ARC
  5
50C
  8
DATA
  6
CONTINUOUS
 62
     7
 10
338.79930294052599
 20
-793.49236885775019
 30
0.0
 40
1.459517169195804
 50
227.75135853952889
 51
268.08033067095448
  0
ARC
  5
50D
  8
DATA
  6
CONTINUOUS
 62
     7
 10
331.715347477607
 20
-790.02398323198486
 30
0.0
 40
9.4596465895926265
 50
345.69026384954429
 51
0.127151022690839
  0
ARC
  5
50E
  8
DATA
  6
CONTINUOUS
 62
     7
 10
335.45461356885431
 20
-791.01646920192798
 30
0.0
 40
5.591215080197637
 50
329.0444338472347
 51
346.07436332847811
  0
ARC
  5
50F
  8
DATA
  6
CONTINUOUS
 62
     7
 10
337.6766052418692
 20
-792.32566481049594
 30
0.0
 40
3.0123622403444981
 50
311.75875937215858
 51
328.66001989854891
  0
ARC
  5
510
  8
DATA
  6
CONTINUOUS
 62
     7
 10
338.70152030437941
 20
-793.49236885775019
 30
0.0
 40
1.459517169195776
 50
271.9196693290454
 51
312.24864146047111
  0
LINE
  5
511
  8
DATA
  6
CONTINUOUS
 62
     7
 10
409.77458837754682
 20
-790.00300000000004
 30
0.0
 11
412.2245883775476
 21
-790.00300000000004
 31
0.0
  0
LINE
  5
512
  8
DATA
  6
CONTINUOUS
 62
     7
 10
410.99958837754718
 20
-787.50300000000004
 30
0.0
 11
410.99958837754718
 21
-792.50300000000004
 31
0.0
  0
ARC
  5
513
  8
DATA
  6
CONTINUOUS
 62
     7
 10
440.85979272748659
 20
-789.91389614492789
 30
0.0
 40
40.151301314060383
 50
165.69026384954421
 51
180.12715102269061
  0
ARC
  5
514
  8
DATA
  6
CONTINUOUS
 62
     7
 10
424.9885444624299
 20
-785.70130713838
 30
0.0
 40
23.731812734285491
 50
149.04443384723481
 51
166.07436332847749
  0
ARC
  5
515
  8
DATA
  6
CONTINUOUS
 62
     7
 10
415.5573404173752
 20
-780.14444971661362
 30
0.0
 40
12.785917828287181
 50
131.75875937215849
 51
148.66001989854919
  0
ARC
  5
516
  8
DATA
  6
CONTINUOUS
 62
     7
 10
411.2071067055324
 20
-775.192395186672
 30
0.0
 40
6.1948946060942314
 50
91.919669329045561
 51
132.2486414604713
  0
ARC
  5
517
  8
DATA
  6
CONTINUOUS
 62
     7
 10
381.139384027608
 20
-789.91389614492789
 30
0.0
 40
40.15130131406039
 50
359.87284897730939
 51
14.309736150455819
  0
ARC
  5
518
  8
DATA
  6
CONTINUOUS
 62
     7
 10
397.01063229266452
 20
-785.70130713838
 30
0.0
 40
23.731812734285469
 50
13.925636671522479
 51
30.955566152765218
  0
ARC
  5
519
  8
DATA
  6
CONTINUOUS
 62
     7
 10
406.44183633771928
 20
-780.14444971661362
 30
0.0
 40
12.78591782828715
 50
31.339980101450791
 51
48.241240627841513
  0
ARC
  5
51A
  8
DATA
  6
CONTINUOUS
 62
     7
 10
410.7920700495622
 20
-775.192395186672
 30
0.0
 40
6.1948946060941932
 50
47.751358539528717
 51
88.080330670954453
  0
ARC
  5
51B
  8
DATA
  6
CONTINUOUS
 62
     7
 10
440.85979272748659
 20
-790.09208825735448
 30
0.0
 40
40.15130131406039
 50
179.87284897730939
 51
194.3097361504559
  0
ARC
  5
51C
  8
DATA
  6
CONTINUOUS
 62
     7
 10
424.9885444624299
 20
-794.3046772639027
 30
0.0
 40
23.731812734285469
 50
193.92563667152251
 51
210.95556615276499
  0
ARC
  5
51D
  8
DATA
  6
CONTINUOUS
 62
     7
 10
415.5573404173752
 20
-799.86153468566874
 30
0.0
 40
12.78591782828715
 50
211.33998010145081
 51
228.24124062784159
  0
ARC
  5
51E
  8
DATA
  6
CONTINUOUS
 62
     7
 10
411.2071067055324
 20
-804.81358921561048
 30
0.0
 40
6.1948946060941932
 50
227.7513585395287
 51
268.08033067095448
  0
ARC
  5
51F
  8
DATA
  6
CONTINUOUS
 62
     7
 10
381.139384027608
 20
-790.09208825735448
 30
0.0
 40
40.15130131406039
 50
345.69026384954401
 51
0.1271510226906116
  0
ARC
  5
520
  8
DATA
  6
CONTINUOUS
 62
     7
 10
397.01063229266452
 20
-794.3046772639027
 30
0.0
 40
23.73181273428543
 50
329.04443384723493
 51
346.0743633284776
  0
ARC
  5
521
  8
DATA
  6
CONTINUOUS
 62
     7
 10
406.44183633771928
 20
-799.86153468566874
 30
0.0
 40
12.785917828287181
 50
311.75875937215852
 51
328.66001989854919
  0
ARC
  5
522
  8
DATA
  6
CONTINUOUS
 62
     7
 10
410.7920700495622
 20
-804.81358921561048
 30
0.0
 40
6.1948946060942314
 50
271.9196693290454
 51
312.24864146047128
  0
ARC
  5
523
  8
DATA
  6
CONTINUOUS
 62
     7
 10
433.6933436835011
 20
-789.93527919841915
 30
0.0
 40
30.51498899868589
 50
165.6902638495439
 51
180.1271510226905
  0
ARC
  5
524
  8
DATA
  6
CONTINUOUS
 62
     7
 10
421.63119500205812
 20
-786.7337115534425
 30
0.0
 40
18.03617767805693
 50
149.0444338472347
 51
166.0743633284772
  0
ARC
  5
525
  8
DATA
  6
CONTINUOUS
 62
     7
 10
414.46347992781648
 20
-782.5104999129004
 30
0.0
 40
9.7172975494982818
 50
131.75875937215821
 51
148.66001989854919
  0
ARC
  5
526
  8
DATA
  6
CONTINUOUS
 62
     7
 10
411.15730230681589
 20
-778.74693847014464
 30
0.0
 40
4.7081199006316554
 50
91.919669329045277
 51
132.24864146047079
  0
ARC
  5
527
  8
DATA
  6
CONTINUOUS
 62
     7
 10
388.3058330715935
 20
-789.93527919841915
 30
0.0
 40
30.51498899868589
 50
359.87284897730967
 51
14.3097361504561
  0
ARC
  5
528
  8
DATA
  6
CONTINUOUS
 62
     7
 10
400.3679817530363
 20
-786.7337115534425
 30
0.0
 40
18.036177678056941
 50
13.92563667152276
 51
30.955566152765279
  0
ARC
  5
529
  8
DATA
  6
CONTINUOUS
 62
     7
 10
407.535696827278
 20
-782.5104999129004
 30
0.0
 40
9.7172975494982374
 50
31.33998010145098
 51
48.241240627841712
  0
ARC
  5
52A
  8
DATA
  6
CONTINUOUS
 62
     7
 10
410.84187444827859
 20
-778.74693847014464
 30
0.0
 40
4.7081199006315826
 50
47.7513585395292
 51
88.080330670954737
  0
ARC
  5
52B
  8
DATA
  6
CONTINUOUS
 62
     7
 10
433.6933436835011
 20
-790.07070520386333
 30
0.0
 40
30.51498899868589
 50
179.87284897730939
 51
194.30973615045579
  0
ARC
  5
52C
  8
DATA
  6
CONTINUOUS
 62
     7
 10
421.63119500205812
 20
-793.27227284883998
 30
0.0
 40
18.036177678056919
 50
193.92563667152251
 51
210.95556615276499
  0
ARC
  5
52D
  8
DATA
  6
CONTINUOUS
 62
     7
 10
414.46347992781648
 20
-797.49548448938231
 30
0.0
 40
9.7172975494982374
 50
211.339980101451
 51
228.24124062784171
  0
ARC
  5
52E
  8
DATA
  6
CONTINUOUS
 62
     7
 10
411.15730230681589
 20
-801.25904593213761
 30
0.0
 40
4.7081199006315826
 50
227.75135853952921
 51
268.08033067095471
  0
ARC
  5
52F
  8
DATA
  6
CONTINUOUS
 62
     7
 10
388.3058330715935
 20
-790.07070520386333
 30
0.0
 40
30.514988998685869
 50
345.69026384954412
 51
0.1271510226906685
  0
ARC
  5
530
  8
DATA
  6
CONTINUOUS
 62
     7
 10
400.3679817530363
 20
-793.27227284883998
 30
0.0
 40
18.03617767805687
 50
329.04443384723493
 51
346.0743633284776
  0
ARC
  5
531
  8
DATA
  6
CONTINUOUS
 62
     7
 10
407.535696827278
 20
-797.49548448938231
 30
0.0
 40
9.7172975494982818
 50
311.75875937215841
 51
328.66001989854919
  0
ARC
  5
532
  8
DATA
  6
CONTINUOUS
 62
     7
 10
410.84187444827859
 20
-801.25904593213761
 30
0.0
 40
4.7081199006316554
 50
271.91966932904518
 51
312.24864146047082
  0
ARC
  5
533
  8
DATA
  6
CONTINUOUS
 62
     7
 10
418.034652522393
 20
-789.98200117029751
 30
0.0
 40
9.4596465895926265
 50
165.69026384954429
 51
180.12715102269081
  0
ARC
  5
534
  8
DATA
  6
CONTINUOUS
 62
     7
 10
414.29538643114557
 20
-788.98951520035439
 30
0.0
 40
5.591215080197637
 50
149.0444338472347
 51
166.0743633284782
  0
ARC
  5
535
  8
DATA
  6
CONTINUOUS
 62
     7
 10
412.0733947581308
 20
-787.68031959178654
 30
0.0
 40
3.0123622403444981
 50
131.75875937215861
 51
148.66001989854891
  0
ARC
  5
536
  8
DATA
  6
CONTINUOUS
 62
     7
 10
411.04847969562047
 20
-786.51361554453217
 30
0.0
 40
1.459517169195776
 50
91.919669329045547
 51
132.24864146047111
  0
ARC
  5
537
  8
DATA
  6
CONTINUOUS
 62
     7
 10
403.96452423270159
 20
-789.98200117029751
 30
0.0
 40
9.459646589592646
 50
359.87284897730922
 51
14.309736150455651
  0
ARC
  5
538
  8
DATA
  6
CONTINUOUS
 62
     7
 10
407.70379032394891
 20
-788.98951520035439
 30
0.0
 40
5.5912150801976379
 50
13.925636671521859
 51
30.955566152765289
  0
ARC
  5
539
  8
DATA
  6
CONTINUOUS
 62
     7
 10
409.92578199696368
 20
-787.68031959178654
 30
0.0
 40
3.0123622403444719
 50
31.339980101451701
 51
48.241240627841378
  0
ARC
  5
53A
  8
DATA
  6
CONTINUOUS
 62
     7
 10
410.95069705947401
 20
-786.51361554453217
 30
0.0
 40
1.459517169195804
 50
47.751358539528923
 51
88.080330670954496
  0
ARC
  5
53B
  8
DATA
  6
CONTINUOUS
 62
     7
 10
418.034652522393
 20
-790.02398323198486
 30
0.0
 40
9.459646589592646
 50
179.8728489773091
 51
194.30973615045559
  0
ARC
  5
53C
  8
DATA
  6
CONTINUOUS
 62
     7
 10
414.29538643114557
 20
-791.01646920192798
 30
0.0
 40
5.5912150801976379
 50
193.9256366715218
 51
210.9555661527653
  0
ARC
  5
53D
  8
DATA
  6
CONTINUOUS
 62
     7
 10
412.0733947581308
 20
-792.32566481049594
 30
0.0
 40
3.0123622403444719
 50
211.33998010145169
 51
228.24124062784131
  0
ARC
  5
53E
  8
DATA
  6
CONTINUOUS
 62
     7
 10
411.04847969562047
 20
-793.49236885775019
 30
0.0
 40
1.459517169195804
 50
227.75135853952889
 51
268.08033067095448
  0
ARC
  5
53F
  8
DATA
  6
CONTINUOUS
 62
     7
 10
403.96452423270159
 20
-790.02398323198486
 30
0.0
 40
9.4596465895926265
 50
345.69026384954429
 51
0.127151022690839
  0
ARC
  5
540
  8
DATA
  6
CONTINUOUS
 62
     7
 10
407.70379032394891
 20
-791.01646920192798
 30
0.0
 40
5.591215080197637
 50
329.0444338472347
 51
346.07436332847811
  0
ARC
  5
541
  8
DATA
  6
CONTINUOUS
 62
     7
 10
409.92578199696368
 20
-792.32566481049594
 30
0.0
 40
3.0123622403444981
 50
311.75875937215858
 51
328.66001989854891
  0
ARC
  5
542
  8
DATA
  6
CONTINUOUS
 62
     7
 10
410.95069705947401
 20
-793.49236885775019
 30
0.0
 40
1.459517169195776
 50
271.9196693290454
 51
312.24864146047111
  0
ARC
  5
543
  8
DATA
  6
CONTINUOUS
 62
     7
 10
743.70474553053941
 20
-190.4238145247916
 30
0.0
 40
28.40579730394175
 50
155.0995969833549
 51
180.0931582360414
  0
ARC
  5
544
  8
DATA
  6
CONTINUOUS
 62
     7
 10
734.11032861120054
 20
-185.90564926681409
 30
0.0
 40
17.80102521895472
 50
129.54084385681719
 51
155.28791264043309
  0
ARC
  5
545
  8
DATA
  6
CONTINUOUS
 62
     7
 10
730.25384271878465
 20
-181.1233213297055
 30
0.0
 40
11.658098967644101
 50
91.245629854172535
 51
129.88759866885201
  0
ARC
  5
546
  8
DATA
  6
CONTINUOUS
 62
     7
 10
716.29603213578628
 20
-190.4238145247916
 30
0.0
 40
28.405797303941728
 50
359.90684176395848
 51
24.900403016645111
  0
ARC
  5
547
  8
DATA
  6
CONTINUOUS
 62
     7
 10
725.89044905512492
 20
-185.90564926681409
 30
0.0
 40
17.80102521895466
 50
24.712087359566919
 51
50.45915614318276
  0
ARC
  5
548
  8
DATA
  6
CONTINUOUS
 62
     7
 10
729.74693494754115
 20
-181.1233213297055
 30
0.0
 40
11.65809896764415
 50
50.112401331148021
 51
88.754370145827451
  0
ARC
  5
549
  8
DATA
  6
CONTINUOUS
 62
     7
 10
743.70474553053941
 20
-190.5161854752086
 30
0.0
 40
28.405797303941728
 50
179.90684176395851
 51
204.90040301664521
  0
ARC
  5
54A
  8
DATA
  6
CONTINUOUS
 62
     7
 10
734.11032861120054
 20
-195.0343507331861
 30
0.0
 40
17.80102521895466
 50
204.71208735956691
 51
230.4591561431827
  0
ARC
  5
54B
  8
DATA
  6
CONTINUOUS
 62
     7
 10
730.25384271878465
 20
-199.81667867029481
 30
0.0
 40
11.65809896764415
 50
230.11240133114799
 51
268.75437014582741
  0
ARC
  5
54C
  8
DATA
  6
CONTINUOUS
 62
     7
 10
716.29603213578628
 20
-190.5161854752086
 30
0.0
 40
28.40579730394175
 50
335.09959698335479
 51
0.0931582360415177
  0
ARC
  5
54D
  8
DATA
  6
CONTINUOUS
 62
     7
 10
725.89044905512492
 20
-195.0343507331861
 30
0.0
 40
17.80102521895472
 50
309.54084385681711
 51
335.28791264043298
  0
ARC
  5
54E
  8
DATA
  6
CONTINUOUS
 62
     7
 10
729.74693494754115
 20
-199.81667867029481
 30
0.0
 40
11.658098967644101
 50
271.24562985417248
 51
309.88759866885209
  0
ARC
  5
54F
  8
DATA
  6
CONTINUOUS
 62
     7
 10
740.55274349014269
 20
-190.4344371840896
 30
0.0
 40
21.87246392403511
 50
155.09959698335479
 51
180.0931582360414
  0
ARC
  5
550
  8
DATA
  6
CONTINUOUS
 62
     7
 10
733.16504246225202
 20
-186.95544993544689
 30
0.0
 40
13.7067894185951
 50
129.54084385681719
 51
155.28791264043309
  0
ARC
  5
551
  8
DATA
  6
CONTINUOUS
 62
     7
 10
730.19554832509152
 20
-183.2730574238733
 30
0.0
 40
8.9767362050859543
 50
91.245629854172506
 51
129.88759866885209
  0
ARC
  5
552
  8
DATA
  6
CONTINUOUS
 62
     7
 10
719.44803417618289
 20
-190.4344371840896
 30
0.0
 40
21.872463924035092
 50
359.90684176395848
 51
24.900403016645161
  0
ARC
  5
553
  8
DATA
  6
CONTINUOUS
 62
     7
 10
726.83573520407379
 20
-186.95544993544689
 30
0.0
 40
13.706789418595021
 50
24.712087359567089
 51
50.459156143182753
  0
ARC
  5
554
  8
DATA
  6
CONTINUOUS
 62
     7
 10
729.80522934123405
 20
-183.2730574238733
 30
0.0
 40
8.9767362050859862
 50
50.112401331147993
 51
88.754370145827522
  0
ARC
  5
555
  8
DATA
  6
CONTINUOUS
 62
     7
 10
740.55274349014269
 20
-190.50556281591071
 30
0.0
 40
21.872463924035092
 50
179.90684176395851
 51
204.90040301664521
  0
ARC
  5
556
  8
DATA
  6
CONTINUOUS
 62
     7
 10
733.16504246225202
 20
-193.9845500645533
 30
0.0
 40
13.706789418595021
 50
204.71208735956711
 51
230.4591561431827
  0
ARC
  5
557
  8
DATA
  6
CONTINUOUS
 62
     7
 10
730.19554832509152
 20
-197.66694257612701
 30
0.0
 40
8.9767362050859862
 50
230.11240133114791
 51
268.75437014582752
  0
ARC
  5
558
  8
DATA
  6
CONTINUOUS
 62
     7
 10
719.44803417618289
 20
-190.50556281591071
 30
0.0
 40
21.87246392403511
 50
335.09959698335479
 51
0.0931582360415177
  0
ARC
  5
559
  8
DATA
  6
CONTINUOUS
 62
     7
 10
726.83573520407379
 20
-193.9845500645533
 30
0.0
 40
13.7067894185951
 50
309.54084385681711
 51
335.28791264043298
  0
ARC
  5
55A
  8
DATA
  6
CONTINUOUS
 62
     7
 10
729.80522934123405
 20
-197.66694257612701
 30
0.0
 40
8.9767362050859543
 50
271.24562985417248
 51
309.88759866885209
  0
ARC
  5
55B
  8
DATA
  6
CONTINUOUS
 62
     7
 10
733.27161877682681
 20
-190.45897552706791
 30
0.0
 40
6.7804638164509372
 50
155.09959698335501
 51
180.0931582360414
  0
ARC
  5
55C
  8
DATA
  6
CONTINUOUS
 62
     7
 10
730.98143145818051
 20
-189.3804894799886
 30
0.0
 40
4.2491047197644924
 50
129.54084385681699
 51
155.28791264043301
  0
ARC
  5
55D
  8
DATA
  6
CONTINUOUS
 62
     7
 10
730.06088827566055
 20
-188.2389478014008
 30
0.0
 40
2.7827882235766248
 50
91.245629854172648
 51
129.88759866885201
  0
ARC
  5
55E
  8
DATA
  6
CONTINUOUS
 62
     7
 10
726.7291588894991
 20
-190.45897552706791
 30
0.0
 40
6.7804638164509603
 50
359.90684176395848
 51
24.90040301664493
  0
ARC
  5
55F
  8
DATA
  6
CONTINUOUS
 62
     7
 10
729.01934620814541
 20
-189.3804894799886
 30
0.0
 40
4.2491047197644711
 50
24.712087359567018
 51
50.459156143182753
  0
ARC
  5
560
  8
DATA
  6
CONTINUOUS
 62
     7
 10
729.93988939066503
 20
-188.2389478014008
 30
0.0
 40
2.7827882235766421
 50
50.112401331148341
 51
88.754370145827338
  0
ARC
  5
561
  8
DATA
  6
CONTINUOUS
 62
     7
 10
733.27161877682681
 20
-190.4810244729324
 30
0.0
 40
6.7804638164509603
 50
179.9068417639586
 51
204.90040301664499
  0
ARC
  5
562
  8
DATA
  6
CONTINUOUS
 62
     7
 10
730.98143145818051
 20
-191.5595105200116
 30
0.0
 40
4.2491047197644711
 50
204.71208735956699
 51
230.4591561431827
  0
ARC
  5
563
  8
DATA
  6
CONTINUOUS
 62
     7
 10
730.06088827566055
 20
-192.70105219859951
 30
0.0
 40
2.7827882235766421
 50
230.11240133114839
 51
268.75437014582729
  0
ARC
  5
564
  8
DATA
  6
CONTINUOUS
 62
     7
 10
726.7291588894991
 20
-190.4810244729324
 30
0.0
 40
6.7804638164509372
 50
335.09959698335513
 51
0.0931582360414609
  0
ARC
  5
565
  8
DATA
  6
CONTINUOUS
 62
     7
 10
729.01934620814541
 20
-191.5595105200116
 30
0.0
 40
4.2491047197644924
 50
309.54084385681688
 51
335.28791264043292
  0
ARC
  5
566
  8
DATA
  6
CONTINUOUS
 62
     7
 10
729.93988939066503
 20
-192.70105219859951
 30
0.0
 40
2.7827882235766248
 50
271.24562985417271
 51
309.88759866885209
  0
LINE
  5
567
  8
DATA
  6
CONTINUOUS
 62
     7
 10
886.9995883775473
 20
-190.47000000000011
 30
0.0
 11
890.4995883775473
 21
-190.47000000000011
 31
0.0
  0
LINE
  5
568
  8
DATA
  6
CONTINUOUS
 62
     7
 10
888.7495883775473
 20
-187.97000000000011
 30
0.0
 11
888.7495883775473
 21
-192.97000000000011
 31
0.0
  0
ARC
  5
569
  8
DATA
  6
CONTINUOUS
 62
     7
 10
902.45392228563378
 20
-190.4238145247916
 30
0.0
 40
28.40579730394175
 50
155.0995969833549
 51
180.0931582360414
  0
ARC
  5
56A
  8
DATA
  6
CONTINUOUS
 62
     7
 10
892.85950536629537
 20
-185.90564926681409
 30
0.0
 40
17.80102521895472
 50
129.54084385681719
 51
155.28791264043309
  0
ARC
  5
56B
  8
DATA
  6
CONTINUOUS
 62
     7
 10
889.00301947387925
 20
-181.1233213297055
 30
0.0
 40
11.658098967644101
 50
91.245629854172535
 51
129.88759866885201
  0
ARC
  5
56C
  8
DATA
  6
CONTINUOUS
 62
     7
 10
875.0452088908811
 20
-190.4238145247916
 30
0.0
 40
28.405797303941728
 50
359.90684176395848
 51
24.900403016645111
  0
ARC
  5
56D
  8
DATA
  6
CONTINUOUS
 62
     7
 10
884.63962581021951
 20
-185.90564926681409
 30
0.0
 40
17.80102521895466
 50
24.712087359566919
 51
50.45915614318276
  0
ARC
  5
56E
  8
DATA
  6
CONTINUOUS
 62
     7
 10
888.49611170263574
 20
-181.1233213297055
 30
0.0
 40
11.65809896764415
 50
50.112401331148021
 51
88.754370145827451
  0
ARC
  5
56F
  8
DATA
  6
CONTINUOUS
 62
     7
 10
902.45392228563378
 20
-190.5161854752086
 30
0.0
 40
28.405797303941728
 50
179.90684176395851
 51
204.90040301664521
  0
ARC
  5
570
  8
DATA
  6
CONTINUOUS
 62
     7
 10
892.85950536629537
 20
-195.0343507331861
 30
0.0
 40
17.80102521895466
 50
204.71208735956691
 51
230.4591561431827
  0
ARC
  5
571
  8
DATA
  6
CONTINUOUS
 62
     7
 10
889.00301947387925
 20
-199.81667867029481
 30
0.0
 40
11.65809896764415
 50
230.11240133114799
 51
268.75437014582741
  0
ARC
  5
572
  8
DATA
  6
CONTINUOUS
 62
     7
 10
875.0452088908811
 20
-190.5161854752086
 30
0.0
 40
28.40579730394175
 50
335.09959698335479
 51
0.0931582360415177
  0
ARC
  5
573
  8
DATA
  6
CONTINUOUS
 62
     7
 10
884.63962581021951
 20
-195.0343507331861
 30
0.0
 40
17.80102521895472
 50
309.54084385681711
 51
335.28791264043298
  0
ARC
  5
574
  8
DATA
  6
CONTINUOUS
 62
     7
 10
888.49611170263574
 20
-199.81667867029481
 30
0.0
 40
11.658098967644101
 50
271.24562985417248
 51
309.88759866885209
  0
ARC
  5
575
  8
DATA
  6
CONTINUOUS
 62
     7
 10
899.30192024523728
 20
-190.4344371840896
 30
0.0
 40
21.87246392403511
 50
155.09959698335479
 51
180.0931582360414
  0
ARC
  5
576
  8
DATA
  6
CONTINUOUS
 62
     7
 10
891.9142192173465
 20
-186.95544993544689
 30
0.0
 40
13.7067894185951
 50
129.54084385681719
 51
155.28791264043309
  0
ARC
  5
577
  8
DATA
  6
CONTINUOUS
 62
     7
 10
888.94472508018634
 20
-183.2730574238733
 30
0.0
 40
8.9767362050859543
 50
91.245629854172506
 51
129.88759866885209
  0
ARC
  5
578
  8
DATA
  6
CONTINUOUS
 62
     7
 10
878.19721093127748
 20
-190.4344371840896
 30
0.0
 40
21.872463924035092
 50
359.90684176395848
 51
24.900403016645161
  0
ARC
  5
579
  8
DATA
  6
CONTINUOUS
 62
     7
 10
885.58491195916827
 20
-186.95544993544689
 30
0.0
 40
13.706789418595021
 50
24.712087359567089
 51
50.459156143182753
  0
ARC
  5
57A
  8
DATA
  6
CONTINUOUS
 62
     7
 10
888.55440609632853
 20
-183.2730574238733
 30
0.0
 40
8.9767362050859862
 50
50.112401331147993
 51
88.754370145827522
  0
ARC
  5
57B
  8
DATA
  6
CONTINUOUS
 62
     7
 10
899.30192024523728
 20
-190.50556281591071
 30
0.0
 40
21.872463924035092
 50
179.90684176395851
 51
204.90040301664521
  0
ARC
  5
57C
  8
DATA
  6
CONTINUOUS
 62
     7
 10
891.9142192173465
 20
-193.9845500645533
 30
0.0
 40
13.706789418595021
 50
204.71208735956711
 51
230.4591561431827
  0
ARC
  5
57D
  8
DATA
  6
CONTINUOUS
 62
     7
 10
888.94472508018634
 20
-197.66694257612701
 30
0.0
 40
8.9767362050859862
 50
230.11240133114791
 51
268.75437014582752
  0
ARC
  5
57E
  8
DATA
  6
CONTINUOUS
 62
     7
 10
878.19721093127748
 20
-190.50556281591071
 30
0.0
 40
21.87246392403511
 50
335.09959698335479
 51
0.0931582360415177
  0
ARC
  5
57F
  8
DATA
  6
CONTINUOUS
 62
     7
 10
885.58491195916827
 20
-193.9845500645533
 30
0.0
 40
13.7067894185951
 50
309.54084385681711
 51
335.28791264043298
  0
ARC
  5
580
  8
DATA
  6
CONTINUOUS
 62
     7
 10
888.55440609632853
 20
-197.66694257612701
 30
0.0
 40
8.9767362050859543
 50
271.24562985417248
 51
309.88759866885209
  0
ARC
  5
581
  8
DATA
  6
CONTINUOUS
 62
     7
 10
892.02079553192152
 20
-190.45897552706791
 30
0.0
 40
6.7804638164509372
 50
155.09959698335501
 51
180.0931582360414
  0
ARC
  5
582
  8
DATA
  6
CONTINUOUS
 62
     7
 10
889.73060821327499
 20
-189.3804894799886
 30
0.0
 40
4.2491047197644924
 50
129.54084385681699
 51
155.28791264043301
  0
ARC
  5
583
  8
DATA
  6
CONTINUOUS
 62
     7
 10
888.81006503075525
 20
-188.2389478014008
 30
0.0
 40
2.7827882235766248
 50
91.245629854172648
 51
129.88759866885201
  0
ARC
  5
584
  8
DATA
  6
CONTINUOUS
 62
     7
 10
885.47833564459381
 20
-190.45897552706791
 30
0.0
 40
6.7804638164509603
 50
359.90684176395848
 51
24.90040301664493
  0
ARC
  5
585
  8
DATA
  6
CONTINUOUS
 62
     7
 10
887.76852296323989
 20
-189.3804894799886
 30
0.0
 40
4.2491047197644711
 50
24.712087359567018
 51
50.459156143182753
  0
ARC
  5
586
  8
DATA
  6
CONTINUOUS
 62
     7
 10
888.68906614575974
 20
-188.2389478014008
 30
0.0
 40
2.7827882235766421
 50
50.112401331148341
 51
88.754370145827338
  0
ARC
  5
587
  8
DATA
  6
CONTINUOUS
 62
     7
 10
892.02079553192152
 20
-190.4810244729324
 30
0.0
 40
6.7804638164509603
 50
179.9068417639586
 51
204.90040301664499
  0
ARC
  5
588
  8
DATA
  6
CONTINUOUS
 62
     7
 10
889.73060821327499
 20
-191.5595105200116
 30
0.0
 40
4.2491047197644711
 50
204.71208735956699
 51
230.4591561431827
  0
ARC
  5
589
  8
DATA
  6
CONTINUOUS
 62
     7
 10
888.81006503075525
 20
-192.70105219859951
 30
0.0
 40
2.7827882235766421
 50
230.11240133114839
 51
268.75437014582729
  0
ARC
  5
58A
  8
DATA
  6
CONTINUOUS
 62
     7
 10
885.47833564459381
 20
-190.4810244729324
 30
0.0
 40
6.7804638164509372
 50
335.09959698335513
 51
0.0931582360414609
  0
ARC
  5
58B
  8
DATA
  6
CONTINUOUS
 62
     7
 10
887.76852296323989
 20
-191.5595105200116
 30
0.0
 40
4.2491047197644924
 50
309.54084385681688
 51
335.28791264043292
  0
ARC
  5
58C
  8
DATA
  6
CONTINUOUS
 62
     7
 10
888.68906614575974
 20
-192.70105219859951
 30
0.0
 40
2.7827882235766248
 50
271.24562985417271
 51
309.88759866885209
  0
LINE
  5
58D
  8
DATA
  6
CONTINUOUS
 62
     7
 10
728.2504116224527
 20
-790.00300000000016
 30
0.0
 11
731.7504116224527
 21
-790.00300000000016
 31
0.0
  0
LINE
  5
58E
  8
DATA
  6
CONTINUOUS
 62
     7
 10
730.0004116224527
 20
-787.50300000000016
 30
0.0
 11
730.0004116224527
 21
-792.50300000000016
 31
0.0
  0
ARC
  5
58F
  8
DATA
  6
CONTINUOUS
 62
     7
 10
743.70474553053941
 20
-789.95681452479153
 30
0.0
 40
28.405797303941721
 50
155.0995969833551
 51
180.09315823604149
  0
ARC
  5
590
  8
DATA
  6
CONTINUOUS
 62
     7
 10
734.11032861120054
 20
-785.43864926681431
 30
0.0
 40
17.80102521895472
 50
129.54084385681719
 51
155.28791264043321
  0
ARC
  5
591
  8
DATA
  6
CONTINUOUS
 62
     7
 10
730.25384271878465
 20
-780.65632132970552
 30
0.0
 40
11.65809896764412
 50
91.245629854172535
 51
129.88759866885201
  0
ARC
  5
592
  8
DATA
  6
CONTINUOUS
 62
     7
 10
716.29603213578628
 20
-789.95681452479153
 30
0.0
 40
28.405797303941728
 50
359.90684176395843
 51
24.90040301664493
  0
ARC
  5
593
  8
DATA
  6
CONTINUOUS
 62
     7
 10
725.89044905512492
 20
-785.43864926681431
 30
0.0
 40
17.801025218954639
 50
24.712087359566748
 51
50.45915614318276
  0
ARC
  5
594
  8
DATA
  6
CONTINUOUS
 62
     7
 10
729.74693494754115
 20
-780.65632132970552
 30
0.0
 40
11.65809896764415
 50
50.112401331148021
 51
88.754370145827451
  0
ARC
  5
595
  8
DATA
  6
CONTINUOUS
 62
     7
 10
743.70474553053941
 20
-790.04918547520845
 30
0.0
 40
28.405797303941728
 50
179.90684176395851
 51
204.9004030166449
  0
ARC
  5
596
  8
DATA
  6
CONTINUOUS
 62
     7
 10
734.11032861120054
 20
-794.56735073318623
 30
0.0
 40
17.801025218954639
 50
204.71208735956679
 51
230.4591561431827
  0
ARC
  5
597
  8
DATA
  6
CONTINUOUS
 62
     7
 10
730.25384271878465
 20
-799.34967867029479
 30
0.0
 40
11.65809896764415
 50
230.11240133114799
 51
268.75437014582741
  0
ARC
  5
598
  8
DATA
  6
CONTINUOUS
 62
     7
 10
716.29603213578628
 20
-790.04918547520845
 30
0.0
 40
28.405797303941721
 50
335.09959698335513
 51
0.0931582360415746
  0
ARC
  5
599
  8
DATA
  6
CONTINUOUS
 62
     7
 10
725.89044905512492
 20
-794.56735073318623
 30
0.0
 40
17.80102521895472
 50
309.54084385681711
 51
335.28791264043321
  0
ARC
  5
59A
  8
DATA
  6
CONTINUOUS
 62
     7
 10
729.74693494754115
 20
-799.34967867029479
 30
0.0
 40
11.65809896764412
 50
271.24562985417248
 51
309.88759866885209
  0
ARC
  5
59B
  8
DATA
  6
CONTINUOUS
 62
     7
 10
740.55274349014269
 20
-789.96743718408959
 30
0.0
 40
21.872463924035081
 50
155.0995969833549
 51
180.09315823604149
  0
ARC
  5
59C
  8
DATA
  6
CONTINUOUS
 62
     7
 10
733.16504246225202
 20
-786.48844993544685
 30
0.0
 40
13.70678941859512
 50
129.54084385681711
 51
155.28791264043321
  0
ARC
  5
59D
  8
DATA
  6
CONTINUOUS
 62
     7
 10
730.19554832509152
 20
-782.80605742387331
 30
0.0
 40
8.9767362050860378
 50
91.245629854172464
 51
129.88759866885221
  0
ARC
  5
59E
  8
DATA
  6
CONTINUOUS
 62
     7
 10
719.44803417618289
 20
-789.96743718408959
 30
0.0
 40
21.872463924035092
 50
359.90684176395843
 51
24.900403016645051
  0
ARC
  5
59F
  8
DATA
  6
CONTINUOUS
 62
     7
 10
726.83573520407379
 20
-786.48844993544685
 30
0.0
 40
13.70678941859501
 50
24.712087359566979
 51
50.459156143182568
  0
ARC
  5
5A0
  8
DATA
  6
CONTINUOUS
 62
     7
 10
729.80522934123405
 20
-782.80605742387331
 30
0.0
 40
8.9767362050860307
 50
50.112401331148213
 51
88.754370145827536
  0
ARC
  5
5A1
  8
DATA
  6
CONTINUOUS
 62
     7
 10
740.55274349014269
 20
-790.03856281591084
 30
0.0
 40
21.872463924035092
 50
179.9068417639584
 51
204.9004030166451
  0
ARC
  5
5A2
  8
DATA
  6
CONTINUOUS
 62
     7
 10
733.16504246225202
 20
-793.51755006455323
 30
0.0
 40
13.70678941859501
 50
204.71208735956699
 51
230.45915614318261
  0
ARC
  5
5A3
  8
DATA
  6
CONTINUOUS
 62
     7
 10
730.19554832509152
 20
-797.199942576127
 30
0.0
 40
8.9767362050860307
 50
230.11240133114811
 51
268.75437014582752
  0
ARC
  5
5A4
  8
DATA
  6
CONTINUOUS
 62
     7
 10
719.44803417618289
 20
-790.03856281591084
 30
0.0
 40
21.872463924035081
 50
335.09959698335501
 51
0.0931582360415746
  0
ARC
  5
5A5
  8
DATA
  6
CONTINUOUS
 62
     7
 10
726.83573520407379
 20
-793.51755006455323
 30
0.0
 40
13.70678941859512
 50
309.54084385681711
 51
335.28791264043321
  0
ARC
  5
5A6
  8
DATA
  6
CONTINUOUS
 62
     7
 10
729.80522934123405
 20
-797.199942576127
 30
0.0
 40
8.9767362050860378
 50
271.24562985417248
 51
309.88759866885221
  0
ARC
  5
5A7
  8
DATA
  6
CONTINUOUS
 62
     7
 10
733.27161877682681
 20
-789.99197552706801
 30
0.0
 40
6.7804638164509514
 50
155.09959698335479
 51
180.0931582360414
  0
ARC
  5
5A8
  8
DATA
  6
CONTINUOUS
 62
     7
 10
730.98143145818051
 20
-788.91348947998858
 30
0.0
 40
4.2491047197645351
 50
129.54084385681651
 51
155.2879126404323
  0
ARC
  5
5A9
  8
DATA
  6
CONTINUOUS
 62
     7
 10
730.06088827566055
 20
-787.77194780140064
 30
0.0
 40
2.782788223576568
 50
91.245629854172677
 51
129.88759866885351
  0
ARC
  5
5AA
  8
DATA
  6
CONTINUOUS
 62
     7
 10
726.7291588894991
 20
-789.99197552706801
 30
0.0
 40
6.7804638164509603
 50
359.90684176395848
 51
24.90040301664521
  0
ARC
  5
5AB
  8
DATA
  6
CONTINUOUS
 62
     7
 10
729.01934620814541
 20
-788.91348947998858
 30
0.0
 40
4.2491047197644942
 50
24.712087359567722
 51
50.459156143182497
  0
ARC
  5
5AC
  8
DATA
  6
CONTINUOUS
 62
     7
 10
729.93988939066503
 20
-787.77194780140064
 30
0.0
 40
2.7827882235766199
 50
50.112401331147957
 51
88.754370145827338
  0
ARC
  5
5AD
  8
DATA
  6
CONTINUOUS
 62
     7
 10
733.27161877682681
 20
-790.01402447293242
 30
0.0
 40
6.7804638164509603
 50
179.9068417639586
 51
204.90040301664521
  0
ARC
  5
5AE
  8
DATA
  6
CONTINUOUS
 62
     7
 10
730.98143145818051
 20
-791.09251052001139
 30
0.0
 40
4.2491047197644942
 50
204.7120873595677
 51
230.4591561431825
  0
ARC
  5
5AF
  8
DATA
  6
CONTINUOUS
 62
     7
 10
730.06088827566055
 20
-792.23405219859956
 30
0.0
 40
2.7827882235766199
 50
230.11240133114791
 51
268.75437014582729
  0
ARC
  5
5B0
  8
DATA
  6
CONTINUOUS
 62
     7
 10
726.7291588894991
 20
-790.01402447293242
 30
0.0
 40
6.7804638164509514
 50
335.09959698335479
 51
0.0931582360414609
  0
ARC
  5
5B1
  8
DATA
  6
CONTINUOUS
 62
     7
 10
729.01934620814541
 20
-791.09251052001139
 30
0.0
 40
4.2491047197645351
 50
309.54084385681648
 51
335.2879126404323
  0
ARC
  5
5B2
  8
DATA
  6
CONTINUOUS
 62
     7
 10
729.93988939066503
 20
-792.23405219859956
 30
0.0
 40
2.782788223576568
 50
271.24562985417271
 51
309.88759866885363
  0
LINE
  5
5B3
  8
DATA
  6
CONTINUOUS
 62
     7
 10
886.9995883775473
 20
-790.00300000000016
 30
0.0
 11
890.4995883775473
 21
-790.00300000000016
 31
0.0
  0
LINE
  5
5B4
  8
DATA
  6
CONTINUOUS
 62
     7
 10
888.7495883775473
 20
-787.50300000000016
 30
0.0
 11
888.7495883775473
 21
-792.50300000000016
 31
0.0
  0
ARC
  5
5B5
  8
DATA
  6
CONTINUOUS
 62
     7
 10
902.45392228563378
 20
-789.95681452479153
 30
0.0
 40
28.405797303941721
 50
155.0995969833551
 51
180.09315823604149
  0
ARC
  5
5B6
  8
DATA
  6
CONTINUOUS
 62
     7
 10
892.85950536629537
 20
-785.43864926681431
 30
0.0
 40
17.80102521895472
 50
129.54084385681719
 51
155.28791264043321
  0
ARC
  5
5B7
  8
DATA
  6
CONTINUOUS
 62
     7
 10
889.00301947387925
 20
-780.65632132970552
 30
0.0
 40
11.65809896764412
 50
91.245629854172535
 51
129.88759866885201
  0
ARC
  5
5B8
  8
DATA
  6
CONTINUOUS
 62
     7
 10
875.0452088908811
 20
-789.95681452479153
 30
0.0
 40
28.405797303941728
 50
359.90684176395843
 51
24.90040301664493
  0
ARC
  5
5B9
  8
DATA
  6
CONTINUOUS
 62
     7
 10
884.63962581021951
 20
-785.43864926681431
 30
0.0
 40
17.801025218954639
 50
24.712087359566748
 51
50.45915614318276
  0
ARC
  5
5BA
  8
DATA
  6
CONTINUOUS
 62
     7
 10
888.49611170263574
 20
-780.65632132970552
 30
0.0
 40
11.65809896764415
 50
50.112401331148021
 51
88.754370145827451
  0
ARC
  5
5BB
  8
DATA
  6
CONTINUOUS
 62
     7
 10
902.45392228563378
 20
-790.04918547520845
 30
0.0
 40
28.405797303941728
 50
179.90684176395851
 51
204.9004030166449
  0
ARC
  5
5BC
  8
DATA
  6
CONTINUOUS
 62
     7
 10
892.85950536629537
 20
-794.56735073318623
 30
0.0
 40
17.801025218954639
 50
204.71208735956679
 51
230.4591561431827
  0
ARC
  5
5BD
  8
DATA
  6
CONTINUOUS
 62
     7
 10
889.00301947387925
 20
-799.34967867029479
 30
0.0
 40
11.65809896764415
 50
230.11240133114799
 51
268.75437014582741
  0
ARC
  5
5BE
  8
DATA
  6
CONTINUOUS
 62
     7
 10
875.0452088908811
 20
-790.04918547520845
 30
0.0
 40
28.405797303941721
 50
335.09959698335513
 51
0.0931582360415746
  0
ARC
  5
5BF
  8
DATA
  6
CONTINUOUS
 62
     7
 10
884.63962581021951
 20
-794.56735073318623
 30
0.0
 40
17.80102521895472
 50
309.54084385681711
 51
335.28791264043321
  0
ARC
  5
5C0
  8
DATA
  6
CONTINUOUS
 62
     7
 10
888.49611170263574
 20
-799.34967867029479
 30
0.0
 40
11.65809896764412
 50
271.24562985417248
 51
309.88759866885209
  0
ARC
  5
5C1
  8
DATA
  6
CONTINUOUS
 62
     7
 10
899.30192024523728
 20
-789.96743718408959
 30
0.0
 40
21.872463924035081
 50
155.0995969833549
 51
180.09315823604149
  0
ARC
  5
5C2
  8
DATA
  6
CONTINUOUS
 62
     7
 10
891.9142192173465
 20
-786.48844993544685
 30
0.0
 40
13.70678941859512
 50
129.54084385681711
 51
155.28791264043321
  0
ARC
  5
5C3
  8
DATA
  6
CONTINUOUS
 62
     7
 10
888.94472508018634
 20
-782.80605742387331
 30
0.0
 40
8.9767362050860378
 50
91.245629854172464
 51
129.88759866885221
  0
ARC
  5
5C4
  8
DATA
  6
CONTINUOUS
 62
     7
 10
878.19721093127748
 20
-789.96743718408959
 30
0.0
 40
21.872463924035092
 50
359.90684176395843
 51
24.900403016645051
  0
ARC
  5
5C5
  8
DATA
  6
CONTINUOUS
 62
     7
 10
885.58491195916827
 20
-786.48844993544685
 30
0.0
 40
13.70678941859501
 50
24.712087359566979
 51
50.459156143182568
  0
ARC
  5
5C6
  8
DATA
  6
CONTINUOUS
 62
     7
 10
888.55440609632853
 20
-782.80605742387331
 30
0.0
 40
8.9767362050860307
 50
50.112401331148213
 51
88.754370145827536
  0
ARC
  5
5C7
  8
DATA
  6
CONTINUOUS
 62
     7
 10
899.30192024523728
 20
-790.03856281591084
 30
0.0
 40
21.872463924035092
 50
179.9068417639584
 51
204.9004030166451
  0
ARC
  5
5C8
  8
DATA
  6
CONTINUOUS
 62
     7
 10
891.9142192173465
 20
-793.51755006455323
 30
0.0
 40
13.70678941859501
 50
204.71208735956699
 51
230.45915614318261
  0
ARC
  5
5C9
  8
DATA
  6
CONTINUOUS
 62
     7
 10
888.94472508018634
 20
-797.199942576127
 30
0.0
 40
8.9767362050860307
 50
230.11240133114811
 51
268.75437014582752
  0
ARC
  5
5CA
  8
DATA
  6
CONTINUOUS
 62
     7
 10
878.19721093127748
 20
-790.03856281591084
 30
0.0
 40
21.872463924035081
 50
335.09959698335501
 51
0.0931582360415746
  0
ARC
  5
5CB
  8
DATA
  6
CONTINUOUS
 62
     7
 10
885.58491195916827
 20
-793.51755006455323
 30
0.0
 40
13.70678941859512
 50
309.54084385681711
 51
335.28791264043321
  0
ARC
  5
5CC
  8
DATA
  6
CONTINUOUS
 62
     7
 10
888.55440609632853
 20
-797.199942576127
 30
0.0
 40
8.9767362050860378
 50
271.24562985417248
 51
309.88759866885221
  0
ARC
  5
5CD
  8
DATA
  6
CONTINUOUS
 62
     7
 10
892.02079553192152
 20
-789.99197552706801
 30
0.0
 40
6.7804638164509514
 50
155.09959698335479
 51
180.0931582360414
  0
ARC
  5
5CE
  8
DATA
  6
CONTINUOUS
 62
     7
 10
889.73060821327499
 20
-788.91348947998858
 30
0.0
 40
4.2491047197645351
 50
129.54084385681651
 51
155.2879126404323
  0
ARC
  5
5CF
  8
DATA
  6
CONTINUOUS
 62
     7
 10
888.81006503075525
 20
-787.77194780140064
 30
0.0
 40
2.782788223576568
 50
91.245629854172677
 51
129.88759866885351
  0
ARC
  5
5D0
  8
DATA
  6
CONTINUOUS
 62
     7
 10
885.47833564459381
 20
-789.99197552706801
 30
0.0
 40
6.7804638164509603
 50
359.90684176395848
 51
24.90040301664521
  0
ARC
  5
5D1
  8
DATA
  6
CONTINUOUS
 62
     7
 10
887.76852296323989
 20
-788.91348947998858
 30
0.0
 40
4.2491047197644942
 50
24.712087359567722
 51
50.459156143182497
  0
ARC
  5
5D2
  8
DATA
  6
CONTINUOUS
 62
     7
 10
888.68906614575974
 20
-787.77194780140064
 30
0.0
 40
2.7827882235766199
 50
50.112401331147957
 51
88.754370145827338
  0
ARC
  5
5D3
  8
DATA
  6
CONTINUOUS
 62
     7
 10
892.02079553192152
 20
-790.01402447293242
 30
0.0
 40
6.7804638164509603
 50
179.9068417639586
 51
204.90040301664521
  0
ARC
  5
5D4
  8
DATA
  6
CONTINUOUS
 62
     7
 10
889.73060821327499
 20
-791.09251052001139
 30
0.0
 40
4.2491047197644942
 50
204.7120873595677
 51
230.4591561431825
  0
ARC
  5
5D5
  8
DATA
  6
CONTINUOUS
 62
     7
 10
888.81006503075525
 20
-792.23405219859956
 30
0.0
 40
2.7827882235766199
 50
230.11240133114791
 51
268.75437014582729
  0
ARC
  5
5D6
  8
DATA
  6
CONTINUOUS
 62
     7
 10
885.47833564459381
 20
-790.01402447293242
 30
0.0
 40
6.7804638164509514
 50
335.09959698335479
 51
0.0931582360414609
  0
ARC
  5
5D7
  8
DATA
  6
CONTINUOUS
 62
     7
 10
887.76852296323989
 20
-791.09251052001139
 30
0.0
 40
4.2491047197645351
 50
309.54084385681648
 51
335.2879126404323
  0
ARC
  5
5D8
  8
DATA
  6
CONTINUOUS
 62
     7
 10
888.68906614575974
 20
-792.23405219859956
 30
0.0
 40
2.782788223576568
 50
271.24562985417271
 51
309.88759866885363
  0
ENDSEC
  0
EOF
