  0
SECTION
  2
HEADER
  9
$ACADVER
  1
AC1009
  9
$INSBASE
 10
0.0
 20
0.0
 30
0.0
  9
$EXTMIN
 10
-1700.1098548994739
 20
-2540.4433909647428
 30
-0.0015258207003583
  9
$EXTMAX
 10
1900.10987166328
 20
2807.2672151218521
 30
0.0000000349246037
  9
$LIMMIN
 10
0.0
 20
0.0
  9
$LIMMAX
 10
0.0
 20
0.0
  9
$ORTHOMODE
 70
     0
  9
$REGENMODE
 70
     1
  9
$FILLMODE
 70
     1
  9
$QTEXTMODE
 70
     0
  9
$MIRRTEXT
 70
     1
  9
$DRAGMODE
 70
     2
  9
$LTSCALE
 40
101.59999999999999
  9
$OSMODE
 70
   167
  9
$ATTMODE
 70
     1
  9
$TEXTSIZE
 40
0.0
  9
$TRACEWID
 40
1.0
  9
$TEXTSTYLE
  7
STANDARD
  9
$CLAYER
  8
0
  9
$CELTYPE
  6
CONTINUOUS
  9
$CECOLOR
 62
   256
  9
$DIMSCALE
 40
1.0
  9
$DIMASZ
 40
0.18
  9
$DIMEXO
 40
0.0625
  9
$DIMDLI
 40
0.38
  9
$DIMRND
 40
0.0
  9
$DIMDLE
 40
0.0
  9
$DIMEXE
 40
0.18
  9
$DIMTP
 40
0.0
  9
$DIMTM
 40
0.0
  9
$DIMTXT
 40
0.18
  9
$DIMCEN
 40
0.09
  9
$DIMTSZ
 40
0.0
  9
$DIMTOL
 70
     0
  9
$DIMLIM
 70
     0
  9
$DIMTIH
 70
     1
  9
$DIMTOH
 70
     1
  9
$DIMSE1
 70
     0
  9
$DIMSE2
 70
     0
  9
$DIMTAD
 70
     0
  9
$DIMZIN
 70
     0
  9
$DIMBLK
  1

  9
$DIMASO
 70
     1
  9
$DIMSHO
 70
     1
  9
$DIMPOST
  1

  9
$DIMAPOST
  1

  9
$DIMALT
 70
     0
  9
$DIMALTD
 70
     2
  9
$DIMALTF
 40
25.399999999999999
  9
$DIMLFAC
 40
1.0
  9
$DIMTOFL
 70
     0
  9
$DIMTVP
 40
0.0
  9
$DIMTIX
 70
     0
  9
$DIMSOXD
 70
     0
  9
$DIMSAH
 70
     0
  9
$DIMBLK1
  1

  9
$DIMBLK2
  1

  9
$DIMSTYLE
  2
STANDARD
  9
$DIMCLRD
 70
     0
  9
$DIMCLRE
 70
     0
  9
$DIMCLRT
 70
     0
  9
$DIMTFAC
 40
1.0
  9
$DIMGAP
 40
0.09
  9
$LUNITS
 70
     2
  9
$LUPREC
 70
     4
  9
$SKETCHINC
 40
0.1
  9
$FILLETRAD
 40
0.0
  9
$AUNITS
 70
     0
  9
$AUPREC
 70
     0
  9
$MENU
  1
acad
  9
$ELEVATION
 40
0.0
  9
$PELEVATION
 40
0.0
  9
$THICKNESS
 40
0.0
  9
$LIMCHECK
 70
     0
  9
$BLIPMODE
 70
     0
  9
$CHAMFERA
 40
0.0
  9
$CHAMFERB
 40
0.0
  9
$SKPOLY
 70
     0
  9
$TDCREATE
 40
2452440.159606481
  9
$TDUPDATE
 40
2452439.785020601
  9
$TDINDWG
 40
0.0003515046
  9
$TDUSRTIMER
 40
0.0003515046
  9
$USRTIMER
 70
     1
  9
$ANGBASE
 50
0.0
  9
$ANGDIR
 70
     0
  9
$PDMODE
 70
     1
  9
$PDSIZE
 40
-2.0
  9
$PLINEWID
 40
0.0
  9
$COORDS
 70
     0
  9
$SPLFRAME
 70
     0
  9
$SPLINETYPE
 70
     6
  9
$SPLINESEGS
 70
     8
  9
$ATTDIA
 70
     0
  9
$ATTREQ
 70
     1
  9
$HANDLING
 70
 22529
  9
$HANDSEED
  5
23B
  9
$SURFTAB1
 70
     6
  9
$SURFTAB2
 70
     6
  9
$SURFTYPE
 70
     6
  9
$SURFU
 70
     6
  9
$SURFV
 70
     6
  9
$UCSNAME
  2

  9
$UCSORG
 10
0.0
 20
0.0
 30
0.0
  9
$UCSXDIR
 10
1.0
 20
0.0
 30
0.0
  9
$UCSYDIR
 10
0.0
 20
1.0
 30
0.0
  9
$PUCSNAME
  2

  9
$PUCSORG
 10
0.0
 20
0.0
 30
0.0
  9
$PUCSXDIR
 10
1.0
 20
0.0
 30
0.0
  9
$PUCSYDIR
 10
0.0
 20
1.0
 30
0.0
  9
$USERI1
 70
     0
  9
$USERI2
 70
     0
  9
$USERI3
 70
     0
  9
$USERI4
 70
     0
  9
$USERI5
 70
     0
  9
$USERR1
 40
0.0
  9
$USERR2
 40
0.0
  9
$USERR3
 40
0.0
  9
$USERR4
 40
0.0
  9
$USERR5
 40
0.0
  9
$WORLDVIEW
 70
     1
  9
$SHADEDGE
 70
     3
  9
$SHADEDIF
 70
    70
  9
$TILEMODE
 70
     1
  9
$MAXACTVP
 70
    16
  9
$PLIMCHECK
 70
     0
  9
$PEXTMIN
 10
1.0000000000000000E+020
 20
1.0000000000000000E+020
 30
1.0000000000000000E+020
  9
$PEXTMAX
 10
-1.0000000000000000E+020
 20
-1.0000000000000000E+020
 30
-1.0000000000000000E+020
  9
$PLIMMIN
 10
0.0
 20
0.0
  9
$PLIMMAX
 10
12.0
 20
9.0
  9
$UNITMODE
 70
     0
  9
$VISRETAIN
 70
     0
  9
$PLINEGEN
 70
     1
  9
$PSLTSCALE
 70
     0
  0
ENDSEC
  0
SECTION
  2
TABLES
  0
TABLE
  2
VPORT
 70
     3
  0
VPORT
  2
*ACTIVE
 70
     0
 10
0.0
 20
0.0
 11
1.0
 21
1.0
 12
100.00001296218571
 22
133.4119058612068
 13
0.0
 23
0.0
 14
1.0
 24
1.0
 15
0.0
 25
0.0
 16
0.0
 26
0.0
 36
1.0
 17
0.0
 27
0.0
 37
0.0
 40
6430.6454275067408
 41
1.664912280701754
 42
50.0
 43
0.0
 44
0.0
 50
0.0
 51
0.0
 71
     0
 72
   100
 73
     1
 74
     1
 75
     0
 76
     0
 77
     0
 78
     0
  0
ENDTAB
  0
TABLE
  2
LTYPE
 70
    11
  0
LTYPE
  2
CONTINUOUS
 70
     0
  3
Solid line
 72
    65
 73
     0
 40
0.0
  0
LTYPE
  2
STYLE_01
 70
     0
  3

 72
    65
 73
     2
 40
0.4166412353515625
 49
0.208282470703125
 49
-0.2083587646484375
  0
LTYPE
  2
STYLE_02
 70
     0
  3

 72
    65
 73
     2
 40
0.694427490234375
 49
0.4860687255859375
 49
-0.2083587646484375
  0
LTYPE
  2
STYLE_03
 70
     0
  3

 72
    65
 73
     2
 40
1.25
 49
1.0416412353515621
 49
-0.2083587646484375
  0
LTYPE
  2
STYLE_04
 70
     0
  3

 72
    65
 73
     2
 40
1.5277099609375
 49
1.319427490234375
 49
-0.208282470703125
  0
LTYPE
  2
STYLE_05
 70
     0
  3

 72
    65
 73
     2
 40
0.208282470703125
 49
0.069427490234375
 49
-0.13885498046875
  0
LTYPE
  2
STYLE_06
 70
     0
  3

 72
    65
 73
     4
 40
1.0416412353515621
 49
0.625
 49
-0.208282470703125
 49
0.069427490234375
 49
-0.1389312744140625
  0
LTYPE
  2
STYLE_07
 70
     0
  3

 72
    65
 73
     6
 40
1.875
 49
0.625
 49
-0.208282470703125
 49
0.625
 49
-0.2083587646484375
 49
0.069427490234375
 49
-0.1389312744140625
  0
LTYPE
  2
STYLE_08
 70
     0
  3

 72
    65
 73
     6
 40
1.25
 49
0.625
 49
-0.208282470703125
 49
0.069427490234375
 49
-0.1389312744140625
 49
0.069427490234375
 49
-0.1389312744140625
  0
LTYPE
  2
STYLE_09
 70
     0
  3

 72
    65
 73
     4
 40
5.0
 49
3.75
 49
-0.2777862548828125
 49
0.694427490234375
 49
-0.2777862548828125
  0
LTYPE
  2
STYLE_10
 70
     0
  3

 72
    65
 73
     6
 40
5.9375
 49
3.75
 49
-0.2777862548828125
 49
0.694427490234375
 49
-0.2777862548828125
 49
0.625
 49
-0.3125
  0
ENDTAB
  0
TABLE
  2
LAYER
 70
     5
  0
LAYER
  2
0
 70
     0
 62
     7
  6
CONTINUOUS
  0
LAYER
  2
HIBINO-BASE
 70
     0
 62
     7
  6
CONTINUOUS
  0
LAYER
  2
SPEC
 70
     0
 62
     7
  6
CONTINUOUS
  0
LAYER
  2
DIMNSIONS
 70
     0
 62
     7
  6
CONTINUOUS
  0
LAYER
  2
DATA
 70
     0
 62
     7
  6
CONTINUOUS
  0
ENDTAB
  0
TABLE
  2
STYLE
 70
     2
  0
STYLE
  2
STANDARD
 70
     0
 40
0.0
 41
1.0
 50
0.0
 71
     0
 42
0.0
  3
txt
  4
BIGFONT.SHX
  0
ENDTAB
  0
TABLE
  2
VIEW
 70
     0
  0
ENDTAB
  0
TABLE
  2
UCS
 70
     0
  0
ENDTAB
  0
TABLE
  2
APPID
 70
     1
  0
APPID
  2
ACAD
 70
     0
  0
ENDTAB
  0
TABLE
  2
DIMSTYLE
 70
     1
  0
DIMSTYLE
  2
STANDARD
 70
     0
  3

  4

  5

  6

  7

 40
1.0
 41
0.18
 42
0.0625
 43
0.38
 44
0.18
 45
0.0
 46
0.0
 47
0.0
 48
0.0
140
0.18
141
0.09
142
0.0
143
25.399999999999999
144
1.0
145
0.0
146
1.0
147
0.09
 71
     0
 72
     0
 73
     1
 74
     1
 75
     0
 76
     0
 77
     0
 78
     0
170
     0
171
     2
172
     0
173
     0
174
     0
175
     0
176
     0
177
     0
178
     0
  0
ENDTAB
  0
ENDSEC
  0
SECTION
  2
BLOCKS
  0
BLOCK
  8
0
  2
$MODEL_SPACE
 70
     0
 10
0.0
 20
0.0
 30
0.0
  3
$MODEL_SPACE
  1

  0
ENDBLK
  5
E
  8
0
  0
BLOCK
 67
     1
  8
0
  2
$PAPER_SPACE
 70
     0
 10
0.0
 20
0.0
 30
0.0
  3
$PAPER_SPACE
  1

  0
ENDBLK
  5
10
 67
     1
  8
0
  0
ENDSEC
  0
SECTION
  2
ENTITIES
  0
LINE
  5
32
  8
HIBINO-BASE
  6
CONTINUOUS
 62
     7
 10
-1699.9999999999991
 20
2807.1041999999989
 30
0.0
 11
1899.9999999999991
 21
2807.1041999999989
 31
0.0
  0
LINE
  5
33
  8
HIBINO-BASE
  6
CONTINUOUS
 62
     7
 10
1899.9999999999991
 20
-2392.8957999999989
 30
0.0
 11
-1699.9999999999991
 21
-2392.8957999999989
 31
0.0
  0
LINE
  5
34
  8
HIBINO-BASE
  6
CONTINUOUS
 62
     7
 10
-1699.9999999999991
 20
-2392.8957999999989
 30
0.0
 11
-1699.9999999999991
 21
2807.1041999999989
 31
0.0
  0
LINE
  5
36
  8
HIBINO-BASE
  6
CONTINUOUS
 62
     7
 10
1899.9999999999991
 20
2807.1041999999989
 30
0.0
 11
1899.9999999999991
 21
-2392.8957999999989
 31
0.0
  0
LINE
  5
37
  8
HIBINO-BASE
  6
CONTINUOUS
 62
     7
 10
100.0
 20
-1942.8957999999991
 30
0.0
 11
1899.9999999999991
 21
-1942.8957999999991
 31
0.0
  0
LINE
  5
38
  8
HIBINO-BASE
  6
CONTINUOUS
 62
     7
 10
100.0
 20
-2392.8957999999989
 30
0.0
 11
100.0
 21
-1942.8957999999991
 31
0.0
  0
LINE
  5
3A
  8
HIBINO-BASE
  6
CONTINUOUS
 62
     7
 10
799.99999999999989
 20
-2392.8957999999989
 30
0.0
 11
799.99999999999989
 21
-1942.8957999999991
 31
0.0
  0
LINE
  5
3D
  8
HIBINO-BASE
  6
CONTINUOUS
 62
     7
 10
100.0
 20
-2192.8957999999998
 30
0.0
 11
1899.9999999999991
 21
-2192.8957999999998
 31
0.0
  0
LINE
  5
45
  8
HIBINO-BASE
  6
CONTINUOUS
 62
     7
 10
387.5
 20
-2367.8957999999989
 30
0.0
 11
462.49999999999989
 21
-2292.8957999999989
 31
0.0
  0
LINE
  5
47
  8
HIBINO-BASE
  6
CONTINUOUS
 62
     7
 10
349.99999999999989
 20
-2392.8957999999989
 30
0.0
 11
349.99999999999989
 21
-2192.8957999999998
 31
0.0
  0
LINE
  5
48
  8
HIBINO-BASE
  6
CONTINUOUS
 62
     7
 10
549.99999999999989
 20
-2392.8957999999989
 30
0.0
 11
549.99999999999989
 21
-2192.8957999999998
 31
0.0
  0
LINE
  5
49
  8
HIBINO-BASE
  6
CONTINUOUS
 62
     7
 10
1049.9999999999991
 20
-2192.8957999999998
 30
0.0
 11
1049.9999999999991
 21
-2392.8957999999989
 31
0.0
  0
LINE
  5
4A
  8
HIBINO-BASE
  6
CONTINUOUS
 62
     7
 10
1549.9999999999991
 20
-2192.8957999999998
 30
0.0
 11
1549.9999999999991
 21
-2392.8957999999989
 31
0.0
  0
LINE
  5
4B
  8
HIBINO-BASE
  6
CONTINUOUS
 62
     7
 10
1300.0
 20
-2392.8957999999989
 30
0.0
 11
1300.0
 21
-2192.8957999999998
 31
0.0
  0
LINE
  5
50
  8
SPEC
  6
CONTINUOUS
 62
     7
 10
-1549.9999999999991
 20
2607.1042000000002
 30
0.0
 11
1399.9999999999991
 21
2607.1042000000002
 31
0.0
  0
LINE
  5
51
  8
SPEC
  6
CONTINUOUS
 62
     7
 10
-1549.9999999999991
 20
2532.1042000000002
 30
0.0
 11
1399.9999999999991
 21
2532.1042000000002
 31
0.0
  0
LINE
  5
52
  8
SPEC
  6
CONTINUOUS
 62
     7
 10
-1549.9999999999991
 20
2232.1041999999989
 30
0.0
 11
1399.9999999999991
 21
2232.1041999999989
 31
0.0
  0
LINE
  5
53
  8
SPEC
  6
CONTINUOUS
 62
     7
 10
-1549.9999999999991
 20
2307.1041999999989
 30
0.0
 11
1399.9999999999991
 21
2307.1041999999989
 31
0.0
  0
LINE
  5
54
  8
SPEC
  6
CONTINUOUS
 62
     7
 10
-1549.9999999999991
 20
2382.1042000000002
 30
0.0
 11
1399.9999999999991
 21
2382.1042000000002
 31
0.0
  0
LINE
  5
55
  8
SPEC
  6
CONTINUOUS
 62
     7
 10
-1549.9999999999991
 20
2457.1041999999989
 30
0.0
 11
1399.9999999999991
 21
2457.1041999999989
 31
0.0
  0
LINE
  5
56
  8
SPEC
  6
CONTINUOUS
 62
     7
 10
-1549.9999999999991
 20
2607.1042000000002
 30
0.0
 11
-1549.9999999999991
 21
957.10000000000014
 31
0.0
  0
LINE
  5
58
  8
SPEC
  6
CONTINUOUS
 62
     7
 10
-699.99999999999989
 20
2607.1042000000002
 30
0.0
 11
-699.99999999999989
 21
957.10000000000014
 31
0.0
  0
LINE
  5
59
  8
SPEC
  6
CONTINUOUS
 62
     7
 10
1399.9999999999991
 20
2607.1042000000002
 30
0.0
 11
1399.9999999999991
 21
957.10000000000014
 31
0.0
  0
LINE
  5
66
  8
SPEC
  6
CONTINUOUS
 62
     7
 10
-1549.9999999999991
 20
2082.0999999999999
 30
0.0
 11
1399.9999999999991
 21
2082.0999999999999
 31
0.0
  0
LINE
  5
67
  8
SPEC
  6
CONTINUOUS
 62
     7
 10
-1549.9999999999991
 20
2157.099999999999
 30
0.0
 11
1399.9999999999991
 21
2157.099999999999
 31
0.0
  0
LINE
  5
68
  8
SPEC
  6
CONTINUOUS
 62
     7
 10
-1549.9999999999991
 20
2007.099999999999
 30
0.0
 11
1399.9999999999991
 21
2007.099999999999
 31
0.0
  0
LINE
  5
69
  8
SPEC
  6
CONTINUOUS
 62
     7
 10
-1549.9999999999991
 20
1932.099999999999
 30
0.0
 11
1399.9999999999991
 21
1932.099999999999
 31
0.0
  0
LINE
  5
6A
  8
SPEC
  6
CONTINUOUS
 62
     7
 10
-1549.9999999999991
 20
1782.099999999999
 30
0.0
 11
1399.9999999999991
 21
1782.099999999999
 31
0.0
  0
LINE
  5
6B
  8
SPEC
  6
CONTINUOUS
 62
     7
 10
-1549.9999999999991
 20
1632.099999999999
 30
0.0
 11
1399.9999999999991
 21
1632.099999999999
 31
0.0
  0
LINE
  5
6C
  8
SPEC
  6
CONTINUOUS
 62
     7
 10
-1549.9999999999991
 20
1257.0999999999999
 30
0.0
 11
1399.9999999999991
 21
1257.0999999999999
 31
0.0
  0
LINE
  5
6D
  8
SPEC
  6
CONTINUOUS
 62
     7
 10
-1549.9999999999991
 20
1407.0999999999999
 30
0.0
 11
1399.9999999999991
 21
1407.0999999999999
 31
0.0
  0
LINE
  5
6E
  8
SPEC
  6
CONTINUOUS
 62
     7
 10
-1549.9999999999991
 20
1332.0999999999999
 30
0.0
 11
1399.9999999999991
 21
1332.0999999999999
 31
0.0
  0
LINE
  5
6F
  8
SPEC
  6
CONTINUOUS
 62
     7
 10
-1549.9999999999991
 20
957.10000000000014
 30
0.0
 11
1399.9999999999991
 21
957.10000000000014
 31
0.0
  0
LINE
  5
70
  8
SPEC
  6
CONTINUOUS
 62
     7
 10
-1549.9999999999991
 20
1107.099999999999
 30
0.0
 11
1399.9999999999991
 21
1107.099999999999
 31
0.0
  0
LINE
  5
71
  8
SPEC
  6
CONTINUOUS
 62
     7
 10
-1549.9999999999991
 20
1032.0999999999999
 30
0.0
 11
1399.9999999999991
 21
1032.0999999999999
 31
0.0
  0
LINE
  5
91
  8
SPEC
  6
CONTINUOUS
 62
     7
 10
-1549.9999999999991
 20
1857.099999999999
 30
0.0
 11
1399.9999999999991
 21
1857.099999999999
 31
0.0
  0
LINE
  5
92
  8
SPEC
  6
CONTINUOUS
 62
     7
 10
-1549.9999999999991
 20
1707.099999999999
 30
0.0
 11
1399.9999999999991
 21
1707.099999999999
 31
0.0
  0
LINE
  5
93
  8
SPEC
  6
CONTINUOUS
 62
     7
 10
-1549.9999999999991
 20
1557.0999999999999
 30
0.0
 11
1399.9999999999991
 21
1557.0999999999999
 31
0.0
  0
LINE
  5
94
  8
SPEC
  6
CONTINUOUS
 62
     7
 10
-1549.9999999999991
 20
1482.099999999999
 30
0.0
 11
1399.9999999999991
 21
1482.099999999999
 31
0.0
  0
LINE
  5
95
  8
SPEC
  6
CONTINUOUS
 62
     7
 10
-1549.9999999999991
 20
1182.0999999999999
 30
0.0
 11
1399.9999999999991
 21
1182.0999999999999
 31
0.0
  0
LINE
  5
98
  8
DIMNSIONS
  6
CONTINUOUS
 62
     7
 10
-1299.9999999999991
 20
-1129.4999998509879
 30
0.0
 11
-1299.9999999999991
 21
-1339.9999998509879
 31
0.0
  0
LINE
  5
99
  8
DIMNSIONS
  6
CONTINUOUS
 62
     7
 10
-84.999999999999986
 20
-1129.4999998509879
 30
0.0
 11
-84.999999999999986
 21
-1339.9999998509879
 31
0.0
  0
LINE
  5
9B
  8
DIMNSIONS
 62
     7
 10
-1299.9999999999991
 20
-1299.9999999999991
 30
0.0
 11
-1236.4999999999991
 21
-1282.985226280623
 31
0.0
  0
LINE
  5
9C
  8
DIMNSIONS
 62
     7
 10
-1299.9999999999991
 20
-1299.9999999999991
 30
0.0
 11
-1236.4999999999991
 21
-1317.0147737193761
 31
0.0
  0
LINE
  5
9D
  8
DIMNSIONS
 62
     7
 10
-84.999999999999986
 20
-1299.9999999999991
 30
0.0
 11
-148.5
 21
-1317.0147737193761
 31
0.0
  0
LINE
  5
9E
  8
DIMNSIONS
 62
     7
 10
-84.999999999999986
 20
-1299.9999999999991
 30
0.0
 11
-148.5
 21
-1282.985226280623
 31
0.0
  0
LINE
  5
9A
  8
DIMNSIONS
  6
CONTINUOUS
 62
     7
 10
-1299.9999999999991
 20
-1299.9999999999991
 30
0.0
 11
-84.999999999999986
 21
-1299.9999999999991
 31
0.0
  0
LINE
  5
A0
  8
DIMNSIONS
  6
CONTINUOUS
 62
     7
 10
-1312.9999998509879
 20
-1099.9999999999991
 30
0.0
 11
-1439.9999998509879
 21
-1099.9999999999991
 31
0.0
  0
LINE
  5
A1
  8
DIMNSIONS
  6
CONTINUOUS
 62
     7
 10
-1312.9999998509879
 20
-605.99999999999966
 30
0.0
 11
-1439.9999998509879
 21
-605.99999999999966
 31
0.0
  0
LINE
  5
A3
  8
DIMNSIONS
 62
     7
 10
-1399.9999999999991
 20
-1099.9999999999991
 30
0.0
 11
-1417.0147737193761
 21
-1036.4999999999991
 31
0.0
  0
LINE
  5
A4
  8
DIMNSIONS
 62
     7
 10
-1399.9999999999991
 20
-1099.9999999999991
 30
0.0
 11
-1382.985226280623
 21
-1036.4999999999991
 31
0.0
  0
LINE
  5
A5
  8
DIMNSIONS
 62
     7
 10
-1399.9999999999991
 20
-605.99999999999966
 30
0.0
 11
-1382.985226280623
 21
-669.49999999999966
 31
0.0
  0
LINE
  5
A6
  8
DIMNSIONS
 62
     7
 10
-1399.9999999999991
 20
-605.99999999999966
 30
0.0
 11
-1417.0147737193761
 21
-669.49999999999966
 31
0.0
  0
LINE
  5
A2
  8
DIMNSIONS
  6
CONTINUOUS
 62
     7
 10
-1399.9999999999991
 20
-1099.9999999999991
 30
0.0
 11
-1399.9999999999991
 21
-605.99999999999966
 31
0.0
  0
LINE
  5
A8
  8
DIMNSIONS
  6
CONTINUOUS
 62
     7
 10
-1312.9999998509879
 20
-400.0
 30
0.0
 11
-1439.9999998509879
 21
-400.0
 31
0.0
  0
LINE
  5
A9
  8
DIMNSIONS
  6
CONTINUOUS
 62
     7
 10
-1301.999899850988
 20
138.0
 30
0.0
 11
-1439.9999998509879
 21
138.0
 31
0.0
  0
LINE
  5
AB
  8
DIMNSIONS
 62
     7
 10
-1399.9999999999991
 20
-400.0
 30
0.0
 11
-1417.0147737193761
 21
-336.5
 31
0.0
  0
LINE
  5
AC
  8
DIMNSIONS
 62
     7
 10
-1399.9999999999991
 20
-400.0
 30
0.0
 11
-1382.985226280623
 21
-336.5
 31
0.0
  0
LINE
  5
AD
  8
DIMNSIONS
 62
     7
 10
-1399.9999999999991
 20
138.0
 30
0.0
 11
-1382.985226280623
 21
74.5
 31
0.0
  0
LINE
  5
AE
  8
DIMNSIONS
 62
     7
 10
-1399.9999999999991
 20
138.0
 30
0.0
 11
-1417.0147737193761
 21
74.5
 31
0.0
  0
LINE
  5
AA
  8
DIMNSIONS
  6
CONTINUOUS
 62
     7
 10
-1399.9999999999991
 20
-400.0
 30
0.0
 11
-1399.9999999999991
 21
138.0
 31
0.0
  0
LINE
  5
B0
  8
DIMNSIONS
  6
CONTINUOUS
 62
     7
 10
-1312.9999998509879
 20
-400.0
 30
0.0
 11
-1439.9999998509879
 21
-400.0
 31
0.0
  0
LINE
  5
B1
  8
DIMNSIONS
  6
CONTINUOUS
 62
     7
 10
-1329.9999998509879
 20
-417.49999999999989
 30
0.0
 11
-1439.9999998509879
 21
-417.49999999999989
 31
0.0
  0
LINE
  5
B2
  8
DIMNSIONS
  6
CONTINUOUS
 62
     7
 10
-1399.9999999999991
 20
-417.49999999999989
 30
0.0
 11
-1399.9999999999991
 21
-400.0
 31
0.0
  0
LINE
  5
B4
  8
DIMNSIONS
 62
     7
 10
-1399.9999999999991
 20
-400.0
 30
0.0
 11
-1417.0147737193761
 21
-336.5
 31
0.0
  0
LINE
  5
B5
  8
DIMNSIONS
 62
     7
 10
-1399.9999999999991
 20
-400.0
 30
0.0
 11
-1382.985226280623
 21
-336.5
 31
0.0
  0
LINE
  5
B3
  8
DIMNSIONS
  6
CONTINUOUS
 62
     7
 10
-1399.9999999999991
 20
-400.0
 30
0.0
 11
-1399.9999999999991
 21
-299.99999989941711
 31
0.0
  0
LINE
  5
B7
  8
DIMNSIONS
 62
     7
 10
-1399.9999999999991
 20
-417.49999999999989
 30
0.0
 11
-1382.985226280623
 21
-481.0
 31
0.0
  0
LINE
  5
B8
  8
DIMNSIONS
 62
     7
 10
-1399.9999999999991
 20
-417.49999999999989
 30
0.0
 11
-1417.0147737193761
 21
-481.0
 31
0.0
  0
LINE
  5
B6
  8
DIMNSIONS
  6
CONTINUOUS
 62
     7
 10
-1399.9999999999991
 20
-417.49999999999989
 30
0.0
 11
-1399.9999999999991
 21
-591.11111111111097
 31
0.0
  0
LINE
  5
BD
  8
DATA
  6
CONTINUOUS
 62
     7
 10
-1299.9999999999991
 20
-1089.4999999999991
 30
0.0
 11
-1299.9999999999991
 21
-616.49999999999977
 31
0.0
  0
LINE
  5
BE
  8
DATA
  6
CONTINUOUS
 62
     7
 10
-111.9999999999999
 20
-1099.9999999999991
 30
0.0
 11
-1272.9999999999991
 21
-1099.9999999999991
 31
0.0
  0
LINE
  5
BF
  8
DATA
  6
CONTINUOUS
 62
     7
 10
-84.999999999999986
 20
-616.49999999999977
 30
0.0
 11
-84.999999999999986
 21
-1089.4999999999991
 31
0.0
  0
LINE
  5
C0
  8
DATA
  6
CONTINUOUS
 62
     7
 10
-1272.9999999999991
 20
-605.99999999999966
 30
0.0
 11
-111.9999999999999
 21
-605.99999999999966
 31
0.0
  0
LINE
  5
C1
  8
DATA
  6
CONTINUOUS
 62
     7
 10
-1299.9999999999991
 20
-395.0
 30
0.0
 11
-1299.9999999999991
 21
121.0
 31
0.0
  0
LINE
  5
C2
  8
DATA
  6
CONTINUOUS
 62
     7
 10
-84.999999999999986
 20
121.0
 30
0.0
 11
-84.999999999999986
 21
-395.0
 31
0.0
  0
LINE
  5
C3
  8
DATA
  6
CONTINUOUS
 62
     7
 10
-1274.0
 20
-1089.4999999999991
 30
0.0
 11
-1274.0
 21
-616.49999999999977
 31
0.0
  0
LINE
  5
C4
  8
DATA
  6
CONTINUOUS
 62
     7
 10
-1274.0
 20
-395.0
 30
0.0
 11
-1274.0
 21
121.0
 31
0.0
  0
LINE
  5
C5
  8
DATA
  6
CONTINUOUS
 62
     7
 10
-1272.9999999999991
 20
-400.0
 30
0.0
 11
-1261.9998999999989
 21
138.0
 31
0.0
  0
LINE
  5
C6
  8
DATA
  6
CONTINUOUS
 62
     7
 10
-110.9999999999999
 20
121.0
 30
0.0
 11
-110.9999999999999
 21
-395.0
 31
0.0
  0
LINE
  5
C7
  8
DATA
  6
CONTINUOUS
 62
     7
 10
-1272.9999999999991
 20
-1099.9999999999991
 30
0.0
 11
-1272.9999999999991
 21
-605.99999999999966
 31
0.0
  0
LINE
  5
C8
  8
DATA
  6
CONTINUOUS
 62
     7
 10
-110.9999999999999
 20
-1089.4999999999991
 30
0.0
 11
-110.9999999999999
 21
-616.49999999999977
 31
0.0
  0
LINE
  5
C9
  8
DATA
  6
CONTINUOUS
 62
     7
 10
-111.9999999999999
 20
-1099.9999999999991
 30
0.0
 11
-111.9999999999999
 21
-605.99999999999966
 31
0.0
  0
LINE
  5
CA
  8
DATA
  6
CONTINUOUS
 62
     7
 10
-111.9999999999999
 20
-400.0
 30
0.0
 11
-123.0000999999999
 21
138.0
 31
0.0
  0
LINE
  5
CB
  8
DATA
  6
CONTINUOUS
 62
     7
 10
-110.9999999999999
 20
-1089.4999999999991
 30
0.0
 11
-84.999999999999986
 21
-1089.4999999999991
 31
0.0
  0
LINE
  5
CC
  8
DATA
  6
CONTINUOUS
 62
     7
 10
-84.999999999999986
 20
-616.49999999999977
 30
0.0
 11
-110.9999999999999
 21
-616.49999999999977
 31
0.0
  0
LINE
  5
CD
  8
DATA
  6
CONTINUOUS
 62
     7
 10
-1274.0
 20
-1089.4999999999991
 30
0.0
 11
-1299.9999999999991
 21
-1089.4999999999991
 31
0.0
  0
LINE
  5
CE
  8
DATA
  6
CONTINUOUS
 62
     7
 10
-1299.9999999999991
 20
-616.49999999999977
 30
0.0
 11
-1274.0
 21
-616.49999999999977
 31
0.0
  0
LINE
  5
CF
  8
DATA
  6
CONTINUOUS
 62
     7
 10
-110.9999999999999
 20
-659.99999999999966
 30
0.0
 11
-111.9999999999999
 21
-659.99999999999966
 31
0.0
  0
LINE
  5
D0
  8
DATA
  6
CONTINUOUS
 62
     7
 10
-110.9999999999999
 20
-689.99999999999966
 30
0.0
 11
-111.9999999999999
 21
-689.99999999999966
 31
0.0
  0
LINE
  5
D1
  8
DATA
  6
CONTINUOUS
 62
     7
 10
-110.9999999999999
 20
-1045.9999999999991
 30
0.0
 11
-111.9999999999999
 21
-1045.9999999999991
 31
0.0
  0
LINE
  5
D2
  8
DATA
  6
CONTINUOUS
 62
     7
 10
-110.9999999999999
 20
-1015.999999999999
 30
0.0
 11
-111.9999999999999
 21
-1015.999999999999
 31
0.0
  0
LINE
  5
D3
  8
DATA
  6
CONTINUOUS
 62
     7
 10
-1274.0
 20
-659.99999999999966
 30
0.0
 11
-1272.9999999999991
 21
-659.99999999999966
 31
0.0
  0
LINE
  5
D4
  8
DATA
  6
CONTINUOUS
 62
     7
 10
-1274.0
 20
-689.99999999999966
 30
0.0
 11
-1272.9999999999991
 21
-689.99999999999966
 31
0.0
  0
LINE
  5
D5
  8
DATA
  6
CONTINUOUS
 62
     7
 10
-1274.0
 20
-1045.9999999999991
 30
0.0
 11
-1272.9999999999991
 21
-1045.9999999999991
 31
0.0
  0
LINE
  5
D6
  8
DATA
  6
CONTINUOUS
 62
     7
 10
-1274.0
 20
-1015.999999999999
 30
0.0
 11
-1272.9999999999991
 21
-1015.999999999999
 31
0.0
  0
LINE
  5
D7
  8
DATA
  6
CONTINUOUS
 62
     7
 10
638.0
 20
-1052.9310999999991
 30
0.0
 11
100.0
 21
-1099.9999999999991
 31
0.0
  0
LINE
  5
D8
  8
DATA
  6
CONTINUOUS
 62
     7
 10
638.0
 20
-653.06889999999987
 30
0.0
 11
638.0
 21
-1052.9310999999991
 31
0.0
  0
LINE
  5
D9
  8
DATA
  6
CONTINUOUS
 62
     7
 10
100.0
 20
-605.99999999999966
 30
0.0
 11
638.0
 21
-653.06889999999987
 31
0.0
  0
LINE
  5
DA
  8
DATA
  6
CONTINUOUS
 62
     7
 10
104.9999999999999
 20
-1089.4999999999991
 30
0.0
 11
104.9999999999999
 21
-616.49999999999977
 31
0.0
  0
LINE
  5
DB
  8
DATA
  6
CONTINUOUS
 62
     7
 10
621.0
 20
-1049.9999999999991
 30
0.0
 11
621.0
 21
-655.99999999999966
 31
0.0
  0
LINE
  5
DC
  8
DATA
  6
CONTINUOUS
 62
     7
 10
143.2999999999999
 20
-1063.5959999999991
 30
0.0
 11
143.2999999999999
 21
-642.40399999999966
 31
0.0
  0
LINE
  5
DD
  8
DATA
  6
CONTINUOUS
 62
     7
 10
143.2999999999999
 20
-616.49999999999977
 30
0.0
 11
582.69999999999993
 21
-655.99999999999966
 31
0.0
  0
LINE
  5
DE
  8
DATA
  6
CONTINUOUS
 62
     7
 10
143.2999999999999
 20
-1089.4999999999991
 30
0.0
 11
582.69999999999993
 21
-1049.9999999999991
 31
0.0
  0
LINE
  5
DF
  8
DATA
  6
CONTINUOUS
 62
     7
 10
143.2999999999999
 20
-616.49999999999977
 30
0.0
 11
104.9999999999999
 21
-616.49999999999977
 31
0.0
  0
LINE
  5
E0
  8
DATA
  6
CONTINUOUS
 62
     7
 10
104.9999999999999
 20
-1089.4999999999991
 30
0.0
 11
143.2999999999999
 21
-1089.4999999999991
 31
0.0
  0
LINE
  5
E1
  8
DATA
  6
CONTINUOUS
 62
     7
 10
582.69999999999993
 20
-1049.9999999999991
 30
0.0
 11
621.0
 21
-1049.9999999999991
 31
0.0
  0
LINE
  5
E2
  8
DATA
  6
CONTINUOUS
 62
     7
 10
621.0
 20
-655.99999999999966
 30
0.0
 11
582.69999999999993
 21
-655.99999999999966
 31
0.0
  0
LINE
  5
E3
  8
DATA
  6
CONTINUOUS
 62
     7
 10
143.2999999999999
 20
-642.40399999999966
 30
0.0
 11
582.69999999999993
 21
-681.90389999999979
 31
0.0
  0
LINE
  5
E4
  8
DATA
  6
CONTINUOUS
 62
     7
 10
582.69999999999993
 20
-1024.0960999999991
 30
0.0
 11
582.69999999999993
 21
-681.90389999999979
 31
0.0
  0
LINE
  5
E5
  8
DATA
  6
CONTINUOUS
 62
     7
 10
143.2999999999999
 20
-1063.5959999999991
 30
0.0
 11
582.69999999999993
 21
-1024.0960999999991
 31
0.0
  0
CIRCLE
  5
E6
  8
DATA
  6
CONTINUOUS
 62
     7
 10
601.84999999999991
 20
-725.99999999999977
 30
0.0
 40
8.0
  0
CIRCLE
  5
E7
  8
DATA
  6
CONTINUOUS
 62
     7
 10
601.84999999999991
 20
-979.99999999999966
 30
0.0
 40
8.0
  0
CIRCLE
  5
E8
  8
DATA
  6
CONTINUOUS
 62
     7
 10
124.14999999999991
 20
-674.99999999999977
 30
0.0
 40
8.0
  0
CIRCLE
  5
E9
  8
DATA
  6
CONTINUOUS
 62
     7
 10
124.14999999999991
 20
-1030.9999999999991
 30
0.0
 40
8.0
  0
LINE
  5
EA
  8
DATA
  6
CONTINUOUS
 62
     7
 10
-110.9999999999999
 20
121.0
 30
0.0
 11
-84.999999999999986
 21
121.0
 31
0.0
  0
LINE
  5
EB
  8
DATA
  6
CONTINUOUS
 62
     7
 10
-1261.9998999999989
 20
138.0
 30
0.0
 11
-123.0000999999999
 21
138.0
 31
0.0
  0
LINE
  5
EC
  8
DATA
  6
CONTINUOUS
 62
     7
 10
-110.9999999999999
 20
86.850000000000023
 30
0.0
 11
-121.9543
 21
86.850000000000023
 31
0.0
  0
LINE
  5
ED
  8
DATA
  6
CONTINUOUS
 62
     7
 10
-110.9999999999999
 20
116.84999999999999
 30
0.0
 11
-122.5676999999999
 21
116.84999999999999
 31
0.0
  0
LINE
  5
EE
  8
DATA
  6
CONTINUOUS
 62
     7
 10
-110.9999999999999
 20
-360.84999999999991
 30
0.0
 11
-112.8004999999999
 21
-360.84999999999991
 31
0.0
  0
LINE
  5
EF
  8
DATA
  6
CONTINUOUS
 62
     7
 10
-110.9999999999999
 20
-390.84999999999991
 30
0.0
 11
-112.1871
 21
-390.84999999999991
 31
0.0
  0
LINE
  5
F0
  8
DATA
  6
CONTINUOUS
 62
     7
 10
-84.999999999999986
 20
-395.0
 30
0.0
 11
-110.9999999999999
 21
-395.0
 31
0.0
  0
LINE
  5
F1
  8
DATA
  6
CONTINUOUS
 62
     7
 10
-111.9999999999999
 20
-400.0
 30
0.0
 11
-1272.9999999999991
 21
-400.0
 31
0.0
  0
LINE
  5
F2
  8
DATA
  6
CONTINUOUS
 62
     7
 10
-1274.0
 20
86.850000000000023
 30
0.0
 11
-1263.0456999999999
 21
86.850000000000023
 31
0.0
  0
LINE
  5
F3
  8
DATA
  6
CONTINUOUS
 62
     7
 10
-1274.0
 20
116.84999999999999
 30
0.0
 11
-1262.4322999999999
 21
116.84999999999999
 31
0.0
  0
LINE
  5
F4
  8
DATA
  6
CONTINUOUS
 62
     7
 10
-1274.0
 20
-360.84999999999991
 30
0.0
 11
-1272.1994999999999
 21
-360.84999999999991
 31
0.0
  0
LINE
  5
F5
  8
DATA
  6
CONTINUOUS
 62
     7
 10
-1274.0
 20
-390.84999999999991
 30
0.0
 11
-1272.812899999999
 21
-390.84999999999991
 31
0.0
  0
LINE
  5
F6
  8
DATA
  6
CONTINUOUS
 62
     7
 10
-1274.0
 20
121.0
 30
0.0
 11
-1299.9999999999991
 21
121.0
 31
0.0
  0
LINE
  5
F7
  8
DATA
  6
CONTINUOUS
 62
     7
 10
-1299.9999999999991
 20
-395.0
 30
0.0
 11
-1274.0
 21
-395.0
 31
0.0
  0
CIRCLE
  5
110
  8
DATA
  6
CONTINUOUS
 62
     7
 10
-1286.9999999999991
 20
-665.49999999999966
 30
0.0
 40
4.75
  0
CIRCLE
  5
111
  8
DATA
  6
CONTINUOUS
 62
     7
 10
-1286.9999999999991
 20
-1040.4999999999991
 30
0.0
 40
4.75
  0
CIRCLE
  5
112
  8
DATA
  6
CONTINUOUS
 62
     7
 10
-1286.9999999999991
 20
-852.99999999999966
 30
0.0
 40
6.3999999999998627
  0
CIRCLE
  5
113
  8
DATA
  6
CONTINUOUS
 62
     7
 10
-97.999999999999986
 20
-665.49999999999966
 30
0.0
 40
4.75
  0
CIRCLE
  5
114
  8
DATA
  6
CONTINUOUS
 62
     7
 10
-97.999999999999986
 20
-1040.4999999999991
 30
0.0
 40
4.75
  0
CIRCLE
  5
115
  8
DATA
  6
CONTINUOUS
 62
     7
 10
-97.999999999999986
 20
-852.99999999999966
 30
0.0
 40
6.4000000000000048
  0
LINE
  5
116
  8
DATA
  6
CONTINUOUS
 62
     7
 10
82.499999999999986
 20
-855.99999999999977
 30
0.0
 11
82.499999999999986
 21
-849.99999999999977
 31
0.0
  0
LINE
  5
117
  8
DATA
  6
CONTINUOUS
 62
     7
 10
82.499999999999986
 20
-849.99999999999977
 30
0.0
 11
86.999999999999986
 21
-846.59999999999991
 31
0.0
  0
LINE
  5
118
  8
DATA
  6
CONTINUOUS
 62
     7
 10
82.499999999999986
 20
-855.99999999999977
 30
0.0
 11
86.999999999999986
 21
-859.39999999999986
 31
0.0
  0
LINE
  5
119
  8
DATA
  6
CONTINUOUS
 62
     7
 10
95.999999999999986
 20
-846.59999999999991
 30
0.0
 11
104.9999999999999
 21
-846.59999999999991
 31
0.0
  0
LINE
  5
11A
  8
DATA
  6
CONTINUOUS
 62
     7
 10
86.999999999999986
 20
-846.59999999999991
 30
0.0
 11
91.999999999999986
 21
-846.59999999999991
 31
0.0
  0
LINE
  5
11B
  8
DATA
  6
CONTINUOUS
 62
     7
 10
95.999999999999986
 20
-859.39999999999986
 30
0.0
 11
104.9999999999999
 21
-859.39999999999986
 31
0.0
  0
LINE
  5
11C
  8
DATA
  6
CONTINUOUS
 62
     7
 10
86.999999999999986
 20
-859.39999999999986
 30
0.0
 11
91.999999999999986
 21
-859.39999999999986
 31
0.0
  0
LINE
  5
11D
  8
DATA
  6
CONTINUOUS
 62
     7
 10
86.999999999999986
 20
-846.59999999999991
 30
0.0
 11
86.999999999999986
 21
-859.39999999999986
 31
0.0
  0
ARC
  5
11E
  8
DATA
  6
CONTINUOUS
 62
     7
 10
93.999999999999986
 20
-847.99999999999977
 30
0.0
 40
2.0
 50
180.0
 51
0.0
  0
ARC
  5
11F
  8
DATA
  6
CONTINUOUS
 62
     7
 10
93.999999999999986
 20
-857.99999999999977
 30
0.0
 40
1.9999999999999989
 50
0.0
 51
180.0
  0
LINE
  5
120
  8
DATA
  6
CONTINUOUS
 62
     7
 10
91.999999999999986
 20
-846.59999999999991
 30
0.0
 11
91.999999999999986
 21
-859.39999999999986
 31
0.0
  0
LINE
  5
121
  8
DATA
  6
CONTINUOUS
 62
     7
 10
95.999999999999986
 20
-859.39999999999986
 30
0.0
 11
95.999999999999986
 21
-846.59999999999991
 31
0.0
  0
LINE
  5
122
  8
DATA
  6
CONTINUOUS
 62
     7
 10
100.0
 20
-846.59999999999991
 30
0.0
 11
100.0
 21
-605.99999999999966
 31
0.0
  0
LINE
  5
123
  8
DATA
  6
CONTINUOUS
 62
     7
 10
100.0
 20
-1099.9999999999991
 30
0.0
 11
100.0
 21
-859.39999999999986
 31
0.0
  0
LINE
  5
124
  8
DATA
  6
CONTINUOUS
 62
     7
 10
-94.999999999999986
 20
-417.49999999999989
 30
0.0
 11
-100.9999999999999
 21
-417.49999999999989
 31
0.0
  0
LINE
  5
125
  8
DATA
  6
CONTINUOUS
 62
     7
 10
-100.9999999999999
 20
-417.49999999999989
 30
0.0
 11
-104.40000000000001
 21
-413.0
 31
0.0
  0
LINE
  5
126
  8
DATA
  6
CONTINUOUS
 62
     7
 10
-94.999999999999986
 20
-417.49999999999989
 30
0.0
 11
-91.600000000000009
 21
-413.0
 31
0.0
  0
LINE
  5
127
  8
DATA
  6
CONTINUOUS
 62
     7
 10
-104.40000000000001
 20
-404.0
 30
0.0
 11
-104.40000000000001
 21
-395.0
 31
0.0
  0
LINE
  5
128
  8
DATA
  6
CONTINUOUS
 62
     7
 10
-104.40000000000001
 20
-413.0
 30
0.0
 11
-104.40000000000001
 21
-408.0
 31
0.0
  0
LINE
  5
129
  8
DATA
  6
CONTINUOUS
 62
     7
 10
-91.600000000000009
 20
-404.0
 30
0.0
 11
-91.600000000000009
 21
-395.0
 31
0.0
  0
LINE
  5
12A
  8
DATA
  6
CONTINUOUS
 62
     7
 10
-91.600000000000009
 20
-413.0
 30
0.0
 11
-91.600000000000009
 21
-408.0
 31
0.0
  0
LINE
  5
12B
  8
DATA
  6
CONTINUOUS
 62
     7
 10
-104.40000000000001
 20
-413.0
 30
0.0
 11
-91.600000000000009
 21
-413.0
 31
0.0
  0
ARC
  5
12C
  8
DATA
  6
CONTINUOUS
 62
     7
 10
-102.9999999999999
 20
-406.0
 30
0.0
 40
2.0
 50
270.0
 51
90.0
  0
ARC
  5
12D
  8
DATA
  6
CONTINUOUS
 62
     7
 10
-92.999999999999986
 20
-406.0
 30
0.0
 40
2.0
 50
90.0
 51
270.0
  0
LINE
  5
12E
  8
DATA
  6
CONTINUOUS
 62
     7
 10
-104.40000000000001
 20
-408.0
 30
0.0
 11
-91.600000000000009
 21
-408.0
 31
0.0
  0
LINE
  5
12F
  8
DATA
  6
CONTINUOUS
 62
     7
 10
-91.600000000000009
 20
-404.0
 30
0.0
 11
-104.40000000000001
 21
-404.0
 31
0.0
  0
LINE
  5
130
  8
DATA
  6
CONTINUOUS
 62
     7
 10
-1290.0
 20
-417.49999999999989
 30
0.0
 11
-1283.9999999999991
 21
-417.49999999999989
 31
0.0
  0
LINE
  5
131
  8
DATA
  6
CONTINUOUS
 62
     7
 10
-1283.9999999999991
 20
-417.49999999999989
 30
0.0
 11
-1280.599999999999
 21
-413.0
 31
0.0
  0
LINE
  5
132
  8
DATA
  6
CONTINUOUS
 62
     7
 10
-1290.0
 20
-417.49999999999989
 30
0.0
 11
-1293.4000000000001
 21
-413.0
 31
0.0
  0
LINE
  5
133
  8
DATA
  6
CONTINUOUS
 62
     7
 10
-1280.599999999999
 20
-404.0
 30
0.0
 11
-1280.599999999999
 21
-395.0
 31
0.0
  0
LINE
  5
134
  8
DATA
  6
CONTINUOUS
 62
     7
 10
-1280.599999999999
 20
-413.0
 30
0.0
 11
-1280.599999999999
 21
-408.0
 31
0.0
  0
LINE
  5
135
  8
DATA
  6
CONTINUOUS
 62
     7
 10
-1293.4000000000001
 20
-404.0
 30
0.0
 11
-1293.4000000000001
 21
-395.0
 31
0.0
  0
LINE
  5
136
  8
DATA
  6
CONTINUOUS
 62
     7
 10
-1293.4000000000001
 20
-413.0
 30
0.0
 11
-1293.4000000000001
 21
-408.0
 31
0.0
  0
LINE
  5
137
  8
DATA
  6
CONTINUOUS
 62
     7
 10
-1280.599999999999
 20
-413.0
 30
0.0
 11
-1293.4000000000001
 21
-413.0
 31
0.0
  0
ARC
  5
138
  8
DATA
  6
CONTINUOUS
 62
     7
 10
-1282.0
 20
-406.0
 30
0.0
 40
2.0
 50
90.0
 51
270.0
  0
ARC
  5
139
  8
DATA
  6
CONTINUOUS
 62
     7
 10
-1291.9999999999991
 20
-406.0
 30
0.0
 40
2.0
 50
270.0
 51
90.0
  0
LINE
  5
13A
  8
DATA
  6
CONTINUOUS
 62
     7
 10
-1280.599999999999
 20
-408.0
 30
0.0
 11
-1293.4000000000001
 21
-408.0
 31
0.0
  0
LINE
  5
13B
  8
DATA
  6
CONTINUOUS
 62
     7
 10
-1293.4000000000001
 20
-404.0
 30
0.0
 11
-1280.599999999999
 21
-404.0
 31
0.0
  0
LINE
  5
13C
  8
DATA
  6
CONTINUOUS
 62
     7
 10
-1260.9999999999991
 20
-1075.9999999999991
 30
0.0
 11
-1260.9999999999991
 21
-629.99999999999977
 31
0.0
  0
LINE
  5
13D
  8
DATA
  6
CONTINUOUS
 62
     7
 10
-853.49999999999977
 20
-1075.9999999999991
 30
0.0
 11
-853.49999999999977
 21
-629.99999999999977
 31
0.0
  0
LINE
  5
13E
  8
DATA
  6
CONTINUOUS
 62
     7
 10
-843.99999999999989
 20
-1075.9999999999991
 30
0.0
 11
-843.99999999999989
 21
-629.99999999999977
 31
0.0
  0
LINE
  5
13F
  8
DATA
  6
CONTINUOUS
 62
     7
 10
-853.49999999999977
 20
-629.99999999999977
 30
0.0
 11
-1260.9999999999991
 21
-629.99999999999977
 31
0.0
  0
LINE
  5
140
  8
DATA
  6
CONTINUOUS
 62
     7
 10
-853.49999999999977
 20
-1075.9999999999991
 30
0.0
 11
-1260.9999999999991
 21
-1075.9999999999991
 31
0.0
  0
LINE
  5
141
  8
DATA
  6
CONTINUOUS
 62
     7
 10
-123.9999999999999
 20
-1075.9999999999991
 30
0.0
 11
-123.9999999999999
 21
-629.99999999999977
 31
0.0
  0
LINE
  5
142
  8
DATA
  6
CONTINUOUS
 62
     7
 10
-531.5
 20
-1075.9999999999991
 30
0.0
 11
-531.5
 21
-629.99999999999977
 31
0.0
  0
LINE
  5
143
  8
DATA
  6
CONTINUOUS
 62
     7
 10
-531.5
 20
-629.99999999999977
 30
0.0
 11
-123.9999999999999
 21
-629.99999999999977
 31
0.0
  0
LINE
  5
144
  8
DATA
  6
CONTINUOUS
 62
     7
 10
-531.5
 20
-1075.9999999999991
 30
0.0
 11
-123.9999999999999
 21
-1075.9999999999991
 31
0.0
  0
LINE
  5
145
  8
DATA
  6
CONTINUOUS
 62
     7
 10
-541.0
 20
-1075.9999999999991
 30
0.0
 11
-541.0
 21
-629.99999999999977
 31
0.0
  0
LINE
  5
14C
  8
DATA
  6
CONTINUOUS
 62
     7
 10
-843.99999999999989
 20
-629.99999999999977
 30
0.0
 11
-541.0
 21
-629.99999999999977
 31
0.0
  0
LINE
  5
14D
  8
DATA
  6
CONTINUOUS
 62
     7
 10
-702.49999999999977
 20
-643.56079999999997
 30
0.0
 11
-702.49999999999977
 21
-1062.4391999999989
 31
0.0
  0
LINE
  5
14E
  8
DATA
  6
CONTINUOUS
 62
     7
 10
-682.49999999999989
 20
-643.56079999999997
 30
0.0
 11
-682.49999999999989
 21
-1062.4391999999989
 31
0.0
  0
LINE
  5
14F
  8
DATA
  6
CONTINUOUS
 62
     7
 10
-702.49999999999977
 20
-643.56079999999997
 30
0.0
 11
-682.49999999999989
 21
-643.56079999999997
 31
0.0
  0
LINE
  5
150
  8
DATA
  6
CONTINUOUS
 62
     7
 10
-682.49999999999989
 20
-643.56079999999997
 30
0.0
 11
-541.0
 21
-629.99999999999977
 31
0.0
  0
LINE
  5
151
  8
DATA
  6
CONTINUOUS
 62
     7
 10
-702.49999999999977
 20
-643.56079999999997
 30
0.0
 11
-843.99999999999989
 21
-629.99999999999977
 31
0.0
  0
LINE
  5
152
  8
DATA
  6
CONTINUOUS
 62
     7
 10
-843.99999999999989
 20
-1075.9999999999991
 30
0.0
 11
-541.0
 21
-1075.9999999999991
 31
0.0
  0
LINE
  5
153
  8
DATA
  6
CONTINUOUS
 62
     7
 10
-702.49999999999977
 20
-1062.4391999999989
 30
0.0
 11
-682.49999999999989
 21
-1062.4391999999989
 31
0.0
  0
LINE
  5
154
  8
DATA
  6
CONTINUOUS
 62
     7
 10
-682.49999999999989
 20
-1062.4391999999989
 30
0.0
 11
-541.0
 21
-1075.9999999999991
 31
0.0
  0
LINE
  5
155
  8
DATA
  6
CONTINUOUS
 62
     7
 10
-702.49999999999977
 20
-1062.4391999999989
 30
0.0
 11
-853.49999999999977
 21
-1075.9999999999991
 31
0.0
  0
LINE
  5
15C
  8
DATA
  6
STYLE_01
 62
     7
 10
-702.49999999999977
 20
-241.99999999999989
 30
0.0
 11
-682.49999999999989
 21
-241.99999999999989
 31
0.0
  0
LINE
  5
15D
  8
DATA
  6
STYLE_01
 62
     7
 10
-843.99999999999989
 20
-397.0
 30
0.0
 11
-702.49999999999977
 21
-241.99999999999989
 31
0.0
  0
LINE
  5
15E
  8
DATA
  6
STYLE_01
 62
     7
 10
-682.49999999999989
 20
-241.99999999999989
 30
0.0
 11
-541.0
 21
-397.0
 31
0.0
  0
LINE
  5
15F
  8
DATA
  6
CONTINUOUS
 62
     7
 10
-1260.9999999999991
 20
-1075.9999999999991
 30
0.0
 11
-1260.9999999999991
 21
-629.99999999999977
 31
0.0
  0
LINE
  5
160
  8
DATA
  6
STYLE_01
 62
     7
 10
-843.99999999999989
 20
-397.0
 30
0.0
 11
-1260.9999999999991
 21
-397.0
 31
0.0
  0
LINE
  5
161
  8
DATA
  6
STYLE_01
 62
     7
 10
-541.0
 20
-397.0
 30
0.0
 11
-123.9999999999999
 21
-397.0
 31
0.0
  0
LINE
  5
162
  8
DATA
  6
STYLE_01
 62
     7
 10
-1260.9999999999991
 20
-397.0
 30
0.0
 11
-1260.9999999999991
 21
-400.0
 31
0.0
  0
LINE
  5
163
  8
DATA
  6
STYLE_01
 62
     7
 10
-123.9999999999999
 20
-397.0
 30
0.0
 11
-123.9999999999999
 21
-400.0
 31
0.0
  0
ARC
  5
165
  8
DATA
  6
CONTINUOUS
 62
     7
 10
-1053.5780265002079
 20
-864.5545736508202
 30
0.0
 40
1.0519842789005529
 50
307.64190249755899
 51
354.26701928938922
  0
LINE
  5
166
  8
DATA
  6
CONTINUOUS
 62
     7
 10
-1080.59952
 20
-847.97700399999985
 30
0.0
 11
-1075.667801999999
 21
-836.22609999999975
 31
0.0
  0
LINE
  5
167
  8
DATA
  6
CONTINUOUS
 62
     7
 10
-1080.59952
 20
-847.97700399999985
 30
0.0
 11
-1085.4703859999991
 21
-836.22609999999975
 31
0.0
  0
LINE
  5
168
  8
DATA
  6
CONTINUOUS
 62
     7
 10
-1043.2157999999999
 20
-869.22609999999975
 30
0.0
 11
-1043.2157999999999
 21
-836.22609999999975
 31
0.0
  0
LINE
  5
169
  8
DATA
  6
CONTINUOUS
 62
     7
 10
-1036.8836940000001
 20
-836.22609999999975
 30
0.0
 11
-1036.8836940000001
 21
-864.17261199999939
 31
0.0
  0
LINE
  5
16A
  8
DATA
  6
CONTINUOUS
 62
     7
 10
-1073.3541389999989
 20
-836.22609999999975
 30
0.0
 11
-1073.3541389999989
 21
-864.17261199999939
 31
0.0
  0
LINE
  5
16B
  8
DATA
  6
CONTINUOUS
 62
     7
 10
-1067.2655729999999
 20
-836.22609999999975
 30
0.0
 11
-1067.2655729999999
 21
-864.17261199999939
 31
0.0
  0
LINE
  5
16C
  8
DATA
  6
CONTINUOUS
 62
     7
 10
-1064.09952
 20
-836.22609999999975
 30
0.0
 11
-1064.09952
 21
-869.22609999999975
 31
0.0
  0
LINE
  5
16D
  8
DATA
  6
CONTINUOUS
 62
     7
 10
-1058.5589189999989
 20
-839.33123499999965
 30
0.0
 11
-1058.5589189999989
 21
-849.92535699999985
 31
0.0
  0
LINE
  5
16E
  8
DATA
  6
CONTINUOUS
 62
     7
 10
-1046.6836049999999
 20
-849.31234899999981
 30
0.0
 11
-1046.6836049999999
 21
-841.58404599999938
 31
0.0
  0
LINE
  5
16F
  8
DATA
  6
CONTINUOUS
 62
     7
 10
-1052.531303999999
 20
-840.79250799999977
 30
0.0
 11
-1052.531303999999
 21
-848.46411699999965
 31
0.0
  0
ARC
  5
170
  8
DATA
  6
CONTINUOUS
 62
     7
 10
-1074.5759309999989
 20
-860.75235999999961
 30
0.0
 40
8.5102163030533866
 50
264.69085622153318
 51
323.99119915424268
  0
LINE
  5
171
  8
DATA
  6
CONTINUOUS
 62
     7
 10
-1077.9814319999989
 20
-858.87551799999903
 30
0.0
 11
-1077.9814319999989
 21
-864.17254599999956
 31
0.0
  0
LINE
  5
172
  8
DATA
  6
CONTINUOUS
 62
     7
 10
-1077.9814319999989
 20
-858.87551799999903
 30
0.0
 11
-1083.4611480000001
 21
-858.87551799999903
 31
0.0
  0
LINE
  5
173
  8
DATA
  6
CONTINUOUS
 62
     7
 10
-1083.4611480000001
 20
-858.87551799999903
 30
0.0
 11
-1083.4611480000001
 21
-864.17254599999956
 31
0.0
  0
ARC
  5
174
  8
DATA
  6
CONTINUOUS
 62
     7
 10
-1075.6561859999999
 20
-864.24395799999945
 30
0.0
 40
2.3031651265999189
 50
269.71184879275143
 51
1.775987005682623
  0
ARC
  5
175
  8
DATA
  6
CONTINUOUS
 62
     7
 10
-1075.679384999999
 20
-864.24395799999945
 30
0.0
 40
2.303153349616466
 50
178.22401299431411
 51
270.28815120725568
  0
ARC
  5
176
  8
DATA
  6
CONTINUOUS
 62
     7
 10
-1076.150789999999
 20
-860.75235999999961
 30
0.0
 40
8.5102024819236242
 50
216.00880084575769
 51
275.30914377846381
  0
ARC
  5
177
  8
DATA
  6
CONTINUOUS
 62
     7
 10
-1079.615196
 20
-863.9859969999992
 30
0.0
 40
3.8504406869808512
 50
182.77699544999771
 51
207.3596066671565
  0
CIRCLE
  5
178
  8
DATA
  6
CONTINUOUS
 62
     7
 10
-1080.2646360000001
 20
-852.54344499999945
 30
0.0
 40
3.1355940000000819
  0
LINE
  5
179
  8
DATA
  6
CONTINUOUS
 62
     7
 10
-1026.7157999999999
 20
-869.22606699999915
 30
0.0
 11
-1043.2157999999999
 21
-869.22606699999915
 31
0.0
  0
LINE
  5
17A
  8
DATA
  6
CONTINUOUS
 62
     7
 10
-1026.7157999999999
 20
-869.22606699999915
 30
0.0
 11
-1026.7157999999999
 21
-858.87548499999934
 31
0.0
  0
LINE
  5
17B
  8
DATA
  6
CONTINUOUS
 62
     7
 10
-1026.7157999999999
 20
-858.87551799999903
 30
0.0
 11
-1032.2563679999989
 21
-858.87551799999903
 31
0.0
  0
LINE
  5
17C
  8
DATA
  6
CONTINUOUS
 62
     7
 10
-1032.2563679999989
 20
-858.87551799999903
 30
0.0
 11
-1032.2563679999989
 21
-864.17254599999956
 31
0.0
  0
LINE
  5
17D
  8
DATA
  6
CONTINUOUS
 62
     7
 10
-1064.09952
 20
-869.22606699999915
 30
0.0
 11
-1052.531303999999
 21
-869.22603399999934
 31
0.0
  0
LINE
  5
17E
  8
DATA
  6
CONTINUOUS
 62
     7
 10
-1058.558951999999
 20
-866.12089899999955
 30
0.0
 11
-1055.575554
 21
-866.12089899999955
 31
0.0
  0
LINE
  5
17F
  8
DATA
  6
CONTINUOUS
 62
     7
 10
-1058.5589189999989
 20
-866.12089899999955
 30
0.0
 11
-1058.5589189999989
 21
-853.09137699999974
 31
0.0
  0
LINE
  5
180
  8
DATA
  6
CONTINUOUS
 62
     7
 10
-1058.558951999999
 20
-853.09137699999974
 30
0.0
 11
-1055.575554
 21
-853.09137699999974
 31
0.0
  0
LINE
  5
181
  8
DATA
  6
CONTINUOUS
 62
     7
 10
-1052.531303999999
 20
-864.65965899999935
 30
0.0
 11
-1052.531303999999
 21
-854.55261700000005
 31
0.0
  0
ARC
  5
182
  8
DATA
  6
CONTINUOUS
 62
     7
 10
-1071.111525
 20
-863.9859969999992
 30
0.0
 40
3.8504352079549991
 50
332.64039333284461
 51
357.22300455000641
  0
ARC
  5
183
  8
DATA
  6
CONTINUOUS
 62
     7
 10
-1034.5584479999991
 20
-864.24395799999945
 30
0.0
 40
2.3031651265999198
 50
269.7118487927458
 51
1.775987005682566
  0
ARC
  5
184
  8
DATA
  6
CONTINUOUS
 62
     7
 10
-1034.581613999999
 20
-864.24395799999945
 30
0.0
 40
2.303153349616466
 50
178.22401299431411
 51
270.28815120723311
  0
LINE
  5
185
  8
DATA
  6
CONTINUOUS
 62
     7
 10
-1046.6862779999999
 20
-863.92900599999984
 30
0.0
 11
-1046.6862779999999
 21
-855.16149999999925
 31
0.0
  0
LINE
  5
186
  8
DATA
  6
CONTINUOUS
 62
     7
 10
-1058.558951999999
 20
-849.92535699999985
 30
0.0
 11
-1055.575554
 21
-849.92535699999985
 31
0.0
  0
ARC
  5
187
  8
DATA
  6
CONTINUOUS
 62
     7
 10
-1052.9508000000001
 20
-862.96144599999946
 30
0.0
 40
6.2786176586695861
 50
273.83098160911902
 51
351.13514730980199
  0
LINE
  5
188
  8
DATA
  6
CONTINUOUS
 62
     7
 10
-1073.3541389999989
 20
-836.22609999999975
 30
0.0
 11
-1067.2655729999999
 21
-836.22609999999975
 31
0.0
  0
LINE
  5
189
  8
DATA
  6
CONTINUOUS
 62
     7
 10
-1085.4703859999991
 20
-836.22609999999975
 30
0.0
 11
-1075.667801999999
 21
-836.22609999999975
 31
0.0
  0
LINE
  5
18A
  8
DATA
  6
CONTINUOUS
 62
     7
 10
-1043.2157999999999
 20
-836.22609999999975
 30
0.0
 11
-1036.8836940000001
 21
-836.22609999999975
 31
0.0
  0
LINE
  5
18B
  8
DATA
  6
CONTINUOUS
 62
     7
 10
-1064.09952
 20
-836.22609999999975
 30
0.0
 11
-1052.467712577115
 21
-836.22612670934257
 31
0.0
  0
LINE
  5
18C
  8
DATA
  6
CONTINUOUS
 62
     7
 10
-1058.558951999999
 20
-839.33126799999968
 30
0.0
 11
-1055.575554
 21
-839.33126799999968
 31
0.0
  0
ARC
  5
18D
  8
DATA
  6
CONTINUOUS
 62
     7
 10
-1052.8881989999991
 20
-842.4811179999997
 30
0.0
 40
6.2691087786076301
 50
8.2269238590182212
 51
86.154126692151806
  0
ARC
  5
18E
  8
DATA
  6
CONTINUOUS
 62
     7
 10
-1055.540324973409
 20
-860.33372873006215
 30
0.0
 40
5.7872774961601703
 50
269.65121993761409
 51
282.82648280687022
  0
ARC
  5
18F
  8
DATA
  6
CONTINUOUS
 62
     7
 10
-1054.890322109359
 20
-862.78047502704885
 30
0.0
 40
3.2585450821879092
 50
281.23310362265499
 51
306.86200889405501
  0
ARC
  5
190
  8
DATA
  6
CONTINUOUS
 62
     7
 10
-1053.5780265002079
 20
-854.65770234917829
 30
0.0
 40
1.051984278901126
 50
5.7329807105590138
 51
52.358097502428883
  0
ARC
  5
191
  8
DATA
  6
CONTINUOUS
 62
     7
 10
-1055.540324973409
 20
-858.87854726993646
 30
0.0
 40
5.7872774961593532
 50
77.173517193127736
 51
90.348780062385899
  0
ARC
  5
192
  8
DATA
  6
CONTINUOUS
 62
     7
 10
-1054.890322109359
 20
-856.43180097294965
 30
0.0
 40
3.2585450821872031
 50
53.137991105946547
 51
78.766896377342633
  0
ARC
  5
193
  8
DATA
  6
CONTINUOUS
 62
     7
 10
-1049.8796219999999
 20
-855.37735299999986
 30
0.0
 40
3.200630940915465
 50
3.8670063598327782
 51
88.361634567888828
  0
ARC
  5
194
  8
DATA
  6
CONTINUOUS
 62
     7
 10
-1049.8825589999999
 20
-848.97561699999972
 30
0.0
 40
3.2038114018265591
 50
271.68928210464969
 51
356.07828298266452
  0
ARC
  5
195
  8
DATA
  6
CONTINUOUS
 62
     7
 10
-1053.5780265002079
 20
-848.3590316508205
 30
0.0
 40
1.0519842789005529
 50
307.64190249755899
 51
354.26701928938922
  0
ARC
  5
196
  8
DATA
  6
CONTINUOUS
 62
     7
 10
-1055.540324973409
 20
-844.13818673006267
 30
0.0
 40
5.787277496159942
 50
269.65121993761409
 51
282.826482806873
  0
ARC
  5
197
  8
DATA
  6
CONTINUOUS
 62
     7
 10
-1054.890322109359
 20
-846.58493302704915
 30
0.0
 40
3.2585450821872399
 50
281.23310362265732
 51
306.86200889405342
  0
ARC
  5
198
  8
DATA
  6
CONTINUOUS
 62
     7
 10
-1053.5780265002079
 20
-840.89759334917903
 30
0.0
 40
1.0519842789012159
 50
5.7329807106083024
 51
52.358097502436451
  0
ARC
  5
199
  8
DATA
  6
CONTINUOUS
 62
     7
 10
-1055.540324973409
 20
-845.11843826993675
 30
0.0
 40
5.7872774961600184
 50
77.173517193129214
 51
90.348780062385828
  0
ARC
  5
19A
  8
DATA
  6
CONTINUOUS
 62
     7
 10
-1054.890322109359
 20
-842.67169197295027
 30
0.0
 40
3.2585450821872031
 50
53.137991105946547
 51
78.7668963773434
  0
ARC
  5
19B
  8
DATA
  6
CONTINUOUS
 62
     7
 10
-324.0780265002083
 20
-864.5545736508202
 30
0.0
 40
1.0519842789005529
 50
307.64190249755899
 51
354.26701928938922
  0
LINE
  5
19C
  8
DATA
  6
CONTINUOUS
 62
     7
 10
-351.09952000000021
 20
-847.97700399999985
 30
0.0
 11
-346.16780199999971
 21
-836.22609999999975
 31
0.0
  0
LINE
  5
19D
  8
DATA
  6
CONTINUOUS
 62
     7
 10
-351.09952000000021
 20
-847.97700399999985
 30
0.0
 11
-355.97038599999968
 21
-836.22609999999975
 31
0.0
  0
LINE
  5
19E
  8
DATA
  6
CONTINUOUS
 62
     7
 10
-313.71579999999989
 20
-869.22609999999975
 30
0.0
 11
-313.71579999999989
 21
-836.22609999999975
 31
0.0
  0
LINE
  5
19F
  8
DATA
  6
CONTINUOUS
 62
     7
 10
-307.38369400000028
 20
-836.22609999999975
 30
0.0
 11
-307.38369400000028
 21
-864.17261199999939
 31
0.0
  0
LINE
  5
1A0
  8
DATA
  6
CONTINUOUS
 62
     7
 10
-343.85413899999969
 20
-836.22609999999975
 30
0.0
 11
-343.85413899999969
 21
-864.17261199999939
 31
0.0
  0
LINE
  5
1A1
  8
DATA
  6
CONTINUOUS
 62
     7
 10
-337.76557299999979
 20
-836.22609999999975
 30
0.0
 11
-337.76557299999979
 21
-864.17261199999939
 31
0.0
  0
LINE
  5
1A2
  8
DATA
  6
CONTINUOUS
 62
     7
 10
-334.59952000000021
 20
-836.22609999999975
 30
0.0
 11
-334.59952000000021
 21
-869.22609999999975
 31
0.0
  0
LINE
  5
1A3
  8
DATA
  6
CONTINUOUS
 62
     7
 10
-329.05891899999949
 20
-839.33123499999965
 30
0.0
 11
-329.05891899999949
 21
-849.92535699999985
 31
0.0
  0
LINE
  5
1A4
  8
DATA
  6
CONTINUOUS
 62
     7
 10
-317.18360500000011
 20
-849.31234899999981
 30
0.0
 11
-317.18360500000011
 21
-841.58404599999938
 31
0.0
  0
LINE
  5
1A5
  8
DATA
  6
CONTINUOUS
 62
     7
 10
-323.03130399999958
 20
-840.79250799999977
 30
0.0
 11
-323.03130399999958
 21
-848.46411699999965
 31
0.0
  0
ARC
  5
1A6
  8
DATA
  6
CONTINUOUS
 62
     7
 10
-345.0759309999998
 20
-860.75235999999961
 30
0.0
 40
8.5102163030533866
 50
264.69085622153318
 51
323.99119915424268
  0
LINE
  5
1A7
  8
DATA
  6
CONTINUOUS
 62
     7
 10
-348.48143199999981
 20
-858.87551799999903
 30
0.0
 11
-348.48143199999981
 21
-864.17254599999956
 31
0.0
  0
LINE
  5
1A8
  8
DATA
  6
CONTINUOUS
 62
     7
 10
-348.48143199999981
 20
-858.87551799999903
 30
0.0
 11
-353.96114800000032
 21
-858.87551799999903
 31
0.0
  0
LINE
  5
1A9
  8
DATA
  6
CONTINUOUS
 62
     7
 10
-353.96114800000032
 20
-858.87551799999903
 30
0.0
 11
-353.96114800000032
 21
-864.17254599999956
 31
0.0
  0
ARC
  5
1AA
  8
DATA
  6
CONTINUOUS
 62
     7
 10
-346.15618599999988
 20
-864.24395799999945
 30
0.0
 40
2.3031651265999189
 50
269.71184879275143
 51
1.775987005682623
  0
ARC
  5
1AB
  8
DATA
  6
CONTINUOUS
 62
     7
 10
-346.17938499999991
 20
-864.24395799999945
 30
0.0
 40
2.303153349616466
 50
178.22401299431411
 51
270.28815120725568
  0
ARC
  5
1AC
  8
DATA
  6
CONTINUOUS
 62
     7
 10
-346.65078999999957
 20
-860.75235999999961
 30
0.0
 40
8.5102024819236242
 50
216.00880084575769
 51
275.30914377846381
  0
ARC
  5
1AD
  8
DATA
  6
CONTINUOUS
 62
     7
 10
-350.11519600000008
 20
-863.9859969999992
 30
0.0
 40
3.8504406869808512
 50
182.77699544999771
 51
207.3596066671565
  0
CIRCLE
  5
1AE
  8
DATA
  6
CONTINUOUS
 62
     7
 10
-350.76463600000011
 20
-852.54344499999945
 30
0.0
 40
3.1355940000000819
  0
LINE
  5
1AF
  8
DATA
  6
CONTINUOUS
 62
     7
 10
-297.21579999999989
 20
-869.22606699999915
 30
0.0
 11
-313.71579999999989
 21
-869.22606699999915
 31
0.0
  0
LINE
  5
1B0
  8
DATA
  6
CONTINUOUS
 62
     7
 10
-297.21579999999989
 20
-869.22606699999915
 30
0.0
 11
-297.21579999999989
 21
-858.87548499999934
 31
0.0
  0
LINE
  5
1B1
  8
DATA
  6
CONTINUOUS
 62
     7
 10
-297.21579999999989
 20
-858.87551799999903
 30
0.0
 11
-302.75636799999978
 21
-858.87551799999903
 31
0.0
  0
LINE
  5
1B2
  8
DATA
  6
CONTINUOUS
 62
     7
 10
-302.75636799999978
 20
-858.87551799999903
 30
0.0
 11
-302.75636799999978
 21
-864.17254599999956
 31
0.0
  0
LINE
  5
1B3
  8
DATA
  6
CONTINUOUS
 62
     7
 10
-334.59952000000021
 20
-869.22606699999915
 30
0.0
 11
-323.03130399999958
 21
-869.22603399999934
 31
0.0
  0
LINE
  5
1B4
  8
DATA
  6
CONTINUOUS
 62
     7
 10
-329.05895199999958
 20
-866.12089899999955
 30
0.0
 11
-326.07555400000001
 21
-866.12089899999955
 31
0.0
  0
LINE
  5
1B5
  8
DATA
  6
CONTINUOUS
 62
     7
 10
-329.05891899999949
 20
-866.12089899999955
 30
0.0
 11
-329.05891899999949
 21
-853.09137699999974
 31
0.0
  0
LINE
  5
1B6
  8
DATA
  6
CONTINUOUS
 62
     7
 10
-329.05895199999958
 20
-853.09137699999974
 30
0.0
 11
-326.07555400000001
 21
-853.09137699999974
 31
0.0
  0
LINE
  5
1B7
  8
DATA
  6
CONTINUOUS
 62
     7
 10
-323.03130399999958
 20
-864.65965899999935
 30
0.0
 11
-323.03130399999958
 21
-854.55261700000005
 31
0.0
  0
ARC
  5
1B8
  8
DATA
  6
CONTINUOUS
 62
     7
 10
-341.61152499999997
 20
-863.9859969999992
 30
0.0
 40
3.8504352079549991
 50
332.64039333284461
 51
357.22300455000641
  0
ARC
  5
1B9
  8
DATA
  6
CONTINUOUS
 62
     7
 10
-305.05844799999949
 20
-864.24395799999945
 30
0.0
 40
2.3031651265999198
 50
269.7118487927458
 51
1.775987005682566
  0
ARC
  5
1BA
  8
DATA
  6
CONTINUOUS
 62
     7
 10
-305.08161399999972
 20
-864.24395799999945
 30
0.0
 40
2.303153349616466
 50
178.22401299431411
 51
270.28815120723311
  0
LINE
  5
1BB
  8
DATA
  6
CONTINUOUS
 62
     7
 10
-317.18627800000007
 20
-863.92900599999984
 30
0.0
 11
-317.18627800000007
 21
-855.16149999999925
 31
0.0
  0
LINE
  5
1BC
  8
DATA
  6
CONTINUOUS
 62
     7
 10
-329.05895199999958
 20
-849.92535699999985
 30
0.0
 11
-326.07555400000001
 21
-849.92535699999985
 31
0.0
  0
ARC
  5
1BD
  8
DATA
  6
CONTINUOUS
 62
     7
 10
-323.45080000000002
 20
-862.96144599999946
 30
0.0
 40
6.2786176586695861
 50
273.83098160911902
 51
351.13514730980199
  0
LINE
  5
1BE
  8
DATA
  6
CONTINUOUS
 62
     7
 10
-343.85413899999969
 20
-836.22609999999975
 30
0.0
 11
-337.76557299999979
 21
-836.22609999999975
 31
0.0
  0
LINE
  5
1BF
  8
DATA
  6
CONTINUOUS
 62
     7
 10
-355.97038599999968
 20
-836.22609999999975
 30
0.0
 11
-346.16780199999971
 21
-836.22609999999975
 31
0.0
  0
LINE
  5
1C0
  8
DATA
  6
CONTINUOUS
 62
     7
 10
-313.71579999999989
 20
-836.22609999999975
 30
0.0
 11
-307.38369400000028
 21
-836.22609999999975
 31
0.0
  0
LINE
  5
1C1
  8
DATA
  6
CONTINUOUS
 62
     7
 10
-334.59952000000021
 20
-836.22609999999975
 30
0.0
 11
-322.96771257711561
 21
-836.22612670934257
 31
0.0
  0
LINE
  5
1C2
  8
DATA
  6
CONTINUOUS
 62
     7
 10
-329.05895199999958
 20
-839.33126799999968
 30
0.0
 11
-326.07555400000001
 21
-839.33126799999968
 31
0.0
  0
ARC
  5
1C3
  8
DATA
  6
CONTINUOUS
 62
     7
 10
-323.3881989999997
 20
-842.4811179999997
 30
0.0
 40
6.2691087786076301
 50
8.2269238590182212
 51
86.154126692151806
  0
ARC
  5
1C4
  8
DATA
  6
CONTINUOUS
 62
     7
 10
-326.04032497340899
 20
-860.33372873006215
 30
0.0
 40
5.7872774961601703
 50
269.65121993761409
 51
282.82648280687022
  0
ARC
  5
1C5
  8
DATA
  6
CONTINUOUS
 62
     7
 10
-325.3903221093596
 20
-862.78047502704885
 30
0.0
 40
3.2585450821879092
 50
281.23310362265499
 51
306.86200889405501
  0
ARC
  5
1C6
  8
DATA
  6
CONTINUOUS
 62
     7
 10
-324.0780265002083
 20
-854.65770234917829
 30
0.0
 40
1.051984278901126
 50
5.7329807105590138
 51
52.358097502428883
  0
ARC
  5
1C7
  8
DATA
  6
CONTINUOUS
 62
     7
 10
-326.04032497340899
 20
-858.87854726993646
 30
0.0
 40
5.7872774961593532
 50
77.173517193127736
 51
90.348780062385899
  0
ARC
  5
1C8
  8
DATA
  6
CONTINUOUS
 62
     7
 10
-325.3903221093596
 20
-856.43180097294965
 30
0.0
 40
3.2585450821872031
 50
53.137991105946547
 51
78.766896377342633
  0
ARC
  5
1C9
  8
DATA
  6
CONTINUOUS
 62
     7
 10
-320.3796220000001
 20
-855.37735299999986
 30
0.0
 40
3.200630940915465
 50
3.8670063598327782
 51
88.361634567888828
  0
ARC
  5
1CA
  8
DATA
  6
CONTINUOUS
 62
     7
 10
-320.38255900000007
 20
-848.97561699999972
 30
0.0
 40
3.2038114018265591
 50
271.68928210464969
 51
356.07828298266452
  0
ARC
  5
1CB
  8
DATA
  6
CONTINUOUS
 62
     7
 10
-324.0780265002083
 20
-848.3590316508205
 30
0.0
 40
1.0519842789005529
 50
307.64190249755899
 51
354.26701928938922
  0
ARC
  5
1CC
  8
DATA
  6
CONTINUOUS
 62
     7
 10
-326.04032497340899
 20
-844.13818673006267
 30
0.0
 40
5.787277496159942
 50
269.65121993761409
 51
282.826482806873
  0
ARC
  5
1CD
  8
DATA
  6
CONTINUOUS
 62
     7
 10
-325.3903221093596
 20
-846.58493302704915
 30
0.0
 40
3.2585450821872399
 50
281.23310362265732
 51
306.86200889405342
  0
ARC
  5
1CE
  8
DATA
  6
CONTINUOUS
 62
     7
 10
-324.0780265002083
 20
-840.89759334917903
 30
0.0
 40
1.0519842789012159
 50
5.7329807106083024
 51
52.358097502436451
  0
ARC
  5
1CF
  8
DATA
  6
CONTINUOUS
 62
     7
 10
-326.04032497340899
 20
-845.11843826993675
 30
0.0
 40
5.7872774961600184
 50
77.173517193129214
 51
90.348780062385828
  0
ARC
  5
1D0
  8
DATA
  6
CONTINUOUS
 62
     7
 10
-325.3903221093596
 20
-842.67169197295027
 30
0.0
 40
3.2585450821872031
 50
53.137991105946547
 51
78.7668963773434
  0
TEXT
  5
1D5
  8
0
  6
CONTINUOUS
 62
     7
 10
-1500.0
 20
-2305.5957999999978
 30
0.0
 40
33.86666666666666
  1
仕様および外観は予告なく変更されることがありますので、ご了承ください。
 41
0.9
  0
LINE
  5
1D6
  8
DATA
  6
CONTINUOUS
 62
     7
 10
-379.74999999999989
 20
-808.99999999999977
 30
0.0
 11
-275.74999999999989
 21
-808.99999999999977
 31
0.0
  0
LINE
  5
1D7
  8
DATA
  6
CONTINUOUS
 62
     7
 10
-275.74999999999989
 20
-808.99999999999977
 30
0.0
 11
-275.74999999999989
 21
-896.99999999999966
 31
0.0
  0
LINE
  5
1D8
  8
DATA
  6
CONTINUOUS
 62
     7
 10
-275.74999999999989
 20
-896.99999999999966
 30
0.0
 11
-379.74999999999989
 21
-896.99999999999966
 31
0.0
  0
LINE
  5
1D9
  8
DATA
  6
CONTINUOUS
 62
     7
 10
-379.74999999999989
 20
-896.99999999999966
 30
0.0
 11
-379.74999999999989
 21
-808.99999999999977
 31
0.0
  0
LINE
  5
1DA
  8
DATA
  6
CONTINUOUS
 62
     7
 10
-1109.25
 20
-808.99999999999977
 30
0.0
 11
-1005.249999999999
 21
-808.99999999999977
 31
0.0
  0
LINE
  5
1DB
  8
DATA
  6
CONTINUOUS
 62
     7
 10
-1005.249999999999
 20
-808.99999999999977
 30
0.0
 11
-1005.249999999999
 21
-896.99999999999966
 31
0.0
  0
LINE
  5
1DC
  8
DATA
  6
CONTINUOUS
 62
     7
 10
-1005.249999999999
 20
-896.99999999999966
 30
0.0
 11
-1109.25
 21
-896.99999999999966
 31
0.0
  0
LINE
  5
1DD
  8
DATA
  6
CONTINUOUS
 62
     7
 10
-1109.25
 20
-896.99999999999966
 30
0.0
 11
-1109.25
 21
-808.99999999999977
 31
0.0
  0
LINE
  5
1DE
  8
DATA
  6
CONTINUOUS
 62
     7
 10
-1296.55
 20
117.7499999999999
 30
0.0
 11
-1277.4499999999989
 21
117.7499999999999
 31
0.0
  0
LINE
  5
1DF
  8
DATA
  6
CONTINUOUS
 62
     7
 10
-1277.4499999999989
 20
117.7499999999999
 30
0.0
 11
-1277.4499999999989
 21
85.950000000000045
 31
0.0
  0
LINE
  5
1E0
  8
DATA
  6
CONTINUOUS
 62
     7
 10
-1277.4499999999989
 20
85.950000000000045
 30
0.0
 11
-1296.55
 21
85.950000000000045
 31
0.0
  0
LINE
  5
1E1
  8
DATA
  6
CONTINUOUS
 62
     7
 10
-1296.55
 20
85.950000000000045
 30
0.0
 11
-1296.55
 21
117.7499999999999
 31
0.0
  0
LINE
  5
1E2
  8
DATA
  6
CONTINUOUS
 62
     7
 10
-1296.55
 20
-359.94999999999982
 30
0.0
 11
-1277.4499999999989
 21
-359.94999999999982
 31
0.0
  0
LINE
  5
1E3
  8
DATA
  6
CONTINUOUS
 62
     7
 10
-1277.4499999999989
 20
-359.94999999999982
 30
0.0
 11
-1277.4499999999989
 21
-391.75
 31
0.0
  0
LINE
  5
1E4
  8
DATA
  6
CONTINUOUS
 62
     7
 10
-1277.4499999999989
 20
-391.75
 30
0.0
 11
-1296.55
 21
-391.75
 31
0.0
  0
LINE
  5
1E5
  8
DATA
  6
CONTINUOUS
 62
     7
 10
-1296.55
 20
-391.75
 30
0.0
 11
-1296.55
 21
-359.94999999999982
 31
0.0
  0
LINE
  5
1E6
  8
DATA
  6
CONTINUOUS
 62
     7
 10
-107.5499999999999
 20
117.7499999999999
 30
0.0
 11
-88.450000000000003
 21
117.7499999999999
 31
0.0
  0
LINE
  5
1E7
  8
DATA
  6
CONTINUOUS
 62
     7
 10
-88.450000000000003
 20
117.7499999999999
 30
0.0
 11
-88.450000000000003
 21
85.950000000000045
 31
0.0
  0
LINE
  5
1E8
  8
DATA
  6
CONTINUOUS
 62
     7
 10
-88.450000000000003
 20
85.950000000000045
 30
0.0
 11
-107.5499999999999
 21
85.950000000000045
 31
0.0
  0
LINE
  5
1E9
  8
DATA
  6
CONTINUOUS
 62
     7
 10
-107.5499999999999
 20
85.950000000000045
 30
0.0
 11
-107.5499999999999
 21
117.7499999999999
 31
0.0
  0
LINE
  5
1EA
  8
DATA
  6
CONTINUOUS
 62
     7
 10
-107.5499999999999
 20
-359.94999999999982
 30
0.0
 11
-88.450000000000003
 21
-359.94999999999982
 31
0.0
  0
LINE
  5
1EB
  8
DATA
  6
CONTINUOUS
 62
     7
 10
-88.450000000000003
 20
-359.94999999999982
 30
0.0
 11
-88.450000000000003
 21
-391.75
 31
0.0
  0
LINE
  5
1EC
  8
DATA
  6
CONTINUOUS
 62
     7
 10
-88.450000000000003
 20
-391.75
 30
0.0
 11
-107.5499999999999
 21
-391.75
 31
0.0
  0
LINE
  5
1ED
  8
DATA
  6
CONTINUOUS
 62
     7
 10
-107.5499999999999
 20
-391.75
 30
0.0
 11
-107.5499999999999
 21
-359.94999999999982
 31
0.0
  0
TEXT
  5
1EE
  8
0
  6
CONTINUOUS
 62
     7
 10
1099.9999999999991
 20
-2021.467799999999
 30
0.0
 40
50.799999999999997
  1
JBL
 41
0.9
  0
TEXT
  5
1EF
  8
0
  6
CONTINUOUS
 62
     7
 10
1099.9999999999991
 20
-2166.467799999999
 30
0.0
 40
50.799999999999997
  1
VT4889
 41
0.9
  0
TEXT
  5
1F0
  8
0
  6
CONTINUOUS
 62
     7
 10
1049.9999999999991
 20
-2092.2768000000001
 30
0.0
 40
33.86666666666666
  1
3WAY ラインアレイ・システム
 41
0.9
  0
TEXT
  5
1F1
  8
0
  6
CONTINUOUS
 62
     7
 10
-1434.1111111111111
 20
-591.1111111111112
 30
0.0
 40
56.44444444444445
  1
17.5
 50
90.0
 41
0.9
  0
TEXT
  5
1F2
  8
0
  6
CONTINUOUS
 62
     7
 10
-1434.1111111111111
 20
-183.9166666666666
 30
0.0
 40
56.44444444444445
  1
538
 50
90.0
 41
0.9
  0
TEXT
  5
1F3
  8
0
  6
CONTINUOUS
 62
     7
 10
-1434.1111111111111
 20
-905.91666666666663
 30
0.0
 40
56.44444444444445
  1
494
 50
90.0
 41
0.9
  0
TEXT
  5
1F4
  8
0
  6
CONTINUOUS
 62
     7
 10
-763.05555555555543
 20
-1265.888888888888
 30
0.0
 40
56.44444444444445
  1
1215
 41
0.9
  0
TEXT
  5
1F5
  8
0
  6
CONTINUOUS
 62
     7
 10
-299.99999999999989
 20
-2153.3719904761901
 30
0.0
 40
50.799999999999997
  1
(単位：mm)
 41
0.9
  0
TEXT
  5
1F6
  8
0
  6
CONTINUOUS
 62
     7
 10
-681.99999999999989
 20
1043.2958518518519
 30
0.0
 40
39.511111111111113
  1
1215(W)×494(H)×538(D)mm
 41
0.9
  0
TEXT
  5
1F7
  8
0
  6
CONTINUOUS
 62
     7
 10
-681.99999999999989
 20
975.82177777777758
 30
0.0
 40
39.511111111111113
  1
約72Kg
 41
0.9
  0
TEXT
  5
1F8
  8
0
  6
CONTINUOUS
 62
     7
 10
-1532.0
 20
975.82177777777758
 30
0.0
 40
39.511111111111113
  1
重量
 41
0.9
  0
TEXT
  5
1F9
  8
0
  6
CONTINUOUS
 62
     7
 10
-1532.0
 20
1050.821777777777
 30
0.0
 40
39.511111111111113
  1
寸法
 41
0.9
  0
TEXT
  5
1FA
  8
0
  6
CONTINUOUS
 62
     7
 10
-681.99999999999989
 20
1125.821777777777
 30
0.0
 40
39.511111111111113
  1
NL8x2
 41
0.9
  0
TEXT
  5
1FB
  8
0
  6
CONTINUOUS
 62
     7
 10
-1532.0
 20
1125.821777777777
 30
0.0
 40
39.511111111111113
  1
入力コネクタ
 41
0.9
  0
TEXT
  5
1FC
  8
0
  6
CONTINUOUS
 62
     7
 10
-681.99999999999989
 20
1200.821777777777
 30
0.0
 40
39.511111111111113
  1
複合素材構造 , 上下5°テーパーシェイプ , Duraflex仕上げ
 41
0.9
  0
TEXT
  5
1FD
  8
0
  6
CONTINUOUS
 62
     7
 10
-1532.0
 20
1200.821777777777
 30
0.0
 40
39.511111111111113
  1
エンクロージャ
 41
0.9
  0
TEXT
  5
1FE
  8
0
  6
CONTINUOUS
 62
     7
 10
-681.99999999999989
 20
1268.295851851851
 30
0.0
 40
39.511111111111113
  1
116dB(システム・バンドパス）
 41
0.9
  0
TEXT
  5
1FF
  8
0
  6
CONTINUOUS
 62
     7
 10
-1532.0
 20
1268.295851851851
 30
0.0
 40
39.511111111111113
  1
感度(1w/1m) *バンドパス
 41
0.9
  0
TEXT
  5
200
  8
0
  6
CONTINUOUS
 62
     7
 10
-681.99999999999989
 20
1343.295851851851
 30
0.0
 40
39.511111111111113
  1
225W(AES) , システム・バンドパス , 75W(AES , ドライバ単体)
 41
0.9
  0
TEXT
  5
201
  8
0
  6
CONTINUOUS
 62
     7
 10
-1532.0
 20
1350.821777777777
 30
0.0
 40
39.511111111111113
  1
許容入力
 41
0.9
  0
TEXT
  5
202
  8
0
  6
CONTINUOUS
 62
     7
 10
-681.99999999999989
 20
1418.295851851851
 30
0.0
 40
39.511111111111113
  1
16Ω(シリーズ接続)
 41
0.9
  0
TEXT
  5
203
  8
0
  6
CONTINUOUS
 62
     7
 10
-1532.0
 20
1418.295851851851
 30
0.0
 40
39.511111111111113
  1
公称インピーダンス(バンドパス)
 41
0.9
  0
TEXT
  5
204
  8
0
  6
CONTINUOUS
 62
     7
 10
-681.99999999999989
 20
1493.295851851851
 30
0.0
 40
39.511111111111113
  1
2435HPL(3インチ)×3
 41
0.9
  0
TEXT
  5
205
  8
0
  6
CONTINUOUS
 62
     7
 10
-1532.0
 20
1500.821777777777
 30
0.0
 40
39.511111111111113
  1
高域ドライバ
 41
0.9
  0
TEXT
  5
206
  8
0
  6
CONTINUOUS
 62
     7
 10
-681.99999999999989
 20
1568.295851851851
 30
0.0
 40
39.511111111111113
  1
102dB(システム・バンドパス)
 41
0.9
  0
TEXT
  5
207
  8
0
  6
CONTINUOUS
 62
     7
 10
-1532.0
 20
1568.295851851851
 30
0.0
 40
39.511111111111113
  1
感度(1w/1m) *バンドパス
 41
0.9
  0
TEXT
  5
208
  8
0
  6
CONTINUOUS
 62
     7
 10
-681.99999999999989
 20
1643.295851851851
 30
0.0
 40
39.511111111111113
  1
1200W(AES) , システム・バンドパス , 300W(AES , ドライバ単体)
 41
0.9
  0
TEXT
  5
209
  8
0
  6
CONTINUOUS
 62
     7
 10
-1532.0
 20
1650.821777777777
 30
0.0
 40
39.511111111111113
  1
許容入力
 41
0.9
  0
TEXT
  5
20A
  8
0
  6
CONTINUOUS
 62
     7
 10
-681.99999999999989
 20
1718.295851851851
 30
0.0
 40
39.511111111111113
  1
8Ω(シリーズパラレル接続)
 41
0.9
  0
TEXT
  5
20B
  8
0
  6
CONTINUOUS
 62
     7
 10
-1532.0
 20
1718.295851851851
 30
0.0
 40
39.511111111111113
  1
公称インピーダンス(バンドパス)
 41
0.9
  0
TEXT
  5
20C
  8
0
  6
CONTINUOUS
 62
     7
 10
-681.99999999999989
 20
1793.295851851851
 30
0.0
 40
39.511111111111113
  1
2250HPL(8インチ)×4
 41
0.9
  0
TEXT
  5
20D
  8
0
  6
CONTINUOUS
 62
     7
 10
-1532.0
 20
1800.821777777777
 30
0.0
 40
39.511111111111113
  1
中域ドライバ
 41
0.9
  0
TEXT
  5
20E
  8
0
  6
CONTINUOUS
 62
     7
 10
-681.99999999999989
 20
1875.821777777777
 30
0.0
 40
39.511111111111113
  1
99dB
 41
0.9
  0
TEXT
  5
20F
  8
0
  6
CONTINUOUS
 62
     7
 10
-1532.0
 20
1868.295851851851
 30
0.0
 40
39.511111111111113
  1
感度(1w/1m) *バンドパス
 41
0.9
  0
TEXT
  5
210
  8
0
  6
CONTINUOUS
 62
     7
 10
-681.99999999999989
 20
1943.295851851851
 30
0.0
 40
39.511111111111113
  1
1200W(AES) , システム・バンドパス , 600W(AES , ドライバ単体)
 41
0.9
  0
TEXT
  5
211
  8
0
  6
CONTINUOUS
 62
     7
 10
-1532.0
 20
1950.821777777777
 30
0.0
 40
39.511111111111113
  1
許容入力
 41
0.9
  0
TEXT
  5
212
  8
0
  6
CONTINUOUS
 62
     7
 10
-681.99999999999989
 20
2018.295851851851
 30
0.0
 40
39.511111111111113
  1
8Ω(独立接続)
 41
0.9
  0
TEXT
  5
213
  8
0
  6
CONTINUOUS
 62
     7
 10
-1532.0
 20
2018.295851851851
 30
0.0
 40
39.511111111111113
  1
公称インピーダンス(各ドライバ)
 41
0.9
  0
TEXT
  5
214
  8
0
  6
CONTINUOUS
 62
     7
 10
-681.99999999999989
 20
2100.8217777777768
 30
0.0
 40
39.511111111111113
  1
2255HPL（15インチ）　×　2
 41
0.9
  0
TEXT
  5
215
  8
0
  6
CONTINUOUS
 62
     7
 10
-1532.0
 20
2100.8217777777768
 30
0.0
 40
39.511111111111113
  1
低域ドライバ
 41
0.9
  0
TEXT
  5
216
  8
0
  6
CONTINUOUS
 62
     7
 10
-681.99999999999989
 20
2175.8259777777771
 30
0.0
 40
39.511111111111113
  1
BSS FDS366 , XTA DP226 , dbx Drive Rack480
 41
0.9
  0
TEXT
  5
217
  8
0
  6
CONTINUOUS
 62
     7
 10
-1532.0
 20
2175.8259777777771
 30
0.0
 40
39.511111111111113
  1
推奨プロセッサ
 41
0.9
  0
TEXT
  5
218
  8
0
  6
CONTINUOUS
 62
     7
 10
-681.99999999999989
 20
2250.8259777777771
 30
0.0
 40
39.511111111111113
  1
136dB - 146dB
 41
0.9
  0
TEXT
  5
219
  8
0
  6
CONTINUOUS
 62
     7
 10
-1532.0
 20
2243.3000518518511
 30
0.0
 40
39.511111111111113
  1
最大ピーク出力(@1m)
 41
0.9
  0
TEXT
  5
21A
  8
0
  6
CONTINUOUS
 62
     7
 10
-681.99999999999989
 20
2325.8259777777771
 30
0.0
 40
39.511111111111113
  1
本数と構成によって異なる
 41
0.9
  0
TEXT
  5
21B
  8
0
  6
CONTINUOUS
 62
     7
 10
-1532.0
 20
2318.3000518518511
 30
0.0
 40
39.511111111111113
  1
垂直カバレージ(-6dB)
 41
0.9
  0
TEXT
  5
21C
  8
0
  6
CONTINUOUS
 62
     7
 10
-681.99999999999989
 20
2400.825977777778
 30
0.0
 40
39.511111111111113
  1
90° , 250Hz - 16KHｚ
 41
0.9
  0
TEXT
  5
21D
  8
0
  6
CONTINUOUS
 62
     7
 10
-1532.0
 20
2393.3000518518511
 30
0.0
 40
39.511111111111113
  1
水平カバレージ(-6dB)
 41
0.9
  0
TEXT
  5
21E
  8
0
  6
CONTINUOUS
 62
     7
 10
-681.99999999999989
 20
2475.8259777777771
 30
0.0
 40
39.511111111111113
  1
45 - 16KHz
 41
0.9
  0
TEXT
  5
21F
  8
0
  6
CONTINUOUS
 62
     7
 10
-1532.0
 20
2468.3000518518511
 30
0.0
 40
39.511111111111113
  1
周波数特性(±3dB)
 41
0.9
  0
TEXT
  5
220
  8
0
  6
CONTINUOUS
 62
     7
 10
-681.99999999999989
 20
2550.8259777777771
 30
0.0
 40
39.511111111111113
  1
3Way　ラインアレイ・システム
 41
0.9
  0
TEXT
  5
221
  8
0
  6
CONTINUOUS
 62
     7
 10
-1532.0
 20
2550.8259777777771
 30
0.0
 40
39.511111111111113
  1
形式
 41
0.9
  0
TEXT
  5
222
  8
0
  6
CONTINUOUS
 62
     7
 10
-1524.9999999999991
 20
2638.7801999999988
 30
0.0
 40
50.799999999999997
  1
仕様
 41
0.9
  0
TEXT
  5
223
  8
0
  6
CONTINUOUS
 62
     7
 10
1080.116200220692
 20
-2336.64212
 30
0.0
 40
37.425919999999998
  1
N.Sasaki
 41
0.9
  0
TEXT
  5
224
  8
0
  6
CONTINUOUS
 62
     7
 10
449.99999999999989
 20
-2361.3229999999999
 30
0.0
 40
45.155200000000001
  1
20
 41
0.9
  0
TEXT
  5
225
  8
0
  6
CONTINUOUS
 62
     7
 10
567.12999999999977
 20
-2343.7700857142859
 30
0.0
 40
37.425599999999989
  1
'02.03.
 41
0.9
  0
TEXT
  5
226
  8
0
  6
CONTINUOUS
 62
     7
 10
178.2179999999999
 20
-2337.8465999999999
 30
0.0
 40
67.732799999999983
  1
A4
 41
0.9
  0
TEXT
  5
227
  8
0
  6
CONTINUOUS
 62
     7
 10
375.0
 20
-2323.822999999999
 30
0.0
 40
45.155200000000001
  1
1
 41
0.9
  0
TEXT
  5
228
  8
0
  6
CONTINUOUS
 62
     7
 10
1318.0
 20
-2242.9613999999988
 30
0.0
 40
37.425599999999989
  1
CHECK
 41
0.9
  0
TEXT
  5
229
  8
0
  6
CONTINUOUS
 62
     7
 10
1567.9999999999991
 20
-2242.9613999999988
 30
0.0
 40
37.425599999999989
  1
DRAWING NO.
 41
0.9
  0
TEXT
  5
22A
  8
0
  6
CONTINUOUS
 62
     7
 10
817.99999999999989
 20
-2242.9613999999988
 30
0.0
 40
37.425599999999989
  1
DESIGN
 41
0.9
  0
TEXT
  5
22B
  8
0
  6
CONTINUOUS
 62
     7
 10
368.0
 20
-2242.9613999999988
 30
0.0
 40
37.425599999999989
  1
SCALE
 41
0.9
  0
TEXT
  5
22C
  8
0
  6
CONTINUOUS
 62
     7
 10
121.9999999999999
 20
-2242.7449999999999
 30
0.0
 40
33.86719999999999
  1
図面サイズ
 41
0.9
  0
TEXT
  5
22D
  8
0
  6
CONTINUOUS
 62
     7
 10
567.99999999999977
 20
-2242.9613999999988
 30
0.0
 40
37.425599999999989
  1
DATE
 41
0.9
  0
TEXT
  5
22E
  8
0
  6
CONTINUOUS
 62
     7
 10
1067.9999999999991
 20
-2242.9613999999988
 30
0.0
 40
37.425599999999989
  1
DRAWN
 41
0.9
  0
TEXT
  5
22F
  8
0
  6
CONTINUOUS
 62
     7
 10
1101.367999999999
 20
-2515.4549999999999
 30
0.0
 40
74.851199999999992
  1
ヒビノ株式会社
 41
0.9
  0
TEXT
  5
230
  8
0
  6
CONTINUOUS
 62
     7
 10
817.99999999999989
 20
-1994.0894000000001
 30
0.0
 40
37.425599999999989
  1
TITLE
 41
0.9
  0
TEXT
  5
231
  8
0
  6
CONTINUOUS
 62
     7
 10
117.9999999999999
 20
-1994.0894000000001
 30
0.0
 40
37.425599999999989
  1
NOTE
 41
0.9
  0
TEXT
  5
232
  8
0
  6
CONTINUOUS
 62
     7
 10
-1556.3199999999999
 20
-2515.4549999999999
 30
0.0
 40
74.851199999999992
  1
Hibino Corporation
 41
0.9
  0
ENDSEC
  0
EOF
