  0
SECTION
  2
HEADER
  9
$ACADVER
  1
AC1015
  9
$ACADMAINTVER
 70
    20
  9
$DWGCODEPAGE
  3
ANSI_932
  9
$INSBASE
 10
0.0
 20
0.0
 30
0.0
  9
$EXTMIN
 10
-720.0439419597901
 20
-1076.252604116444
 30
-0.0015258207003583
  9
$EXTMAX
 10
720.0439486653122
 20
1064.787911056068
 30
0.0000000349246037
  9
$LIMMIN
 10
0.0
 20
0.0
  9
$LIMMAX
 10
0.0
 20
0.0
  9
$ORTHOMODE
 70
     0
  9
$REGENMODE
 70
     1
  9
$FILLMODE
 70
     1
  9
$QTEXTMODE
 70
     0
  9
$MIRRTEXT
 70
     1
  9
$LTSCALE
 40
40.64
  9
$ATTMODE
 70
     1
  9
$TEXTSIZE
 40
0.0
  9
$TRACEWID
 40
1.0
  9
$TEXTSTYLE
  7
STANDARD
  9
$CLAYER
  8
DATA
  9
$CELTYPE
  6
ByLayer
  9
$CECOLOR
 62
   256
  9
$CELTSCALE
 40
1.0
  9
$DISPSILH
 70
     0
  9
$DIMSCALE
 40
1.0
  9
$DIMASZ
 40
0.18
  9
$DIMEXO
 40
0.0625
  9
$DIMDLI
 40
0.38
  9
$DIMRND
 40
0.0
  9
$DIMDLE
 40
0.0
  9
$DIMEXE
 40
0.18
  9
$DIMTP
 40
0.0
  9
$DIMTM
 40
0.0
  9
$DIMTXT
 40
0.18
  9
$DIMCEN
 40
0.09
  9
$DIMTSZ
 40
0.0
  9
$DIMTOL
 70
     0
  9
$DIMLIM
 70
     0
  9
$DIMTIH
 70
     1
  9
$DIMTOH
 70
     1
  9
$DIMSE1
 70
     0
  9
$DIMSE2
 70
     0
  9
$DIMTAD
 70
     0
  9
$DIMZIN
 70
     0
  9
$DIMBLK
  1

  9
$DIMASO
 70
     1
  9
$DIMSHO
 70
     1
  9
$DIMPOST
  1

  9
$DIMAPOST
  1

  9
$DIMALT
 70
     0
  9
$DIMALTD
 70
     2
  9
$DIMALTF
 40
25.4
  9
$DIMLFAC
 40
1.0
  9
$DIMTOFL
 70
     0
  9
$DIMTVP
 40
0.0
  9
$DIMTIX
 70
     0
  9
$DIMSOXD
 70
     0
  9
$DIMSAH
 70
     0
  9
$DIMBLK1
  1

  9
$DIMBLK2
  1

  9
$DIMSTYLE
  2
STANDARD
  9
$DIMCLRD
 70
     0
  9
$DIMCLRE
 70
     0
  9
$DIMCLRT
 70
     0
  9
$DIMTFAC
 40
1.0
  9
$DIMGAP
 40
0.09
  9
$DIMJUST
 70
     0
  9
$DIMSD1
 70
     0
  9
$DIMSD2
 70
     0
  9
$DIMTOLJ
 70
     1
  9
$DIMTZIN
 70
     0
  9
$DIMALTZ
 70
     0
  9
$DIMALTTZ
 70
     0
  9
$DIMUPT
 70
     0
  9
$DIMDEC
 70
     4
  9
$DIMTDEC
 70
     4
  9
$DIMALTU
 70
     2
  9
$DIMALTTD
 70
     2
  9
$DIMTXSTY
  7
STANDARD
  9
$DIMAUNIT
 70
     0
  9
$DIMADEC
 70
     0
  9
$DIMALTRND
 40
0.0
  9
$DIMAZIN
 70
     0
  9
$DIMDSEP
 70
    46
  9
$DIMATFIT
 70
     3
  9
$DIMFRAC
 70
     0
  9
$DIMLDRBLK
  1

  9
$DIMLUNIT
 70
     2
  9
$DIMLWD
 70
    -2
  9
$DIMLWE
 70
    -2
  9
$DIMTMOVE
 70
     0
  9
$LUNITS
 70
     2
  9
$LUPREC
 70
     2
  9
$SKETCHINC
 40
0.1
  9
$FILLETRAD
 40
0.0
  9
$AUNITS
 70
     0
  9
$AUPREC
 70
     0
  9
$MENU
  1
acad
  9
$ELEVATION
 40
0.0
  9
$PELEVATION
 40
0.0
  9
$THICKNESS
 40
0.0
  9
$LIMCHECK
 70
     0
  9
$CHAMFERA
 40
0.0
  9
$CHAMFERB
 40
0.0
  9
$CHAMFERC
 40
0.0
  9
$CHAMFERD
 40
0.0
  9
$SKPOLY
 70
     0
  9
$TDCREATE
 40
2458633.748449074
  9
$TDUCREATE
 40
2458633.373449074
  9
$TDUPDATE
 40
2458633.752002315
  9
$TDUUPDATE
 40
2458633.377002315
  9
$TDINDWG
 40
0.0019791667
  9
$TDUSRTIMER
 40
0.0019791667
  9
$USRTIMER
 70
     1
  9
$ANGBASE
 50
0.0
  9
$ANGDIR
 70
     0
  9
$PDMODE
 70
     1
  9
$PDSIZE
 40
-2.0
  9
$PLINEWID
 40
0.0
  9
$SPLFRAME
 70
     0
  9
$SPLINETYPE
 70
     6
  9
$SPLINESEGS
 70
     8
  9
$HANDSEED
  5
52F
  9
$SURFTAB1
 70
     6
  9
$SURFTAB2
 70
     6
  9
$SURFTYPE
 70
     6
  9
$SURFU
 70
     6
  9
$SURFV
 70
     6
  9
$UCSBASE
  2

  9
$UCSNAME
  2

  9
$UCSORG
 10
0.0
 20
0.0
 30
0.0
  9
$UCSXDIR
 10
1.0
 20
0.0
 30
0.0
  9
$UCSYDIR
 10
0.0
 20
1.0
 30
0.0
  9
$UCSORTHOREF
  2

  9
$UCSORTHOVIEW
 70
     0
  9
$UCSORGTOP
 10
0.0
 20
0.0
 30
0.0
  9
$UCSORGBOTTOM
 10
0.0
 20
0.0
 30
0.0
  9
$UCSORGLEFT
 10
0.0
 20
0.0
 30
0.0
  9
$UCSORGRIGHT
 10
0.0
 20
0.0
 30
0.0
  9
$UCSORGFRONT
 10
0.0
 20
0.0
 30
0.0
  9
$UCSORGBACK
 10
0.0
 20
0.0
 30
0.0
  9
$PUCSBASE
  2

  9
$PUCSNAME
  2

  9
$PUCSORG
 10
0.0
 20
0.0
 30
0.0
  9
$PUCSXDIR
 10
1.0
 20
0.0
 30
0.0
  9
$PUCSYDIR
 10
0.0
 20
1.0
 30
0.0
  9
$PUCSORTHOREF
  2

  9
$PUCSORTHOVIEW
 70
     0
  9
$PUCSORGTOP
 10
0.0
 20
0.0
 30
0.0
  9
$PUCSORGBOTTOM
 10
0.0
 20
0.0
 30
0.0
  9
$PUCSORGLEFT
 10
0.0
 20
0.0
 30
0.0
  9
$PUCSORGRIGHT
 10
0.0
 20
0.0
 30
0.0
  9
$PUCSORGFRONT
 10
0.0
 20
0.0
 30
0.0
  9
$PUCSORGBACK
 10
0.0
 20
0.0
 30
0.0
  9
$USERI1
 70
     0
  9
$USERI2
 70
     0
  9
$USERI3
 70
     0
  9
$USERI4
 70
     0
  9
$USERI5
 70
     0
  9
$USERR1
 40
0.0
  9
$USERR2
 40
0.0
  9
$USERR3
 40
0.0
  9
$USERR4
 40
0.0
  9
$USERR5
 40
0.0
  9
$WORLDVIEW
 70
     1
  9
$SHADEDGE
 70
     3
  9
$SHADEDIF
 70
    70
  9
$TILEMODE
 70
     1
  9
$MAXACTVP
 70
    64
  9
$PINSBASE
 10
0.0
 20
0.0
 30
0.0
  9
$PLIMCHECK
 70
     0
  9
$PEXTMIN
 10
1.000000000000000E+20
 20
1.000000000000000E+20
 30
1.000000000000000E+20
  9
$PEXTMAX
 10
-1.000000000000000E+20
 20
-1.000000000000000E+20
 30
-1.000000000000000E+20
  9
$PLIMMIN
 10
0.0
 20
0.0
  9
$PLIMMAX
 10
12.0
 20
9.0
  9
$UNITMODE
 70
     0
  9
$VISRETAIN
 70
     0
  9
$PLINEGEN
 70
     1
  9
$PSLTSCALE
 70
     0
  9
$TREEDEPTH
 70
  3020
  9
$CMLSTYLE
  2
Standard
  9
$CMLJUST
 70
     0
  9
$CMLSCALE
 40
1.0
  9
$PROXYGRAPHICS
 70
     1
  9
$MEASUREMENT
 70
     0
  9
$CELWEIGHT
370
    -1
  9
$ENDCAPS
280
     0
  9
$JOINSTYLE
280
     0
  9
$LWDISPLAY
290
     0
  9
$INSUNITS
 70
     4
  9
$HYPERLINKBASE
  1

  9
$STYLESHEET
  1

  9
$XEDIT
290
     1
  9
$CEPSNTYPE
380
     0
  9
$PSTYLEMODE
290
     1
  9
$FINGERPRINTGUID
  2
{2C03EA3F-0B93-0440-8A00-C9409C14FBAE}
  9
$VERSIONGUID
  2
{88D78B2E-6355-7D47-AE70-89B4E4DB6D6E}
  9
$EXTNAMES
290
     1
  9
$PSVPSCALE
 40
0.0
  9
$OLESTARTUP
290
     0
  0
ENDSEC
  0
SECTION
  2
CLASSES
  0
CLASS
  1
ACDBDICTIONARYWDFLT
  2
AcDbDictionaryWithDefault
  3
ObjectDBX Classes
 90
        0
280
     0
281
     0
  0
CLASS
  1
MATERIAL
  2
AcDbMaterial
  3
ObjectDBX Classes
 90
     1153
280
     0
281
     0
  0
CLASS
  1
VISUALSTYLE
  2
AcDbVisualStyle
  3
ObjectDBX Classes
 90
     4095
280
     0
281
     0
  0
CLASS
  1
SCALE
  2
AcDbScale
  3
ObjectDBX Classes
 90
     1153
280
     0
281
     0
  0
CLASS
  1
TABLESTYLE
  2
AcDbTableStyle
  3
ObjectDBX Classes
 90
     4095
280
     0
281
     0
  0
CLASS
  1
MLEADERSTYLE
  2
AcDbMLeaderStyle
  3
ACDB_MLEADERSTYLE_CLASS
 90
     4095
280
     0
281
     0
  0
CLASS
  1
ACDBSECTIONVIEWSTYLE
  2
AcDbSectionViewStyle
  3
ObjectDBX Classes
 90
     1025
280
     0
281
     0
  0
CLASS
  1
ACDBDETAILVIEWSTYLE
  2
AcDbDetailViewStyle
  3
ObjectDBX Classes
 90
     1025
280
     0
281
     0
  0
CLASS
  1
DICTIONARYVAR
  2
AcDbDictionaryVar
  3
ObjectDBX Classes
 90
        0
280
     0
281
     0
  0
CLASS
  1
CELLSTYLEMAP
  2
AcDbCellStyleMap
  3
ObjectDBX Classes
 90
     1152
280
     0
281
     0
  0
CLASS
  1
ACDBPLACEHOLDER
  2
AcDbPlaceHolder
  3
ObjectDBX Classes
 90
        0
280
     0
281
     0
  0
CLASS
  1
LAYOUT
  2
AcDbLayout
  3
ObjectDBX Classes
 90
        0
280
     0
281
     0
  0
ENDSEC
  0
SECTION
  2
TABLES
  0
TABLE
  2
VPORT
  5
459
330
0
100
AcDbSymbolTable
 70
     1
  0
VPORT
  5
4C5
330
459
100
AcDbSymbolTableRecord
100
AcDbViewportTableRecord
  2
*ACTIVE
 70
     0
 10
0.0
 20
0.0
 11
1.0
 21
1.0
 12
0.0000033527605865
 22
-5.732346530187896
 13
0.0
 23
0.0
 14
1.0
 24
1.0
 15
0.0
 25
0.0
 16
0.0
 26
0.0
 36
1.0
 17
0.0
 27
0.0
 37
0.0
 40
2153.080105698318
 41
2.382739212007504
 42
50.0
 43
0.0
 44
0.0
 50
0.0
 51
0.0
 71
     0
 72
  2000
 73
     1
 74
     1
 75
     0
 76
     0
 77
     0
 78
     0
281
     0
 65
     1
110
0.0
120
0.0
130
0.0
111
1.0
121
0.0
131
0.0
112
0.0
122
1.0
132
0.0
 79
     0
146
0.0
1001
ACAD_NAV_VCDISPLAY
1070
     3
  0
ENDTAB
  0
TABLE
  2
LTYPE
  5
456
330
0
100
AcDbSymbolTable
 70
    11
  0
LTYPE
  5
4AB
330
456
100
AcDbSymbolTableRecord
100
AcDbLinetypeTableRecord
  2
ByBlock
 70
     0
  3

 72
    65
 73
     0
 40
0.0
  0
LTYPE
  5
4AC
330
456
100
AcDbSymbolTableRecord
100
AcDbLinetypeTableRecord
  2
ByLayer
 70
     0
  3

 72
    65
 73
     0
 40
0.0
  0
LTYPE
  5
4AD
330
456
100
AcDbSymbolTableRecord
100
AcDbLinetypeTableRecord
  2
CONTINUOUS
 70
     0
  3
Solid line
 72
    65
 73
     0
 40
0.0
  0
ENDTAB
  0
TABLE
  2
LAYER
  5
453
330
0
100
AcDbSymbolTable
 70
     5
  0
LAYER
  5
4A5
102
{ACAD_XDICTIONARY
360
4D9
102
}
330
453
100
AcDbSymbolTableRecord
100
AcDbLayerTableRecord
  2
0
 70
     0
 62
     7
  6
CONTINUOUS
370
    -3
390
460
  0
LAYER
  5
4C4
102
{ACAD_XDICTIONARY
360
4DB
102
}
330
453
100
AcDbSymbolTableRecord
100
AcDbLayerTableRecord
  2
DATA
 70
     0
 62
     7
  6
CONTINUOUS
370
    -3
390
460
  0
LAYER
  5
4D0
102
{ACAD_XDICTIONARY
360
4DD
102
}
330
453
100
AcDbSymbolTableRecord
100
AcDbLayerTableRecord
  2
HIBINO-BASE
 70
     0
 62
     7
  6
CONTINUOUS
370
    -3
390
460
  0
LAYER
  5
4D1
102
{ACAD_XDICTIONARY
360
4DF
102
}
330
453
100
AcDbSymbolTableRecord
100
AcDbLayerTableRecord
  2
SPEC
 70
     0
 62
     7
  6
CONTINUOUS
370
    -3
390
460
  0
LAYER
  5
4D2
102
{ACAD_XDICTIONARY
360
4E1
102
}
330
453
100
AcDbSymbolTableRecord
100
AcDbLayerTableRecord
  2
DIMNSIONS
 70
     0
 62
     7
  6
CONTINUOUS
370
    -3
390
460
  0
ENDTAB
  0
TABLE
  2
STYLE
  5
454
330
0
100
AcDbSymbolTable
 70
     3
  0
STYLE
  5
4A6
330
454
100
AcDbSymbolTableRecord
100
AcDbTextStyleTableRecord
  2
STANDARD
 70
     0
 40
0.0
 41
1.0
 50
0.0
 71
     0
 42
0.0
  3
txt
  4
BIGFONT.SHX
  0
ENDTAB
  0
TABLE
  2
VIEW
  5
457
330
0
100
AcDbSymbolTable
 70
     0
  0
ENDTAB
  0
TABLE
  2
UCS
  5
458
330
0
100
AcDbSymbolTable
 70
     0
  0
ENDTAB
  0
TABLE
  2
APPID
  5
45A
330
0
100
AcDbSymbolTable
 70
     4
  0
APPID
  5
4A7
330
45A
100
AcDbSymbolTableRecord
100
AcDbRegAppTableRecord
  2
ACAD
 70
     0
  0
APPID
  5
4AE
330
45A
100
AcDbSymbolTableRecord
100
AcDbRegAppTableRecord
  2
AcadAnnotative
 70
     0
  0
APPID
  5
4ED
330
45A
100
AcDbSymbolTableRecord
100
AcDbRegAppTableRecord
  2
ACAD_NAV_VCDISPLAY
 70
     0
  0
APPID
  5
526
330
45A
100
AcDbSymbolTableRecord
100
AcDbRegAppTableRecord
  2
ACAD_MLEADERVER
 70
     0
  0
ENDTAB
  0
TABLE
  2
DIMSTYLE
  5
45B
330
0
100
AcDbSymbolTable
 70
     2
100
AcDbDimStyleTable
 71
     0
  0
DIMSTYLE
105
4A8
330
45B
100
AcDbSymbolTableRecord
100
AcDbDimStyleTableRecord
  2
STANDARD
 70
     0
279
     2
340
4A6
  0
ENDTAB
  0
TABLE
  2
BLOCK_RECORD
  5
452
330
0
100
AcDbSymbolTable
 70
     0
  0
BLOCK_RECORD
  5
4C0
330
452
100
AcDbSymbolTableRecord
100
AcDbBlockTableRecord
  2
*Model_Space
340
4C3
  0
BLOCK_RECORD
  5
4BC
330
452
100
AcDbSymbolTableRecord
100
AcDbBlockTableRecord
  2
*Paper_Space
340
4BF
  0
ENDTAB
  0
ENDSEC
  0
SECTION
  2
BLOCKS
  0
BLOCK
  5
4C1
330
4C0
100
AcDbEntity
  8
0
100
AcDbBlockBegin
  2
*Model_Space
 70
     0
 10
0.0
 20
0.0
 30
0.0
  3
*Model_Space
  1

  0
ENDBLK
  5
4C2
330
4C0
100
AcDbEntity
  8
0
100
AcDbBlockEnd
  0
BLOCK
  5
4BD
330
4BC
100
AcDbEntity
 67
     1
  8
0
100
AcDbBlockBegin
  2
*Paper_Space
 70
     0
 10
0.0
 20
0.0
 30
0.0
  3
*Paper_Space
  1

  0
ENDBLK
  5
4BE
330
4BC
100
AcDbEntity
 67
     1
  8
0
100
AcDbBlockEnd
  0
ENDSEC
  0
SECTION
  2
ENTITIES
  0
LINE
  5
2C
330
4C0
100
AcDbEntity
  8
HIBINO-BASE
  6
Continuous
 62
     7
100
AcDbLine
 10
-720.0
 20
1064.722705
 30
0.0
 11
720.0
 21
1064.722705
 31
0.0
  0
LINE
  5
2D
330
4C0
100
AcDbEntity
  8
HIBINO-BASE
  6
Continuous
 62
     7
100
AcDbLine
 10
720.0
 20
-1015.277294999999
 30
0.0
 11
-720.0
 21
-1015.277294999999
 31
0.0
  0
LINE
  5
2E
330
4C0
100
AcDbEntity
  8
HIBINO-BASE
  6
Continuous
 62
     7
100
AcDbLine
 10
-720.0
 20
-1015.277294999999
 30
0.0
 11
-720.0
 21
1064.722705
 31
0.0
  0
LINE
  5
2F
330
4C0
100
AcDbEntity
  8
HIBINO-BASE
  6
Continuous
 62
     7
100
AcDbLine
 10
720.0
 20
1064.722705
 30
0.0
 11
720.0
 21
-1015.277294999999
 31
0.0
  0
LINE
  5
30
330
4C0
100
AcDbEntity
  8
HIBINO-BASE
  6
Continuous
 62
     7
100
AcDbLine
 10
0.0000000000001137
 20
-835.2772949999996
 30
0.0
 11
720.0
 21
-835.2772949999996
 31
0.0
  0
LINE
  5
31
330
4C0
100
AcDbEntity
  8
HIBINO-BASE
  6
Continuous
 62
     7
100
AcDbLine
 10
0.0000000000001137
 20
-1015.277294999999
 30
0.0
 11
0.0000000000001137
 21
-835.2772949999996
 31
0.0
  0
TEXT
  5
32
330
4C0
100
AcDbEntity
  8
HIBINO-BASE
 62
     7
100
AcDbText
 10
7.200000000000158
 20
-855.3468416666664
 30
0.0
 40
13.03072916666667
  1
NOTE
 41
0.7
 11
7.200000000000159
 21
-842.3161124999996
 31
0.0
100
AcDbText
 73
     3
  0
LINE
  5
33
330
4C0
100
AcDbEntity
  8
HIBINO-BASE
  6
Continuous
 62
     7
100
AcDbLine
 10
280.0000000000001
 20
-1015.277294999999
 30
0.0
 11
280.0000000000001
 21
-835.2772949999996
 31
0.0
  0
TEXT
  5
34
330
4C0
100
AcDbEntity
  8
HIBINO-BASE
 62
     7
100
AcDbText
 10
287.1999999999999
 20
-855.3468416666664
 30
0.0
 40
13.03072916666667
  1
TITLE
 41
0.7
 11
287.1999999999999
 21
-842.3161124999996
 31
0.0
100
AcDbText
 73
     3
  0
LINE
  5
35
330
4C0
100
AcDbEntity
  8
HIBINO-BASE
  6
Continuous
 62
     7
100
AcDbLine
 10
0.0000000000001137
 20
-935.2772949999996
 30
0.0
 11
720.0
 21
-935.2772949999996
 31
0.0
  0
TEXT
  5
36
330
4C0
100
AcDbEntity
  8
HIBINO-BASE
 62
     7
100
AcDbText
 10
387.1999999999999
 20
-954.8962816666668
 30
0.0
 40
13.03072916666667
  1
DRAWN
 41
0.7
 11
387.1999999999999
 21
-941.8655525
 31
0.0
100
AcDbText
 73
     3
  0
TEXT
  5
37
330
4C0
100
AcDbEntity
  8
HIBINO-BASE
 62
     7
100
AcDbText
 10
187.1999999999999
 20
-954.8962816666668
 30
0.0
 40
13.03072916666667
  1
DATE
 41
0.7
 11
187.1999999999999
 21
-941.8655525
 31
0.0
100
AcDbText
 73
     3
  0
TEXT
  5
38
330
4C0
100
AcDbEntity
  8
HIBINO-BASE
 62
     7
100
AcDbText
 10
107.1999999999999
 20
-954.8962816666668
 30
0.0
 40
13.03072916666667
  1
SCALE
 41
0.7
 11
107.1999999999999
 21
-941.8655525
 31
0.0
100
AcDbText
 73
     3
  0
TEXT
  5
39
330
4C0
100
AcDbEntity
  8
HIBINO-BASE
 62
     7
100
AcDbText
 10
287.1999999999999
 20
-954.8962816666668
 30
0.0
 40
13.03072916666667
  1
DESIGN
 41
0.7
 11
287.1999999999999
 21
-941.8655525
 31
0.0
100
AcDbText
 73
     3
  0
TEXT
  5
3A
330
4C0
100
AcDbEntity
  8
HIBINO-BASE
 62
     7
100
AcDbText
 10
587.1999999999998
 20
-954.8962816666668
 30
0.0
 40
13.03072916666667
  1
DRAWING NO.
 41
0.7
 11
587.1999999999998
 21
-941.8655525
 31
0.0
100
AcDbText
 73
     3
  0
TEXT
  5
3B
330
4C0
100
AcDbEntity
  8
HIBINO-BASE
 62
     7
100
AcDbText
 10
487.1999999999998
 20
-954.8962816666668
 30
0.0
 40
13.03072916666667
  1
CHECK
 41
0.7
 11
487.1999999999998
 21
-941.8655525
 31
0.0
100
AcDbText
 73
     3
  0
LINE
  5
3C
330
4C0
100
AcDbEntity
  8
HIBINO-BASE
  6
Continuous
 62
     7
100
AcDbLine
 10
115.0000000000001
 20
-1005.277294999999
 30
0.0
 11
145.0000000000001
 21
-975.2772949999997
 31
0.0
  0
TEXT
  5
3D
330
4C0
100
AcDbEntity
  8
HIBINO-BASE
 62
     7
100
AcDbText
 10
110.0000000000001
 20
-984.1488416666663
 30
0.0
 40
13.03072916666667
  1
1
 41
0.7
 11
110.0000000000001
 21
-971.1181124999997
 31
0.0
100
AcDbText
 73
     3
  0
LINE
  5
3E
330
4C0
100
AcDbEntity
  8
HIBINO-BASE
  6
Continuous
 62
     7
100
AcDbLine
 10
100.0000000000001
 20
-1015.277294999999
 30
0.0
 11
100.0000000000001
 21
-935.2772949999996
 31
0.0
  0
LINE
  5
3F
330
4C0
100
AcDbEntity
  8
HIBINO-BASE
  6
Continuous
 62
     7
100
AcDbLine
 10
179.9999999999999
 20
-1015.277294999999
 30
0.0
 11
179.9999999999999
 21
-935.2772949999996
 31
0.0
  0
LINE
  5
40
330
4C0
100
AcDbEntity
  8
HIBINO-BASE
  6
Continuous
 62
     7
100
AcDbLine
 10
380.0
 20
-935.2772949999996
 30
0.0
 11
380.0
 21
-1015.277294999999
 31
0.0
  0
LINE
  5
41
330
4C0
100
AcDbEntity
  8
HIBINO-BASE
  6
Continuous
 62
     7
100
AcDbLine
 10
580.0000000000001
 20
-935.2772949999996
 30
0.0
 11
580.0000000000001
 21
-1015.277294999999
 31
0.0
  0
LINE
  5
42
330
4C0
100
AcDbEntity
  8
HIBINO-BASE
  6
Continuous
 62
     7
100
AcDbLine
 10
480.0
 20
-1015.277294999999
 30
0.0
 11
480.0
 21
-935.2772949999996
 31
0.0
  0
TEXT
  5
43
330
4C0
100
AcDbEntity
  8
HIBINO-BASE
 62
     7
100
AcDbText
 10
186.85232
 20
-992.3681216666663
 30
0.0
 40
13.03072916666667
  1
'19.06.
 41
0.7
 11
186.85232
 21
-979.3373924999997
 31
0.0
100
AcDbText
 73
     3
  0
TEXT
  5
44
330
4C0
100
AcDbEntity
  8
HIBINO-BASE
 62
     7
100
AcDbText
 10
140.0000000000001
 20
-999.1488416666664
 30
0.0
 40
13.03072916666667
  1
8
 41
0.7
 11
140.0000000000001
 21
-986.1181124999998
 31
0.0
100
AcDbText
 73
     3
  0
TEXT
  5
45
330
4C0
100
AcDbEntity
  8
HIBINO-BASE
 62
     7
100
AcDbText
 10
392.0464800882769
 20
-992.3681216666663
 30
0.0
 40
13.03072916666667
  1
N.Sasaki
 41
0.7
 11
392.0464800882769
 21
-979.3373924999997
 31
0.0
100
AcDbText
 73
     3
  0
TEXT
  5
46
330
4C0
100
AcDbEntity
  8
HIBINO-BASE
 62
     7
100
AcDbText
 10
31.06666666666695
 20
-999.4692949999997
 30
0.0
 40
26.06145833333333
  1
A4
 41
0.7
 11
31.06666666666695
 21
-973.4078366666663
 31
0.0
100
AcDbText
 73
     3
  0
TEXT
  5
47
330
4C0
100
AcDbEntity
  8
HIBINO-BASE
 62
     7
100
AcDbText
 10
7.666666666666626
 20
-956.232935
 30
0.0
 40
13.03072916666667
  1
PAPER SIZE
 41
0.7
 11
7.666666666666626
 21
-943.2022058333332
 31
0.0
100
AcDbText
 73
     3
  0
TEXT
  5
48
330
4C0
100
AcDbEntity
  8
HIBINO-BASE
 62
     7
100
AcDbText
 10
-662.5279999999998
 20
-1066.5467174
 30
0.0
 40
28.8003534375
  1
Hibino Corporation
 41
0.7
 11
-662.5279999999998
 21
-1037.7463639625
 31
0.0
100
AcDbText
 73
     3
  0
TEXT
  5
49
330
4C0
100
AcDbEntity
  8
HIBINO-BASE
 62
     7
100
AcDbText
 10
400.54712
 20
-1066.5467174
 30
0.0
 40
28.8003534375
  1
ヒビノ株式会社
 41
0.7
 11
400.54712
 21
-1037.7463639625
 31
0.0
100
AcDbText
 73
     3
  0
LINE
  5
4A
330
4C0
100
AcDbEntity
  8
SPEC
  6
Continuous
 62
     7
100
AcDbLine
 10
-660.0
 20
984.7227050000004
 30
0.0
 11
520.0000000000001
 21
984.7227050000004
 31
0.0
  0
LINE
  5
4B
330
4C0
100
AcDbEntity
  8
SPEC
  6
Continuous
 62
     7
100
AcDbLine
 10
-660.0
 20
954.722705
 30
0.0
 11
520.0000000000001
 21
954.722705
 31
0.0
  0
LINE
  5
4C
330
4C0
100
AcDbEntity
  8
SPEC
  6
Continuous
 62
     7
100
AcDbLine
 10
-660.0
 20
984.7227050000004
 30
0.0
 11
-660.0
 21
354.7227050000001
 31
0.0
  0
TEXT
  5
4D
330
4C0
100
AcDbEntity
  8
SPEC
 62
     7
100
AcDbText
 10
-650.0
 20
995.8688650000004
 30
0.0
 40
19.54609375
  1
仕様
 41
0.7
 11
-650.0
 21
1015.41495875
 31
0.0
100
AcDbText
 73
     3
  0
LINE
  5
4E
330
4C0
100
AcDbEntity
  8
SPEC
  6
Continuous
 62
     7
100
AcDbLine
 10
-312.5
 20
984.7227050000004
 30
0.0
 11
-312.5
 21
354.7227050000001
 31
0.0
  0
LINE
  5
4F
330
4C0
100
AcDbEntity
  8
SPEC
  6
Continuous
 62
     7
100
AcDbLine
 10
520.0000000000001
 20
984.7227050000004
 30
0.0
 11
520.0000000000001
 21
354.7227050000001
 31
0.0
  0
TEXT
  5
50
330
4C0
100
AcDbEntity
  8
SPEC
 62
     7
100
AcDbText
 10
-652.8000000000002
 20
481.0260472222224
 30
0.0
 40
15.20251736111111
  1
寸法(W×H×D)
 41
0.7
 11
-652.8000000000002
 21
496.2285645833335
 31
0.0
100
AcDbText
 73
     3
  0
TEXT
  5
51
330
4C0
100
AcDbEntity
  8
SPEC
 62
     7
100
AcDbText
 10
-652.8000000000002
 20
451.0260472222224
 30
0.0
 40
15.20251736111111
  1
質量
 41
0.7
 11
-652.8000000000002
 21
466.2285645833335
 31
0.0
100
AcDbText
 73
     3
  0
TEXT
  5
52
330
4C0
100
AcDbEntity
  8
SPEC
 62
     7
100
AcDbText
 10
-305.2999999999999
 20
481.0260472222224
 30
0.0
 40
15.20251736111111
  1
153×247×125mm(除突起部)
 41
0.7
 11
-305.2999999999999
 21
496.2285645833335
 31
0.0
100
AcDbText
 73
     3
  0
LINE
  5
53
330
4C0
100
AcDbEntity
  8
SPEC
  6
Continuous
 62
     7
100
AcDbLine
 10
-660.0
 20
924.7227050000001
 30
0.0
 11
520.0000000000001
 21
924.7227050000001
 31
0.0
  0
LINE
  5
54
330
4C0
100
AcDbEntity
  8
SPEC
  6
Continuous
 62
     7
100
AcDbLine
 10
-660.0
 20
894.7227050000002
 30
0.0
 11
520.0000000000001
 21
894.7227050000002
 31
0.0
  0
LINE
  5
55
330
4C0
100
AcDbEntity
  8
SPEC
  6
Continuous
 62
     7
100
AcDbLine
 10
-500.0
 20
864.7227050000001
 30
0.0
 11
520.0000000000001
 21
864.7227050000001
 31
0.0
  0
LINE
  5
56
330
4C0
100
AcDbEntity
  8
SPEC
  6
Continuous
 62
     7
100
AcDbLine
 10
-660.0
 20
834.722705
 30
0.0
 11
520.0000000000001
 21
834.722705
 31
0.0
  0
LINE
  5
57
330
4C0
100
AcDbEntity
  8
SPEC
  6
Continuous
 62
     7
100
AcDbLine
 10
-660.0
 20
804.7227050000001
 30
0.0
 11
520.0000000000001
 21
804.7227050000001
 31
0.0
  0
LINE
  5
58
330
4C0
100
AcDbEntity
  8
SPEC
  6
Continuous
 62
     7
100
AcDbLine
 10
-660.0
 20
774.7227050000001
 30
0.0
 11
520.0000000000001
 21
774.7227050000001
 31
0.0
  0
LINE
  5
59
330
4C0
100
AcDbEntity
  8
SPEC
  6
Continuous
 62
     7
100
AcDbLine
 10
-312.5
 20
744.7227050000001
 30
0.0
 11
520.0000000000001
 21
744.7227050000001
 31
0.0
  0
LINE
  5
5A
330
4C0
100
AcDbEntity
  8
SPEC
  6
Continuous
 62
     7
100
AcDbLine
 10
-312.5
 20
714.7227050000001
 30
0.0
 11
520.0000000000001
 21
714.7227050000001
 31
0.0
  0
LINE
  5
5B
330
4C0
100
AcDbEntity
  8
SPEC
  6
Continuous
 62
     7
100
AcDbLine
 10
-500.0
 20
684.7227050000001
 30
0.0
 11
520.0000000000001
 21
684.7227050000001
 31
0.0
  0
LINE
  5
5C
330
4C0
100
AcDbEntity
  8
SPEC
  6
Continuous
 62
     7
100
AcDbLine
 10
-312.5
 20
654.7227050000001
 30
0.0
 11
520.0000000000001
 21
654.7227050000001
 31
0.0
  0
LINE
  5
5D
330
4C0
100
AcDbEntity
  8
SPEC
  6
Continuous
 62
     7
100
AcDbLine
 10
-312.5
 20
624.7227050000001
 30
0.0
 11
520.0000000000001
 21
624.7227050000001
 31
0.0
  0
LINE
  5
5E
330
4C0
100
AcDbEntity
  8
SPEC
  6
Continuous
 62
     7
100
AcDbLine
 10
-660.0
 20
594.7227050000001
 30
0.0
 11
520.0000000000001
 21
594.7227050000001
 31
0.0
  0
LINE
  5
5F
330
4C0
100
AcDbEntity
  8
SPEC
  6
Continuous
 62
     7
100
AcDbLine
 10
-660.0
 20
564.7227050000001
 30
0.0
 11
520.0000000000001
 21
564.7227050000001
 31
0.0
  0
LINE
  5
60
330
4C0
100
AcDbEntity
  8
SPEC
  6
Continuous
 62
     7
100
AcDbLine
 10
-660.0
 20
534.7227050000001
 30
0.0
 11
520.0000000000001
 21
534.7227050000001
 31
0.0
  0
LINE
  5
61
330
4C0
100
AcDbEntity
  8
SPEC
  6
Continuous
 62
     7
100
AcDbLine
 10
-660.0
 20
504.722705
 30
0.0
 11
520.0000000000001
 21
504.722705
 31
0.0
  0
LINE
  5
62
330
4C0
100
AcDbEntity
  8
SPEC
  6
Continuous
 62
     7
100
AcDbLine
 10
-660.0
 20
474.7227050000001
 30
0.0
 11
520.0000000000001
 21
474.7227050000001
 31
0.0
  0
LINE
  5
63
330
4C0
100
AcDbEntity
  8
SPEC
  6
Continuous
 62
     7
100
AcDbLine
 10
-660.0
 20
414.722705
 30
0.0
 11
520.0000000000001
 21
414.722705
 31
0.0
  0
TEXT
  5
64
330
4C0
100
AcDbEntity
  8
SPEC
 62
     7
100
AcDbText
 10
-652.8000000000002
 20
391.0260472222225
 30
0.0
 40
15.20251736111111
  1
付属品
 41
0.7
 11
-652.8000000000002
 21
406.2285645833336
 31
0.0
100
AcDbText
 73
     3
  0
TEXT
  5
65
330
4C0
100
AcDbEntity
  8
SPEC
 62
     7
100
AcDbText
 10
-652.8000000000002
 20
961.026047222222
 30
0.0
 40
15.20251736111111
  1
周波数レンジ(-10dB)
 41
0.7
 11
-652.8000000000002
 21
976.228564583333
 31
0.0
100
AcDbText
 73
     3
  0
TEXT
  5
66
330
4C0
100
AcDbEntity
  8
SPEC
 62
     7
100
AcDbText
 10
-652.8000000000002
 20
931.0260472222219
 30
0.0
 40
15.20251736111111
  1
指向角度(水平×垂直)
 41
0.7
 11
-652.8000000000002
 21
946.2285645833331
 31
0.0
100
AcDbText
 73
     3
  0
TEXT
  5
67
330
4C0
100
AcDbEntity
  8
SPEC
 62
     7
100
AcDbText
 10
-652.8000000000002
 20
901.0260472222221
 30
0.0
 40
15.20251736111111
  1
最大音圧レベル(C ウェイト)
 41
0.7
 11
-652.8000000000002
 21
916.228564583333
 31
0.0
100
AcDbText
 73
     3
  0
TEXT
  5
68
330
4C0
100
AcDbEntity
  8
SPEC
 62
     7
100
AcDbText
 10
-652.8000000000002
 20
871.0260472222222
 30
0.0
 40
15.20251736111111
  1
ドライバー構成
 41
0.7
 11
-652.8000000000002
 21
886.2285645833333
 31
0.0
100
AcDbText
 73
     3
  0
TEXT
  5
69
330
4C0
100
AcDbEntity
  8
SPEC
 62
     7
100
AcDbText
 10
-652.8000000000002
 20
811.0260472222222
 30
0.0
 40
15.20251736111111
  1
クロスオーバー周波数
 41
0.7
 11
-652.8000000000002
 21
826.2285645833333
 31
0.0
100
AcDbText
 73
     3
  0
TEXT
  5
6A
330
4C0
100
AcDbEntity
  8
SPEC
 62
     7
100
AcDbText
 10
-652.8000000000002
 20
781.0260472222222
 30
0.0
 40
15.20251736111111
  1
パワーアンプ※
 41
0.7
 11
-652.8000000000002
 21
796.2285645833333
 31
0.0
100
AcDbText
 73
     3
  0
TEXT
  5
6B
330
4C0
100
AcDbEntity
  8
SPEC
 62
     7
100
AcDbText
 10
-652.8000000000002
 20
751.0260472222222
 30
0.0
 40
15.20251736111111
  1
入力※
 41
0.7
 11
-652.8000000000002
 21
766.2285645833333
 31
0.0
100
AcDbText
 73
     3
  0
TEXT
  5
6C
330
4C0
100
AcDbEntity
  8
SPEC
 62
     7
100
AcDbText
 10
-652.8000000000002
 20
571.0260472222222
 30
0.0
 40
15.20251736111111
  1
スピーカー入出力端子
 41
0.7
 11
-652.8000000000002
 21
586.2285645833333
 31
0.0
100
AcDbText
 73
     3
  0
TEXT
  5
6D
330
4C0
100
AcDbEntity
  8
SPEC
 62
     7
100
AcDbText
 10
-652.8000000000002
 20
541.0260472222222
 30
0.0
 40
15.20251736111111
  1
電源※
 41
0.7
 11
-652.8000000000002
 21
556.2285645833333
 31
0.0
100
AcDbText
 73
     3
  0
TEXT
  5
6E
330
4C0
100
AcDbEntity
  8
SPEC
 62
     7
100
AcDbText
 10
-652.8000000000002
 20
511.0260472222221
 30
0.0
 40
15.20251736111111
  1
消費電力(1/8出力、ピンクノイズ)
 41
0.7
 11
-652.8000000000002
 21
526.2285645833332
 31
0.0
100
AcDbText
 73
     3
  0
TEXT
  5
6F
330
4C0
100
AcDbEntity
  8
SPEC
 62
     7
100
AcDbText
 10
-305.2999999999999
 20
451.0260472222224
 30
0.0
 40
15.20251736111111
  1
2.1kg(マスタースピーカー)
 41
0.7
 11
-305.2999999999999
 21
466.2285645833335
 31
0.0
100
AcDbText
 73
     3
  0
TEXT
  5
70
330
4C0
100
AcDbEntity
  8
SPEC
 62
     7
100
AcDbText
 10
-305.2999999999999
 20
391.0260472222225
 30
0.0
 40
15.20251736111111
  1
ステレオミニフォーン⇔RCAケーブル(約1.5m)、スピーカーケーブル(約2m)、電源コード、
 41
0.7
 11
-305.2999999999999
 21
406.2285645833336
 31
0.0
100
AcDbText
 73
     3
  0
TEXT
  5
71
330
4C0
100
AcDbEntity
  8
SPEC
 62
     7
100
AcDbText
 10
-305.2999999999999
 20
961.026047222222
 30
0.0
 40
15.20251736111111
  1
60Hz～20kHz
 41
0.7
 11
-305.2999999999999
 21
976.228564583333
 31
0.0
100
AcDbText
 73
     3
  0
TEXT
  5
72
330
4C0
100
AcDbEntity
  8
SPEC
 62
     7
100
AcDbText
 10
-305.2999999999999
 20
931.0260472222219
 30
0.0
 40
15.20251736111111
  1
120°×120°
 41
0.7
 11
-305.2999999999999
 21
946.2285645833331
 31
0.0
100
AcDbText
 73
     3
  0
TEXT
  5
73
330
4C0
100
AcDbEntity
  8
SPEC
 62
     7
100
AcDbText
 10
-305.2999999999999
 20
901.0260472222221
 30
0.0
 40
15.20251736111111
  1
104dB SPL
 41
0.7
 11
-305.2999999999999
 21
916.228564583333
 31
0.0
100
AcDbText
 73
     3
  0
TEXT
  5
74
330
4C0
100
AcDbEntity
  8
SPEC
 62
     7
100
AcDbText
 10
-305.2999999999999
 20
811.0260472222222
 30
0.0
 40
15.20251736111111
  1
1,725Hz
 41
0.7
 11
-305.2999999999999
 21
826.2285645833333
 31
0.0
100
AcDbText
 73
     3
  0
TEXT
  5
75
330
4C0
100
AcDbEntity
  8
SPEC
 62
     7
100
AcDbText
 10
-305.2999999999999
 20
781.0260472222222
 30
0.0
 40
15.20251736111111
  1
30W×2、Class D
 41
0.7
 11
-305.2999999999999
 21
796.2285645833333
 31
0.0
100
AcDbText
 73
     3
  0
TEXT
  5
76
330
4C0
100
AcDbEntity
  8
SPEC
 62
     7
100
AcDbText
 10
-492.7999999999999
 20
751.0260472222222
 30
0.0
 40
15.20251736111111
  1
端子・形式
 41
0.7
 11
-492.7999999999999
 21
766.2285645833333
 31
0.0
100
AcDbText
 73
     3
  0
TEXT
  5
77
330
4C0
100
AcDbEntity
  8
SPEC
 62
     7
100
AcDbText
 10
-305.2999999999999
 20
571.0260472222222
 30
0.0
 40
15.20251736111111
  1
バネ式
 41
0.7
 11
-305.2999999999999
 21
586.2285645833333
 31
0.0
100
AcDbText
 73
     3
  0
TEXT
  5
78
330
4C0
100
AcDbEntity
  8
SPEC
 62
     7
100
AcDbText
 10
-305.2999999999999
 20
541.0260472222222
 30
0.0
 40
15.20251736111111
  1
AC100V、50/60Hz
 41
0.7
 11
-305.2999999999999
 21
556.2285645833333
 31
0.0
100
AcDbText
 73
     3
  0
TEXT
  5
79
330
4C0
100
AcDbEntity
  8
SPEC
 62
     7
100
AcDbText
 10
-305.2999999999999
 20
511.0260472222221
 30
0.0
 40
15.20251736111111
  1
5W
 41
0.7
 11
-305.2999999999999
 21
526.2285645833332
 31
0.0
100
AcDbText
 73
     3
  0
TEXT
  5
7A
330
4C0
100
AcDbEntity
  8
SPEC
 62
     7
100
AcDbText
 10
-305.2999999999999
 20
871.0260472222222
 30
0.0
 40
15.20251736111111
  1
4.5インチ(114mm)
 41
0.7
 11
-305.2999999999999
 21
886.2285645833333
 31
0.0
100
AcDbText
 73
     3
  0
TEXT
  5
7B
330
4C0
100
AcDbEntity
  8
SPEC
 62
     7
100
AcDbText
 10
-305.2999999999999
 20
841.0260472222223
 30
0.0
 40
15.20251736111111
  1
0.75インチ(19mm)
 41
0.7
 11
-305.2999999999999
 21
856.2285645833332
 31
0.0
100
AcDbText
 73
     3
  0
LINE
  5
7C
330
4C0
100
AcDbEntity
  8
SPEC
  6
Continuous
 62
     7
100
AcDbLine
 10
-500.0
 20
894.7227050000002
 30
0.0
 11
-500.0
 21
834.722705
 31
0.0
  0
LINE
  5
7D
330
4C0
100
AcDbEntity
  8
SPEC
  6
Continuous
 62
     7
100
AcDbLine
 10
-500.0
 20
774.7227050000001
 30
0.0
 11
-500.0
 21
594.7227050000001
 31
0.0
  0
TEXT
  5
7E
330
4C0
100
AcDbEntity
  8
SPEC
 62
     7
100
AcDbText
 10
-492.7999999999999
 20
841.0260472222223
 30
0.0
 40
15.20251736111111
  1
HF
 41
0.7
 11
-492.7999999999999
 21
856.2285645833332
 31
0.0
100
AcDbText
 73
     3
  0
TEXT
  5
7F
330
4C0
100
AcDbEntity
  8
SPEC
 62
     7
100
AcDbText
 10
-492.7999999999999
 20
871.0260472222222
 30
0.0
 40
15.20251736111111
  1
LF
 41
0.7
 11
-492.7999999999999
 21
886.2285645833333
 31
0.0
100
AcDbText
 73
     3
  0
TEXT
  5
80
330
4C0
100
AcDbEntity
  8
SPEC
 62
     7
100
AcDbText
 10
-492.7999999999999
 20
661.0260472222222
 30
0.0
 40
15.20251736111111
  1
最大入力レベル
 41
0.7
 11
-492.7999999999999
 21
676.2285645833332
 31
0.0
100
AcDbText
 73
     3
  0
TEXT
  5
81
330
4C0
100
AcDbEntity
  8
SPEC
 62
     7
100
AcDbText
 10
-305.2999999999999
 20
751.0260472222222
 30
0.0
 40
15.20251736111111
  1
ステレオ標準フォーン(3P)【バランス】
 41
0.7
 11
-305.2999999999999
 21
766.2285645833333
 31
0.0
100
AcDbText
 73
     3
  0
TEXT
  5
82
330
4C0
100
AcDbEntity
  8
SPEC
 62
     7
100
AcDbText
 10
-305.2999999999999
 20
661.0260472222222
 30
0.0
 40
15.20251736111111
  1
ステレオ標準フォーン:+20.3dBu(+4dBu)
 41
0.7
 11
-305.2999999999999
 21
676.2285645833332
 31
0.0
100
AcDbText
 73
     3
  0
TEXT
  5
83
330
4C0
100
AcDbEntity
  8
SPEC
 62
     7
100
AcDbText
 10
-305.2999999999999
 20
721.0260472222222
 30
0.0
 40
15.20251736111111
  1
ステレオRCA【アンバランス】
 41
0.7
 11
-305.2999999999999
 21
736.2285645833333
 31
0.0
100
AcDbText
 73
     3
  0
TEXT
  5
84
330
4C0
100
AcDbEntity
  8
SPEC
 62
     7
100
AcDbText
 10
-305.2999999999999
 20
691.0260472222222
 30
0.0
 40
15.20251736111111
  1
ステレオ・ミニフォーン【アンバランス】
 41
0.7
 11
-305.2999999999999
 21
706.2285645833333
 31
0.0
100
AcDbText
 73
     3
  0
TEXT
  5
85
330
4C0
100
AcDbEntity
  8
SPEC
 62
     7
100
AcDbText
 10
-305.2999999999999
 20
631.0260472222222
 30
0.0
 40
15.20251736111111
  1
ステレオRCA:+6dBV(-10dBV)
 41
0.7
 11
-305.2999999999999
 21
646.2285645833333
 31
0.0
100
AcDbText
 73
     3
  0
TEXT
  5
86
330
4C0
100
AcDbEntity
  8
SPEC
 62
     7
100
AcDbText
 10
-305.2999999999999
 20
601.0260472222222
 30
0.0
 40
15.20251736111111
  1
ステレオ・ミニフォーン:+6dBV(-10dBV)
 41
0.7
 11
-305.2999999999999
 21
616.2285645833333
 31
0.0
100
AcDbText
 73
     3
  0
LINE
  5
87
330
4C0
100
AcDbEntity
  8
SPEC
  6
Continuous
 62
     7
100
AcDbLine
 10
-660.0
 20
354.7227050000001
 30
0.0
 11
520.0000000000001
 21
354.7227050000001
 31
0.0
  0
TEXT
  5
88
330
4C0
100
AcDbEntity
  8
SPEC
 62
     7
100
AcDbText
 10
-305.2999999999999
 20
361.0260472222225
 30
0.0
 40
15.20251736111111
  1
和文取扱説明書
 41
0.7
 11
-305.2999999999999
 21
376.2285645833336
 31
0.0
100
AcDbText
 73
     3
  0
TEXT
  5
89
330
4C0
100
AcDbEntity
  8
SPEC
 62
     7
100
AcDbText
 10
-305.2999999999999
 20
421.0260472222224
 30
0.0
 40
15.20251736111111
  1
1.8kg(エクステンションスピーカー)
 41
0.7
 11
-305.2999999999999
 21
436.2285645833336
 31
0.0
100
AcDbText
 73
     3
  0
TEXT
  5
8A
330
4C0
100
AcDbEntity
  8
DIMNSIONS
 62
     7
100
AcDbText
 10
-160.0
 20
-917.1213749999994
 30
0.0
 40
19.54609375
  1
(単位：mm)
 41
0.7
 11
-160.0
 21
-897.5752812499994
 31
0.0
100
AcDbText
 73
     3
  0
LINE
  5
8B
330
4C0
100
AcDbEntity
  8
DIMNSIONS
  6
Continuous
 62
     7
100
AcDbLine
 10
-562.8063794095474
 20
-318.0540877875785
 30
0.0
 11
-607.9999999999998
 21
-318.0540877875785
 31
0.0
  0
LINE
  5
8C
330
4C0
100
AcDbEntity
  8
DIMNSIONS
  6
Continuous
 62
     7
100
AcDbLine
 10
-538.6
 20
-193.0540877875785
 30
0.0
 11
-607.9999999999998
 21
-193.0540877875785
 31
0.0
  0
LINE
  5
8D
330
4C0
100
AcDbEntity
  8
DIMNSIONS
  6
Continuous
 62
     7
100
AcDbLine
 10
-599.9999999999998
 20
-318.0540877875785
 30
0.0
 11
-599.9999999999998
 21
-193.0540877875785
 31
0.0
  0
LINE
  5
8E
330
4C0
100
AcDbEntity
  8
DIMNSIONS
  6
Continuous
 62
     7
100
AcDbLine
 10
-599.9999999999998
 20
-318.0540877875785
 30
0.0
 11
-604.2869254097645
 21
-302.0550643500785
 31
0.0
  0
LINE
  5
8F
330
4C0
100
AcDbEntity
  8
DIMNSIONS
  6
Continuous
 62
     7
100
AcDbLine
 10
-599.9999999999998
 20
-318.0540877875785
 30
0.0
 11
-595.7130745902349
 21
-302.0550643500785
 31
0.0
  0
LINE
  5
90
330
4C0
100
AcDbEntity
  8
DIMNSIONS
  6
Continuous
 62
     7
100
AcDbLine
 10
-599.9999999999998
 20
-193.0540877875785
 30
0.0
 11
-595.7130745902349
 21
-209.0531112250785
 31
0.0
  0
LINE
  5
91
330
4C0
100
AcDbEntity
  8
DIMNSIONS
  6
Continuous
 62
     7
100
AcDbLine
 10
-599.9999999999998
 20
-193.0540877875785
 30
0.0
 11
-604.2869254097645
 21
-209.0531112250785
 31
0.0
  0
TEXT
  5
92
330
4C0
100
AcDbEntity
  8
DIMNSIONS
 62
     7
100
AcDbText
 10
-608.9511111111107
 20
-276.7207544542451
 30
0.0
 40
21.71788194444445
  1
125
 50
90.0
 41
0.7
 11
-630.6689930555552
 21
-276.7207544542451
 31
0.0
100
AcDbText
 73
     3
  0
LINE
  5
93
330
4C0
100
AcDbEntity
  8
DIMNSIONS
  6
Continuous
 62
     7
100
AcDbLine
 10
-551.1
 20
-618.0540877875785
 30
0.0
 11
-608.0
 21
-618.0540877875785
 31
0.0
  0
LINE
  5
94
330
4C0
100
AcDbEntity
  8
DIMNSIONS
  6
Continuous
 62
     7
100
AcDbLine
 10
-509.6
 20
-371.0540877875785
 30
0.0
 11
-608.0
 21
-371.0540877875785
 31
0.0
  0
LINE
  5
95
330
4C0
100
AcDbEntity
  8
DIMNSIONS
  6
Continuous
 62
     7
100
AcDbLine
 10
-600.0
 20
-618.0540877875785
 30
0.0
 11
-600.0
 21
-371.0540877875785
 31
0.0
  0
LINE
  5
96
330
4C0
100
AcDbEntity
  8
DIMNSIONS
  6
Continuous
 62
     7
100
AcDbLine
 10
-600.0
 20
-618.0540877875785
 30
0.0
 11
-604.2869254097647
 21
-602.0550643500785
 31
0.0
  0
LINE
  5
97
330
4C0
100
AcDbEntity
  8
DIMNSIONS
  6
Continuous
 62
     7
100
AcDbLine
 10
-600.0
 20
-618.0540877875785
 30
0.0
 11
-595.7130745902352
 21
-602.0550643500785
 31
0.0
  0
LINE
  5
98
330
4C0
100
AcDbEntity
  8
DIMNSIONS
  6
Continuous
 62
     7
100
AcDbLine
 10
-600.0
 20
-371.0540877875785
 30
0.0
 11
-595.7130745902352
 21
-387.0531112250785
 31
0.0
  0
LINE
  5
99
330
4C0
100
AcDbEntity
  8
DIMNSIONS
  6
Continuous
 62
     7
100
AcDbLine
 10
-600.0
 20
-371.0540877875785
 30
0.0
 11
-604.2869254097647
 21
-387.0531112250785
 31
0.0
  0
TEXT
  5
9A
330
4C0
100
AcDbEntity
  8
DIMNSIONS
 62
     7
100
AcDbText
 10
-608.951111111111
 20
-515.7207544542451
 30
0.0
 40
21.71788194444445
  1
247
 50
90.0
 41
0.7
 11
-630.6689930555554
 21
-515.7207544542451
 31
0.0
100
AcDbText
 73
     3
  0
LINE
  5
9B
330
4C0
100
AcDbEntity
  8
DIMNSIONS
  6
Continuous
 62
     7
100
AcDbLine
 10
-576.4999999999999
 20
-562.0459122124215
 30
0.0
 11
-576.4999999999999
 21
-663.5540877875785
 31
0.0
  0
LINE
  5
9C
330
4C0
100
AcDbEntity
  8
DIMNSIONS
  6
Continuous
 62
     7
100
AcDbLine
 10
-423.5
 20
-562.0459122124215
 30
0.0
 11
-423.5
 21
-663.5540877875785
 31
0.0
  0
LINE
  5
9D
330
4C0
100
AcDbEntity
  8
DIMNSIONS
  6
Continuous
 62
     7
100
AcDbLine
 10
-576.4999999999999
 20
-655.5540877875785
 30
0.0
 11
-423.5
 21
-655.5540877875785
 31
0.0
  0
LINE
  5
9E
330
4C0
100
AcDbEntity
  8
DIMNSIONS
  6
Continuous
 62
     7
100
AcDbLine
 10
-576.4999999999999
 20
-655.5540877875785
 30
0.0
 11
-560.5009765624999
 21
-651.2671623778137
 31
0.0
  0
LINE
  5
9F
330
4C0
100
AcDbEntity
  8
DIMNSIONS
  6
Continuous
 62
     7
100
AcDbLine
 10
-576.4999999999999
 20
-655.5540877875785
 30
0.0
 11
-560.5009765624999
 21
-659.8410131973432
 31
0.0
  0
LINE
  5
A0
330
4C0
100
AcDbEntity
  8
DIMNSIONS
  6
Continuous
 62
     7
100
AcDbLine
 10
-423.5
 20
-655.5540877875785
 30
0.0
 11
-439.4990234375
 21
-659.8410131973432
 31
0.0
  0
LINE
  5
A1
330
4C0
100
AcDbEntity
  8
DIMNSIONS
  6
Continuous
 62
     7
100
AcDbLine
 10
-423.5
 20
-655.5540877875785
 30
0.0
 11
-439.4990234375
 21
-651.2671623778137
 31
0.0
  0
TEXT
  5
A2
330
4C0
100
AcDbEntity
  8
DIMNSIONS
 62
     7
100
AcDbText
 10
-521.1666666666665
 20
-649.1029766764675
 30
0.0
 40
21.71788194444445
  1
153
 41
0.7
 11
-521.1666666666665
 21
-627.3850947320231
 31
0.0
100
AcDbText
 73
     3
  0
LINE
  5
A3
330
4C0
100
AcDbEntity
  8
DIMNSIONS
  6
Continuous
 62
     7
100
AcDbLine
 10
112.1936205904523
 20
-318.0540877875785
 30
0.0
 11
66.99999999999997
 21
-318.0540877875785
 31
0.0
  0
LINE
  5
A4
330
4C0
100
AcDbEntity
  8
DIMNSIONS
  6
Continuous
 62
     7
100
AcDbLine
 10
136.4
 20
-193.0540877875785
 30
0.0
 11
66.99999999999997
 21
-193.0540877875785
 31
0.0
  0
LINE
  5
A5
330
4C0
100
AcDbEntity
  8
DIMNSIONS
  6
Continuous
 62
     7
100
AcDbLine
 10
74.99999999999997
 20
-318.0540877875785
 30
0.0
 11
74.99999999999997
 21
-193.0540877875785
 31
0.0
  0
LINE
  5
A6
330
4C0
100
AcDbEntity
  8
DIMNSIONS
  6
Continuous
 62
     7
100
AcDbLine
 10
74.99999999999997
 20
-318.0540877875785
 30
0.0
 11
70.71307459023524
 21
-302.0550643500785
 31
0.0
  0
LINE
  5
A7
330
4C0
100
AcDbEntity
  8
DIMNSIONS
  6
Continuous
 62
     7
100
AcDbLine
 10
74.99999999999997
 20
-318.0540877875785
 30
0.0
 11
79.2869254097647
 21
-302.0550643500785
 31
0.0
  0
LINE
  5
A8
330
4C0
100
AcDbEntity
  8
DIMNSIONS
  6
Continuous
 62
     7
100
AcDbLine
 10
74.99999999999997
 20
-193.0540877875785
 30
0.0
 11
79.2869254097647
 21
-209.0531112250785
 31
0.0
  0
LINE
  5
A9
330
4C0
100
AcDbEntity
  8
DIMNSIONS
  6
Continuous
 62
     7
100
AcDbLine
 10
74.99999999999997
 20
-193.0540877875785
 30
0.0
 11
70.71307459023524
 21
-209.0531112250785
 31
0.0
  0
TEXT
  5
AA
330
4C0
100
AcDbEntity
  8
DIMNSIONS
 62
     7
100
AcDbText
 10
66.04888888888885
 20
-276.7207544542451
 30
0.0
 40
21.71788194444445
  1
125
 50
90.0
 41
0.7
 11
44.3310069444444
 21
-276.7207544542451
 31
0.0
100
AcDbText
 73
     3
  0
LINE
  5
AB
330
4C0
100
AcDbEntity
  8
DIMNSIONS
  6
Continuous
 62
     7
100
AcDbLine
 10
123.9
 20
-618.0540877875785
 30
0.0
 11
67.0
 21
-618.0540877875785
 31
0.0
  0
LINE
  5
AC
330
4C0
100
AcDbEntity
  8
DIMNSIONS
  6
Continuous
 62
     7
100
AcDbLine
 10
165.4
 20
-371.0540877875785
 30
0.0
 11
67.0
 21
-371.0540877875785
 31
0.0
  0
LINE
  5
AD
330
4C0
100
AcDbEntity
  8
DIMNSIONS
  6
Continuous
 62
     7
100
AcDbLine
 10
75.0
 20
-618.0540877875785
 30
0.0
 11
75.0
 21
-371.0540877875785
 31
0.0
  0
LINE
  5
AE
330
4C0
100
AcDbEntity
  8
DIMNSIONS
  6
Continuous
 62
     7
100
AcDbLine
 10
75.0
 20
-618.0540877875785
 30
0.0
 11
70.71307459023526
 21
-602.0550643500785
 31
0.0
  0
LINE
  5
AF
330
4C0
100
AcDbEntity
  8
DIMNSIONS
  6
Continuous
 62
     7
100
AcDbLine
 10
75.0
 20
-618.0540877875785
 30
0.0
 11
79.28692540976474
 21
-602.0550643500785
 31
0.0
  0
LINE
  5
B0
330
4C0
100
AcDbEntity
  8
DIMNSIONS
  6
Continuous
 62
     7
100
AcDbLine
 10
75.0
 20
-371.0540877875785
 30
0.0
 11
79.28692540976474
 21
-387.0531112250785
 31
0.0
  0
LINE
  5
B1
330
4C0
100
AcDbEntity
  8
DIMNSIONS
  6
Continuous
 62
     7
100
AcDbLine
 10
75.0
 20
-371.0540877875785
 30
0.0
 11
70.71307459023526
 21
-387.0531112250785
 31
0.0
  0
TEXT
  5
B2
330
4C0
100
AcDbEntity
  8
DIMNSIONS
 62
     7
100
AcDbText
 10
66.04888888888888
 20
-515.7207544542451
 30
0.0
 40
21.71788194444445
  1
247
 50
90.0
 41
0.7
 11
44.33100694444442
 21
-515.7207544542451
 31
0.0
100
AcDbText
 73
     3
  0
LINE
  5
B3
330
4C0
100
AcDbEntity
  8
DIMNSIONS
  6
Continuous
 62
     7
100
AcDbLine
 10
98.50000000000001
 20
-562.0459122124215
 30
0.0
 11
98.50000000000001
 21
-663.5540877875785
 31
0.0
  0
LINE
  5
B4
330
4C0
100
AcDbEntity
  8
DIMNSIONS
  6
Continuous
 62
     7
100
AcDbLine
 10
251.5
 20
-562.0459122124215
 30
0.0
 11
251.5
 21
-663.5540877875785
 31
0.0
  0
LINE
  5
B5
330
4C0
100
AcDbEntity
  8
DIMNSIONS
  6
Continuous
 62
     7
100
AcDbLine
 10
98.50000000000001
 20
-655.5540877875785
 30
0.0
 11
251.5
 21
-655.5540877875785
 31
0.0
  0
LINE
  5
B6
330
4C0
100
AcDbEntity
  8
DIMNSIONS
  6
Continuous
 62
     7
100
AcDbLine
 10
98.50000000000001
 20
-655.5540877875785
 30
0.0
 11
114.4990234375
 21
-651.2671623778137
 31
0.0
  0
LINE
  5
B7
330
4C0
100
AcDbEntity
  8
DIMNSIONS
  6
Continuous
 62
     7
100
AcDbLine
 10
98.50000000000001
 20
-655.5540877875785
 30
0.0
 11
114.4990234375
 21
-659.8410131973432
 31
0.0
  0
LINE
  5
B8
330
4C0
100
AcDbEntity
  8
DIMNSIONS
  6
Continuous
 62
     7
100
AcDbLine
 10
251.5
 20
-655.5540877875785
 30
0.0
 11
235.5009765625
 21
-659.8410131973432
 31
0.0
  0
LINE
  5
B9
330
4C0
100
AcDbEntity
  8
DIMNSIONS
  6
Continuous
 62
     7
100
AcDbLine
 10
251.5
 20
-655.5540877875785
 30
0.0
 11
235.5009765625
 21
-651.2671623778137
 31
0.0
  0
TEXT
  5
BA
330
4C0
100
AcDbEntity
  8
DIMNSIONS
 62
     7
100
AcDbText
 10
153.8333333333333
 20
-649.1029766764675
 30
0.0
 40
21.71788194444445
  1
153
 41
0.7
 11
153.8333333333333
 21
-627.3850947320231
 31
0.0
100
AcDbText
 73
     3
  0
LINE
  5
BB
330
4C0
100
AcDbEntity
  8
DIMNSIONS
  6
Continuous
 62
     7
100
AcDbLine
 10
-538.6
 20
-193.0540877875785
 30
0.0
 11
-608.0
 21
-193.0540877875785
 31
0.0
  0
LINE
  5
BC
330
4C0
100
AcDbEntity
  8
DIMNSIONS
  6
Continuous
 62
     7
100
AcDbLine
 10
-514.1
 20
-190.5540877875785
 30
0.0
 11
-608.0
 21
-190.5540877875785
 31
0.0
  0
LINE
  5
BD
330
4C0
100
AcDbEntity
  8
DIMNSIONS
  6
Continuous
 62
     7
100
AcDbLine
 10
-600.0
 20
-190.5540877875785
 30
0.0
 11
-600.0
 21
-193.0540877875785
 31
0.0
  0
LINE
  5
BE
330
4C0
100
AcDbEntity
  8
DIMNSIONS
  6
Continuous
 62
     7
100
AcDbLine
 10
-600.0
 20
-193.0540877875785
 30
0.0
 11
-600.0
 21
-221.0540877875785
 31
0.0
  0
LINE
  5
BF
330
4C0
100
AcDbEntity
  8
DIMNSIONS
  6
Continuous
 62
     7
100
AcDbLine
 10
-600.0
 20
-193.0540877875785
 30
0.0
 11
-595.7130745902353
 21
-209.0531112250785
 31
0.0
  0
LINE
  5
C0
330
4C0
100
AcDbEntity
  8
DIMNSIONS
  6
Continuous
 62
     7
100
AcDbLine
 10
-600.0
 20
-193.0540877875785
 30
0.0
 11
-604.2869254097649
 21
-209.0531112250785
 31
0.0
  0
LINE
  5
C1
330
4C0
100
AcDbEntity
  8
DIMNSIONS
  6
Continuous
 62
     7
100
AcDbLine
 10
-600.0
 20
-190.5540877875785
 30
0.0
 11
-600.0
 21
-162.5540877875785
 31
0.0
  0
LINE
  5
C2
330
4C0
100
AcDbEntity
  8
DIMNSIONS
  6
Continuous
 62
     7
100
AcDbLine
 10
-600.0
 20
-190.5540877875785
 30
0.0
 11
-604.2869254097649
 21
-174.5550643500785
 31
0.0
  0
LINE
  5
C3
330
4C0
100
AcDbEntity
  8
DIMNSIONS
  6
Continuous
 62
     7
100
AcDbLine
 10
-600.0
 20
-190.5540877875785
 30
0.0
 11
-595.7130745902353
 21
-174.5550643500785
 31
0.0
  0
TEXT
  5
C4
330
4C0
100
AcDbEntity
  8
DIMNSIONS
 62
     7
100
AcDbText
 10
-611.9511111111112
 20
-212.9707544542452
 30
0.0
 40
21.71788194444445
  1
2.5
 50
90.0
 41
0.7
 11
-633.6689930555556
 21
-212.9707544542452
 31
0.0
100
AcDbText
 73
     3
  0
LINE
  5
C5
330
4C0
100
AcDbEntity
  8
DIMNSIONS
  6
Continuous
 62
     7
100
AcDbLine
 10
-515.6
 20
-326.0540877875785
 30
0.0
 11
-608.0
 21
-326.0540877875785
 31
0.0
  0
LINE
  5
C6
330
4C0
100
AcDbEntity
  8
DIMNSIONS
  6
Continuous
 62
     7
100
AcDbLine
 10
-562.8063794095474
 20
-318.0540877875785
 30
0.0
 11
-608.0
 21
-318.0540877875785
 31
0.0
  0
LINE
  5
C7
330
4C0
100
AcDbEntity
  8
DIMNSIONS
  6
Continuous
 62
     7
100
AcDbLine
 10
-600.0
 20
-318.0540877875785
 30
0.0
 11
-600.0
 21
-326.0540877875785
 31
0.0
  0
LINE
  5
C8
330
4C0
100
AcDbEntity
  8
DIMNSIONS
  6
Continuous
 62
     7
100
AcDbLine
 10
-600.0
 20
-326.0540877875785
 30
0.0
 11
-600.0
 21
-354.0540877875785
 31
0.0
  0
LINE
  5
C9
330
4C0
100
AcDbEntity
  8
DIMNSIONS
  6
Continuous
 62
     7
100
AcDbLine
 10
-600.0
 20
-326.0540877875785
 30
0.0
 11
-595.7130745902352
 21
-342.0531112250785
 31
0.0
  0
LINE
  5
CA
330
4C0
100
AcDbEntity
  8
DIMNSIONS
  6
Continuous
 62
     7
100
AcDbLine
 10
-600.0
 20
-326.0540877875785
 30
0.0
 11
-604.2869254097647
 21
-342.0531112250785
 31
0.0
  0
LINE
  5
CB
330
4C0
100
AcDbEntity
  8
DIMNSIONS
  6
Continuous
 62
     7
100
AcDbLine
 10
-600.0
 20
-318.0540877875785
 30
0.0
 11
-600.0
 21
-290.0540877875785
 31
0.0
  0
LINE
  5
CC
330
4C0
100
AcDbEntity
  8
DIMNSIONS
  6
Continuous
 62
     7
100
AcDbLine
 10
-600.0
 20
-318.0540877875785
 30
0.0
 11
-604.2869254097647
 21
-302.0550643500785
 31
0.0
  0
LINE
  5
CD
330
4C0
100
AcDbEntity
  8
DIMNSIONS
  6
Continuous
 62
     7
100
AcDbLine
 10
-600.0
 20
-318.0540877875785
 30
0.0
 11
-595.7130745902352
 21
-302.0550643500785
 31
0.0
  0
TEXT
  5
CE
330
4C0
100
AcDbEntity
  8
DIMNSIONS
 62
     7
100
AcDbText
 10
-611.9511111111109
 20
-343.2207544542452
 30
0.0
 40
21.71788194444445
  1
8.0
 50
90.0
 41
0.7
 11
-633.6689930555555
 21
-343.2207544542452
 31
0.0
100
AcDbText
 73
     3
  0
LINE
  5
CF
330
4C0
100
AcDbEntity
  8
DIMNSIONS
  6
Continuous
 62
     7
100
AcDbLine
 10
136.4
 20
-193.0540877875785
 30
0.0
 11
66.9999999999999
 21
-193.0540877875785
 31
0.0
  0
LINE
  5
D0
330
4C0
100
AcDbEntity
  8
DIMNSIONS
  6
Continuous
 62
     7
100
AcDbLine
 10
155.3999999999998
 20
-191.5540877875708
 30
0.0
 11
66.9999999999999
 21
-191.5540877875708
 31
0.0
  0
LINE
  5
D1
330
4C0
100
AcDbEntity
  8
DIMNSIONS
  6
Continuous
 62
     7
100
AcDbLine
 10
74.99999999999987
 20
-191.5540877875708
 30
0.0
 11
74.99999999999987
 21
-193.0540877875785
 31
0.0
  0
LINE
  5
D2
330
4C0
100
AcDbEntity
  8
DIMNSIONS
  6
Continuous
 62
     7
100
AcDbLine
 10
74.99999999999987
 20
-193.0540877875785
 30
0.0
 11
74.99999999999987
 21
-221.0540877875785
 31
0.0
  0
LINE
  5
D3
330
4C0
100
AcDbEntity
  8
DIMNSIONS
  6
Continuous
 62
     7
100
AcDbLine
 10
74.99999999999987
 20
-193.0540877875785
 30
0.0
 11
79.28692540976462
 21
-209.0531112250785
 31
0.0
  0
LINE
  5
D4
330
4C0
100
AcDbEntity
  8
DIMNSIONS
  6
Continuous
 62
     7
100
AcDbLine
 10
74.99999999999987
 20
-193.0540877875785
 30
0.0
 11
70.71307459023515
 21
-209.0531112250785
 31
0.0
  0
LINE
  5
D5
330
4C0
100
AcDbEntity
  8
DIMNSIONS
  6
Continuous
 62
     7
100
AcDbLine
 10
74.99999999999987
 20
-191.5540877875708
 30
0.0
 11
74.99999999999987
 21
-163.5540877875708
 31
0.0
  0
LINE
  5
D6
330
4C0
100
AcDbEntity
  8
DIMNSIONS
  6
Continuous
 62
     7
100
AcDbLine
 10
74.99999999999987
 20
-191.5540877875708
 30
0.0
 11
70.71307459023515
 21
-175.5550643500708
 31
0.0
  0
LINE
  5
D7
330
4C0
100
AcDbEntity
  8
DIMNSIONS
  6
Continuous
 62
     7
100
AcDbLine
 10
74.99999999999987
 20
-191.5540877875708
 30
0.0
 11
79.28692540976462
 21
-175.5550643500708
 31
0.0
  0
TEXT
  5
D8
330
4C0
100
AcDbEntity
  8
DIMNSIONS
 62
     7
100
AcDbText
 10
63.04888888888878
 20
-213.4707544542413
 30
0.0
 40
21.71788194444445
  1
1.5
 50
90.0
 41
0.7
 11
41.33100694444432
 21
-213.4707544542413
 31
0.0
100
AcDbText
 73
     3
  0
TEXT
  5
D9
330
4C0
100
AcDbEntity
  8
DATA
 62
     7
100
AcDbText
 10
-700.0
 20
-952.2670727777773
 30
0.0
 40
15.20251736111111
  1
※仕様及び外観は予告なく変更されることがあります。
 41
0.7
 11
-700.0
 21
-937.0645554166662
 31
0.0
100
AcDbText
 73
     3
  0
TEXT
  5
DA
330
4C0
100
AcDbEntity
  8
DATA
 62
     7
100
AcDbText
 10
-700.0
 20
-972.0226283333326
 30
0.0
 40
15.20251736111111
  1
　また、同一商品でも若干の個体差があることがあります。ご了承ください。
 41
0.7
 11
-700.0
 21
-956.8201109722217
 31
0.0
100
AcDbText
 73
     3
  0
TEXT
  5
DB
330
4C0
100
AcDbEntity
  8
DATA
 62
     7
100
AcDbText
 10
400.0
 20
-868.2301749999995
 30
0.0
 40
19.54609375
  1
JBL PROFESSIONAL
 41
0.7
 11
400.0
 21
-848.6840812499995
 31
0.0
100
AcDbText
 73
     3
  0
LINE
  5
DC
330
4C0
100
AcDbEntity
  8
DATA
  6
Continuous
 62
     7
100
AcDbLine
 10
-576.4999999999999
 20
-552.4459122124214
 30
0.0
 11
-576.4999999999999
 21
-447.5540877875785
 31
0.0
  0
LINE
  5
DD
330
4C0
100
AcDbEntity
  8
DATA
  6
Continuous
 62
     7
100
AcDbLine
 10
-400.0
 20
-606.7499999999999
 30
0.0
 11
-400.0
 21
-393.25
 31
0.0
  0
LINE
  5
DE
330
4C0
100
AcDbEntity
  8
DATA
  6
Continuous
 62
     7
100
AcDbLine
 10
-275.0
 20
-420.0
 30
0.0
 11
-275.0
 21
-579.9999999999998
 31
0.0
  0
LINE
  5
DF
330
4C0
100
AcDbEntity
  8
DATA
  6
Continuous
 62
     7
100
AcDbLine
 10
-553.2063794095474
 20
-319.5540877875785
 30
0.0
 11
-446.7936205904525
 21
-319.5540877875785
 31
0.0
  0
LINE
  5
E0
330
4C0
100
AcDbEntity
  8
DATA
  6
Continuous
 62
     7
100
AcDbLine
 10
-529.0
 20
-193.0540877875785
 30
0.0
 11
-471.0
 21
-193.0540877875785
 31
0.0
  0
ARC
  5
E1
330
4C0
100
AcDbEntity
  8
DATA
  6
Continuous
 62
     7
100
AcDbCircle
 10
-500.0
 20
-447.5540877875785
 30
0.0
 40
76.5
100
AcDbArc
 50
0.0
 51
180.0
  0
LINE
  5
E2
330
4C0
100
AcDbEntity
  8
DATA
  6
Continuous
 62
     7
100
AcDbLine
 10
-576.4999999999999
 20
-261.0540877875784
 30
0.0
 11
-423.5
 21
-261.0540877875784
 31
0.0
  0
LINE
  5
E3
330
4C0
100
AcDbEntity
  8
DATA
  6
Continuous
 62
     7
100
AcDbLine
 10
-343.0
 20
-371.0540877875785
 30
0.0
 11
-343.0
 21
-616.0540877875785
 31
0.0
  0
ARC
  5
E4
330
4C0
100
AcDbEntity
  8
DATA
  6
Continuous
 62
     7
100
AcDbCircle
 10
-517.7344020765353
 20
-249.9789732121493
 30
0.0
 40
58.02892621075868
100
AcDbArc
 50
101.1943504628732
 51
173.1462713985373
  0
ARC
  5
E5
330
4C0
100
AcDbEntity
  8
DATA
  6
Continuous
 62
     7
100
AcDbCircle
 10
-246.2565757516955
 20
-273.1868844517765
 30
0.0
 40
330.4687316900708
100
AcDbArc
 50
174.7683902389058
 51
177.8841499346912
  0
ARC
  5
E6
330
4C0
100
AcDbEntity
  8
DATA
  6
Continuous
 62
     7
100
AcDbCircle
 10
-482.2655979234643
 20
-249.9789732121493
 30
0.0
 40
58.02892621075861
100
AcDbArc
 50
6.853728601462718
 51
78.80564953712703
  0
ARC
  5
E7
330
4C0
100
AcDbEntity
  8
DATA
  6
Continuous
 62
     7
100
AcDbCircle
 10
-753.7434242483044
 20
-273.1868844517765
 30
0.0
 40
330.4687316900706
100
AcDbArc
 50
2.115850065308752
 51
5.231609761094265
  0
ARC
  5
E8
330
4C0
100
AcDbEntity
  8
DATA
  6
Continuous
 62
     7
100
AcDbCircle
 10
-517.7344020765353
 20
-272.1292023630078
 30
0.0
 40
58.02892621075882
100
AcDbArc
 50
186.8537286014626
 51
232.3178180316899
  0
ARC
  5
E9
330
4C0
100
AcDbEntity
  8
DATA
  6
Continuous
 62
     7
100
AcDbCircle
 10
-246.2565757516955
 20
-248.9212911233805
 30
0.0
 40
330.4687316900708
100
AcDbArc
 50
182.1158500653087
 51
185.2316097610942
  0
ARC
  5
EA
330
4C0
100
AcDbEntity
  8
DATA
  6
Continuous
 62
     7
100
AcDbCircle
 10
-482.2655979234643
 20
-272.1292023630078
 30
0.0
 40
58.02892621075861
100
AcDbArc
 50
307.68218196831
 51
353.1462713985373
  0
ARC
  5
EB
330
4C0
100
AcDbEntity
  8
DATA
  6
Continuous
 62
     7
100
AcDbCircle
 10
-753.7434242483044
 20
-248.9212911233805
 30
0.0
 40
330.4687316900706
100
AcDbArc
 50
354.7683902389057
 51
357.8841499346913
  0
LINE
  5
EC
330
4C0
100
AcDbEntity
  8
DATA
  6
Continuous
 62
     7
100
AcDbLine
 10
-541.5
 20
-618.0540877875785
 30
0.0
 11
-458.4999999999999
 21
-618.0540877875785
 31
0.0
  0
LINE
  5
ED
330
4C0
100
AcDbEntity
  8
DATA
  6
Continuous
 62
     7
100
AcDbLine
 10
-553.2063794095474
 20
-446.4563794095476
 30
0.0
 11
-553.2063794095474
 21
-555.5436205904523
 31
0.0
  0
LINE
  5
EE
330
4C0
100
AcDbEntity
  8
DATA
  6
Continuous
 62
     7
100
AcDbLine
 10
-446.7936205904525
 20
-446.4563794095476
 30
0.0
 11
-446.7936205904525
 21
-555.5436205904523
 31
0.0
  0
ARC
  5
EF
330
4C0
100
AcDbEntity
  8
DATA
  6
Continuous
 62
     7
100
AcDbCircle
 10
-500.0
 20
-555.5436205904523
 30
0.0
 40
53.20637940954747
100
AcDbArc
 50
180.0
 51
0.0
  0
ARC
  5
F0
330
4C0
100
AcDbEntity
  8
DATA
  6
Continuous
 62
     7
100
AcDbCircle
 10
-500.0
 20
-446.4563794095476
 30
0.0
 40
53.2063794095477
100
AcDbArc
 50
0.0
 51
180.0
  0
LINE
  5
F1
330
4C0
100
AcDbEntity
  8
DATA
  6
Continuous
 62
     7
100
AcDbLine
 10
-423.5
 20
-447.5540877875785
 30
0.0
 11
-423.5
 21
-552.4459122124214
 31
0.0
  0
ARC
  5
F2
330
4C0
100
AcDbEntity
  8
DATA
  6
Continuous
 62
     7
100
AcDbCircle
 10
-332.3125614441985
 20
-482.786970555224
 30
0.0
 40
112.2428547144648
100
AcDbArc
 50
95.46381507953972
 51
127.088258001267
  0
ARC
  5
F3
330
4C0
100
AcDbEntity
  8
DATA
  6
Continuous
 62
     7
100
AcDbCircle
 10
-340.4880494219981
 20
-439.2730333730185
 30
0.0
 40
68.2651773050913
100
AcDbArc
 50
16.39907588976189
 51
92.1087862248358
  0
LWPOLYLINE
  5
F4
330
4C0
100
AcDbEntity
  8
DATA
  6
Continuous
 62
     7
100
AcDbPolyline
 90
        4
 70
     1
 43
0.0
 10
-508.0
 20
-429.0540877875785
 10
-492.0
 20
-429.0540877875785
 10
-492.0
 20
-445.0540877875785
 10
-508.0
 20
-445.0540877875785
  0
ARC
  5
FB
330
4C0
100
AcDbEntity
  8
DATA
  6
Continuous
 62
     7
100
AcDbCircle
 10
-503.5293319999998
 20
-437.2600897875785
 30
0.0
 40
1.547312055100687
100
AcDbArc
 50
264.6908562215334
 51
323.9911991542413
  0
ARC
  5
FC
330
4C0
100
AcDbEntity
  8
DATA
  6
Continuous
 62
     7
100
AcDbCircle
 10
-503.81567
 20
-437.2600897875785
 30
0.0
 40
1.547309542167864
100
AcDbArc
 50
216.0088008457596
 51
275.3091437784624
  0
ARC
  5
FD
330
4C0
100
AcDbEntity
  8
DATA
  6
Continuous
 62
     7
100
AcDbCircle
 10
-499.5974899999999
 20
-437.6617417875785
 30
0.0
 40
1.141566847030839
100
AcDbArc
 50
273.8309816091158
 51
351.1351473098015
  0
ARC
  5
FE
330
4C0
100
AcDbEntity
  8
DATA
  6
Continuous
 62
     7
100
AcDbCircle
 10
-499.586108
 20
-433.9380457875785
 30
0.0
 40
1.139837959747025
100
AcDbArc
 50
8.226923859016626
 51
86.15412669215212
  0
ARC
  5
FF
330
4C0
100
AcDbEntity
  8
DATA
  6
Continuous
 62
     7
100
AcDbCircle
 10
-499.711531181856
 20
-437.951401360455
 30
0.0
 40
0.191269868891211
100
AcDbArc
 50
307.6419024976221
 51
354.2670192893908
  0
LINE
  5
100
330
4C0
100
AcDbEntity
  8
DATA
  6
Continuous
 62
     7
100
AcDbLine
 10
-504.62453
 20
-434.9372977875785
 30
0.0
 11
-503.7278539999999
 21
-432.8007697875785
 31
0.0
  0
LINE
  5
101
330
4C0
100
AcDbEntity
  8
DATA
  6
Continuous
 62
     7
100
AcDbLine
 10
-504.62453
 20
-434.9372977875785
 30
0.0
 11
-505.5101419999998
 21
-432.8007697875785
 31
0.0
  0
LINE
  5
102
330
4C0
100
AcDbEntity
  8
DATA
  6
Continuous
 62
     7
100
AcDbLine
 10
-497.8274899999998
 20
-438.8007697875785
 30
0.0
 11
-497.8274899999998
 21
-432.8007697875785
 31
0.0
  0
LINE
  5
103
330
4C0
100
AcDbEntity
  8
DATA
  6
Continuous
 62
     7
100
AcDbLine
 10
-496.6761979999999
 20
-432.8007697875785
 30
0.0
 11
-496.6761979999999
 21
-437.8819537875784
 31
0.0
  0
LINE
  5
104
330
4C0
100
AcDbEntity
  8
DATA
  6
Continuous
 62
     7
100
AcDbLine
 10
-503.3071879999997
 20
-432.8007697875785
 30
0.0
 11
-503.3071879999997
 21
-437.8819537875784
 31
0.0
  0
LINE
  5
105
330
4C0
100
AcDbEntity
  8
DATA
  6
Continuous
 62
     7
100
AcDbLine
 10
-502.2001759999998
 20
-432.8007697875785
 30
0.0
 11
-502.2001759999998
 21
-437.8819537875784
 31
0.0
  0
LINE
  5
106
330
4C0
100
AcDbEntity
  8
DATA
  6
Continuous
 62
     7
100
AcDbLine
 10
-501.62453
 20
-432.8007697875785
 30
0.0
 11
-501.62453
 21
-438.8007697875785
 31
0.0
  0
LINE
  5
107
330
4C0
100
AcDbEntity
  8
DATA
  6
Continuous
 62
     7
100
AcDbLine
 10
-500.6171479999999
 20
-433.3653397875785
 30
0.0
 11
-500.6171479999999
 21
-435.2915437875785
 31
0.0
  0
LINE
  5
108
330
4C0
100
AcDbEntity
  8
DATA
  6
Continuous
 62
     7
100
AcDbLine
 10
-498.4579999999999
 20
-435.1800877875785
 30
0.0
 11
-498.4579999999999
 21
-433.7749417875785
 31
0.0
  0
LINE
  5
109
330
4C0
100
AcDbEntity
  8
DATA
  6
Continuous
 62
     7
100
AcDbLine
 10
-499.5212179999999
 20
-433.6310257875784
 30
0.0
 11
-499.5212179999999
 21
-435.0258637875786
 31
0.0
  0
LINE
  5
10A
330
4C0
100
AcDbEntity
  8
DATA
  6
Continuous
 62
     7
100
AcDbLine
 10
-504.1485139999999
 20
-436.9188457875785
 30
0.0
 11
-504.1485139999999
 21
-437.8819417875785
 31
0.0
  0
LINE
  5
10B
330
4C0
100
AcDbEntity
  8
DATA
  6
Continuous
 62
     7
100
AcDbLine
 10
-504.1485139999999
 20
-436.9188457875785
 30
0.0
 11
-505.1448259999999
 21
-436.9188457875785
 31
0.0
  0
LINE
  5
10C
330
4C0
100
AcDbEntity
  8
DATA
  6
Continuous
 62
     7
100
AcDbLine
 10
-505.1448259999999
 20
-436.9188457875785
 30
0.0
 11
-505.1448259999999
 21
-437.8819417875785
 31
0.0
  0
ARC
  5
10D
330
4C0
100
AcDbEntity
  8
DATA
  6
Continuous
 62
     7
100
AcDbCircle
 10
-503.7257419999999
 20
-437.8949257875785
 30
0.0
 40
0.4187572957453839
100
AcDbArc
 50
269.7118487927317
 51
1.775987005688762
  0
ARC
  5
10E
330
4C0
100
AcDbEntity
  8
DATA
  6
Continuous
 62
     7
100
AcDbCircle
 10
-503.7299599999999
 20
-437.8949257875785
 30
0.0
 40
0.4187551544758256
100
AcDbArc
 50
178.2240129943096
 51
270.2881512072587
  0
ARC
  5
10F
330
4C0
100
AcDbEntity
  8
DATA
  6
Continuous
 62
     7
100
AcDbCircle
 10
-504.4455619999999
 20
-437.8480237875786
 30
0.0
 40
0.7000801249058123
100
AcDbArc
 50
182.7769954499909
 51
207.3596066671466
  0
CIRCLE
  5
110
330
4C0
100
AcDbEntity
  8
DATA
  6
Continuous
 62
     7
100
AcDbCircle
 10
-504.5636419999999
 20
-435.7675597875785
 30
0.0
 40
0.5701079999998911
  0
LINE
  5
111
330
4C0
100
AcDbEntity
  8
DATA
  6
Continuous
 62
     7
100
AcDbLine
 10
-494.8274899999998
 20
-438.8007697875785
 30
0.0
 11
-497.8274899999998
 21
-438.8007697875785
 31
0.0
  0
LINE
  5
112
330
4C0
100
AcDbEntity
  8
DATA
  6
Continuous
 62
     7
100
AcDbLine
 10
-494.8274899999998
 20
-438.8007637875785
 30
0.0
 11
-494.8274899999998
 21
-436.9188397875785
 31
0.0
  0
LINE
  5
113
330
4C0
100
AcDbEntity
  8
DATA
  6
Continuous
 62
     7
100
AcDbLine
 10
-494.8274899999998
 20
-436.9188457875785
 30
0.0
 11
-495.8348659999999
 21
-436.9188457875785
 31
0.0
  0
LINE
  5
114
330
4C0
100
AcDbEntity
  8
DATA
  6
Continuous
 62
     7
100
AcDbLine
 10
-495.8348659999999
 20
-436.9188457875785
 30
0.0
 11
-495.8348659999999
 21
-437.8819417875785
 31
0.0
  0
LINE
  5
115
330
4C0
100
AcDbEntity
  8
DATA
  6
Continuous
 62
     7
100
AcDbLine
 10
-501.62453
 20
-438.8007637875785
 30
0.0
 11
-499.5212179999999
 21
-438.8007577875785
 31
0.0
  0
LINE
  5
116
330
4C0
100
AcDbEntity
  8
DATA
  6
Continuous
 62
     7
100
AcDbLine
 10
-500.617154
 20
-438.2361877875784
 30
0.0
 11
-500.0747179999999
 21
-438.2361877875784
 31
0.0
  0
LINE
  5
117
330
4C0
100
AcDbEntity
  8
DATA
  6
Continuous
 62
     7
100
AcDbLine
 10
-500.6171479999999
 20
-438.2361877875784
 30
0.0
 11
-500.6171479999999
 21
-435.8671837875785
 31
0.0
  0
LINE
  5
118
330
4C0
100
AcDbEntity
  8
DATA
  6
Continuous
 62
     7
100
AcDbLine
 10
-500.617154
 20
-435.8671837875785
 30
0.0
 11
-500.0747179999999
 21
-435.8671837875785
 31
0.0
  0
LINE
  5
119
330
4C0
100
AcDbEntity
  8
DATA
  6
Continuous
 62
     7
100
AcDbLine
 10
-499.5212179999999
 20
-437.9705077875785
 30
0.0
 11
-499.5212179999999
 21
-436.1328637875785
 31
0.0
  0
ARC
  5
11A
330
4C0
100
AcDbEntity
  8
DATA
  6
Continuous
 62
     7
100
AcDbCircle
 10
-502.8994399999999
 20
-437.8480237875786
 30
0.0
 40
0.7000791287190019
100
AcDbArc
 50
332.6403933328513
 51
357.223004550008
  0
ARC
  5
11B
330
4C0
100
AcDbEntity
  8
DATA
  6
Continuous
 62
     7
100
AcDbCircle
 10
-496.2534259999997
 20
-437.8949257875785
 30
0.0
 40
0.4187572957453839
100
AcDbArc
 50
269.7118487927317
 51
1.775987005688762
  0
ARC
  5
11C
330
4C0
100
AcDbEntity
  8
DATA
  6
Continuous
 62
     7
100
AcDbCircle
 10
-496.2576379999999
 20
-437.8949257875785
 30
0.0
 40
0.4187551544755984
100
AcDbArc
 50
178.2240129943086
 51
270.2881512072587
  0
LINE
  5
11D
330
4C0
100
AcDbEntity
  8
DATA
  6
Continuous
 62
     7
100
AcDbLine
 10
-498.458486
 20
-437.8376617875785
 30
0.0
 11
-498.458486
 21
-436.2435697875785
 31
0.0
  0
LINE
  5
11E
330
4C0
100
AcDbEntity
  8
DATA
  6
Continuous
 62
     7
100
AcDbLine
 10
-500.617154
 20
-435.2915437875785
 30
0.0
 11
-500.0747179999999
 21
-435.2915437875785
 31
0.0
  0
LINE
  5
11F
330
4C0
100
AcDbEntity
  8
DATA
  6
Continuous
 62
     7
100
AcDbLine
 10
-503.3071879999997
 20
-432.8007697875785
 30
0.0
 11
-502.2001759999998
 21
-432.8007697875785
 31
0.0
  0
LINE
  5
120
330
4C0
100
AcDbEntity
  8
DATA
  6
Continuous
 62
     7
100
AcDbLine
 10
-505.5101419999998
 20
-432.8007697875785
 30
0.0
 11
-503.7278539999999
 21
-432.8007697875785
 31
0.0
  0
LINE
  5
121
330
4C0
100
AcDbEntity
  8
DATA
  6
Continuous
 62
     7
100
AcDbLine
 10
-497.8274899999998
 20
-432.8007697875785
 30
0.0
 11
-496.6761979999999
 21
-432.8007697875785
 31
0.0
  0
LINE
  5
122
330
4C0
100
AcDbEntity
  8
DATA
  6
Continuous
 62
     7
100
AcDbLine
 10
-501.62453
 20
-432.8007697875785
 30
0.0
 11
-499.509655923112
 21
-432.8007746438228
 31
0.0
  0
LINE
  5
123
330
4C0
100
AcDbEntity
  8
DATA
  6
Continuous
 62
     7
100
AcDbLine
 10
-500.617154
 20
-433.3653457875785
 30
0.0
 11
-500.0747179999999
 21
-433.3653457875785
 31
0.0
  0
ARC
  5
124
330
4C0
100
AcDbEntity
  8
DATA
  6
Continuous
 62
     7
100
AcDbCircle
 10
-500.0683127224378
 20
-437.1839750112263
 30
0.0
 40
1.052232272029044
100
AcDbArc
 50
269.6512199376164
 51
282.8264828068606
  0
ARC
  5
125
330
4C0
100
AcDbEntity
  8
DATA
  6
Continuous
 62
     7
100
AcDbCircle
 10
-499.95013038352
 20
-437.6288379743148
 30
0.0
 40
0.592462742215964
100
AcDbArc
 50
281.2331036226737
 51
306.8620088940741
  0
ARC
  5
126
330
4C0
100
AcDbEntity
  8
DATA
  6
Continuous
 62
     7
100
AcDbCircle
 10
-499.711531181856
 20
-436.151970214702
 30
0.0
 40
0.1912698688912553
100
AcDbArc
 50
5.732980710609211
 51
52.35809750237796
  0
ARC
  5
127
330
4C0
100
AcDbEntity
  8
DATA
  6
Continuous
 62
     7
100
AcDbCircle
 10
-500.0683127224378
 20
-436.9193965639306
 30
0.0
 40
1.052232272029033
100
AcDbArc
 50
77.17351719312732
 51
90.34878006238363
  0
ARC
  5
128
330
4C0
100
AcDbEntity
  8
DATA
  6
Continuous
 62
     7
100
AcDbCircle
 10
-499.95013038352
 20
-436.4745336008422
 30
0.0
 40
0.5924627422160535
100
AcDbArc
 50
53.13799110592596
 51
78.76689637732623
  0
ARC
  5
129
330
4C0
100
AcDbEntity
  8
DATA
  6
Continuous
 62
     7
100
AcDbCircle
 10
-499.039094
 20
-436.2828157875784
 30
0.0
 40
0.5819328983482378
100
AcDbArc
 50
3.867006359821239
 51
88.36163456789494
  0
ARC
  5
12A
330
4C0
100
AcDbEntity
  8
DATA
  6
Continuous
 62
     7
100
AcDbCircle
 10
-499.0396279999999
 20
-435.1188637875785
 30
0.0
 40
0.582511163968581
100
AcDbArc
 50
271.6892821046556
 51
356.0782829826532
  0
ARC
  5
12B
330
4C0
100
AcDbEntity
  8
DATA
  6
Continuous
 62
     7
100
AcDbCircle
 10
-499.711531181856
 20
-435.006757360455
 30
0.0
 40
0.191269868891166
100
AcDbArc
 50
307.6419024976325
 51
354.2670192893908
  0
ARC
  5
12C
330
4C0
100
AcDbEntity
  8
DATA
  6
Continuous
 62
     7
100
AcDbCircle
 10
-500.0683127224378
 20
-434.2393310112263
 30
0.0
 40
1.052232272029044
100
AcDbArc
 50
269.6512199376164
 51
282.8264828068606
  0
ARC
  5
12D
330
4C0
100
AcDbEntity
  8
DATA
  6
Continuous
 62
     7
100
AcDbCircle
 10
-499.95013038352
 20
-434.6841939743147
 30
0.0
 40
0.592462742215964
100
AcDbArc
 50
281.2331036226737
 51
306.8620088940741
  0
ARC
  5
12E
330
4C0
100
AcDbEntity
  8
DATA
  6
Continuous
 62
     7
100
AcDbCircle
 10
-499.711531181856
 20
-433.650132214702
 30
0.0
 40
0.1912698688912553
100
AcDbArc
 50
5.732980710609211
 51
52.35809750237796
  0
ARC
  5
12F
330
4C0
100
AcDbEntity
  8
DATA
  6
Continuous
 62
     7
100
AcDbCircle
 10
-500.0683127224378
 20
-434.4175585639306
 30
0.0
 40
1.052232272029088
100
AcDbArc
 50
77.17351719312801
 51
90.34878006238363
  0
ARC
  5
130
330
4C0
100
AcDbEntity
  8
DATA
  6
Continuous
 62
     7
100
AcDbCircle
 10
-499.95013038352
 20
-433.9726956008422
 30
0.0
 40
0.5924627422160535
100
AcDbArc
 50
53.13799110592596
 51
78.76689637734782
  0
LINE
  5
131
330
4C0
100
AcDbEntity
  8
DATA
  6
Continuous
 62
     7
100
AcDbLine
 10
-508.0
 20
-442.5540877875785
 30
0.0
 11
-492.0
 21
-442.5540877875785
 31
0.0
  0
TEXT
  5
132
330
4C0
100
AcDbEntity
  8
DATA
 62
     7
100
AcDbText
 10
-506.9994923683449
 20
-444.6863767415715
 30
0.0
 40
1.764577907986111
  1
PROFESSIONAL
 41
0.7
 72
     1
 11
-500.0
 21
-443.8040877875785
 31
0.0
100
AcDbText
 73
     2
  0
LINE
  5
133
330
4C0
100
AcDbEntity
  8
DATA
  6
Continuous
 62
     7
100
AcDbLine
 10
-551.0
 20
-448.5
 30
0.0
 11
-551.0
 21
-553.5
 31
0.0
  0
ARC
  5
134
330
4C0
100
AcDbEntity
  8
DATA
  6
Continuous
 62
     7
100
AcDbCircle
 10
-500.0
 20
-448.5
 30
0.0
 40
51.0
100
AcDbArc
 50
0.0
 51
180.0
  0
ARC
  5
135
330
4C0
100
AcDbEntity
  8
DATA
  6
Continuous
 62
     7
100
AcDbCircle
 10
-500.0
 20
-553.5
 30
0.0
 40
51.0
100
AcDbArc
 50
180.0
 51
0.0
  0
LINE
  5
136
330
4C0
100
AcDbEntity
  8
DATA
  6
Continuous
 62
     7
100
AcDbLine
 10
-449.0
 20
-448.5
 30
0.0
 11
-449.0
 21
-553.5
 31
0.0
  0
LINE
  5
137
330
4C0
100
AcDbEntity
  8
DATA
  6
Continuous
 62
     7
100
AcDbLine
 10
-553.2063794095474
 20
-680.5540877875785
 30
0.0
 11
-446.7936205904525
 21
-680.5540877875785
 31
0.0
  0
LINE
  5
138
330
4C0
100
AcDbEntity
  8
DATA
  6
Continuous
 62
     7
100
AcDbLine
 10
-529.0
 20
-805.5540877875783
 30
0.0
 11
-471.0
 21
-805.5540877875783
 31
0.0
  0
LINE
  5
139
330
4C0
100
AcDbEntity
  8
DATA
  6
Continuous
 62
     7
100
AcDbLine
 10
-576.4999999999999
 20
-737.5540877875784
 30
0.0
 11
-542.4999999999999
 21
-737.5540877875784
 31
0.0
  0
LINE
  5
13A
330
4C0
100
AcDbEntity
  8
DATA
  6
Continuous
 62
     7
100
AcDbLine
 10
-457.5
 20
-737.5540877875784
 30
0.0
 11
-423.5
 21
-737.5540877875784
 31
0.0
  0
ARC
  5
13B
330
4C0
100
AcDbEntity
  8
DATA
  6
Continuous
 62
     7
100
AcDbCircle
 10
-517.7344020765353
 20
-748.6292023630078
 30
0.0
 40
58.02892621075882
100
AcDbArc
 50
186.8537286014626
 51
258.8056495371267
  0
ARC
  5
13C
330
4C0
100
AcDbEntity
  8
DATA
  6
Continuous
 62
     7
100
AcDbCircle
 10
-246.2565757516955
 20
-725.4212911233804
 30
0.0
 40
330.4687316900708
100
AcDbArc
 50
182.1158500653087
 51
185.2316097610942
  0
ARC
  5
13D
330
4C0
100
AcDbEntity
  8
DATA
  6
Continuous
 62
     7
100
AcDbCircle
 10
-482.2655979234643
 20
-748.6292023630078
 30
0.0
 40
58.02892621075859
100
AcDbArc
 50
281.194350462873
 51
353.1462713985373
  0
ARC
  5
13E
330
4C0
100
AcDbEntity
  8
DATA
  6
Continuous
 62
     7
100
AcDbCircle
 10
-753.7434242483044
 20
-725.4212911233804
 30
0.0
 40
330.4687316900706
100
AcDbArc
 50
354.7683902389057
 51
357.8841499346913
  0
ARC
  5
13F
330
4C0
100
AcDbEntity
  8
DATA
  6
Continuous
 62
     7
100
AcDbCircle
 10
-517.7344020765353
 20
-726.4789732121491
 30
0.0
 40
58.02892621075861
100
AcDbArc
 50
127.68218196831
 51
173.1462713985373
  0
ARC
  5
140
330
4C0
100
AcDbEntity
  8
DATA
  6
Continuous
 62
     7
100
AcDbCircle
 10
-246.2565757516955
 20
-749.6868844517764
 30
0.0
 40
330.4687316900708
100
AcDbArc
 50
174.7683902389058
 51
177.8841499346912
  0
ARC
  5
141
330
4C0
100
AcDbEntity
  8
DATA
  6
Continuous
 62
     7
100
AcDbCircle
 10
-482.2655979234643
 20
-726.4789732121491
 30
0.0
 40
58.02892621075861
100
AcDbArc
 50
6.853728601462662
 51
52.31781803168992
  0
ARC
  5
142
330
4C0
100
AcDbEntity
  8
DATA
  6
Continuous
 62
     7
100
AcDbCircle
 10
-753.7434242483044
 20
-749.6868844517764
 30
0.0
 40
330.4687316900706
100
AcDbArc
 50
2.115850065308732
 51
5.231609761094254
  0
CIRCLE
  5
143
330
4C0
100
AcDbEntity
  8
DATA
  6
Continuous
 62
     7
100
AcDbCircle
 10
-500.0
 20
-737.5540877875784
 30
0.0
 40
42.5
  0
CIRCLE
  5
144
330
4C0
100
AcDbEntity
  8
DATA
  6
Continuous
 62
     7
100
AcDbCircle
 10
-500.0
 20
-737.5540877875784
 30
0.0
 40
36.0
  0
CIRCLE
  5
145
330
4C0
100
AcDbEntity
  8
DATA
  6
Continuous
 62
     7
100
AcDbCircle
 10
-500.0
 20
-737.5540877875784
 30
0.0
 40
41.5
  0
LINE
  5
146
330
4C0
100
AcDbEntity
  8
DATA
  6
Continuous
 62
     7
100
AcDbLine
 10
-542.4999999999999
 20
-616.0540877875785
 30
0.0
 11
-457.5
 21
-616.0540877875785
 31
0.0
  0
LINE
  5
147
330
4C0
100
AcDbEntity
  8
DATA
  6
Continuous
 62
     7
100
AcDbLine
 10
-385.5
 20
-616.0540877875785
 30
0.0
 11
-300.5
 21
-616.0540877875785
 31
0.0
  0
ARC
  5
148
330
4C0
100
AcDbEntity
  8
DATA
  6
Continuous
 62
     7
100
AcDbCircle
 10
-500.0
 20
-552.4459122124214
 30
0.0
 40
76.5
100
AcDbArc
 50
180.0
 51
236.2510114041114
  0
ARC
  5
149
330
4C0
100
AcDbEntity
  8
DATA
  6
Continuous
 62
     7
100
AcDbCircle
 10
-500.0
 20
-552.4459122124214
 30
0.0
 40
76.50000000000002
100
AcDbArc
 50
303.7489885958885
 51
0.0
  0
ARC
  5
14A
330
4C0
100
AcDbEntity
  8
DATA
  6
Continuous
 62
     7
100
AcDbCircle
 10
-332.3125614441985
 20
-517.2130294447758
 30
0.0
 40
112.2428547144648
100
AcDbArc
 50
232.911741998733
 51
241.7148264836512
  0
ARC
  5
14B
330
4C0
100
AcDbEntity
  8
DATA
  6
Continuous
 62
     7
100
AcDbCircle
 10
-340.4880494219981
 20
-560.7269666269814
 30
0.0
 40
68.26517730509133
100
AcDbArc
 50
305.8577748207243
 51
343.6009241102381
  0
LINE
  5
14C
330
4C0
100
AcDbEntity
  8
DATA
  6
Continuous
 62
     7
100
AcDbLine
 10
-541.5
 20
-618.0540877875785
 30
0.0
 11
-541.5
 21
-616.0540877875785
 31
0.0
  0
LINE
  5
14D
330
4C0
100
AcDbEntity
  8
DATA
  6
Continuous
 62
     7
100
AcDbLine
 10
-458.4999999999999
 20
-618.0540877875785
 30
0.0
 11
-458.4999999999999
 21
-616.0540877875785
 31
0.0
  0
LINE
  5
14E
330
4C0
100
AcDbEntity
  8
DATA
  6
Continuous
 62
     7
100
AcDbLine
 10
-384.5
 20
-618.0540877875785
 30
0.0
 11
-301.5
 21
-618.0540877875785
 31
0.0
  0
LINE
  5
14F
330
4C0
100
AcDbEntity
  8
DATA
  6
Continuous
 62
     7
100
AcDbLine
 10
-384.5
 20
-618.0540877875785
 30
0.0
 11
-384.5
 21
-616.0540877875785
 31
0.0
  0
LINE
  5
150
330
4C0
100
AcDbEntity
  8
DATA
  6
Continuous
 62
     7
100
AcDbLine
 10
-301.5
 20
-618.0540877875785
 30
0.0
 11
-301.5
 21
-616.0540877875785
 31
0.0
  0
LINE
  5
151
330
4C0
100
AcDbEntity
  8
DATA
  6
Continuous
 62
     7
100
AcDbLine
 10
98.50000000000001
 20
-552.4459122124214
 30
0.0
 11
98.50000000000001
 21
-447.5540877875785
 31
0.0
  0
LINE
  5
152
330
4C0
100
AcDbEntity
  8
DATA
  6
Continuous
 62
     7
100
AcDbLine
 10
275.0
 20
-606.7499999999999
 30
0.0
 11
275.0
 21
-393.25
 31
0.0
  0
LINE
  5
153
330
4C0
100
AcDbEntity
  8
DATA
  6
Continuous
 62
     7
100
AcDbLine
 10
400.0
 20
-420.0
 30
0.0
 11
400.0
 21
-579.9999999999998
 31
0.0
  0
LINE
  5
154
330
4C0
100
AcDbEntity
  8
DATA
  6
Continuous
 62
     7
100
AcDbLine
 10
121.7936205904523
 20
-319.5540877875785
 30
0.0
 11
228.2063794095475
 21
-319.5540877875785
 31
0.0
  0
LINE
  5
155
330
4C0
100
AcDbEntity
  8
DATA
  6
Continuous
 62
     7
100
AcDbLine
 10
146.0
 20
-193.0540877875785
 30
0.0
 11
204.0
 21
-193.0540877875785
 31
0.0
  0
ARC
  5
156
330
4C0
100
AcDbEntity
  8
DATA
  6
Continuous
 62
     7
100
AcDbCircle
 10
175.0
 20
-447.5540877875785
 30
0.0
 40
76.5
100
AcDbArc
 50
0.0
 51
180.0
  0
LINE
  5
157
330
4C0
100
AcDbEntity
  8
DATA
  6
Continuous
 62
     7
100
AcDbLine
 10
98.50000000000001
 20
-261.0540877875784
 30
0.0
 11
251.5
 21
-261.0540877875784
 31
0.0
  0
LINE
  5
158
330
4C0
100
AcDbEntity
  8
DATA
  6
Continuous
 62
     7
100
AcDbLine
 10
332.0
 20
-371.0540877875785
 30
0.0
 11
332.0
 21
-616.0540877875785
 31
0.0
  0
ARC
  5
159
330
4C0
100
AcDbEntity
  8
DATA
  6
Continuous
 62
     7
100
AcDbCircle
 10
157.2655979234645
 20
-249.9789732121493
 30
0.0
 40
58.02892621075866
100
AcDbArc
 50
101.1943504628731
 51
173.1462713985373
  0
ARC
  5
15A
330
4C0
100
AcDbEntity
  8
DATA
  6
Continuous
 62
     7
100
AcDbCircle
 10
428.7434242483045
 20
-273.1868844517765
 30
0.0
 40
330.4687316900707
100
AcDbArc
 50
174.7683902389058
 51
177.8841499346912
  0
ARC
  5
15B
330
4C0
100
AcDbEntity
  8
DATA
  6
Continuous
 62
     7
100
AcDbCircle
 10
192.7344020765355
 20
-249.9789732121493
 30
0.0
 40
58.02892621075861
100
AcDbArc
 50
6.853728601462718
 51
78.80564953712689
  0
ARC
  5
15C
330
4C0
100
AcDbEntity
  8
DATA
  6
Continuous
 62
     7
100
AcDbCircle
 10
-78.74342424830444
 20
-273.1868844517765
 30
0.0
 40
330.4687316900707
100
AcDbArc
 50
2.115850065308752
 51
5.231609761094264
  0
ARC
  5
15D
330
4C0
100
AcDbEntity
  8
DATA
  6
Continuous
 62
     7
100
AcDbCircle
 10
157.2655979234645
 20
-272.1292023630078
 30
0.0
 40
58.02892621075871
100
AcDbArc
 50
186.8537286014626
 51
232.3178180316898
  0
ARC
  5
15E
330
4C0
100
AcDbEntity
  8
DATA
  6
Continuous
 62
     7
100
AcDbCircle
 10
428.7434242483045
 20
-248.9212911233805
 30
0.0
 40
330.4687316900707
100
AcDbArc
 50
182.1158500653087
 51
185.2316097610942
  0
ARC
  5
15F
330
4C0
100
AcDbEntity
  8
DATA
  6
Continuous
 62
     7
100
AcDbCircle
 10
192.7344020765355
 20
-272.1292023630078
 30
0.0
 40
58.02892621075861
100
AcDbArc
 50
307.68218196831
 51
353.1462713985373
  0
ARC
  5
160
330
4C0
100
AcDbEntity
  8
DATA
  6
Continuous
 62
     7
100
AcDbCircle
 10
-78.74342424830444
 20
-248.9212911233805
 30
0.0
 40
330.4687316900706
100
AcDbArc
 50
354.7683902389057
 51
357.8841499346913
  0
LINE
  5
161
330
4C0
100
AcDbEntity
  8
DATA
  6
Continuous
 62
     7
100
AcDbLine
 10
133.5
 20
-618.0540877875785
 30
0.0
 11
216.5
 21
-618.0540877875785
 31
0.0
  0
LINE
  5
162
330
4C0
100
AcDbEntity
  8
DATA
  6
Continuous
 62
     7
100
AcDbLine
 10
121.7936205904523
 20
-446.4563794095476
 30
0.0
 11
121.7936205904523
 21
-555.5436205904523
 31
0.0
  0
LINE
  5
163
330
4C0
100
AcDbEntity
  8
DATA
  6
Continuous
 62
     7
100
AcDbLine
 10
228.2063794095475
 20
-446.4563794095476
 30
0.0
 11
228.2063794095475
 21
-555.5436205904523
 31
0.0
  0
ARC
  5
164
330
4C0
100
AcDbEntity
  8
DATA
  6
Continuous
 62
     7
100
AcDbCircle
 10
175.0
 20
-555.5436205904523
 30
0.0
 40
53.2063794095477
100
AcDbArc
 50
180.0
 51
0.0
  0
ARC
  5
165
330
4C0
100
AcDbEntity
  8
DATA
  6
Continuous
 62
     7
100
AcDbCircle
 10
175.0
 20
-446.4563794095476
 30
0.0
 40
53.2063794095476
100
AcDbArc
 50
0.0
 51
180.0
  0
LINE
  5
166
330
4C0
100
AcDbEntity
  8
DATA
  6
Continuous
 62
     7
100
AcDbLine
 10
251.5
 20
-447.5540877875785
 30
0.0
 11
251.5
 21
-552.4459122124214
 31
0.0
  0
ARC
  5
167
330
4C0
100
AcDbEntity
  8
DATA
  6
Continuous
 62
     7
100
AcDbCircle
 10
342.6874385558014
 20
-482.786970555224
 30
0.0
 40
112.2428547144648
100
AcDbArc
 50
95.46381507953972
 51
127.088258001267
  0
ARC
  5
168
330
4C0
100
AcDbEntity
  8
DATA
  6
Continuous
 62
     7
100
AcDbCircle
 10
334.5119505780018
 20
-439.2730333730185
 30
0.0
 40
68.26517730509142
100
AcDbArc
 50
16.39907588976186
 51
92.10878622483573
  0
LWPOLYLINE
  5
169
330
4C0
100
AcDbEntity
  8
DATA
  6
Continuous
 62
     7
100
AcDbPolyline
 90
        4
 70
     1
 43
0.0
 10
167.0
 20
-429.0540877875785
 10
183.0
 20
-429.0540877875785
 10
183.0
 20
-445.0540877875785
 10
167.0
 20
-445.0540877875785
  0
ARC
  5
170
330
4C0
100
AcDbEntity
  8
DATA
  6
Continuous
 62
     7
100
AcDbCircle
 10
171.470668
 20
-437.2600897875785
 30
0.0
 40
1.547312055100687
100
AcDbArc
 50
264.6908562215334
 51
323.9911991542413
  0
ARC
  5
171
330
4C0
100
AcDbEntity
  8
DATA
  6
Continuous
 62
     7
100
AcDbCircle
 10
171.1843299999999
 20
-437.2600897875785
 30
0.0
 40
1.547309542167864
100
AcDbArc
 50
216.0088008457596
 51
275.3091437784666
  0
ARC
  5
172
330
4C0
100
AcDbEntity
  8
DATA
  6
Continuous
 62
     7
100
AcDbCircle
 10
175.40251
 20
-437.6617417875785
 30
0.0
 40
1.141566847030839
100
AcDbArc
 50
273.8309816091158
 51
351.1351473098015
  0
ARC
  5
173
330
4C0
100
AcDbEntity
  8
DATA
  6
Continuous
 62
     7
100
AcDbCircle
 10
175.4138919999999
 20
-433.9380457875785
 30
0.0
 40
1.139837959747025
100
AcDbArc
 50
8.226923859016626
 51
86.15412669215212
  0
ARC
  5
174
330
4C0
100
AcDbEntity
  8
DATA
  6
Continuous
 62
     7
100
AcDbCircle
 10
175.2884688181439
 20
-437.951401360455
 30
0.0
 40
0.1912698688910721
100
AcDbArc
 50
307.641902497568
 51
354.2670192893873
  0
LINE
  5
175
330
4C0
100
AcDbEntity
  8
DATA
  6
Continuous
 62
     7
100
AcDbLine
 10
170.3754699999999
 20
-434.9372977875785
 30
0.0
 11
171.2721459999999
 21
-432.8007697875785
 31
0.0
  0
LINE
  5
176
330
4C0
100
AcDbEntity
  8
DATA
  6
Continuous
 62
     7
100
AcDbLine
 10
170.3754699999999
 20
-434.9372977875785
 30
0.0
 11
169.489858
 21
-432.8007697875785
 31
0.0
  0
LINE
  5
177
330
4C0
100
AcDbEntity
  8
DATA
  6
Continuous
 62
     7
100
AcDbLine
 10
177.17251
 20
-438.8007697875785
 30
0.0
 11
177.17251
 21
-432.8007697875785
 31
0.0
  0
LINE
  5
178
330
4C0
100
AcDbEntity
  8
DATA
  6
Continuous
 62
     7
100
AcDbLine
 10
178.323802
 20
-432.8007697875785
 30
0.0
 11
178.323802
 21
-437.8819537875784
 31
0.0
  0
LINE
  5
179
330
4C0
100
AcDbEntity
  8
DATA
  6
Continuous
 62
     7
100
AcDbLine
 10
171.692812
 20
-432.8007697875785
 30
0.0
 11
171.692812
 21
-437.8819537875784
 31
0.0
  0
LINE
  5
17A
330
4C0
100
AcDbEntity
  8
DATA
  6
Continuous
 62
     7
100
AcDbLine
 10
172.7998239999999
 20
-432.8007697875785
 30
0.0
 11
172.7998239999999
 21
-437.8819537875784
 31
0.0
  0
LINE
  5
17B
330
4C0
100
AcDbEntity
  8
DATA
  6
Continuous
 62
     7
100
AcDbLine
 10
173.3754699999999
 20
-432.8007697875785
 30
0.0
 11
173.3754699999999
 21
-438.8007697875785
 31
0.0
  0
LINE
  5
17C
330
4C0
100
AcDbEntity
  8
DATA
  6
Continuous
 62
     7
100
AcDbLine
 10
174.3828519999999
 20
-433.3653397875785
 30
0.0
 11
174.3828519999999
 21
-435.2915437875785
 31
0.0
  0
LINE
  5
17D
330
4C0
100
AcDbEntity
  8
DATA
  6
Continuous
 62
     7
100
AcDbLine
 10
176.542
 20
-435.1800877875785
 30
0.0
 11
176.542
 21
-433.7749417875785
 31
0.0
  0
LINE
  5
17E
330
4C0
100
AcDbEntity
  8
DATA
  6
Continuous
 62
     7
100
AcDbLine
 10
175.478782
 20
-433.6310257875784
 30
0.0
 11
175.478782
 21
-435.0258637875786
 31
0.0
  0
LINE
  5
17F
330
4C0
100
AcDbEntity
  8
DATA
  6
Continuous
 62
     7
100
AcDbLine
 10
170.8514859999999
 20
-436.9188457875785
 30
0.0
 11
170.8514859999999
 21
-437.8819417875785
 31
0.0
  0
LINE
  5
180
330
4C0
100
AcDbEntity
  8
DATA
  6
Continuous
 62
     7
100
AcDbLine
 10
170.8514859999999
 20
-436.9188457875785
 30
0.0
 11
169.8551739999999
 21
-436.9188457875785
 31
0.0
  0
LINE
  5
181
330
4C0
100
AcDbEntity
  8
DATA
  6
Continuous
 62
     7
100
AcDbLine
 10
169.8551739999999
 20
-436.9188457875785
 30
0.0
 11
169.8551739999999
 21
-437.8819417875785
 31
0.0
  0
ARC
  5
182
330
4C0
100
AcDbEntity
  8
DATA
  6
Continuous
 62
     7
100
AcDbCircle
 10
171.274258
 20
-437.8949257875785
 30
0.0
 40
0.4187572957453832
100
AcDbArc
 50
269.7118487927472
 51
1.775987005688762
  0
ARC
  5
183
330
4C0
100
AcDbEntity
  8
DATA
  6
Continuous
 62
     7
100
AcDbCircle
 10
171.27004
 20
-437.8949257875785
 30
0.0
 40
0.4187551544758256
100
AcDbArc
 50
178.2240129943096
 51
270.2881512072432
  0
ARC
  5
184
330
4C0
100
AcDbEntity
  8
DATA
  6
Continuous
 62
     7
100
AcDbCircle
 10
170.554438
 20
-437.8480237875786
 30
0.0
 40
0.7000801249058123
100
AcDbArc
 50
182.7769954499909
 51
207.3596066671424
  0
CIRCLE
  5
185
330
4C0
100
AcDbEntity
  8
DATA
  6
Continuous
 62
     7
100
AcDbCircle
 10
170.436358
 20
-435.7675597875785
 30
0.0
 40
0.5701079999998911
  0
LINE
  5
186
330
4C0
100
AcDbEntity
  8
DATA
  6
Continuous
 62
     7
100
AcDbLine
 10
180.17251
 20
-438.8007637875785
 30
0.0
 11
180.17251
 21
-436.9188397875785
 31
0.0
  0
LINE
  5
187
330
4C0
100
AcDbEntity
  8
DATA
  6
Continuous
 62
     7
100
AcDbLine
 10
180.17251
 20
-436.9188457875785
 30
0.0
 11
179.1651339999999
 21
-436.9188457875785
 31
0.0
  0
LINE
  5
188
330
4C0
100
AcDbEntity
  8
DATA
  6
Continuous
 62
     7
100
AcDbLine
 10
179.1651339999999
 20
-436.9188457875785
 30
0.0
 11
179.1651339999999
 21
-437.8819417875785
 31
0.0
  0
LINE
  5
189
330
4C0
100
AcDbEntity
  8
DATA
  6
Continuous
 62
     7
100
AcDbLine
 10
173.3754699999999
 20
-438.8007637875785
 30
0.0
 11
175.478782
 21
-438.8007577875785
 31
0.0
  0
LINE
  5
18A
330
4C0
100
AcDbEntity
  8
DATA
  6
Continuous
 62
     7
100
AcDbLine
 10
174.382846
 20
-438.2361877875784
 30
0.0
 11
174.925282
 21
-438.2361877875784
 31
0.0
  0
LINE
  5
18B
330
4C0
100
AcDbEntity
  8
DATA
  6
Continuous
 62
     7
100
AcDbLine
 10
174.3828519999999
 20
-438.2361877875784
 30
0.0
 11
174.3828519999999
 21
-435.8671837875785
 31
0.0
  0
LINE
  5
18C
330
4C0
100
AcDbEntity
  8
DATA
  6
Continuous
 62
     7
100
AcDbLine
 10
174.382846
 20
-435.8671837875785
 30
0.0
 11
174.925282
 21
-435.8671837875785
 31
0.0
  0
LINE
  5
18D
330
4C0
100
AcDbEntity
  8
DATA
  6
Continuous
 62
     7
100
AcDbLine
 10
175.478782
 20
-437.9705077875785
 30
0.0
 11
175.478782
 21
-436.1328637875785
 31
0.0
  0
ARC
  5
18E
330
4C0
100
AcDbEntity
  8
DATA
  6
Continuous
 62
     7
100
AcDbCircle
 10
172.1005599999999
 20
-437.8480237875786
 30
0.0
 40
0.7000791287190019
100
AcDbArc
 50
332.6403933328513
 51
357.223004550008
  0
ARC
  5
18F
330
4C0
100
AcDbEntity
  8
DATA
  6
Continuous
 62
     7
100
AcDbCircle
 10
178.746574
 20
-437.8949257875785
 30
0.0
 40
0.4187572957453832
100
AcDbArc
 50
269.7118487927472
 51
1.775987005688307
  0
ARC
  5
190
330
4C0
100
AcDbEntity
  8
DATA
  6
Continuous
 62
     7
100
AcDbCircle
 10
178.7423619999999
 20
-437.8949257875785
 30
0.0
 40
0.4187551544757119
100
AcDbArc
 50
178.2240129943091
 51
270.2881512072432
  0
LINE
  5
191
330
4C0
100
AcDbEntity
  8
DATA
  6
Continuous
 62
     7
100
AcDbLine
 10
176.541514
 20
-437.8376617875785
 30
0.0
 11
176.541514
 21
-436.2435697875785
 31
0.0
  0
LINE
  5
192
330
4C0
100
AcDbEntity
  8
DATA
  6
Continuous
 62
     7
100
AcDbLine
 10
174.382846
 20
-435.2915437875785
 30
0.0
 11
174.925282
 21
-435.2915437875785
 31
0.0
  0
LINE
  5
193
330
4C0
100
AcDbEntity
  8
DATA
  6
Continuous
 62
     7
100
AcDbLine
 10
171.692812
 20
-432.8007697875785
 30
0.0
 11
172.7998239999999
 21
-432.8007697875785
 31
0.0
  0
LINE
  5
194
330
4C0
100
AcDbEntity
  8
DATA
  6
Continuous
 62
     7
100
AcDbLine
 10
169.489858
 20
-432.8007697875785
 30
0.0
 11
171.2721459999999
 21
-432.8007697875785
 31
0.0
  0
LINE
  5
195
330
4C0
100
AcDbEntity
  8
DATA
  6
Continuous
 62
     7
100
AcDbLine
 10
177.17251
 20
-432.8007697875785
 30
0.0
 11
178.323802
 21
-432.8007697875785
 31
0.0
  0
LINE
  5
196
330
4C0
100
AcDbEntity
  8
DATA
  6
Continuous
 62
     7
100
AcDbLine
 10
173.3754699999999
 20
-432.8007697875785
 30
0.0
 11
175.4903440768879
 21
-432.8007746438228
 31
0.0
  0
LINE
  5
197
330
4C0
100
AcDbEntity
  8
DATA
  6
Continuous
 62
     7
100
AcDbLine
 10
174.382846
 20
-433.3653457875785
 30
0.0
 11
174.925282
 21
-433.3653457875785
 31
0.0
  0
ARC
  5
198
330
4C0
100
AcDbEntity
  8
DATA
  6
Continuous
 62
     7
100
AcDbCircle
 10
174.9316872775619
 20
-437.1839750112263
 30
0.0
 40
1.052232272029043
100
AcDbArc
 50
269.6512199376225
 51
282.8264828068727
  0
ARC
  5
199
330
4C0
100
AcDbEntity
  8
DATA
  6
Continuous
 62
     7
100
AcDbCircle
 10
175.04986961648
 20
-437.6288379743148
 30
0.0
 40
0.5924627422159419
100
AcDbArc
 50
281.233103622663
 51
306.8620088940565
  0
ARC
  5
19A
330
4C0
100
AcDbEntity
  8
DATA
  6
Continuous
 62
     7
100
AcDbCircle
 10
175.2884688181439
 20
-436.151970214702
 30
0.0
 40
0.1912698688911422
100
AcDbArc
 50
5.732980710612612
 51
52.35809750243191
  0
ARC
  5
19B
330
4C0
100
AcDbEntity
  8
DATA
  6
Continuous
 62
     7
100
AcDbCircle
 10
174.9316872775619
 20
-436.9193965639306
 30
0.0
 40
1.052232272029058
100
AcDbArc
 50
77.17351719312131
 51
90.34878006237743
  0
ARC
  5
19C
330
4C0
100
AcDbEntity
  8
DATA
  6
Continuous
 62
     7
100
AcDbCircle
 10
175.04986961648
 20
-436.4745336008422
 30
0.0
 40
0.5924627422159171
100
AcDbArc
 50
53.13799110594353
 51
78.76689637733702
  0
ARC
  5
19D
330
4C0
100
AcDbEntity
  8
DATA
  6
Continuous
 62
     7
100
AcDbCircle
 10
175.9609059999999
 20
-436.2828157875784
 30
0.0
 40
0.5819328983483513
100
AcDbArc
 50
3.867006359820484
 51
88.3616345678949
  0
ARC
  5
19E
330
4C0
100
AcDbEntity
  8
DATA
  6
Continuous
 62
     7
100
AcDbCircle
 10
175.960372
 20
-435.1188637875785
 30
0.0
 40
0.5825111639685776
100
AcDbArc
 50
271.6892821046444
 51
356.0782829826525
  0
ARC
  5
19F
330
4C0
100
AcDbEntity
  8
DATA
  6
Continuous
 62
     7
100
AcDbCircle
 10
175.2884688181439
 20
-435.006757360455
 30
0.0
 40
0.1912698688910271
100
AcDbArc
 50
307.6419024975785
 51
354.2670192893873
  0
ARC
  5
1A0
330
4C0
100
AcDbEntity
  8
DATA
  6
Continuous
 62
     7
100
AcDbCircle
 10
174.9316872775619
 20
-434.2393310112263
 30
0.0
 40
1.052232272029043
100
AcDbArc
 50
269.6512199376225
 51
282.8264828068727
  0
ARC
  5
1A1
330
4C0
100
AcDbEntity
  8
DATA
  6
Continuous
 62
     7
100
AcDbCircle
 10
175.04986961648
 20
-434.6841939743147
 30
0.0
 40
0.5924627422159419
100
AcDbArc
 50
281.233103622663
 51
306.8620088940565
  0
ARC
  5
1A2
330
4C0
100
AcDbEntity
  8
DATA
  6
Continuous
 62
     7
100
AcDbCircle
 10
175.2884688181439
 20
-433.650132214702
 30
0.0
 40
0.1912698688911422
100
AcDbArc
 50
5.732980710612612
 51
52.35809750243191
  0
ARC
  5
1A3
330
4C0
100
AcDbEntity
  8
DATA
  6
Continuous
 62
     7
100
AcDbCircle
 10
174.9316872775619
 20
-434.4175585639306
 30
0.0
 40
1.052232272029113
100
AcDbArc
 50
77.17351719312198
 51
90.34878006237743
  0
ARC
  5
1A4
330
4C0
100
AcDbEntity
  8
DATA
  6
Continuous
 62
     7
100
AcDbCircle
 10
175.04986961648
 20
-433.9726956008422
 30
0.0
 40
0.5924627422159171
100
AcDbArc
 50
53.13799110594353
 51
78.76689637734782
  0
LINE
  5
1A5
330
4C0
100
AcDbEntity
  8
DATA
  6
Continuous
 62
     7
100
AcDbLine
 10
167.0
 20
-442.5540877875785
 30
0.0
 11
183.0
 21
-442.5540877875785
 31
0.0
  0
TEXT
  5
1A6
330
4C0
100
AcDbEntity
  8
DATA
 62
     7
100
AcDbText
 10
168.0005076316551
 20
-444.6863767415715
 30
0.0
 40
1.764577907986111
  1
PROFESSIONAL
 41
0.7
 72
     1
 11
175.0
 21
-443.8040877875785
 31
0.0
100
AcDbText
 73
     2
  0
LINE
  5
1A7
330
4C0
100
AcDbEntity
  8
DATA
  6
Continuous
 62
     7
100
AcDbLine
 10
124.0
 20
-448.5
 30
0.0
 11
124.0
 21
-553.5
 31
0.0
  0
ARC
  5
1A8
330
4C0
100
AcDbEntity
  8
DATA
  6
Continuous
 62
     7
100
AcDbCircle
 10
175.0
 20
-448.5
 30
0.0
 40
51.0
100
AcDbArc
 50
0.0
 51
180.0
  0
ARC
  5
1A9
330
4C0
100
AcDbEntity
  8
DATA
  6
Continuous
 62
     7
100
AcDbCircle
 10
175.0
 20
-553.5
 30
0.0
 40
51.0
100
AcDbArc
 50
180.0
 51
0.0
  0
LINE
  5
1AA
330
4C0
100
AcDbEntity
  8
DATA
  6
Continuous
 62
     7
100
AcDbLine
 10
226.0
 20
-448.5
 30
0.0
 11
226.0
 21
-553.5
 31
0.0
  0
LINE
  5
1AB
330
4C0
100
AcDbEntity
  8
DATA
  6
Continuous
 62
     7
100
AcDbLine
 10
121.7936205904523
 20
-680.5540877875785
 30
0.0
 11
228.2063794095475
 21
-680.5540877875785
 31
0.0
  0
LINE
  5
1AC
330
4C0
100
AcDbEntity
  8
DATA
  6
Continuous
 62
     7
100
AcDbLine
 10
146.0
 20
-805.5540877875783
 30
0.0
 11
204.0
 21
-805.5540877875783
 31
0.0
  0
LINE
  5
1AD
330
4C0
100
AcDbEntity
  8
DATA
  6
Continuous
 62
     7
100
AcDbLine
 10
98.50000000000001
 20
-737.5540877875784
 30
0.0
 11
132.5
 21
-737.5540877875784
 31
0.0
  0
LINE
  5
1AE
330
4C0
100
AcDbEntity
  8
DATA
  6
Continuous
 62
     7
100
AcDbLine
 10
217.5
 20
-737.5540877875784
 30
0.0
 11
251.5
 21
-737.5540877875784
 31
0.0
  0
ARC
  5
1AF
330
4C0
100
AcDbEntity
  8
DATA
  6
Continuous
 62
     7
100
AcDbCircle
 10
157.2655979234645
 20
-748.6292023630078
 30
0.0
 40
58.02892621075871
100
AcDbArc
 50
186.8537286014626
 51
258.8056495371269
  0
ARC
  5
1B0
330
4C0
100
AcDbEntity
  8
DATA
  6
Continuous
 62
     7
100
AcDbCircle
 10
428.7434242483045
 20
-725.4212911233804
 30
0.0
 40
330.4687316900707
100
AcDbArc
 50
182.1158500653087
 51
185.2316097610942
  0
ARC
  5
1B1
330
4C0
100
AcDbEntity
  8
DATA
  6
Continuous
 62
     7
100
AcDbCircle
 10
192.7344020765355
 20
-748.6292023630078
 30
0.0
 40
58.0289262107586
100
AcDbArc
 50
281.1943504628731
 51
353.1462713985373
  0
ARC
  5
1B2
330
4C0
100
AcDbEntity
  8
DATA
  6
Continuous
 62
     7
100
AcDbCircle
 10
-78.74342424830444
 20
-725.4212911233804
 30
0.0
 40
330.4687316900706
100
AcDbArc
 50
354.7683902389057
 51
357.8841499346913
  0
ARC
  5
1B3
330
4C0
100
AcDbEntity
  8
DATA
  6
Continuous
 62
     7
100
AcDbCircle
 10
157.2655979234645
 20
-726.4789732121491
 30
0.0
 40
58.02892621075868
100
AcDbArc
 50
127.6821819683102
 51
173.1462713985373
  0
ARC
  5
1B4
330
4C0
100
AcDbEntity
  8
DATA
  6
Continuous
 62
     7
100
AcDbCircle
 10
428.7434242483045
 20
-749.6868844517764
 30
0.0
 40
330.4687316900707
100
AcDbArc
 50
174.7683902389058
 51
177.8841499346912
  0
ARC
  5
1B5
330
4C0
100
AcDbEntity
  8
DATA
  6
Continuous
 62
     7
100
AcDbCircle
 10
192.7344020765355
 20
-726.4789732121491
 30
0.0
 40
58.02892621075861
100
AcDbArc
 50
6.853728601462662
 51
52.31781803168992
  0
ARC
  5
1B6
330
4C0
100
AcDbEntity
  8
DATA
  6
Continuous
 62
     7
100
AcDbCircle
 10
-78.74342424830444
 20
-749.6868844517764
 30
0.0
 40
330.4687316900707
100
AcDbArc
 50
2.115850065308732
 51
5.231609761094254
  0
CIRCLE
  5
1B7
330
4C0
100
AcDbEntity
  8
DATA
  6
Continuous
 62
     7
100
AcDbCircle
 10
175.0
 20
-737.5540877875784
 30
0.0
 40
42.5
  0
CIRCLE
  5
1B8
330
4C0
100
AcDbEntity
  8
DATA
  6
Continuous
 62
     7
100
AcDbCircle
 10
175.0
 20
-737.5540877875784
 30
0.0
 40
36.0
  0
CIRCLE
  5
1B9
330
4C0
100
AcDbEntity
  8
DATA
  6
Continuous
 62
     7
100
AcDbCircle
 10
175.0
 20
-737.5540877875784
 30
0.0
 40
41.5
  0
LINE
  5
1BA
330
4C0
100
AcDbEntity
  8
DATA
  6
Continuous
 62
     7
100
AcDbLine
 10
132.4999999999998
 20
-616.0540877875785
 30
0.0
 11
217.4999999999999
 21
-616.0540877875785
 31
0.0
  0
LINE
  5
1BB
330
4C0
100
AcDbEntity
  8
DATA
  6
Continuous
 62
     7
100
AcDbLine
 10
289.5
 20
-616.0540877875785
 30
0.0
 11
374.5
 21
-616.0540877875785
 31
0.0
  0
ARC
  5
1BC
330
4C0
100
AcDbEntity
  8
DATA
  6
Continuous
 62
     7
100
AcDbCircle
 10
175.0
 20
-552.4459122124214
 30
0.0
 40
76.5
100
AcDbArc
 50
180.0
 51
236.2510114041114
  0
ARC
  5
1BD
330
4C0
100
AcDbEntity
  8
DATA
  6
Continuous
 62
     7
100
AcDbCircle
 10
175.0
 20
-552.4459122124214
 30
0.0
 40
76.49999999999995
100
AcDbArc
 50
303.7489885958885
 51
0.0
  0
ARC
  5
1BE
330
4C0
100
AcDbEntity
  8
DATA
  6
Continuous
 62
     7
100
AcDbCircle
 10
342.6874385558014
 20
-517.2130294447758
 30
0.0
 40
112.2428547144648
100
AcDbArc
 50
232.911741998733
 51
241.7148264836512
  0
ARC
  5
1BF
330
4C0
100
AcDbEntity
  8
DATA
  6
Continuous
 62
     7
100
AcDbCircle
 10
334.5119505780018
 20
-560.7269666269814
 30
0.0
 40
68.26517730509133
100
AcDbArc
 50
305.8577748207243
 51
343.6009241102381
  0
LINE
  5
1C0
330
4C0
100
AcDbEntity
  8
DATA
  6
Continuous
 62
     7
100
AcDbLine
 10
133.5
 20
-618.0540877875785
 30
0.0
 11
133.5
 21
-616.0540877875785
 31
0.0
  0
LINE
  5
1C1
330
4C0
100
AcDbEntity
  8
DATA
  6
Continuous
 62
     7
100
AcDbLine
 10
216.5
 20
-618.0540877875785
 30
0.0
 11
216.5
 21
-616.0540877875785
 31
0.0
  0
LINE
  5
1C2
330
4C0
100
AcDbEntity
  8
DATA
  6
Continuous
 62
     7
100
AcDbLine
 10
290.5
 20
-618.0540877875785
 30
0.0
 11
373.5
 21
-618.0540877875785
 31
0.0
  0
LINE
  5
1C3
330
4C0
100
AcDbEntity
  8
DATA
  6
Continuous
 62
     7
100
AcDbLine
 10
290.5
 20
-618.0540877875785
 30
0.0
 11
290.5
 21
-616.0540877875785
 31
0.0
  0
LINE
  5
1C4
330
4C0
100
AcDbEntity
  8
DATA
  6
Continuous
 62
     7
100
AcDbLine
 10
373.5
 20
-618.0540877875785
 30
0.0
 11
373.5
 21
-616.0540877875785
 31
0.0
  0
LINE
  5
1C5
330
4C0
100
AcDbEntity
  8
DATA
  6
Continuous
 62
     7
100
AcDbLine
 10
-375.0
 20
-775.0
 30
0.0
 11
-125.0
 21
-775.0
 31
0.0
  0
LINE
  5
1C6
330
4C0
100
AcDbEntity
  8
DATA
  6
Continuous
 62
     7
100
AcDbLine
 10
287.5
 20
-775.0
 30
0.0
 11
662.5
 21
-775.0
 31
0.0
  0
LINE
  5
1C7
330
4C0
100
AcDbEntity
  8
DATA
  6
Continuous
 62
     7
100
AcDbLine
 10
-511.5
 20
-582.0
 30
0.0
 11
-511.5
 21
-556.0
 31
0.0
  0
LINE
  5
1C8
330
4C0
100
AcDbEntity
  8
DATA
  6
Continuous
 62
     7
100
AcDbLine
 10
-488.4999999999999
 20
-556.0
 30
0.0
 11
-488.4999999999999
 21
-582.0
 31
0.0
  0
ARC
  5
1C9
330
4C0
100
AcDbEntity
  8
DATA
  6
Continuous
 62
     7
100
AcDbCircle
 10
-500.0
 20
-556.0
 30
0.0
 40
11.5
100
AcDbArc
 50
0.0
 51
180.0
  0
ARC
  5
1CA
330
4C0
100
AcDbEntity
  8
DATA
  6
Continuous
 62
     7
100
AcDbCircle
 10
-500.0
 20
-582.0
 30
0.0
 40
11.5
100
AcDbArc
 50
180.0
 51
0.0
  0
CIRCLE
  5
1CB
330
4C0
100
AcDbEntity
  8
DATA
  6
Continuous
 62
     7
100
AcDbCircle
 10
-500.0
 20
-557.0
 30
0.0
 40
5.5
  0
CIRCLE
  5
1CC
330
4C0
100
AcDbEntity
  8
DATA
  6
Continuous
 62
     7
100
AcDbCircle
 10
-500.0
 20
-557.0
 30
0.0
 40
6.5
  0
LINE
  5
1CD
330
4C0
100
AcDbEntity
  8
DATA
  6
Continuous
 62
     7
100
AcDbLine
 10
-509.0
 20
-557.0
 30
0.0
 11
-506.5
 21
-557.0
 31
0.0
  0
LINE
  5
1CE
330
4C0
100
AcDbEntity
  8
DATA
  6
Continuous
 62
     7
100
AcDbLine
 10
-493.5
 20
-557.0
 30
0.0
 11
-491.0
 21
-557.0
 31
0.0
  0
LINE
  5
1CF
330
4C0
100
AcDbEntity
  8
DATA
  6
Continuous
 62
     7
100
AcDbLine
 10
-507.7942286340599
 20
-552.5
 30
0.0
 11
-505.6291651245988
 21
-553.75
 31
0.0
  0
LINE
  5
1D0
330
4C0
100
AcDbEntity
  8
DATA
  6
Continuous
 62
     7
100
AcDbLine
 10
-494.3708348754011
 20
-560.25
 30
0.0
 11
-492.2057713659401
 21
-561.5
 31
0.0
  0
LINE
  5
1D1
330
4C0
100
AcDbEntity
  8
DATA
  6
Continuous
 62
     7
100
AcDbLine
 10
-504.4999999999999
 20
-549.20577136594
 30
0.0
 11
-503.2499999999999
 21
-551.370834875401
 31
0.0
  0
LINE
  5
1D2
330
4C0
100
AcDbEntity
  8
DATA
  6
Continuous
 62
     7
100
AcDbLine
 10
-492.2057713659401
 20
-552.5
 30
0.0
 11
-494.3708348754011
 21
-553.75
 31
0.0
  0
LINE
  5
1D3
330
4C0
100
AcDbEntity
  8
DATA
  6
Continuous
 62
     7
100
AcDbLine
 10
-505.6291651245988
 20
-560.25
 30
0.0
 11
-507.7942286340599
 21
-561.5
 31
0.0
  0
LINE
  5
1D4
330
4C0
100
AcDbEntity
  8
DATA
  6
Continuous
 62
     7
100
AcDbLine
 10
-495.5
 20
-549.20577136594
 30
0.0
 11
-496.75
 21
-551.370834875401
 31
0.0
  0
CIRCLE
  5
1D5
330
4C0
100
AcDbEntity
  8
DATA
  6
Continuous
 62
     7
100
AcDbCircle
 10
-500.0
 20
-571.4999999999999
 30
0.0
 40
1.40000000000009
  0
CIRCLE
  5
1D6
330
4C0
100
AcDbEntity
  8
DATA
  6
Continuous
 62
     7
100
AcDbCircle
 10
-500.0
 20
-584.4999999999999
 30
0.0
 40
1.40000000000009
  0
CIRCLE
  5
1D7
330
4C0
100
AcDbEntity
  8
DATA
  6
Continuous
 62
     7
100
AcDbCircle
 10
-500.0
 20
-571.4999999999999
 30
0.0
 40
3.25
  0
CIRCLE
  5
1D8
330
4C0
100
AcDbEntity
  8
DATA
  6
Continuous
 62
     7
100
AcDbCircle
 10
-500.0
 20
-584.4999999999999
 30
0.0
 40
3.25
  0
CIRCLE
  5
1D9
330
4C0
100
AcDbEntity
  8
DATA
  6
Continuous
 62
     7
100
AcDbCircle
 10
-503.875
 20
-563.7116968793296
 30
0.0
 40
1.250000000000004
  0
CIRCLE
  5
1DA
330
4C0
100
AcDbEntity
  8
DATA
  6
Continuous
 62
     7
100
AcDbCircle
 10
-500.0
 20
-549.2499999999999
 30
0.0
 40
1.250000000000004
  0
LINE
  5
1DB
330
4C0
100
AcDbEntity
  8
DATA
  6
Continuous
 62
     7
100
AcDbLine
 10
-501.2331140465635
 20
-549.1813143838375
 30
0.0
 11
-500.0783209345528
 21
-548.026521271827
 31
0.0
  0
LINE
  5
1DC
330
4C0
100
AcDbEntity
  8
DATA
  6
Continuous
 62
     7
100
AcDbLine
 10
-500.2491676197528
 20
-550.4601096568242
 30
0.0
 11
-498.7878527087987
 21
-548.9987947458699
 31
0.0
  0
LINE
  5
1DD
330
4C0
100
AcDbEntity
  8
DATA
  6
Continuous
 62
     7
100
AcDbLine
 10
-500.9595596388335
 20
-550.0391308260062
 30
0.0
 11
-499.22203966855
 21
-548.3016108557226
 31
0.0
  0
CIRCLE
  5
1DE
330
4C0
100
AcDbEntity
  8
DATA
  6
Continuous
 62
     7
100
AcDbCircle
 10
-496.1249999999999
 20
-563.7116968793296
 30
0.0
 40
1.250000000000004
  0
LINE
  5
1DF
330
4C0
100
AcDbEntity
  8
DATA
  6
Continuous
 62
     7
100
AcDbLine
 10
-497.3581140465634
 20
-563.643011263167
 30
0.0
 11
-496.2033209345529
 21
-562.4882181511564
 31
0.0
  0
LINE
  5
1E0
330
4C0
100
AcDbEntity
  8
DATA
  6
Continuous
 62
     7
100
AcDbLine
 10
-496.374167619753
 20
-564.9218065361536
 30
0.0
 11
-494.9128527087987
 21
-563.4604916251993
 31
0.0
  0
LINE
  5
1E1
330
4C0
100
AcDbEntity
  8
DATA
  6
Continuous
 62
     7
100
AcDbLine
 10
-497.0845596388334
 20
-564.5008277053356
 30
0.0
 11
-495.34703966855
 21
-562.763307735052
 31
0.0
  0
TEXT
  5
1E2
330
4C0
100
AcDbEntity
  8
DATA
 62
     7
100
AcDbText
 10
-504.0540046296296
 20
-577.8399818848007
 30
0.0
 40
2.171788194444444
  1
AUX-IN
 41
0.7
 72
     1
 11
-500.0
 21
-576.7540877875785
 31
0.0
100
AcDbText
 73
     2
  0
ARC
  5
1E3
330
4C0
100
AcDbEntity
  8
DATA
  6
Continuous
 62
     7
100
AcDbCircle
 10
-500.0
 20
-589.7540877875785
 30
0.0
 40
1.000000000000085
100
AcDbArc
 50
350.0000000000089
 51
189.9999999999975
  0
LINE
  5
1E4
330
4C0
100
AcDbEntity
  8
DATA
  6
Continuous
 62
     7
100
AcDbLine
 10
-500.8392899963516
 20
-589.8683072980008
 30
0.0
 11
-500.8392899963516
 21
-589.9277359652455
 31
0.0
  0
ARC
  5
1E5
330
4C0
100
AcDbEntity
  8
DATA
  6
Continuous
 62
     7
100
AcDbCircle
 10
-499.5415479797454
 20
-589.8683072980008
 30
0.0
 40
1.297742016606141
100
AcDbArc
 50
170.8846159533196
 51
180.0
  0
LINE
  5
1E6
330
4C0
100
AcDbEntity
  8
DATA
  6
Continuous
 62
     7
100
AcDbLine
 10
-500.8392899963516
 20
-589.98716463249
 30
0.0
 11
-500.8392899963516
 21
-589.9277359652455
 31
0.0
  0
LINE
  5
1E7
330
4C0
100
AcDbEntity
  8
DATA
  6
Continuous
 62
     7
100
AcDbLine
 10
-500.5747066630183
 20
-589.8683072980008
 30
0.0
 11
-500.5747066630183
 21
-589.9277359652455
 31
0.0
  0
ARC
  5
1E8
330
4C0
100
AcDbEntity
  8
DATA
  6
Continuous
 62
     7
100
AcDbCircle
 10
-501.8724486796244
 20
-589.8683072980008
 30
0.0
 40
1.297742016606207
100
AcDbArc
 50
0.0
 51
9.115384046680448
  0
LINE
  5
1E9
330
4C0
100
AcDbEntity
  8
DATA
  6
Continuous
 62
     7
100
AcDbLine
 10
-500.5747066630183
 20
-589.98716463249
 30
0.0
 11
-500.5747066630183
 21
-589.9277359652455
 31
0.0
  0
ARC
  5
1EA
330
4C0
100
AcDbEntity
  8
DATA
  6
Continuous
 62
     7
100
AcDbCircle
 10
-500.7069983296851
 20
-589.7242431435816
 30
0.0
 40
0.1312219690961434
100
AcDbArc
 50
27.96207004074509
 51
152.0379299592084
  0
ARC
  5
1EB
330
4C0
100
AcDbEntity
  8
DATA
  6
Continuous
 62
     7
100
AcDbCircle
 10
-499.5415479797454
 20
-589.98716463249
 30
0.0
 40
1.297742016606207
100
AcDbArc
 50
180.0
 51
189.1153840466804
  0
ARC
  5
1EC
330
4C0
100
AcDbEntity
  8
DATA
  6
Continuous
 62
     7
100
AcDbCircle
 10
-501.8724486796244
 20
-589.98716463249
 30
0.0
 40
1.297742016606141
100
AcDbArc
 50
350.8846159533196
 51
0.0
  0
ARC
  5
1ED
330
4C0
100
AcDbEntity
  8
DATA
  6
Continuous
 62
     7
100
AcDbCircle
 10
-500.7069983296851
 20
-590.1312287869092
 30
0.0
 40
0.1312219690959426
100
AcDbArc
 50
207.9620700407916
 51
332.0379299592549
  0
LINE
  5
1EE
330
4C0
100
AcDbEntity
  8
DATA
  6
Continuous
 62
     7
100
AcDbLine
 10
-499.1607100036483
 20
-589.8683072980008
 30
0.0
 11
-499.1607100036483
 21
-589.9277359652455
 31
0.0
  0
ARC
  5
1EF
330
4C0
100
AcDbEntity
  8
DATA
  6
Continuous
 62
     7
100
AcDbCircle
 10
-500.4584520202545
 20
-589.8683072980008
 30
0.0
 40
1.297742016606207
100
AcDbArc
 50
0.0
 51
9.115384046680448
  0
LINE
  5
1F0
330
4C0
100
AcDbEntity
  8
DATA
  6
Continuous
 62
     7
100
AcDbLine
 10
-499.1607100036483
 20
-589.98716463249
 30
0.0
 11
-499.1607100036483
 21
-589.9277359652455
 31
0.0
  0
LINE
  5
1F1
330
4C0
100
AcDbEntity
  8
DATA
  6
Continuous
 62
     7
100
AcDbLine
 10
-499.4252933369816
 20
-589.8683072980008
 30
0.0
 11
-499.4252933369816
 21
-589.9277359652455
 31
0.0
  0
ARC
  5
1F2
330
4C0
100
AcDbEntity
  8
DATA
  6
Continuous
 62
     7
100
AcDbCircle
 10
-498.1275513203754
 20
-589.8683072980008
 30
0.0
 40
1.297742016606141
100
AcDbArc
 50
170.8846159533196
 51
180.0
  0
LINE
  5
1F3
330
4C0
100
AcDbEntity
  8
DATA
  6
Continuous
 62
     7
100
AcDbLine
 10
-499.4252933369816
 20
-589.98716463249
 30
0.0
 11
-499.4252933369816
 21
-589.9277359652455
 31
0.0
  0
ARC
  5
1F4
330
4C0
100
AcDbEntity
  8
DATA
  6
Continuous
 62
     7
100
AcDbCircle
 10
-499.2930016703148
 20
-589.7242431435816
 30
0.0
 40
0.1312219690959426
100
AcDbArc
 50
27.96207004079164
 51
152.0379299592549
  0
ARC
  5
1F5
330
4C0
100
AcDbEntity
  8
DATA
  6
Continuous
 62
     7
100
AcDbCircle
 10
-500.4584520202545
 20
-589.98716463249
 30
0.0
 40
1.297742016606141
100
AcDbArc
 50
350.8846159533196
 51
0.0
  0
ARC
  5
1F6
330
4C0
100
AcDbEntity
  8
DATA
  6
Continuous
 62
     7
100
AcDbCircle
 10
-498.1275513203754
 20
-589.98716463249
 30
0.0
 40
1.297742016606207
100
AcDbArc
 50
180.0
 51
189.1153840466804
  0
ARC
  5
1F7
330
4C0
100
AcDbEntity
  8
DATA
  6
Continuous
 62
     7
100
AcDbCircle
 10
-499.2930016703148
 20
-590.1312287869092
 30
0.0
 40
0.1312219690961434
100
AcDbArc
 50
207.9620700407451
 51
332.0379299592084
  0
LWPOLYLINE
  5
1F8
330
4C0
100
AcDbEntity
  8
DATA
  6
Continuous
 62
     7
100
AcDbPolyline
 90
        4
 70
     1
 43
0.0
 10
-408.0
 20
-551.4999999999999
 10
-401.0
 20
-551.4999999999999
 10
-401.0
 20
-563.4999999999999
 10
-408.0
 20
-563.4999999999999
  0
LINE
  5
1FF
330
4C0
100
AcDbEntity
  8
DATA
  6
Continuous
 62
     7
100
AcDbLine
 10
-401.0
 20
-555.0
 30
0.0
 11
-400.0
 21
-555.0
 31
0.0
  0
LINE
  5
200
330
4C0
100
AcDbEntity
  8
DATA
  6
Continuous
 62
     7
100
AcDbLine
 10
-401.0
 20
-560.0
 30
0.0
 11
-400.0
 21
-560.0
 31
0.0
  0
LINE
  5
201
330
4C0
100
AcDbEntity
  8
DATA
  6
Continuous
 62
     7
100
AcDbLine
 10
-251.5
 20
-552.4459122124214
 30
0.0
 11
-251.5
 21
-447.5540877875785
 31
0.0
  0
ARC
  5
202
330
4C0
100
AcDbEntity
  8
DATA
  6
Continuous
 62
     7
100
AcDbCircle
 10
-175.0
 20
-447.5540877875785
 30
0.0
 40
76.5
100
AcDbArc
 50
0.0
 51
180.0
  0
LINE
  5
203
330
4C0
100
AcDbEntity
  8
DATA
  6
Continuous
 62
     7
100
AcDbLine
 10
-216.5
 20
-618.0540877875785
 30
0.0
 11
-133.5
 21
-618.0540877875785
 31
0.0
  0
LINE
  5
204
330
4C0
100
AcDbEntity
  8
DATA
  6
Continuous
 62
     7
100
AcDbLine
 10
-98.50000000000001
 20
-447.5540877875785
 30
0.0
 11
-98.50000000000001
 21
-552.4459122124214
 31
0.0
  0
LINE
  5
205
330
4C0
100
AcDbEntity
  8
DATA
  6
Continuous
 62
     7
100
AcDbLine
 10
-217.5
 20
-616.0540877875785
 30
0.0
 11
-132.5000000000001
 21
-616.0540877875785
 31
0.0
  0
ARC
  5
206
330
4C0
100
AcDbEntity
  8
DATA
  6
Continuous
 62
     7
100
AcDbCircle
 10
-175.0
 20
-552.4459122124214
 30
0.0
 40
76.5
100
AcDbArc
 50
180.0
 51
236.2510114041114
  0
ARC
  5
207
330
4C0
100
AcDbEntity
  8
DATA
  6
Continuous
 62
     7
100
AcDbCircle
 10
-175.0
 20
-552.4459122124214
 30
0.0
 40
76.50000000000002
100
AcDbArc
 50
303.7489885958885
 51
0.0
  0
LINE
  5
208
330
4C0
100
AcDbEntity
  8
DATA
  6
Continuous
 62
     7
100
AcDbLine
 10
-216.5
 20
-618.0540877875785
 30
0.0
 11
-216.5
 21
-616.0540877875785
 31
0.0
  0
LINE
  5
209
330
4C0
100
AcDbEntity
  8
DATA
  6
Continuous
 62
     7
100
AcDbLine
 10
-133.5
 20
-618.0540877875785
 30
0.0
 11
-133.5
 21
-616.0540877875785
 31
0.0
  0
LINE
  5
20A
330
4C0
100
AcDbEntity
  8
DATA
  6
Continuous
 62
     7
100
AcDbLine
 10
-204.0
 20
-551.0
 30
0.0
 11
-204.0
 21
-449.0
 31
0.0
  0
LINE
  5
20B
330
4C0
100
AcDbEntity
  8
DATA
  6
Continuous
 62
     7
100
AcDbLine
 10
-146.0
 20
-449.0
 30
0.0
 11
-146.0
 21
-551.0
 31
0.0
  0
ARC
  5
20C
330
4C0
100
AcDbEntity
  8
DATA
  6
Continuous
 62
     7
100
AcDbCircle
 10
-175.0
 20
-449.0
 30
0.0
 40
29.0
100
AcDbArc
 50
0.0
 51
180.0
  0
ARC
  5
20D
330
4C0
100
AcDbEntity
  8
DATA
  6
Continuous
 62
     7
100
AcDbCircle
 10
-175.0
 20
-551.0
 30
0.0
 40
29.0
100
AcDbArc
 50
180.0
 51
0.0
  0
ARC
  5
20E
330
4C0
100
AcDbEntity
  8
DATA
  6
Continuous
 62
     7
100
AcDbCircle
 10
-175.0
 20
-551.0
 30
0.0
 40
26.5
100
AcDbArc
 50
180.0
 51
0.0
  0
ARC
  5
20F
330
4C0
100
AcDbEntity
  8
DATA
  6
Continuous
 62
     7
100
AcDbCircle
 10
-175.0
 20
-449.0
 30
0.0
 40
26.5
100
AcDbArc
 50
0.0
 51
180.0
  0
LINE
  5
210
330
4C0
100
AcDbEntity
  8
DATA
  6
Continuous
 62
     7
100
AcDbLine
 10
-148.5
 20
-449.0
 30
0.0
 11
-148.5
 21
-551.0
 31
0.0
  0
LINE
  5
211
330
4C0
100
AcDbEntity
  8
DATA
  6
Continuous
 62
     7
100
AcDbLine
 10
-201.5
 20
-449.0
 30
0.0
 11
-201.5
 21
-551.0
 31
0.0
  0
LWPOLYLINE
  5
212
330
4C0
100
AcDbEntity
  8
DATA
  6
Continuous
 62
     7
100
AcDbPolyline
 90
        4
 70
     1
 43
0.0
 10
-506.0
 20
-320.5540877875787
 10
-494.0
 20
-320.5540877875787
 10
-494.0
 20
-327.5540877875785
 10
-506.0
 20
-327.5540877875785
  0
LINE
  5
219
330
4C0
100
AcDbEntity
  8
DATA
  6
Continuous
 62
     7
100
AcDbLine
 10
-502.5
 20
-320.5540877875787
 30
0.0
 11
-502.5
 21
-319.5540877875785
 31
0.0
  0
LINE
  5
21A
330
4C0
100
AcDbEntity
  8
DATA
  6
Continuous
 62
     7
100
AcDbLine
 10
-497.5
 20
-320.5540877875786
 30
0.0
 11
-497.5
 21
-319.5540877875785
 31
0.0
  0
CIRCLE
  5
21B
330
4C0
100
AcDbEntity
  8
DATA
  6
Continuous
 62
     7
100
AcDbCircle
 10
-175.0
 20
-449.0
 30
0.0
 40
20.0
  0
LINE
  5
21C
330
4C0
100
AcDbEntity
  8
DATA
  6
Continuous
 62
     7
100
AcDbLine
 10
-192.0
 20
-535.0040877875785
 30
0.0
 11
-192.0
 21
-481.0040877875785
 31
0.0
  0
ARC
  5
21D
330
4C0
100
AcDbEntity
  8
DATA
  6
Continuous
 62
     7
100
AcDbCircle
 10
-186.0
 20
-535.0040877875785
 30
0.0
 40
6.0
100
AcDbArc
 50
180.0
 51
270.0
  0
LINE
  5
21E
330
4C0
100
AcDbEntity
  8
DATA
  6
Continuous
 62
     7
100
AcDbLine
 10
-164.0
 20
-541.0040877875785
 30
0.0
 11
-186.0
 21
-541.0040877875785
 31
0.0
  0
ARC
  5
21F
330
4C0
100
AcDbEntity
  8
DATA
  6
Continuous
 62
     7
100
AcDbCircle
 10
-164.0
 20
-535.0040877875785
 30
0.0
 40
6.0
100
AcDbArc
 50
270.0
 51
0.0
  0
LINE
  5
220
330
4C0
100
AcDbEntity
  8
DATA
  6
Continuous
 62
     7
100
AcDbLine
 10
-158.0
 20
-481.0040877875785
 30
0.0
 11
-158.0
 21
-535.0040877875785
 31
0.0
  0
ARC
  5
221
330
4C0
100
AcDbEntity
  8
DATA
  6
Continuous
 62
     7
100
AcDbCircle
 10
-164.0
 20
-481.0040877875785
 30
0.0
 40
6.0
100
AcDbArc
 50
0.0
 51
90.0
  0
LINE
  5
222
330
4C0
100
AcDbEntity
  8
DATA
  6
Continuous
 62
     7
100
AcDbLine
 10
-186.0
 20
-475.0040877875784
 30
0.0
 11
-164.0
 21
-475.0040877875784
 31
0.0
  0
ARC
  5
223
330
4C0
100
AcDbEntity
  8
DATA
  6
Continuous
 62
     7
100
AcDbCircle
 10
-186.0
 20
-481.0040877875785
 30
0.0
 40
6.0
100
AcDbArc
 50
90.0
 51
180.0
  0
CIRCLE
  5
224
330
4C0
100
AcDbEntity
  8
DATA
  6
Continuous
 62
     7
100
AcDbCircle
 10
-185.0
 20
-482.5040877875784
 30
0.0
 40
3.75
  0
CIRCLE
  5
225
330
4C0
100
AcDbEntity
  8
DATA
  6
Continuous
 62
     7
100
AcDbCircle
 10
-185.0
 20
-482.5040877875784
 30
0.0
 40
2.75
  0
CIRCLE
  5
226
330
4C0
100
AcDbEntity
  8
DATA
  6
Continuous
 62
     7
100
AcDbCircle
 10
-185.0
 20
-482.5040877875784
 30
0.0
 40
1.75
  0
CIRCLE
  5
227
330
4C0
100
AcDbEntity
  8
DATA
  6
Continuous
 62
     7
100
AcDbCircle
 10
-165.0
 20
-482.5040877875784
 30
0.0
 40
3.75
  0
CIRCLE
  5
228
330
4C0
100
AcDbEntity
  8
DATA
  6
Continuous
 62
     7
100
AcDbCircle
 10
-165.0
 20
-482.5040877875784
 30
0.0
 40
2.75
  0
CIRCLE
  5
229
330
4C0
100
AcDbEntity
  8
DATA
  6
Continuous
 62
     7
100
AcDbCircle
 10
-165.0
 20
-482.5040877875784
 30
0.0
 40
1.75
  0
CIRCLE
  5
22A
330
4C0
100
AcDbEntity
  8
DATA
  6
Continuous
 62
     7
100
AcDbCircle
 10
-185.0
 20
-500.0040877875784
 30
0.0
 40
4.25
  0
CIRCLE
  5
22B
330
4C0
100
AcDbEntity
  8
DATA
  6
Continuous
 62
     7
100
AcDbCircle
 10
-185.0
 20
-500.0040877875784
 30
0.0
 40
3.5
  0
CIRCLE
  5
22C
330
4C0
100
AcDbEntity
  8
DATA
  6
Continuous
 62
     7
100
AcDbCircle
 10
-165.0
 20
-500.0040877875784
 30
0.0
 40
4.25
  0
CIRCLE
  5
22D
330
4C0
100
AcDbEntity
  8
DATA
  6
Continuous
 62
     7
100
AcDbCircle
 10
-165.0
 20
-500.0040877875784
 30
0.0
 40
3.5
  0
TEXT
  5
22E
330
4C0
100
AcDbEntity
  8
DATA
 62
     7
100
AcDbText
 10
-189.7464418402778
 20
-473.6329289334118
 30
0.0
 40
3.257682291666666
  1
MASTER MONITOR
 41
0.7
 72
     1
 11
-175.0
 21
-472.0040877875785
 31
0.0
100
AcDbText
 73
     2
  0
TEXT
  5
22F
330
4C0
100
AcDbEntity
  8
DATA
 62
     7
100
AcDbText
 10
-179.8648055555555
 20
-480.0571607042451
 30
0.0
 40
2.606145833333332
  1
INPUTS
 41
0.7
 72
     1
 11
-175.0
 21
-478.7540877875785
 31
0.0
100
AcDbText
 73
     2
  0
TEXT
  5
230
330
4C0
100
AcDbEntity
  8
DATA
 62
     7
100
AcDbText
 10
-176.8243020833333
 20
-484.8650252875786
 30
0.0
 40
1.737430555555555
  1
LOW
 41
0.7
 72
     1
 11
-175.0
 21
-483.9963100098008
 31
0.0
100
AcDbText
 73
     2
  0
TEXT
  5
231
330
4C0
100
AcDbEntity
  8
DATA
 62
     7
100
AcDbText
 10
-178.0405034722222
 20
-487.1228030653562
 30
0.0
 40
1.737430555555555
  1
LEVEL
 41
0.7
 72
     1
 11
-175.0
 21
-486.2540877875785
 31
0.0
100
AcDbText
 73
     2
  0
TEXT
  5
232
330
4C0
100
AcDbEntity
  8
DATA
 62
     7
100
AcDbText
 10
-180.8783067129629
 20
-489.380580843134
 30
0.0
 40
1.737430555555555
  1
UNBALANCED
 41
0.7
 72
     1
 11
-175.0
 21
-488.5118655653562
 31
0.0
100
AcDbText
 73
     2
  0
TEXT
  5
233
330
4C0
100
AcDbEntity
  8
DATA
 62
     7
100
AcDbText
 10
-188.4459039351852
 20
-491.8728030653563
 30
0.0
 40
1.737430555555555
  1
MASTER
 41
0.7
 72
     1
 11
-185.0
 21
-491.0040877875784
 31
0.0
100
AcDbText
 73
     2
  0
TEXT
  5
234
330
4C0
100
AcDbEntity
  8
DATA
 62
     7
100
AcDbText
 10
-170.067505787037
 20
-491.8728030653563
 30
0.0
 40
1.737430555555555
  1
EXTENSION
 41
0.7
 72
     1
 11
-165.0
 21
-491.0040877875784
 31
0.0
100
AcDbText
 73
     2
  0
TEXT
  5
235
330
4C0
100
AcDbEntity
  8
DATA
 62
     7
100
AcDbText
 10
-177.0270023148148
 20
-502.3650252875786
 30
0.0
 40
1.737430555555555
  1
HIGH
 41
0.7
 72
     1
 11
-175.0
 21
-501.4963100098007
 31
0.0
100
AcDbText
 73
     2
  0
TEXT
  5
236
330
4C0
100
AcDbEntity
  8
DATA
 62
     7
100
AcDbText
 10
-178.0405034722222
 20
-504.6228030653562
 30
0.0
 40
1.737430555555555
  1
LEVEL
 41
0.7
 72
     1
 11
-175.0
 21
-503.7540877875785
 31
0.0
100
AcDbText
 73
     2
  0
TEXT
  5
237
330
4C0
100
AcDbEntity
  8
DATA
 62
     7
100
AcDbText
 10
-179.662105324074
 20
-506.8805808431339
 30
0.0
 40
1.737430555555555
  1
BALANCED
 41
0.7
 72
     1
 11
-175.0
 21
-506.0118655653562
 31
0.0
100
AcDbText
 73
     2
  0
LINE
  5
238
330
4C0
100
AcDbEntity
  8
DATA
  6
Continuous
 62
     7
100
AcDbLine
 10
-192.0
 20
-509.0040877875785
 30
0.0
 11
-158.0
 21
-509.0040877875785
 31
0.0
  0
TEXT
  5
239
330
4C0
100
AcDbEntity
  8
DATA
 62
     7
100
AcDbText
 10
-188.6214555555555
 20
-513.3071607042452
 30
0.0
 40
2.606145833333332
  1
EXTENSION OUTPUT
 41
0.7
 72
     1
 11
-175.0
 21
-512.0040877875785
 31
0.0
100
AcDbText
 73
     2
  0
LWPOLYLINE
  5
23A
330
4C0
100
AcDbEntity
  8
DATA
  6
Continuous
 62
     7
100
AcDbPolyline
 90
        4
 70
     1
 43
0.0
 10
-186.5
 20
-517.0040877875785
 10
-163.5
 20
-517.0040877875785
 10
-163.5
 20
-536.0040877875785
 10
-186.5
 20
-536.0040877875785
  0
LINE
  5
241
330
4C0
100
AcDbEntity
  8
DATA
  6
Continuous
 62
     7
100
AcDbLine
 10
-186.5
 20
-524.5040877875785
 30
0.0
 11
-163.5
 21
-524.5040877875785
 31
0.0
  0
LWPOLYLINE
  5
242
330
4C0
100
AcDbEntity
  8
DATA
  6
Continuous
 62
     7
100
AcDbPolyline
 90
        4
 70
     1
 43
0.0
 10
-184.75
 20
-517.7540877875785
 10
-177.75
 20
-517.7540877875785
 10
-177.75
 20
-523.7540877875785
 10
-184.75
 20
-523.7540877875785
  0
CIRCLE
  5
249
330
4C0
100
AcDbEntity
  8
DATA
  6
Continuous
 62
     7
100
AcDbCircle
 10
-181.25
 20
-520.7540877875785
 30
0.0
 40
1.75
  0
LWPOLYLINE
  5
24A
330
4C0
100
AcDbEntity
  8
DATA
  6
Continuous
 62
     7
100
AcDbPolyline
 90
        4
 70
     1
 43
0.0
 10
-172.25
 20
-517.7540877875785
 10
-165.25
 20
-517.7540877875785
 10
-165.25
 20
-523.7540877875785
 10
-172.25
 20
-523.7540877875785
  0
CIRCLE
  5
251
330
4C0
100
AcDbEntity
  8
DATA
  6
Continuous
 62
     7
100
AcDbCircle
 10
-168.75
 20
-520.7540877875785
 30
0.0
 40
1.75
  0
LINE
  5
252
330
4C0
100
AcDbEntity
  8
DATA
  6
Continuous
 62
     7
100
AcDbLine
 10
-169.75
 20
-538.5040877875785
 30
0.0
 11
-167.75
 21
-538.5040877875785
 31
0.0
  0
LINE
  5
253
330
4C0
100
AcDbEntity
  8
DATA
  6
Continuous
 62
     7
100
AcDbLine
 10
-168.75
 20
-539.5040877875785
 30
0.0
 11
-168.75
 21
-537.5040877875785
 31
0.0
  0
LINE
  5
254
330
4C0
100
AcDbEntity
  8
DATA
  6
Continuous
 62
     7
100
AcDbLine
 10
-182.25
 20
-538.5040877875785
 30
0.0
 11
-180.25
 21
-538.5040877875785
 31
0.0
  0
LWPOLYLINE
  5
255
330
4C0
100
AcDbEntity
  8
DATA
  6
Continuous
 62
     7
100
AcDbPolyline
 90
        4
 70
     1
 43
0.0
 10
-185.0
 20
-524.5040877875785
 10
-177.5
 20
-524.5040877875785
 10
-177.5
 20
-531.5040877875786
 10
-185.0
 20
-531.5040877875786
  0
LINE
  5
25C
330
4C0
100
AcDbEntity
  8
DATA
  6
Continuous
 62
     7
100
AcDbLine
 10
-185.0
 20
-530.0040877875785
 30
0.0
 11
-177.5
 21
-530.0040877875785
 31
0.0
  0
LINE
  5
25D
330
4C0
100
AcDbEntity
  8
DATA
  6
Continuous
 62
     7
100
AcDbLine
 10
-185.0
 20
-529.0040877875785
 30
0.0
 11
-177.5
 21
-529.0040877875785
 31
0.0
  0
LINE
  5
25E
330
4C0
100
AcDbEntity
  8
DATA
  6
Continuous
 62
     7
100
AcDbLine
 10
-185.0
 20
-528.0040877875785
 30
0.0
 11
-177.5
 21
-528.0040877875785
 31
0.0
  0
LINE
  5
25F
330
4C0
100
AcDbEntity
  8
DATA
  6
Continuous
 62
     7
100
AcDbLine
 10
-185.0
 20
-527.0040877875785
 30
0.0
 11
-177.5
 21
-527.0040877875785
 31
0.0
  0
LINE
  5
260
330
4C0
100
AcDbEntity
  8
DATA
  6
Continuous
 62
     7
100
AcDbLine
 10
-185.0
 20
-526.0040877875785
 30
0.0
 11
-177.5
 21
-526.0040877875785
 31
0.0
  0
LINE
  5
261
330
4C0
100
AcDbEntity
  8
DATA
  6
Continuous
 62
     7
100
AcDbLine
 10
-185.0
 20
-525.0040877875785
 30
0.0
 11
-177.5
 21
-525.0040877875785
 31
0.0
  0
LWPOLYLINE
  5
262
330
4C0
100
AcDbEntity
  8
DATA
  6
Continuous
 62
     7
100
AcDbPolyline
 90
        4
 70
     1
 43
0.0
 10
-172.5
 20
-524.5040877875785
 10
-165.0
 20
-524.5040877875785
 10
-165.0
 20
-531.5040877875786
 10
-172.5
 20
-531.5040877875786
  0
LINE
  5
269
330
4C0
100
AcDbEntity
  8
DATA
  6
Continuous
 62
     7
100
AcDbLine
 10
-172.5
 20
-530.0040877875785
 30
0.0
 11
-165.0
 21
-530.0040877875785
 31
0.0
  0
LINE
  5
26A
330
4C0
100
AcDbEntity
  8
DATA
  6
Continuous
 62
     7
100
AcDbLine
 10
-172.5
 20
-529.0040877875785
 30
0.0
 11
-165.0
 21
-529.0040877875785
 31
0.0
  0
LINE
  5
26B
330
4C0
100
AcDbEntity
  8
DATA
  6
Continuous
 62
     7
100
AcDbLine
 10
-172.5
 20
-528.0040877875785
 30
0.0
 11
-165.0
 21
-528.0040877875785
 31
0.0
  0
LINE
  5
26C
330
4C0
100
AcDbEntity
  8
DATA
  6
Continuous
 62
     7
100
AcDbLine
 10
-172.5
 20
-527.0040877875785
 30
0.0
 11
-165.0
 21
-527.0040877875785
 31
0.0
  0
LINE
  5
26D
330
4C0
100
AcDbEntity
  8
DATA
  6
Continuous
 62
     7
100
AcDbLine
 10
-172.5
 20
-526.0040877875785
 30
0.0
 11
-165.0
 21
-526.0040877875785
 31
0.0
  0
LINE
  5
26E
330
4C0
100
AcDbEntity
  8
DATA
  6
Continuous
 62
     7
100
AcDbLine
 10
-172.5
 20
-525.0040877875785
 30
0.0
 11
-165.0
 21
-525.0040877875785
 31
0.0
  0
TEXT
  5
26F
330
4C0
100
AcDbEntity
  8
DATA
 62
     7
100
AcDbText
 10
-181.9323479166666
 20
-560.6571607042451
 30
0.0
 40
2.606145833333332
  1
POWER AC
 41
0.7
 72
     1
 11
-175.0
 21
-559.3540877875784
 31
0.0
100
AcDbText
 73
     2
  0
LINE
  5
270
330
4C0
100
AcDbEntity
  8
DATA
  6
Continuous
 62
     7
100
AcDbLine
 10
-175.0
 20
-547.0040877875785
 30
0.0
 11
-175.0
 21
-549.5040877875785
 31
0.0
  0
CIRCLE
  5
271
330
4C0
100
AcDbEntity
  8
DATA
  6
Continuous
 62
     7
100
AcDbCircle
 10
-175.0
 20
-549.5040877875785
 30
0.0
 40
5.0
  0
CIRCLE
  5
272
330
4C0
100
AcDbEntity
  8
DATA
  6
Continuous
 62
     7
100
AcDbCircle
 10
-175.0
 20
-549.5040877875785
 30
0.0
 40
4.5
  0
ARC
  5
273
330
4C0
100
AcDbEntity
  8
DATA
  6
Continuous
 62
     7
100
AcDbCircle
 10
-175.0
 20
-549.5040877875785
 30
0.0
 40
1.25
100
AcDbArc
 50
126.869897645844
 51
53.130102354156
  0
LINE
  5
274
330
4C0
100
AcDbEntity
  8
DATA
  6
Continuous
 62
     7
100
AcDbLine
 10
-179.3499999999993
 20
-562.3540877875784
 30
0.0
 11
-170.6500000000006
 21
-562.3540877875784
 31
0.0
  0
LINE
  5
275
330
4C0
100
AcDbEntity
  8
DATA
  6
Continuous
 62
     7
100
AcDbLine
 10
-170.6500000000006
 20
-570.6540877875783
 30
0.0
 11
-179.3499999999993
 21
-570.6540877875783
 31
0.0
  0
ARC
  5
276
330
4C0
100
AcDbEntity
  8
DATA
  6
Continuous
 62
     7
100
AcDbCircle
 10
-170.6500000000006
 20
-566.5040877875785
 30
0.0
 40
4.149999999999863
100
AcDbArc
 50
270.0
 51
90.0
  0
ARC
  5
277
330
4C0
100
AcDbEntity
  8
DATA
  6
Continuous
 62
     7
100
AcDbCircle
 10
-179.3499999999993
 20
-566.5040877875785
 30
0.0
 40
4.15000000000009
100
AcDbArc
 50
90.0
 51
270.0
  0
CIRCLE
  5
278
330
4C0
100
AcDbEntity
  8
DATA
  6
Continuous
 62
     7
100
AcDbCircle
 10
-178.75
 20
-566.5040877875785
 30
0.0
 40
1.25
  0
CIRCLE
  5
279
330
4C0
100
AcDbEntity
  8
DATA
  6
Continuous
 62
     7
100
AcDbCircle
 10
-171.25
 20
-566.5040877875785
 30
0.0
 40
1.25
  0
LINE
  5
27A
330
4C0
100
AcDbEntity
  8
DATA
  6
Continuous
 62
     7
100
AcDbLine
 10
-175.0
 20
-564.4490877875784
 30
0.0
 11
-173.45
 21
-562.3540877875784
 31
0.0
  0
LINE
  5
27B
330
4C0
100
AcDbEntity
  8
DATA
  6
Continuous
 62
     7
100
AcDbLine
 10
-176.5499999999999
 20
-562.3540877875784
 30
0.0
 11
-175.0
 21
-564.4490877875784
 31
0.0
  0
LINE
  5
27C
330
4C0
100
AcDbEntity
  8
DATA
  6
Continuous
 62
     7
100
AcDbLine
 10
-175.0
 20
-568.5590877875784
 30
0.0
 11
-173.45
 21
-570.6540877875783
 31
0.0
  0
LINE
  5
27D
330
4C0
100
AcDbEntity
  8
DATA
  6
Continuous
 62
     7
100
AcDbLine
 10
-176.5499999999999
 20
-570.6540877875783
 30
0.0
 11
-175.0
 21
-568.5590877875784
 31
0.0
  0
LINE
  5
27E
330
4C0
100
AcDbEntity
  8
DATA
  6
Continuous
 62
     7
100
AcDbLine
 10
-272.5
 20
-545.0040877875783
 30
0.0
 11
-272.5
 21
-554.0040877875785
 31
0.0
  0
LINE
  5
27F
330
4C0
100
AcDbEntity
  8
DATA
  6
Continuous
 62
     7
100
AcDbLine
 10
-273.0
 20
-554.5040877875785
 30
0.0
 11
-275.0
 21
-554.5040877875785
 31
0.0
  0
LINE
  5
280
330
4C0
100
AcDbEntity
  8
DATA
  6
Continuous
 62
     7
100
AcDbLine
 10
-272.9999999999997
 20
-544.5040877875785
 30
0.0
 11
-275.0
 21
-544.5040877875785
 31
0.0
  0
LINE
  5
281
330
4C0
100
AcDbEntity
  8
DATA
  6
Continuous
 62
     7
100
AcDbLine
 10
-274.2499999999923
 20
-530.0040877875785
 30
0.0
 11
-275.0
 21
-530.0040877875785
 31
0.0
  0
LINE
  5
282
330
4C0
100
AcDbEntity
  8
DATA
  6
Continuous
 62
     7
100
AcDbLine
 10
-274.2499999999923
 20
-531.5040877875786
 30
0.0
 11
-275.0
 21
-531.5040877875786
 31
0.0
  0
ARC
  5
283
330
4C0
100
AcDbEntity
  8
DATA
  6
Continuous
 62
     7
100
AcDbCircle
 10
-274.2499999999923
 20
-530.7540877875785
 30
0.0
 40
0.75
100
AcDbArc
 50
270.0
 51
90.0
  0
LINE
  5
284
330
4C0
100
AcDbEntity
  8
DATA
  6
Continuous
 62
     7
100
AcDbLine
 10
-273.0
 20
-544.5040877875783
 30
0.0
 11
-273.0
 21
-554.5040877875785
 31
0.0
  0
LINE
  5
285
330
4C0
100
AcDbEntity
  8
DATA
  6
Continuous
 62
     7
100
AcDbLine
 10
-272.5
 20
-545.0040877875785
 30
0.0
 11
-273.0
 21
-544.5040877875785
 31
0.0
  0
LINE
  5
286
330
4C0
100
AcDbEntity
  8
DATA
  6
Continuous
 62
     7
100
AcDbLine
 10
-272.5
 20
-554.0040877875785
 30
0.0
 11
-273.0
 21
-554.5040877875785
 31
0.0
  0
LINE
  5
287
330
4C0
100
AcDbEntity
  8
DATA
  6
Continuous
 62
     7
100
AcDbLine
 10
-510.0
 20
-191.5540877875708
 30
0.0
 11
-510.0
 21
-193.0540877875785
 31
0.0
  0
LINE
  5
288
330
4C0
100
AcDbEntity
  8
DATA
  6
Continuous
 62
     7
100
AcDbLine
 10
-502.5
 20
-191.5540877875708
 30
0.0
 11
-502.5
 21
-193.0540877875785
 31
0.0
  0
LINE
  5
289
330
4C0
100
AcDbEntity
  8
DATA
  6
Continuous
 62
     7
100
AcDbLine
 10
-502.5
 20
-191.5540877875708
 30
0.0
 11
-510.0
 21
-191.5540877875708
 31
0.0
  0
LINE
  5
28A
330
4C0
100
AcDbEntity
  8
DATA
  6
Continuous
 62
     7
100
AcDbLine
 10
-490.0
 20
-191.5540877875708
 30
0.0
 11
-490.0
 21
-193.0540877875785
 31
0.0
  0
LINE
  5
28B
330
4C0
100
AcDbEntity
  8
DATA
  6
Continuous
 62
     7
100
AcDbLine
 10
-497.5
 20
-191.5540877875708
 30
0.0
 11
-497.5
 21
-193.0540877875785
 31
0.0
  0
LINE
  5
28C
330
4C0
100
AcDbEntity
  8
DATA
  6
Continuous
 62
     7
100
AcDbLine
 10
-497.5
 20
-191.5540877875708
 30
0.0
 11
-490.0
 21
-191.5540877875708
 31
0.0
  0
LINE
  5
28D
330
4C0
100
AcDbEntity
  8
DATA
  6
Continuous
 62
     7
100
AcDbLine
 10
-504.4999999999999
 20
-190.5540877875785
 30
0.0
 11
-495.5
 21
-190.5540877875785
 31
0.0
  0
LINE
  5
28E
330
4C0
100
AcDbEntity
  8
DATA
  6
Continuous
 62
     7
100
AcDbLine
 10
-495.0
 20
-191.0540877875785
 30
0.0
 11
-495.0
 21
-191.5540877875708
 31
0.0
  0
LINE
  5
28F
330
4C0
100
AcDbEntity
  8
DATA
  6
Continuous
 62
     7
100
AcDbLine
 10
-505.0
 20
-191.0540877875785
 30
0.0
 11
-505.0
 21
-191.5540877875708
 31
0.0
  0
LINE
  5
290
330
4C0
100
AcDbEntity
  8
DATA
  6
Continuous
 62
     7
100
AcDbLine
 10
-505.0
 20
-191.0540877875785
 30
0.0
 11
-495.0
 21
-191.0540877875785
 31
0.0
  0
LINE
  5
291
330
4C0
100
AcDbEntity
  8
DATA
  6
Continuous
 62
     7
100
AcDbLine
 10
-504.4999999999999
 20
-190.5540877875785
 30
0.0
 11
-505.0
 21
-191.0540877875785
 31
0.0
  0
LINE
  5
292
330
4C0
100
AcDbEntity
  8
DATA
  6
Continuous
 62
     7
100
AcDbLine
 10
-495.5
 20
-190.5540877875785
 30
0.0
 11
-495.0
 21
-191.0540877875785
 31
0.0
  0
LINE
  5
293
330
4C0
100
AcDbEntity
  8
DATA
  6
Continuous
 62
     7
100
AcDbLine
 10
423.4999999999999
 20
-552.4459122124214
 30
0.0
 11
423.4999999999999
 21
-447.5540877875785
 31
0.0
  0
ARC
  5
294
330
4C0
100
AcDbEntity
  8
DATA
  6
Continuous
 62
     7
100
AcDbCircle
 10
499.9999999999999
 20
-447.5540877875785
 30
0.0
 40
76.5
100
AcDbArc
 50
0.0
 51
180.0
  0
LINE
  5
295
330
4C0
100
AcDbEntity
  8
DATA
  6
Continuous
 62
     7
100
AcDbLine
 10
458.4999999999999
 20
-618.0540877875785
 30
0.0
 11
541.4999999999999
 21
-618.0540877875785
 31
0.0
  0
LINE
  5
296
330
4C0
100
AcDbEntity
  8
DATA
  6
Continuous
 62
     7
100
AcDbLine
 10
576.4999999999998
 20
-447.5540877875785
 30
0.0
 11
576.4999999999998
 21
-552.4459122124214
 31
0.0
  0
LINE
  5
297
330
4C0
100
AcDbEntity
  8
DATA
  6
Continuous
 62
     7
100
AcDbLine
 10
457.4999999999997
 20
-616.0540877875785
 30
0.0
 11
542.4999999999998
 21
-616.0540877875785
 31
0.0
  0
ARC
  5
298
330
4C0
100
AcDbEntity
  8
DATA
  6
Continuous
 62
     7
100
AcDbCircle
 10
499.9999999999999
 20
-552.4459122124214
 30
0.0
 40
76.5
100
AcDbArc
 50
180.0
 51
236.2510114041114
  0
ARC
  5
299
330
4C0
100
AcDbEntity
  8
DATA
  6
Continuous
 62
     7
100
AcDbCircle
 10
499.9999999999999
 20
-552.4459122124214
 30
0.0
 40
76.50000000000002
100
AcDbArc
 50
303.7489885958885
 51
0.0
  0
LINE
  5
29A
330
4C0
100
AcDbEntity
  8
DATA
  6
Continuous
 62
     7
100
AcDbLine
 10
458.4999999999999
 20
-618.0540877875785
 30
0.0
 11
458.4999999999999
 21
-616.0540877875785
 31
0.0
  0
LINE
  5
29B
330
4C0
100
AcDbEntity
  8
DATA
  6
Continuous
 62
     7
100
AcDbLine
 10
541.4999999999999
 20
-618.0540877875785
 30
0.0
 11
541.4999999999999
 21
-616.0540877875785
 31
0.0
  0
LINE
  5
29C
330
4C0
100
AcDbEntity
  8
DATA
  6
Continuous
 62
     7
100
AcDbLine
 10
470.9999999999999
 20
-551.0
 30
0.0
 11
470.9999999999999
 21
-449.0
 31
0.0
  0
LINE
  5
29D
330
4C0
100
AcDbEntity
  8
DATA
  6
Continuous
 62
     7
100
AcDbLine
 10
528.9999999999999
 20
-449.0
 30
0.0
 11
528.9999999999999
 21
-551.0
 31
0.0
  0
ARC
  5
29E
330
4C0
100
AcDbEntity
  8
DATA
  6
Continuous
 62
     7
100
AcDbCircle
 10
499.9999999999999
 20
-449.0
 30
0.0
 40
29.0
100
AcDbArc
 50
0.0
 51
180.0
  0
ARC
  5
29F
330
4C0
100
AcDbEntity
  8
DATA
  6
Continuous
 62
     7
100
AcDbCircle
 10
499.9999999999999
 20
-551.0
 30
0.0
 40
29.0
100
AcDbArc
 50
180.0
 51
0.0
  0
ARC
  5
2A0
330
4C0
100
AcDbEntity
  8
DATA
  6
Continuous
 62
     7
100
AcDbCircle
 10
499.9999999999999
 20
-551.0
 30
0.0
 40
26.5
100
AcDbArc
 50
180.0
 51
0.0
  0
ARC
  5
2A1
330
4C0
100
AcDbEntity
  8
DATA
  6
Continuous
 62
     7
100
AcDbCircle
 10
499.9999999999999
 20
-449.0
 30
0.0
 40
26.5
100
AcDbArc
 50
0.0
 51
180.0
  0
LINE
  5
2A2
330
4C0
100
AcDbEntity
  8
DATA
  6
Continuous
 62
     7
100
AcDbLine
 10
526.4999999999998
 20
-449.0
 30
0.0
 11
526.4999999999998
 21
-551.0
 31
0.0
  0
LINE
  5
2A3
330
4C0
100
AcDbEntity
  8
DATA
  6
Continuous
 62
     7
100
AcDbLine
 10
473.4999999999999
 20
-449.0
 30
0.0
 11
473.4999999999999
 21
-551.0
 31
0.0
  0
CIRCLE
  5
2A4
330
4C0
100
AcDbEntity
  8
DATA
  6
Continuous
 62
     7
100
AcDbCircle
 10
499.9999999999999
 20
-449.0
 30
0.0
 40
20.0
  0
LINE
  5
2A5
330
4C0
100
AcDbEntity
  8
DATA
  6
Continuous
 62
     7
100
AcDbLine
 10
482.9999999999999
 20
-559.0040877875785
 30
0.0
 11
482.9999999999999
 21
-481.0040877875785
 31
0.0
  0
ARC
  5
2A6
330
4C0
100
AcDbEntity
  8
DATA
  6
Continuous
 62
     7
100
AcDbCircle
 10
488.9999999999999
 20
-559.0040877875785
 30
0.0
 40
6.0
100
AcDbArc
 50
180.0
 51
270.0
  0
LINE
  5
2A7
330
4C0
100
AcDbEntity
  8
DATA
  6
Continuous
 62
     7
100
AcDbLine
 10
510.9999999999999
 20
-565.0040877875786
 30
0.0
 11
488.9999999999999
 21
-565.0040877875786
 31
0.0
  0
ARC
  5
2A8
330
4C0
100
AcDbEntity
  8
DATA
  6
Continuous
 62
     7
100
AcDbCircle
 10
510.9999999999999
 20
-559.0040877875785
 30
0.0
 40
6.0
100
AcDbArc
 50
270.0
 51
0.0
  0
LINE
  5
2A9
330
4C0
100
AcDbEntity
  8
DATA
  6
Continuous
 62
     7
100
AcDbLine
 10
516.9999999999999
 20
-481.0040877875785
 30
0.0
 11
516.9999999999999
 21
-559.0040877875785
 31
0.0
  0
ARC
  5
2AA
330
4C0
100
AcDbEntity
  8
DATA
  6
Continuous
 62
     7
100
AcDbCircle
 10
510.9999999999999
 20
-481.0040877875785
 30
0.0
 40
6.0
100
AcDbArc
 50
0.0
 51
90.0
  0
LINE
  5
2AB
330
4C0
100
AcDbEntity
  8
DATA
  6
Continuous
 62
     7
100
AcDbLine
 10
488.9999999999999
 20
-475.0040877875784
 30
0.0
 11
510.9999999999999
 21
-475.0040877875784
 31
0.0
  0
ARC
  5
2AC
330
4C0
100
AcDbEntity
  8
DATA
  6
Continuous
 62
     7
100
AcDbCircle
 10
488.9999999999999
 20
-481.0040877875785
 30
0.0
 40
6.0
100
AcDbArc
 50
90.0
 51
180.0
  0
TEXT
  5
2AD
330
4C0
100
AcDbEntity
  8
DATA
 62
     7
100
AcDbText
 10
482.2130546874999
 20
-473.6329289334118
 30
0.0
 40
3.257682291666666
  1
EXTENSION MONITOR
 41
0.7
 72
     1
 11
499.9999999999999
 21
-472.0040877875785
 31
0.0
100
AcDbText
 73
     2
  0
LINE
  5
2AE
330
4C0
100
AcDbEntity
  8
DATA
  6
Continuous
 62
     7
100
AcDbLine
 10
482.9999999999999
 20
-509.0040877875785
 30
0.0
 11
516.9999999999999
 21
-509.0040877875785
 31
0.0
  0
TEXT
  5
2AF
330
4C0
100
AcDbEntity
  8
DATA
 62
     7
100
AcDbText
 10
496.047345486111
 20
-535.8071607042452
 30
0.0
 40
2.606145833333332
  1
INPUT
 41
0.7
 72
     1
 11
499.9999999999999
 21
-534.5040877875785
 31
0.0
100
AcDbText
 73
     2
  0
LWPOLYLINE
  5
2B0
330
4C0
100
AcDbEntity
  8
DATA
  6
Continuous
 62
     7
100
AcDbPolyline
 90
        4
 70
     1
 43
0.0
 10
488.4999999999999
 20
-541.0040877875785
 10
511.4999999999999
 20
-541.0040877875785
 10
511.4999999999999
 20
-560.0040877875785
 10
488.4999999999999
 20
-560.0040877875785
  0
LINE
  5
2B7
330
4C0
100
AcDbEntity
  8
DATA
  6
Continuous
 62
     7
100
AcDbLine
 10
488.4999999999999
 20
-548.5040877875785
 30
0.0
 11
511.4999999999999
 21
-548.5040877875785
 31
0.0
  0
LWPOLYLINE
  5
2B8
330
4C0
100
AcDbEntity
  8
DATA
  6
Continuous
 62
     7
100
AcDbPolyline
 90
        4
 70
     1
 43
0.0
 10
490.2499999999999
 20
-541.7540877875786
 10
497.2499999999999
 20
-541.7540877875786
 10
497.2499999999999
 20
-547.7540877875785
 10
490.2499999999999
 20
-547.7540877875785
  0
CIRCLE
  5
2BF
330
4C0
100
AcDbEntity
  8
DATA
  6
Continuous
 62
     7
100
AcDbCircle
 10
493.7499999999999
 20
-544.7540877875785
 30
0.0
 40
1.75
  0
LWPOLYLINE
  5
2C0
330
4C0
100
AcDbEntity
  8
DATA
  6
Continuous
 62
     7
100
AcDbPolyline
 90
        4
 70
     1
 43
0.0
 10
502.7499999999999
 20
-541.7540877875786
 10
509.7499999999999
 20
-541.7540877875786
 10
509.7499999999999
 20
-547.7540877875785
 10
502.7499999999999
 20
-547.7540877875785
  0
CIRCLE
  5
2C7
330
4C0
100
AcDbEntity
  8
DATA
  6
Continuous
 62
     7
100
AcDbCircle
 10
506.2499999999999
 20
-544.7540877875785
 30
0.0
 40
1.75
  0
LINE
  5
2C8
330
4C0
100
AcDbEntity
  8
DATA
  6
Continuous
 62
     7
100
AcDbLine
 10
505.2499999999999
 20
-562.5040877875785
 30
0.0
 11
507.2499999999999
 21
-562.5040877875785
 31
0.0
  0
LINE
  5
2C9
330
4C0
100
AcDbEntity
  8
DATA
  6
Continuous
 62
     7
100
AcDbLine
 10
506.2499999999999
 20
-563.5040877875785
 30
0.0
 11
506.2499999999999
 21
-561.5040877875785
 31
0.0
  0
LINE
  5
2CA
330
4C0
100
AcDbEntity
  8
DATA
  6
Continuous
 62
     7
100
AcDbLine
 10
492.7499999999999
 20
-562.5040877875785
 30
0.0
 11
494.7499999999999
 21
-562.5040877875785
 31
0.0
  0
LWPOLYLINE
  5
2CB
330
4C0
100
AcDbEntity
  8
DATA
  6
Continuous
 62
     7
100
AcDbPolyline
 90
        4
 70
     1
 43
0.0
 10
489.9999999999999
 20
-548.5040877875785
 10
497.4999999999999
 20
-548.5040877875785
 10
497.4999999999999
 20
-555.5040877875785
 10
489.9999999999999
 20
-555.5040877875785
  0
LINE
  5
2D2
330
4C0
100
AcDbEntity
  8
DATA
  6
Continuous
 62
     7
100
AcDbLine
 10
489.9999999999999
 20
-554.0040877875785
 30
0.0
 11
497.4999999999999
 21
-554.0040877875785
 31
0.0
  0
LINE
  5
2D3
330
4C0
100
AcDbEntity
  8
DATA
  6
Continuous
 62
     7
100
AcDbLine
 10
489.9999999999999
 20
-553.0040877875785
 30
0.0
 11
497.4999999999999
 21
-553.0040877875785
 31
0.0
  0
LINE
  5
2D4
330
4C0
100
AcDbEntity
  8
DATA
  6
Continuous
 62
     7
100
AcDbLine
 10
489.9999999999999
 20
-552.0040877875785
 30
0.0
 11
497.4999999999999
 21
-552.0040877875785
 31
0.0
  0
LINE
  5
2D5
330
4C0
100
AcDbEntity
  8
DATA
  6
Continuous
 62
     7
100
AcDbLine
 10
489.9999999999999
 20
-551.0040877875785
 30
0.0
 11
497.4999999999999
 21
-551.0040877875785
 31
0.0
  0
LINE
  5
2D6
330
4C0
100
AcDbEntity
  8
DATA
  6
Continuous
 62
     7
100
AcDbLine
 10
489.9999999999999
 20
-550.0040877875785
 30
0.0
 11
497.4999999999999
 21
-550.0040877875785
 31
0.0
  0
LINE
  5
2D7
330
4C0
100
AcDbEntity
  8
DATA
  6
Continuous
 62
     7
100
AcDbLine
 10
489.9999999999999
 20
-549.0040877875785
 30
0.0
 11
497.4999999999999
 21
-549.0040877875785
 31
0.0
  0
LWPOLYLINE
  5
2D8
330
4C0
100
AcDbEntity
  8
DATA
  6
Continuous
 62
     7
100
AcDbPolyline
 90
        4
 70
     1
 43
0.0
 10
502.4999999999999
 20
-548.5040877875785
 10
509.9999999999999
 20
-548.5040877875785
 10
509.9999999999999
 20
-555.5040877875785
 10
502.4999999999999
 20
-555.5040877875785
  0
LINE
  5
2DF
330
4C0
100
AcDbEntity
  8
DATA
  6
Continuous
 62
     7
100
AcDbLine
 10
502.4999999999999
 20
-554.0040877875785
 30
0.0
 11
509.9999999999999
 21
-554.0040877875785
 31
0.0
  0
LINE
  5
2E0
330
4C0
100
AcDbEntity
  8
DATA
  6
Continuous
 62
     7
100
AcDbLine
 10
502.4999999999999
 20
-553.0040877875785
 30
0.0
 11
509.9999999999999
 21
-553.0040877875785
 31
0.0
  0
LINE
  5
2E1
330
4C0
100
AcDbEntity
  8
DATA
  6
Continuous
 62
     7
100
AcDbLine
 10
502.4999999999999
 20
-552.0040877875785
 30
0.0
 11
509.9999999999999
 21
-552.0040877875785
 31
0.0
  0
LINE
  5
2E2
330
4C0
100
AcDbEntity
  8
DATA
  6
Continuous
 62
     7
100
AcDbLine
 10
502.4999999999999
 20
-551.0040877875785
 30
0.0
 11
509.9999999999999
 21
-551.0040877875785
 31
0.0
  0
LINE
  5
2E3
330
4C0
100
AcDbEntity
  8
DATA
  6
Continuous
 62
     7
100
AcDbLine
 10
502.4999999999999
 20
-550.0040877875785
 30
0.0
 11
509.9999999999999
 21
-550.0040877875785
 31
0.0
  0
LINE
  5
2E4
330
4C0
100
AcDbEntity
  8
DATA
  6
Continuous
 62
     7
100
AcDbLine
 10
502.4999999999999
 20
-549.0040877875785
 30
0.0
 11
509.9999999999999
 21
-549.0040877875785
 31
0.0
  0
LWPOLYLINE
  5
2E5
330
4C0
100
AcDbEntity
  8
DATA
  6
Continuous
 62
     7
100
AcDbPolyline
 90
        4
 70
     1
 43
0.0
 10
-506.0
 20
-672.5540877875785
 10
-494.0
 20
-672.5540877875785
 10
-494.0
 20
-679.5540877875784
 10
-506.0
 20
-679.5540877875784
  0
LINE
  5
2EC
330
4C0
100
AcDbEntity
  8
DATA
  6
Continuous
 62
     7
100
AcDbLine
 10
-502.5
 20
-679.5540877875784
 30
0.0
 11
-502.5
 21
-680.5540877875785
 31
0.0
  0
LINE
  5
2ED
330
4C0
100
AcDbEntity
  8
DATA
  6
Continuous
 62
     7
100
AcDbLine
 10
-497.5
 20
-679.5540877875785
 30
0.0
 11
-497.5
 21
-680.5540877875785
 31
0.0
  0
LINE
  5
2EE
330
4C0
100
AcDbEntity
  8
DATA
  6
Continuous
 62
     7
100
AcDbLine
 10
-510.0
 20
-807.0540877875862
 30
0.0
 11
-510.0
 21
-805.5540877875783
 31
0.0
  0
LINE
  5
2EF
330
4C0
100
AcDbEntity
  8
DATA
  6
Continuous
 62
     7
100
AcDbLine
 10
-505.0
 20
-807.0540877875862
 30
0.0
 11
-510.0
 21
-807.0540877875862
 31
0.0
  0
LINE
  5
2F0
330
4C0
100
AcDbEntity
  8
DATA
  6
Continuous
 62
     7
100
AcDbLine
 10
-490.0
 20
-807.0540877875862
 30
0.0
 11
-490.0
 21
-805.5540877875783
 31
0.0
  0
LINE
  5
2F1
330
4C0
100
AcDbEntity
  8
DATA
  6
Continuous
 62
     7
100
AcDbLine
 10
-495.0
 20
-807.0540877875862
 30
0.0
 11
-490.0
 21
-807.0540877875862
 31
0.0
  0
LINE
  5
2F2
330
4C0
100
AcDbEntity
  8
DATA
  6
Continuous
 62
     7
100
AcDbLine
 10
-504.4999999999999
 20
-808.0540877875783
 30
0.0
 11
-495.5
 21
-808.0540877875783
 31
0.0
  0
LINE
  5
2F3
330
4C0
100
AcDbEntity
  8
DATA
  6
Continuous
 62
     7
100
AcDbLine
 10
-495.0
 20
-807.5540877875784
 30
0.0
 11
-495.0
 21
-805.5540877875783
 31
0.0
  0
LINE
  5
2F4
330
4C0
100
AcDbEntity
  8
DATA
  6
Continuous
 62
     7
100
AcDbLine
 10
-505.0
 20
-807.5540877875784
 30
0.0
 11
-505.0
 21
-805.5540877875783
 31
0.0
  0
LINE
  5
2F5
330
4C0
100
AcDbEntity
  8
DATA
  6
Continuous
 62
     7
100
AcDbLine
 10
-505.0
 20
-807.5540877875784
 30
0.0
 11
-495.0
 21
-807.5540877875784
 31
0.0
  0
LINE
  5
2F6
330
4C0
100
AcDbEntity
  8
DATA
  6
Continuous
 62
     7
100
AcDbLine
 10
-504.4999999999999
 20
-808.0540877875783
 30
0.0
 11
-505.0
 21
-807.5540877875784
 31
0.0
  0
LINE
  5
2F7
330
4C0
100
AcDbEntity
  8
DATA
  6
Continuous
 62
     7
100
AcDbLine
 10
-495.5
 20
-808.0540877875783
 30
0.0
 11
-495.0
 21
-807.5540877875784
 31
0.0
  0
LWPOLYLINE
  5
2F8
330
4C0
100
AcDbEntity
  8
DATA
  6
Continuous
 62
     7
100
AcDbPolyline
 90
        4
 70
     1
 43
0.0
 10
492.2499999999999
 20
-497.5040877875785
 10
507.7499999999999
 20
-497.5040877875785
 10
507.7499999999999
 20
-500.5040877875784
 10
492.2499999999999
 20
-500.5040877875784
  0
LINE
  5
2FF
330
4C0
100
AcDbEntity
  8
DATA
  6
Continuous
 62
     7
100
AcDbLine
 10
177.17251
 20
-438.8007697875785
 30
0.0
 11
180.17251
 21
-438.8007637875785
 31
0.0
  0
TEXT
  5
300
330
4C0
100
AcDbEntity
  8
DATA
 62
     7
100
AcDbText
 10
493.0005076316549
 20
-499.8863767415715
 30
0.0
 40
1.764577907986111
  1
PROFESSIONAL
 41
0.7
 72
     1
 11
499.9999999999999
 21
-499.0040877875784
 31
0.0
100
AcDbText
 73
     2
  0
ARC
  5
301
330
4C0
100
AcDbEntity
  8
DATA
  6
Continuous
 62
     7
100
AcDbCircle
 10
496.7647789999997
 20
-492.0887562875785
 30
0.0
 40
1.418369383842314
100
AcDbArc
 50
264.6908562215381
 51
323.9911991542437
  0
ARC
  5
302
330
4C0
100
AcDbEntity
  8
DATA
  6
Continuous
 62
     7
100
AcDbCircle
 10
496.5023024999997
 20
-492.0887562875785
 30
0.0
 40
1.418367080320665
100
AcDbArc
 50
216.008800845756
 51
275.3091437784653
  0
ARC
  5
303
330
4C0
100
AcDbEntity
  8
DATA
  6
Continuous
 62
     7
100
AcDbCircle
 10
500.3689675
 20
-492.4569372875786
 30
0.0
 40
1.046436276444977
100
AcDbArc
 50
273.8309816091105
 51
351.1351473098022
  0
ARC
  5
304
330
4C0
100
AcDbEntity
  8
DATA
  6
Continuous
 62
     7
100
AcDbCircle
 10
500.3794009999999
 20
-489.0435492875785
 30
0.0
 40
1.044851463101314
100
AcDbArc
 50
8.226923859019981
 51
86.15412669215819
  0
ARC
  5
305
330
4C0
100
AcDbEntity
  8
DATA
  6
Continuous
 62
     7
100
AcDbCircle
 10
500.264429749965
 20
-492.7224585627153
 30
0.0
 40
0.1753307131501998
100
AcDbArc
 50
307.6419024975945
 51
354.2670192893794
  0
LINE
  5
306
330
4C0
100
AcDbEntity
  8
DATA
  6
Continuous
 62
     7
100
AcDbLine
 10
495.7608474999997
 20
-489.9595302875785
 30
0.0
 11
496.5828004999996
 21
-488.0010462875783
 31
0.0
  0
LINE
  5
307
330
4C0
100
AcDbEntity
  8
DATA
  6
Continuous
 62
     7
100
AcDbLine
 10
495.7608474999997
 20
-489.9595302875785
 30
0.0
 11
494.9490364999996
 21
-488.0010462875783
 31
0.0
  0
LINE
  5
308
330
4C0
100
AcDbEntity
  8
DATA
  6
Continuous
 62
     7
100
AcDbLine
 10
501.9914674999999
 20
-493.5010462875785
 30
0.0
 11
501.9914674999999
 21
-488.0010462875783
 31
0.0
  0
LINE
  5
309
330
4C0
100
AcDbEntity
  8
DATA
  6
Continuous
 62
     7
100
AcDbLine
 10
503.0468185
 20
-488.0010462875783
 30
0.0
 11
503.0468185
 21
-492.6587982875785
 31
0.0
  0
LINE
  5
30A
330
4C0
100
AcDbEntity
  8
DATA
  6
Continuous
 62
     7
100
AcDbLine
 10
496.9684109999998
 20
-488.0010462875783
 30
0.0
 11
496.9684109999998
 21
-492.6587982875785
 31
0.0
  0
LINE
  5
30B
330
4C0
100
AcDbEntity
  8
DATA
  6
Continuous
 62
     7
100
AcDbLine
 10
497.9831719999997
 20
-488.0010462875783
 30
0.0
 11
497.9831719999997
 21
-492.6587982875785
 31
0.0
  0
LINE
  5
30C
330
4C0
100
AcDbEntity
  8
DATA
  6
Continuous
 62
     7
100
AcDbLine
 10
498.5108474999998
 20
-488.0010462875783
 30
0.0
 11
498.5108474999998
 21
-493.5010462875785
 31
0.0
  0
LINE
  5
30D
330
4C0
100
AcDbEntity
  8
DATA
  6
Continuous
 62
     7
100
AcDbLine
 10
499.4342809999998
 20
-488.5185687875783
 30
0.0
 11
499.4342809999998
 21
-490.2842557875785
 31
0.0
  0
LINE
  5
30E
330
4C0
100
AcDbEntity
  8
DATA
  6
Continuous
 62
     7
100
AcDbLine
 10
501.4134999999999
 20
-490.1820877875784
 30
0.0
 11
501.4134999999999
 21
-488.8940372875783
 31
0.0
  0
LINE
  5
30F
330
4C0
100
AcDbEntity
  8
DATA
  6
Continuous
 62
     7
100
AcDbLine
 10
500.4388834999999
 20
-488.7621142875783
 30
0.0
 11
500.4388834999999
 21
-490.0407157875784
 31
0.0
  0
LINE
  5
310
330
4C0
100
AcDbEntity
  8
DATA
  6
Continuous
 62
     7
100
AcDbLine
 10
496.1971954999998
 20
-491.7759492875785
 30
0.0
 11
496.1971954999998
 21
-492.6587872875786
 31
0.0
  0
LINE
  5
311
330
4C0
100
AcDbEntity
  8
DATA
  6
Continuous
 62
     7
100
AcDbLine
 10
496.1971954999998
 20
-491.7759492875785
 30
0.0
 11
495.2839094999997
 21
-491.7759492875785
 31
0.0
  0
LINE
  5
312
330
4C0
100
AcDbEntity
  8
DATA
  6
Continuous
 62
     7
100
AcDbLine
 10
495.2839094999997
 20
-491.7759492875785
 30
0.0
 11
495.2839094999997
 21
-492.6587872875786
 31
0.0
  0
ARC
  5
313
330
4C0
100
AcDbEntity
  8
DATA
  6
Continuous
 62
     7
100
AcDbCircle
 10
496.5847364999996
 20
-492.6706892875786
 30
0.0
 40
0.3838608544333197
100
AcDbArc
 50
269.7118487927571
 51
1.775987005685749
  0
ARC
  5
314
330
4C0
100
AcDbEntity
  8
DATA
  6
Continuous
 62
     7
100
AcDbCircle
 10
496.5808699999997
 20
-492.6706892875786
 30
0.0
 40
0.3838588916027455
100
AcDbArc
 50
178.2240129943084
 51
270.2881512072388
  0
ARC
  5
315
330
4C0
100
AcDbEntity
  8
DATA
  6
Continuous
 62
     7
100
AcDbCircle
 10
495.9249014999996
 20
-492.6276957875786
 30
0.0
 40
0.6417401144968418
100
AcDbArc
 50
182.7769954499891
 51
207.3596066671444
  0
CIRCLE
  5
316
330
4C0
100
AcDbEntity
  8
DATA
  6
Continuous
 62
     7
100
AcDbCircle
 10
495.8166614999997
 20
-490.7206037875785
 30
0.0
 40
0.5225990000000138
  0
LINE
  5
317
330
4C0
100
AcDbEntity
  8
DATA
  6
Continuous
 62
     7
100
AcDbLine
 10
504.7414674999999
 20
-493.5010407875785
 30
0.0
 11
504.7414674999999
 21
-491.7759437875785
 31
0.0
  0
LINE
  5
318
330
4C0
100
AcDbEntity
  8
DATA
  6
Continuous
 62
     7
100
AcDbLine
 10
504.7414674999999
 20
-491.7759492875785
 30
0.0
 11
503.8180395
 21
-491.7759492875785
 31
0.0
  0
LINE
  5
319
330
4C0
100
AcDbEntity
  8
DATA
  6
Continuous
 62
     7
100
AcDbLine
 10
503.8180395
 20
-491.7759492875785
 30
0.0
 11
503.8180395
 21
-492.6587872875786
 31
0.0
  0
LINE
  5
31A
330
4C0
100
AcDbEntity
  8
DATA
  6
Continuous
 62
     7
100
AcDbLine
 10
498.5108474999998
 20
-493.5010407875785
 30
0.0
 11
500.4388834999999
 21
-493.5010352875785
 31
0.0
  0
LINE
  5
31B
330
4C0
100
AcDbEntity
  8
DATA
  6
Continuous
 62
     7
100
AcDbLine
 10
499.4342754999998
 20
-492.9835127875786
 30
0.0
 11
499.9315084999998
 21
-492.9835127875786
 31
0.0
  0
LINE
  5
31C
330
4C0
100
AcDbEntity
  8
DATA
  6
Continuous
 62
     7
100
AcDbLine
 10
499.4342809999998
 20
-492.9835127875786
 30
0.0
 11
499.4342809999998
 21
-490.8119257875784
 31
0.0
  0
LINE
  5
31D
330
4C0
100
AcDbEntity
  8
DATA
  6
Continuous
 62
     7
100
AcDbLine
 10
499.4342754999998
 20
-490.8119257875784
 30
0.0
 11
499.9315084999998
 21
-490.8119257875784
 31
0.0
  0
LINE
  5
31E
330
4C0
100
AcDbEntity
  8
DATA
  6
Continuous
 62
     7
100
AcDbLine
 10
500.4388834999999
 20
-492.7399727875786
 30
0.0
 11
500.4388834999999
 21
-491.0554657875785
 31
0.0
  0
ARC
  5
31F
330
4C0
100
AcDbEntity
  8
DATA
  6
Continuous
 62
     7
100
AcDbCircle
 10
497.3421799999997
 20
-492.6276957875786
 30
0.0
 40
0.6417392013258148
100
AcDbArc
 50
332.6403933328552
 51
357.2230045500095
  0
ARC
  5
320
330
4C0
100
AcDbEntity
  8
DATA
  6
Continuous
 62
     7
100
AcDbCircle
 10
503.4343595
 20
-492.6706892875786
 30
0.0
 40
0.3838608544333203
100
AcDbArc
 50
269.7118487927401
 51
1.775987005685749
  0
ARC
  5
321
330
4C0
100
AcDbEntity
  8
DATA
  6
Continuous
 62
     7
100
AcDbCircle
 10
503.4304985
 20
-492.6706892875786
 30
0.0
 40
0.3838588916027455
100
AcDbArc
 50
178.2240129943084
 51
270.2881512072557
  0
LINE
  5
322
330
4C0
100
AcDbEntity
  8
DATA
  6
Continuous
 62
     7
100
AcDbLine
 10
501.4130544999999
 20
-492.6181972875785
 30
0.0
 11
501.4130544999999
 21
-491.1569462875785
 31
0.0
  0
LINE
  5
323
330
4C0
100
AcDbEntity
  8
DATA
  6
Continuous
 62
     7
100
AcDbLine
 10
499.4342754999998
 20
-490.2842557875785
 30
0.0
 11
499.9315084999998
 21
-490.2842557875785
 31
0.0
  0
LINE
  5
324
330
4C0
100
AcDbEntity
  8
DATA
  6
Continuous
 62
     7
100
AcDbLine
 10
496.9684109999998
 20
-488.0010462875783
 30
0.0
 11
497.9831719999997
 21
-488.0010462875783
 31
0.0
  0
LINE
  5
325
330
4C0
100
AcDbEntity
  8
DATA
  6
Continuous
 62
     7
100
AcDbLine
 10
494.9490364999996
 20
-488.0010462875783
 30
0.0
 11
496.5828004999996
 21
-488.0010462875783
 31
0.0
  0
LINE
  5
326
330
4C0
100
AcDbEntity
  8
DATA
  6
Continuous
 62
     7
100
AcDbLine
 10
501.9914674999999
 20
-488.0010462875783
 30
0.0
 11
503.0468185
 21
-488.0010462875783
 31
0.0
  0
LINE
  5
327
330
4C0
100
AcDbEntity
  8
DATA
  6
Continuous
 62
     7
100
AcDbLine
 10
498.5108474999998
 20
-488.0010462875783
 30
0.0
 11
500.4494820704804
 21
-488.0010507391356
 31
0.0
  0
LINE
  5
328
330
4C0
100
AcDbEntity
  8
DATA
  6
Continuous
 62
     7
100
AcDbLine
 10
499.4342754999998
 20
-488.5185742875783
 30
0.0
 11
499.9315084999998
 21
-488.5185742875783
 31
0.0
  0
ARC
  5
329
330
4C0
100
AcDbEntity
  8
DATA
  6
Continuous
 62
     7
100
AcDbCircle
 10
499.9373800044316
 20
-492.0189844092556
 30
0.0
 40
0.964546249359952
100
AcDbArc
 50
269.6512199376186
 51
282.8264828068759
  0
ARC
  5
32A
330
4C0
100
AcDbEntity
  8
DATA
  6
Continuous
 62
     7
100
AcDbCircle
 10
500.0457138151065
 20
-492.4267754587535
 30
0.0
 40
0.5430908470312698
100
AcDbArc
 50
281.2331036226602
 51
306.862008894065
  0
ARC
  5
32B
330
4C0
100
AcDbEntity
  8
DATA
  6
Continuous
 62
     7
100
AcDbCircle
 10
500.264429749965
 20
-491.0729800124418
 30
0.0
 40
0.1753307131502066
100
AcDbArc
 50
5.732980710620623
 51
52.3580975024349
  0
ARC
  5
32C
330
4C0
100
AcDbEntity
  8
DATA
  6
Continuous
 62
     7
100
AcDbCircle
 10
499.9373800044316
 20
-491.7764541659012
 30
0.0
 40
0.9645462493599643
100
AcDbArc
 50
77.1735171931241
 51
90.34878006238136
  0
ARC
  5
32D
330
4C0
100
AcDbEntity
  8
DATA
  6
Continuous
 62
     7
100
AcDbCircle
 10
500.0457138151065
 20
-491.3686631164036
 30
0.0
 40
0.5430908470313067
100
AcDbArc
 50
53.13799110593497
 51
78.76689637733988
  0
ARC
  5
32E
330
4C0
100
AcDbEntity
  8
DATA
  6
Continuous
 62
     7
100
AcDbCircle
 10
500.8808304999999
 20
-491.1929217875784
 30
0.0
 40
0.5334384901526052
100
AcDbArc
 50
3.867006359816259
 51
88.3616345679051
  0
ARC
  5
32F
330
4C0
100
AcDbEntity
  8
DATA
  6
Continuous
 62
     7
100
AcDbCircle
 10
500.8803409999999
 20
-490.1259657875784
 30
0.0
 40
0.5339685669712047
100
AcDbArc
 50
271.6892821046413
 51
356.078282982655
  0
ARC
  5
330
330
4C0
100
AcDbEntity
  8
DATA
  6
Continuous
 62
     7
100
AcDbCircle
 10
500.264429749965
 20
-490.0232015627151
 30
0.0
 40
0.1753307131501998
100
AcDbArc
 50
307.6419024975945
 51
354.2670192893794
  0
ARC
  5
331
330
4C0
100
AcDbEntity
  8
DATA
  6
Continuous
 62
     7
100
AcDbCircle
 10
499.9373800044316
 20
-489.3197274092556
 30
0.0
 40
0.9645462493600089
100
AcDbArc
 50
269.6512199376186
 51
282.8264828068752
  0
ARC
  5
332
330
4C0
100
AcDbEntity
  8
DATA
  6
Continuous
 62
     7
100
AcDbCircle
 10
500.0457138151065
 20
-489.7275184587534
 30
0.0
 40
0.5430908470313256
100
AcDbArc
 50
281.233103622659
 51
306.8620088940614
  0
ARC
  5
333
330
4C0
100
AcDbEntity
  8
DATA
  6
Continuous
 62
     7
100
AcDbCircle
 10
500.264429749965
 20
-488.7796285124417
 30
0.0
 40
0.1753307131502066
100
AcDbArc
 50
5.732980710620623
 51
52.3580975024349
  0
ARC
  5
334
330
4C0
100
AcDbEntity
  8
DATA
  6
Continuous
 62
     7
100
AcDbCircle
 10
499.9373800044316
 20
-489.4831026659013
 30
0.0
 40
0.9645462493600753
100
AcDbArc
 50
77.17351719312557
 51
90.3487800623813
  0
ARC
  5
335
330
4C0
100
AcDbEntity
  8
DATA
  6
Continuous
 62
     7
100
AcDbCircle
 10
500.0457138151065
 20
-489.0753116164036
 30
0.0
 40
0.5430908470313521
100
AcDbArc
 50
53.13799110593855
 51
78.76689637734106
  0
LINE
  5
336
330
4C0
100
AcDbEntity
  8
DATA
  6
Continuous
 62
     7
100
AcDbLine
 10
501.9914674999999
 20
-493.5010462875785
 30
0.0
 11
504.7414674999999
 21
-493.5010407875785
 31
0.0
  0
LINE
  5
337
330
4C0
100
AcDbEntity
  8
DATA
  6
Continuous
 62
     7
100
AcDbLine
 10
492.2499999999999
 20
-484.5040877875785
 30
0.0
 11
507.7499999999999
 21
-484.5040877875785
 31
0.0
  0
LWPOLYLINE
  5
338
330
4C0
100
AcDbEntity
  8
DATA
  6
Continuous
 62
     7
100
AcDbPolyline
 90
        4
 70
     1
 43
0.0
 10
492.2499999999999
 20
-484.5040877875785
 10
507.7499999999999
 20
-484.5040877875785
 10
507.7499999999999
 20
-497.0040877875785
 10
492.2499999999999
 20
-497.0040877875785
  0
TEXT
  5
33F
330
4C0
100
AcDbEntity
  8
DATA
 62
     7
100
AcDbText
 10
498.7499997695286
 20
-523.8540877875784
 30
0.0
 40
3.84765625
  1
104
 41
0.7
 11
498.7499997695286
 21
-520.0064315375784
 31
0.0
100
AcDbText
 73
     3
  0
TEXT
  5
340
330
4C0
100
AcDbEntity
  8
DATA
 62
     7
100
AcDbText
 10
493.7100000196031
 20
-525.6828877875785
 30
0.0
 40
7.756875000000001
  1
1
 41
0.7
 11
493.7100000196031
 21
-517.9260127875785
 31
0.0
100
AcDbText
 73
     3
  0
TEXT
  5
341
330
4C0
100
AcDbEntity
  8
DATA
 62
     7
100
AcDbText
 10
498.7499997695286
 20
-519.1812877875785
 30
0.0
 40
1.93921875
  1
SERIES
 41
0.7
 11
498.7499997695286
 21
-517.2420690375785
 31
0.0
100
AcDbText
 73
     3
  0
TEXT
  5
342
330
4C0
100
AcDbEntity
  8
DATA
 62
     7
100
AcDbText
 10
498.7499997695286
 20
-525.3796877875784
 30
0.0
 40
0.7387500000000001
  1
REFERENCE MONITORS
 41
0.7
 11
498.7499997695286
 21
-524.6409377875785
 31
0.0
100
AcDbText
 73
     3
  0
LINE
  5
343
330
4C0
100
AcDbEntity
  8
DATA
  6
Continuous
 62
     7
100
AcDbLine
 10
400.7500000000077
 20
-554.0040877875785
 30
0.0
 11
400.0
 21
-554.0040877875785
 31
0.0
  0
LINE
  5
344
330
4C0
100
AcDbEntity
  8
DATA
  6
Continuous
 62
     7
100
AcDbLine
 10
400.7500000000077
 20
-555.5040877875785
 30
0.0
 11
400.0
 21
-555.5040877875785
 31
0.0
  0
ARC
  5
345
330
4C0
100
AcDbEntity
  8
DATA
  6
Continuous
 62
     7
100
AcDbCircle
 10
400.7500000000077
 20
-554.7540877875785
 30
0.0
 40
0.75
100
AcDbArc
 50
270.0
 51
90.0
  0
LINE
  5
346
330
4C0
100
AcDbEntity
  8
DATA
  6
Continuous
 62
     7
100
AcDbLine
 10
164.9999999999998
 20
-191.5540877875708
 30
0.0
 11
164.9999999999998
 21
-193.0540877875785
 31
0.0
  0
LINE
  5
347
330
4C0
100
AcDbEntity
  8
DATA
  6
Continuous
 62
     7
100
AcDbLine
 10
172.4999999999999
 20
-191.5540877875708
 30
0.0
 11
172.4999999999999
 21
-193.0540877875785
 31
0.0
  0
LINE
  5
348
330
4C0
100
AcDbEntity
  8
DATA
  6
Continuous
 62
     7
100
AcDbLine
 10
172.4999999999999
 20
-191.5540877875708
 30
0.0
 11
164.9999999999998
 21
-191.5540877875708
 31
0.0
  0
LINE
  5
349
330
4C0
100
AcDbEntity
  8
DATA
  6
Continuous
 62
     7
100
AcDbLine
 10
184.9999999999999
 20
-191.5540877875708
 30
0.0
 11
184.9999999999999
 21
-193.0540877875785
 31
0.0
  0
LINE
  5
34A
330
4C0
100
AcDbEntity
  8
DATA
  6
Continuous
 62
     7
100
AcDbLine
 10
177.4999999999999
 20
-191.5540877875708
 30
0.0
 11
177.4999999999999
 21
-193.0540877875785
 31
0.0
  0
LINE
  5
34B
330
4C0
100
AcDbEntity
  8
DATA
  6
Continuous
 62
     7
100
AcDbLine
 10
177.4999999999999
 20
-191.5540877875708
 30
0.0
 11
184.9999999999999
 21
-191.5540877875708
 31
0.0
  0
LINE
  5
34C
330
4C0
100
AcDbEntity
  8
DATA
  6
Continuous
 62
     7
100
AcDbLine
 10
164.9999999999998
 20
-807.0540877875858
 30
0.0
 11
164.9999999999998
 21
-805.5540877875783
 31
0.0
  0
LINE
  5
34D
330
4C0
100
AcDbEntity
  8
DATA
  6
Continuous
 62
     7
100
AcDbLine
 10
172.4999999999999
 20
-807.0540877875858
 30
0.0
 11
172.4999999999999
 21
-805.5540877875783
 31
0.0
  0
LINE
  5
34E
330
4C0
100
AcDbEntity
  8
DATA
  6
Continuous
 62
     7
100
AcDbLine
 10
172.4999999999999
 20
-807.0540877875858
 30
0.0
 11
164.9999999999998
 21
-807.0540877875858
 31
0.0
  0
LINE
  5
34F
330
4C0
100
AcDbEntity
  8
DATA
  6
Continuous
 62
     7
100
AcDbLine
 10
184.9999999999999
 20
-807.0540877875858
 30
0.0
 11
184.9999999999999
 21
-805.5540877875783
 31
0.0
  0
LINE
  5
350
330
4C0
100
AcDbEntity
  8
DATA
  6
Continuous
 62
     7
100
AcDbLine
 10
177.4999999999999
 20
-807.0540877875858
 30
0.0
 11
177.4999999999999
 21
-805.5540877875783
 31
0.0
  0
LINE
  5
351
330
4C0
100
AcDbEntity
  8
DATA
  6
Continuous
 62
     7
100
AcDbLine
 10
177.4999999999999
 20
-807.0540877875858
 30
0.0
 11
184.9999999999999
 21
-807.0540877875858
 31
0.0
  0
TEXT
  5
352
330
4C0
100
AcDbEntity
  8
DATA
 62
     7
100
AcDbText
 10
-270.4383304398148
 20
-335.8589409722222
 30
0.0
 40
21.71788194444445
  1
背面パネル拡大図
 41
0.7
 72
     1
 11
-200.0
 21
-325.0
 31
0.0
100
AcDbText
 73
     2
  0
LINE
  5
353
330
4C0
100
AcDbEntity
  8
DATA
  6
Continuous
 62
     7
100
AcDbLine
 10
-325.0
 20
-350.0
 30
0.0
 11
-75.0
 21
-350.0
 31
0.0
  0
ARC
  5
354
330
4C0
100
AcDbEntity
  8
DATA
  6
Continuous
 62
     7
100
AcDbCircle
 10
-200.0000000000003
 20
-172.4795610621075
 30
0.0
 40
132.4999999999997
100
AcDbArc
 50
180.0
 51
0.0
  0
LINE
  5
355
330
4C0
100
AcDbEntity
  8
DATA
  6
Continuous
 62
     7
100
AcDbLine
 10
-67.5000000000001
 20
248.3202853463274
 30
0.0
 11
-67.5000000000001
 21
-172.4795610621075
 31
0.0
  0
LINE
  5
356
330
4C0
100
AcDbEntity
  8
DATA
  6
Continuous
 62
     7
100
AcDbLine
 10
-332.5
 20
267.3047146536721
 30
0.0
 11
-332.5
 21
-172.4795610621075
 31
0.0
  0
LINE
  5
357
330
4C0
100
AcDbEntity
  8
DATA
  6
Continuous
 62
     7
100
AcDbLine
 10
-285.0000000000003
 20
-92.5
 30
0.0
 11
-285.0000000000003
 21
177.5
 31
0.0
  0
ARC
  5
358
330
4C0
100
AcDbEntity
  8
DATA
  6
Continuous
 62
     7
100
AcDbCircle
 10
-255.0000000000002
 20
-92.5
 30
0.0
 40
30.0
100
AcDbArc
 50
180.0
 51
270.0
  0
LINE
  5
359
330
4C0
100
AcDbEntity
  8
DATA
  6
Continuous
 62
     7
100
AcDbLine
 10
-145.0000000000001
 20
-122.5
 30
0.0
 11
-255.0000000000002
 21
-122.5
 31
0.0
  0
ARC
  5
35A
330
4C0
100
AcDbEntity
  8
DATA
  6
Continuous
 62
     7
100
AcDbCircle
 10
-145.0000000000001
 20
-92.5
 30
0.0
 40
30.0
100
AcDbArc
 50
270.0
 51
0.0
  0
LINE
  5
35B
330
4C0
100
AcDbEntity
  8
DATA
  6
Continuous
 62
     7
100
AcDbLine
 10
-115.0000000000001
 20
177.5
 30
0.0
 11
-115.0000000000001
 21
-92.5
 31
0.0
  0
ARC
  5
35C
330
4C0
100
AcDbEntity
  8
DATA
  6
Continuous
 62
     7
100
AcDbCircle
 10
-145.0000000000001
 20
177.5
 30
0.0
 40
30.0
100
AcDbArc
 50
0.0
 51
90.0
  0
LINE
  5
35D
330
4C0
100
AcDbEntity
  8
DATA
  6
Continuous
 62
     7
100
AcDbLine
 10
-255.0000000000002
 20
207.5
 30
0.0
 11
-145.0000000000001
 21
207.5
 31
0.0
  0
ARC
  5
35E
330
4C0
100
AcDbEntity
  8
DATA
  6
Continuous
 62
     7
100
AcDbCircle
 10
-255.0000000000002
 20
177.5
 30
0.0
 40
30.0
100
AcDbArc
 50
90.0
 51
180.0
  0
CIRCLE
  5
35F
330
4C0
100
AcDbEntity
  8
DATA
  6
Continuous
 62
     7
100
AcDbCircle
 10
-250.0000000000003
 20
170.0
 30
0.0
 40
18.75
  0
CIRCLE
  5
360
330
4C0
100
AcDbEntity
  8
DATA
  6
Continuous
 62
     7
100
AcDbCircle
 10
-250.0000000000003
 20
170.0
 30
0.0
 40
13.75
  0
CIRCLE
  5
361
330
4C0
100
AcDbEntity
  8
DATA
  6
Continuous
 62
     7
100
AcDbCircle
 10
-250.0000000000003
 20
170.0
 30
0.0
 40
8.75
  0
CIRCLE
  5
362
330
4C0
100
AcDbEntity
  8
DATA
  6
Continuous
 62
     7
100
AcDbCircle
 10
-150.0000000000001
 20
170.0
 30
0.0
 40
18.75
  0
CIRCLE
  5
363
330
4C0
100
AcDbEntity
  8
DATA
  6
Continuous
 62
     7
100
AcDbCircle
 10
-150.0000000000001
 20
170.0
 30
0.0
 40
13.75
  0
CIRCLE
  5
364
330
4C0
100
AcDbEntity
  8
DATA
  6
Continuous
 62
     7
100
AcDbCircle
 10
-150.0000000000001
 20
170.0
 30
0.0
 40
8.75
  0
CIRCLE
  5
365
330
4C0
100
AcDbEntity
  8
DATA
  6
Continuous
 62
     7
100
AcDbCircle
 10
-250.0000000000003
 20
82.5
 30
0.0
 40
21.25
  0
CIRCLE
  5
366
330
4C0
100
AcDbEntity
  8
DATA
  6
Continuous
 62
     7
100
AcDbCircle
 10
-250.0000000000003
 20
82.5
 30
0.0
 40
17.5
  0
CIRCLE
  5
367
330
4C0
100
AcDbEntity
  8
DATA
  6
Continuous
 62
     7
100
AcDbCircle
 10
-150.0000000000001
 20
82.5
 30
0.0
 40
21.25
  0
CIRCLE
  5
368
330
4C0
100
AcDbEntity
  8
DATA
  6
Continuous
 62
     7
100
AcDbCircle
 10
-150.0000000000001
 20
82.5
 30
0.0
 40
17.5
  0
TEXT
  5
369
330
4C0
100
AcDbEntity
  8
DATA
 62
     7
100
AcDbText
 10
-273.7322092013891
 20
214.3557942708333
 30
0.0
 40
16.28841145833333
  1
MASTER MONITOR
 41
0.7
 72
     1
 11
-200.0000000000003
 21
222.5
 31
0.0
100
AcDbText
 73
     2
  0
TEXT
  5
36A
330
4C0
100
AcDbEntity
  8
DATA
 62
     7
100
AcDbText
 10
-224.324027777778
 20
182.2346354166666
 30
0.0
 40
13.03072916666666
  1
INPUTS
 41
0.7
 72
     1
 11
-200.0000000000003
 21
188.75
 31
0.0
100
AcDbText
 73
     2
  0
TEXT
  5
36B
330
4C0
100
AcDbEntity
  8
DATA
 62
     7
100
AcDbText
 10
-209.1215104166669
 20
158.1953124999998
 30
0.0
 40
8.687152777777777
  1
LOW
 41
0.7
 72
     1
 11
-200.0000000000003
 21
162.5388888888886
 31
0.0
100
AcDbText
 73
     2
  0
TEXT
  5
36C
330
4C0
100
AcDbEntity
  8
DATA
 62
     7
100
AcDbText
 10
-215.2025173611114
 20
146.9064236111111
 30
0.0
 40
8.687152777777777
  1
LEVEL
 41
0.7
 72
     1
 11
-200.0000000000003
 21
151.25
 31
0.0
100
AcDbText
 73
     2
  0
TEXT
  5
36D
330
4C0
100
AcDbEntity
  8
DATA
 62
     7
100
AcDbText
 10
-229.3915335648151
 20
135.6175347222224
 30
0.0
 40
8.687152777777777
  1
UNBALANCED
 41
0.7
 72
     1
 11
-200.0000000000003
 21
139.9611111111113
 31
0.0
100
AcDbText
 73
     2
  0
TEXT
  5
36E
330
4C0
100
AcDbEntity
  8
DATA
 62
     7
100
AcDbText
 10
-267.2295196759261
 20
123.1564236111111
 30
0.0
 40
8.687152777777777
  1
MASTER
 41
0.7
 72
     1
 11
-250.0000000000003
 21
127.5
 31
0.0
100
AcDbText
 73
     2
  0
TEXT
  5
36F
330
4C0
100
AcDbEntity
  8
DATA
 62
     7
100
AcDbText
 10
-175.3375289351853
 20
123.1564236111111
 30
0.0
 40
8.687152777777777
  1
EXTENSION
 41
0.7
 72
     1
 11
-150.0000000000001
 21
127.5
 31
0.0
100
AcDbText
 73
     2
  0
TEXT
  5
370
330
4C0
100
AcDbEntity
  8
DATA
 62
     7
100
AcDbText
 10
-210.1350115740743
 20
70.69531249999975
 30
0.0
 40
8.687152777777777
  1
HIGH
 41
0.7
 72
     1
 11
-200.0000000000003
 21
75.03888888888865
 31
0.0
100
AcDbText
 73
     2
  0
TEXT
  5
371
330
4C0
100
AcDbEntity
  8
DATA
 62
     7
100
AcDbText
 10
-215.2025173611114
 20
59.40642361111111
 30
0.0
 40
8.687152777777777
  1
LEVEL
 41
0.7
 72
     1
 11
-200.0000000000003
 21
63.75
 31
0.0
100
AcDbText
 73
     2
  0
TEXT
  5
372
330
4C0
100
AcDbEntity
  8
DATA
 62
     7
100
AcDbText
 10
-223.3105266203706
 20
48.11753472222245
 30
0.0
 40
8.687152777777777
  1
BALANCED
 41
0.7
 72
     1
 11
-200.0000000000003
 21
52.46111111111134
 31
0.0
100
AcDbText
 73
     2
  0
LINE
  5
373
330
4C0
100
AcDbEntity
  8
DATA
  6
Continuous
 62
     7
100
AcDbLine
 10
-285.0000000000003
 20
37.5
 30
0.0
 11
-115.0000000000001
 21
37.5
 31
0.0
  0
TEXT
  5
374
330
4C0
100
AcDbEntity
  8
DATA
 62
     7
100
AcDbText
 10
-268.107277777778
 20
15.98463541666666
 30
0.0
 40
13.03072916666666
  1
EXTENSION OUTPUT
 41
0.7
 72
     1
 11
-200.0000000000003
 21
22.5
 31
0.0
100
AcDbText
 73
     2
  0
LWPOLYLINE
  5
375
330
4C0
100
AcDbEntity
  8
DATA
  6
Continuous
 62
     7
100
AcDbPolyline
 90
        4
 70
     1
 43
0.0
 10
-257.5
 20
-2.5
 10
-142.5000000000001
 20
-2.5
 10
-142.5000000000001
 20
-97.5
 10
-257.5
 20
-97.5
  0
LINE
  5
37C
330
4C0
100
AcDbEntity
  8
DATA
  6
Continuous
 62
     7
100
AcDbLine
 10
-257.5
 20
-40.0
 30
0.0
 11
-142.5000000000001
 21
-40.0
 31
0.0
  0
LWPOLYLINE
  5
37D
330
4C0
100
AcDbEntity
  8
DATA
  6
Continuous
 62
     7
100
AcDbPolyline
 90
        4
 70
     1
 43
0.0
 10
-248.75
 20
-6.25
 10
-213.75
 20
-6.25
 10
-213.75
 20
-36.25
 10
-248.75
 20
-36.25
  0
CIRCLE
  5
384
330
4C0
100
AcDbEntity
  8
DATA
  6
Continuous
 62
     7
100
AcDbCircle
 10
-231.25
 20
-21.25
 30
0.0
 40
8.75
  0
LWPOLYLINE
  5
385
330
4C0
100
AcDbEntity
  8
DATA
  6
Continuous
 62
     7
100
AcDbPolyline
 90
        4
 70
     1
 43
0.0
 10
-186.2500000000002
 20
-6.25
 10
-151.2500000000001
 20
-6.25
 10
-151.2500000000001
 20
-36.25
 10
-186.2500000000002
 20
-36.25
  0
CIRCLE
  5
38C
330
4C0
100
AcDbEntity
  8
DATA
  6
Continuous
 62
     7
100
AcDbCircle
 10
-168.7500000000002
 20
-21.25
 30
0.0
 40
8.75
  0
LINE
  5
38D
330
4C0
100
AcDbEntity
  8
DATA
  6
Continuous
 62
     7
100
AcDbLine
 10
-173.7500000000002
 20
-110.0
 30
0.0
 11
-163.7500000000002
 21
-110.0
 31
0.0
  0
LINE
  5
38E
330
4C0
100
AcDbEntity
  8
DATA
  6
Continuous
 62
     7
100
AcDbLine
 10
-168.7500000000002
 20
-115.0
 30
0.0
 11
-168.7500000000002
 21
-105.0
 31
0.0
  0
LINE
  5
38F
330
4C0
100
AcDbEntity
  8
DATA
  6
Continuous
 62
     7
100
AcDbLine
 10
-236.25
 20
-110.0
 30
0.0
 11
-226.25
 21
-110.0
 31
0.0
  0
LWPOLYLINE
  5
390
330
4C0
100
AcDbEntity
  8
DATA
  6
Continuous
 62
     7
100
AcDbPolyline
 90
        4
 70
     1
 43
0.0
 10
-250.0
 20
-40.0
 10
-212.5
 20
-40.0
 10
-212.5
 20
-75.0
 10
-250.0
 20
-75.0
  0
LINE
  5
397
330
4C0
100
AcDbEntity
  8
DATA
  6
Continuous
 62
     7
100
AcDbLine
 10
-250.0
 20
-67.5
 30
0.0
 11
-212.5
 21
-67.5
 31
0.0
  0
LINE
  5
398
330
4C0
100
AcDbEntity
  8
DATA
  6
Continuous
 62
     7
100
AcDbLine
 10
-250.0
 20
-62.5
 30
0.0
 11
-212.5
 21
-62.5
 31
0.0
  0
LINE
  5
399
330
4C0
100
AcDbEntity
  8
DATA
  6
Continuous
 62
     7
100
AcDbLine
 10
-250.0
 20
-57.5
 30
0.0
 11
-212.5
 21
-57.5
 31
0.0
  0
LINE
  5
39A
330
4C0
100
AcDbEntity
  8
DATA
  6
Continuous
 62
     7
100
AcDbLine
 10
-250.0
 20
-52.5
 30
0.0
 11
-212.5
 21
-52.5
 31
0.0
  0
LINE
  5
39B
330
4C0
100
AcDbEntity
  8
DATA
  6
Continuous
 62
     7
100
AcDbLine
 10
-250.0
 20
-47.5
 30
0.0
 11
-212.5
 21
-47.5
 31
0.0
  0
LINE
  5
39C
330
4C0
100
AcDbEntity
  8
DATA
  6
Continuous
 62
     7
100
AcDbLine
 10
-250.0
 20
-42.5
 30
0.0
 11
-212.5
 21
-42.5
 31
0.0
  0
LWPOLYLINE
  5
39D
330
4C0
100
AcDbEntity
  8
DATA
  6
Continuous
 62
     7
100
AcDbPolyline
 90
        4
 70
     1
 43
0.0
 10
-187.5000000000002
 20
-40.0
 10
-150.0000000000001
 20
-40.0
 10
-150.0000000000001
 20
-75.0
 10
-187.5000000000002
 20
-75.0
  0
LINE
  5
3A4
330
4C0
100
AcDbEntity
  8
DATA
  6
Continuous
 62
     7
100
AcDbLine
 10
-187.5000000000002
 20
-67.5
 30
0.0
 11
-150.0000000000001
 21
-67.5
 31
0.0
  0
LINE
  5
3A5
330
4C0
100
AcDbEntity
  8
DATA
  6
Continuous
 62
     7
100
AcDbLine
 10
-187.5000000000002
 20
-62.5
 30
0.0
 11
-150.0000000000001
 21
-62.5
 31
0.0
  0
LINE
  5
3A6
330
4C0
100
AcDbEntity
  8
DATA
  6
Continuous
 62
     7
100
AcDbLine
 10
-187.5000000000002
 20
-57.5
 30
0.0
 11
-150.0000000000001
 21
-57.5
 31
0.0
  0
LINE
  5
3A7
330
4C0
100
AcDbEntity
  8
DATA
  6
Continuous
 62
     7
100
AcDbLine
 10
-187.5000000000002
 20
-52.5
 30
0.0
 11
-150.0000000000001
 21
-52.5
 31
0.0
  0
LINE
  5
3A8
330
4C0
100
AcDbEntity
  8
DATA
  6
Continuous
 62
     7
100
AcDbLine
 10
-187.5000000000002
 20
-47.5
 30
0.0
 11
-150.0000000000001
 21
-47.5
 31
0.0
  0
LINE
  5
3A9
330
4C0
100
AcDbEntity
  8
DATA
  6
Continuous
 62
     7
100
AcDbLine
 10
-187.5000000000002
 20
-42.5
 30
0.0
 11
-150.0000000000001
 21
-42.5
 31
0.0
  0
TEXT
  5
3AA
330
4C0
100
AcDbEntity
  8
DATA
 62
     7
100
AcDbText
 10
-234.6617395833336
 20
-220.7653645833334
 30
0.0
 40
13.03072916666666
  1
POWER AC
 41
0.7
 72
     1
 11
-200.0000000000003
 21
-214.2500000000001
 31
0.0
100
AcDbText
 73
     2
  0
LINE
  5
3AB
330
4C0
100
AcDbEntity
  8
DATA
  6
Continuous
 62
     7
100
AcDbLine
 10
-200.0000000000003
 20
-152.5
 30
0.0
 11
-200.0000000000003
 21
-165.0
 31
0.0
  0
CIRCLE
  5
3AC
330
4C0
100
AcDbEntity
  8
DATA
  6
Continuous
 62
     7
100
AcDbCircle
 10
-200.0000000000003
 20
-165.0
 30
0.0
 40
25.0
  0
CIRCLE
  5
3AD
330
4C0
100
AcDbEntity
  8
DATA
  6
Continuous
 62
     7
100
AcDbCircle
 10
-200.0000000000003
 20
-165.0
 30
0.0
 40
22.5
  0
ARC
  5
3AE
330
4C0
100
AcDbEntity
  8
DATA
  6
Continuous
 62
     7
100
AcDbCircle
 10
-200.0000000000003
 20
-165.0
 30
0.0
 40
6.25
100
AcDbArc
 50
126.869897645844
 51
53.130102354156
  0
LINE
  5
3AF
330
4C0
100
AcDbEntity
  8
DATA
  6
Continuous
 62
     7
100
AcDbLine
 10
-221.7499999999968
 20
-229.2500000000001
 30
0.0
 11
-178.2500000000034
 21
-229.2500000000001
 31
0.0
  0
LINE
  5
3B0
330
4C0
100
AcDbEntity
  8
DATA
  6
Continuous
 62
     7
100
AcDbLine
 10
-178.2500000000034
 20
-270.7499999999998
 30
0.0
 11
-221.7499999999968
 21
-270.7499999999998
 31
0.0
  0
ARC
  5
3B1
330
4C0
100
AcDbEntity
  8
DATA
  6
Continuous
 62
     7
100
AcDbCircle
 10
-178.2500000000034
 20
-250.0
 30
0.0
 40
20.74999999999983
100
AcDbArc
 50
270.0
 51
90.0
  0
ARC
  5
3B2
330
4C0
100
AcDbEntity
  8
DATA
  6
Continuous
 62
     7
100
AcDbCircle
 10
-221.7499999999968
 20
-250.0
 30
0.0
 40
20.74999999999989
100
AcDbArc
 50
90.0
 51
270.0
  0
CIRCLE
  5
3B3
330
4C0
100
AcDbEntity
  8
DATA
  6
Continuous
 62
     7
100
AcDbCircle
 10
-218.75
 20
-250.0
 30
0.0
 40
6.25
  0
CIRCLE
  5
3B4
330
4C0
100
AcDbEntity
  8
DATA
  6
Continuous
 62
     7
100
AcDbCircle
 10
-181.2500000000002
 20
-250.0
 30
0.0
 40
6.25
  0
LINE
  5
3B5
330
4C0
100
AcDbEntity
  8
DATA
  6
Continuous
 62
     7
100
AcDbLine
 10
-200.0
 20
-239.725
 30
0.0
 11
-192.2500000000002
 21
-229.2500000000001
 31
0.0
  0
LINE
  5
3B6
330
4C0
100
AcDbEntity
  8
DATA
  6
Continuous
 62
     7
100
AcDbLine
 10
-207.7500000000003
 20
-229.2500000000001
 30
0.0
 11
-200.0
 21
-239.725
 31
0.0
  0
LINE
  5
3B7
330
4C0
100
AcDbEntity
  8
DATA
  6
Continuous
 62
     7
100
AcDbLine
 10
-200.0
 20
-260.2750000000001
 30
0.0
 11
-192.2500000000002
 21
-270.7499999999998
 31
0.0
  0
LINE
  5
3B8
330
4C0
100
AcDbEntity
  8
DATA
  6
Continuous
 62
     7
100
AcDbLine
 10
-207.7500000000003
 20
-270.7499999999998
 30
0.0
 11
-200.0
 21
-260.2750000000001
 31
0.0
  0
TEXT
  5
3B9
330
4C0
100
AcDbEntity
  8
DATA
 62
     7
100
AcDbText
 10
404.5616695601851
 20
-335.8589409722222
 30
0.0
 40
21.71788194444445
  1
背面パネル拡大図
 41
0.7
 72
     1
 11
474.9999999999999
 21
-325.0
 31
0.0
100
AcDbText
 73
     2
  0
LINE
  5
3BA
330
4C0
100
AcDbEntity
  8
DATA
  6
Continuous
 62
     7
100
AcDbLine
 10
349.9999999999998
 20
-350.0
 30
0.0
 11
599.9999999999999
 21
-350.0
 31
0.0
  0
ARC
  5
3BB
330
4C0
100
AcDbEntity
  8
DATA
  6
Continuous
 62
     7
100
AcDbCircle
 10
474.9999999999999
 20
-172.4795610621075
 30
0.0
 40
132.5
100
AcDbArc
 50
180.0
 51
0.0
  0
LINE
  5
3BC
330
4C0
100
AcDbEntity
  8
DATA
  6
Continuous
 62
     7
100
AcDbLine
 10
607.5
 20
248.3202853463274
 30
0.0
 11
607.5
 21
-172.4795610621075
 31
0.0
  0
LINE
  5
3BD
330
4C0
100
AcDbEntity
  8
DATA
  6
Continuous
 62
     7
100
AcDbLine
 10
342.4999999999999
 20
267.3047146536721
 30
0.0
 11
342.4999999999999
 21
-172.4795610621075
 31
0.0
  0
LINE
  5
3BE
330
4C0
100
AcDbEntity
  8
DATA
  6
Continuous
 62
     7
100
AcDbLine
 10
390.0
 20
-212.5000000000003
 30
0.0
 11
390.0
 21
177.5
 31
0.0
  0
ARC
  5
3BF
330
4C0
100
AcDbEntity
  8
DATA
  6
Continuous
 62
     7
100
AcDbCircle
 10
419.9999999999999
 20
-212.5000000000003
 30
0.0
 40
30.0
100
AcDbArc
 50
180.0
 51
270.0
  0
LINE
  5
3C0
330
4C0
100
AcDbEntity
  8
DATA
  6
Continuous
 62
     7
100
AcDbLine
 10
530.0
 20
-242.5000000000002
 30
0.0
 11
419.9999999999999
 21
-242.5000000000002
 31
0.0
  0
ARC
  5
3C1
330
4C0
100
AcDbEntity
  8
DATA
  6
Continuous
 62
     7
100
AcDbCircle
 10
530.0
 20
-212.5000000000003
 30
0.0
 40
30.0
100
AcDbArc
 50
270.0
 51
0.0
  0
LINE
  5
3C2
330
4C0
100
AcDbEntity
  8
DATA
  6
Continuous
 62
     7
100
AcDbLine
 10
560.0
 20
177.5
 30
0.0
 11
560.0
 21
-212.5000000000003
 31
0.0
  0
ARC
  5
3C3
330
4C0
100
AcDbEntity
  8
DATA
  6
Continuous
 62
     7
100
AcDbCircle
 10
530.0
 20
177.5
 30
0.0
 40
30.0
100
AcDbArc
 50
0.0
 51
90.0
  0
LINE
  5
3C4
330
4C0
100
AcDbEntity
  8
DATA
  6
Continuous
 62
     7
100
AcDbLine
 10
419.9999999999999
 20
207.5
 30
0.0
 11
530.0
 21
207.5
 31
0.0
  0
ARC
  5
3C5
330
4C0
100
AcDbEntity
  8
DATA
  6
Continuous
 62
     7
100
AcDbCircle
 10
419.9999999999999
 20
177.5
 30
0.0
 40
30.0
100
AcDbArc
 50
90.0
 51
180.0
  0
TEXT
  5
3C6
330
4C0
100
AcDbEntity
  8
DATA
 62
     7
100
AcDbText
 10
386.0652734375
 20
214.3557942708333
 30
0.0
 40
16.28841145833333
  1
EXTENSION MONITOR
 41
0.7
 72
     1
 11
474.9999999999999
 21
222.5
 31
0.0
100
AcDbText
 73
     2
  0
LINE
  5
3C7
330
4C0
100
AcDbEntity
  8
DATA
  6
Continuous
 62
     7
100
AcDbLine
 10
390.0
 20
37.5
 30
0.0
 11
560.0
 21
37.5
 31
0.0
  0
TEXT
  5
3C8
330
4C0
100
AcDbEntity
  8
DATA
 62
     7
100
AcDbText
 10
455.2367274305555
 20
-96.51536458333334
 30
0.0
 40
13.03072916666666
  1
INPUT
 41
0.7
 72
     1
 11
474.9999999999999
 21
-90.0
 31
0.0
100
AcDbText
 73
     2
  0
LWPOLYLINE
  5
3C9
330
4C0
100
AcDbEntity
  8
DATA
  6
Continuous
 62
     7
100
AcDbPolyline
 90
        4
 70
     1
 43
0.0
 10
417.4999999999999
 20
-122.5
 10
532.5
 20
-122.5
 10
532.5
 20
-217.5000000000002
 10
417.4999999999999
 20
-217.5000000000002
  0
LINE
  5
3D0
330
4C0
100
AcDbEntity
  8
DATA
  6
Continuous
 62
     7
100
AcDbLine
 10
417.4999999999999
 20
-160.0
 30
0.0
 11
532.5
 21
-160.0
 31
0.0
  0
LWPOLYLINE
  5
3D1
330
4C0
100
AcDbEntity
  8
DATA
  6
Continuous
 62
     7
100
AcDbPolyline
 90
        4
 70
     1
 43
0.0
 10
426.2499999999999
 20
-126.25
 10
461.2499999999999
 20
-126.25
 10
461.2499999999999
 20
-156.25
 10
426.2499999999999
 20
-156.25
  0
CIRCLE
  5
3D8
330
4C0
100
AcDbEntity
  8
DATA
  6
Continuous
 62
     7
100
AcDbCircle
 10
443.7499999999999
 20
-141.25
 30
0.0
 40
8.75
  0
LWPOLYLINE
  5
3D9
330
4C0
100
AcDbEntity
  8
DATA
  6
Continuous
 62
     7
100
AcDbPolyline
 90
        4
 70
     1
 43
0.0
 10
488.7499999999999
 20
-126.25
 10
523.7499999999999
 20
-126.25
 10
523.7499999999999
 20
-156.25
 10
488.7499999999999
 20
-156.25
  0
CIRCLE
  5
3E0
330
4C0
100
AcDbEntity
  8
DATA
  6
Continuous
 62
     7
100
AcDbCircle
 10
506.2499999999999
 20
-141.25
 30
0.0
 40
8.75
  0
LINE
  5
3E1
330
4C0
100
AcDbEntity
  8
DATA
  6
Continuous
 62
     7
100
AcDbLine
 10
501.2499999999999
 20
-230.0000000000002
 30
0.0
 11
511.2499999999999
 21
-230.0000000000002
 31
0.0
  0
LINE
  5
3E2
330
4C0
100
AcDbEntity
  8
DATA
  6
Continuous
 62
     7
100
AcDbLine
 10
506.2499999999999
 20
-235.0000000000003
 30
0.0
 11
506.2499999999999
 21
-225.0000000000003
 31
0.0
  0
LINE
  5
3E3
330
4C0
100
AcDbEntity
  8
DATA
  6
Continuous
 62
     7
100
AcDbLine
 10
438.7499999999999
 20
-230.0000000000002
 30
0.0
 11
448.7499999999999
 21
-230.0000000000002
 31
0.0
  0
LWPOLYLINE
  5
3E4
330
4C0
100
AcDbEntity
  8
DATA
  6
Continuous
 62
     7
100
AcDbPolyline
 90
        4
 70
     1
 43
0.0
 10
424.9999999999999
 20
-160.0
 10
462.4999999999999
 20
-160.0
 10
462.4999999999999
 20
-195.0000000000002
 10
424.9999999999999
 20
-195.0000000000002
  0
LINE
  5
3EB
330
4C0
100
AcDbEntity
  8
DATA
  6
Continuous
 62
     7
100
AcDbLine
 10
424.9999999999999
 20
-187.5
 30
0.0
 11
462.4999999999999
 21
-187.5
 31
0.0
  0
LINE
  5
3EC
330
4C0
100
AcDbEntity
  8
DATA
  6
Continuous
 62
     7
100
AcDbLine
 10
424.9999999999999
 20
-182.5
 30
0.0
 11
462.4999999999999
 21
-182.5
 31
0.0
  0
LINE
  5
3ED
330
4C0
100
AcDbEntity
  8
DATA
  6
Continuous
 62
     7
100
AcDbLine
 10
424.9999999999999
 20
-177.5
 30
0.0
 11
462.4999999999999
 21
-177.5
 31
0.0
  0
LINE
  5
3EE
330
4C0
100
AcDbEntity
  8
DATA
  6
Continuous
 62
     7
100
AcDbLine
 10
424.9999999999999
 20
-172.5
 30
0.0
 11
462.4999999999999
 21
-172.5
 31
0.0
  0
LINE
  5
3EF
330
4C0
100
AcDbEntity
  8
DATA
  6
Continuous
 62
     7
100
AcDbLine
 10
424.9999999999999
 20
-167.5
 30
0.0
 11
462.4999999999999
 21
-167.5
 31
0.0
  0
LINE
  5
3F0
330
4C0
100
AcDbEntity
  8
DATA
  6
Continuous
 62
     7
100
AcDbLine
 10
424.9999999999999
 20
-162.5
 30
0.0
 11
462.4999999999999
 21
-162.5
 31
0.0
  0
LWPOLYLINE
  5
3F1
330
4C0
100
AcDbEntity
  8
DATA
  6
Continuous
 62
     7
100
AcDbPolyline
 90
        4
 70
     1
 43
0.0
 10
487.4999999999999
 20
-160.0
 10
525.0
 20
-160.0
 10
525.0
 20
-195.0000000000002
 10
487.4999999999999
 20
-195.0000000000002
  0
LINE
  5
3F8
330
4C0
100
AcDbEntity
  8
DATA
  6
Continuous
 62
     7
100
AcDbLine
 10
487.4999999999999
 20
-187.5
 30
0.0
 11
525.0
 21
-187.5
 31
0.0
  0
LINE
  5
3F9
330
4C0
100
AcDbEntity
  8
DATA
  6
Continuous
 62
     7
100
AcDbLine
 10
487.4999999999999
 20
-182.5
 30
0.0
 11
525.0
 21
-182.5
 31
0.0
  0
LINE
  5
3FA
330
4C0
100
AcDbEntity
  8
DATA
  6
Continuous
 62
     7
100
AcDbLine
 10
487.4999999999999
 20
-177.5
 30
0.0
 11
525.0
 21
-177.5
 31
0.0
  0
LINE
  5
3FB
330
4C0
100
AcDbEntity
  8
DATA
  6
Continuous
 62
     7
100
AcDbLine
 10
487.4999999999999
 20
-172.5
 30
0.0
 11
525.0
 21
-172.5
 31
0.0
  0
LINE
  5
3FC
330
4C0
100
AcDbEntity
  8
DATA
  6
Continuous
 62
     7
100
AcDbLine
 10
487.4999999999999
 20
-167.5
 30
0.0
 11
525.0
 21
-167.5
 31
0.0
  0
LINE
  5
3FD
330
4C0
100
AcDbEntity
  8
DATA
  6
Continuous
 62
     7
100
AcDbLine
 10
487.4999999999999
 20
-162.5
 30
0.0
 11
525.0
 21
-162.5
 31
0.0
  0
LWPOLYLINE
  5
3FE
330
4C0
100
AcDbEntity
  8
DATA
  6
Continuous
 62
     7
100
AcDbPolyline
 90
        4
 70
     1
 43
0.0
 10
436.2499999999999
 20
95.0
 10
513.7499999999999
 20
95.0
 10
513.7499999999999
 20
80.0
 10
436.2499999999999
 20
80.0
  0
TEXT
  5
405
330
4C0
100
AcDbEntity
  8
DATA
 62
     7
100
AcDbText
 10
440.0025381582755
 20
83.08855523003472
 30
0.0
 40
8.822889539930557
  1
PROFESSIONAL
 41
0.7
 72
     1
 11
474.9999999999999
 21
87.5
 31
0.0
100
AcDbText
 73
     2
  0
ARC
  5
406
330
4C0
100
AcDbEntity
  8
DATA
  6
Continuous
 62
     7
100
AcDbCircle
 10
458.8238949999991
 20
122.0766574999996
 30
0.0
 40
7.091846919211573
100
AcDbArc
 50
264.6908562215381
 51
323.9911991542437
  0
ARC
  5
407
330
4C0
100
AcDbEntity
  8
DATA
  6
Continuous
 62
     7
100
AcDbCircle
 10
457.5115124999989
 20
122.0766574999996
 30
0.0
 40
7.091835401603326
100
AcDbArc
 50
216.008800845756
 51
275.3091437784653
  0
ARC
  5
408
330
4C0
100
AcDbEntity
  8
DATA
  6
Continuous
 62
     7
100
AcDbCircle
 10
476.8448375000001
 20
120.2357524999996
 30
0.0
 40
5.232181382224888
100
AcDbArc
 50
273.8309816091105
 51
351.1351473098022
  0
ARC
  5
409
330
4C0
100
AcDbEntity
  8
DATA
  6
Continuous
 62
     7
100
AcDbCircle
 10
476.897005
 20
137.3026925000002
 30
0.0
 40
5.224257315506573
100
AcDbArc
 50
8.226923859019981
 51
86.1541266921583
  0
ARC
  5
40A
330
4C0
100
AcDbEntity
  8
DATA
  6
Continuous
 62
     7
100
AcDbCircle
 10
476.3221487498257
 20
118.9081461243157
 30
0.0
 40
0.8766535657509988
100
AcDbArc
 50
307.6419024975945
 51
354.2670192893794
  0
LINE
  5
40B
330
4C0
100
AcDbEntity
  8
DATA
  6
Continuous
 62
     7
100
AcDbLine
 10
453.8042374999991
 20
132.7227875000003
 30
0.0
 11
457.9140024999992
 21
142.5152075000005
 31
0.0
  0
LINE
  5
40C
330
4C0
100
AcDbEntity
  8
DATA
  6
Continuous
 62
     7
100
AcDbLine
 10
453.8042374999991
 20
132.7227875000003
 30
0.0
 11
449.7451824999983
 21
142.5152075000005
 31
0.0
  0
LINE
  5
40D
330
4C0
100
AcDbEntity
  8
DATA
  6
Continuous
 62
     7
100
AcDbLine
 10
484.9573375000004
 20
115.0152074999997
 30
0.0
 11
484.9573375000004
 21
142.5152075000005
 31
0.0
  0
LINE
  5
40E
330
4C0
100
AcDbEntity
  8
DATA
  6
Continuous
 62
     7
100
AcDbLine
 10
490.2340925000003
 20
142.5152075000005
 30
0.0
 11
490.2340925000003
 21
119.2264474999998
 31
0.0
  0
LINE
  5
40F
330
4C0
100
AcDbEntity
  8
DATA
  6
Continuous
 62
     7
100
AcDbLine
 10
459.8420549999996
 20
142.5152075000005
 30
0.0
 11
459.8420549999996
 21
119.2264474999998
 31
0.0
  0
LINE
  5
410
330
4C0
100
AcDbEntity
  8
DATA
  6
Continuous
 62
     7
100
AcDbLine
 10
464.9158599999991
 20
142.5152075000005
 30
0.0
 11
464.9158599999991
 21
119.2264474999998
 31
0.0
  0
LINE
  5
411
330
4C0
100
AcDbEntity
  8
DATA
  6
Continuous
 62
     7
100
AcDbLine
 10
467.5542374999997
 20
142.5152075000005
 30
0.0
 11
467.5542374999997
 21
115.0152074999997
 31
0.0
  0
LINE
  5
412
330
4C0
100
AcDbEntity
  8
DATA
  6
Continuous
 62
     7
100
AcDbLine
 10
472.1714049999995
 20
139.9275950000003
 30
0.0
 11
472.1714049999995
 21
131.09916
 31
0.0
  0
LINE
  5
413
330
4C0
100
AcDbEntity
  8
DATA
  6
Continuous
 62
     7
100
AcDbLine
 10
482.0674999999999
 20
131.6100000000003
 30
0.0
 11
482.0674999999999
 21
138.0502525000005
 31
0.0
  0
LINE
  5
414
330
4C0
100
AcDbEntity
  8
DATA
  6
Continuous
 62
     7
100
AcDbLine
 10
477.1944174999998
 20
138.7098675000004
 30
0.0
 11
477.1944174999998
 21
132.3168599999999
 31
0.0
  0
LINE
  5
415
330
4C0
100
AcDbEntity
  8
DATA
  6
Continuous
 62
     7
100
AcDbLine
 10
455.9859774999993
 20
123.6406924999997
 30
0.0
 11
455.9859774999993
 21
119.2265024999997
 31
0.0
  0
LINE
  5
416
330
4C0
100
AcDbEntity
  8
DATA
  6
Continuous
 62
     7
100
AcDbLine
 10
455.9859774999993
 20
123.6406924999997
 30
0.0
 11
451.419547499999
 21
123.6406924999997
 31
0.0
  0
LINE
  5
417
330
4C0
100
AcDbEntity
  8
DATA
  6
Continuous
 62
     7
100
AcDbLine
 10
451.419547499999
 20
123.6406924999997
 30
0.0
 11
451.419547499999
 21
119.2265024999997
 31
0.0
  0
ARC
  5
418
330
4C0
100
AcDbEntity
  8
DATA
  6
Continuous
 62
     7
100
AcDbCircle
 10
457.9236824999991
 20
119.1669924999996
 30
0.0
 40
1.919304272166598
100
AcDbArc
 50
269.7118487927571
 51
1.775987005685351
  0
ARC
  5
419
330
4C0
100
AcDbEntity
  8
DATA
  6
Continuous
 62
     7
100
AcDbCircle
 10
457.9043499999993
 20
119.1669924999996
 30
0.0
 40
1.919294458013727
100
AcDbArc
 50
178.2240129943084
 51
270.2881512072388
  0
ARC
  5
41A
330
4C0
100
AcDbEntity
  8
DATA
  6
Continuous
 62
     7
100
AcDbCircle
 10
454.6245074999988
 20
119.3819599999994
 30
0.0
 40
3.208700572484208
100
AcDbArc
 50
182.7769954499891
 51
207.3596066671444
  0
CIRCLE
  5
41B
330
4C0
100
AcDbEntity
  8
DATA
  6
Continuous
 62
     7
100
AcDbCircle
 10
454.0833074999987
 20
128.9174199999999
 30
0.0
 40
2.612995000000069
  0
LINE
  5
41C
330
4C0
100
AcDbEntity
  8
DATA
  6
Continuous
 62
     7
100
AcDbLine
 10
498.7073375000004
 20
115.0152349999996
 30
0.0
 11
498.7073375000004
 21
123.6407199999996
 31
0.0
  0
LINE
  5
41D
330
4C0
100
AcDbEntity
  8
DATA
  6
Continuous
 62
     7
100
AcDbLine
 10
498.7073375000004
 20
123.6406924999997
 30
0.0
 11
494.0901975000001
 21
123.6406924999997
 31
0.0
  0
LINE
  5
41E
330
4C0
100
AcDbEntity
  8
DATA
  6
Continuous
 62
     7
100
AcDbLine
 10
494.0901975000001
 20
123.6406924999997
 30
0.0
 11
494.0901975000001
 21
119.2265024999997
 31
0.0
  0
LINE
  5
41F
330
4C0
100
AcDbEntity
  8
DATA
  6
Continuous
 62
     7
100
AcDbLine
 10
467.5542374999997
 20
115.0152349999996
 30
0.0
 11
477.1944174999998
 21
115.0152624999995
 31
0.0
  0
LINE
  5
420
330
4C0
100
AcDbEntity
  8
DATA
  6
Continuous
 62
     7
100
AcDbLine
 10
472.1713774999994
 20
117.6028749999997
 30
0.0
 11
474.6575424999996
 21
117.6028749999997
 31
0.0
  0
LINE
  5
421
330
4C0
100
AcDbEntity
  8
DATA
  6
Continuous
 62
     7
100
AcDbLine
 10
472.1714049999995
 20
117.6028749999997
 30
0.0
 11
472.1714049999995
 21
128.46081
 31
0.0
  0
LINE
  5
422
330
4C0
100
AcDbEntity
  8
DATA
  6
Continuous
 62
     7
100
AcDbLine
 10
472.1713774999994
 20
128.46081
 30
0.0
 11
474.6575424999996
 21
128.46081
 31
0.0
  0
LINE
  5
423
330
4C0
100
AcDbEntity
  8
DATA
  6
Continuous
 62
     7
100
AcDbLine
 10
477.1944174999998
 20
118.8205749999994
 30
0.0
 11
477.1944174999998
 21
127.24311
 31
0.0
  0
ARC
  5
424
330
4C0
100
AcDbEntity
  8
DATA
  6
Continuous
 62
     7
100
AcDbCircle
 10
461.7108999999992
 20
119.3819599999994
 30
0.0
 40
3.208696006629073
100
AcDbArc
 50
332.6403933328552
 51
357.2230045500097
  0
ARC
  5
425
330
4C0
100
AcDbEntity
  8
DATA
  6
Continuous
 62
     7
100
AcDbCircle
 10
492.1717975000005
 20
119.1669924999996
 30
0.0
 40
1.919304272166601
100
AcDbArc
 50
269.7118487927401
 51
1.775987005685351
  0
ARC
  5
426
330
4C0
100
AcDbEntity
  8
DATA
  6
Continuous
 62
     7
100
AcDbCircle
 10
492.1524925000006
 20
119.1669924999996
 30
0.0
 40
1.919294458013727
100
AcDbArc
 50
178.2240129943084
 51
270.2881512072557
  0
LINE
  5
427
330
4C0
100
AcDbEntity
  8
DATA
  6
Continuous
 62
     7
100
AcDbLine
 10
482.0652725
 20
119.4294524999998
 30
0.0
 11
482.0652725
 21
126.7357074999998
 31
0.0
  0
LINE
  5
428
330
4C0
100
AcDbEntity
  8
DATA
  6
Continuous
 62
     7
100
AcDbLine
 10
472.1713774999994
 20
131.09916
 30
0.0
 11
474.6575424999996
 21
131.09916
 31
0.0
  0
LINE
  5
429
330
4C0
100
AcDbEntity
  8
DATA
  6
Continuous
 62
     7
100
AcDbLine
 10
459.8420549999996
 20
142.5152075000005
 30
0.0
 11
464.9158599999991
 21
142.5152075000005
 31
0.0
  0
LINE
  5
42A
330
4C0
100
AcDbEntity
  8
DATA
  6
Continuous
 62
     7
100
AcDbLine
 10
449.7451824999983
 20
142.5152075000005
 30
0.0
 11
457.9140024999992
 21
142.5152075000005
 31
0.0
  0
LINE
  5
42B
330
4C0
100
AcDbEntity
  8
DATA
  6
Continuous
 62
     7
100
AcDbLine
 10
484.9573375000004
 20
142.5152075000005
 30
0.0
 11
490.2340925000003
 21
142.5152075000005
 31
0.0
  0
LINE
  5
42C
330
4C0
100
AcDbEntity
  8
DATA
  6
Continuous
 62
     7
100
AcDbLine
 10
467.5542374999997
 20
142.5152075000005
 30
0.0
 11
477.2474103524029
 21
142.5151852422144
 31
0.0
  0
LINE
  5
42D
330
4C0
100
AcDbEntity
  8
DATA
  6
Continuous
 62
     7
100
AcDbLine
 10
472.1713774999994
 20
139.9275675000004
 30
0.0
 11
474.6575424999996
 21
139.9275675000004
 31
0.0
  0
ARC
  5
42E
330
4C0
100
AcDbEntity
  8
DATA
  6
Continuous
 62
     7
100
AcDbCircle
 10
474.6869000221583
 20
122.4255168916139
 30
0.0
 40
4.82273124679976
100
AcDbArc
 50
269.6512199376186
 51
282.8264828068761
  0
ARC
  5
42F
330
4C0
100
AcDbEntity
  8
DATA
  6
Continuous
 62
     7
100
AcDbCircle
 10
475.228569075533
 20
120.3865616441251
 30
0.0
 40
2.715454235156348
100
AcDbArc
 50
281.2331036226602
 51
306.8620088940648
  0
ARC
  5
430
330
4C0
100
AcDbEntity
  8
DATA
  6
Continuous
 62
     7
100
AcDbCircle
 10
476.3221487498257
 20
127.1555388756837
 30
0.0
 40
0.8766535657510329
100
AcDbArc
 50
5.732980710620623
 51
52.35809750243449
  0
ARC
  5
431
330
4C0
100
AcDbEntity
  8
DATA
  6
Continuous
 62
     7
100
AcDbCircle
 10
474.6869000221583
 20
123.6381681083859
 30
0.0
 40
4.822731246799823
100
AcDbArc
 50
77.1735171931241
 51
90.34878006238136
  0
ARC
  5
432
330
4C0
100
AcDbEntity
  8
DATA
  6
Continuous
 62
     7
100
AcDbCircle
 10
475.228569075533
 20
125.6771233558745
 30
0.0
 40
2.715454235156532
100
AcDbArc
 50
53.13799110593497
 51
78.76689637734057
  0
ARC
  5
433
330
4C0
100
AcDbEntity
  8
DATA
  6
Continuous
 62
     7
100
AcDbCircle
 10
479.4041524999998
 20
126.5558300000001
 30
0.0
 40
2.667192450763026
100
AcDbArc
 50
3.867006359816259
 51
88.36163456790526
  0
ARC
  5
434
330
4C0
100
AcDbEntity
  8
DATA
  6
Continuous
 62
     7
100
AcDbCircle
 10
479.401705
 20
131.89061
 30
0.0
 40
2.669842834856023
100
AcDbArc
 50
271.6892821046413
 51
356.0782829826552
  0
ARC
  5
435
330
4C0
100
AcDbEntity
  8
DATA
  6
Continuous
 62
     7
100
AcDbCircle
 10
476.3221487498257
 20
132.4044311243162
 30
0.0
 40
0.8766535657509988
100
AcDbArc
 50
307.6419024975945
 51
354.2670192893794
  0
ARC
  5
436
330
4C0
100
AcDbEntity
  8
DATA
  6
Continuous
 62
     7
100
AcDbCircle
 10
474.6869000221583
 20
135.9218018916144
 30
0.0
 40
4.822731246800044
100
AcDbArc
 50
269.6512199376186
 51
282.8264828068753
  0
ARC
  5
437
330
4C0
100
AcDbEntity
  8
DATA
  6
Continuous
 62
     7
100
AcDbCircle
 10
475.228569075533
 20
133.8828466441256
 30
0.0
 40
2.715454235156628
100
AcDbArc
 50
281.233103622659
 51
306.8620088940609
  0
ARC
  5
438
330
4C0
100
AcDbEntity
  8
DATA
  6
Continuous
 62
     7
100
AcDbCircle
 10
476.3221487498257
 20
138.6222963756842
 30
0.0
 40
0.8766535657510329
100
AcDbArc
 50
5.732980710620623
 51
52.35809750243449
  0
ARC
  5
439
330
4C0
100
AcDbEntity
  8
DATA
  6
Continuous
 62
     7
100
AcDbCircle
 10
474.6869000221583
 20
135.104925608386
 30
0.0
 40
4.822731246800376
100
AcDbArc
 50
77.17351719312557
 51
90.3487800623813
  0
ARC
  5
43A
330
4C0
100
AcDbEntity
  8
DATA
  6
Continuous
 62
     7
100
AcDbCircle
 10
475.228569075533
 20
137.1438808558747
 30
0.0
 40
2.71545423515676
100
AcDbArc
 50
53.13799110593855
 51
78.76689637734152
  0
LINE
  5
43B
330
4C0
100
AcDbEntity
  8
DATA
  6
Continuous
 62
     7
100
AcDbLine
 10
484.9573375000004
 20
115.0152074999997
 30
0.0
 11
498.7073375000004
 21
115.0152349999996
 31
0.0
  0
LINE
  5
43C
330
4C0
100
AcDbEntity
  8
DATA
  6
Continuous
 62
     7
100
AcDbLine
 10
436.2499999999999
 20
160.0
 30
0.0
 11
513.7499999999999
 21
160.0
 31
0.0
  0
LWPOLYLINE
  5
43D
330
4C0
100
AcDbEntity
  8
DATA
  6
Continuous
 62
     7
100
AcDbPolyline
 90
        4
 70
     1
 43
0.0
 10
436.2499999999999
 20
160.0
 10
513.7499999999999
 20
160.0
 10
513.7499999999999
 20
97.5
 10
436.2499999999999
 20
97.5
  0
TEXT
  5
444
330
4C0
100
AcDbEntity
  8
DATA
 62
     7
100
AcDbText
 10
468.7499988476433
 20
-36.75000000000006
 30
0.0
 40
19.23828125
  1
104
 41
0.7
 11
468.7499988476433
 21
-17.51171875000005
 31
0.0
100
AcDbText
 73
     3
  0
TEXT
  5
445
330
4C0
100
AcDbEntity
  8
DATA
 62
     7
100
AcDbText
 10
443.5500000980162
 20
-45.89400000000022
 30
0.0
 40
38.784375
  1
1
 41
0.7
 11
443.5500000980162
 21
-7.109625000000228
 31
0.0
100
AcDbText
 73
     3
  0
TEXT
  5
446
330
4C0
100
AcDbEntity
  8
DATA
 62
     7
100
AcDbText
 10
468.7499988476433
 20
-13.38600000000023
 30
0.0
 40
9.696093749999999
  1
SERIES
 41
0.7
 11
468.7499988476433
 21
-3.689906250000236
 31
0.0
100
AcDbText
 73
     3
  0
TEXT
  5
447
330
4C0
100
AcDbEntity
  8
DATA
 62
     7
100
AcDbText
 10
468.7499988476433
 20
-44.37800000000005
 30
0.0
 40
3.69375
  1
REFERENCE MONITORS
 41
0.7
 11
468.7499988476433
 21
-40.68425000000005
 31
0.0
100
AcDbText
 73
     3
  0
TEXT
  5
448
330
4C0
100
AcDbEntity
  8
DATA
 62
     7
100
AcDbText
 10
-330.0665914351852
 20
-760.8589409722221
 30
0.0
 40
21.71788194444445
  1
マスタースピーカー
 41
0.7
 72
     1
 11
-250.0
 21
-750.0
 31
0.0
100
AcDbText
 73
     2
  0
TEXT
  5
449
330
4C0
100
AcDbEntity
  8
DATA
 62
     7
100
AcDbText
 10
358.4473668981481
 20
-760.8589409722221
 30
0.0
 40
21.71788194444445
  1
エクステンションスピーカー
 41
0.7
 72
     1
 11
475.0
 21
-750.0
 31
0.0
100
AcDbText
 73
     2
  0
ARC
  5
44A
330
4C0
100
AcDbEntity
  8
DATA
  6
Continuous
 62
     7
100
AcDbCircle
 10
-280.0000000000003
 20
70.62499999999973
 30
0.0
 40
203.5661075824019
100
AcDbArc
 50
66.85915566667135
 51
113.1408443333287
  0
ARC
  5
44B
330
4C0
100
AcDbEntity
  8
DATA
  6
Continuous
 62
     7
100
AcDbCircle
 10
-120.0000000000002
 20
444.9999999999997
 30
0.0
 40
203.5661075824019
100
AcDbArc
 50
246.8591556666713
 51
293.1408443333287
  0
ARC
  5
44C
330
4C0
100
AcDbEntity
  8
DATA
  6
Continuous
 62
     7
100
AcDbCircle
 10
395.0
 20
70.62499999999973
 30
0.0
 40
203.5661075824019
100
AcDbArc
 50
66.85915566667135
 51
113.1408443333287
  0
ARC
  5
44D
330
4C0
100
AcDbEntity
  8
DATA
  6
Continuous
 62
     7
100
AcDbCircle
 10
555.0
 20
444.9999999999997
 30
0.0
 40
203.5661075824019
100
AcDbArc
 50
246.8591556666713
 51
293.1408443333287
  0
TEXT
  5
44E
330
4C0
100
AcDbEntity
  8
DATA
 62
     7
100
AcDbText
 10
297.3067748132314
 20
-897.0618149999996
 30
0.0
 40
15.20251736111111
  1
パワード2-Wayフルレンジ・スタ ジオモニタ ー
 41
0.7
 11
297.3067748132314
 21
-881.8592976388885
 31
0.0
100
AcDbText
 73
     3
  0
TEXT
  5
44F
330
4C0
100
AcDbEntity
  8
DATA
 62
     7
100
AcDbText
 10
400.0
 20
-926.2301749999993
 30
0.0
 40
19.54609375
  1
104-Y3
 41
0.7
 11
400.0
 21
-906.6840812499993
 31
0.0
100
AcDbText
 73
     3
  0
ENDSEC
  0
SECTION
  2
OBJECTS
  0
DICTIONARY
  5
45D
330
0
100
AcDbDictionary
281
     1
  3
ACAD_CIP_PREVIOUS_PRODUCT_INFO
350
4D8
  3
ACAD_COLOR
350
4B3
  3
ACAD_DETAILVIEWSTYLE
350
4BA
  3
ACAD_GROUP
350
45E
  3
ACAD_LAYOUT
350
4B2
  3
ACAD_MATERIAL
350
461
  3
ACAD_MLEADERSTYLE
350
4B6
  3
ACAD_MLINESTYLE
350
4AF
  3
ACAD_PLOTSETTINGS
350
4B1
  3
ACAD_PLOTSTYLENAME
350
45F
  3
ACAD_SCALELIST
350
493
  3
ACAD_SECTIONVIEWSTYLE
350
4B8
  3
ACAD_TABLESTYLE
350
4B4
  3
ACAD_VISUALSTYLE
350
47A
  3
ACDB_RECOMPOSE_DATA
350
4F0
  3
AcDbVariableDictionary
350
4E3
  3
DWGPROPS
350
4F1
  0
DICTIONARY
  5
4D9
330
4A5
100
AcDbDictionary
280
     1
281
     1
  3
ADSK_XREC_LAYER_RECONCILED
360
4DA
  0
DICTIONARY
  5
4DB
330
4C4
100
AcDbDictionary
280
     1
281
     1
  3
ADSK_XREC_LAYER_RECONCILED
360
4DC
  0
DICTIONARY
  5
4DD
330
4D0
100
AcDbDictionary
280
     1
281
     1
  3
ADSK_XREC_LAYER_RECONCILED
360
4DE
  0
DICTIONARY
  5
4DF
330
4D1
100
AcDbDictionary
280
     1
281
     1
  3
ADSK_XREC_LAYER_RECONCILED
360
4E0
  0
DICTIONARY
  5
4E1
330
4D2
100
AcDbDictionary
280
     1
281
     1
  3
ADSK_XREC_LAYER_RECONCILED
360
4E2
  0
XRECORD
  5
4D8
102
{ACAD_REACTORS
330
45D
102
}
330
45D
100
AcDbXrecord
280
     1
300
ACDLT
300
2019
300

  0
DICTIONARY
  5
4B3
102
{ACAD_REACTORS
330
45D
102
}
330
45D
100
AcDbDictionary
281
     1
  0
DICTIONARY
  5
4BA
102
{ACAD_REACTORS
330
45D
102
}
330
45D
100
AcDbDictionary
281
     1
  3
Imperial24
350
4BB
  0
DICTIONARY
  5
45E
102
{ACAD_REACTORS
330
45D
102
}
330
45D
100
AcDbDictionary
281
     1
  0
DICTIONARY
  5
4B2
102
{ACAD_REACTORS
330
45D
102
}
330
45D
100
AcDbDictionary
281
     1
  3
Model
350
4C3
  3
レイアウト1
350
4BF
  0
DICTIONARY
  5
461
102
{ACAD_REACTORS
330
45D
102
}
330
45D
100
AcDbDictionary
281
     1
  3
ByBlock
350
46A
  3
ByLayer
350
462
  3
Global
350
472
  0
DICTIONARY
  5
4B6
102
{ACAD_REACTORS
330
45D
102
}
330
45D
100
AcDbDictionary
281
     1
  3
Standard
350
4B7
  0
DICTIONARY
  5
4AF
102
{ACAD_REACTORS
330
45D
102
}
330
45D
100
AcDbDictionary
281
     1
  3
Standard
350
4B0
  0
DICTIONARY
  5
4B1
102
{ACAD_REACTORS
330
45D
102
}
330
45D
100
AcDbDictionary
281
     1
  0
ACDBDICTIONARYWDFLT
  5
45F
102
{ACAD_REACTORS
330
45D
102
}
330
45D
100
AcDbDictionary
281
     1
  3
Normal
350
460
100
AcDbDictionaryWithDefault
340
460
  0
DICTIONARY
  5
493
102
{ACAD_REACTORS
330
45D
102
}
330
45D
100
AcDbDictionary
281
     1
  3
A0
350
494
  3
A1
350
495
  3
A2
350
496
  3
A3
350
497
  3
A4
350
498
  3
A5
350
499
  3
A6
350
49A
  3
A7
350
49B
  3
A8
350
49C
  3
A9
350
49D
  3
B0
350
49E
  3
B1
350
49F
  3
B2
350
4A0
  3
B3
350
4A1
  3
B4
350
4A2
  3
B5
350
4A3
  3
B6
350
4A4
  0
DICTIONARY
  5
4B8
102
{ACAD_REACTORS
330
45D
102
}
330
45D
100
AcDbDictionary
281
     1
  3
Imperial24
350
4B9
  0
DICTIONARY
  5
4B4
102
{ACAD_REACTORS
330
45D
102
}
330
45D
100
AcDbDictionary
281
     1
  3
Standard
350
4B5
  0
DICTIONARY
  5
47A
102
{ACAD_REACTORS
330
45D
102
}
330
45D
100
AcDbDictionary
281
     1
  3
2dWireframe
350
480
  3
Basic
350
47F
  3
Brighten
350
486
  3
ColorChange
350
48A
  3
Conceptual
350
483
  3
Dim
350
485
  3
EdgeColorOff
350
492
  3
Facepattern
350
489
  3
Flat
350
47B
  3
FlatWithEdges
350
47C
  3
Gouraud
350
47D
  3
GouraudWithEdges
350
47E
  3
Hidden
350
482
  3
JitterOff
350
490
  3
Linepattern
350
488
  3
OverhangOff
350
491
  3
Realistic
350
484
  3
Shaded
350
48F
  3
Shaded with edges
350
48E
  3
Shades of Gray
350
48B
  3
Sketchy
350
48C
  3
Thicken
350
487
  3
Wireframe
350
481
  3
X-Ray
350
48D
  0
XRECORD
  5
4F0
102
{ACAD_REACTORS
330
45D
102
}
330
45D
100
AcDbXrecord
280
     1
 90
        1
330
4B5
  0
DICTIONARY
  5
4E3
102
{ACAD_REACTORS
330
45D
102
}
330
45D
100
AcDbDictionary
281
     1
  3
CANNOSCALE
350
4E8
  3
CMLEADERSTYLE
350
4E5
  3
CTABLESTYLE
350
4E4
  3
CVIEWDETAILSTYLE
350
4E6
  3
CVIEWSECTIONSTYLE
350
4E7
  3
DIMASSOC
350
4EB
  3
INDEXCTL
350
4EA
  3
SORTENTS
350
4E9
  3
XCLIPFRAME
350
4EC
  0
XRECORD
  5
4F1
102
{ACAD_REACTORS
330
45D
102
}
330
45D
100
AcDbXrecord
280
     1
  1
DWGPROPS COOKIE
  2

  3

  4

  6

  7

  8
sasaki_n
  9

300
=
301
=
302
=
303
=
304
=
305
=
306
=
307
=
308
=
309
=
 40
0.0019791666666667
 41
2458633.748449074
 42
2458633.752002315
  1

 90
        0
  0
XRECORD
  5
4DA
102
{ACAD_REACTORS
330
4D9
102
}
330
4D9
100
AcDbXrecord
280
     1
290
     1
  0
XRECORD
  5
4DC
102
{ACAD_REACTORS
330
4DB
102
}
330
4DB
100
AcDbXrecord
280
     1
290
     1
  0
XRECORD
  5
4DE
102
{ACAD_REACTORS
330
4DD
102
}
330
4DD
100
AcDbXrecord
280
     1
290
     1
  0
XRECORD
  5
4E0
102
{ACAD_REACTORS
330
4DF
102
}
330
4DF
100
AcDbXrecord
280
     1
290
     1
  0
XRECORD
  5
4E2
102
{ACAD_REACTORS
330
4E1
102
}
330
4E1
100
AcDbXrecord
280
     1
290
     1
  0
ACDBDETAILVIEWSTYLE
  5
4BB
102
{ACAD_XDICTIONARY
360
529
102
}
102
{ACAD_REACTORS
330
4BA
102
}
330
4BA
100
AcDbModelDocViewStyle
 70
     0
  3
Imperial24
290
     0
100
AcDbDetailViewStyle
 70
     0
 71
     0
 90
        3
 71
     1
340
4A6
 40
0.24
340
0
 40
0.24
300

 40
0.36
280
     3
 71
     2
340
4AD
 90
       25
 71
     3
340
4A6
 40
0.24
 90
        1
 40
0.75
 90
        1
300
%<\AcVar ViewType \f "%tc1">% %<\AcVar ViewDetailId>%\PSCALE %<\AcVar ViewScale \f "%sn">%
 71
     4
340
4AD
 90
       25
340
4AD
 90
       25
280
     0
  0
LAYOUT
  5
4C3
102
{ACAD_XDICTIONARY
360
52D
102
}
102
{ACAD_REACTORS
330
4B2
102
}
330
4B2
100
AcDbPlotSettings
  1

  2
DocuPrint 3000-3
  4

  6

 40
0.0
 41
0.0
 42
0.0
 43
0.0
 44
0.0
 45
0.0
 46
0.0
 47
0.0
 48
0.0
 49
0.0
140
0.0
141
0.0
142
1.0
143
1.0
 70
  1712
 72
     0
 73
     0
 74
     0
  7

 75
     0
147
1.0
148
0.0
149
0.0
100
AcDbLayout
  1
Model
 70
     1
 71
     0
 10
0.0
 20
0.0
 11
12.0
 21
9.0
 12
0.0
 22
0.0
 32
0.0
 14
0.0
 24
0.0
 34
0.0
 15
0.0
 25
0.0
 35
0.0
146
0.0
 13
0.0
 23
0.0
 33
0.0
 16
1.0
 26
0.0
 36
0.0
 17
0.0
 27
1.0
 37
0.0
 76
     0
330
4C0
331
4C5
  0
LAYOUT
  5
4BF
102
{ACAD_XDICTIONARY
360
52B
102
}
102
{ACAD_REACTORS
330
4B2
102
}
330
4B2
100
AcDbPlotSettings
  1

  2
DocuPrint 3000-3
  4

  6

 40
0.0
 41
0.0
 42
0.0
 43
0.0
 44
0.0
 45
0.0
 46
0.0
 47
0.0
 48
0.0
 49
0.0
140
0.0
141
0.0
142
1.0
143
1.0
 70
   688
 72
     0
 73
     0
 74
     5
  7

 75
    16
147
1.0
148
0.0
149
0.0
100
AcDbLayout
  1
レイアウト1
 70
     0
 71
     1
 10
0.0
 20
0.0
 11
12.0
 21
9.0
 12
0.0
 22
0.0
 32
0.0
 14
1.000000000000000E+20
 24
1.000000000000000E+20
 34
1.000000000000000E+20
 15
-1.000000000000000E+20
 25
-1.000000000000000E+20
 35
-1.000000000000000E+20
146
0.0
 13
0.0
 23
0.0
 33
0.0
 16
1.0
 26
0.0
 36
0.0
 17
0.0
 27
1.0
 37
0.0
 76
     0
330
4BC
  0
MATERIAL
  5
46A
102
{ACAD_XDICTIONARY
360
46B
102
}
102
{ACAD_REACTORS
330
461
102
}
330
461
100
AcDbMaterial
  1
ByBlock
 72
     0
 43
0.0208333333333333
 43
0.0
 43
0.0
 43
0.0
 43
0.0
 43
0.0208333333333333
 43
0.0
 43
0.0
 43
0.0
 43
0.0
 43
1.0
 43
0.0
 43
0.0
 43
0.0
 43
0.0
 43
1.0
 77
     0
 47
0.0208333333333333
 47
0.0
 47
0.0
 47
0.0
 47
0.0
 47
0.0208333333333333
 47
0.0
 47
0.0
 47
0.0
 47
0.0
 47
1.0
 47
0.0
 47
0.0
 47
0.0
 47
0.0
 47
1.0
171
     0
 49
0.0208333333333333
 49
0.0
 49
0.0
 49
0.0
 49
0.0
 49
0.0208333333333333
 49
0.0
 49
0.0
 49
0.0
 49
0.0
 49
1.0
 49
0.0
 49
0.0
 49
0.0
 49
0.0
 49
1.0
175
     0
142
0.0208333333333333
142
0.0
142
0.0
142
0.0
142
0.0
142
0.0208333333333333
142
0.0
142
0.0
142
0.0
142
0.0
142
1.0
142
0.0
142
0.0
142
0.0
142
0.0
142
1.0
179
     0
144
0.0208333333333333
144
0.0
144
0.0
144
0.0
144
0.0
144
0.0208333333333333
144
0.0
144
0.0
144
0.0
144
0.0
144
1.0
144
0.0
144
0.0
144
0.0
144
0.0
144
1.0
147
0.0208333333333333
147
0.0
147
0.0
147
0.0
147
0.0
147
0.0208333333333333
147
0.0
147
0.0
147
0.0
147
0.0
147
1.0
147
0.0
147
0.0
147
0.0
147
0.0
147
1.0
  0
MATERIAL
  5
462
102
{ACAD_XDICTIONARY
360
463
102
}
102
{ACAD_REACTORS
330
461
102
}
330
461
100
AcDbMaterial
  1
ByLayer
 72
     0
 43
0.0208333333333333
 43
0.0
 43
0.0
 43
0.0
 43
0.0
 43
0.0208333333333333
 43
0.0
 43
0.0
 43
0.0
 43
0.0
 43
1.0
 43
0.0
 43
0.0
 43
0.0
 43
0.0
 43
1.0
 77
     0
 47
0.0208333333333333
 47
0.0
 47
0.0
 47
0.0
 47
0.0
 47
0.0208333333333333
 47
0.0
 47
0.0
 47
0.0
 47
0.0
 47
1.0
 47
0.0
 47
0.0
 47
0.0
 47
0.0
 47
1.0
171
     0
 49
0.0208333333333333
 49
0.0
 49
0.0
 49
0.0
 49
0.0
 49
0.0208333333333333
 49
0.0
 49
0.0
 49
0.0
 49
0.0
 49
1.0
 49
0.0
 49
0.0
 49
0.0
 49
0.0
 49
1.0
175
     0
142
0.0208333333333333
142
0.0
142
0.0
142
0.0
142
0.0
142
0.0208333333333333
142
0.0
142
0.0
142
0.0
142
0.0
142
1.0
142
0.0
142
0.0
142
0.0
142
0.0
142
1.0
179
     0
144
0.0208333333333333
144
0.0
144
0.0
144
0.0
144
0.0
144
0.0208333333333333
144
0.0
144
0.0
144
0.0
144
0.0
144
1.0
144
0.0
144
0.0
144
0.0
144
0.0
144
1.0
147
0.0208333333333333
147
0.0
147
0.0
147
0.0
147
0.0
147
0.0208333333333333
147
0.0
147
0.0
147
0.0
147
0.0
147
1.0
147
0.0
147
0.0
147
0.0
147
0.0
147
1.0
  0
MATERIAL
  5
472
102
{ACAD_XDICTIONARY
360
473
102
}
102
{ACAD_REACTORS
330
461
102
}
330
461
100
AcDbMaterial
  1
Global
 72
     0
 43
0.0208333333333333
 43
0.0
 43
0.0
 43
0.0
 43
0.0
 43
0.0208333333333333
 43
0.0
 43
0.0
 43
0.0
 43
0.0
 43
1.0
 43
0.0
 43
0.0
 43
0.0
 43
0.0
 43
1.0
 77
     0
 47
0.0208333333333333
 47
0.0
 47
0.0
 47
0.0
 47
0.0
 47
0.0208333333333333
 47
0.0
 47
0.0
 47
0.0
 47
0.0
 47
1.0
 47
0.0
 47
0.0
 47
0.0
 47
0.0
 47
1.0
171
     0
 49
0.0208333333333333
 49
0.0
 49
0.0
 49
0.0
 49
0.0
 49
0.0208333333333333
 49
0.0
 49
0.0
 49
0.0
 49
0.0
 49
1.0
 49
0.0
 49
0.0
 49
0.0
 49
0.0
 49
1.0
175
     0
142
0.0208333333333333
142
0.0
142
0.0
142
0.0
142
0.0
142
0.0208333333333333
142
0.0
142
0.0
142
0.0
142
0.0
142
1.0
142
0.0
142
0.0
142
0.0
142
0.0
142
1.0
179
     0
144
0.0208333333333333
144
0.0
144
0.0
144
0.0
144
0.0
144
0.0208333333333333
144
0.0
144
0.0
144
0.0
144
0.0
144
1.0
144
0.0
144
0.0
144
0.0
144
0.0
144
1.0
147
0.0208333333333333
147
0.0
147
0.0
147
0.0
147
0.0
147
0.0208333333333333
147
0.0
147
0.0
147
0.0
147
0.0
147
1.0
147
0.0
147
0.0
147
0.0
147
0.0
147
1.0
  0
MLEADERSTYLE
  5
4B7
102
{ACAD_REACTORS
330
4B6
102
}
330
4B6
100
AcDbMLeaderStyle
170
     2
171
     1
172
     0
 90
        2
 40
0.0
 41
0.0
173
     1
 91
-1056964608
340
4AB
 92
       -2
290
     1
 42
0.09
291
     1
 43
0.36
  3
Standard
 44
0.18
300

342
4A6
174
     1
178
     6
175
     1
176
     0
 93
-1056964608
 45
0.18
292
     0
297
     0
 46
0.18
 94
-1056964608
 47
1.0
 49
1.0
140
1.0
293
     1
141
0.0
294
     1
177
     0
142
1.0
295
     0
296
     0
143
0.125
1001
ACAD_MLEADERVER
1070
     2
  0
MLINESTYLE
  5
4B0
102
{ACAD_REACTORS
330
4AF
102
}
330
4AF
100
AcDbMlineStyle
  2
STANDARD
 70
     0
  3

 62
   256
 51
90.0
 52
90.0
 71
     2
 49
0.5
 62
   256
  6
BYLAYER
 49
-0.5
 62
   256
  6
BYLAYER
  0
ACDBPLACEHOLDER
  5
460
102
{ACAD_REACTORS
330
45F
102
}
330
45F
  0
SCALE
  5
494
102
{ACAD_REACTORS
330
493
102
}
330
493
100
AcDbScale
 70
     0
300
1:1
140
1.0
141
1.0
290
     1
  0
SCALE
  5
495
102
{ACAD_REACTORS
330
493
102
}
330
493
100
AcDbScale
 70
     0
300
1/128" = 1'-0"
140
0.0078125
141
12.0
290
     0
  0
SCALE
  5
496
102
{ACAD_REACTORS
330
493
102
}
330
493
100
AcDbScale
 70
     0
300
1/64" = 1'-0"
140
0.015625
141
12.0
290
     0
  0
SCALE
  5
497
102
{ACAD_REACTORS
330
493
102
}
330
493
100
AcDbScale
 70
     0
300
1/32" = 1'-0"
140
0.03125
141
12.0
290
     0
  0
SCALE
  5
498
102
{ACAD_REACTORS
330
493
102
}
330
493
100
AcDbScale
 70
     0
300
1/16" = 1'-0"
140
0.0625
141
12.0
290
     0
  0
SCALE
  5
499
102
{ACAD_REACTORS
330
493
102
}
330
493
100
AcDbScale
 70
     0
300
3/32" = 1'-0"
140
0.09375
141
12.0
290
     0
  0
SCALE
  5
49A
102
{ACAD_REACTORS
330
493
102
}
330
493
100
AcDbScale
 70
     0
300
1/8" = 1'-0"
140
0.125
141
12.0
290
     0
  0
SCALE
  5
49B
102
{ACAD_REACTORS
330
493
102
}
330
493
100
AcDbScale
 70
     0
300
3/16" = 1'-0"
140
0.1875
141
12.0
290
     0
  0
SCALE
  5
49C
102
{ACAD_REACTORS
330
493
102
}
330
493
100
AcDbScale
 70
     0
300
1/4" = 1'-0"
140
0.25
141
12.0
290
     0
  0
SCALE
  5
49D
102
{ACAD_REACTORS
330
493
102
}
330
493
100
AcDbScale
 70
     0
300
3/8" = 1'-0"
140
0.375
141
12.0
290
     0
  0
SCALE
  5
49E
102
{ACAD_REACTORS
330
493
102
}
330
493
100
AcDbScale
 70
     0
300
1/2" = 1'-0"
140
0.5
141
12.0
290
     0
  0
SCALE
  5
49F
102
{ACAD_REACTORS
330
493
102
}
330
493
100
AcDbScale
 70
     0
300
3/4" = 1'-0"
140
0.75
141
12.0
290
     0
  0
SCALE
  5
4A0
102
{ACAD_REACTORS
330
493
102
}
330
493
100
AcDbScale
 70
     0
300
1" = 1'-0"
140
1.0
141
12.0
290
     0
  0
SCALE
  5
4A1
102
{ACAD_REACTORS
330
493
102
}
330
493
100
AcDbScale
 70
     0
300
1-1/2" = 1'-0"
140
1.5
141
12.0
290
     0
  0
SCALE
  5
4A2
102
{ACAD_REACTORS
330
493
102
}
330
493
100
AcDbScale
 70
     0
300
3" = 1'-0"
140
3.0
141
12.0
290
     0
  0
SCALE
  5
4A3
102
{ACAD_REACTORS
330
493
102
}
330
493
100
AcDbScale
 70
     0
300
6" = 1'-0"
140
6.0
141
12.0
290
     0
  0
SCALE
  5
4A4
102
{ACAD_REACTORS
330
493
102
}
330
493
100
AcDbScale
 70
     0
300
1'-0" = 1'-0"
140
12.0
141
12.0
290
     0
  0
ACDBSECTIONVIEWSTYLE
  5
4B9
102
{ACAD_XDICTIONARY
360
527
102
}
102
{ACAD_REACTORS
330
4B8
102
}
330
4B8
100
AcDbModelDocViewStyle
 70
     0
  3
Imperial24
290
     0
100
AcDbSectionViewStyle
 70
     0
 71
     0
 90
       78
 71
     1
340
4A6
 40
0.24
340
0
340
0
 40
0.24
300
I, O, Q, S, X, Z
 40
0.48
 90
        3
 40
0.18
 90
        1
 71
     2
340
4AD
 90
       25
340
4AD
 90
       50
 40
0.24
 40
0.0
 40
0.24
 71
     3
340
4A6
 40
0.24
 90
        1
 40
0.75
 90
        1
300
%<\AcVar ViewType \f "%tc1">% %<\AcVar ViewSectionStartId>%-%<\AcVar ViewSectionEndId>%\PSCALE %<\AcVar ViewScale \f "%sn">%
 71
     4
300
ANSI31
 40
1.0
 90
        0
290
     0
290
     0
 90
        6
 40
0.0
 40
1.570796326794896
 40
0.2617993877991494
 40
1.308996938995747
 40
-0.2617993877991494
 40
1.832595714594046
  0
TABLESTYLE
  5
4B5
102
{ACAD_XDICTIONARY
360
4EE
102
}
102
{ACAD_REACTORS
330
4B4
102
}
330
4B4
100
AcDbTableStyle
  3
Standard
 70
     0
 71
     0
 40
0.06
 41
0.06
280
     0
281
     0
  7
STANDARD
140
0.18
170
     2
 62
     0
 63
     7
283
     0
274
    -2
284
     1
 64
     0
275
    -2
285
     1
 65
     0
276
    -2
286
     1
 66
     0
277
    -2
287
     1
 67
     0
278
    -2
288
     1
 68
     0
279
    -2
289
     1
 69
     0
  7
STANDARD
140
0.25
170
     5
 62
     0
 63
     7
283
     0
274
    -2
284
     1
 64
     0
275
    -2
285
     1
 65
     0
276
    -2
286
     1
 66
     0
277
    -2
287
     1
 67
     0
278
    -2
288
     1
 68
     0
279
    -2
289
     1
 69
     0
  7
STANDARD
140
0.18
170
     5
 62
     0
 63
     7
283
     0
274
    -2
284
     1
 64
     0
275
    -2
285
     1
 65
     0
276
    -2
286
     1
 66
     0
277
    -2
287
     1
 67
     0
278
    -2
288
     1
 68
     0
279
    -2
289
     1
 69
     0
  0
VISUALSTYLE
  5
480
102
{ACAD_XDICTIONARY
360
4FF
102
}
102
{ACAD_REACTORS
330
47A
102
}
330
47A
100
AcDbVisualStyle
  2
2dWireframe
 70
     4
 71
     0
 72
     2
 73
     0
 90
        0
 40
-0.6
 41
-30.0
 62
     5
 63
     7
 74
     1
 91
        4
 64
     7
 65
   257
 75
     1
175
     1
 42
1.0
 92
        0
 66
   257
 43
1.0
 76
     1
 77
     6
 78
     2
 67
     7
 79
     5
170
     0
171
     0
290
     0
174
     0
 93
        1
 44
0.0
173
     0
291
     0
 45
0.0
1001
ACAD
1000
AcDbSavedByObjectVersion
1070
     0
  0
VISUALSTYLE
  5
47F
102
{ACAD_XDICTIONARY
360
4FD
102
}
102
{ACAD_REACTORS
330
47A
102
}
330
47A
100
AcDbVisualStyle
  2
Basic
 70
     7
 71
     1
 72
     0
 73
     1
 90
        0
 40
-0.6
 41
-30.0
 62
     5
 63
     7
 74
     0
 91
        4
 64
     7
 65
   257
 75
     1
175
     1
 42
1.0
 92
        8
 66
     7
 43
1.0
 76
     1
 77
     6
 78
     2
 67
     7
 79
     5
170
     0
171
     0
290
     0
174
     0
 93
        1
 44
0.0
173
     0
291
     1
 45
0.0
1001
ACAD
1000
AcDbSavedByObjectVersion
1070
     0
  0
VISUALSTYLE
  5
486
102
{ACAD_XDICTIONARY
360
50B
102
}
102
{ACAD_REACTORS
330
47A
102
}
330
47A
100
AcDbVisualStyle
  2
Brighten
 70
    12
 71
     2
 72
     2
 73
     0
 90
        0
 40
-0.6
 41
-30.0
 62
     5
 63
     7
 74
     1
 91
        4
 64
     7
 65
   257
 75
     1
175
     1
 42
1.0
 92
        8
 66
     7
 43
1.0
 76
     1
 77
     6
 78
     2
 67
     7
 79
     5
170
     0
171
     0
290
     0
174
     0
 93
        1
 44
50.0
173
     0
291
     1
 45
0.0
1001
ACAD
1000
AcDbSavedByObjectVersion
1070
     0
  0
VISUALSTYLE
  5
48A
102
{ACAD_XDICTIONARY
360
513
102
}
102
{ACAD_REACTORS
330
47A
102
}
330
47A
100
AcDbVisualStyle
  2
ColorChange
 70
    16
 71
     2
 72
     2
 73
     3
 90
        0
 40
-0.6
 41
-30.0
 62
     5
 63
     8
 74
     1
 91
        4
 64
     7
 65
   257
 75
     1
175
     1
 42
1.0
 92
        8
 66
     8
 43
1.0
 76
     1
 77
     6
 78
     2
 67
     7
 79
     5
170
     0
171
     0
290
     0
174
     0
 93
        1
 44
0.0
173
     0
291
     1
 45
0.0
1001
ACAD
1000
AcDbSavedByObjectVersion
1070
     0
  0
VISUALSTYLE
  5
483
102
{ACAD_XDICTIONARY
360
505
102
}
102
{ACAD_REACTORS
330
47A
102
}
330
47A
100
AcDbVisualStyle
  2
Conceptual
 70
     9
 71
     3
 72
     2
 73
     0
 90
        0
 40
-0.6
 41
-30.0
 62
     5
 63
     7
 74
     2
 91
        2
 64
     7
 65
   257
 75
     1
175
     1
 42
179.0
 92
        8
 66
     7
 43
1.0
 76
     1
 77
     6
 78
     2
 67
     7
 79
     3
170
     0
171
     0
290
     0
174
     0
 93
        1
 44
0.0
173
     0
291
     0
 45
0.0
1001
ACAD
1000
AcDbSavedByObjectVersion
1070
     0
  0
VISUALSTYLE
  5
485
102
{ACAD_XDICTIONARY
360
509
102
}
102
{ACAD_REACTORS
330
47A
102
}
330
47A
100
AcDbVisualStyle
  2
Dim
 70
    11
 71
     2
 72
     2
 73
     0
 90
        0
 40
-0.6
 41
-30.0
 62
     5
 63
     7
 74
     1
 91
        4
 64
     7
 65
   257
 75
     1
175
     1
 42
1.0
 92
        8
 66
     7
 43
1.0
 76
     1
 77
     6
 78
     2
 67
     7
 79
     5
170
     0
171
     0
290
     0
174
     0
 93
        1
 44
-50.0
173
     0
291
     1
 45
0.0
1001
ACAD
1000
AcDbSavedByObjectVersion
1070
     0
  0
VISUALSTYLE
  5
492
102
{ACAD_XDICTIONARY
360
523
102
}
102
{ACAD_REACTORS
330
47A
102
}
330
47A
100
AcDbVisualStyle
  2
EdgeColorOff
 70
    22
 71
     2
 72
     2
 73
     0
 90
        0
 40
-0.6
 41
-30.0
 62
     5
 63
     7
 74
     1
 91
        4
 64
     7
 65
   257
 75
     1
175
     1
 42
1.0
 92
        8
 66
     7
 43
1.0
 76
     1
 77
     6
 78
     2
 67
     7
 79
     5
170
     0
171
     0
290
     0
174
     0
 93
        1
 44
0.0
173
     0
291
     1
 45
0.0
1001
ACAD
1000
AcDbSavedByObjectVersion
1070
     0
  0
VISUALSTYLE
  5
489
102
{ACAD_XDICTIONARY
360
511
102
}
102
{ACAD_REACTORS
330
47A
102
}
330
47A
100
AcDbVisualStyle
  2
Facepattern
 70
    15
 71
     2
 72
     2
 73
     0
 90
        0
 40
-0.6
 41
-30.0
 62
     5
 63
     7
 74
     1
 91
        4
 64
     7
 65
   257
 75
     1
175
     1
 42
1.0
 92
        8
 66
     7
 43
1.0
 76
     1
 77
     6
 78
     2
 67
     7
 79
     5
170
     0
171
     0
290
     0
174
     0
 93
        1
 44
0.0
173
     0
291
     1
 45
0.0
1001
ACAD
1000
AcDbSavedByObjectVersion
1070
     0
  0
VISUALSTYLE
  5
47B
102
{ACAD_XDICTIONARY
360
4F5
102
}
102
{ACAD_REACTORS
330
47A
102
}
330
47A
100
AcDbVisualStyle
  2
Flat
 70
     0
 71
     2
 72
     1
 73
     1
 90
        2
 40
-0.6
 41
30.0
 62
     5
 63
     7
 74
     0
 91
        0
 64
     7
 65
   257
 75
     1
175
     1
 42
1.0
 92
        8
 66
     7
 43
1.0
 76
     1
 77
     6
 78
     2
 67
     7
 79
     5
170
     0
171
     0
290
     0
174
     0
 93
       13
 44
0.0
173
     0
291
     1
 45
0.0
1001
ACAD
1000
AcDbSavedByObjectVersion
1070
     0
  0
VISUALSTYLE
  5
47C
102
{ACAD_XDICTIONARY
360
4F7
102
}
102
{ACAD_REACTORS
330
47A
102
}
330
47A
100
AcDbVisualStyle
  2
FlatWithEdges
 70
     1
 71
     2
 72
     1
 73
     1
 90
        2
 40
-0.6
 41
30.0
 62
     5
 63
     7
 74
     1
 91
        0
 64
     7
 65
   257
 75
     1
175
     1
 42
1.0
 92
        0
 66
   257
 43
1.0
 76
     1
 77
     6
 78
     2
 67
     7
 79
     5
170
     0
171
     0
290
     0
174
     0
 93
       13
 44
0.0
173
     0
291
     1
 45
0.0
1001
ACAD
1000
AcDbSavedByObjectVersion
1070
     0
  0
VISUALSTYLE
  5
47D
102
{ACAD_XDICTIONARY
360
4F9
102
}
102
{ACAD_REACTORS
330
47A
102
}
330
47A
100
AcDbVisualStyle
  2
Gouraud
 70
     2
 71
     2
 72
     2
 73
     1
 90
        2
 40
-0.6
 41
30.0
 62
     5
 63
     7
 74
     0
 91
        0
 64
     7
 65
   257
 75
     1
175
     1
 42
1.0
 92
        0
 66
     7
 43
1.0
 76
     1
 77
     6
 78
     2
 67
     7
 79
     5
170
     0
171
     0
290
     0
174
     0
 93
       13
 44
0.0
173
     0
291
     1
 45
0.0
1001
ACAD
1000
AcDbSavedByObjectVersion
1070
     0
  0
VISUALSTYLE
  5
47E
102
{ACAD_XDICTIONARY
360
4FB
102
}
102
{ACAD_REACTORS
330
47A
102
}
330
47A
100
AcDbVisualStyle
  2
GouraudWithEdges
 70
     3
 71
     2
 72
     2
 73
     1
 90
        2
 40
-0.6
 41
30.0
 62
     5
 63
     7
 74
     1
 91
        0
 64
     7
 65
   257
 75
     1
175
     1
 42
1.0
 92
        0
 66
   257
 43
1.0
 76
     1
 77
     6
 78
     2
 67
     7
 79
     5
170
     0
171
     0
290
     0
174
     0
 93
       13
 44
0.0
173
     0
291
     1
 45
0.0
1001
ACAD
1000
AcDbSavedByObjectVersion
1070
     0
  0
VISUALSTYLE
  5
482
102
{ACAD_XDICTIONARY
360
503
102
}
102
{ACAD_REACTORS
330
47A
102
}
330
47A
100
AcDbVisualStyle
  2
Hidden
 70
     6
 71
     1
 72
     2
 73
     2
 90
        0
 40
-0.6
 41
-30.0
 62
     5
 63
     7
 74
     2
 91
        2
 64
     7
 65
   257
 75
     2
175
     1
 42
40.0
 92
        0
 66
   257
 43
1.0
 76
     1
 77
     6
 78
     2
 67
     7
 79
     3
170
     0
171
     0
290
     0
174
     0
 93
        1
 44
0.0
173
     0
291
     0
 45
0.0
1001
ACAD
1000
AcDbSavedByObjectVersion
1070
     0
  0
VISUALSTYLE
  5
490
102
{ACAD_XDICTIONARY
360
51F
102
}
102
{ACAD_REACTORS
330
47A
102
}
330
47A
100
AcDbVisualStyle
  2
JitterOff
 70
    20
 71
     2
 72
     2
 73
     0
 90
        0
 40
-0.6
 41
-30.0
 62
     5
 63
     7
 74
     1
 91
        4
 64
     7
 65
   257
 75
     1
175
     1
 42
1.0
 92
       10
 66
     7
 43
1.0
 76
     1
 77
     6
 78
     2
 67
     7
 79
     5
170
     0
171
     0
290
     0
174
     0
 93
        1
 44
0.0
173
     0
291
     1
 45
0.0
1001
ACAD
1000
AcDbSavedByObjectVersion
1070
     0
  0
VISUALSTYLE
  5
488
102
{ACAD_XDICTIONARY
360
50F
102
}
102
{ACAD_REACTORS
330
47A
102
}
330
47A
100
AcDbVisualStyle
  2
Linepattern
 70
    14
 71
     2
 72
     2
 73
     0
 90
        0
 40
-0.6
 41
-30.0
 62
     5
 63
     7
 74
     1
 91
        4
 64
     7
 65
   257
 75
     7
175
     7
 42
1.0
 92
        8
 66
     7
 43
1.0
 76
     1
 77
     6
 78
     2
 67
     7
 79
     5
170
     0
171
     0
290
     0
174
     0
 93
        1
 44
0.0
173
     0
291
     1
 45
0.0
1001
ACAD
1000
AcDbSavedByObjectVersion
1070
     0
  0
VISUALSTYLE
  5
491
102
{ACAD_XDICTIONARY
360
521
102
}
102
{ACAD_REACTORS
330
47A
102
}
330
47A
100
AcDbVisualStyle
  2
OverhangOff
 70
    21
 71
     2
 72
     2
 73
     0
 90
        0
 40
-0.6
 41
-30.0
 62
     5
 63
     7
 74
     1
 91
        4
 64
     7
 65
   257
 75
     1
175
     1
 42
1.0
 92
        9
 66
     7
 43
1.0
 76
     1
 77
     6
 78
     2
 67
     7
 79
     5
170
     0
171
     0
290
     0
174
     0
 93
        1
 44
0.0
173
     0
291
     1
 45
0.0
1001
ACAD
1000
AcDbSavedByObjectVersion
1070
     0
  0
VISUALSTYLE
  5
484
102
{ACAD_XDICTIONARY
360
507
102
}
102
{ACAD_REACTORS
330
47A
102
}
330
47A
100
AcDbVisualStyle
  2
Realistic
 70
     8
 71
     2
 72
     3
 73
     0
 90
        2
 40
-0.6
 41
30.0
 62
     5
 63
     7
 74
     0
 91
        0
 64
     7
 65
   257
 75
     1
175
     1
 42
1.0
 92
        8
 66
   257
 43
1.0
 76
     1
 77
     6
 78
     2
 67
     7
 79
     3
170
     0
171
     0
290
     0
174
     0
 93
       13
 44
0.0
173
     0
291
     0
 45
0.0
1001
ACAD
1000
AcDbSavedByObjectVersion
1070
     0
  0
VISUALSTYLE
  5
48F
102
{ACAD_XDICTIONARY
360
51D
102
}
102
{ACAD_REACTORS
330
47A
102
}
330
47A
100
AcDbVisualStyle
  2
Shaded
 70
    27
 71
     2
 72
     2
 73
     1
 90
        2
 40
-0.6
 41
30.0
 62
     5
 63
     7
 74
     0
 91
        4
 64
     7
 65
   257
 75
     1
175
     1
 42
1.0
 92
        8
 66
   257
 43
1.0
 76
     1
 77
     6
 78
     2
 67
     8
 79
     3
170
     0
171
     0
290
     0
174
     0
 93
        5
 44
0.0
173
     0
291
     0
 45
0.0
1001
ACAD
1000
AcDbSavedByObjectVersion
1070
     0
  0
VISUALSTYLE
  5
48E
102
{ACAD_XDICTIONARY
360
51B
102
}
102
{ACAD_REACTORS
330
47A
102
}
330
47A
100
AcDbVisualStyle
  2
Shaded with edges
 70
    26
 71
     2
 72
     2
 73
     1
 90
        2
 40
-0.6
 41
30.0
 62
     5
 63
     7
 74
     1
 91
        2
 64
     7
 65
   257
 75
     2
175
     1
 42
1.0
 92
        8
 66
   257
 43
1.0
 76
     1
 77
     6
 78
     2
 67
     7
 79
     3
170
     0
171
     0
290
     0
174
     0
 93
        5
 44
0.0
173
     0
291
     0
 45
0.0
1001
ACAD
1000
AcDbSavedByObjectVersion
1070
     0
  0
VISUALSTYLE
  5
48B
102
{ACAD_XDICTIONARY
360
515
102
}
102
{ACAD_REACTORS
330
47A
102
}
330
47A
100
AcDbVisualStyle
  2
Shades of Gray
 70
    23
 71
     2
 72
     2
 73
     3
 90
        0
 40
-0.6
 41
-30.0
 62
     5
 63
     7
 74
     2
 91
        2
 64
     7
 65
     7
 75
     1
175
     1
 42
40.0
 92
        8
 66
     7
 43
1.0
 76
     1
 77
     6
 78
     2
 67
     7
 79
     3
170
     0
171
     0
290
     0
174
     0
 93
        1
 44
0.0
173
     0
291
     0
 45
0.0
1001
ACAD
1000
AcDbSavedByObjectVersion
1070
     0
  0
VISUALSTYLE
  5
48C
102
{ACAD_XDICTIONARY
360
517
102
}
102
{ACAD_REACTORS
330
47A
102
}
330
47A
100
AcDbVisualStyle
  2
Sketchy
 70
    24
 71
     1
 72
     2
 73
     2
 90
        0
 40
-0.6
 41
-30.0
 62
     5
 63
     7
 74
     2
 91
        2
 64
     7
 65
     7
 75
     1
175
     1
 42
40.0
 92
       11
 66
     7
 43
1.0
 76
     1
 77
     6
 78
     2
 67
     7
 79
     6
170
     0
171
     0
290
     0
174
     0
 93
        1
 44
0.0
173
     0
291
     0
 45
0.0
1001
ACAD
1000
AcDbSavedByObjectVersion
1070
     0
  0
VISUALSTYLE
  5
487
102
{ACAD_XDICTIONARY
360
50D
102
}
102
{ACAD_REACTORS
330
47A
102
}
330
47A
100
AcDbVisualStyle
  2
Thicken
 70
    13
 71
     2
 72
     2
 73
     0
 90
        0
 40
-0.6
 41
-30.0
 62
     5
 63
     7
 74
     1
 91
        4
 64
     7
 65
   257
 75
     1
175
     1
 42
1.0
 92
       12
 66
     7
 43
1.0
 76
     1
 77
     6
 78
     2
 67
     7
 79
     5
170
     0
171
     0
290
     0
174
     0
 93
        1
 44
0.0
173
     0
291
     1
 45
0.0
1001
ACAD
1000
AcDbSavedByObjectVersion
1070
     0
  0
VISUALSTYLE
  5
481
102
{ACAD_XDICTIONARY
360
501
102
}
102
{ACAD_REACTORS
330
47A
102
}
330
47A
100
AcDbVisualStyle
  2
Wireframe
 70
     5
 71
     0
 72
     2
 73
     0
 90
        0
 40
-0.6
 41
-30.0
 62
     5
 63
     7
 74
     1
 91
        4
 64
     7
 65
   257
 75
     1
175
     1
 42
1.0
 92
        0
 66
   257
 43
1.0
 76
     1
 77
     6
 78
     2
 67
     7
 79
     3
170
     0
171
     0
290
     0
174
     0
 93
        1
 44
0.0
173
     0
291
     0
 45
0.0
1001
ACAD
1000
AcDbSavedByObjectVersion
1070
     0
  0
VISUALSTYLE
  5
48D
102
{ACAD_XDICTIONARY
360
519
102
}
102
{ACAD_REACTORS
330
47A
102
}
330
47A
100
AcDbVisualStyle
  2
X-Ray
 70
    25
 71
     2
 72
     2
 73
     1
 90
        1
 40
0.5
 41
-30.0
 62
     5
 63
     7
 74
     1
 91
        0
 64
     7
 65
   257
 75
     1
175
     1
 42
1.0
 92
        8
 66
     7
 43
1.0
 76
     1
 77
     6
 78
     2
 67
     7
 79
     3
170
     0
171
     0
290
     0
174
     0
 93
       13
 44
0.0
173
     0
291
     0
 45
0.0
1001
ACAD
1000
AcDbSavedByObjectVersion
1070
     0
  0
DICTIONARYVAR
  5
4E8
102
{ACAD_REACTORS
330
4E3
102
}
330
4E3
100
DictionaryVariables
280
     0
  1
1:1
  0
DICTIONARYVAR
  5
4E5
102
{ACAD_REACTORS
330
4E3
102
}
330
4E3
100
DictionaryVariables
280
     0
  1
STANDARD
  0
DICTIONARYVAR
  5
4E4
102
{ACAD_REACTORS
330
4E3
102
}
330
4E3
100
DictionaryVariables
280
     0
  1
STANDARD
  0
DICTIONARYVAR
  5
4E6
102
{ACAD_REACTORS
330
4E3
102
}
330
4E3
100
DictionaryVariables
280
     0
  1
Imperial24
  0
DICTIONARYVAR
  5
4E7
102
{ACAD_REACTORS
330
4E3
102
}
330
4E3
100
DictionaryVariables
280
     0
  1
Imperial24
  0
DICTIONARYVAR
  5
4EB
102
{ACAD_REACTORS
330
4E3
102
}
330
4E3
100
DictionaryVariables
280
     0
  1
1
  0
DICTIONARYVAR
  5
4EA
102
{ACAD_REACTORS
330
4E3
102
}
330
4E3
100
DictionaryVariables
280
     0
  1
0
  0
DICTIONARYVAR
  5
4E9
102
{ACAD_REACTORS
330
4E3
102
}
330
4E3
100
DictionaryVariables
280
     0
  1
127
  0
DICTIONARYVAR
  5
4EC
102
{ACAD_REACTORS
330
4E3
102
}
330
4E3
100
DictionaryVariables
280
     0
  1
2
  0
DICTIONARY
  5
529
330
4BB
100
AcDbDictionary
280
     1
281
     1
  3
ACAD_XREC_ROUNDTRIP
360
52A
  0
DICTIONARY
  5
52D
330
4C3
100
AcDbDictionary
280
     1
281
     1
  3
ACAD_XREC_ROUNDTRIP
360
52E
  0
DICTIONARY
  5
52B
330
4BF
100
AcDbDictionary
280
     1
281
     1
  3
ACAD_XREC_ROUNDTRIP
360
52C
  0
DICTIONARY
  5
46B
330
46A
100
AcDbDictionary
280
     1
281
     1
  3
ACAD_XREC_ROUNDTRIP
360
4F3
  3
BUMPTILE
360
46D
  3
DIFFUSETILE
360
46C
  3
OPACITYTILE
360
470
  3
REFLECTIONTILE
360
46F
  3
REFRACTIONTILE
360
471
  3
SPECULARTILE
360
46E
  0
DICTIONARY
  5
463
330
462
100
AcDbDictionary
280
     1
281
     1
  3
ACAD_XREC_ROUNDTRIP
360
4F2
  3
BUMPTILE
360
465
  3
DIFFUSETILE
360
464
  3
OPACITYTILE
360
468
  3
REFLECTIONTILE
360
467
  3
REFRACTIONTILE
360
469
  3
SPECULARTILE
360
466
  0
DICTIONARY
  5
473
330
472
100
AcDbDictionary
280
     1
281
     1
  3
ACAD_XREC_ROUNDTRIP
360
4F4
  3
BUMPTILE
360
475
  3
DIFFUSETILE
360
474
  3
OPACITYTILE
360
478
  3
REFLECTIONTILE
360
477
  3
REFRACTIONTILE
360
479
  3
SPECULARTILE
360
476
  0
DICTIONARY
  5
527
330
4B9
100
AcDbDictionary
280
     1
281
     1
  3
ACAD_XREC_ROUNDTRIP
360
528
  0
DICTIONARY
  5
4EE
330
4B5
100
AcDbDictionary
280
     1
281
     1
  3
ACAD_ROUNDTRIP_2008_TABLESTYLE_CELLSTYLEMAP
360
4EF
  3
ACAD_XREC_ROUNDTRIP
360
525
  0
DICTIONARY
  5
4FF
330
480
100
AcDbDictionary
280
     1
281
     1
  3
ACAD_XREC_ROUNDTRIP
360
500
  0
DICTIONARY
  5
4FD
330
47F
100
AcDbDictionary
280
     1
281
     1
  3
ACAD_XREC_ROUNDTRIP
360
4FE
  0
DICTIONARY
  5
50B
330
486
100
AcDbDictionary
280
     1
281
     1
  3
ACAD_XREC_ROUNDTRIP
360
50C
  0
DICTIONARY
  5
513
330
48A
100
AcDbDictionary
280
     1
281
     1
  3
ACAD_XREC_ROUNDTRIP
360
514
  0
DICTIONARY
  5
505
330
483
100
AcDbDictionary
280
     1
281
     1
  3
ACAD_XREC_ROUNDTRIP
360
506
  0
DICTIONARY
  5
509
330
485
100
AcDbDictionary
280
     1
281
     1
  3
ACAD_XREC_ROUNDTRIP
360
50A
  0
DICTIONARY
  5
523
330
492
100
AcDbDictionary
280
     1
281
     1
  3
ACAD_XREC_ROUNDTRIP
360
524
  0
DICTIONARY
  5
511
330
489
100
AcDbDictionary
280
     1
281
     1
  3
ACAD_XREC_ROUNDTRIP
360
512
  0
DICTIONARY
  5
4F5
330
47B
100
AcDbDictionary
280
     1
281
     1
  3
ACAD_XREC_ROUNDTRIP
360
4F6
  0
DICTIONARY
  5
4F7
330
47C
100
AcDbDictionary
280
     1
281
     1
  3
ACAD_XREC_ROUNDTRIP
360
4F8
  0
DICTIONARY
  5
4F9
330
47D
100
AcDbDictionary
280
     1
281
     1
  3
ACAD_XREC_ROUNDTRIP
360
4FA
  0
DICTIONARY
  5
4FB
330
47E
100
AcDbDictionary
280
     1
281
     1
  3
ACAD_XREC_ROUNDTRIP
360
4FC
  0
DICTIONARY
  5
503
330
482
100
AcDbDictionary
280
     1
281
     1
  3
ACAD_XREC_ROUNDTRIP
360
504
  0
DICTIONARY
  5
51F
330
490
100
AcDbDictionary
280
     1
281
     1
  3
ACAD_XREC_ROUNDTRIP
360
520
  0
DICTIONARY
  5
50F
330
488
100
AcDbDictionary
280
     1
281
     1
  3
ACAD_XREC_ROUNDTRIP
360
510
  0
DICTIONARY
  5
521
330
491
100
AcDbDictionary
280
     1
281
     1
  3
ACAD_XREC_ROUNDTRIP
360
522
  0
DICTIONARY
  5
507
330
484
100
AcDbDictionary
280
     1
281
     1
  3
ACAD_XREC_ROUNDTRIP
360
508
  0
DICTIONARY
  5
51D
330
48F
100
AcDbDictionary
280
     1
281
     1
  3
ACAD_XREC_ROUNDTRIP
360
51E
  0
DICTIONARY
  5
51B
330
48E
100
AcDbDictionary
280
     1
281
     1
  3
ACAD_XREC_ROUNDTRIP
360
51C
  0
DICTIONARY
  5
515
330
48B
100
AcDbDictionary
280
     1
281
     1
  3
ACAD_XREC_ROUNDTRIP
360
516
  0
DICTIONARY
  5
517
330
48C
100
AcDbDictionary
280
     1
281
     1
  3
ACAD_XREC_ROUNDTRIP
360
518
  0
DICTIONARY
  5
50D
330
487
100
AcDbDictionary
280
     1
281
     1
  3
ACAD_XREC_ROUNDTRIP
360
50E
  0
DICTIONARY
  5
501
330
481
100
AcDbDictionary
280
     1
281
     1
  3
ACAD_XREC_ROUNDTRIP
360
502
  0
DICTIONARY
  5
519
330
48D
100
AcDbDictionary
280
     1
281
     1
  3
ACAD_XREC_ROUNDTRIP
360
51A
  0
XRECORD
  5
52A
102
{ACAD_REACTORS
330
529
102
}
330
529
100
AcDbXrecord
280
     1
102
DISPLAYNAME
  1
Imperial24
102
FLAGS
 90
        0
  0
XRECORD
  5
52E
102
{ACAD_REACTORS
330
52D
102
}
330
52D
100
AcDbXrecord
280
     1
102
SHADEPLOT
 70
     0
102
SHADEPLOTRESLEVEL
 70
     2
102
SHADEPLOTCUSTOMDPI
 70
   300
  0
XRECORD
  5
52C
102
{ACAD_REACTORS
330
52B
102
}
330
52B
100
AcDbXrecord
280
     1
102
SHADEPLOT
 70
     0
102
SHADEPLOTRESLEVEL
 70
     2
102
SHADEPLOTCUSTOMDPI
 70
   300
  0
XRECORD
  5
4F3
102
{ACAD_REACTORS
330
46B
102
}
330
46B
100
AcDbXrecord
280
     1
102
MATERIAL
148
0.0
149
0.0
149
0.0
 93
        0
 94
      127
282
     0
 72
     0
 77
     0
171
     0
175
     0
179
     0
273
     0
  0
XRECORD
  5
46D
102
{ACAD_REACTORS
330
46B
102
}
330
46B
100
AcDbXrecord
280
     1
270
     1
271
     1
  0
XRECORD
  5
46C
102
{ACAD_REACTORS
330
46B
102
}
330
46B
100
AcDbXrecord
280
     1
270
     1
271
     1
  0
XRECORD
  5
470
102
{ACAD_REACTORS
330
46B
102
}
330
46B
100
AcDbXrecord
280
     1
270
     1
271
     1
  0
XRECORD
  5
46F
102
{ACAD_REACTORS
330
46B
102
}
330
46B
100
AcDbXrecord
280
     1
270
     1
271
     1
  0
XRECORD
  5
471
102
{ACAD_REACTORS
330
46B
102
}
330
46B
100
AcDbXrecord
280
     1
270
     1
271
     1
  0
XRECORD
  5
46E
102
{ACAD_REACTORS
330
46B
102
}
330
46B
100
AcDbXrecord
280
     1
270
     1
271
     1
  0
XRECORD
  5
4F2
102
{ACAD_REACTORS
330
463
102
}
330
463
100
AcDbXrecord
280
     1
102
MATERIAL
148
0.0
149
0.0
149
0.0
 93
        0
 94
      127
282
     0
 72
     0
 77
     0
171
     0
175
     0
179
     0
273
     0
  0
XRECORD
  5
465
102
{ACAD_REACTORS
330
463
102
}
330
463
100
AcDbXrecord
280
     1
270
     1
271
     1
  0
XRECORD
  5
464
102
{ACAD_REACTORS
330
463
102
}
330
463
100
AcDbXrecord
280
     1
270
     1
271
     1
  0
XRECORD
  5
468
102
{ACAD_REACTORS
330
463
102
}
330
463
100
AcDbXrecord
280
     1
270
     1
271
     1
  0
XRECORD
  5
467
102
{ACAD_REACTORS
330
463
102
}
330
463
100
AcDbXrecord
280
     1
270
     1
271
     1
  0
XRECORD
  5
469
102
{ACAD_REACTORS
330
463
102
}
330
463
100
AcDbXrecord
280
     1
270
     1
271
     1
  0
XRECORD
  5
466
102
{ACAD_REACTORS
330
463
102
}
330
463
100
AcDbXrecord
280
     1
270
     1
271
     1
  0
XRECORD
  5
4F4
102
{ACAD_REACTORS
330
473
102
}
330
473
100
AcDbXrecord
280
     1
102
MATERIAL
148
0.0
149
0.0
149
0.0
 93
        0
 94
      127
282
     0
 72
     0
 77
     0
171
     0
175
     0
179
     0
273
     0
  0
XRECORD
  5
475
102
{ACAD_REACTORS
330
473
102
}
330
473
100
AcDbXrecord
280
     1
270
     1
271
     1
  0
XRECORD
  5
474
102
{ACAD_REACTORS
330
473
102
}
330
473
100
AcDbXrecord
280
     1
270
     1
271
     1
  0
XRECORD
  5
478
102
{ACAD_REACTORS
330
473
102
}
330
473
100
AcDbXrecord
280
     1
270
     1
271
     1
  0
XRECORD
  5
477
102
{ACAD_REACTORS
330
473
102
}
330
473
100
AcDbXrecord
280
     1
270
     1
271
     1
  0
XRECORD
  5
479
102
{ACAD_REACTORS
330
473
102
}
330
473
100
AcDbXrecord
280
     1
270
     1
271
     1
  0
XRECORD
  5
476
102
{ACAD_REACTORS
330
473
102
}
330
473
100
AcDbXrecord
280
     1
270
     1
271
     1
  0
XRECORD
  5
528
102
{ACAD_REACTORS
330
527
102
}
330
527
100
AcDbXrecord
280
     1
102
DISPLAYNAME
  1
Imperial24
102
FLAGS
 90
        0
  0
CELLSTYLEMAP
  5
4EF
102
{ACAD_REACTORS
330
4EE
102
}
330
4EE
100
AcDbCellStyleMap
 90
        3
300
CELLSTYLE
  1
TABLEFORMAT_BEGIN
 90
        5
170
     1
 91
        0
 92
    32768
 62
   257
 93
        1
300
CONTENTFORMAT
  1
CONTENTFORMAT_BEGIN
 90
        0
 91
        0
 92
      512
 93
        0
300

 40
0.0
140
1.0
 94
        5
 62
     0
340
4A6
144
0.25
309
CONTENTFORMAT_END
171
     0
 94
        0
309
TABLEFORMAT_END
  1
CELLSTYLE_BEGIN
 90
        1
 91
        1
300
_TITLE
309
CELLSTYLE_END
300
CELLSTYLE
  1
TABLEFORMAT_BEGIN
 90
        5
170
     1
 91
        0
 92
        0
 62
   257
 93
        1
300
CONTENTFORMAT
  1
CONTENTFORMAT_BEGIN
 90
        0
 91
        0
 92
      512
 93
        0
300

 40
0.0
140
1.0
 94
        5
 62
     0
340
4A6
144
0.18
309
CONTENTFORMAT_END
171
     0
 94
        0
309
TABLEFORMAT_END
  1
CELLSTYLE_BEGIN
 90
        2
 91
        1
300
_HEADER
309
CELLSTYLE_END
300
CELLSTYLE
  1
TABLEFORMAT_BEGIN
 90
        5
170
     1
 91
        0
 92
        0
 62
   257
 93
        1
300
CONTENTFORMAT
  1
CONTENTFORMAT_BEGIN
 90
        0
 91
        0
 92
      512
 93
        0
300

 40
0.0
140
1.0
 94
        2
 62
     0
340
4A6
144
0.18
309
CONTENTFORMAT_END
171
     0
 94
        0
309
TABLEFORMAT_END
  1
CELLSTYLE_BEGIN
 90
        3
 91
        2
300
_DATA
309
CELLSTYLE_END
  0
XRECORD
  5
525
102
{ACAD_REACTORS
330
4EE
102
}
330
4EE
100
AcDbXrecord
280
     1
102
ACAD_ROUNDTRIP_PRE2007_TABLESTYLE
 90
      512
 91
        0
  1

 92
      512
 93
        0
  2

 94
      512
 95
        0
  3

  0
XRECORD
  5
500
102
{ACAD_REACTORS
330
4FF
102
}
330
4FF
100
AcDbXrecord
280
     1
102
RTVSPost2010Prop28
280
     1
102
RTVSPost2010PropOp28
 70
     1
102
RTVSPost2010Prop29
280
     1
102
RTVSPost2010PropOp29
 70
     1
102
RTVSPost2010Prop30
280
     0
102
RTVSPost2010PropOp30
 70
     1
102
RTVSPost2010Prop31
280
     0
102
RTVSPost2010PropOp31
 70
     1
102
RTVSPost2010Prop32
280
     0
102
RTVSPost2010PropOp32
 70
     1
102
RTVSPost2010Prop33
280
     0
102
RTVSPost2010PropOp33
 70
     1
102
RTVSPost2010Prop34
280
     0
102
RTVSPost2010PropOp34
 70
     1
102
RTVSPost2010Prop35
280
     0
102
RTVSPost2010PropOp35
 70
     1
102
RTVSPost2010Prop36
280
     0
102
RTVSPost2010PropOp36
 70
     1
102
RTVSPost2010Prop37
 90
       50
102
RTVSPost2010PropOp37
 70
     1
102
RTVSPost2010Prop38
140
0.0
102
RTVSPost2010PropOp38
 70
     1
102
RTVSPost2010Prop39
140
1.0
102
RTVSPost2010PropOp39
 70
     1
102
RTVSPost2010Prop40
 90
        0
102
RTVSPost2010PropOp40
 70
     1
102
RTVSPost2010Prop41ColorIndex
 90
       18
102
RTVSPost2010Prop41ColorRGB
 90
        0
102
RTVSPost2010PropOp41
 70
     1
102
RTVSPost2010Prop42
 90
       50
102
RTVSPost2010PropOp42
 70
     1
102
RTVSPost2010Prop43
 90
        3
102
RTVSPost2010PropOp43
 70
     1
102
RTVSPost2010Prop44ColorIndex
 90
        5
102
RTVSPost2010Prop44ColorRGB
 90
      255
102
RTVSPost2010PropOp44
 70
     1
102
RTVSPost2010Prop45
280
     0
102
RTVSPost2010PropOp45
 70
     1
102
RTVSPost2010Prop46
 90
       50
102
RTVSPost2010PropOp46
 70
     1
102
RTVSPost2010Prop47
 90
       50
102
RTVSPost2010PropOp47
 70
     1
102
RTVSPost2010Prop48
 90
       50
102
RTVSPost2010PropOp48
 70
     1
102
RTVSPost2010Prop49
280
     0
102
RTVSPost2010PropOp49
 70
     1
102
RTVSPost2010Prop50
 90
       50
102
RTVSPost2010PropOp50
 70
     1
102
RTVSPost2010Prop51ColorIndex
 90
      256
102
RTVSPost2010Prop51ColorRGB
 90
-16777216
102
RTVSPost2010PropOp51
 70
     0
102
RTVSPost2010Prop52
140
1.0
102
RTVSPost2010PropOp52
 70
     0
102
RTVSPost2010Prop53
 90
        2
102
RTVSPost2010PropOp53
 70
     1
102
RTVSPost2010Prop54
  1
strokes_ogs.tif
102
RTVSPost2010PropOp54
 70
     1
102
RTVSPost2010Prop55
280
     0
102
RTVSPost2010PropOp55
 70
     1
102
RTVSPost2010Prop56
140
1.0
102
RTVSPost2010PropOp56
 70
     1
102
RTVSPost2010Prop57
140
1.0
102
RTVSPost2010PropOp57
 70
     1
102
RTVSPropertyOp0
 70
     1
102
RTVSPropertyOp1
 70
     1
102
RTVSPropertyOp2
 70
     1
102
RTVSPropertyOp3
 70
     1
102
RTVSPropertyOp4
 70
     1
102
RTVSPropertyOp5
 70
     1
102
RTVSPropertyOp6
 70
     1
102
RTVSPropertyOp7
 70
     1
102
RTVSPropertyOp8
 70
     1
102
RTVSPropertyOp9
 70
     1
102
RTVSPropertyOp10
 70
     1
102
RTVSPropertyOp11
 70
     1
102
RTVSPropertyOp12
 70
     1
102
RTVSPropertyOp13
 70
     1
102
RTVSPropertyOp14
 70
     1
102
RTVSPropertyOp15
 70
     1
102
RTVSPropertyOp16
 70
     1
102
RTVSPropertyOp17
 70
     1
102
RTVSPropertyOp18
 70
     1
102
RTVSPropertyOp19
 70
     1
102
RTVSPropertyOp20
 70
     1
102
RTVSPropertyOp21
 70
     1
102
RTVSPropertyOp22
 70
     1
102
RTVSPropertyOp23
 70
     1
102
RTVSPropertyOp24
 70
     1
102
RTVSPropertyOp25
 70
     1
102
RTVSPropertyOp26
 70
     1
102
RTVSPropertyOp27
 70
     1
102
RTVSPropertyOp28
 70
     1
102
RTVSPropertyOp29
 70
     1
102
RTVSPropertyOp30
 70
     1
102
RTVSPropertyOp31
 70
     1
102
RTVSPropertyOp32
 70
     1
102
RTVSPropertyOp33
 70
     1
102
RTVSPropertyOp34
 70
     1
102
RTVSPropertyOp35
 70
     1
102
RTVSPropertyOp36
 70
     1
102
RTVSPropertyOp37
 70
     1
102
RTVSPropertyOp38
 70
     1
102
RTVSPropertyOp39
 70
     1
102
RTVSPropertyOp40
 70
     1
102
RTVSPropertyOp41
 70
     1
102
RTVSPropertyOp42
 70
     1
102
RTVSPropertyOp43
 70
     1
102
RTVSPropertyOp44
 70
     1
102
RTVSPropertyOp45
 70
     1
102
RTVSPropertyOp46
 70
     1
102
RTVSPropertyOp47
 70
     1
102
RTVSPropertyOp48
 70
     1
102
RTVSPropertyOp49
 70
     1
102
RTVSPropertyOp50
 70
     1
102
RTVSPropertyOp51
 70
     0
102
RTVSPropertyOp52
 70
     0
102
RTVSPropertyOp53
 70
     1
102
RTVSPropertyOp54
 70
     1
102
RTVSPropertyOp55
 70
     1
102
RTVSPropertyOp56
 70
     1
102
RTVSPropertyOp57
 70
     1
102
RTVSPropertyOp58
 70
     1
102
RTVSPropertyOp59
 70
     1
102
RTVSPropertyOp60
 70
     1
102
RTVSPropertyOp61
 70
     1
102
RTVSPropertyOp62
 70
     1
  0
XRECORD
  5
4FE
102
{ACAD_REACTORS
330
4FD
102
}
330
4FD
100
AcDbXrecord
280
     1
102
RTVSPost2010Prop28
280
     0
102
RTVSPost2010PropOp28
 70
     1
102
RTVSPost2010Prop29
280
     1
102
RTVSPost2010PropOp29
 70
     1
102
RTVSPost2010Prop30
280
     1
102
RTVSPost2010PropOp30
 70
     1
102
RTVSPost2010Prop31
280
     0
102
RTVSPost2010PropOp31
 70
     1
102
RTVSPost2010Prop32
280
     0
102
RTVSPost2010PropOp32
 70
     1
102
RTVSPost2010Prop33
280
     0
102
RTVSPost2010PropOp33
 70
     1
102
RTVSPost2010Prop34
280
     0
102
RTVSPost2010PropOp34
 70
     1
102
RTVSPost2010Prop35
280
     0
102
RTVSPost2010PropOp35
 70
     1
102
RTVSPost2010Prop36
280
     0
102
RTVSPost2010PropOp36
 70
     1
102
RTVSPost2010Prop37
 90
       50
102
RTVSPost2010PropOp37
 70
     1
102
RTVSPost2010Prop38
140
0.0
102
RTVSPost2010PropOp38
 70
     1
102
RTVSPost2010Prop39
140
1.0
102
RTVSPost2010PropOp39
 70
     1
102
RTVSPost2010Prop40
 90
        0
102
RTVSPost2010PropOp40
 70
     1
102
RTVSPost2010Prop41ColorIndex
 90
       18
102
RTVSPost2010Prop41ColorRGB
 90
        0
102
RTVSPost2010PropOp41
 70
     1
102
RTVSPost2010Prop42
 90
       50
102
RTVSPost2010PropOp42
 70
     1
102
RTVSPost2010Prop43
 90
        3
102
RTVSPost2010PropOp43
 70
     1
102
RTVSPost2010Prop44ColorIndex
 90
        5
102
RTVSPost2010Prop44ColorRGB
 90
      255
102
RTVSPost2010PropOp44
 70
     1
102
RTVSPost2010Prop45
280
     0
102
RTVSPost2010PropOp45
 70
     1
102
RTVSPost2010Prop46
 90
       50
102
RTVSPost2010PropOp46
 70
     1
102
RTVSPost2010Prop47
 90
       50
102
RTVSPost2010PropOp47
 70
     1
102
RTVSPost2010Prop48
 90
       50
102
RTVSPost2010PropOp48
 70
     1
102
RTVSPost2010Prop49
280
     0
102
RTVSPost2010PropOp49
 70
     1
102
RTVSPost2010Prop50
 90
       50
102
RTVSPost2010PropOp50
 70
     1
102
RTVSPost2010Prop51ColorIndex
 90
      256
102
RTVSPost2010Prop51ColorRGB
 90
-16777216
102
RTVSPost2010PropOp51
 70
     0
102
RTVSPost2010Prop52
140
1.0
102
RTVSPost2010PropOp52
 70
     0
102
RTVSPost2010Prop53
 90
        2
102
RTVSPost2010PropOp53
 70
     1
102
RTVSPost2010Prop54
  1
strokes_ogs.tif
102
RTVSPost2010PropOp54
 70
     1
102
RTVSPost2010Prop55
280
     0
102
RTVSPost2010PropOp55
 70
     1
102
RTVSPost2010Prop56
140
1.0
102
RTVSPost2010PropOp56
 70
     1
102
RTVSPost2010Prop57
140
1.0
102
RTVSPost2010PropOp57
 70
     1
102
RTVSPropertyOp0
 70
     1
102
RTVSPropertyOp1
 70
     1
102
RTVSPropertyOp2
 70
     1
102
RTVSPropertyOp3
 70
     1
102
RTVSPropertyOp4
 70
     1
102
RTVSPropertyOp5
 70
     1
102
RTVSPropertyOp6
 70
     1
102
RTVSPropertyOp7
 70
     1
102
RTVSPropertyOp8
 70
     1
102
RTVSPropertyOp9
 70
     1
102
RTVSPropertyOp10
 70
     1
102
RTVSPropertyOp11
 70
     1
102
RTVSPropertyOp12
 70
     1
102
RTVSPropertyOp13
 70
     1
102
RTVSPropertyOp14
 70
     1
102
RTVSPropertyOp15
 70
     1
102
RTVSPropertyOp16
 70
     1
102
RTVSPropertyOp17
 70
     1
102
RTVSPropertyOp18
 70
     1
102
RTVSPropertyOp19
 70
     1
102
RTVSPropertyOp20
 70
     1
102
RTVSPropertyOp21
 70
     1
102
RTVSPropertyOp22
 70
     1
102
RTVSPropertyOp23
 70
     1
102
RTVSPropertyOp24
 70
     1
102
RTVSPropertyOp25
 70
     1
102
RTVSPropertyOp26
 70
     1
102
RTVSPropertyOp27
 70
     1
102
RTVSPropertyOp28
 70
     1
102
RTVSPropertyOp29
 70
     1
102
RTVSPropertyOp30
 70
     1
102
RTVSPropertyOp31
 70
     1
102
RTVSPropertyOp32
 70
     1
102
RTVSPropertyOp33
 70
     1
102
RTVSPropertyOp34
 70
     1
102
RTVSPropertyOp35
 70
     1
102
RTVSPropertyOp36
 70
     1
102
RTVSPropertyOp37
 70
     1
102
RTVSPropertyOp38
 70
     1
102
RTVSPropertyOp39
 70
     1
102
RTVSPropertyOp40
 70
     1
102
RTVSPropertyOp41
 70
     1
102
RTVSPropertyOp42
 70
     1
102
RTVSPropertyOp43
 70
     1
102
RTVSPropertyOp44
 70
     1
102
RTVSPropertyOp45
 70
     1
102
RTVSPropertyOp46
 70
     1
102
RTVSPropertyOp47
 70
     1
102
RTVSPropertyOp48
 70
     1
102
RTVSPropertyOp49
 70
     1
102
RTVSPropertyOp50
 70
     1
102
RTVSPropertyOp51
 70
     0
102
RTVSPropertyOp52
 70
     0
102
RTVSPropertyOp53
 70
     1
102
RTVSPropertyOp54
 70
     1
102
RTVSPropertyOp55
 70
     1
102
RTVSPropertyOp56
 70
     1
102
RTVSPropertyOp57
 70
     1
102
RTVSPropertyOp58
 70
     1
102
RTVSPropertyOp59
 70
     1
102
RTVSPropertyOp60
 70
     1
102
RTVSPropertyOp61
 70
     1
102
RTVSPropertyOp62
 70
     1
  0
XRECORD
  5
50C
102
{ACAD_REACTORS
330
50B
102
}
330
50B
100
AcDbXrecord
280
     1
102
RTVSPost2010Prop28
280
     0
102
RTVSPost2010PropOp28
 70
     1
102
RTVSPost2010Prop29
280
     1
102
RTVSPost2010PropOp29
 70
     1
102
RTVSPost2010Prop30
280
     1
102
RTVSPost2010PropOp30
 70
     1
102
RTVSPost2010Prop31
280
     0
102
RTVSPost2010PropOp31
 70
     1
102
RTVSPost2010Prop32
280
     0
102
RTVSPost2010PropOp32
 70
     1
102
RTVSPost2010Prop33
280
     0
102
RTVSPost2010PropOp33
 70
     1
102
RTVSPost2010Prop34
280
     0
102
RTVSPost2010PropOp34
 70
     1
102
RTVSPost2010Prop35
280
     0
102
RTVSPost2010PropOp35
 70
     1
102
RTVSPost2010Prop36
280
     0
102
RTVSPost2010PropOp36
 70
     1
102
RTVSPost2010Prop37
 90
       50
102
RTVSPost2010PropOp37
 70
     1
102
RTVSPost2010Prop38
140
0.0
102
RTVSPost2010PropOp38
 70
     1
102
RTVSPost2010Prop39
140
1.0
102
RTVSPost2010PropOp39
 70
     1
102
RTVSPost2010Prop40
 90
        0
102
RTVSPost2010PropOp40
 70
     1
102
RTVSPost2010Prop41ColorIndex
 90
       18
102
RTVSPost2010Prop41ColorRGB
 90
        0
102
RTVSPost2010PropOp41
 70
     1
102
RTVSPost2010Prop42
 90
       50
102
RTVSPost2010PropOp42
 70
     1
102
RTVSPost2010Prop43
 90
        3
102
RTVSPost2010PropOp43
 70
     1
102
RTVSPost2010Prop44ColorIndex
 90
        5
102
RTVSPost2010Prop44ColorRGB
 90
      255
102
RTVSPost2010PropOp44
 70
     1
102
RTVSPost2010Prop45
280
     0
102
RTVSPost2010PropOp45
 70
     1
102
RTVSPost2010Prop46
 90
       50
102
RTVSPost2010PropOp46
 70
     1
102
RTVSPost2010Prop47
 90
       50
102
RTVSPost2010PropOp47
 70
     1
102
RTVSPost2010Prop48
 90
       50
102
RTVSPost2010PropOp48
 70
     1
102
RTVSPost2010Prop49
280
     0
102
RTVSPost2010PropOp49
 70
     1
102
RTVSPost2010Prop50
 90
       50
102
RTVSPost2010PropOp50
 70
     1
102
RTVSPost2010Prop51ColorIndex
 90
      256
102
RTVSPost2010Prop51ColorRGB
 90
-16777216
102
RTVSPost2010PropOp51
 70
     0
102
RTVSPost2010Prop52
140
1.0
102
RTVSPost2010PropOp52
 70
     0
102
RTVSPost2010Prop53
 90
        2
102
RTVSPost2010PropOp53
 70
     1
102
RTVSPost2010Prop54
  1
strokes_ogs.tif
102
RTVSPost2010PropOp54
 70
     1
102
RTVSPost2010Prop55
280
     0
102
RTVSPost2010PropOp55
 70
     1
102
RTVSPost2010Prop56
140
1.0
102
RTVSPost2010PropOp56
 70
     1
102
RTVSPost2010Prop57
140
1.0
102
RTVSPost2010PropOp57
 70
     1
102
RTVSPropertyOp0
 70
     1
102
RTVSPropertyOp1
 70
     1
102
RTVSPropertyOp2
 70
     1
102
RTVSPropertyOp3
 70
     1
102
RTVSPropertyOp4
 70
     1
102
RTVSPropertyOp5
 70
     1
102
RTVSPropertyOp6
 70
     1
102
RTVSPropertyOp7
 70
     1
102
RTVSPropertyOp8
 70
     1
102
RTVSPropertyOp9
 70
     1
102
RTVSPropertyOp10
 70
     1
102
RTVSPropertyOp11
 70
     1
102
RTVSPropertyOp12
 70
     1
102
RTVSPropertyOp13
 70
     1
102
RTVSPropertyOp14
 70
     1
102
RTVSPropertyOp15
 70
     1
102
RTVSPropertyOp16
 70
     1
102
RTVSPropertyOp17
 70
     1
102
RTVSPropertyOp18
 70
     1
102
RTVSPropertyOp19
 70
     1
102
RTVSPropertyOp20
 70
     1
102
RTVSPropertyOp21
 70
     1
102
RTVSPropertyOp22
 70
     1
102
RTVSPropertyOp23
 70
     1
102
RTVSPropertyOp24
 70
     1
102
RTVSPropertyOp25
 70
     1
102
RTVSPropertyOp26
 70
     1
102
RTVSPropertyOp27
 70
     1
102
RTVSPropertyOp28
 70
     1
102
RTVSPropertyOp29
 70
     1
102
RTVSPropertyOp30
 70
     1
102
RTVSPropertyOp31
 70
     1
102
RTVSPropertyOp32
 70
     1
102
RTVSPropertyOp33
 70
     1
102
RTVSPropertyOp34
 70
     1
102
RTVSPropertyOp35
 70
     1
102
RTVSPropertyOp36
 70
     1
102
RTVSPropertyOp37
 70
     1
102
RTVSPropertyOp38
 70
     1
102
RTVSPropertyOp39
 70
     1
102
RTVSPropertyOp40
 70
     1
102
RTVSPropertyOp41
 70
     1
102
RTVSPropertyOp42
 70
     1
102
RTVSPropertyOp43
 70
     1
102
RTVSPropertyOp44
 70
     1
102
RTVSPropertyOp45
 70
     1
102
RTVSPropertyOp46
 70
     1
102
RTVSPropertyOp47
 70
     1
102
RTVSPropertyOp48
 70
     1
102
RTVSPropertyOp49
 70
     1
102
RTVSPropertyOp50
 70
     1
102
RTVSPropertyOp51
 70
     0
102
RTVSPropertyOp52
 70
     0
102
RTVSPropertyOp53
 70
     1
102
RTVSPropertyOp54
 70
     1
102
RTVSPropertyOp55
 70
     1
102
RTVSPropertyOp56
 70
     1
102
RTVSPropertyOp57
 70
     1
102
RTVSPropertyOp58
 70
     1
102
RTVSPropertyOp59
 70
     1
102
RTVSPropertyOp60
 70
     1
102
RTVSPropertyOp61
 70
     1
102
RTVSPropertyOp62
 70
     1
  0
XRECORD
  5
514
102
{ACAD_REACTORS
330
513
102
}
330
513
100
AcDbXrecord
280
     1
102
RTVSPost2010Prop28
280
     0
102
RTVSPost2010PropOp28
 70
     1
102
RTVSPost2010Prop29
280
     1
102
RTVSPost2010PropOp29
 70
     1
102
RTVSPost2010Prop30
280
     1
102
RTVSPost2010PropOp30
 70
     1
102
RTVSPost2010Prop31
280
     0
102
RTVSPost2010PropOp31
 70
     1
102
RTVSPost2010Prop32
280
     0
102
RTVSPost2010PropOp32
 70
     1
102
RTVSPost2010Prop33
280
     0
102
RTVSPost2010PropOp33
 70
     1
102
RTVSPost2010Prop34
280
     0
102
RTVSPost2010PropOp34
 70
     1
102
RTVSPost2010Prop35
280
     0
102
RTVSPost2010PropOp35
 70
     1
102
RTVSPost2010Prop36
280
     0
102
RTVSPost2010PropOp36
 70
     1
102
RTVSPost2010Prop37
 90
       50
102
RTVSPost2010PropOp37
 70
     1
102
RTVSPost2010Prop38
140
0.0
102
RTVSPost2010PropOp38
 70
     1
102
RTVSPost2010Prop39
140
1.0
102
RTVSPost2010PropOp39
 70
     1
102
RTVSPost2010Prop40
 90
        0
102
RTVSPost2010PropOp40
 70
     1
102
RTVSPost2010Prop41ColorIndex
 90
       18
102
RTVSPost2010Prop41ColorRGB
 90
        0
102
RTVSPost2010PropOp41
 70
     1
102
RTVSPost2010Prop42
 90
       50
102
RTVSPost2010PropOp42
 70
     1
102
RTVSPost2010Prop43
 90
        3
102
RTVSPost2010PropOp43
 70
     1
102
RTVSPost2010Prop44ColorIndex
 90
        5
102
RTVSPost2010Prop44ColorRGB
 90
      255
102
RTVSPost2010PropOp44
 70
     1
102
RTVSPost2010Prop45
280
     0
102
RTVSPost2010PropOp45
 70
     1
102
RTVSPost2010Prop46
 90
       50
102
RTVSPost2010PropOp46
 70
     1
102
RTVSPost2010Prop47
 90
       50
102
RTVSPost2010PropOp47
 70
     1
102
RTVSPost2010Prop48
 90
       50
102
RTVSPost2010PropOp48
 70
     1
102
RTVSPost2010Prop49
280
     0
102
RTVSPost2010PropOp49
 70
     1
102
RTVSPost2010Prop50
 90
       50
102
RTVSPost2010PropOp50
 70
     1
102
RTVSPost2010Prop51ColorIndex
 90
      256
102
RTVSPost2010Prop51ColorRGB
 90
-16777216
102
RTVSPost2010PropOp51
 70
     0
102
RTVSPost2010Prop52
140
1.0
102
RTVSPost2010PropOp52
 70
     0
102
RTVSPost2010Prop53
 90
        2
102
RTVSPost2010PropOp53
 70
     1
102
RTVSPost2010Prop54
  1
strokes_ogs.tif
102
RTVSPost2010PropOp54
 70
     1
102
RTVSPost2010Prop55
280
     0
102
RTVSPost2010PropOp55
 70
     1
102
RTVSPost2010Prop56
140
1.0
102
RTVSPost2010PropOp56
 70
     1
102
RTVSPost2010Prop57
140
1.0
102
RTVSPost2010PropOp57
 70
     1
102
RTVSPropertyOp0
 70
     1
102
RTVSPropertyOp1
 70
     1
102
RTVSPropertyOp2
 70
     1
102
RTVSPropertyOp3
 70
     1
102
RTVSPropertyOp4
 70
     1
102
RTVSPropertyOp5
 70
     1
102
RTVSPropertyOp6
 70
     1
102
RTVSPropertyOp7
 70
     1
102
RTVSPropertyOp8
 70
     1
102
RTVSPropertyOp9
 70
     1
102
RTVSPropertyOp10
 70
     1
102
RTVSPropertyOp11
 70
     1
102
RTVSPropertyOp12
 70
     1
102
RTVSPropertyOp13
 70
     1
102
RTVSPropertyOp14
 70
     1
102
RTVSPropertyOp15
 70
     1
102
RTVSPropertyOp16
 70
     1
102
RTVSPropertyOp17
 70
     1
102
RTVSPropertyOp18
 70
     1
102
RTVSPropertyOp19
 70
     1
102
RTVSPropertyOp20
 70
     1
102
RTVSPropertyOp21
 70
     1
102
RTVSPropertyOp22
 70
     1
102
RTVSPropertyOp23
 70
     1
102
RTVSPropertyOp24
 70
     1
102
RTVSPropertyOp25
 70
     1
102
RTVSPropertyOp26
 70
     1
102
RTVSPropertyOp27
 70
     1
102
RTVSPropertyOp28
 70
     1
102
RTVSPropertyOp29
 70
     1
102
RTVSPropertyOp30
 70
     1
102
RTVSPropertyOp31
 70
     1
102
RTVSPropertyOp32
 70
     1
102
RTVSPropertyOp33
 70
     1
102
RTVSPropertyOp34
 70
     1
102
RTVSPropertyOp35
 70
     1
102
RTVSPropertyOp36
 70
     1
102
RTVSPropertyOp37
 70
     1
102
RTVSPropertyOp38
 70
     1
102
RTVSPropertyOp39
 70
     1
102
RTVSPropertyOp40
 70
     1
102
RTVSPropertyOp41
 70
     1
102
RTVSPropertyOp42
 70
     1
102
RTVSPropertyOp43
 70
     1
102
RTVSPropertyOp44
 70
     1
102
RTVSPropertyOp45
 70
     1
102
RTVSPropertyOp46
 70
     1
102
RTVSPropertyOp47
 70
     1
102
RTVSPropertyOp48
 70
     1
102
RTVSPropertyOp49
 70
     1
102
RTVSPropertyOp50
 70
     1
102
RTVSPropertyOp51
 70
     0
102
RTVSPropertyOp52
 70
     0
102
RTVSPropertyOp53
 70
     1
102
RTVSPropertyOp54
 70
     1
102
RTVSPropertyOp55
 70
     1
102
RTVSPropertyOp56
 70
     1
102
RTVSPropertyOp57
 70
     1
102
RTVSPropertyOp58
 70
     1
102
RTVSPropertyOp59
 70
     1
102
RTVSPropertyOp60
 70
     1
102
RTVSPropertyOp61
 70
     1
102
RTVSPropertyOp62
 70
     1
  0
XRECORD
  5
506
102
{ACAD_REACTORS
330
505
102
}
330
505
100
AcDbXrecord
280
     1
102
RTVSPost2010Prop28
280
     0
102
RTVSPost2010PropOp28
 70
     1
102
RTVSPost2010Prop29
280
     1
102
RTVSPost2010PropOp29
 70
     1
102
RTVSPost2010Prop30
280
     1
102
RTVSPost2010PropOp30
 70
     1
102
RTVSPost2010Prop31
280
     0
102
RTVSPost2010PropOp31
 70
     1
102
RTVSPost2010Prop32
280
     0
102
RTVSPost2010PropOp32
 70
     1
102
RTVSPost2010Prop33
280
     0
102
RTVSPost2010PropOp33
 70
     1
102
RTVSPost2010Prop34
280
     0
102
RTVSPost2010PropOp34
 70
     1
102
RTVSPost2010Prop35
280
     0
102
RTVSPost2010PropOp35
 70
     1
102
RTVSPost2010Prop36
280
     0
102
RTVSPost2010PropOp36
 70
     1
102
RTVSPost2010Prop37
 90
       50
102
RTVSPost2010PropOp37
 70
     1
102
RTVSPost2010Prop38
140
0.0
102
RTVSPost2010PropOp38
 70
     1
102
RTVSPost2010Prop39
140
1.0
102
RTVSPost2010PropOp39
 70
     1
102
RTVSPost2010Prop40
 90
        0
102
RTVSPost2010PropOp40
 70
     1
102
RTVSPost2010Prop41ColorIndex
 90
       18
102
RTVSPost2010Prop41ColorRGB
 90
        0
102
RTVSPost2010PropOp41
 70
     1
102
RTVSPost2010Prop42
 90
       50
102
RTVSPost2010PropOp42
 70
     1
102
RTVSPost2010Prop43
 90
        3
102
RTVSPost2010PropOp43
 70
     1
102
RTVSPost2010Prop44ColorIndex
 90
        5
102
RTVSPost2010Prop44ColorRGB
 90
      255
102
RTVSPost2010PropOp44
 70
     1
102
RTVSPost2010Prop45
280
     0
102
RTVSPost2010PropOp45
 70
     1
102
RTVSPost2010Prop46
 90
       50
102
RTVSPost2010PropOp46
 70
     1
102
RTVSPost2010Prop47
 90
       50
102
RTVSPost2010PropOp47
 70
     1
102
RTVSPost2010Prop48
 90
       50
102
RTVSPost2010PropOp48
 70
     1
102
RTVSPost2010Prop49
280
     0
102
RTVSPost2010PropOp49
 70
     1
102
RTVSPost2010Prop50
 90
       50
102
RTVSPost2010PropOp50
 70
     1
102
RTVSPost2010Prop51ColorIndex
 90
      256
102
RTVSPost2010Prop51ColorRGB
 90
-16777216
102
RTVSPost2010PropOp51
 70
     0
102
RTVSPost2010Prop52
140
1.0
102
RTVSPost2010PropOp52
 70
     0
102
RTVSPost2010Prop53
 90
        2
102
RTVSPost2010PropOp53
 70
     1
102
RTVSPost2010Prop54
  1
strokes_ogs.tif
102
RTVSPost2010PropOp54
 70
     1
102
RTVSPost2010Prop55
280
     0
102
RTVSPost2010PropOp55
 70
     1
102
RTVSPost2010Prop56
140
1.0
102
RTVSPost2010PropOp56
 70
     1
102
RTVSPost2010Prop57
140
1.0
102
RTVSPost2010PropOp57
 70
     1
102
RTVSPropertyOp0
 70
     1
102
RTVSPropertyOp1
 70
     1
102
RTVSPropertyOp2
 70
     1
102
RTVSPropertyOp3
 70
     1
102
RTVSPropertyOp4
 70
     1
102
RTVSPropertyOp5
 70
     1
102
RTVSPropertyOp6
 70
     1
102
RTVSPropertyOp7
 70
     1
102
RTVSPropertyOp8
 70
     1
102
RTVSPropertyOp9
 70
     1
102
RTVSPropertyOp10
 70
     1
102
RTVSPropertyOp11
 70
     1
102
RTVSPropertyOp12
 70
     1
102
RTVSPropertyOp13
 70
     1
102
RTVSPropertyOp14
 70
     1
102
RTVSPropertyOp15
 70
     1
102
RTVSPropertyOp16
 70
     1
102
RTVSPropertyOp17
 70
     1
102
RTVSPropertyOp18
 70
     1
102
RTVSPropertyOp19
 70
     1
102
RTVSPropertyOp20
 70
     1
102
RTVSPropertyOp21
 70
     1
102
RTVSPropertyOp22
 70
     1
102
RTVSPropertyOp23
 70
     1
102
RTVSPropertyOp24
 70
     1
102
RTVSPropertyOp25
 70
     1
102
RTVSPropertyOp26
 70
     1
102
RTVSPropertyOp27
 70
     1
102
RTVSPropertyOp28
 70
     1
102
RTVSPropertyOp29
 70
     1
102
RTVSPropertyOp30
 70
     1
102
RTVSPropertyOp31
 70
     1
102
RTVSPropertyOp32
 70
     1
102
RTVSPropertyOp33
 70
     1
102
RTVSPropertyOp34
 70
     1
102
RTVSPropertyOp35
 70
     1
102
RTVSPropertyOp36
 70
     1
102
RTVSPropertyOp37
 70
     1
102
RTVSPropertyOp38
 70
     1
102
RTVSPropertyOp39
 70
     1
102
RTVSPropertyOp40
 70
     1
102
RTVSPropertyOp41
 70
     1
102
RTVSPropertyOp42
 70
     1
102
RTVSPropertyOp43
 70
     1
102
RTVSPropertyOp44
 70
     1
102
RTVSPropertyOp45
 70
     1
102
RTVSPropertyOp46
 70
     1
102
RTVSPropertyOp47
 70
     1
102
RTVSPropertyOp48
 70
     1
102
RTVSPropertyOp49
 70
     1
102
RTVSPropertyOp50
 70
     1
102
RTVSPropertyOp51
 70
     0
102
RTVSPropertyOp52
 70
     0
102
RTVSPropertyOp53
 70
     1
102
RTVSPropertyOp54
 70
     1
102
RTVSPropertyOp55
 70
     1
102
RTVSPropertyOp56
 70
     1
102
RTVSPropertyOp57
 70
     1
102
RTVSPropertyOp58
 70
     1
102
RTVSPropertyOp59
 70
     1
102
RTVSPropertyOp60
 70
     1
102
RTVSPropertyOp61
 70
     1
102
RTVSPropertyOp62
 70
     1
  0
XRECORD
  5
50A
102
{ACAD_REACTORS
330
509
102
}
330
509
100
AcDbXrecord
280
     1
102
RTVSPost2010Prop28
280
     0
102
RTVSPost2010PropOp28
 70
     1
102
RTVSPost2010Prop29
280
     1
102
RTVSPost2010PropOp29
 70
     1
102
RTVSPost2010Prop30
280
     1
102
RTVSPost2010PropOp30
 70
     1
102
RTVSPost2010Prop31
280
     0
102
RTVSPost2010PropOp31
 70
     1
102
RTVSPost2010Prop32
280
     0
102
RTVSPost2010PropOp32
 70
     1
102
RTVSPost2010Prop33
280
     0
102
RTVSPost2010PropOp33
 70
     1
102
RTVSPost2010Prop34
280
     0
102
RTVSPost2010PropOp34
 70
     1
102
RTVSPost2010Prop35
280
     0
102
RTVSPost2010PropOp35
 70
     1
102
RTVSPost2010Prop36
280
     0
102
RTVSPost2010PropOp36
 70
     1
102
RTVSPost2010Prop37
 90
       50
102
RTVSPost2010PropOp37
 70
     1
102
RTVSPost2010Prop38
140
0.0
102
RTVSPost2010PropOp38
 70
     1
102
RTVSPost2010Prop39
140
1.0
102
RTVSPost2010PropOp39
 70
     1
102
RTVSPost2010Prop40
 90
        0
102
RTVSPost2010PropOp40
 70
     1
102
RTVSPost2010Prop41ColorIndex
 90
       18
102
RTVSPost2010Prop41ColorRGB
 90
        0
102
RTVSPost2010PropOp41
 70
     1
102
RTVSPost2010Prop42
 90
       50
102
RTVSPost2010PropOp42
 70
     1
102
RTVSPost2010Prop43
 90
        3
102
RTVSPost2010PropOp43
 70
     1
102
RTVSPost2010Prop44ColorIndex
 90
        5
102
RTVSPost2010Prop44ColorRGB
 90
      255
102
RTVSPost2010PropOp44
 70
     1
102
RTVSPost2010Prop45
280
     0
102
RTVSPost2010PropOp45
 70
     1
102
RTVSPost2010Prop46
 90
       50
102
RTVSPost2010PropOp46
 70
     1
102
RTVSPost2010Prop47
 90
       50
102
RTVSPost2010PropOp47
 70
     1
102
RTVSPost2010Prop48
 90
       50
102
RTVSPost2010PropOp48
 70
     1
102
RTVSPost2010Prop49
280
     0
102
RTVSPost2010PropOp49
 70
     1
102
RTVSPost2010Prop50
 90
       50
102
RTVSPost2010PropOp50
 70
     1
102
RTVSPost2010Prop51ColorIndex
 90
      256
102
RTVSPost2010Prop51ColorRGB
 90
-16777216
102
RTVSPost2010PropOp51
 70
     0
102
RTVSPost2010Prop52
140
1.0
102
RTVSPost2010PropOp52
 70
     0
102
RTVSPost2010Prop53
 90
        2
102
RTVSPost2010PropOp53
 70
     1
102
RTVSPost2010Prop54
  1
strokes_ogs.tif
102
RTVSPost2010PropOp54
 70
     1
102
RTVSPost2010Prop55
280
     0
102
RTVSPost2010PropOp55
 70
     1
102
RTVSPost2010Prop56
140
1.0
102
RTVSPost2010PropOp56
 70
     1
102
RTVSPost2010Prop57
140
1.0
102
RTVSPost2010PropOp57
 70
     1
102
RTVSPropertyOp0
 70
     1
102
RTVSPropertyOp1
 70
     1
102
RTVSPropertyOp2
 70
     1
102
RTVSPropertyOp3
 70
     1
102
RTVSPropertyOp4
 70
     1
102
RTVSPropertyOp5
 70
     1
102
RTVSPropertyOp6
 70
     1
102
RTVSPropertyOp7
 70
     1
102
RTVSPropertyOp8
 70
     1
102
RTVSPropertyOp9
 70
     1
102
RTVSPropertyOp10
 70
     1
102
RTVSPropertyOp11
 70
     1
102
RTVSPropertyOp12
 70
     1
102
RTVSPropertyOp13
 70
     1
102
RTVSPropertyOp14
 70
     1
102
RTVSPropertyOp15
 70
     1
102
RTVSPropertyOp16
 70
     1
102
RTVSPropertyOp17
 70
     1
102
RTVSPropertyOp18
 70
     1
102
RTVSPropertyOp19
 70
     1
102
RTVSPropertyOp20
 70
     1
102
RTVSPropertyOp21
 70
     1
102
RTVSPropertyOp22
 70
     1
102
RTVSPropertyOp23
 70
     1
102
RTVSPropertyOp24
 70
     1
102
RTVSPropertyOp25
 70
     1
102
RTVSPropertyOp26
 70
     1
102
RTVSPropertyOp27
 70
     1
102
RTVSPropertyOp28
 70
     1
102
RTVSPropertyOp29
 70
     1
102
RTVSPropertyOp30
 70
     1
102
RTVSPropertyOp31
 70
     1
102
RTVSPropertyOp32
 70
     1
102
RTVSPropertyOp33
 70
     1
102
RTVSPropertyOp34
 70
     1
102
RTVSPropertyOp35
 70
     1
102
RTVSPropertyOp36
 70
     1
102
RTVSPropertyOp37
 70
     1
102
RTVSPropertyOp38
 70
     1
102
RTVSPropertyOp39
 70
     1
102
RTVSPropertyOp40
 70
     1
102
RTVSPropertyOp41
 70
     1
102
RTVSPropertyOp42
 70
     1
102
RTVSPropertyOp43
 70
     1
102
RTVSPropertyOp44
 70
     1
102
RTVSPropertyOp45
 70
     1
102
RTVSPropertyOp46
 70
     1
102
RTVSPropertyOp47
 70
     1
102
RTVSPropertyOp48
 70
     1
102
RTVSPropertyOp49
 70
     1
102
RTVSPropertyOp50
 70
     1
102
RTVSPropertyOp51
 70
     0
102
RTVSPropertyOp52
 70
     0
102
RTVSPropertyOp53
 70
     1
102
RTVSPropertyOp54
 70
     1
102
RTVSPropertyOp55
 70
     1
102
RTVSPropertyOp56
 70
     1
102
RTVSPropertyOp57
 70
     1
102
RTVSPropertyOp58
 70
     1
102
RTVSPropertyOp59
 70
     1
102
RTVSPropertyOp60
 70
     1
102
RTVSPropertyOp61
 70
     1
102
RTVSPropertyOp62
 70
     1
  0
XRECORD
  5
524
102
{ACAD_REACTORS
330
523
102
}
330
523
100
AcDbXrecord
280
     1
102
RTVSPost2010Prop28
280
     0
102
RTVSPost2010PropOp28
 70
     1
102
RTVSPost2010Prop29
280
     1
102
RTVSPost2010PropOp29
 70
     1
102
RTVSPost2010Prop30
280
     1
102
RTVSPost2010PropOp30
 70
     1
102
RTVSPost2010Prop31
280
     0
102
RTVSPost2010PropOp31
 70
     1
102
RTVSPost2010Prop32
280
     0
102
RTVSPost2010PropOp32
 70
     1
102
RTVSPost2010Prop33
280
     0
102
RTVSPost2010PropOp33
 70
     1
102
RTVSPost2010Prop34
280
     0
102
RTVSPost2010PropOp34
 70
     1
102
RTVSPost2010Prop35
280
     0
102
RTVSPost2010PropOp35
 70
     1
102
RTVSPost2010Prop36
280
     0
102
RTVSPost2010PropOp36
 70
     1
102
RTVSPost2010Prop37
 90
       50
102
RTVSPost2010PropOp37
 70
     0
102
RTVSPost2010Prop38
140
0.0
102
RTVSPost2010PropOp38
 70
     0
102
RTVSPost2010Prop39
140
1.0
102
RTVSPost2010PropOp39
 70
     0
102
RTVSPost2010Prop40
 90
        0
102
RTVSPost2010PropOp40
 70
     0
102
RTVSPost2010Prop41ColorIndex
 90
       18
102
RTVSPost2010Prop41ColorRGB
 90
        0
102
RTVSPost2010PropOp41
 70
     0
102
RTVSPost2010Prop42
 90
       50
102
RTVSPost2010PropOp42
 70
     0
102
RTVSPost2010Prop43
 90
        3
102
RTVSPost2010PropOp43
 70
     0
102
RTVSPost2010Prop44ColorIndex
 90
        5
102
RTVSPost2010Prop44ColorRGB
 90
      255
102
RTVSPost2010PropOp44
 70
     0
102
RTVSPost2010Prop45
280
     0
102
RTVSPost2010PropOp45
 70
     1
102
RTVSPost2010Prop46
 90
       50
102
RTVSPost2010PropOp46
 70
     0
102
RTVSPost2010Prop47
 90
       50
102
RTVSPost2010PropOp47
 70
     0
102
RTVSPost2010Prop48
 90
       50
102
RTVSPost2010PropOp48
 70
     0
102
RTVSPost2010Prop49
280
     0
102
RTVSPost2010PropOp49
 70
     1
102
RTVSPost2010Prop50
 90
       50
102
RTVSPost2010PropOp50
 70
     0
102
RTVSPost2010Prop51ColorIndex
 90
      256
102
RTVSPost2010Prop51ColorRGB
 90
-16777216
102
RTVSPost2010PropOp51
 70
     0
102
RTVSPost2010Prop52
140
1.0
102
RTVSPost2010PropOp52
 70
     0
102
RTVSPost2010Prop53
 90
        2
102
RTVSPost2010PropOp53
 70
     0
102
RTVSPost2010Prop54
  1
strokes_ogs.tif
102
RTVSPost2010PropOp54
 70
     0
102
RTVSPost2010Prop55
280
     0
102
RTVSPost2010PropOp55
 70
     1
102
RTVSPost2010Prop56
140
1.0
102
RTVSPost2010PropOp56
 70
     0
102
RTVSPost2010Prop57
140
1.0
102
RTVSPost2010PropOp57
 70
     0
102
RTVSPropertyOp0
 70
     0
102
RTVSPropertyOp1
 70
     0
102
RTVSPropertyOp2
 70
     0
102
RTVSPropertyOp3
 70
     0
102
RTVSPropertyOp4
 70
     0
102
RTVSPropertyOp5
 70
     0
102
RTVSPropertyOp6
 70
     0
102
RTVSPropertyOp7
 70
     0
102
RTVSPropertyOp8
 70
     0
102
RTVSPropertyOp9
 70
     0
102
RTVSPropertyOp10
 70
     0
102
RTVSPropertyOp11
 70
     0
102
RTVSPropertyOp12
 70
     0
102
RTVSPropertyOp13
 70
     0
102
RTVSPropertyOp14
 70
     2
102
RTVSPropertyOp15
 70
     0
102
RTVSPropertyOp16
 70
     0
102
RTVSPropertyOp17
 70
     0
102
RTVSPropertyOp18
 70
     0
102
RTVSPropertyOp19
 70
     0
102
RTVSPropertyOp20
 70
     0
102
RTVSPropertyOp21
 70
     0
102
RTVSPropertyOp22
 70
     0
102
RTVSPropertyOp23
 70
     0
102
RTVSPropertyOp24
 70
     0
102
RTVSPropertyOp25
 70
     0
102
RTVSPropertyOp26
 70
     0
102
RTVSPropertyOp27
 70
     0
102
RTVSPropertyOp28
 70
     1
102
RTVSPropertyOp29
 70
     1
102
RTVSPropertyOp30
 70
     1
102
RTVSPropertyOp31
 70
     1
102
RTVSPropertyOp32
 70
     1
102
RTVSPropertyOp33
 70
     1
102
RTVSPropertyOp34
 70
     1
102
RTVSPropertyOp35
 70
     1
102
RTVSPropertyOp36
 70
     1
102
RTVSPropertyOp37
 70
     0
102
RTVSPropertyOp38
 70
     0
102
RTVSPropertyOp39
 70
     0
102
RTVSPropertyOp40
 70
     0
102
RTVSPropertyOp41
 70
     0
102
RTVSPropertyOp42
 70
     0
102
RTVSPropertyOp43
 70
     0
102
RTVSPropertyOp44
 70
     0
102
RTVSPropertyOp45
 70
     1
102
RTVSPropertyOp46
 70
     0
102
RTVSPropertyOp47
 70
     0
102
RTVSPropertyOp48
 70
     0
102
RTVSPropertyOp49
 70
     1
102
RTVSPropertyOp50
 70
     0
102
RTVSPropertyOp51
 70
     0
102
RTVSPropertyOp52
 70
     0
102
RTVSPropertyOp53
 70
     0
102
RTVSPropertyOp54
 70
     0
102
RTVSPropertyOp55
 70
     1
102
RTVSPropertyOp56
 70
     0
102
RTVSPropertyOp57
 70
     0
102
RTVSPropertyOp58
 70
     0
102
RTVSPropertyOp59
 70
     0
102
RTVSPropertyOp60
 70
     0
102
RTVSPropertyOp61
 70
     0
102
RTVSPropertyOp62
 70
     0
  0
XRECORD
  5
512
102
{ACAD_REACTORS
330
511
102
}
330
511
100
AcDbXrecord
280
     1
102
RTVSPost2010Prop28
280
     0
102
RTVSPost2010PropOp28
 70
     1
102
RTVSPost2010Prop29
280
     1
102
RTVSPost2010PropOp29
 70
     1
102
RTVSPost2010Prop30
280
     1
102
RTVSPost2010PropOp30
 70
     1
102
RTVSPost2010Prop31
280
     0
102
RTVSPost2010PropOp31
 70
     1
102
RTVSPost2010Prop32
280
     0
102
RTVSPost2010PropOp32
 70
     1
102
RTVSPost2010Prop33
280
     0
102
RTVSPost2010PropOp33
 70
     1
102
RTVSPost2010Prop34
280
     0
102
RTVSPost2010PropOp34
 70
     1
102
RTVSPost2010Prop35
280
     0
102
RTVSPost2010PropOp35
 70
     1
102
RTVSPost2010Prop36
280
     0
102
RTVSPost2010PropOp36
 70
     1
102
RTVSPost2010Prop37
 90
       50
102
RTVSPost2010PropOp37
 70
     1
102
RTVSPost2010Prop38
140
0.0
102
RTVSPost2010PropOp38
 70
     1
102
RTVSPost2010Prop39
140
1.0
102
RTVSPost2010PropOp39
 70
     1
102
RTVSPost2010Prop40
 90
        0
102
RTVSPost2010PropOp40
 70
     1
102
RTVSPost2010Prop41ColorIndex
 90
       18
102
RTVSPost2010Prop41ColorRGB
 90
        0
102
RTVSPost2010PropOp41
 70
     1
102
RTVSPost2010Prop42
 90
       50
102
RTVSPost2010PropOp42
 70
     1
102
RTVSPost2010Prop43
 90
        3
102
RTVSPost2010PropOp43
 70
     1
102
RTVSPost2010Prop44ColorIndex
 90
        5
102
RTVSPost2010Prop44ColorRGB
 90
      255
102
RTVSPost2010PropOp44
 70
     1
102
RTVSPost2010Prop45
280
     0
102
RTVSPost2010PropOp45
 70
     1
102
RTVSPost2010Prop46
 90
       50
102
RTVSPost2010PropOp46
 70
     1
102
RTVSPost2010Prop47
 90
       50
102
RTVSPost2010PropOp47
 70
     1
102
RTVSPost2010Prop48
 90
       50
102
RTVSPost2010PropOp48
 70
     1
102
RTVSPost2010Prop49
280
     0
102
RTVSPost2010PropOp49
 70
     1
102
RTVSPost2010Prop50
 90
       50
102
RTVSPost2010PropOp50
 70
     1
102
RTVSPost2010Prop51ColorIndex
 90
      256
102
RTVSPost2010Prop51ColorRGB
 90
-16777216
102
RTVSPost2010PropOp51
 70
     0
102
RTVSPost2010Prop52
140
1.0
102
RTVSPost2010PropOp52
 70
     0
102
RTVSPost2010Prop53
 90
        2
102
RTVSPost2010PropOp53
 70
     1
102
RTVSPost2010Prop54
  1
strokes_ogs.tif
102
RTVSPost2010PropOp54
 70
     1
102
RTVSPost2010Prop55
280
     0
102
RTVSPost2010PropOp55
 70
     1
102
RTVSPost2010Prop56
140
1.0
102
RTVSPost2010PropOp56
 70
     1
102
RTVSPost2010Prop57
140
1.0
102
RTVSPost2010PropOp57
 70
     1
102
RTVSPropertyOp0
 70
     1
102
RTVSPropertyOp1
 70
     1
102
RTVSPropertyOp2
 70
     1
102
RTVSPropertyOp3
 70
     1
102
RTVSPropertyOp4
 70
     1
102
RTVSPropertyOp5
 70
     1
102
RTVSPropertyOp6
 70
     1
102
RTVSPropertyOp7
 70
     1
102
RTVSPropertyOp8
 70
     1
102
RTVSPropertyOp9
 70
     1
102
RTVSPropertyOp10
 70
     1
102
RTVSPropertyOp11
 70
     1
102
RTVSPropertyOp12
 70
     1
102
RTVSPropertyOp13
 70
     1
102
RTVSPropertyOp14
 70
     1
102
RTVSPropertyOp15
 70
     1
102
RTVSPropertyOp16
 70
     1
102
RTVSPropertyOp17
 70
     1
102
RTVSPropertyOp18
 70
     1
102
RTVSPropertyOp19
 70
     1
102
RTVSPropertyOp20
 70
     1
102
RTVSPropertyOp21
 70
     1
102
RTVSPropertyOp22
 70
     1
102
RTVSPropertyOp23
 70
     1
102
RTVSPropertyOp24
 70
     1
102
RTVSPropertyOp25
 70
     1
102
RTVSPropertyOp26
 70
     1
102
RTVSPropertyOp27
 70
     1
102
RTVSPropertyOp28
 70
     1
102
RTVSPropertyOp29
 70
     1
102
RTVSPropertyOp30
 70
     1
102
RTVSPropertyOp31
 70
     1
102
RTVSPropertyOp32
 70
     1
102
RTVSPropertyOp33
 70
     1
102
RTVSPropertyOp34
 70
     1
102
RTVSPropertyOp35
 70
     1
102
RTVSPropertyOp36
 70
     1
102
RTVSPropertyOp37
 70
     1
102
RTVSPropertyOp38
 70
     1
102
RTVSPropertyOp39
 70
     1
102
RTVSPropertyOp40
 70
     1
102
RTVSPropertyOp41
 70
     1
102
RTVSPropertyOp42
 70
     1
102
RTVSPropertyOp43
 70
     1
102
RTVSPropertyOp44
 70
     1
102
RTVSPropertyOp45
 70
     1
102
RTVSPropertyOp46
 70
     1
102
RTVSPropertyOp47
 70
     1
102
RTVSPropertyOp48
 70
     1
102
RTVSPropertyOp49
 70
     1
102
RTVSPropertyOp50
 70
     1
102
RTVSPropertyOp51
 70
     0
102
RTVSPropertyOp52
 70
     0
102
RTVSPropertyOp53
 70
     1
102
RTVSPropertyOp54
 70
     1
102
RTVSPropertyOp55
 70
     1
102
RTVSPropertyOp56
 70
     1
102
RTVSPropertyOp57
 70
     1
102
RTVSPropertyOp58
 70
     1
102
RTVSPropertyOp59
 70
     1
102
RTVSPropertyOp60
 70
     1
102
RTVSPropertyOp61
 70
     1
102
RTVSPropertyOp62
 70
     1
  0
XRECORD
  5
4F6
102
{ACAD_REACTORS
330
4F5
102
}
330
4F5
100
AcDbXrecord
280
     1
102
RTVSPost2010Prop28
280
     0
102
RTVSPost2010PropOp28
 70
     1
102
RTVSPost2010Prop29
280
     1
102
RTVSPost2010PropOp29
 70
     1
102
RTVSPost2010Prop30
280
     1
102
RTVSPost2010PropOp30
 70
     1
102
RTVSPost2010Prop31
280
     0
102
RTVSPost2010PropOp31
 70
     1
102
RTVSPost2010Prop32
280
     0
102
RTVSPost2010PropOp32
 70
     1
102
RTVSPost2010Prop33
280
     0
102
RTVSPost2010PropOp33
 70
     1
102
RTVSPost2010Prop34
280
     0
102
RTVSPost2010PropOp34
 70
     1
102
RTVSPost2010Prop35
280
     0
102
RTVSPost2010PropOp35
 70
     1
102
RTVSPost2010Prop36
280
     0
102
RTVSPost2010PropOp36
 70
     1
102
RTVSPost2010Prop37
 90
       50
102
RTVSPost2010PropOp37
 70
     1
102
RTVSPost2010Prop38
140
0.0
102
RTVSPost2010PropOp38
 70
     1
102
RTVSPost2010Prop39
140
1.0
102
RTVSPost2010PropOp39
 70
     1
102
RTVSPost2010Prop40
 90
        0
102
RTVSPost2010PropOp40
 70
     1
102
RTVSPost2010Prop41ColorIndex
 90
       18
102
RTVSPost2010Prop41ColorRGB
 90
        0
102
RTVSPost2010PropOp41
 70
     1
102
RTVSPost2010Prop42
 90
       50
102
RTVSPost2010PropOp42
 70
     1
102
RTVSPost2010Prop43
 90
        3
102
RTVSPost2010PropOp43
 70
     1
102
RTVSPost2010Prop44ColorIndex
 90
        5
102
RTVSPost2010Prop44ColorRGB
 90
      255
102
RTVSPost2010PropOp44
 70
     1
102
RTVSPost2010Prop45
280
     0
102
RTVSPost2010PropOp45
 70
     1
102
RTVSPost2010Prop46
 90
       50
102
RTVSPost2010PropOp46
 70
     1
102
RTVSPost2010Prop47
 90
       50
102
RTVSPost2010PropOp47
 70
     1
102
RTVSPost2010Prop48
 90
       50
102
RTVSPost2010PropOp48
 70
     1
102
RTVSPost2010Prop49
280
     0
102
RTVSPost2010PropOp49
 70
     1
102
RTVSPost2010Prop50
 90
       50
102
RTVSPost2010PropOp50
 70
     1
102
RTVSPost2010Prop51ColorIndex
 90
      256
102
RTVSPost2010Prop51ColorRGB
 90
-16777216
102
RTVSPost2010PropOp51
 70
     0
102
RTVSPost2010Prop52
140
1.0
102
RTVSPost2010PropOp52
 70
     0
102
RTVSPost2010Prop53
 90
        2
102
RTVSPost2010PropOp53
 70
     1
102
RTVSPost2010Prop54
  1
strokes_ogs.tif
102
RTVSPost2010PropOp54
 70
     1
102
RTVSPost2010Prop55
280
     0
102
RTVSPost2010PropOp55
 70
     1
102
RTVSPost2010Prop56
140
1.0
102
RTVSPost2010PropOp56
 70
     1
102
RTVSPost2010Prop57
140
1.0
102
RTVSPost2010PropOp57
 70
     1
102
RTVSPropertyOp0
 70
     1
102
RTVSPropertyOp1
 70
     1
102
RTVSPropertyOp2
 70
     1
102
RTVSPropertyOp3
 70
     1
102
RTVSPropertyOp4
 70
     1
102
RTVSPropertyOp5
 70
     1
102
RTVSPropertyOp6
 70
     1
102
RTVSPropertyOp7
 70
     1
102
RTVSPropertyOp8
 70
     1
102
RTVSPropertyOp9
 70
     1
102
RTVSPropertyOp10
 70
     1
102
RTVSPropertyOp11
 70
     1
102
RTVSPropertyOp12
 70
     1
102
RTVSPropertyOp13
 70
     1
102
RTVSPropertyOp14
 70
     1
102
RTVSPropertyOp15
 70
     1
102
RTVSPropertyOp16
 70
     1
102
RTVSPropertyOp17
 70
     1
102
RTVSPropertyOp18
 70
     1
102
RTVSPropertyOp19
 70
     1
102
RTVSPropertyOp20
 70
     1
102
RTVSPropertyOp21
 70
     1
102
RTVSPropertyOp22
 70
     1
102
RTVSPropertyOp23
 70
     1
102
RTVSPropertyOp24
 70
     1
102
RTVSPropertyOp25
 70
     1
102
RTVSPropertyOp26
 70
     1
102
RTVSPropertyOp27
 70
     1
102
RTVSPropertyOp28
 70
     1
102
RTVSPropertyOp29
 70
     1
102
RTVSPropertyOp30
 70
     1
102
RTVSPropertyOp31
 70
     1
102
RTVSPropertyOp32
 70
     1
102
RTVSPropertyOp33
 70
     1
102
RTVSPropertyOp34
 70
     1
102
RTVSPropertyOp35
 70
     1
102
RTVSPropertyOp36
 70
     1
102
RTVSPropertyOp37
 70
     1
102
RTVSPropertyOp38
 70
     1
102
RTVSPropertyOp39
 70
     1
102
RTVSPropertyOp40
 70
     1
102
RTVSPropertyOp41
 70
     1
102
RTVSPropertyOp42
 70
     1
102
RTVSPropertyOp43
 70
     1
102
RTVSPropertyOp44
 70
     1
102
RTVSPropertyOp45
 70
     1
102
RTVSPropertyOp46
 70
     1
102
RTVSPropertyOp47
 70
     1
102
RTVSPropertyOp48
 70
     1
102
RTVSPropertyOp49
 70
     1
102
RTVSPropertyOp50
 70
     1
102
RTVSPropertyOp51
 70
     0
102
RTVSPropertyOp52
 70
     0
102
RTVSPropertyOp53
 70
     1
102
RTVSPropertyOp54
 70
     1
102
RTVSPropertyOp55
 70
     1
102
RTVSPropertyOp56
 70
     1
102
RTVSPropertyOp57
 70
     1
102
RTVSPropertyOp58
 70
     1
102
RTVSPropertyOp59
 70
     1
102
RTVSPropertyOp60
 70
     1
102
RTVSPropertyOp61
 70
     1
102
RTVSPropertyOp62
 70
     1
  0
XRECORD
  5
4F8
102
{ACAD_REACTORS
330
4F7
102
}
330
4F7
100
AcDbXrecord
280
     1
102
RTVSPost2010Prop28
280
     0
102
RTVSPost2010PropOp28
 70
     1
102
RTVSPost2010Prop29
280
     1
102
RTVSPost2010PropOp29
 70
     1
102
RTVSPost2010Prop30
280
     1
102
RTVSPost2010PropOp30
 70
     1
102
RTVSPost2010Prop31
280
     0
102
RTVSPost2010PropOp31
 70
     1
102
RTVSPost2010Prop32
280
     0
102
RTVSPost2010PropOp32
 70
     1
102
RTVSPost2010Prop33
280
     0
102
RTVSPost2010PropOp33
 70
     1
102
RTVSPost2010Prop34
280
     0
102
RTVSPost2010PropOp34
 70
     1
102
RTVSPost2010Prop35
280
     0
102
RTVSPost2010PropOp35
 70
     1
102
RTVSPost2010Prop36
280
     0
102
RTVSPost2010PropOp36
 70
     1
102
RTVSPost2010Prop37
 90
       50
102
RTVSPost2010PropOp37
 70
     1
102
RTVSPost2010Prop38
140
0.0
102
RTVSPost2010PropOp38
 70
     1
102
RTVSPost2010Prop39
140
1.0
102
RTVSPost2010PropOp39
 70
     1
102
RTVSPost2010Prop40
 90
        0
102
RTVSPost2010PropOp40
 70
     1
102
RTVSPost2010Prop41ColorIndex
 90
       18
102
RTVSPost2010Prop41ColorRGB
 90
        0
102
RTVSPost2010PropOp41
 70
     1
102
RTVSPost2010Prop42
 90
       50
102
RTVSPost2010PropOp42
 70
     1
102
RTVSPost2010Prop43
 90
        3
102
RTVSPost2010PropOp43
 70
     1
102
RTVSPost2010Prop44ColorIndex
 90
        5
102
RTVSPost2010Prop44ColorRGB
 90
      255
102
RTVSPost2010PropOp44
 70
     1
102
RTVSPost2010Prop45
280
     0
102
RTVSPost2010PropOp45
 70
     1
102
RTVSPost2010Prop46
 90
       50
102
RTVSPost2010PropOp46
 70
     1
102
RTVSPost2010Prop47
 90
       50
102
RTVSPost2010PropOp47
 70
     1
102
RTVSPost2010Prop48
 90
       50
102
RTVSPost2010PropOp48
 70
     1
102
RTVSPost2010Prop49
280
     0
102
RTVSPost2010PropOp49
 70
     1
102
RTVSPost2010Prop50
 90
       50
102
RTVSPost2010PropOp50
 70
     1
102
RTVSPost2010Prop51ColorIndex
 90
      256
102
RTVSPost2010Prop51ColorRGB
 90
-16777216
102
RTVSPost2010PropOp51
 70
     0
102
RTVSPost2010Prop52
140
1.0
102
RTVSPost2010PropOp52
 70
     0
102
RTVSPost2010Prop53
 90
        2
102
RTVSPost2010PropOp53
 70
     1
102
RTVSPost2010Prop54
  1
strokes_ogs.tif
102
RTVSPost2010PropOp54
 70
     1
102
RTVSPost2010Prop55
280
     0
102
RTVSPost2010PropOp55
 70
     1
102
RTVSPost2010Prop56
140
1.0
102
RTVSPost2010PropOp56
 70
     1
102
RTVSPost2010Prop57
140
1.0
102
RTVSPost2010PropOp57
 70
     1
102
RTVSPropertyOp0
 70
     1
102
RTVSPropertyOp1
 70
     1
102
RTVSPropertyOp2
 70
     1
102
RTVSPropertyOp3
 70
     1
102
RTVSPropertyOp4
 70
     1
102
RTVSPropertyOp5
 70
     1
102
RTVSPropertyOp6
 70
     1
102
RTVSPropertyOp7
 70
     1
102
RTVSPropertyOp8
 70
     1
102
RTVSPropertyOp9
 70
     1
102
RTVSPropertyOp10
 70
     1
102
RTVSPropertyOp11
 70
     1
102
RTVSPropertyOp12
 70
     1
102
RTVSPropertyOp13
 70
     1
102
RTVSPropertyOp14
 70
     1
102
RTVSPropertyOp15
 70
     1
102
RTVSPropertyOp16
 70
     1
102
RTVSPropertyOp17
 70
     1
102
RTVSPropertyOp18
 70
     1
102
RTVSPropertyOp19
 70
     1
102
RTVSPropertyOp20
 70
     1
102
RTVSPropertyOp21
 70
     1
102
RTVSPropertyOp22
 70
     1
102
RTVSPropertyOp23
 70
     1
102
RTVSPropertyOp24
 70
     1
102
RTVSPropertyOp25
 70
     1
102
RTVSPropertyOp26
 70
     1
102
RTVSPropertyOp27
 70
     1
102
RTVSPropertyOp28
 70
     1
102
RTVSPropertyOp29
 70
     1
102
RTVSPropertyOp30
 70
     1
102
RTVSPropertyOp31
 70
     1
102
RTVSPropertyOp32
 70
     1
102
RTVSPropertyOp33
 70
     1
102
RTVSPropertyOp34
 70
     1
102
RTVSPropertyOp35
 70
     1
102
RTVSPropertyOp36
 70
     1
102
RTVSPropertyOp37
 70
     1
102
RTVSPropertyOp38
 70
     1
102
RTVSPropertyOp39
 70
     1
102
RTVSPropertyOp40
 70
     1
102
RTVSPropertyOp41
 70
     1
102
RTVSPropertyOp42
 70
     1
102
RTVSPropertyOp43
 70
     1
102
RTVSPropertyOp44
 70
     1
102
RTVSPropertyOp45
 70
     1
102
RTVSPropertyOp46
 70
     1
102
RTVSPropertyOp47
 70
     1
102
RTVSPropertyOp48
 70
     1
102
RTVSPropertyOp49
 70
     1
102
RTVSPropertyOp50
 70
     1
102
RTVSPropertyOp51
 70
     0
102
RTVSPropertyOp52
 70
     0
102
RTVSPropertyOp53
 70
     1
102
RTVSPropertyOp54
 70
     1
102
RTVSPropertyOp55
 70
     1
102
RTVSPropertyOp56
 70
     1
102
RTVSPropertyOp57
 70
     1
102
RTVSPropertyOp58
 70
     1
102
RTVSPropertyOp59
 70
     1
102
RTVSPropertyOp60
 70
     1
102
RTVSPropertyOp61
 70
     1
102
RTVSPropertyOp62
 70
     1
  0
XRECORD
  5
4FA
102
{ACAD_REACTORS
330
4F9
102
}
330
4F9
100
AcDbXrecord
280
     1
102
RTVSPost2010Prop28
280
     0
102
RTVSPost2010PropOp28
 70
     1
102
RTVSPost2010Prop29
280
     1
102
RTVSPost2010PropOp29
 70
     1
102
RTVSPost2010Prop30
280
     1
102
RTVSPost2010PropOp30
 70
     1
102
RTVSPost2010Prop31
280
     0
102
RTVSPost2010PropOp31
 70
     1
102
RTVSPost2010Prop32
280
     0
102
RTVSPost2010PropOp32
 70
     1
102
RTVSPost2010Prop33
280
     0
102
RTVSPost2010PropOp33
 70
     1
102
RTVSPost2010Prop34
280
     0
102
RTVSPost2010PropOp34
 70
     1
102
RTVSPost2010Prop35
280
     0
102
RTVSPost2010PropOp35
 70
     1
102
RTVSPost2010Prop36
280
     0
102
RTVSPost2010PropOp36
 70
     1
102
RTVSPost2010Prop37
 90
       50
102
RTVSPost2010PropOp37
 70
     1
102
RTVSPost2010Prop38
140
0.0
102
RTVSPost2010PropOp38
 70
     1
102
RTVSPost2010Prop39
140
1.0
102
RTVSPost2010PropOp39
 70
     1
102
RTVSPost2010Prop40
 90
        0
102
RTVSPost2010PropOp40
 70
     1
102
RTVSPost2010Prop41ColorIndex
 90
       18
102
RTVSPost2010Prop41ColorRGB
 90
        0
102
RTVSPost2010PropOp41
 70
     1
102
RTVSPost2010Prop42
 90
       50
102
RTVSPost2010PropOp42
 70
     1
102
RTVSPost2010Prop43
 90
        3
102
RTVSPost2010PropOp43
 70
     1
102
RTVSPost2010Prop44ColorIndex
 90
        5
102
RTVSPost2010Prop44ColorRGB
 90
      255
102
RTVSPost2010PropOp44
 70
     1
102
RTVSPost2010Prop45
280
     0
102
RTVSPost2010PropOp45
 70
     1
102
RTVSPost2010Prop46
 90
       50
102
RTVSPost2010PropOp46
 70
     1
102
RTVSPost2010Prop47
 90
       50
102
RTVSPost2010PropOp47
 70
     1
102
RTVSPost2010Prop48
 90
       50
102
RTVSPost2010PropOp48
 70
     1
102
RTVSPost2010Prop49
280
     0
102
RTVSPost2010PropOp49
 70
     1
102
RTVSPost2010Prop50
 90
       50
102
RTVSPost2010PropOp50
 70
     1
102
RTVSPost2010Prop51ColorIndex
 90
      256
102
RTVSPost2010Prop51ColorRGB
 90
-16777216
102
RTVSPost2010PropOp51
 70
     0
102
RTVSPost2010Prop52
140
1.0
102
RTVSPost2010PropOp52
 70
     0
102
RTVSPost2010Prop53
 90
        2
102
RTVSPost2010PropOp53
 70
     1
102
RTVSPost2010Prop54
  1
strokes_ogs.tif
102
RTVSPost2010PropOp54
 70
     1
102
RTVSPost2010Prop55
280
     0
102
RTVSPost2010PropOp55
 70
     1
102
RTVSPost2010Prop56
140
1.0
102
RTVSPost2010PropOp56
 70
     1
102
RTVSPost2010Prop57
140
1.0
102
RTVSPost2010PropOp57
 70
     1
102
RTVSPropertyOp0
 70
     1
102
RTVSPropertyOp1
 70
     1
102
RTVSPropertyOp2
 70
     1
102
RTVSPropertyOp3
 70
     1
102
RTVSPropertyOp4
 70
     1
102
RTVSPropertyOp5
 70
     1
102
RTVSPropertyOp6
 70
     1
102
RTVSPropertyOp7
 70
     1
102
RTVSPropertyOp8
 70
     1
102
RTVSPropertyOp9
 70
     1
102
RTVSPropertyOp10
 70
     1
102
RTVSPropertyOp11
 70
     1
102
RTVSPropertyOp12
 70
     1
102
RTVSPropertyOp13
 70
     1
102
RTVSPropertyOp14
 70
     1
102
RTVSPropertyOp15
 70
     1
102
RTVSPropertyOp16
 70
     1
102
RTVSPropertyOp17
 70
     1
102
RTVSPropertyOp18
 70
     1
102
RTVSPropertyOp19
 70
     1
102
RTVSPropertyOp20
 70
     1
102
RTVSPropertyOp21
 70
     1
102
RTVSPropertyOp22
 70
     1
102
RTVSPropertyOp23
 70
     1
102
RTVSPropertyOp24
 70
     1
102
RTVSPropertyOp25
 70
     1
102
RTVSPropertyOp26
 70
     1
102
RTVSPropertyOp27
 70
     1
102
RTVSPropertyOp28
 70
     1
102
RTVSPropertyOp29
 70
     1
102
RTVSPropertyOp30
 70
     1
102
RTVSPropertyOp31
 70
     1
102
RTVSPropertyOp32
 70
     1
102
RTVSPropertyOp33
 70
     1
102
RTVSPropertyOp34
 70
     1
102
RTVSPropertyOp35
 70
     1
102
RTVSPropertyOp36
 70
     1
102
RTVSPropertyOp37
 70
     1
102
RTVSPropertyOp38
 70
     1
102
RTVSPropertyOp39
 70
     1
102
RTVSPropertyOp40
 70
     1
102
RTVSPropertyOp41
 70
     1
102
RTVSPropertyOp42
 70
     1
102
RTVSPropertyOp43
 70
     1
102
RTVSPropertyOp44
 70
     1
102
RTVSPropertyOp45
 70
     1
102
RTVSPropertyOp46
 70
     1
102
RTVSPropertyOp47
 70
     1
102
RTVSPropertyOp48
 70
     1
102
RTVSPropertyOp49
 70
     1
102
RTVSPropertyOp50
 70
     1
102
RTVSPropertyOp51
 70
     0
102
RTVSPropertyOp52
 70
     0
102
RTVSPropertyOp53
 70
     1
102
RTVSPropertyOp54
 70
     1
102
RTVSPropertyOp55
 70
     1
102
RTVSPropertyOp56
 70
     1
102
RTVSPropertyOp57
 70
     1
102
RTVSPropertyOp58
 70
     1
102
RTVSPropertyOp59
 70
     1
102
RTVSPropertyOp60
 70
     1
102
RTVSPropertyOp61
 70
     1
102
RTVSPropertyOp62
 70
     1
  0
XRECORD
  5
4FC
102
{ACAD_REACTORS
330
4FB
102
}
330
4FB
100
AcDbXrecord
280
     1
102
RTVSPost2010Prop28
280
     0
102
RTVSPost2010PropOp28
 70
     1
102
RTVSPost2010Prop29
280
     1
102
RTVSPost2010PropOp29
 70
     1
102
RTVSPost2010Prop30
280
     1
102
RTVSPost2010PropOp30
 70
     1
102
RTVSPost2010Prop31
280
     0
102
RTVSPost2010PropOp31
 70
     1
102
RTVSPost2010Prop32
280
     0
102
RTVSPost2010PropOp32
 70
     1
102
RTVSPost2010Prop33
280
     0
102
RTVSPost2010PropOp33
 70
     1
102
RTVSPost2010Prop34
280
     0
102
RTVSPost2010PropOp34
 70
     1
102
RTVSPost2010Prop35
280
     0
102
RTVSPost2010PropOp35
 70
     1
102
RTVSPost2010Prop36
280
     0
102
RTVSPost2010PropOp36
 70
     1
102
RTVSPost2010Prop37
 90
       50
102
RTVSPost2010PropOp37
 70
     1
102
RTVSPost2010Prop38
140
0.0
102
RTVSPost2010PropOp38
 70
     1
102
RTVSPost2010Prop39
140
1.0
102
RTVSPost2010PropOp39
 70
     1
102
RTVSPost2010Prop40
 90
        0
102
RTVSPost2010PropOp40
 70
     1
102
RTVSPost2010Prop41ColorIndex
 90
       18
102
RTVSPost2010Prop41ColorRGB
 90
        0
102
RTVSPost2010PropOp41
 70
     1
102
RTVSPost2010Prop42
 90
       50
102
RTVSPost2010PropOp42
 70
     1
102
RTVSPost2010Prop43
 90
        3
102
RTVSPost2010PropOp43
 70
     1
102
RTVSPost2010Prop44ColorIndex
 90
        5
102
RTVSPost2010Prop44ColorRGB
 90
      255
102
RTVSPost2010PropOp44
 70
     1
102
RTVSPost2010Prop45
280
     0
102
RTVSPost2010PropOp45
 70
     1
102
RTVSPost2010Prop46
 90
       50
102
RTVSPost2010PropOp46
 70
     1
102
RTVSPost2010Prop47
 90
       50
102
RTVSPost2010PropOp47
 70
     1
102
RTVSPost2010Prop48
 90
       50
102
RTVSPost2010PropOp48
 70
     1
102
RTVSPost2010Prop49
280
     0
102
RTVSPost2010PropOp49
 70
     1
102
RTVSPost2010Prop50
 90
       50
102
RTVSPost2010PropOp50
 70
     1
102
RTVSPost2010Prop51ColorIndex
 90
      256
102
RTVSPost2010Prop51ColorRGB
 90
-16777216
102
RTVSPost2010PropOp51
 70
     0
102
RTVSPost2010Prop52
140
1.0
102
RTVSPost2010PropOp52
 70
     0
102
RTVSPost2010Prop53
 90
        2
102
RTVSPost2010PropOp53
 70
     1
102
RTVSPost2010Prop54
  1
strokes_ogs.tif
102
RTVSPost2010PropOp54
 70
     1
102
RTVSPost2010Prop55
280
     0
102
RTVSPost2010PropOp55
 70
     1
102
RTVSPost2010Prop56
140
1.0
102
RTVSPost2010PropOp56
 70
     1
102
RTVSPost2010Prop57
140
1.0
102
RTVSPost2010PropOp57
 70
     1
102
RTVSPropertyOp0
 70
     1
102
RTVSPropertyOp1
 70
     1
102
RTVSPropertyOp2
 70
     1
102
RTVSPropertyOp3
 70
     1
102
RTVSPropertyOp4
 70
     1
102
RTVSPropertyOp5
 70
     1
102
RTVSPropertyOp6
 70
     1
102
RTVSPropertyOp7
 70
     1
102
RTVSPropertyOp8
 70
     1
102
RTVSPropertyOp9
 70
     1
102
RTVSPropertyOp10
 70
     1
102
RTVSPropertyOp11
 70
     1
102
RTVSPropertyOp12
 70
     1
102
RTVSPropertyOp13
 70
     1
102
RTVSPropertyOp14
 70
     1
102
RTVSPropertyOp15
 70
     1
102
RTVSPropertyOp16
 70
     1
102
RTVSPropertyOp17
 70
     1
102
RTVSPropertyOp18
 70
     1
102
RTVSPropertyOp19
 70
     1
102
RTVSPropertyOp20
 70
     1
102
RTVSPropertyOp21
 70
     1
102
RTVSPropertyOp22
 70
     1
102
RTVSPropertyOp23
 70
     1
102
RTVSPropertyOp24
 70
     1
102
RTVSPropertyOp25
 70
     1
102
RTVSPropertyOp26
 70
     1
102
RTVSPropertyOp27
 70
     1
102
RTVSPropertyOp28
 70
     1
102
RTVSPropertyOp29
 70
     1
102
RTVSPropertyOp30
 70
     1
102
RTVSPropertyOp31
 70
     1
102
RTVSPropertyOp32
 70
     1
102
RTVSPropertyOp33
 70
     1
102
RTVSPropertyOp34
 70
     1
102
RTVSPropertyOp35
 70
     1
102
RTVSPropertyOp36
 70
     1
102
RTVSPropertyOp37
 70
     1
102
RTVSPropertyOp38
 70
     1
102
RTVSPropertyOp39
 70
     1
102
RTVSPropertyOp40
 70
     1
102
RTVSPropertyOp41
 70
     1
102
RTVSPropertyOp42
 70
     1
102
RTVSPropertyOp43
 70
     1
102
RTVSPropertyOp44
 70
     1
102
RTVSPropertyOp45
 70
     1
102
RTVSPropertyOp46
 70
     1
102
RTVSPropertyOp47
 70
     1
102
RTVSPropertyOp48
 70
     1
102
RTVSPropertyOp49
 70
     1
102
RTVSPropertyOp50
 70
     1
102
RTVSPropertyOp51
 70
     0
102
RTVSPropertyOp52
 70
     0
102
RTVSPropertyOp53
 70
     1
102
RTVSPropertyOp54
 70
     1
102
RTVSPropertyOp55
 70
     1
102
RTVSPropertyOp56
 70
     1
102
RTVSPropertyOp57
 70
     1
102
RTVSPropertyOp58
 70
     1
102
RTVSPropertyOp59
 70
     1
102
RTVSPropertyOp60
 70
     1
102
RTVSPropertyOp61
 70
     1
102
RTVSPropertyOp62
 70
     1
  0
XRECORD
  5
504
102
{ACAD_REACTORS
330
503
102
}
330
503
100
AcDbXrecord
280
     1
102
RTVSPost2010Prop28
280
     0
102
RTVSPost2010PropOp28
 70
     1
102
RTVSPost2010Prop29
280
     1
102
RTVSPost2010PropOp29
 70
     1
102
RTVSPost2010Prop30
280
     1
102
RTVSPost2010PropOp30
 70
     1
102
RTVSPost2010Prop31
280
     0
102
RTVSPost2010PropOp31
 70
     1
102
RTVSPost2010Prop32
280
     0
102
RTVSPost2010PropOp32
 70
     1
102
RTVSPost2010Prop33
280
     0
102
RTVSPost2010PropOp33
 70
     1
102
RTVSPost2010Prop34
280
     0
102
RTVSPost2010PropOp34
 70
     1
102
RTVSPost2010Prop35
280
     0
102
RTVSPost2010PropOp35
 70
     1
102
RTVSPost2010Prop36
280
     0
102
RTVSPost2010PropOp36
 70
     1
102
RTVSPost2010Prop37
 90
       50
102
RTVSPost2010PropOp37
 70
     1
102
RTVSPost2010Prop38
140
0.0
102
RTVSPost2010PropOp38
 70
     1
102
RTVSPost2010Prop39
140
1.0
102
RTVSPost2010PropOp39
 70
     1
102
RTVSPost2010Prop40
 90
        0
102
RTVSPost2010PropOp40
 70
     1
102
RTVSPost2010Prop41ColorIndex
 90
       18
102
RTVSPost2010Prop41ColorRGB
 90
        0
102
RTVSPost2010PropOp41
 70
     1
102
RTVSPost2010Prop42
 90
       50
102
RTVSPost2010PropOp42
 70
     1
102
RTVSPost2010Prop43
 90
        3
102
RTVSPost2010PropOp43
 70
     1
102
RTVSPost2010Prop44ColorIndex
 90
        5
102
RTVSPost2010Prop44ColorRGB
 90
      255
102
RTVSPost2010PropOp44
 70
     1
102
RTVSPost2010Prop45
280
     0
102
RTVSPost2010PropOp45
 70
     1
102
RTVSPost2010Prop46
 90
       50
102
RTVSPost2010PropOp46
 70
     1
102
RTVSPost2010Prop47
 90
       50
102
RTVSPost2010PropOp47
 70
     1
102
RTVSPost2010Prop48
 90
       50
102
RTVSPost2010PropOp48
 70
     1
102
RTVSPost2010Prop49
280
     0
102
RTVSPost2010PropOp49
 70
     1
102
RTVSPost2010Prop50
 90
       50
102
RTVSPost2010PropOp50
 70
     1
102
RTVSPost2010Prop51ColorIndex
 90
      256
102
RTVSPost2010Prop51ColorRGB
 90
-16777216
102
RTVSPost2010PropOp51
 70
     0
102
RTVSPost2010Prop52
140
1.0
102
RTVSPost2010PropOp52
 70
     0
102
RTVSPost2010Prop53
 90
        2
102
RTVSPost2010PropOp53
 70
     1
102
RTVSPost2010Prop54
  1
strokes_ogs.tif
102
RTVSPost2010PropOp54
 70
     1
102
RTVSPost2010Prop55
280
     0
102
RTVSPost2010PropOp55
 70
     1
102
RTVSPost2010Prop56
140
1.0
102
RTVSPost2010PropOp56
 70
     1
102
RTVSPost2010Prop57
140
1.0
102
RTVSPost2010PropOp57
 70
     1
102
RTVSPropertyOp0
 70
     1
102
RTVSPropertyOp1
 70
     1
102
RTVSPropertyOp2
 70
     1
102
RTVSPropertyOp3
 70
     1
102
RTVSPropertyOp4
 70
     1
102
RTVSPropertyOp5
 70
     1
102
RTVSPropertyOp6
 70
     1
102
RTVSPropertyOp7
 70
     1
102
RTVSPropertyOp8
 70
     1
102
RTVSPropertyOp9
 70
     1
102
RTVSPropertyOp10
 70
     1
102
RTVSPropertyOp11
 70
     1
102
RTVSPropertyOp12
 70
     1
102
RTVSPropertyOp13
 70
     1
102
RTVSPropertyOp14
 70
     1
102
RTVSPropertyOp15
 70
     1
102
RTVSPropertyOp16
 70
     1
102
RTVSPropertyOp17
 70
     1
102
RTVSPropertyOp18
 70
     1
102
RTVSPropertyOp19
 70
     1
102
RTVSPropertyOp20
 70
     1
102
RTVSPropertyOp21
 70
     1
102
RTVSPropertyOp22
 70
     1
102
RTVSPropertyOp23
 70
     1
102
RTVSPropertyOp24
 70
     1
102
RTVSPropertyOp25
 70
     1
102
RTVSPropertyOp26
 70
     1
102
RTVSPropertyOp27
 70
     1
102
RTVSPropertyOp28
 70
     1
102
RTVSPropertyOp29
 70
     1
102
RTVSPropertyOp30
 70
     1
102
RTVSPropertyOp31
 70
     1
102
RTVSPropertyOp32
 70
     1
102
RTVSPropertyOp33
 70
     1
102
RTVSPropertyOp34
 70
     1
102
RTVSPropertyOp35
 70
     1
102
RTVSPropertyOp36
 70
     1
102
RTVSPropertyOp37
 70
     1
102
RTVSPropertyOp38
 70
     1
102
RTVSPropertyOp39
 70
     1
102
RTVSPropertyOp40
 70
     1
102
RTVSPropertyOp41
 70
     1
102
RTVSPropertyOp42
 70
     1
102
RTVSPropertyOp43
 70
     1
102
RTVSPropertyOp44
 70
     1
102
RTVSPropertyOp45
 70
     1
102
RTVSPropertyOp46
 70
     1
102
RTVSPropertyOp47
 70
     1
102
RTVSPropertyOp48
 70
     1
102
RTVSPropertyOp49
 70
     1
102
RTVSPropertyOp50
 70
     1
102
RTVSPropertyOp51
 70
     0
102
RTVSPropertyOp52
 70
     0
102
RTVSPropertyOp53
 70
     1
102
RTVSPropertyOp54
 70
     1
102
RTVSPropertyOp55
 70
     1
102
RTVSPropertyOp56
 70
     1
102
RTVSPropertyOp57
 70
     1
102
RTVSPropertyOp58
 70
     1
102
RTVSPropertyOp59
 70
     1
102
RTVSPropertyOp60
 70
     1
102
RTVSPropertyOp61
 70
     1
102
RTVSPropertyOp62
 70
     1
  0
XRECORD
  5
520
102
{ACAD_REACTORS
330
51F
102
}
330
51F
100
AcDbXrecord
280
     1
102
RTVSPost2010Prop28
280
     0
102
RTVSPost2010PropOp28
 70
     1
102
RTVSPost2010Prop29
280
     1
102
RTVSPost2010PropOp29
 70
     1
102
RTVSPost2010Prop30
280
     1
102
RTVSPost2010PropOp30
 70
     1
102
RTVSPost2010Prop31
280
     0
102
RTVSPost2010PropOp31
 70
     1
102
RTVSPost2010Prop32
280
     0
102
RTVSPost2010PropOp32
 70
     1
102
RTVSPost2010Prop33
280
     0
102
RTVSPost2010PropOp33
 70
     1
102
RTVSPost2010Prop34
280
     0
102
RTVSPost2010PropOp34
 70
     1
102
RTVSPost2010Prop35
280
     0
102
RTVSPost2010PropOp35
 70
     1
102
RTVSPost2010Prop36
280
     0
102
RTVSPost2010PropOp36
 70
     1
102
RTVSPost2010Prop37
 90
       50
102
RTVSPost2010PropOp37
 70
     0
102
RTVSPost2010Prop38
140
0.0
102
RTVSPost2010PropOp38
 70
     0
102
RTVSPost2010Prop39
140
1.0
102
RTVSPost2010PropOp39
 70
     0
102
RTVSPost2010Prop40
 90
        0
102
RTVSPost2010PropOp40
 70
     0
102
RTVSPost2010Prop41ColorIndex
 90
       18
102
RTVSPost2010Prop41ColorRGB
 90
        0
102
RTVSPost2010PropOp41
 70
     0
102
RTVSPost2010Prop42
 90
       50
102
RTVSPost2010PropOp42
 70
     0
102
RTVSPost2010Prop43
 90
        3
102
RTVSPost2010PropOp43
 70
     0
102
RTVSPost2010Prop44ColorIndex
 90
        5
102
RTVSPost2010Prop44ColorRGB
 90
      255
102
RTVSPost2010PropOp44
 70
     0
102
RTVSPost2010Prop45
280
     0
102
RTVSPost2010PropOp45
 70
     1
102
RTVSPost2010Prop46
 90
       50
102
RTVSPost2010PropOp46
 70
     0
102
RTVSPost2010Prop47
 90
       50
102
RTVSPost2010PropOp47
 70
     0
102
RTVSPost2010Prop48
 90
       50
102
RTVSPost2010PropOp48
 70
     0
102
RTVSPost2010Prop49
280
     0
102
RTVSPost2010PropOp49
 70
     1
102
RTVSPost2010Prop50
 90
       50
102
RTVSPost2010PropOp50
 70
     0
102
RTVSPost2010Prop51ColorIndex
 90
      256
102
RTVSPost2010Prop51ColorRGB
 90
-16777216
102
RTVSPost2010PropOp51
 70
     0
102
RTVSPost2010Prop52
140
1.0
102
RTVSPost2010PropOp52
 70
     0
102
RTVSPost2010Prop53
 90
        2
102
RTVSPost2010PropOp53
 70
     0
102
RTVSPost2010Prop54
  1
strokes_ogs.tif
102
RTVSPost2010PropOp54
 70
     0
102
RTVSPost2010Prop55
280
     0
102
RTVSPost2010PropOp55
 70
     1
102
RTVSPost2010Prop56
140
1.0
102
RTVSPost2010PropOp56
 70
     0
102
RTVSPost2010Prop57
140
1.0
102
RTVSPost2010PropOp57
 70
     0
102
RTVSPropertyOp0
 70
     0
102
RTVSPropertyOp1
 70
     0
102
RTVSPropertyOp2
 70
     0
102
RTVSPropertyOp3
 70
     0
102
RTVSPropertyOp4
 70
     0
102
RTVSPropertyOp5
 70
     0
102
RTVSPropertyOp6
 70
     0
102
RTVSPropertyOp7
 70
     0
102
RTVSPropertyOp8
 70
     0
102
RTVSPropertyOp9
 70
     0
102
RTVSPropertyOp10
 70
     0
102
RTVSPropertyOp11
 70
     0
102
RTVSPropertyOp12
 70
     0
102
RTVSPropertyOp13
 70
     0
102
RTVSPropertyOp14
 70
     2
102
RTVSPropertyOp15
 70
     0
102
RTVSPropertyOp16
 70
     0
102
RTVSPropertyOp17
 70
     0
102
RTVSPropertyOp18
 70
     0
102
RTVSPropertyOp19
 70
     0
102
RTVSPropertyOp20
 70
     0
102
RTVSPropertyOp21
 70
     0
102
RTVSPropertyOp22
 70
     0
102
RTVSPropertyOp23
 70
     0
102
RTVSPropertyOp24
 70
     0
102
RTVSPropertyOp25
 70
     0
102
RTVSPropertyOp26
 70
     0
102
RTVSPropertyOp27
 70
     0
102
RTVSPropertyOp28
 70
     1
102
RTVSPropertyOp29
 70
     1
102
RTVSPropertyOp30
 70
     1
102
RTVSPropertyOp31
 70
     1
102
RTVSPropertyOp32
 70
     1
102
RTVSPropertyOp33
 70
     1
102
RTVSPropertyOp34
 70
     1
102
RTVSPropertyOp35
 70
     1
102
RTVSPropertyOp36
 70
     1
102
RTVSPropertyOp37
 70
     0
102
RTVSPropertyOp38
 70
     0
102
RTVSPropertyOp39
 70
     0
102
RTVSPropertyOp40
 70
     0
102
RTVSPropertyOp41
 70
     0
102
RTVSPropertyOp42
 70
     0
102
RTVSPropertyOp43
 70
     0
102
RTVSPropertyOp44
 70
     0
102
RTVSPropertyOp45
 70
     1
102
RTVSPropertyOp46
 70
     0
102
RTVSPropertyOp47
 70
     0
102
RTVSPropertyOp48
 70
     0
102
RTVSPropertyOp49
 70
     1
102
RTVSPropertyOp50
 70
     0
102
RTVSPropertyOp51
 70
     0
102
RTVSPropertyOp52
 70
     0
102
RTVSPropertyOp53
 70
     0
102
RTVSPropertyOp54
 70
     0
102
RTVSPropertyOp55
 70
     1
102
RTVSPropertyOp56
 70
     0
102
RTVSPropertyOp57
 70
     0
102
RTVSPropertyOp58
 70
     0
102
RTVSPropertyOp59
 70
     0
102
RTVSPropertyOp60
 70
     0
102
RTVSPropertyOp61
 70
     0
102
RTVSPropertyOp62
 70
     0
  0
XRECORD
  5
510
102
{ACAD_REACTORS
330
50F
102
}
330
50F
100
AcDbXrecord
280
     1
102
RTVSPost2010Prop28
280
     0
102
RTVSPost2010PropOp28
 70
     1
102
RTVSPost2010Prop29
280
     1
102
RTVSPost2010PropOp29
 70
     1
102
RTVSPost2010Prop30
280
     1
102
RTVSPost2010PropOp30
 70
     1
102
RTVSPost2010Prop31
280
     0
102
RTVSPost2010PropOp31
 70
     1
102
RTVSPost2010Prop32
280
     0
102
RTVSPost2010PropOp32
 70
     1
102
RTVSPost2010Prop33
280
     0
102
RTVSPost2010PropOp33
 70
     1
102
RTVSPost2010Prop34
280
     0
102
RTVSPost2010PropOp34
 70
     1
102
RTVSPost2010Prop35
280
     0
102
RTVSPost2010PropOp35
 70
     1
102
RTVSPost2010Prop36
280
     0
102
RTVSPost2010PropOp36
 70
     1
102
RTVSPost2010Prop37
 90
       50
102
RTVSPost2010PropOp37
 70
     1
102
RTVSPost2010Prop38
140
0.0
102
RTVSPost2010PropOp38
 70
     1
102
RTVSPost2010Prop39
140
1.0
102
RTVSPost2010PropOp39
 70
     1
102
RTVSPost2010Prop40
 90
        0
102
RTVSPost2010PropOp40
 70
     1
102
RTVSPost2010Prop41ColorIndex
 90
       18
102
RTVSPost2010Prop41ColorRGB
 90
        0
102
RTVSPost2010PropOp41
 70
     1
102
RTVSPost2010Prop42
 90
       50
102
RTVSPost2010PropOp42
 70
     1
102
RTVSPost2010Prop43
 90
        3
102
RTVSPost2010PropOp43
 70
     1
102
RTVSPost2010Prop44ColorIndex
 90
        5
102
RTVSPost2010Prop44ColorRGB
 90
      255
102
RTVSPost2010PropOp44
 70
     1
102
RTVSPost2010Prop45
280
     0
102
RTVSPost2010PropOp45
 70
     1
102
RTVSPost2010Prop46
 90
       50
102
RTVSPost2010PropOp46
 70
     1
102
RTVSPost2010Prop47
 90
       50
102
RTVSPost2010PropOp47
 70
     1
102
RTVSPost2010Prop48
 90
       50
102
RTVSPost2010PropOp48
 70
     1
102
RTVSPost2010Prop49
280
     0
102
RTVSPost2010PropOp49
 70
     1
102
RTVSPost2010Prop50
 90
       50
102
RTVSPost2010PropOp50
 70
     1
102
RTVSPost2010Prop51ColorIndex
 90
      256
102
RTVSPost2010Prop51ColorRGB
 90
-16777216
102
RTVSPost2010PropOp51
 70
     0
102
RTVSPost2010Prop52
140
1.0
102
RTVSPost2010PropOp52
 70
     0
102
RTVSPost2010Prop53
 90
        2
102
RTVSPost2010PropOp53
 70
     1
102
RTVSPost2010Prop54
  1
strokes_ogs.tif
102
RTVSPost2010PropOp54
 70
     1
102
RTVSPost2010Prop55
280
     0
102
RTVSPost2010PropOp55
 70
     1
102
RTVSPost2010Prop56
140
1.0
102
RTVSPost2010PropOp56
 70
     1
102
RTVSPost2010Prop57
140
1.0
102
RTVSPost2010PropOp57
 70
     1
102
RTVSPropertyOp0
 70
     1
102
RTVSPropertyOp1
 70
     1
102
RTVSPropertyOp2
 70
     1
102
RTVSPropertyOp3
 70
     1
102
RTVSPropertyOp4
 70
     1
102
RTVSPropertyOp5
 70
     1
102
RTVSPropertyOp6
 70
     1
102
RTVSPropertyOp7
 70
     1
102
RTVSPropertyOp8
 70
     1
102
RTVSPropertyOp9
 70
     1
102
RTVSPropertyOp10
 70
     1
102
RTVSPropertyOp11
 70
     1
102
RTVSPropertyOp12
 70
     1
102
RTVSPropertyOp13
 70
     1
102
RTVSPropertyOp14
 70
     1
102
RTVSPropertyOp15
 70
     1
102
RTVSPropertyOp16
 70
     1
102
RTVSPropertyOp17
 70
     1
102
RTVSPropertyOp18
 70
     1
102
RTVSPropertyOp19
 70
     1
102
RTVSPropertyOp20
 70
     1
102
RTVSPropertyOp21
 70
     1
102
RTVSPropertyOp22
 70
     1
102
RTVSPropertyOp23
 70
     1
102
RTVSPropertyOp24
 70
     1
102
RTVSPropertyOp25
 70
     1
102
RTVSPropertyOp26
 70
     1
102
RTVSPropertyOp27
 70
     1
102
RTVSPropertyOp28
 70
     1
102
RTVSPropertyOp29
 70
     1
102
RTVSPropertyOp30
 70
     1
102
RTVSPropertyOp31
 70
     1
102
RTVSPropertyOp32
 70
     1
102
RTVSPropertyOp33
 70
     1
102
RTVSPropertyOp34
 70
     1
102
RTVSPropertyOp35
 70
     1
102
RTVSPropertyOp36
 70
     1
102
RTVSPropertyOp37
 70
     1
102
RTVSPropertyOp38
 70
     1
102
RTVSPropertyOp39
 70
     1
102
RTVSPropertyOp40
 70
     1
102
RTVSPropertyOp41
 70
     1
102
RTVSPropertyOp42
 70
     1
102
RTVSPropertyOp43
 70
     1
102
RTVSPropertyOp44
 70
     1
102
RTVSPropertyOp45
 70
     1
102
RTVSPropertyOp46
 70
     1
102
RTVSPropertyOp47
 70
     1
102
RTVSPropertyOp48
 70
     1
102
RTVSPropertyOp49
 70
     1
102
RTVSPropertyOp50
 70
     1
102
RTVSPropertyOp51
 70
     0
102
RTVSPropertyOp52
 70
     0
102
RTVSPropertyOp53
 70
     1
102
RTVSPropertyOp54
 70
     1
102
RTVSPropertyOp55
 70
     1
102
RTVSPropertyOp56
 70
     1
102
RTVSPropertyOp57
 70
     1
102
RTVSPropertyOp58
 70
     1
102
RTVSPropertyOp59
 70
     1
102
RTVSPropertyOp60
 70
     1
102
RTVSPropertyOp61
 70
     1
102
RTVSPropertyOp62
 70
     1
  0
XRECORD
  5
522
102
{ACAD_REACTORS
330
521
102
}
330
521
100
AcDbXrecord
280
     1
102
RTVSPost2010Prop28
280
     0
102
RTVSPost2010PropOp28
 70
     1
102
RTVSPost2010Prop29
280
     1
102
RTVSPost2010PropOp29
 70
     1
102
RTVSPost2010Prop30
280
     1
102
RTVSPost2010PropOp30
 70
     1
102
RTVSPost2010Prop31
280
     0
102
RTVSPost2010PropOp31
 70
     1
102
RTVSPost2010Prop32
280
     0
102
RTVSPost2010PropOp32
 70
     1
102
RTVSPost2010Prop33
280
     0
102
RTVSPost2010PropOp33
 70
     1
102
RTVSPost2010Prop34
280
     0
102
RTVSPost2010PropOp34
 70
     1
102
RTVSPost2010Prop35
280
     0
102
RTVSPost2010PropOp35
 70
     1
102
RTVSPost2010Prop36
280
     0
102
RTVSPost2010PropOp36
 70
     1
102
RTVSPost2010Prop37
 90
       50
102
RTVSPost2010PropOp37
 70
     0
102
RTVSPost2010Prop38
140
0.0
102
RTVSPost2010PropOp38
 70
     0
102
RTVSPost2010Prop39
140
1.0
102
RTVSPost2010PropOp39
 70
     0
102
RTVSPost2010Prop40
 90
        0
102
RTVSPost2010PropOp40
 70
     0
102
RTVSPost2010Prop41ColorIndex
 90
       18
102
RTVSPost2010Prop41ColorRGB
 90
        0
102
RTVSPost2010PropOp41
 70
     0
102
RTVSPost2010Prop42
 90
       50
102
RTVSPost2010PropOp42
 70
     0
102
RTVSPost2010Prop43
 90
        3
102
RTVSPost2010PropOp43
 70
     0
102
RTVSPost2010Prop44ColorIndex
 90
        5
102
RTVSPost2010Prop44ColorRGB
 90
      255
102
RTVSPost2010PropOp44
 70
     0
102
RTVSPost2010Prop45
280
     0
102
RTVSPost2010PropOp45
 70
     1
102
RTVSPost2010Prop46
 90
       50
102
RTVSPost2010PropOp46
 70
     0
102
RTVSPost2010Prop47
 90
       50
102
RTVSPost2010PropOp47
 70
     0
102
RTVSPost2010Prop48
 90
       50
102
RTVSPost2010PropOp48
 70
     0
102
RTVSPost2010Prop49
280
     0
102
RTVSPost2010PropOp49
 70
     1
102
RTVSPost2010Prop50
 90
       50
102
RTVSPost2010PropOp50
 70
     0
102
RTVSPost2010Prop51ColorIndex
 90
      256
102
RTVSPost2010Prop51ColorRGB
 90
-16777216
102
RTVSPost2010PropOp51
 70
     0
102
RTVSPost2010Prop52
140
1.0
102
RTVSPost2010PropOp52
 70
     0
102
RTVSPost2010Prop53
 90
        2
102
RTVSPost2010PropOp53
 70
     0
102
RTVSPost2010Prop54
  1
strokes_ogs.tif
102
RTVSPost2010PropOp54
 70
     0
102
RTVSPost2010Prop55
280
     0
102
RTVSPost2010PropOp55
 70
     1
102
RTVSPost2010Prop56
140
1.0
102
RTVSPost2010PropOp56
 70
     0
102
RTVSPost2010Prop57
140
1.0
102
RTVSPost2010PropOp57
 70
     0
102
RTVSPropertyOp0
 70
     0
102
RTVSPropertyOp1
 70
     0
102
RTVSPropertyOp2
 70
     0
102
RTVSPropertyOp3
 70
     0
102
RTVSPropertyOp4
 70
     0
102
RTVSPropertyOp5
 70
     0
102
RTVSPropertyOp6
 70
     0
102
RTVSPropertyOp7
 70
     0
102
RTVSPropertyOp8
 70
     0
102
RTVSPropertyOp9
 70
     0
102
RTVSPropertyOp10
 70
     0
102
RTVSPropertyOp11
 70
     0
102
RTVSPropertyOp12
 70
     0
102
RTVSPropertyOp13
 70
     0
102
RTVSPropertyOp14
 70
     2
102
RTVSPropertyOp15
 70
     0
102
RTVSPropertyOp16
 70
     0
102
RTVSPropertyOp17
 70
     0
102
RTVSPropertyOp18
 70
     0
102
RTVSPropertyOp19
 70
     0
102
RTVSPropertyOp20
 70
     0
102
RTVSPropertyOp21
 70
     0
102
RTVSPropertyOp22
 70
     0
102
RTVSPropertyOp23
 70
     0
102
RTVSPropertyOp24
 70
     0
102
RTVSPropertyOp25
 70
     0
102
RTVSPropertyOp26
 70
     0
102
RTVSPropertyOp27
 70
     0
102
RTVSPropertyOp28
 70
     1
102
RTVSPropertyOp29
 70
     1
102
RTVSPropertyOp30
 70
     1
102
RTVSPropertyOp31
 70
     1
102
RTVSPropertyOp32
 70
     1
102
RTVSPropertyOp33
 70
     1
102
RTVSPropertyOp34
 70
     1
102
RTVSPropertyOp35
 70
     1
102
RTVSPropertyOp36
 70
     1
102
RTVSPropertyOp37
 70
     0
102
RTVSPropertyOp38
 70
     0
102
RTVSPropertyOp39
 70
     0
102
RTVSPropertyOp40
 70
     0
102
RTVSPropertyOp41
 70
     0
102
RTVSPropertyOp42
 70
     0
102
RTVSPropertyOp43
 70
     0
102
RTVSPropertyOp44
 70
     0
102
RTVSPropertyOp45
 70
     1
102
RTVSPropertyOp46
 70
     0
102
RTVSPropertyOp47
 70
     0
102
RTVSPropertyOp48
 70
     0
102
RTVSPropertyOp49
 70
     1
102
RTVSPropertyOp50
 70
     0
102
RTVSPropertyOp51
 70
     0
102
RTVSPropertyOp52
 70
     0
102
RTVSPropertyOp53
 70
     0
102
RTVSPropertyOp54
 70
     0
102
RTVSPropertyOp55
 70
     1
102
RTVSPropertyOp56
 70
     0
102
RTVSPropertyOp57
 70
     0
102
RTVSPropertyOp58
 70
     0
102
RTVSPropertyOp59
 70
     0
102
RTVSPropertyOp60
 70
     0
102
RTVSPropertyOp61
 70
     0
102
RTVSPropertyOp62
 70
     0
  0
XRECORD
  5
508
102
{ACAD_REACTORS
330
507
102
}
330
507
100
AcDbXrecord
280
     1
102
RTVSPost2010Prop28
280
     0
102
RTVSPost2010PropOp28
 70
     1
102
RTVSPost2010Prop29
280
     1
102
RTVSPost2010PropOp29
 70
     1
102
RTVSPost2010Prop30
280
     1
102
RTVSPost2010PropOp30
 70
     1
102
RTVSPost2010Prop31
280
     0
102
RTVSPost2010PropOp31
 70
     1
102
RTVSPost2010Prop32
280
     0
102
RTVSPost2010PropOp32
 70
     1
102
RTVSPost2010Prop33
280
     0
102
RTVSPost2010PropOp33
 70
     1
102
RTVSPost2010Prop34
280
     0
102
RTVSPost2010PropOp34
 70
     1
102
RTVSPost2010Prop35
280
     0
102
RTVSPost2010PropOp35
 70
     1
102
RTVSPost2010Prop36
280
     0
102
RTVSPost2010PropOp36
 70
     1
102
RTVSPost2010Prop37
 90
       50
102
RTVSPost2010PropOp37
 70
     1
102
RTVSPost2010Prop38
140
0.0
102
RTVSPost2010PropOp38
 70
     1
102
RTVSPost2010Prop39
140
1.0
102
RTVSPost2010PropOp39
 70
     1
102
RTVSPost2010Prop40
 90
        0
102
RTVSPost2010PropOp40
 70
     1
102
RTVSPost2010Prop41ColorIndex
 90
       18
102
RTVSPost2010Prop41ColorRGB
 90
        0
102
RTVSPost2010PropOp41
 70
     1
102
RTVSPost2010Prop42
 90
       50
102
RTVSPost2010PropOp42
 70
     1
102
RTVSPost2010Prop43
 90
        3
102
RTVSPost2010PropOp43
 70
     1
102
RTVSPost2010Prop44ColorIndex
 90
        5
102
RTVSPost2010Prop44ColorRGB
 90
      255
102
RTVSPost2010PropOp44
 70
     1
102
RTVSPost2010Prop45
280
     0
102
RTVSPost2010PropOp45
 70
     1
102
RTVSPost2010Prop46
 90
       50
102
RTVSPost2010PropOp46
 70
     1
102
RTVSPost2010Prop47
 90
       50
102
RTVSPost2010PropOp47
 70
     1
102
RTVSPost2010Prop48
 90
       50
102
RTVSPost2010PropOp48
 70
     1
102
RTVSPost2010Prop49
280
     0
102
RTVSPost2010PropOp49
 70
     1
102
RTVSPost2010Prop50
 90
       50
102
RTVSPost2010PropOp50
 70
     1
102
RTVSPost2010Prop51ColorIndex
 90
      256
102
RTVSPost2010Prop51ColorRGB
 90
-16777216
102
RTVSPost2010PropOp51
 70
     0
102
RTVSPost2010Prop52
140
1.0
102
RTVSPost2010PropOp52
 70
     0
102
RTVSPost2010Prop53
 90
        2
102
RTVSPost2010PropOp53
 70
     1
102
RTVSPost2010Prop54
  1
strokes_ogs.tif
102
RTVSPost2010PropOp54
 70
     1
102
RTVSPost2010Prop55
280
     0
102
RTVSPost2010PropOp55
 70
     1
102
RTVSPost2010Prop56
140
1.0
102
RTVSPost2010PropOp56
 70
     1
102
RTVSPost2010Prop57
140
1.0
102
RTVSPost2010PropOp57
 70
     1
102
RTVSPropertyOp0
 70
     1
102
RTVSPropertyOp1
 70
     1
102
RTVSPropertyOp2
 70
     1
102
RTVSPropertyOp3
 70
     1
102
RTVSPropertyOp4
 70
     1
102
RTVSPropertyOp5
 70
     1
102
RTVSPropertyOp6
 70
     1
102
RTVSPropertyOp7
 70
     1
102
RTVSPropertyOp8
 70
     1
102
RTVSPropertyOp9
 70
     1
102
RTVSPropertyOp10
 70
     1
102
RTVSPropertyOp11
 70
     1
102
RTVSPropertyOp12
 70
     1
102
RTVSPropertyOp13
 70
     1
102
RTVSPropertyOp14
 70
     1
102
RTVSPropertyOp15
 70
     1
102
RTVSPropertyOp16
 70
     1
102
RTVSPropertyOp17
 70
     1
102
RTVSPropertyOp18
 70
     1
102
RTVSPropertyOp19
 70
     1
102
RTVSPropertyOp20
 70
     1
102
RTVSPropertyOp21
 70
     1
102
RTVSPropertyOp22
 70
     1
102
RTVSPropertyOp23
 70
     1
102
RTVSPropertyOp24
 70
     1
102
RTVSPropertyOp25
 70
     1
102
RTVSPropertyOp26
 70
     1
102
RTVSPropertyOp27
 70
     1
102
RTVSPropertyOp28
 70
     1
102
RTVSPropertyOp29
 70
     1
102
RTVSPropertyOp30
 70
     1
102
RTVSPropertyOp31
 70
     1
102
RTVSPropertyOp32
 70
     1
102
RTVSPropertyOp33
 70
     1
102
RTVSPropertyOp34
 70
     1
102
RTVSPropertyOp35
 70
     1
102
RTVSPropertyOp36
 70
     1
102
RTVSPropertyOp37
 70
     1
102
RTVSPropertyOp38
 70
     1
102
RTVSPropertyOp39
 70
     1
102
RTVSPropertyOp40
 70
     1
102
RTVSPropertyOp41
 70
     1
102
RTVSPropertyOp42
 70
     1
102
RTVSPropertyOp43
 70
     1
102
RTVSPropertyOp44
 70
     1
102
RTVSPropertyOp45
 70
     1
102
RTVSPropertyOp46
 70
     1
102
RTVSPropertyOp47
 70
     1
102
RTVSPropertyOp48
 70
     1
102
RTVSPropertyOp49
 70
     1
102
RTVSPropertyOp50
 70
     1
102
RTVSPropertyOp51
 70
     0
102
RTVSPropertyOp52
 70
     0
102
RTVSPropertyOp53
 70
     1
102
RTVSPropertyOp54
 70
     1
102
RTVSPropertyOp55
 70
     1
102
RTVSPropertyOp56
 70
     1
102
RTVSPropertyOp57
 70
     1
102
RTVSPropertyOp58
 70
     1
102
RTVSPropertyOp59
 70
     1
102
RTVSPropertyOp60
 70
     1
102
RTVSPropertyOp61
 70
     1
102
RTVSPropertyOp62
 70
     1
  0
XRECORD
  5
51E
102
{ACAD_REACTORS
330
51D
102
}
330
51D
100
AcDbXrecord
280
     1
102
RTVSPost2010Prop28
280
     0
102
RTVSPost2010PropOp28
 70
     1
102
RTVSPost2010Prop29
280
     1
102
RTVSPost2010PropOp29
 70
     1
102
RTVSPost2010Prop30
280
     1
102
RTVSPost2010PropOp30
 70
     1
102
RTVSPost2010Prop31
280
     0
102
RTVSPost2010PropOp31
 70
     1
102
RTVSPost2010Prop32
280
     0
102
RTVSPost2010PropOp32
 70
     1
102
RTVSPost2010Prop33
280
     0
102
RTVSPost2010PropOp33
 70
     1
102
RTVSPost2010Prop34
280
     0
102
RTVSPost2010PropOp34
 70
     1
102
RTVSPost2010Prop35
280
     0
102
RTVSPost2010PropOp35
 70
     1
102
RTVSPost2010Prop36
280
     0
102
RTVSPost2010PropOp36
 70
     1
102
RTVSPost2010Prop37
 90
       50
102
RTVSPost2010PropOp37
 70
     1
102
RTVSPost2010Prop38
140
0.0
102
RTVSPost2010PropOp38
 70
     1
102
RTVSPost2010Prop39
140
1.0
102
RTVSPost2010PropOp39
 70
     1
102
RTVSPost2010Prop40
 90
        0
102
RTVSPost2010PropOp40
 70
     1
102
RTVSPost2010Prop41ColorIndex
 90
       18
102
RTVSPost2010Prop41ColorRGB
 90
        0
102
RTVSPost2010PropOp41
 70
     1
102
RTVSPost2010Prop42
 90
       50
102
RTVSPost2010PropOp42
 70
     1
102
RTVSPost2010Prop43
 90
        3
102
RTVSPost2010PropOp43
 70
     1
102
RTVSPost2010Prop44ColorIndex
 90
        5
102
RTVSPost2010Prop44ColorRGB
 90
      255
102
RTVSPost2010PropOp44
 70
     1
102
RTVSPost2010Prop45
280
     0
102
RTVSPost2010PropOp45
 70
     1
102
RTVSPost2010Prop46
 90
       50
102
RTVSPost2010PropOp46
 70
     1
102
RTVSPost2010Prop47
 90
       50
102
RTVSPost2010PropOp47
 70
     1
102
RTVSPost2010Prop48
 90
       50
102
RTVSPost2010PropOp48
 70
     1
102
RTVSPost2010Prop49
280
     0
102
RTVSPost2010PropOp49
 70
     1
102
RTVSPost2010Prop50
 90
       50
102
RTVSPost2010PropOp50
 70
     1
102
RTVSPost2010Prop51ColorIndex
 90
      256
102
RTVSPost2010Prop51ColorRGB
 90
-16777216
102
RTVSPost2010PropOp51
 70
     0
102
RTVSPost2010Prop52
140
1.0
102
RTVSPost2010PropOp52
 70
     0
102
RTVSPost2010Prop53
 90
        2
102
RTVSPost2010PropOp53
 70
     1
102
RTVSPost2010Prop54
  1
strokes_ogs.tif
102
RTVSPost2010PropOp54
 70
     1
102
RTVSPost2010Prop55
280
     0
102
RTVSPost2010PropOp55
 70
     1
102
RTVSPost2010Prop56
140
1.0
102
RTVSPost2010PropOp56
 70
     1
102
RTVSPost2010Prop57
140
1.0
102
RTVSPost2010PropOp57
 70
     1
102
RTVSPropertyOp0
 70
     1
102
RTVSPropertyOp1
 70
     1
102
RTVSPropertyOp2
 70
     1
102
RTVSPropertyOp3
 70
     1
102
RTVSPropertyOp4
 70
     1
102
RTVSPropertyOp5
 70
     1
102
RTVSPropertyOp6
 70
     1
102
RTVSPropertyOp7
 70
     1
102
RTVSPropertyOp8
 70
     1
102
RTVSPropertyOp9
 70
     1
102
RTVSPropertyOp10
 70
     1
102
RTVSPropertyOp11
 70
     1
102
RTVSPropertyOp12
 70
     1
102
RTVSPropertyOp13
 70
     1
102
RTVSPropertyOp14
 70
     1
102
RTVSPropertyOp15
 70
     1
102
RTVSPropertyOp16
 70
     1
102
RTVSPropertyOp17
 70
     1
102
RTVSPropertyOp18
 70
     1
102
RTVSPropertyOp19
 70
     1
102
RTVSPropertyOp20
 70
     1
102
RTVSPropertyOp21
 70
     1
102
RTVSPropertyOp22
 70
     1
102
RTVSPropertyOp23
 70
     1
102
RTVSPropertyOp24
 70
     1
102
RTVSPropertyOp25
 70
     1
102
RTVSPropertyOp26
 70
     1
102
RTVSPropertyOp27
 70
     1
102
RTVSPropertyOp28
 70
     1
102
RTVSPropertyOp29
 70
     1
102
RTVSPropertyOp30
 70
     1
102
RTVSPropertyOp31
 70
     1
102
RTVSPropertyOp32
 70
     1
102
RTVSPropertyOp33
 70
     1
102
RTVSPropertyOp34
 70
     1
102
RTVSPropertyOp35
 70
     1
102
RTVSPropertyOp36
 70
     1
102
RTVSPropertyOp37
 70
     1
102
RTVSPropertyOp38
 70
     1
102
RTVSPropertyOp39
 70
     1
102
RTVSPropertyOp40
 70
     1
102
RTVSPropertyOp41
 70
     1
102
RTVSPropertyOp42
 70
     1
102
RTVSPropertyOp43
 70
     1
102
RTVSPropertyOp44
 70
     1
102
RTVSPropertyOp45
 70
     1
102
RTVSPropertyOp46
 70
     1
102
RTVSPropertyOp47
 70
     1
102
RTVSPropertyOp48
 70
     1
102
RTVSPropertyOp49
 70
     1
102
RTVSPropertyOp50
 70
     1
102
RTVSPropertyOp51
 70
     0
102
RTVSPropertyOp52
 70
     0
102
RTVSPropertyOp53
 70
     1
102
RTVSPropertyOp54
 70
     1
102
RTVSPropertyOp55
 70
     1
102
RTVSPropertyOp56
 70
     1
102
RTVSPropertyOp57
 70
     1
102
RTVSPropertyOp58
 70
     1
102
RTVSPropertyOp59
 70
     1
102
RTVSPropertyOp60
 70
     1
102
RTVSPropertyOp61
 70
     1
102
RTVSPropertyOp62
 70
     1
  0
XRECORD
  5
51C
102
{ACAD_REACTORS
330
51B
102
}
330
51B
100
AcDbXrecord
280
     1
102
RTVSPost2010Prop28
280
     0
102
RTVSPost2010PropOp28
 70
     1
102
RTVSPost2010Prop29
280
     1
102
RTVSPost2010PropOp29
 70
     1
102
RTVSPost2010Prop30
280
     1
102
RTVSPost2010PropOp30
 70
     1
102
RTVSPost2010Prop31
280
     0
102
RTVSPost2010PropOp31
 70
     1
102
RTVSPost2010Prop32
280
     0
102
RTVSPost2010PropOp32
 70
     1
102
RTVSPost2010Prop33
280
     0
102
RTVSPost2010PropOp33
 70
     1
102
RTVSPost2010Prop34
280
     0
102
RTVSPost2010PropOp34
 70
     1
102
RTVSPost2010Prop35
280
     0
102
RTVSPost2010PropOp35
 70
     1
102
RTVSPost2010Prop36
280
     0
102
RTVSPost2010PropOp36
 70
     1
102
RTVSPost2010Prop37
 90
       50
102
RTVSPost2010PropOp37
 70
     1
102
RTVSPost2010Prop38
140
0.0
102
RTVSPost2010PropOp38
 70
     1
102
RTVSPost2010Prop39
140
1.0
102
RTVSPost2010PropOp39
 70
     1
102
RTVSPost2010Prop40
 90
        0
102
RTVSPost2010PropOp40
 70
     1
102
RTVSPost2010Prop41ColorIndex
 90
       18
102
RTVSPost2010Prop41ColorRGB
 90
        0
102
RTVSPost2010PropOp41
 70
     1
102
RTVSPost2010Prop42
 90
       50
102
RTVSPost2010PropOp42
 70
     1
102
RTVSPost2010Prop43
 90
        3
102
RTVSPost2010PropOp43
 70
     1
102
RTVSPost2010Prop44ColorIndex
 90
        5
102
RTVSPost2010Prop44ColorRGB
 90
      255
102
RTVSPost2010PropOp44
 70
     1
102
RTVSPost2010Prop45
280
     0
102
RTVSPost2010PropOp45
 70
     1
102
RTVSPost2010Prop46
 90
       50
102
RTVSPost2010PropOp46
 70
     1
102
RTVSPost2010Prop47
 90
       50
102
RTVSPost2010PropOp47
 70
     1
102
RTVSPost2010Prop48
 90
       50
102
RTVSPost2010PropOp48
 70
     1
102
RTVSPost2010Prop49
280
     0
102
RTVSPost2010PropOp49
 70
     1
102
RTVSPost2010Prop50
 90
       50
102
RTVSPost2010PropOp50
 70
     1
102
RTVSPost2010Prop51ColorIndex
 90
      256
102
RTVSPost2010Prop51ColorRGB
 90
-16777216
102
RTVSPost2010PropOp51
 70
     0
102
RTVSPost2010Prop52
140
1.0
102
RTVSPost2010PropOp52
 70
     0
102
RTVSPost2010Prop53
 90
        2
102
RTVSPost2010PropOp53
 70
     1
102
RTVSPost2010Prop54
  1
strokes_ogs.tif
102
RTVSPost2010PropOp54
 70
     1
102
RTVSPost2010Prop55
280
     0
102
RTVSPost2010PropOp55
 70
     1
102
RTVSPost2010Prop56
140
1.0
102
RTVSPost2010PropOp56
 70
     1
102
RTVSPost2010Prop57
140
1.0
102
RTVSPost2010PropOp57
 70
     1
102
RTVSPropertyOp0
 70
     1
102
RTVSPropertyOp1
 70
     1
102
RTVSPropertyOp2
 70
     1
102
RTVSPropertyOp3
 70
     1
102
RTVSPropertyOp4
 70
     1
102
RTVSPropertyOp5
 70
     1
102
RTVSPropertyOp6
 70
     1
102
RTVSPropertyOp7
 70
     1
102
RTVSPropertyOp8
 70
     1
102
RTVSPropertyOp9
 70
     1
102
RTVSPropertyOp10
 70
     1
102
RTVSPropertyOp11
 70
     1
102
RTVSPropertyOp12
 70
     1
102
RTVSPropertyOp13
 70
     1
102
RTVSPropertyOp14
 70
     1
102
RTVSPropertyOp15
 70
     1
102
RTVSPropertyOp16
 70
     1
102
RTVSPropertyOp17
 70
     1
102
RTVSPropertyOp18
 70
     1
102
RTVSPropertyOp19
 70
     1
102
RTVSPropertyOp20
 70
     1
102
RTVSPropertyOp21
 70
     1
102
RTVSPropertyOp22
 70
     1
102
RTVSPropertyOp23
 70
     1
102
RTVSPropertyOp24
 70
     1
102
RTVSPropertyOp25
 70
     1
102
RTVSPropertyOp26
 70
     1
102
RTVSPropertyOp27
 70
     1
102
RTVSPropertyOp28
 70
     1
102
RTVSPropertyOp29
 70
     1
102
RTVSPropertyOp30
 70
     1
102
RTVSPropertyOp31
 70
     1
102
RTVSPropertyOp32
 70
     1
102
RTVSPropertyOp33
 70
     1
102
RTVSPropertyOp34
 70
     1
102
RTVSPropertyOp35
 70
     1
102
RTVSPropertyOp36
 70
     1
102
RTVSPropertyOp37
 70
     1
102
RTVSPropertyOp38
 70
     1
102
RTVSPropertyOp39
 70
     1
102
RTVSPropertyOp40
 70
     1
102
RTVSPropertyOp41
 70
     1
102
RTVSPropertyOp42
 70
     1
102
RTVSPropertyOp43
 70
     1
102
RTVSPropertyOp44
 70
     1
102
RTVSPropertyOp45
 70
     1
102
RTVSPropertyOp46
 70
     1
102
RTVSPropertyOp47
 70
     1
102
RTVSPropertyOp48
 70
     1
102
RTVSPropertyOp49
 70
     1
102
RTVSPropertyOp50
 70
     1
102
RTVSPropertyOp51
 70
     0
102
RTVSPropertyOp52
 70
     0
102
RTVSPropertyOp53
 70
     1
102
RTVSPropertyOp54
 70
     1
102
RTVSPropertyOp55
 70
     1
102
RTVSPropertyOp56
 70
     1
102
RTVSPropertyOp57
 70
     1
102
RTVSPropertyOp58
 70
     1
102
RTVSPropertyOp59
 70
     1
102
RTVSPropertyOp60
 70
     1
102
RTVSPropertyOp61
 70
     1
102
RTVSPropertyOp62
 70
     1
  0
XRECORD
  5
516
102
{ACAD_REACTORS
330
515
102
}
330
515
100
AcDbXrecord
280
     1
102
RTVSPost2010Prop28
280
     0
102
RTVSPost2010PropOp28
 70
     1
102
RTVSPost2010Prop29
280
     1
102
RTVSPost2010PropOp29
 70
     1
102
RTVSPost2010Prop30
280
     1
102
RTVSPost2010PropOp30
 70
     1
102
RTVSPost2010Prop31
280
     0
102
RTVSPost2010PropOp31
 70
     1
102
RTVSPost2010Prop32
280
     0
102
RTVSPost2010PropOp32
 70
     1
102
RTVSPost2010Prop33
280
     0
102
RTVSPost2010PropOp33
 70
     1
102
RTVSPost2010Prop34
280
     0
102
RTVSPost2010PropOp34
 70
     1
102
RTVSPost2010Prop35
280
     0
102
RTVSPost2010PropOp35
 70
     1
102
RTVSPost2010Prop36
280
     0
102
RTVSPost2010PropOp36
 70
     1
102
RTVSPost2010Prop37
 90
       50
102
RTVSPost2010PropOp37
 70
     1
102
RTVSPost2010Prop38
140
0.0
102
RTVSPost2010PropOp38
 70
     1
102
RTVSPost2010Prop39
140
1.0
102
RTVSPost2010PropOp39
 70
     1
102
RTVSPost2010Prop40
 90
        0
102
RTVSPost2010PropOp40
 70
     1
102
RTVSPost2010Prop41ColorIndex
 90
       18
102
RTVSPost2010Prop41ColorRGB
 90
        0
102
RTVSPost2010PropOp41
 70
     1
102
RTVSPost2010Prop42
 90
       50
102
RTVSPost2010PropOp42
 70
     1
102
RTVSPost2010Prop43
 90
        3
102
RTVSPost2010PropOp43
 70
     1
102
RTVSPost2010Prop44ColorIndex
 90
        5
102
RTVSPost2010Prop44ColorRGB
 90
      255
102
RTVSPost2010PropOp44
 70
     1
102
RTVSPost2010Prop45
280
     0
102
RTVSPost2010PropOp45
 70
     1
102
RTVSPost2010Prop46
 90
       50
102
RTVSPost2010PropOp46
 70
     1
102
RTVSPost2010Prop47
 90
       50
102
RTVSPost2010PropOp47
 70
     1
102
RTVSPost2010Prop48
 90
       50
102
RTVSPost2010PropOp48
 70
     1
102
RTVSPost2010Prop49
280
     0
102
RTVSPost2010PropOp49
 70
     1
102
RTVSPost2010Prop50
 90
       50
102
RTVSPost2010PropOp50
 70
     1
102
RTVSPost2010Prop51ColorIndex
 90
      256
102
RTVSPost2010Prop51ColorRGB
 90
-16777216
102
RTVSPost2010PropOp51
 70
     0
102
RTVSPost2010Prop52
140
1.0
102
RTVSPost2010PropOp52
 70
     0
102
RTVSPost2010Prop53
 90
        2
102
RTVSPost2010PropOp53
 70
     1
102
RTVSPost2010Prop54
  1
strokes_ogs.tif
102
RTVSPost2010PropOp54
 70
     1
102
RTVSPost2010Prop55
280
     0
102
RTVSPost2010PropOp55
 70
     1
102
RTVSPost2010Prop56
140
1.0
102
RTVSPost2010PropOp56
 70
     1
102
RTVSPost2010Prop57
140
1.0
102
RTVSPost2010PropOp57
 70
     1
102
RTVSPropertyOp0
 70
     1
102
RTVSPropertyOp1
 70
     1
102
RTVSPropertyOp2
 70
     1
102
RTVSPropertyOp3
 70
     1
102
RTVSPropertyOp4
 70
     1
102
RTVSPropertyOp5
 70
     1
102
RTVSPropertyOp6
 70
     1
102
RTVSPropertyOp7
 70
     1
102
RTVSPropertyOp8
 70
     1
102
RTVSPropertyOp9
 70
     1
102
RTVSPropertyOp10
 70
     1
102
RTVSPropertyOp11
 70
     1
102
RTVSPropertyOp12
 70
     1
102
RTVSPropertyOp13
 70
     1
102
RTVSPropertyOp14
 70
     1
102
RTVSPropertyOp15
 70
     1
102
RTVSPropertyOp16
 70
     1
102
RTVSPropertyOp17
 70
     1
102
RTVSPropertyOp18
 70
     1
102
RTVSPropertyOp19
 70
     1
102
RTVSPropertyOp20
 70
     1
102
RTVSPropertyOp21
 70
     1
102
RTVSPropertyOp22
 70
     1
102
RTVSPropertyOp23
 70
     1
102
RTVSPropertyOp24
 70
     1
102
RTVSPropertyOp25
 70
     1
102
RTVSPropertyOp26
 70
     1
102
RTVSPropertyOp27
 70
     1
102
RTVSPropertyOp28
 70
     1
102
RTVSPropertyOp29
 70
     1
102
RTVSPropertyOp30
 70
     1
102
RTVSPropertyOp31
 70
     1
102
RTVSPropertyOp32
 70
     1
102
RTVSPropertyOp33
 70
     1
102
RTVSPropertyOp34
 70
     1
102
RTVSPropertyOp35
 70
     1
102
RTVSPropertyOp36
 70
     1
102
RTVSPropertyOp37
 70
     1
102
RTVSPropertyOp38
 70
     1
102
RTVSPropertyOp39
 70
     1
102
RTVSPropertyOp40
 70
     1
102
RTVSPropertyOp41
 70
     1
102
RTVSPropertyOp42
 70
     1
102
RTVSPropertyOp43
 70
     1
102
RTVSPropertyOp44
 70
     1
102
RTVSPropertyOp45
 70
     1
102
RTVSPropertyOp46
 70
     1
102
RTVSPropertyOp47
 70
     1
102
RTVSPropertyOp48
 70
     1
102
RTVSPropertyOp49
 70
     1
102
RTVSPropertyOp50
 70
     1
102
RTVSPropertyOp51
 70
     0
102
RTVSPropertyOp52
 70
     0
102
RTVSPropertyOp53
 70
     1
102
RTVSPropertyOp54
 70
     1
102
RTVSPropertyOp55
 70
     1
102
RTVSPropertyOp56
 70
     1
102
RTVSPropertyOp57
 70
     1
102
RTVSPropertyOp58
 70
     1
102
RTVSPropertyOp59
 70
     1
102
RTVSPropertyOp60
 70
     1
102
RTVSPropertyOp61
 70
     1
102
RTVSPropertyOp62
 70
     1
  0
XRECORD
  5
518
102
{ACAD_REACTORS
330
517
102
}
330
517
100
AcDbXrecord
280
     1
102
RTVSPost2010Prop28
280
     0
102
RTVSPost2010PropOp28
 70
     1
102
RTVSPost2010Prop29
280
     1
102
RTVSPost2010PropOp29
 70
     1
102
RTVSPost2010Prop30
280
     1
102
RTVSPost2010PropOp30
 70
     1
102
RTVSPost2010Prop31
280
     0
102
RTVSPost2010PropOp31
 70
     1
102
RTVSPost2010Prop32
280
     0
102
RTVSPost2010PropOp32
 70
     1
102
RTVSPost2010Prop33
280
     0
102
RTVSPost2010PropOp33
 70
     1
102
RTVSPost2010Prop34
280
     0
102
RTVSPost2010PropOp34
 70
     1
102
RTVSPost2010Prop35
280
     0
102
RTVSPost2010PropOp35
 70
     1
102
RTVSPost2010Prop36
280
     0
102
RTVSPost2010PropOp36
 70
     1
102
RTVSPost2010Prop37
 90
       50
102
RTVSPost2010PropOp37
 70
     1
102
RTVSPost2010Prop38
140
0.0
102
RTVSPost2010PropOp38
 70
     1
102
RTVSPost2010Prop39
140
1.0
102
RTVSPost2010PropOp39
 70
     1
102
RTVSPost2010Prop40
 90
        0
102
RTVSPost2010PropOp40
 70
     1
102
RTVSPost2010Prop41ColorIndex
 90
       18
102
RTVSPost2010Prop41ColorRGB
 90
        0
102
RTVSPost2010PropOp41
 70
     1
102
RTVSPost2010Prop42
 90
       50
102
RTVSPost2010PropOp42
 70
     1
102
RTVSPost2010Prop43
 90
        3
102
RTVSPost2010PropOp43
 70
     1
102
RTVSPost2010Prop44ColorIndex
 90
        5
102
RTVSPost2010Prop44ColorRGB
 90
      255
102
RTVSPost2010PropOp44
 70
     1
102
RTVSPost2010Prop45
280
     0
102
RTVSPost2010PropOp45
 70
     1
102
RTVSPost2010Prop46
 90
       50
102
RTVSPost2010PropOp46
 70
     1
102
RTVSPost2010Prop47
 90
       50
102
RTVSPost2010PropOp47
 70
     1
102
RTVSPost2010Prop48
 90
       50
102
RTVSPost2010PropOp48
 70
     1
102
RTVSPost2010Prop49
280
     0
102
RTVSPost2010PropOp49
 70
     1
102
RTVSPost2010Prop50
 90
       50
102
RTVSPost2010PropOp50
 70
     1
102
RTVSPost2010Prop51ColorIndex
 90
      256
102
RTVSPost2010Prop51ColorRGB
 90
-16777216
102
RTVSPost2010PropOp51
 70
     0
102
RTVSPost2010Prop52
140
1.0
102
RTVSPost2010PropOp52
 70
     0
102
RTVSPost2010Prop53
 90
        2
102
RTVSPost2010PropOp53
 70
     1
102
RTVSPost2010Prop54
  1
strokes_ogs.tif
102
RTVSPost2010PropOp54
 70
     1
102
RTVSPost2010Prop55
280
     0
102
RTVSPost2010PropOp55
 70
     1
102
RTVSPost2010Prop56
140
1.0
102
RTVSPost2010PropOp56
 70
     1
102
RTVSPost2010Prop57
140
1.0
102
RTVSPost2010PropOp57
 70
     1
102
RTVSPropertyOp0
 70
     1
102
RTVSPropertyOp1
 70
     1
102
RTVSPropertyOp2
 70
     1
102
RTVSPropertyOp3
 70
     1
102
RTVSPropertyOp4
 70
     1
102
RTVSPropertyOp5
 70
     1
102
RTVSPropertyOp6
 70
     1
102
RTVSPropertyOp7
 70
     1
102
RTVSPropertyOp8
 70
     1
102
RTVSPropertyOp9
 70
     1
102
RTVSPropertyOp10
 70
     1
102
RTVSPropertyOp11
 70
     1
102
RTVSPropertyOp12
 70
     1
102
RTVSPropertyOp13
 70
     1
102
RTVSPropertyOp14
 70
     1
102
RTVSPropertyOp15
 70
     1
102
RTVSPropertyOp16
 70
     1
102
RTVSPropertyOp17
 70
     1
102
RTVSPropertyOp18
 70
     1
102
RTVSPropertyOp19
 70
     1
102
RTVSPropertyOp20
 70
     1
102
RTVSPropertyOp21
 70
     1
102
RTVSPropertyOp22
 70
     1
102
RTVSPropertyOp23
 70
     1
102
RTVSPropertyOp24
 70
     1
102
RTVSPropertyOp25
 70
     1
102
RTVSPropertyOp26
 70
     1
102
RTVSPropertyOp27
 70
     1
102
RTVSPropertyOp28
 70
     1
102
RTVSPropertyOp29
 70
     1
102
RTVSPropertyOp30
 70
     1
102
RTVSPropertyOp31
 70
     1
102
RTVSPropertyOp32
 70
     1
102
RTVSPropertyOp33
 70
     1
102
RTVSPropertyOp34
 70
     1
102
RTVSPropertyOp35
 70
     1
102
RTVSPropertyOp36
 70
     1
102
RTVSPropertyOp37
 70
     1
102
RTVSPropertyOp38
 70
     1
102
RTVSPropertyOp39
 70
     1
102
RTVSPropertyOp40
 70
     1
102
RTVSPropertyOp41
 70
     1
102
RTVSPropertyOp42
 70
     1
102
RTVSPropertyOp43
 70
     1
102
RTVSPropertyOp44
 70
     1
102
RTVSPropertyOp45
 70
     1
102
RTVSPropertyOp46
 70
     1
102
RTVSPropertyOp47
 70
     1
102
RTVSPropertyOp48
 70
     1
102
RTVSPropertyOp49
 70
     1
102
RTVSPropertyOp50
 70
     1
102
RTVSPropertyOp51
 70
     0
102
RTVSPropertyOp52
 70
     0
102
RTVSPropertyOp53
 70
     1
102
RTVSPropertyOp54
 70
     1
102
RTVSPropertyOp55
 70
     1
102
RTVSPropertyOp56
 70
     1
102
RTVSPropertyOp57
 70
     1
102
RTVSPropertyOp58
 70
     1
102
RTVSPropertyOp59
 70
     1
102
RTVSPropertyOp60
 70
     1
102
RTVSPropertyOp61
 70
     1
102
RTVSPropertyOp62
 70
     1
  0
XRECORD
  5
50E
102
{ACAD_REACTORS
330
50D
102
}
330
50D
100
AcDbXrecord
280
     1
102
RTVSPost2010Prop28
280
     0
102
RTVSPost2010PropOp28
 70
     1
102
RTVSPost2010Prop29
280
     1
102
RTVSPost2010PropOp29
 70
     1
102
RTVSPost2010Prop30
280
     1
102
RTVSPost2010PropOp30
 70
     1
102
RTVSPost2010Prop31
280
     0
102
RTVSPost2010PropOp31
 70
     1
102
RTVSPost2010Prop32
280
     0
102
RTVSPost2010PropOp32
 70
     1
102
RTVSPost2010Prop33
280
     0
102
RTVSPost2010PropOp33
 70
     1
102
RTVSPost2010Prop34
280
     0
102
RTVSPost2010PropOp34
 70
     1
102
RTVSPost2010Prop35
280
     0
102
RTVSPost2010PropOp35
 70
     1
102
RTVSPost2010Prop36
280
     0
102
RTVSPost2010PropOp36
 70
     1
102
RTVSPost2010Prop37
 90
       50
102
RTVSPost2010PropOp37
 70
     1
102
RTVSPost2010Prop38
140
0.0
102
RTVSPost2010PropOp38
 70
     1
102
RTVSPost2010Prop39
140
1.0
102
RTVSPost2010PropOp39
 70
     1
102
RTVSPost2010Prop40
 90
        0
102
RTVSPost2010PropOp40
 70
     1
102
RTVSPost2010Prop41ColorIndex
 90
       18
102
RTVSPost2010Prop41ColorRGB
 90
        0
102
RTVSPost2010PropOp41
 70
     1
102
RTVSPost2010Prop42
 90
       50
102
RTVSPost2010PropOp42
 70
     1
102
RTVSPost2010Prop43
 90
        3
102
RTVSPost2010PropOp43
 70
     1
102
RTVSPost2010Prop44ColorIndex
 90
        5
102
RTVSPost2010Prop44ColorRGB
 90
      255
102
RTVSPost2010PropOp44
 70
     1
102
RTVSPost2010Prop45
280
     0
102
RTVSPost2010PropOp45
 70
     1
102
RTVSPost2010Prop46
 90
       50
102
RTVSPost2010PropOp46
 70
     1
102
RTVSPost2010Prop47
 90
       50
102
RTVSPost2010PropOp47
 70
     1
102
RTVSPost2010Prop48
 90
       50
102
RTVSPost2010PropOp48
 70
     1
102
RTVSPost2010Prop49
280
     0
102
RTVSPost2010PropOp49
 70
     1
102
RTVSPost2010Prop50
 90
       50
102
RTVSPost2010PropOp50
 70
     1
102
RTVSPost2010Prop51ColorIndex
 90
      256
102
RTVSPost2010Prop51ColorRGB
 90
-16777216
102
RTVSPost2010PropOp51
 70
     0
102
RTVSPost2010Prop52
140
1.0
102
RTVSPost2010PropOp52
 70
     0
102
RTVSPost2010Prop53
 90
        2
102
RTVSPost2010PropOp53
 70
     1
102
RTVSPost2010Prop54
  1
strokes_ogs.tif
102
RTVSPost2010PropOp54
 70
     1
102
RTVSPost2010Prop55
280
     0
102
RTVSPost2010PropOp55
 70
     1
102
RTVSPost2010Prop56
140
1.0
102
RTVSPost2010PropOp56
 70
     1
102
RTVSPost2010Prop57
140
1.0
102
RTVSPost2010PropOp57
 70
     1
102
RTVSPropertyOp0
 70
     1
102
RTVSPropertyOp1
 70
     1
102
RTVSPropertyOp2
 70
     1
102
RTVSPropertyOp3
 70
     1
102
RTVSPropertyOp4
 70
     1
102
RTVSPropertyOp5
 70
     1
102
RTVSPropertyOp6
 70
     1
102
RTVSPropertyOp7
 70
     1
102
RTVSPropertyOp8
 70
     1
102
RTVSPropertyOp9
 70
     1
102
RTVSPropertyOp10
 70
     1
102
RTVSPropertyOp11
 70
     1
102
RTVSPropertyOp12
 70
     1
102
RTVSPropertyOp13
 70
     1
102
RTVSPropertyOp14
 70
     1
102
RTVSPropertyOp15
 70
     1
102
RTVSPropertyOp16
 70
     1
102
RTVSPropertyOp17
 70
     1
102
RTVSPropertyOp18
 70
     1
102
RTVSPropertyOp19
 70
     1
102
RTVSPropertyOp20
 70
     1
102
RTVSPropertyOp21
 70
     1
102
RTVSPropertyOp22
 70
     1
102
RTVSPropertyOp23
 70
     1
102
RTVSPropertyOp24
 70
     1
102
RTVSPropertyOp25
 70
     1
102
RTVSPropertyOp26
 70
     1
102
RTVSPropertyOp27
 70
     1
102
RTVSPropertyOp28
 70
     1
102
RTVSPropertyOp29
 70
     1
102
RTVSPropertyOp30
 70
     1
102
RTVSPropertyOp31
 70
     1
102
RTVSPropertyOp32
 70
     1
102
RTVSPropertyOp33
 70
     1
102
RTVSPropertyOp34
 70
     1
102
RTVSPropertyOp35
 70
     1
102
RTVSPropertyOp36
 70
     1
102
RTVSPropertyOp37
 70
     1
102
RTVSPropertyOp38
 70
     1
102
RTVSPropertyOp39
 70
     1
102
RTVSPropertyOp40
 70
     1
102
RTVSPropertyOp41
 70
     1
102
RTVSPropertyOp42
 70
     1
102
RTVSPropertyOp43
 70
     1
102
RTVSPropertyOp44
 70
     1
102
RTVSPropertyOp45
 70
     1
102
RTVSPropertyOp46
 70
     1
102
RTVSPropertyOp47
 70
     1
102
RTVSPropertyOp48
 70
     1
102
RTVSPropertyOp49
 70
     1
102
RTVSPropertyOp50
 70
     1
102
RTVSPropertyOp51
 70
     0
102
RTVSPropertyOp52
 70
     0
102
RTVSPropertyOp53
 70
     1
102
RTVSPropertyOp54
 70
     1
102
RTVSPropertyOp55
 70
     1
102
RTVSPropertyOp56
 70
     1
102
RTVSPropertyOp57
 70
     1
102
RTVSPropertyOp58
 70
     1
102
RTVSPropertyOp59
 70
     1
102
RTVSPropertyOp60
 70
     1
102
RTVSPropertyOp61
 70
     1
102
RTVSPropertyOp62
 70
     1
  0
XRECORD
  5
502
102
{ACAD_REACTORS
330
501
102
}
330
501
100
AcDbXrecord
280
     1
102
RTVSPost2010Prop28
280
     0
102
RTVSPost2010PropOp28
 70
     1
102
RTVSPost2010Prop29
280
     1
102
RTVSPost2010PropOp29
 70
     1
102
RTVSPost2010Prop30
280
     1
102
RTVSPost2010PropOp30
 70
     1
102
RTVSPost2010Prop31
280
     0
102
RTVSPost2010PropOp31
 70
     1
102
RTVSPost2010Prop32
280
     0
102
RTVSPost2010PropOp32
 70
     1
102
RTVSPost2010Prop33
280
     0
102
RTVSPost2010PropOp33
 70
     1
102
RTVSPost2010Prop34
280
     0
102
RTVSPost2010PropOp34
 70
     1
102
RTVSPost2010Prop35
280
     0
102
RTVSPost2010PropOp35
 70
     1
102
RTVSPost2010Prop36
280
     0
102
RTVSPost2010PropOp36
 70
     1
102
RTVSPost2010Prop37
 90
       50
102
RTVSPost2010PropOp37
 70
     1
102
RTVSPost2010Prop38
140
0.0
102
RTVSPost2010PropOp38
 70
     1
102
RTVSPost2010Prop39
140
1.0
102
RTVSPost2010PropOp39
 70
     1
102
RTVSPost2010Prop40
 90
        0
102
RTVSPost2010PropOp40
 70
     1
102
RTVSPost2010Prop41ColorIndex
 90
       18
102
RTVSPost2010Prop41ColorRGB
 90
        0
102
RTVSPost2010PropOp41
 70
     1
102
RTVSPost2010Prop42
 90
       50
102
RTVSPost2010PropOp42
 70
     1
102
RTVSPost2010Prop43
 90
        3
102
RTVSPost2010PropOp43
 70
     1
102
RTVSPost2010Prop44ColorIndex
 90
        5
102
RTVSPost2010Prop44ColorRGB
 90
      255
102
RTVSPost2010PropOp44
 70
     1
102
RTVSPost2010Prop45
280
     0
102
RTVSPost2010PropOp45
 70
     1
102
RTVSPost2010Prop46
 90
       50
102
RTVSPost2010PropOp46
 70
     1
102
RTVSPost2010Prop47
 90
       50
102
RTVSPost2010PropOp47
 70
     1
102
RTVSPost2010Prop48
 90
       50
102
RTVSPost2010PropOp48
 70
     1
102
RTVSPost2010Prop49
280
     0
102
RTVSPost2010PropOp49
 70
     1
102
RTVSPost2010Prop50
 90
       50
102
RTVSPost2010PropOp50
 70
     1
102
RTVSPost2010Prop51ColorIndex
 90
      256
102
RTVSPost2010Prop51ColorRGB
 90
-16777216
102
RTVSPost2010PropOp51
 70
     0
102
RTVSPost2010Prop52
140
1.0
102
RTVSPost2010PropOp52
 70
     0
102
RTVSPost2010Prop53
 90
        2
102
RTVSPost2010PropOp53
 70
     1
102
RTVSPost2010Prop54
  1
strokes_ogs.tif
102
RTVSPost2010PropOp54
 70
     1
102
RTVSPost2010Prop55
280
     0
102
RTVSPost2010PropOp55
 70
     1
102
RTVSPost2010Prop56
140
1.0
102
RTVSPost2010PropOp56
 70
     1
102
RTVSPost2010Prop57
140
1.0
102
RTVSPost2010PropOp57
 70
     1
102
RTVSPropertyOp0
 70
     1
102
RTVSPropertyOp1
 70
     1
102
RTVSPropertyOp2
 70
     1
102
RTVSPropertyOp3
 70
     1
102
RTVSPropertyOp4
 70
     1
102
RTVSPropertyOp5
 70
     1
102
RTVSPropertyOp6
 70
     1
102
RTVSPropertyOp7
 70
     1
102
RTVSPropertyOp8
 70
     1
102
RTVSPropertyOp9
 70
     1
102
RTVSPropertyOp10
 70
     1
102
RTVSPropertyOp11
 70
     1
102
RTVSPropertyOp12
 70
     1
102
RTVSPropertyOp13
 70
     1
102
RTVSPropertyOp14
 70
     1
102
RTVSPropertyOp15
 70
     1
102
RTVSPropertyOp16
 70
     1
102
RTVSPropertyOp17
 70
     1
102
RTVSPropertyOp18
 70
     1
102
RTVSPropertyOp19
 70
     1
102
RTVSPropertyOp20
 70
     1
102
RTVSPropertyOp21
 70
     1
102
RTVSPropertyOp22
 70
     1
102
RTVSPropertyOp23
 70
     1
102
RTVSPropertyOp24
 70
     1
102
RTVSPropertyOp25
 70
     1
102
RTVSPropertyOp26
 70
     1
102
RTVSPropertyOp27
 70
     1
102
RTVSPropertyOp28
 70
     1
102
RTVSPropertyOp29
 70
     1
102
RTVSPropertyOp30
 70
     1
102
RTVSPropertyOp31
 70
     1
102
RTVSPropertyOp32
 70
     1
102
RTVSPropertyOp33
 70
     1
102
RTVSPropertyOp34
 70
     1
102
RTVSPropertyOp35
 70
     1
102
RTVSPropertyOp36
 70
     1
102
RTVSPropertyOp37
 70
     1
102
RTVSPropertyOp38
 70
     1
102
RTVSPropertyOp39
 70
     1
102
RTVSPropertyOp40
 70
     1
102
RTVSPropertyOp41
 70
     1
102
RTVSPropertyOp42
 70
     1
102
RTVSPropertyOp43
 70
     1
102
RTVSPropertyOp44
 70
     1
102
RTVSPropertyOp45
 70
     1
102
RTVSPropertyOp46
 70
     1
102
RTVSPropertyOp47
 70
     1
102
RTVSPropertyOp48
 70
     1
102
RTVSPropertyOp49
 70
     1
102
RTVSPropertyOp50
 70
     1
102
RTVSPropertyOp51
 70
     0
102
RTVSPropertyOp52
 70
     0
102
RTVSPropertyOp53
 70
     1
102
RTVSPropertyOp54
 70
     1
102
RTVSPropertyOp55
 70
     1
102
RTVSPropertyOp56
 70
     1
102
RTVSPropertyOp57
 70
     1
102
RTVSPropertyOp58
 70
     1
102
RTVSPropertyOp59
 70
     1
102
RTVSPropertyOp60
 70
     1
102
RTVSPropertyOp61
 70
     1
102
RTVSPropertyOp62
 70
     1
  0
XRECORD
  5
51A
102
{ACAD_REACTORS
330
519
102
}
330
519
100
AcDbXrecord
280
     1
102
RTVSPost2010Prop28
280
     0
102
RTVSPost2010PropOp28
 70
     1
102
RTVSPost2010Prop29
280
     1
102
RTVSPost2010PropOp29
 70
     1
102
RTVSPost2010Prop30
280
     1
102
RTVSPost2010PropOp30
 70
     1
102
RTVSPost2010Prop31
280
     0
102
RTVSPost2010PropOp31
 70
     1
102
RTVSPost2010Prop32
280
     0
102
RTVSPost2010PropOp32
 70
     1
102
RTVSPost2010Prop33
280
     0
102
RTVSPost2010PropOp33
 70
     1
102
RTVSPost2010Prop34
280
     0
102
RTVSPost2010PropOp34
 70
     1
102
RTVSPost2010Prop35
280
     0
102
RTVSPost2010PropOp35
 70
     1
102
RTVSPost2010Prop36
280
     0
102
RTVSPost2010PropOp36
 70
     1
102
RTVSPost2010Prop37
 90
       50
102
RTVSPost2010PropOp37
 70
     1
102
RTVSPost2010Prop38
140
0.0
102
RTVSPost2010PropOp38
 70
     1
102
RTVSPost2010Prop39
140
1.0
102
RTVSPost2010PropOp39
 70
     1
102
RTVSPost2010Prop40
 90
        0
102
RTVSPost2010PropOp40
 70
     1
102
RTVSPost2010Prop41ColorIndex
 90
       18
102
RTVSPost2010Prop41ColorRGB
 90
        0
102
RTVSPost2010PropOp41
 70
     1
102
RTVSPost2010Prop42
 90
       50
102
RTVSPost2010PropOp42
 70
     1
102
RTVSPost2010Prop43
 90
        3
102
RTVSPost2010PropOp43
 70
     1
102
RTVSPost2010Prop44ColorIndex
 90
        5
102
RTVSPost2010Prop44ColorRGB
 90
      255
102
RTVSPost2010PropOp44
 70
     1
102
RTVSPost2010Prop45
280
     0
102
RTVSPost2010PropOp45
 70
     1
102
RTVSPost2010Prop46
 90
       50
102
RTVSPost2010PropOp46
 70
     1
102
RTVSPost2010Prop47
 90
       50
102
RTVSPost2010PropOp47
 70
     1
102
RTVSPost2010Prop48
 90
       50
102
RTVSPost2010PropOp48
 70
     1
102
RTVSPost2010Prop49
280
     0
102
RTVSPost2010PropOp49
 70
     1
102
RTVSPost2010Prop50
 90
       50
102
RTVSPost2010PropOp50
 70
     1
102
RTVSPost2010Prop51ColorIndex
 90
      256
102
RTVSPost2010Prop51ColorRGB
 90
-16777216
102
RTVSPost2010PropOp51
 70
     0
102
RTVSPost2010Prop52
140
1.0
102
RTVSPost2010PropOp52
 70
     0
102
RTVSPost2010Prop53
 90
        2
102
RTVSPost2010PropOp53
 70
     1
102
RTVSPost2010Prop54
  1
strokes_ogs.tif
102
RTVSPost2010PropOp54
 70
     1
102
RTVSPost2010Prop55
280
     0
102
RTVSPost2010PropOp55
 70
     1
102
RTVSPost2010Prop56
140
1.0
102
RTVSPost2010PropOp56
 70
     1
102
RTVSPost2010Prop57
140
1.0
102
RTVSPost2010PropOp57
 70
     1
102
RTVSPropertyOp0
 70
     1
102
RTVSPropertyOp1
 70
     1
102
RTVSPropertyOp2
 70
     1
102
RTVSPropertyOp3
 70
     1
102
RTVSPropertyOp4
 70
     1
102
RTVSPropertyOp5
 70
     1
102
RTVSPropertyOp6
 70
     1
102
RTVSPropertyOp7
 70
     1
102
RTVSPropertyOp8
 70
     1
102
RTVSPropertyOp9
 70
     1
102
RTVSPropertyOp10
 70
     1
102
RTVSPropertyOp11
 70
     1
102
RTVSPropertyOp12
 70
     1
102
RTVSPropertyOp13
 70
     1
102
RTVSPropertyOp14
 70
     1
102
RTVSPropertyOp15
 70
     1
102
RTVSPropertyOp16
 70
     1
102
RTVSPropertyOp17
 70
     1
102
RTVSPropertyOp18
 70
     1
102
RTVSPropertyOp19
 70
     1
102
RTVSPropertyOp20
 70
     1
102
RTVSPropertyOp21
 70
     1
102
RTVSPropertyOp22
 70
     1
102
RTVSPropertyOp23
 70
     1
102
RTVSPropertyOp24
 70
     1
102
RTVSPropertyOp25
 70
     1
102
RTVSPropertyOp26
 70
     1
102
RTVSPropertyOp27
 70
     1
102
RTVSPropertyOp28
 70
     1
102
RTVSPropertyOp29
 70
     1
102
RTVSPropertyOp30
 70
     1
102
RTVSPropertyOp31
 70
     1
102
RTVSPropertyOp32
 70
     1
102
RTVSPropertyOp33
 70
     1
102
RTVSPropertyOp34
 70
     1
102
RTVSPropertyOp35
 70
     1
102
RTVSPropertyOp36
 70
     1
102
RTVSPropertyOp37
 70
     1
102
RTVSPropertyOp38
 70
     1
102
RTVSPropertyOp39
 70
     1
102
RTVSPropertyOp40
 70
     1
102
RTVSPropertyOp41
 70
     1
102
RTVSPropertyOp42
 70
     1
102
RTVSPropertyOp43
 70
     1
102
RTVSPropertyOp44
 70
     1
102
RTVSPropertyOp45
 70
     1
102
RTVSPropertyOp46
 70
     1
102
RTVSPropertyOp47
 70
     1
102
RTVSPropertyOp48
 70
     1
102
RTVSPropertyOp49
 70
     1
102
RTVSPropertyOp50
 70
     1
102
RTVSPropertyOp51
 70
     0
102
RTVSPropertyOp52
 70
     0
102
RTVSPropertyOp53
 70
     1
102
RTVSPropertyOp54
 70
     1
102
RTVSPropertyOp55
 70
     1
102
RTVSPropertyOp56
 70
     1
102
RTVSPropertyOp57
 70
     1
102
RTVSPropertyOp58
 70
     1
102
RTVSPropertyOp59
 70
     1
102
RTVSPropertyOp60
 70
     1
102
RTVSPropertyOp61
 70
     1
102
RTVSPropertyOp62
 70
     1
  0
ENDSEC
  0
EOF
