  0
SECTION
  2
HEADER
  9
$ACADVER
  1
AC1004
  9
$INSBASE
 10
0.0
 20
0.0
  9
$EXTMIN
 10
-66.173333
 20
-68.95
  9
$EXTMAX
 10
2033.826667
 20
2901.05
  9
$LIMMIN
 10
-66.173333
 20
-68.95
  9
$LIMMAX
 10
2033.826667
 20
2901.05
  9
$VIEWCTR
 10
6.0
 20
4.5
  9
$VIEWSIZE
 40
9.0
  9
$SNAPMODE
 70
     0
  9
$SNAPUNIT
 10
12.5
 20
12.5
  9
$SNAPBASE
 10
0.0
 20
0.0
  9
$SNAPANG
 50
0.0
  9
$SNAPSTYLE
 70
     0
  9
$SNAPISOPAIR
 70
     0
  9
$GRIDMODE
 70
     1
  9
$GRIDUNIT
 10
50.0
 20
50.0
  9
$ORTHOMODE
 70
     0
  9
$REGENMODE
 70
     1
  9
$FILLMODE
 70
     1
  9
$QTEXTMODE
 70
     0
  9
$DRAGMODE
 70
     2
  9
$LTSCALE
 40
3.0
  9
$OSMODE
 70
     1
  9
$ATTMODE
 70
     1
  9
$TEXTSIZE
 40
0.2
  9
$TRACEWID
 40
0.05
  9
$TEXTSTYLE
  7
STANDARD
  9
$CLAYER
  8
DATA
  9
$CELTYPE
  6
CONTINUOUS
  9
$CECOLOR
 62
     7
  9
$DIMSCALE
 40
1.0
  9
$DIMASZ
 40
0.18
  9
$DIMEXO
 40
0.0625
  9
$DIMDLI
 40
0.38
  9
$DIMRND
 40
0.0
  9
$DIMDLE
 40
0.0
  9
$DIMEXE
 40
0.18
  9
$DIMTP
 40
0.0
  9
$DIMTM
 40
0.0
  9
$DIMTXT
 40
0.18
  9
$DIMCEN
 40
0.09
  9
$DIMTSZ
 40
0.0
  9
$DIMTOL
 70
     0
  9
$DIMLIM
 70
     0
  9
$DIMTIH
 70
     1
  9
$DIMTOH
 70
     1
  9
$DIMSE1
 70
     0
  9
$DIMSE2
 70
     0
  9
$DIMTAD
 70
     0
  9
$DIMZIN
 70
     0
  9
$DIMBLK
  1

  9
$DIMASO
 70
     1
  9
$DIMSHO
 70
     1
  9
$DIMPOST
  1

  9
$DIMAPOST
  1

  9
$DIMALT
 70
     0
  9
$DIMALTD
 70
     2
  9
$DIMALTF
 40
25.4
  9
$DIMLFAC
 40
1.0
  9
$LUNITS
 70
     2
  9
$LUPREC
 70
     4
  9
$AXISMODE
 70
     0
  9
$AXISUNIT
 10
0.0
 20
0.0
  9
$SKETCHINC
 40
0.1
  9
$FILLETRAD
 40
5.0
  9
$AUNITS
 70
     0
  9
$AUPREC
 70
     0
  9
$MENU
  1
acad
  9
$ELEVATION
 40
0.0
  9
$THICKNESS
 40
0.0
  9
$VIEWDIR
 10
0.0
 20
0.0
 30
1.0
  9
$LIMCHECK
 70
     0
  9
$BLIPMODE
 70
     1
  9
$CHAMFERA
 40
0.0
  9
$CHAMFERB
 40
0.0
  9
$FASTZOOM
 70
     1
  9
$SKPOLY
 70
     0
  9
$TDCREATE
 40
0.0
  9
$TDUPDATE
 40
0.0
  9
$TDINDWG
 40
0.0
  9
$TDUSRTIMER
 40
0.0
  9
$USRTIMER
 70
     1
  9
$ANGBASE
 50
0.0
  9
$ANGDIR
 70
     0
  9
$PDMODE
 70
     0
  9
$PDSIZE
 40
0.0
  9
$PLINEWID
 40
0.0
  9
$COORDS
 70
     1
  9
$SPLFRAME
 70
     0
  9
$SPLINESEGS
 70
    10
  9
$ATTDIA
 70
     0
  9
$ATTREQ
 70
     1
  9
$USERI1
 70
     0
  9
$USERI2
 70
     0
  9
$USERI3
 70
     0
  9
$USERI4
 70
     0
  9
$USERI5
 70
     0
  9
$USERR1
 40
0.0
  9
$USERR2
 40
0.0
  9
$USERR3
 40
0.0
  9
$USERR4
 40
0.0
  9
$USERR5
 40
0.0
  0
ENDSEC
  0
SECTION
  2
TABLES
  0
TABLE
  2
LTYPE
 70
    11
  0
LTYPE
  2
CONTINUOUS
 70
     0
  3
Solid line
 72
    65
 73
     0
 40
0.0
  0
LTYPE
  2
DASHED
 70
     0
  3
__ __ __ __ __ __ __ __ __ __ __ __ __ __ __
 72
    65
 73
     2
 40
0.75
 49
0.5
 49
-0.25
  0
LTYPE
  2
HIDDEN
 70
     0
  3
_ _ _ _ _ _ _ _ _ _ _ _ _ _ _ _ _ _ _ _ _ _ 
 72
    65
 73
     2
 40
0.25
 49
0.125
 49
-0.125
  0
LTYPE
  2
CENTER
 70
     0
  3
____ _ ____ _ ____ _ ____ _ ____ _ ____ _ __
 72
    65
 73
     4
 40
2.0
 49
1.25
 49
-0.25
 49
0.25
 49
-0.25
  0
LTYPE
  2
PHANTOM
 70
     0
  3
_____ _ _ _____ _ _ _____ _ _ _____ _ _ ____
 72
    65
 73
     6
 40
2.5
 49
1.25
 49
-0.25
 49
0.25
 49
-0.25
 49
0.25
 49
-0.25
  0
LTYPE
  2
DOT
 70
     0
  3
............................................
 72
    65
 73
     2
 40
0.25
 49
0.0
 49
-0.25
  0
LTYPE
  2
DASHDOT
 70
     0
  3
__ . __ . __ . __ . __ . __ . __ . __ . __ .
 72
    65
 73
     4
 40
1.0
 49
0.5
 49
-0.25
 49
0.0
 49
-0.25
  0
LTYPE
  2
BORDER
 70
     0
  3
__ __ . __ __ . __ __ . __ __ . __ __ . __ _
 72
    65
 73
     6
 40
1.75
 49
0.5
 49
-0.25
 49
0.5
 49
-0.25
 49
0.0
 49
-0.25
  0
LTYPE
  2
DIVIDE
 70
     0
  3
__ . . __ . . __ . . __ . . __ . . __ . . __
 72
    65
 73
     6
 40
1.25
 49
0.5
 49
-0.25
 49
0.0
 49
-0.25
 49
0.0
 49
-0.25
  0
LTYPE
  2
DOTS
 70
     0
  3
close                                       
 72
    65
 73
     2
 40
0.1
 49
0.05
 49
-0.05
  0
LTYPE
  2
CLOSE
 70
     0
  3
                                            
 72
    65
 73
     0
 40
0.0
  0
ENDTAB
  0
TABLE
  2
LAYER
 70
    10
  0
LAYER
  2
0
 70
     0
 62
     7
  6
CONTINUOUS
  0
LAYER
  2
LAYER01
 70
     0
 62
     7
  6
CONTINUOUS
  0
LAYER
  2
DATA
 70
     0
 62
     7
  6
CONTINUOUS
  0
LAYER
  2
HIBINO-BASE
 70
     0
 62
     7
  6
CONTINUOUS
  0
LAYER
  2
KANAGU
 70
     0
 62
     7
  6
CONTINUOUS
  0
LAYER
  2
DIMENSIONS
 70
     0
 62
     7
  6
CONTINUOUS
  0
LAYER
  2
SIDE35
 70
     0
 62
     7
  6
CONTINUOUS
  0
LAYER
  2
SIDE-35
 70
     0
 62
     7
  6
CONTINUOUS
  0
LAYER
  2
TOP-20
 70
     0
 62
     7
  6
CONTINUOUS
  0
LAYER
  2
TOP25
 70
     0
 62
     7
  6
CONTINUOUS
  0
ENDTAB
  0
TABLE
  2
STYLE
 70
     2
  0
STYLE
  2
STANDARD
 70
     0
 40
0.0
 41
1.0
 50
0.0
 71
     0
 42
0.2
  3
txt
  4

  0
STYLE
  2
TTF_DEFAULT
 70
     0
 40
0.0
 41
1.0
 50
0.0
 71
     0
 42
0.0
  3
txt
  4
BIGFONT
  0
ENDTAB
  0
TABLE
  2
VIEW
 70
     0
  0
ENDTAB
  0
ENDSEC
  0
SECTION
  2
BLOCKS
  0
ENDSEC
  0
SECTION
  2
ENTITIES
  0
LINE
  8
SIDE35
  6
HIDDEN
 62
     7
 10
832.89765
 20
1704.546968
 11
1015.258001
 21
1832.23706
  0
LINE
  8
SIDE35
  6
HIDDEN
 62
     7
 10
853.384897
 20
1672.201378
 11
1016.716754
 21
1786.567576
  0
LINE
  8
SIDE35
  6
CONTINUOUS
 62
     7
 10
628.6
 20
1450.0
 11
1025.245225
 21
1450.0
  0
LINE
  8
DATA
  6
CONTINUOUS
 62
     7
 10
231.954775
 20
1995.289977
 11
1025.245225
 21
1995.289977
  0
LINE
  8
SIDE35
  6
HIDDEN
 62
     7
 10
953.61578
 20
1866.401526
 11
985.604573
 21
1864.937396
  0
POLYLINE
  8
HIBINO-BASE
  6
CONTINUOUS
 62
     7
 66
     1
 70
     1
 40
3.0
 41
3.0
  0
VERTEX
  8
HIBINO-BASE
 10
100.0
 20
150.0
  0
VERTEX
  8
HIBINO-BASE
 10
100.0
 20
2750.0
  0
VERTEX
  8
HIBINO-BASE
 10
1900.0
 20
2750.0
  0
VERTEX
  8
HIBINO-BASE
 10
1900.0
 20
150.0
  0
SEQEND
  8
HIBINO-BASE
  0
TEXT
  8
DIMENSIONS
  6
CONTINUOUS
 62
     7
 10
987.5
 20
1106.387098
 40
25.0
  1
59.3
 50
90.0
  7
TTF_DEFAULT
  0
TEXT
  8
DIMENSIONS
  6
CONTINUOUS
 62
     7
 10
987.5
 20
856.802517
 40
25.0
  1
453
 50
90.0
  7
TTF_DEFAULT
  0
TEXT
  8
DIMENSIONS
  6
CONTINUOUS
 62
     7
 10
987.5
 20
552.5
 40
25.0
  1
18.6
 50
90.0
  7
TTF_DEFAULT
  0
LINE
  8
DIMENSIONS
  6
CONTINUOUS
 62
     7
 10
400.0
 20
1628.246958
 11
400.0
 21
1337.5
  0
LINE
  8
DIMENSIONS
  6
CONTINUOUS
 62
     7
 10
857.2
 20
1628.246958
 11
857.2
 21
1337.5
  0
LINE
  8
DIMENSIONS
  6
CONTINUOUS
 62
     7
 10
400.0
 20
550.0
 11
857.2
 21
550.0
  0
LINE
  8
DATA
  6
CONTINUOUS
 62
     7
 10
400.0
 20
1188.004471
 11
857.2
 21
1188.004471
  0
TEXT
  8
DIMENSIONS
  6
CONTINUOUS
 62
     7
 10
325.0
 20
1135.504368
 40
25.0
  1
取付必要スペース
  7
TTF_DEFAULT
  0
TEXT
  8
HIBINO-BASE
  6
CONTINUOUS
 62
     7
 10
171.84
 20
85.9132
 40
40.0
  1
Hibino Corporation
  7
TTF_DEFAULT
  0
LINE
  8
DIMENSIONS
  6
CONTINUOUS
 62
     7
 10
400.0
 20
1350.0
 11
857.2
 21
1350.0
  0
LINE
  8
DATA
  6
CONTINUOUS
 62
     7
 10
430.0
 20
650.0
 11
827.2
 21
650.0
  0
LINE
  8
DATA
  6
CONTINUOUS
 62
     7
 10
430.671971
 20
1103.004266
 11
827.871971
 21
1103.004266
  0
LINE
  8
DATA
  6
CONTINUOUS
 62
     7
 10
430.0
 20
1079.629926
 11
827.2
 21
1079.629926
  0
LINE
  8
DIMENSIONS
  6
CONTINUOUS
 62
     7
 10
300.0
 20
1103.004266
 11
300.0
 21
650.0
  0
POLYLINE
  8
DATA
  6
CONTINUOUS
 62
     7
 66
     1
  0
VERTEX
  8
DATA
 10
400.0
 20
678.19094
 42
0.104167
 70
     2
 50
270.0
  0
VERTEX
  8
DATA
 10
402.254077
 20
667.488845
 42
0.100664
 70
     2
 50
293.596209
  0
VERTEX
  8
DATA
 10
408.786797
 20
658.256935
 42
0.096076
 70
     2
 50
316.780657
  0
VERTEX
  8
DATA
 10
418.433826
 20
652.17163
 42
0.093065
 70
     2
 50
338.568607
  0
VERTEX
  8
DATA
 10
430.0
 20
650.0
 42
0.093065
 70
     2
 50
0.0
  0
SEQEND
  8
DATA
  0
LINE
  8
DIMENSIONS
  6
CONTINUOUS
 62
     7
 10
420.0
 20
650.0
 11
287.5
 21
650.0
  0
LINE
  8
DIMENSIONS
  6
CONTINUOUS
 62
     7
 10
420.0
 20
546.6668
 11
400.0
 21
550.0
  0
LINE
  8
DIMENSIONS
  6
CONTINUOUS
 62
     7
 10
420.0
 20
553.3332
 11
400.0
 21
550.0
  0
LINE
  8
DIMENSIONS
  6
CONTINUOUS
 62
     7
 10
296.6668
 20
670.0
 11
300.0
 21
650.0
  0
LINE
  8
DIMENSIONS
  6
CONTINUOUS
 62
     7
 10
303.3332
 20
670.0
 11
300.0
 21
650.0
  0
LINE
  8
DIMENSIONS
  6
CONTINUOUS
 62
     7
 10
400.0
 20
668.19094
 11
400.0
 21
537.5
  0
LINE
  8
DATA
  6
CONTINUOUS
 62
     7
 10
400.0
 20
678.19094
 11
400.0
 21
1074.813326
  0
TEXT
  8
DIMENSIONS
  6
CONTINUOUS
 62
     7
 10
287.5
 20
856.953757
 40
25.0
  1
453
 50
90.0
  7
TTF_DEFAULT
  0
LINE
  8
DIMENSIONS
  6
CONTINUOUS
 62
     7
 10
296.6668
 20
1083.004266
 11
300.0
 21
1103.004266
  0
LINE
  8
DIMENSIONS
  6
CONTINUOUS
 62
     7
 10
303.3332
 20
1083.004266
 11
300.0
 21
1103.004266
  0
LINE
  8
DATA
  6
CONTINUOUS
 62
     7
 10
428.6
 20
1188.004471
 11
457.467513
 21
1238.004471
  0
LINE
  8
DIMENSIONS
  6
CONTINUOUS
 62
     7
 10
300.0
 20
1103.004266
 11
300.0
 21
1188.004471
  0
LINE
  8
DIMENSIONS
  6
CONTINUOUS
 62
     7
 10
420.671971
 20
1103.004266
 11
287.5
 21
1103.004266
  0
LINE
  8
DIMENSIONS
  6
CONTINUOUS
 62
     7
 10
390.0
 20
1188.004471
 11
287.5
 21
1188.004471
  0
LINE
  8
DIMENSIONS
  6
CONTINUOUS
 62
     7
 10
303.3332
 20
1123.004266
 11
300.0
 21
1103.004266
  0
LINE
  8
DIMENSIONS
  6
CONTINUOUS
 62
     7
 10
296.6668
 20
1123.004266
 11
300.0
 21
1103.004266
  0
LINE
  8
DIMENSIONS
  6
CONTINUOUS
 62
     7
 10
303.3332
 20
1168.004471
 11
300.0
 21
1188.004471
  0
LINE
  8
DIMENSIONS
  6
CONTINUOUS
 62
     7
 10
296.6668
 20
1168.004471
 11
300.0
 21
1188.004471
  0
LINE
  8
DIMENSIONS
  6
CONTINUOUS
 62
     7
 10
420.0
 20
1346.6668
 11
400.0
 21
1350.0
  0
LINE
  8
DIMENSIONS
  6
CONTINUOUS
 62
     7
 10
420.0
 20
1353.3332
 11
400.0
 21
1350.0
  0
TEXT
  8
DIMENSIONS
  6
CONTINUOUS
 62
     7
 10
287.5
 20
1132.472118
 40
25.0
  1
85
 50
90.0
  7
TTF_DEFAULT
  0
POLYLINE
  8
DATA
  6
CONTINUOUS
 62
     7
 66
     1
  0
VERTEX
  8
DATA
 10
430.0
 20
1079.629926
 42
0.093065
 70
     2
 50
180.0
  0
VERTEX
  8
DATA
 10
418.433826
 20
1077.458295
 42
0.096076
 70
     2
 50
201.431393
  0
VERTEX
  8
DATA
 10
408.786797
 20
1071.37299
 42
0.100664
 70
     2
 50
223.219343
  0
VERTEX
  8
DATA
 10
402.254077
 20
1062.141081
 42
0.104167
 70
     2
 50
246.403791
  0
VERTEX
  8
DATA
 10
400.0
 20
1051.438986
 42
0.104167
 70
     2
 50
270.0
  0
SEQEND
  8
DATA
  0
POLYLINE
  8
DATA
  6
CONTINUOUS
 62
     7
 66
     1
  0
VERTEX
  8
DATA
 10
430.671971
 20
1103.004266
 42
0.093065
 70
     2
 50
180.0
  0
VERTEX
  8
DATA
 10
419.105797
 20
1100.832635
 42
0.096076
 70
     2
 50
201.431393
  0
VERTEX
  8
DATA
 10
409.458767
 20
1094.747331
 42
0.100664
 70
     2
 50
223.219343
  0
VERTEX
  8
DATA
 10
402.926048
 20
1085.515421
 42
0.104167
 70
     2
 50
246.403791
  0
VERTEX
  8
DATA
 10
400.671971
 20
1074.813326
 42
0.104167
 70
     2
 50
270.0
  0
SEQEND
  8
DATA
  0
LINE
  8
DATA
  6
CONTINUOUS
 62
     7
 10
614.1
 20
667.214963
 11
614.1
 21
690.714963
  0
LINE
  8
DATA
  6
CONTINUOUS
 62
     7
 10
643.1
 20
690.714963
 11
643.1
 21
667.214963
  0
POLYLINE
  8
DATA
  6
CONTINUOUS
 62
     7
 66
     1
  0
VERTEX
  8
DATA
 10
827.2
 20
650.0
 42
0.093065
 70
     2
 50
0.0
  0
VERTEX
  8
DATA
 10
838.766174
 20
652.17163
 42
0.096076
 70
     2
 50
21.431393
  0
VERTEX
  8
DATA
 10
848.413203
 20
658.256935
 42
0.100664
 70
     2
 50
43.219343
  0
VERTEX
  8
DATA
 10
854.945923
 20
667.488845
 42
0.104167
 70
     2
 50
66.403791
  0
VERTEX
  8
DATA
 10
857.2
 20
678.19094
 42
0.104167
 70
     2
 50
90.0
  0
SEQEND
  8
DATA
  0
TEXT
  8
DIMENSIONS
  6
CONTINUOUS
 62
     7
 10
596.019373
 20
562.5
 40
25.0
  1
457.2
  7
TTF_DEFAULT
  0
LINE
  8
DATA
  6
CONTINUOUS
 62
     7
 10
643.1
 20
667.214963
 11
614.1
 21
667.214963
  0
TEXT
  8
DIMENSIONS
  6
CONTINUOUS
 62
     7
 10
850.0
 20
262.5
 40
25.0
  1
(単位 : mm)
  7
TTF_DEFAULT
  0
LINE
  8
DIMENSIONS
  6
CONTINUOUS
 62
     7
 10
857.2
 20
668.19094
 11
857.2
 21
537.5
  0
LINE
  8
DIMENSIONS
  6
CONTINUOUS
 62
     7
 10
837.2
 20
546.6668
 11
857.2
 21
550.0
  0
LINE
  8
DIMENSIONS
  6
CONTINUOUS
 62
     7
 10
837.2
 20
553.3332
 11
857.2
 21
550.0
  0
ARC
  8
DATA
  6
CONTINUOUS
 62
     7
 10
622.872452
 20
676.61578
 40
2.578854
 50
216.008742
 51
275.309078
  0
LINE
  8
DATA
  6
CONTINUOUS
 62
     7
 10
614.1
 20
690.714963
 11
643.1
 21
690.714963
  0
LINE
  8
DATA
  6
CONTINUOUS
 62
     7
 10
622.317712
 20
677.18452
 11
620.657196
 21
677.18452
  0
CIRCLE
  8
DATA
  6
CONTINUOUS
 62
     7
 10
621.62583
 20
679.103339
 40
0.950185
  0
LINE
  8
DATA
  6
CONTINUOUS
 62
     7
 10
620.048339
 20
684.047989
 11
623.018819
 21
684.047989
  0
LINE
  8
DATA
  6
CONTINUOUS
 62
     7
 10
621.524354
 20
680.487103
 11
620.048339
 21
684.047989
  0
LINE
  8
DATA
  6
CONTINUOUS
 62
     7
 10
620.657196
 20
677.18452
 11
620.657196
 21
675.579354
  0
ARC
  8
DATA
  6
CONTINUOUS
 62
     7
 10
621.822633
 20
675.635887
 40
1.166806
 50
182.777139
 51
207.359837
  0
LINE
  8
DATA
  6
CONTINUOUS
 62
     7
 10
632.852768
 20
674.047989
 11
632.852768
 21
684.047989
  0
LINE
  8
DATA
  6
CONTINUOUS
 62
     7
 10
634.771587
 20
684.047989
 11
634.771587
 21
675.579354
  0
LINE
  8
DATA
  6
CONTINUOUS
 62
     7
 10
623.719926
 20
684.047989
 11
623.719926
 21
675.579354
  0
LINE
  8
DATA
  6
CONTINUOUS
 62
     7
 10
625.564945
 20
684.047989
 11
625.564945
 21
675.579354
  0
LINE
  8
DATA
  6
CONTINUOUS
 62
     7
 10
626.524354
 20
684.047989
 11
626.524354
 21
674.047989
  0
LINE
  8
DATA
  6
CONTINUOUS
 62
     7
 10
622.317712
 20
677.18452
 11
622.317712
 21
675.579354
  0
LINE
  8
DATA
  6
CONTINUOUS
 62
     7
 10
628.203321
 20
674.988948
 11
628.203321
 21
678.937288
  0
LINE
  8
DATA
  6
CONTINUOUS
 62
     7
 10
630.029889
 20
675.431752
 11
630.029889
 21
678.457583
  0
LINE
  8
DATA
  6
CONTINUOUS
 62
     7
 10
631.801107
 20
675.653155
 11
631.801107
 21
678.273081
  0
LINE
  8
DATA
  6
CONTINUOUS
 62
     7
 10
637.852768
 20
674.047989
 11
637.852768
 21
677.18452
  0
LINE
  8
DATA
  6
CONTINUOUS
 62
     7
 10
636.173801
 20
677.18452
 11
636.173801
 21
675.579354
  0
LINE
  8
DATA
  6
CONTINUOUS
 62
     7
 10
637.852768
 20
674.047989
 11
632.852768
 21
674.047989
  0
ARC
  8
DATA
  6
CONTINUOUS
 62
     7
 10
635.476205
 20
675.557719
 40
0.697932
 50
269.711814
 51
1.776304
  0
ARC
  8
DATA
  6
CONTINUOUS
 62
     7
 10
623.349688
 20
676.61578
 40
2.578854
 50
264.690922
 51
323.991258
  0
ARC
  8
DATA
  6
CONTINUOUS
 62
     7
 10
623.02233
 20
675.557719
 40
0.697932
 50
269.711814
 51
1.776304
  0
ARC
  8
DATA
  6
CONTINUOUS
 62
     7
 10
623.015308
 20
675.557719
 40
0.697932
 50
178.223696
 51
270.288186
  0
LINE
  8
DATA
  6
CONTINUOUS
 62
     7
 10
626.524354
 20
674.047989
 11
630.048339
 21
674.047989
  0
LINE
  8
DATA
  6
CONTINUOUS
 62
     7
 10
628.203321
 20
674.988948
 11
629.10738
 21
674.988948
  0
ARC
  8
DATA
  6
CONTINUOUS
 62
     7
 10
624.399507
 20
675.635887
 40
1.166806
 50
332.640163
 51
357.222861
  0
ARC
  8
DATA
  6
CONTINUOUS
 62
     7
 10
635.469183
 20
675.557719
 40
0.697932
 50
178.223696
 51
270.288186
  0
ARC
  8
DATA
  6
CONTINUOUS
 62
     7
 10
629.902766
 20
675.946356
 40
1.90262
 50
273.831089
 51
351.135159
  0
POLYLINE
  8
DATA
  6
CONTINUOUS
 62
     7
 66
     1
  0
VERTEX
  8
DATA
 10
629.10738
 20
674.988948
 42
0.049105
 70
     2
 50
0.0
  0
VERTEX
  8
DATA
 10
629.481123
 20
675.025742
 42
0.062897
 70
     2
 50
11.974362
  0
VERTEX
  8
DATA
 10
629.759693
 20
675.118642
 42
0.103193
 70
     2
 50
25.641006
  0
VERTEX
  8
DATA
 10
629.974622
 20
675.283113
 42
0.179894
 70
     2
 50
53.354628
  0
VERTEX
  8
DATA
 10
630.029889
 20
675.431752
 42
0.179894
 70
     2
 50
90.0
  0
SEQEND
  8
DATA
  0
LINE
  8
DATA
  6
CONTINUOUS
 62
     7
 10
621.524354
 20
680.487103
 11
623.018819
 21
684.047989
  0
LINE
  8
DATA
  6
CONTINUOUS
 62
     7
 10
628.203321
 20
683.107029
 11
628.203321
 21
679.896697
  0
LINE
  8
DATA
  6
CONTINUOUS
 62
     7
 10
631.801107
 20
680.081199
 11
631.801107
 21
682.442823
  0
LINE
  8
DATA
  6
CONTINUOUS
 62
     7
 10
630.029889
 20
682.664225
 11
630.029889
 21
680.376402
  0
LINE
  8
DATA
  6
CONTINUOUS
 62
     7
 10
628.203321
 20
678.937288
 11
629.10738
 21
678.937288
  0
LINE
  8
DATA
  6
CONTINUOUS
 62
     7
 10
628.203321
 20
679.896697
 11
629.10738
 21
679.896697
  0
ARC
  8
DATA
  6
CONTINUOUS
 62
     7
 10
630.814969
 20
678.244566
 40
0.969897
 50
3.867274
 51
88.36169
  0
ARC
  8
DATA
  6
CONTINUOUS
 62
     7
 10
630.814076
 20
680.184498
 40
0.970854
 50
271.689416
 51
356.078333
  0
POLYLINE
  8
DATA
  6
CONTINUOUS
 62
     7
 66
     1
  0
VERTEX
  8
DATA
 10
629.10738
 20
679.896697
 42
0.053087
 70
     2
 50
0.0
  0
VERTEX
  8
DATA
 10
629.479802
 20
679.936351
 42
0.066942
 70
     2
 50
12.889821
  0
VERTEX
  8
DATA
 10
629.759693
 20
680.037199
 42
0.105042
 70
     2
 50
27.474432
  0
VERTEX
  8
DATA
 10
629.972586
 20
680.212492
 42
0.169764
 70
     2
 50
54.984322
  0
VERTEX
  8
DATA
 10
630.029889
 20
680.376402
 42
0.169764
 70
     2
 50
90.0
  0
SEQEND
  8
DATA
  0
POLYLINE
  8
DATA
  6
CONTINUOUS
 62
     7
 66
     1
  0
VERTEX
  8
DATA
 10
630.029889
 20
678.457583
 42
0.169764
 70
     2
 50
90.0
  0
VERTEX
  8
DATA
 10
629.972586
 20
678.621493
 42
0.105042
 70
     2
 50
125.015678
  0
VERTEX
  8
DATA
 10
629.759693
 20
678.796785
 42
0.066942
 70
     2
 50
152.525568
  0
VERTEX
  8
DATA
 10
629.479802
 20
678.897634
 42
0.053087
 70
     2
 50
167.110179
  0
VERTEX
  8
DATA
 10
629.10738
 20
678.937288
 42
0.053087
 70
     2
 50
180.0
  0
SEQEND
  8
DATA
  0
LINE
  8
DATA
  6
CONTINUOUS
 62
     7
 10
623.719926
 20
684.047989
 11
625.564945
 21
684.047989
  0
LINE
  8
DATA
  6
CONTINUOUS
 62
     7
 10
632.852768
 20
684.047989
 11
634.771587
 21
684.047989
  0
LINE
  8
DATA
  6
CONTINUOUS
 62
     7
 10
626.524354
 20
684.047989
 11
630.048339
 21
684.047989
  0
LINE
  8
DATA
  6
CONTINUOUS
 62
     7
 10
628.203321
 20
683.107029
 11
629.10738
 21
683.107029
  0
ARC
  8
DATA
  6
CONTINUOUS
 62
     7
 10
629.902472
 20
682.152531
 40
1.899734
 50
8.226924
 51
86.154223
  0
POLYLINE
  8
DATA
  6
CONTINUOUS
 62
     7
 66
     1
  0
VERTEX
  8
DATA
 10
630.029889
 20
682.664225
 42
0.179894
 70
     2
 50
90.0
  0
VERTEX
  8
DATA
 10
629.974622
 20
682.812864
 42
0.103193
 70
     2
 50
126.645372
  0
VERTEX
  8
DATA
 10
629.759693
 20
682.977335
 42
0.062897
 70
     2
 50
154.358994
  0
VERTEX
  8
DATA
 10
629.481123
 20
683.070235
 42
0.049105
 70
     2
 50
168.025638
  0
VERTEX
  8
DATA
 10
629.10738
 20
683.107029
 42
0.049105
 70
     2
 50
180.0
  0
SEQEND
  8
DATA
  0
LINE
  8
DATA
  6
CONTINUOUS
 62
     7
 10
637.852768
 20
677.18452
 11
636.173801
 21
677.18452
  0
LINE
  8
DATA
  6
CONTINUOUS
 62
     7
 10
478.6
 20
1188.004471
 11
507.467513
 21
1238.004471
  0
LINE
  8
DATA
  6
CONTINUOUS
 62
     7
 10
528.6
 20
1188.004471
 11
557.467513
 21
1238.004471
  0
LINE
  8
DATA
  6
CONTINUOUS
 62
     7
 10
578.6
 20
1188.004471
 11
607.467513
 21
1238.004471
  0
LINE
  8
DATA
  6
CONTINUOUS
 62
     7
 10
628.6
 20
1188.004471
 11
657.467513
 21
1238.004471
  0
LINE
  8
DATA
  6
CONTINUOUS
 62
     7
 10
678.6
 20
1188.004471
 11
707.467513
 21
1238.004471
  0
TEXT
  8
DIMENSIONS
  6
CONTINUOUS
 62
     7
 10
595.588029
 20
1362.5
 40
25.0
  1
457.2
  7
TTF_DEFAULT
  0
LINE
  8
DATA
  6
CONTINUOUS
 62
     7
 10
857.2
 20
678.19094
 11
857.2
 21
1074.813326
  0
LINE
  8
DATA
  6
CONTINUOUS
 62
     7
 10
728.6
 20
1188.004471
 11
757.467513
 21
1238.004471
  0
LINE
  8
DATA
  6
CONTINUOUS
 62
     7
 10
778.6
 20
1188.004471
 11
807.467513
 21
1238.004471
  0
LINE
  8
DATA
  6
CONTINUOUS
 62
     7
 10
828.6
 20
1188.004471
 11
857.467513
 21
1238.004471
  0
LINE
  8
DIMENSIONS
  6
CONTINUOUS
 62
     7
 10
837.2
 20
1346.6668
 11
857.2
 21
1350.0
  0
LINE
  8
DIMENSIONS
  6
CONTINUOUS
 62
     7
 10
837.2
 20
1353.3332
 11
857.2
 21
1350.0
  0
POLYLINE
  8
DATA
  6
CONTINUOUS
 62
     7
 66
     1
  0
VERTEX
  8
DATA
 10
857.2
 20
1051.438986
 42
0.104167
 70
     2
 50
90.0
  0
VERTEX
  8
DATA
 10
854.945923
 20
1062.141081
 42
0.100664
 70
     2
 50
113.596209
  0
VERTEX
  8
DATA
 10
848.413203
 20
1071.37299
 42
0.096076
 70
     2
 50
136.780657
  0
VERTEX
  8
DATA
 10
838.766174
 20
1077.458295
 42
0.093065
 70
     2
 50
158.568607
  0
VERTEX
  8
DATA
 10
827.2
 20
1079.629926
 42
0.093065
 70
     2
 50
180.0
  0
SEQEND
  8
DATA
  0
POLYLINE
  8
DATA
  6
CONTINUOUS
 62
     7
 66
     1
  0
VERTEX
  8
DATA
 10
857.871971
 20
1074.813326
 42
0.104167
 70
     2
 50
90.0
  0
VERTEX
  8
DATA
 10
855.617894
 20
1085.515421
 42
0.100664
 70
     2
 50
113.596209
  0
VERTEX
  8
DATA
 10
849.085174
 20
1094.747331
 42
0.096076
 70
     2
 50
136.780657
  0
VERTEX
  8
DATA
 10
839.438144
 20
1100.832635
 42
0.093065
 70
     2
 50
158.568607
  0
VERTEX
  8
DATA
 10
827.871971
 20
1103.004266
 42
0.093065
 70
     2
 50
180.0
  0
SEQEND
  8
DATA
  0
ARC
  8
SIDE-35
  6
CONTINUOUS
 62
     7
 10
628.6
 20
1985.889977
 40
502.620164
 50
235.0
 51
270.0
  0
LINE
  8
SIDE-35
  6
CENTER
 62
     7
 10
378.58378
 20
1628.829811
 11
633.991619
 21
1993.590006
  0
LINE
  8
SIDE-35
  6
CONTINUOUS
 62
     7
 10
231.954775
 20
1450.0
 11
628.6
 21
1450.0
  0
TEXT
  8
SIDE-35
  6
CONTINUOUS
 62
     7
 10
456.197144
 20
1519.032606
 40
25.0
  1
35°
  7
TTF_DEFAULT
  0
LINE
  8
SIDE-35
  6
HIDDEN
 62
     7
 10
409.099743
 20
1986.256423
 11
556.5588
 21
1883.00448
  0
LINE
  8
DATA
  6
CONTINUOUS
 62
     7
 10
452.125934
 20
1995.289977
 11
480.993447
 21
2045.289977
  0
LINE
  8
DATA
  6
CONTINUOUS
 62
     7
 10
425.0
 20
1600.0
 11
832.2
 21
1600.0
  0
LINE
  8
DATA
  6
CONTINUOUS
 62
     7
 10
400.0
 20
1638.246958
 11
857.2
 21
1638.246958
  0
LINE
  8
DATA
  6
CONTINUOUS
 62
     7
 10
445.337316
 20
1663.539842
 11
459.337316
 21
1663.539842
  0
POLYLINE
  8
DATA
  6
CONTINUOUS
 62
     7
 66
     1
  0
VERTEX
  8
DATA
 10
459.337316
 20
1732.539842
 42
0.047772
 70
     2
 50
90.0
  0
VERTEX
  8
DATA
 10
458.754696
 20
1738.623791
 42
0.061498
 70
     2
 50
101.665525
  0
VERTEX
  8
DATA
 10
457.287064
 20
1743.146443
 42
0.102418
 70
     2
 50
115.016893
  0
VERTEX
  8
DATA
 10
454.672093
 20
1746.653123
 42
0.1835
 70
     2
 50
142.778499
  0
VERTEX
  8
DATA
 10
452.337316
 20
1747.539842
 42
0.1835
 70
     2
 50
180.0
  0
VERTEX
  8
DATA
 10
450.00254
 20
1746.653123
 42
0.102418
 70
     2
 50
217.221501
  0
VERTEX
  8
DATA
 10
447.387569
 20
1743.146443
 42
0.061498
 70
     2
 50
244.983107
  0
VERTEX
  8
DATA
 10
445.919937
 20
1738.623791
 42
0.047772
 70
     2
 50
258.334475
  0
VERTEX
  8
DATA
 10
445.337316
 20
1732.539842
 42
0.047772
 70
     2
 50
270.0
  0
SEQEND
  8
DATA
  0
LINE
  8
DATA
  6
CONTINUOUS
 62
     7
 10
448.58573
 20
1860.289977
 11
588.85
 21
1860.289977
  0
LINE
  8
SIDE-35
  6
HIDDEN
 62
     7
 10
241.941999
 20
1832.23706
 11
429.76915
 21
1700.719073
  0
LINE
  8
SIDE-35
  6
HIDDEN
 62
     7
 10
389.837921
 20
1759.55613
 11
429.414696
 21
1816.077621
  0
LINE
  8
SIDE-35
  6
HIDDEN
 62
     7
 10
401.30605
 20
1751.52606
 11
439.065658
 21
1805.452369
  0
ARC
  8
SIDE-35
  6
HIDDEN
 62
     7
 10
251.954775
 20
1802.950617
 40
20.0
 50
157.53588
 51
235.0
  0
LINE
  8
SIDE-35
  6
CONTINUOUS
 62
     7
 10
231.954775
 20
1437.5
 11
231.954775
 21
1792.950617
  0
LINE
  8
DATA
  6
CONTINUOUS
 62
     7
 10
431.672369
 20
1703.029522
 11
442.622133
 21
1854.721957
  0
LINE
  8
SIDE-35
  6
CONTINUOUS
 62
     7
 10
325.969506
 20
1553.688841
 11
372.848016
 21
1620.638291
  0
LINE
  8
SIDE-35
  6
HIDDEN
 62
     7
 10
240.483246
 20
1786.567576
 11
403.815103
 21
1672.201378
  0
LINE
  8
SIDE-35
  6
CONTINUOUS
 62
     7
 10
358.774093
 20
1565.792231
 11
340.308917
 21
1574.167642
  0
LINE
  8
SIDE-35
  6
CONTINUOUS
 62
     7
 10
355.059807
 20
1560.256442
 11
340.308917
 21
1574.167642
  0
ARC
  8
SIDE-35
  6
HIDDEN
 62
     7
 10
392.417315
 20
1751.035759
 40
8.5
 50
26.927513
 51
83.072487
  0
LINE
  8
SIDE-35
  6
HIDDEN
 62
     7
 10
393.44253
 20
1759.473705
 11
399.995747
 21
1754.885093
  0
LINE
  8
SIDE-35
  6
HIDDEN
 62
     7
 10
398.848594
 20
1753.246789
 11
399.995747
 21
1754.885093
  0
LINE
  8
SIDE-35
  6
HIDDEN
 62
     7
 10
392.295378
 20
1757.835401
 11
393.44253
 21
1759.473705
  0
LINE
  8
SIDE-35
  6
HIDDEN
 62
     7
 10
389.837921
 20
1759.55613
 11
401.30605
 21
1751.52606
  0
TEXT
  8
SIDE-35
  6
CONTINUOUS
 62
     7
 10
298.42057
 20
1462.5
 40
25.0
  1
396.6
  7
TTF_DEFAULT
  0
LINE
  8
SIDE-35
  6
CONTINUOUS
 62
     7
 10
251.954775
 20
1446.6668
 11
231.954775
 21
1450.0
  0
LINE
  8
SIDE-35
  6
CONTINUOUS
 62
     7
 10
251.954775
 20
1453.3332
 11
231.954775
 21
1450.0
  0
LINE
  8
DATA
  6
CONTINUOUS
 62
     7
 10
445.337316
 20
1663.539842
 11
445.337316
 21
1732.539842
  0
LINE
  8
DATA
  6
CONTINUOUS
 62
     7
 10
400.0
 20
1638.246958
 11
404.767891
 21
1680.681186
  0
ARC
  8
DATA
  6
CONTINUOUS
 62
     7
 10
452.337316
 20
1658.039842
 40
8.5
 50
61.927513
 51
118.072487
  0
ARC
  8
DATA
  6
CONTINUOUS
 62
     7
 10
425.0
 20
1620.0
 40
20.0
 50
192.53588
 51
270.0
  0
LINE
  8
DATA
  6
CONTINUOUS
 62
     7
 10
400.0
 20
1638.246958
 11
405.476794
 21
1615.658981
  0
LINE
  8
DATA
  6
CONTINUOUS
 62
     7
 10
448.337316
 20
1665.539842
 11
456.337316
 21
1665.539842
  0
LINE
  8
DATA
  6
CONTINUOUS
 62
     7
 10
456.337316
 20
1663.539842
 11
456.337316
 21
1665.539842
  0
LINE
  8
DATA
  6
CONTINUOUS
 62
     7
 10
448.337316
 20
1663.539842
 11
448.337316
 21
1665.539842
  0
ARC
  8
DATA
  6
CONTINUOUS
 62
     7
 10
429.677559
 20
1703.173515
 40
2.0
 50
307.620603
 51
355.871323
  0
LINE
  8
DATA
  6
CONTINUOUS
 62
     7
 10
405.534524
 20
1682.042012
 11
430.898419
 21
1701.589375
  0
ARC
  8
DATA
  6
CONTINUOUS
 62
     7
 10
406.755384
 20
1680.457872
 40
2.0
 50
127.620603
 51
173.58916
  0
ARC
  8
SIDE-35
  6
HIDDEN
 62
     7
 10
405.658284
 20
1981.341511
 40
6.0
 50
55.0
 51
140.871323
  0
LINE
  8
DATA
  6
CONTINUOUS
 62
     7
 10
402.125934
 20
1995.289977
 11
430.993447
 21
2045.289977
  0
LINE
  8
SIDE-35
  6
HIDDEN
 62
     7
 10
293.587556
 20
1826.951361
 11
333.16433
 21
1883.472853
  0
LINE
  8
SIDE-35
  6
HIDDEN
 62
     7
 10
305.055685
 20
1818.921291
 11
344.632459
 21
1875.442782
  0
LINE
  8
SIDE-35
  6
HIDDEN
 62
     7
 10
270.186899
 20
1864.262395
 11
241.941999
 21
1832.23706
  0
ARC
  8
SIDE-35
  6
HIDDEN
 62
     7
 10
296.16695
 20
1818.43099
 40
8.5
 50
26.927513
 51
83.072487
  0
LINE
  8
SIDE-35
  6
HIDDEN
 62
     7
 10
241.941999
 20
1832.23706
 11
233.472395
 21
1810.592713
  0
LINE
  8
SIDE-35
  6
HIDDEN
 62
     7
 10
297.192165
 20
1826.868936
 11
303.745382
 21
1822.280325
  0
LINE
  8
SIDE-35
  6
HIDDEN
 62
     7
 10
302.598229
 20
1820.642021
 11
303.745382
 21
1822.280325
  0
LINE
  8
SIDE-35
  6
HIDDEN
 62
     7
 10
296.045012
 20
1825.230632
 11
297.192165
 21
1826.868936
  0
LINE
  8
SIDE-35
  6
HIDDEN
 62
     7
 10
293.587556
 20
1826.951361
 11
305.055685
 21
1818.921291
  0
LINE
  8
SIDE-35
  6
HIDDEN
 62
     7
 10
401.020965
 20
1985.115947
 11
305.044237
 21
1867.137306
  0
POLYLINE
  8
SIDE-35
  6
HIDDEN
 62
     7
 66
     1
  0
VERTEX
  8
SIDE-35
 10
344.632459
 20
1875.442782
 42
0.047772
 70
     2
 50
55.0
  0
VERTEX
  8
SIDE-35
 10
347.644815
 20
1880.760639
 42
0.061498
 70
     2
 50
66.665525
  0
VERTEX
  8
SIDE-35
 10
349.036687
 20
1885.307178
 42
0.102418
 70
     2
 50
80.016893
  0
VERTEX
  8
SIDE-35
 10
348.905978
 20
1889.679568
 42
0.1835
 70
     2
 50
107.778499
  0
VERTEX
  8
SIDE-35
 10
347.502041
 20
1891.745098
 42
0.1835
 70
     2
 50
145.0
  0
VERTEX
  8
SIDE-35
 10
345.080903
 20
1892.357914
 42
0.102418
 70
     2
 50
182.221501
  0
VERTEX
  8
SIDE-35
 10
340.927496
 20
1890.985295
 42
0.061498
 70
     2
 50
209.983107
  0
VERTEX
  8
SIDE-35
 10
337.131195
 20
1888.122355
 42
0.047772
 70
     2
 50
223.334475
  0
VERTEX
  8
SIDE-35
 10
333.16433
 20
1883.472853
 42
0.047772
 70
     2
 50
235.0
  0
SEQEND
  8
SIDE-35
  0
ARC
  8
SIDE-35
  6
HIDDEN
 62
     7
 10
303.492776
 20
1868.399434
 40
2.0
 50
272.620603
 51
320.871323
  0
LINE
  8
SIDE-35
  6
HIDDEN
 62
     7
 10
303.58422
 20
1866.401526
 11
271.595427
 21
1864.937396
  0
ARC
  8
SIDE-35
  6
HIDDEN
 62
     7
 10
271.686871
 20
1862.939488
 40
2.0
 50
92.620603
 51
138.58916
  0
LINE
  8
DATA
  6
CONTINUOUS
 62
     7
 10
352.125934
 20
1995.289977
 11
380.993447
 21
2045.289977
  0
LINE
  8
DATA
  6
CONTINUOUS
 62
     7
 10
252.125934
 20
1995.289977
 11
280.993447
 21
2045.289977
  0
LINE
  8
DATA
  6
CONTINUOUS
 62
     7
 10
302.125934
 20
1995.289977
 11
330.993447
 21
2045.289977
  0
POLYLINE
  8
SIDE-35
  6
HIDDEN
 62
     7
 66
     1
  0
VERTEX
  8
SIDE-35
 10
440.339994
 20
1824.860757
 42
0.119707
 70
     2
 50
191.491716
  0
VERTEX
  8
SIDE-35
 10
435.514745
 20
1822.595903
 42
0.070818
 70
     2
 50
216.467823
  0
VERTEX
  8
SIDE-35
 10
429.414696
 20
1816.077621
 42
0.070818
 70
     2
 50
235.0
  0
SEQEND
  8
SIDE-35
  0
ARC
  8
DATA
  6
CONTINUOUS
 62
     7
 10
448.58573
 20
1854.289977
 40
6.0
 50
90.0
 51
175.871323
  0
ARC
  8
SIDE35
  6
CONTINUOUS
 62
     7
 10
628.6
 20
1985.889977
 40
502.620164
 50
270.0
 51
305.0
  0
LINE
  8
SIDE35
  6
CENTER
 62
     7
 10
623.208381
 20
1993.590006
 11
878.61622
 21
1628.829811
  0
LINE
  8
SIDE35
  6
HIDDEN
 62
     7
 10
700.6412
 20
1883.00448
 11
848.083193
 21
1986.244475
  0
LINE
  8
DATA
  6
CONTINUOUS
 62
     7
 10
702.125934
 20
1995.289977
 11
730.993447
 21
2045.289977
  0
LINE
  8
DATA
  6
CONTINUOUS
 62
     7
 10
668.35
 20
1860.289977
 11
808.593438
 21
1860.289977
  0
LINE
  8
DATA
  6
CENTER
 62
     7
 10
628.6
 20
1550.0
 11
628.6
 21
1995.289977
  0
LINE
  8
DATA
  6
CONTINUOUS
 62
     7
 10
577.580204
 20
1765.559372
 11
577.580204
 21
1860.289977
  0
LINE
  8
DATA
  6
CONTINUOUS
 62
     7
 10
574.580204
 20
1860.289977
 11
577.580204
 21
1765.559372
  0
LINE
  8
DATA
  6
CONTINUOUS
 62
     7
 10
612.656204
 20
1778.559372
 11
612.656204
 21
1788.059372
  0
LINE
  8
DATA
  6
CONTINUOUS
 62
     7
 10
615.956204
 20
1778.559372
 11
615.956204
 21
1788.059372
  0
LINE
  8
DATA
  6
CONTINUOUS
 62
     7
 10
679.580204
 20
1765.559372
 11
679.580204
 21
1860.289977
  0
LINE
  8
DATA
  6
CONTINUOUS
 62
     7
 10
679.580204
 20
1765.559372
 11
682.580204
 21
1860.289977
  0
LINE
  8
DATA
  6
CONTINUOUS
 62
     7
 10
631.452204
 20
1778.559372
 11
631.452204
 21
1788.059372
  0
LINE
  8
DATA
  6
CONTINUOUS
 62
     7
 10
634.752204
 20
1778.559372
 11
634.752204
 21
1788.059372
  0
LINE
  8
DATA
  6
CONTINUOUS
 62
     7
 10
625.856204
 20
1788.059372
 11
625.856204
 21
1778.559372
  0
LINE
  8
DATA
  6
CONTINUOUS
 62
     7
 10
622.556204
 20
1778.559372
 11
622.556204
 21
1788.059372
  0
LINE
  8
DATA
  6
CONTINUOUS
 62
     7
 10
644.652204
 20
1788.059372
 11
644.652204
 21
1778.559372
  0
LINE
  8
DATA
  6
CONTINUOUS
 62
     7
 10
641.352204
 20
1778.559372
 11
641.352204
 21
1788.059372
  0
LINE
  8
SIDE-35
  6
CONTINUOUS
 62
     7
 10
628.6
 20
1458.269813
 11
628.6
 21
1540.0
  0
LINE
  8
SIDE35
  6
CONTINUOUS
 62
     7
 10
628.6
 20
1540.0
 11
628.6
 21
1458.269813
  0
LINE
  8
SIDE-35
  6
CONTINUOUS
 62
     7
 10
608.670275
 20
1487.000268
 11
628.6
 21
1483.269813
  0
LINE
  8
SIDE-35
  6
CONTINUOUS
 62
     7
 10
608.537642
 20
1480.335187
 11
628.6
 21
1483.269813
  0
LINE
  8
SIDE35
  6
CONTINUOUS
 62
     7
 10
648.529725
 20
1487.000268
 11
628.6
 21
1483.269813
  0
LINE
  8
SIDE35
  6
CONTINUOUS
 62
     7
 10
648.662358
 20
1480.335187
 11
628.6
 21
1483.269813
  0
LINE
  8
SIDE-35
  6
CONTINUOUS
 62
     7
 10
608.6
 20
1446.6668
 11
628.6
 21
1450.0
  0
LINE
  8
SIDE-35
  6
CONTINUOUS
 62
     7
 10
608.6
 20
1453.3332
 11
628.6
 21
1450.0
  0
LINE
  8
SIDE35
  6
CONTINUOUS
 62
     7
 10
648.6
 20
1446.6668
 11
628.6
 21
1450.0
  0
LINE
  8
SIDE35
  6
CONTINUOUS
 62
     7
 10
648.6
 20
1453.3332
 11
628.6
 21
1450.0
  0
LINE
  8
SIDE35
  6
CONTINUOUS
 62
     7
 10
628.6
 20
1540.0
 11
628.6
 21
1437.5
  0
LINE
  8
SIDE-35
  6
CONTINUOUS
 62
     7
 10
628.6
 20
1540.0
 11
628.6
 21
1437.5
  0
LINE
  8
DATA
  6
CONTINUOUS
 62
     7
 10
459.337316
 20
1663.539842
 11
459.337316
 21
1732.539842
  0
LINE
  8
DATA
  6
CONTINUOUS
 62
     7
 10
562.837316
 20
1663.539842
 11
562.837316
 21
1732.539842
  0
LINE
  8
DATA
  6
CONTINUOUS
 62
     7
 10
576.837316
 20
1663.539842
 11
576.837316
 21
1732.539842
  0
LINE
  8
DATA
  6
CONTINUOUS
 62
     7
 10
680.337316
 20
1663.539842
 11
680.337316
 21
1732.539842
  0
LINE
  8
DATA
  6
CONTINUOUS
 62
     7
 10
694.337316
 20
1663.539842
 11
694.337316
 21
1732.539842
  0
ARC
  8
DATA
  6
CONTINUOUS
 62
     7
 10
569.837316
 20
1658.039842
 40
8.5
 50
61.927513
 51
118.072487
  0
ARC
  8
DATA
  6
CONTINUOUS
 62
     7
 10
687.337316
 20
1658.039842
 40
8.5
 50
61.927513
 51
118.072487
  0
LINE
  8
DATA
  6
CONTINUOUS
 62
     7
 10
565.837316
 20
1665.539842
 11
573.837316
 21
1665.539842
  0
LINE
  8
DATA
  6
CONTINUOUS
 62
     7
 10
573.837316
 20
1663.539842
 11
573.837316
 21
1665.539842
  0
LINE
  8
DATA
  6
CONTINUOUS
 62
     7
 10
565.837316
 20
1663.539842
 11
565.837316
 21
1665.539842
  0
LINE
  8
DATA
  6
CONTINUOUS
 62
     7
 10
562.837316
 20
1663.539842
 11
576.837316
 21
1663.539842
  0
LINE
  8
DATA
  6
CONTINUOUS
 62
     7
 10
683.337316
 20
1665.539842
 11
691.337316
 21
1665.539842
  0
LINE
  8
DATA
  6
CONTINUOUS
 62
     7
 10
691.337316
 20
1663.539842
 11
691.337316
 21
1665.539842
  0
LINE
  8
DATA
  6
CONTINUOUS
 62
     7
 10
683.337316
 20
1663.539842
 11
683.337316
 21
1665.539842
  0
LINE
  8
DATA
  6
CONTINUOUS
 62
     7
 10
680.337316
 20
1663.539842
 11
694.337316
 21
1663.539842
  0
LINE
  8
DATA
  6
CONTINUOUS
 62
     7
 10
577.580204
 20
1765.559372
 11
679.580204
 21
1765.559372
  0
LINE
  8
DATA
  6
CONTINUOUS
 62
     7
 10
611.682204
 20
1770.559372
 11
645.478204
 21
1770.559372
  0
LINE
  8
DATA
  6
CONTINUOUS
 62
     7
 10
611.830204
 20
1778.559372
 11
626.682204
 21
1778.559372
  0
LINE
  8
DATA
  6
CONTINUOUS
 62
     7
 10
577.580204
 20
1779.193227
 11
612.656204
 21
1779.193227
  0
POLYLINE
  8
DATA
  6
CONTINUOUS
 62
     7
 66
     1
  0
VERTEX
  8
DATA
 10
576.837316
 20
1732.539842
 42
0.047772
 70
     2
 50
90.0
  0
VERTEX
  8
DATA
 10
576.254696
 20
1738.623791
 42
0.061498
 70
     2
 50
101.665525
  0
VERTEX
  8
DATA
 10
574.787064
 20
1743.146443
 42
0.102418
 70
     2
 50
115.016893
  0
VERTEX
  8
DATA
 10
572.172093
 20
1746.653123
 42
0.1835
 70
     2
 50
142.778499
  0
VERTEX
  8
DATA
 10
569.837316
 20
1747.539842
 42
0.1835
 70
     2
 50
180.0
  0
VERTEX
  8
DATA
 10
567.50254
 20
1746.653123
 42
0.102418
 70
     2
 50
217.221501
  0
VERTEX
  8
DATA
 10
564.887569
 20
1743.146443
 42
0.061498
 70
     2
 50
244.983107
  0
VERTEX
  8
DATA
 10
563.419937
 20
1738.623791
 42
0.047772
 70
     2
 50
258.334475
  0
VERTEX
  8
DATA
 10
562.837316
 20
1732.539842
 42
0.047772
 70
     2
 50
270.0
  0
SEQEND
  8
DATA
  0
LINE
  8
DATA
  6
CONTINUOUS
 62
     7
 10
611.830204
 20
1765.559372
 11
611.830204
 21
1770.559372
  0
LINE
  8
DATA
  6
CONTINUOUS
 62
     7
 10
611.682204
 20
1770.559372
 11
611.682204
 21
1778.559372
  0
LINE
  8
DATA
  6
CONTINUOUS
 62
     7
 10
645.330204
 20
1765.559372
 11
645.330204
 21
1770.559372
  0
POLYLINE
  8
DATA
  6
CONTINUOUS
 62
     7
 66
     1
  0
VERTEX
  8
DATA
 10
694.337316
 20
1732.539842
 42
0.047772
 70
     2
 50
90.0
  0
VERTEX
  8
DATA
 10
693.754696
 20
1738.623791
 42
0.061498
 70
     2
 50
101.665525
  0
VERTEX
  8
DATA
 10
692.287064
 20
1743.146443
 42
0.102418
 70
     2
 50
115.016893
  0
VERTEX
  8
DATA
 10
689.672093
 20
1746.653123
 42
0.1835
 70
     2
 50
142.778499
  0
VERTEX
  8
DATA
 10
687.337316
 20
1747.539842
 42
0.1835
 70
     2
 50
180.0
  0
VERTEX
  8
DATA
 10
685.00254
 20
1746.653123
 42
0.102418
 70
     2
 50
217.221501
  0
VERTEX
  8
DATA
 10
682.387569
 20
1743.146443
 42
0.061498
 70
     2
 50
244.983107
  0
VERTEX
  8
DATA
 10
680.919937
 20
1738.623791
 42
0.047772
 70
     2
 50
258.334475
  0
VERTEX
  8
DATA
 10
680.337316
 20
1732.539842
 42
0.047772
 70
     2
 50
270.0
  0
SEQEND
  8
DATA
  0
LINE
  8
DATA
  6
CONTINUOUS
 62
     7
 10
630.626204
 20
1778.559372
 11
645.478204
 21
1778.559372
  0
LINE
  8
DATA
  6
CONTINUOUS
 62
     7
 10
625.856204
 20
1779.193227
 11
631.452204
 21
1779.193227
  0
LINE
  8
DATA
  6
CONTINUOUS
 62
     7
 10
630.478204
 20
1770.559372
 11
630.478204
 21
1778.559372
  0
LINE
  8
DATA
  6
CONTINUOUS
 62
     7
 10
626.682204
 20
1770.559372
 11
626.682204
 21
1778.559372
  0
LINE
  8
DATA
  6
CONTINUOUS
 62
     7
 10
644.652204
 20
1779.193227
 11
679.580204
 21
1779.193227
  0
LINE
  8
DATA
  6
CONTINUOUS
 62
     7
 10
645.478204
 20
1770.559372
 11
645.478204
 21
1778.559372
  0
LINE
  8
KANAGU
  6
CONTINUOUS
 62
     7
 10
577.6
 20
1806.474431
 11
679.6
 21
1806.474431
  0
LINE
  8
KANAGU
  6
CONTINUOUS
 62
     7
 10
577.6
 20
1858.871917
 11
679.6
 21
1858.871917
  0
LINE
  8
DATA
  6
CONTINUOUS
 62
     7
 10
652.125934
 20
1995.289977
 11
680.993447
 21
2045.289977
  0
ARC
  8
KANAGU
  6
CONTINUOUS
 62
     7
 10
667.595217
 20
1878.176635
 40
5.218218
 50
21.510133
 51
81.683343
  0
ARC
  8
KANAGU
  6
CONTINUOUS
 62
     7
 10
667.595217
 20
1875.003319
 40
5.218218
 50
278.316657
 51
338.489867
  0
LINE
  8
KANAGU
  6
CONTINUOUS
 62
     7
 10
577.6
 20
1806.474431
 11
577.6
 21
1858.871917
  0
LINE
  8
DATA
  6
CONTINUOUS
 62
     7
 10
602.125934
 20
1995.289977
 11
630.993447
 21
2045.289977
  0
LINE
  8
KANAGU
  6
CONTINUOUS
 62
     7
 10
666.75
 20
1868.589977
 11
590.45
 21
1868.589977
  0
LINE
  8
KANAGU
  6
CONTINUOUS
 62
     7
 10
622.1
 20
1884.589977
 11
590.45
 21
1884.589977
  0
ARC
  8
KANAGU
  6
CONTINUOUS
 62
     7
 10
618.95
 20
1992.289977
 40
3.0
 50
0.0
 51
90.0
  0
ARC
  8
KANAGU
  6
CONTINUOUS
 62
     7
 10
628.6
 20
1986.039977
 40
8.25
 50
180.0
 51
218.01228
  0
LINE
  8
KANAGU
  6
CONTINUOUS
 62
     7
 10
619.3
 20
1976.189977
 11
622.1
 21
1976.189977
  0
LINE
  8
KANAGU
  6
CONTINUOUS
 62
     7
 10
619.3
 20
1977.789977
 11
622.1
 21
1977.789977
  0
LINE
  8
DATA
  6
CONTINUOUS
 62
     7
 10
502.125934
 20
1995.289977
 11
530.993447
 21
2045.289977
  0
LINE
  8
DATA
  6
CONTINUOUS
 62
     7
 10
552.125934
 20
1995.289977
 11
580.993447
 21
2045.289977
  0
ARC
  8
KANAGU
  6
CONTINUOUS
 62
     7
 10
589.604783
 20
1878.176635
 40
5.218218
 50
98.316657
 51
158.489867
  0
ARC
  8
KANAGU
  6
CONTINUOUS
 62
     7
 10
589.604783
 20
1875.003319
 40
5.218218
 50
201.510133
 51
261.683343
  0
LINE
  8
KANAGU
  6
CONTINUOUS
 62
     7
 10
592.0
 20
1884.589977
 11
592.0
 21
1868.589977
  0
LINE
  8
KANAGU
  6
CONTINUOUS
 62
     7
 10
590.45
 20
1889.489977
 11
588.85
 21
1889.489977
  0
LINE
  8
KANAGU
  6
CONTINUOUS
 62
     7
 10
584.75
 20
1880.089977
 11
584.75
 21
1873.089977
  0
LINE
  8
KANAGU
  6
CONTINUOUS
 62
     7
 10
588.85
 20
1858.871917
 11
588.85
 21
1889.489977
  0
LINE
  8
KANAGU
  6
CONTINUOUS
 62
     7
 10
590.45
 20
1858.871917
 11
590.45
 21
1889.489977
  0
LINE
  8
KANAGU
  6
CONTINUOUS
 62
     7
 10
620.35
 20
1986.039977
 11
620.35
 21
1992.289977
  0
LINE
  8
KANAGU
  6
CONTINUOUS
 62
     7
 10
589.85
 20
1993.689977
 11
589.85
 21
1995.289977
  0
LINE
  8
KANAGU
  6
CONTINUOUS
 62
     7
 10
618.95
 20
1995.289977
 11
589.85
 21
1995.289977
  0
LINE
  8
KANAGU
  6
CONTINUOUS
 62
     7
 10
618.95
 20
1993.689977
 11
589.85
 21
1993.689977
  0
ARC
  8
KANAGU
  6
CONTINUOUS
 62
     7
 10
618.95
 20
1992.289977
 40
1.4
 50
0.0
 51
90.0
  0
LINE
  8
KANAGU
  6
CONTINUOUS
 62
     7
 10
619.3
 20
1976.189977
 11
619.3
 21
1977.789977
  0
LINE
  8
KANAGU
  6
CONTINUOUS
 62
     7
 10
668.35
 20
1889.489977
 11
666.75
 21
1889.489977
  0
LINE
  8
KANAGU
  6
CONTINUOUS
 62
     7
 10
635.1
 20
1985.889977
 11
635.1
 21
1884.389977
  0
LINE
  8
KANAGU
  6
CONTINUOUS
 62
     7
 10
622.1
 20
1985.889977
 11
622.1
 21
1884.389977
  0
ARC
  8
KANAGU
  6
CONTINUOUS
 62
     7
 10
628.6
 20
1985.889977
 40
6.5
 50
0.0
 51
180.0
  0
LINE
  8
KANAGU
  6
CONTINUOUS
 62
     7
 10
666.75
 20
1884.589977
 11
635.1
 21
1884.589977
  0
LINE
  8
KANAGU
  6
CONTINUOUS
 62
     7
 10
665.2
 20
1884.589977
 11
665.2
 21
1868.589977
  0
LINE
  8
KANAGU
  6
CONTINUOUS
 62
     7
 10
635.1
 20
1884.389977
 11
622.1
 21
1884.389977
  0
LINE
  8
KANAGU
  6
CONTINUOUS
 62
     7
 10
668.35
 20
1889.489977
 11
668.35
 21
1858.871917
  0
LINE
  8
KANAGU
  6
CONTINUOUS
 62
     7
 10
666.75
 20
1858.871917
 11
666.75
 21
1889.489977
  0
LINE
  8
KANAGU
  6
CONTINUOUS
 62
     7
 10
621.95
 20
1986.039977
 11
621.95
 21
1992.289977
  0
ARC
  8
KANAGU
  6
CONTINUOUS
 62
     7
 10
628.6
 20
1986.039977
 40
6.65
 50
180.0
 51
192.192484
  0
LINE
  8
KANAGU
  6
CONTINUOUS
 62
     7
 10
667.35
 20
1995.289977
 11
638.25
 21
1995.289977
  0
LINE
  8
KANAGU
  6
CONTINUOUS
 62
     7
 10
667.35
 20
1993.689977
 11
638.25
 21
1993.689977
  0
LINE
  8
KANAGU
  6
CONTINUOUS
 62
     7
 10
667.35
 20
1995.289977
 11
667.35
 21
1993.689977
  0
LINE
  8
KANAGU
  6
CONTINUOUS
 62
     7
 10
635.25
 20
1986.039977
 11
635.25
 21
1992.289977
  0
LINE
  8
KANAGU
  6
CONTINUOUS
 62
     7
 10
636.85
 20
1986.039977
 11
636.85
 21
1992.289977
  0
ARC
  8
KANAGU
  6
CONTINUOUS
 62
     7
 10
638.25
 20
1992.289977
 40
3.0
 50
90.0
 51
180.0
  0
ARC
  8
KANAGU
  6
CONTINUOUS
 62
     7
 10
638.25
 20
1992.289977
 40
1.4
 50
90.0
 51
180.0
  0
ARC
  8
KANAGU
  6
CONTINUOUS
 62
     7
 10
628.6
 20
1986.039977
 40
8.25
 50
321.98772
 51
0.0
  0
ARC
  8
KANAGU
  6
CONTINUOUS
 62
     7
 10
628.6
 20
1986.039977
 40
6.65
 50
347.807516
 51
0.0
  0
LINE
  8
KANAGU
  6
CONTINUOUS
 62
     7
 10
637.9
 20
1976.189977
 11
637.9
 21
1977.789977
  0
LINE
  8
KANAGU
  6
CONTINUOUS
 62
     7
 10
635.1
 20
1976.189977
 11
637.9
 21
1976.189977
  0
LINE
  8
KANAGU
  6
CONTINUOUS
 62
     7
 10
635.1
 20
1977.789977
 11
637.9
 21
1977.789977
  0
LINE
  8
KANAGU
  6
CONTINUOUS
 62
     7
 10
679.6
 20
1858.871917
 11
679.6
 21
1806.474431
  0
LINE
  8
KANAGU
  6
CONTINUOUS
 62
     7
 10
672.45
 20
1880.089977
 11
672.45
 21
1873.089977
  0
LINE
  8
DATA
  6
CONTINUOUS
 62
     7
 10
577.580204
 20
1803.155389
 11
679.580204
 21
1803.155389
  0
LINE
  8
DATA
  6
CONTINUOUS
 62
     7
 10
612.656204
 20
1788.059372
 11
625.856204
 21
1788.059372
  0
LINE
  8
DATA
  6
CONTINUOUS
 62
     7
 10
590.45
 20
1860.289977
 11
666.75
 21
1860.289977
  0
ARC
  8
DATA
  6
CONTINUOUS
 62
     7
 10
593.729204
 20
1817.109005
 40
11.593677
 50
232.236558
 51
307.763442
  0
ARC
  8
DATA
  6
CONTINUOUS
 62
     7
 10
593.729204
 20
1805.182261
 40
7.618096
 50
21.252599
 51
158.747401
  0
ARC
  8
DATA
  6
CONTINUOUS
 62
     7
 10
593.729204
 20
1860.545563
 40
11.593677
 50
232.236558
 51
307.763442
  0
ARC
  8
DATA
  6
CONTINUOUS
 62
     7
 10
593.729204
 20
1848.618819
 40
7.618096
 50
21.252599
 51
158.747401
  0
LINE
  8
DATA
  6
CONTINUOUS
 62
     7
 10
631.452204
 20
1788.059372
 11
644.652204
 21
1788.059372
  0
ARC
  8
DATA
  6
CONTINUOUS
 62
     7
 10
663.579204
 20
1805.182261
 40
7.618096
 50
21.252599
 51
158.747401
  0
ARC
  8
DATA
  6
CONTINUOUS
 62
     7
 10
663.579204
 20
1817.109005
 40
11.593677
 50
232.236558
 51
307.763442
  0
ARC
  8
DATA
  6
CONTINUOUS
 62
     7
 10
663.579204
 20
1860.545563
 40
11.593677
 50
232.236558
 51
307.763442
  0
ARC
  8
DATA
  6
CONTINUOUS
 62
     7
 10
663.579204
 20
1848.618819
 40
7.618096
 50
21.252599
 51
158.747401
  0
LINE
  8
SIDE35
  6
HIDDEN
 62
     7
 10
867.341299
 20
1759.54158
 11
827.764525
 21
1816.063071
  0
LINE
  8
SIDE35
  6
HIDDEN
 62
     7
 10
818.137901
 20
1805.403059
 11
855.87317
 21
1751.51151
  0
LINE
  8
DATA
  6
CONTINUOUS
 62
     7
 10
814.577867
 20
1854.721957
 11
825.527631
 21
1703.029522
  0
TEXT
  8
SIDE35
  6
CONTINUOUS
 62
     7
 10
895.065796
 20
1462.5
 40
25.0
  1
396.6
  7
TTF_DEFAULT
  0
TEXT
  8
SIDE35
  6
CONTINUOUS
 62
     7
 10
743.697144
 20
1519.032606
 40
25.0
  1
35°
  7
TTF_DEFAULT
  0
ARC
  8
SIDE35
  6
HIDDEN
 62
     7
 10
864.761905
 20
1751.021209
 40
8.5
 50
96.927513
 51
153.072487
  0
LINE
  8
SIDE35
  6
HIDDEN
 62
     7
 10
857.183474
 20
1754.870543
 11
863.73669
 21
1759.459155
  0
LINE
  8
SIDE35
  6
HIDDEN
 62
     7
 10
864.883843
 20
1757.820851
 11
863.73669
 21
1759.459155
  0
LINE
  8
SIDE35
  6
HIDDEN
 62
     7
 10
858.330626
 20
1753.232239
 11
857.183474
 21
1754.870543
  0
LINE
  8
SIDE35
  6
HIDDEN
 62
     7
 10
855.87317
 20
1751.51151
 11
867.341299
 21
1759.54158
  0
LINE
  8
SIDE35
  6
CONTINUOUS
 62
     7
 10
898.425907
 20
1565.792231
 11
916.891083
 21
1574.167642
  0
LINE
  8
SIDE35
  6
CONTINUOUS
 62
     7
 10
902.140193
 20
1560.256442
 11
916.891083
 21
1574.167642
  0
LINE
  8
SIDE35
  6
CONTINUOUS
 62
     7
 10
931.230494
 20
1553.688841
 11
884.351984
 21
1620.638291
  0
LINE
  8
DATA
  6
CONTINUOUS
 62
     7
 10
811.837316
 20
1663.539842
 11
811.837316
 21
1732.539842
  0
LINE
  8
DATA
  6
CONTINUOUS
 62
     7
 10
797.837316
 20
1663.539842
 11
797.837316
 21
1732.539842
  0
LINE
  8
DATA
  6
CONTINUOUS
 62
     7
 10
852.432109
 20
1680.681186
 11
857.2
 21
1638.246958
  0
ARC
  8
DATA
  6
CONTINUOUS
 62
     7
 10
804.837316
 20
1658.039842
 40
8.5
 50
61.927513
 51
118.072487
  0
ARC
  8
DATA
  6
CONTINUOUS
 62
     7
 10
832.2
 20
1620.0
 40
20.0
 50
270.0
 51
347.46412
  0
LINE
  8
DATA
  6
CONTINUOUS
 62
     7
 10
851.723206
 20
1615.658981
 11
857.2
 21
1638.246958
  0
LINE
  8
DATA
  6
CONTINUOUS
 62
     7
 10
800.837316
 20
1665.539842
 11
808.837316
 21
1665.539842
  0
LINE
  8
DATA
  6
CONTINUOUS
 62
     7
 10
808.837316
 20
1663.539842
 11
808.837316
 21
1665.539842
  0
LINE
  8
DATA
  6
CONTINUOUS
 62
     7
 10
800.837316
 20
1663.539842
 11
800.837316
 21
1665.539842
  0
LINE
  8
DATA
  6
CONTINUOUS
 62
     7
 10
797.837316
 20
1663.539842
 11
811.837316
 21
1663.539842
  0
POLYLINE
  8
DATA
  6
CONTINUOUS
 62
     7
 66
     1
  0
VERTEX
  8
DATA
 10
811.837316
 20
1732.539842
 42
0.047772
 70
     2
 50
90.0
  0
VERTEX
  8
DATA
 10
811.254696
 20
1738.623791
 42
0.061498
 70
     2
 50
101.665525
  0
VERTEX
  8
DATA
 10
809.787064
 20
1743.146443
 42
0.102418
 70
     2
 50
115.016893
  0
VERTEX
  8
DATA
 10
807.172093
 20
1746.653123
 42
0.1835
 70
     2
 50
142.778499
  0
VERTEX
  8
DATA
 10
804.837316
 20
1747.539842
 42
0.1835
 70
     2
 50
180.0
  0
VERTEX
  8
DATA
 10
802.50254
 20
1746.653123
 42
0.102418
 70
     2
 50
217.221501
  0
VERTEX
  8
DATA
 10
799.887569
 20
1743.146443
 42
0.061498
 70
     2
 50
244.983107
  0
VERTEX
  8
DATA
 10
798.419937
 20
1738.623791
 42
0.047772
 70
     2
 50
258.334475
  0
VERTEX
  8
DATA
 10
797.837316
 20
1732.539842
 42
0.047772
 70
     2
 50
270.0
  0
SEQEND
  8
DATA
  0
ARC
  8
DATA
  6
CONTINUOUS
 62
     7
 10
827.522441
 20
1703.173515
 40
2.0
 50
184.128677
 51
232.379397
  0
LINE
  8
DATA
  6
CONTINUOUS
 62
     7
 10
826.301581
 20
1701.589375
 11
851.665476
 21
1682.042012
  0
ARC
  8
DATA
  6
CONTINUOUS
 62
     7
 10
850.444616
 20
1680.457872
 40
2.0
 50
6.41084
 51
52.379397
  0
LINE
  8
SIDE35
  6
HIDDEN
 62
     7
 10
856.179035
 20
1985.115947
 11
952.155763
 21
1867.137306
  0
LINE
  8
SIDE35
  6
HIDDEN
 62
     7
 10
963.591664
 20
1826.936811
 11
924.01489
 21
1883.458303
  0
LINE
  8
SIDE35
  6
HIDDEN
 62
     7
 10
952.123536
 20
1818.906741
 11
912.546761
 21
1875.428232
  0
POLYLINE
  8
SIDE35
  6
HIDDEN
 62
     7
 66
     1
  0
VERTEX
  8
SIDE35
 10
827.764525
 20
1816.063071
 42
0.071716
 70
     2
 50
125.0
  0
VERTEX
  8
SIDE35
 10
821.581411
 20
1822.646505
 42
0.122657
 70
     2
 50
143.822808
  0
VERTEX
  8
SIDE35
 10
816.732918
 20
1824.866984
 42
0.267314
 70
     2
 50
169.379045
  0
SEQEND
  8
SIDE35
  0
LINE
  8
DATA
  6
CONTINUOUS
 62
     7
 10
752.125934
 20
1995.289977
 11
780.993447
 21
2045.289977
  0
LINE
  8
DATA
  6
CONTINUOUS
 62
     7
 10
802.125934
 20
1995.289977
 11
830.993447
 21
2045.289977
  0
LINE
  8
DATA
  6
CONTINUOUS
 62
     7
 10
852.125934
 20
1995.289977
 11
880.993447
 21
2045.289977
  0
ARC
  8
SIDE35
  6
HIDDEN
 62
     7
 10
851.524651
 20
1981.329562
 40
6.0
 50
39.128677
 51
125.0
  0
POLYLINE
  8
SIDE35
  6
HIDDEN
 62
     7
 66
     1
  0
VERTEX
  8
SIDE35
 10
924.01489
 20
1883.458303
 42
0.047772
 70
     2
 50
125.0
  0
VERTEX
  8
SIDE35
 10
920.048025
 20
1888.107805
 42
0.061498
 70
     2
 50
136.665525
  0
VERTEX
  8
SIDE35
 10
916.251725
 20
1890.970745
 42
0.102418
 70
     2
 50
150.016893
  0
VERTEX
  8
SIDE35
 10
912.098317
 20
1892.343364
 42
0.1835
 70
     2
 50
177.778499
  0
VERTEX
  8
SIDE35
 10
909.677179
 20
1891.730548
 42
0.1835
 70
     2
 50
215.0
  0
VERTEX
  8
SIDE35
 10
908.273243
 20
1889.665018
 42
0.102418
 70
     2
 50
252.221501
  0
VERTEX
  8
SIDE35
 10
908.142533
 20
1885.292628
 42
0.061498
 70
     2
 50
279.983107
  0
VERTEX
  8
SIDE35
 10
909.534406
 20
1880.746089
 42
0.047772
 70
     2
 50
293.334475
  0
VERTEX
  8
SIDE35
 10
912.546761
 20
1875.428232
 42
0.047772
 70
     2
 50
305.0
  0
SEQEND
  8
SIDE35
  0
LINE
  8
DATA
  6
CONTINUOUS
 62
     7
 10
902.125934
 20
1995.289977
 11
930.993447
 21
2045.289977
  0
ARC
  8
SIDE35
  6
HIDDEN
 62
     7
 10
961.01227
 20
1818.41644
 40
8.5
 50
96.927513
 51
153.072487
  0
LINE
  8
SIDE35
  6
HIDDEN
 62
     7
 10
953.433839
 20
1822.265775
 11
959.987055
 21
1826.854386
  0
LINE
  8
SIDE35
  6
HIDDEN
 62
     7
 10
961.134208
 20
1825.216082
 11
959.987055
 21
1826.854386
  0
LINE
  8
SIDE35
  6
HIDDEN
 62
     7
 10
954.580992
 20
1820.627471
 11
953.433839
 21
1822.265775
  0
LINE
  8
SIDE35
  6
HIDDEN
 62
     7
 10
952.123536
 20
1818.906741
 11
963.591664
 21
1826.936811
  0
ARC
  8
SIDE35
  6
HIDDEN
 62
     7
 10
953.707224
 20
1868.399434
 40
2.0
 50
219.128677
 51
267.379397
  0
LINE
  8
DATA
  6
CONTINUOUS
 62
     7
 10
952.125934
 20
1995.289977
 11
980.993447
 21
2045.289977
  0
ARC
  8
DATA
  6
CONTINUOUS
 62
     7
 10
808.593438
 20
1854.289977
 40
6.0
 50
4.128677
 51
90.0
  0
LINE
  8
DIMENSIONS
  6
CONTINUOUS
 62
     7
 10
1410.289977
 20
550.0
 11
1545.289977
 21
550.0
  0
LINE
  8
KANAGU
  6
CONTINUOUS
 62
     7
 10
1522.389977
 20
982.734204
 11
1437.708682
 21
982.734204
  0
LINE
  8
KANAGU
  6
CONTINUOUS
 62
     7
 10
1522.389977
 20
995.734204
 11
1437.708682
 21
995.734204
  0
LINE
  8
TOP25
  6
HIDDEN
 62
     7
 10
1416.631439
 20
972.041326
 11
1530.661004
 21
727.504135
  0
LINE
  8
TOP25
  6
HIDDEN
 62
     7
 10
1410.289977
 20
827.794651
 11
1530.324984
 21
707.759644
  0
LINE
  8
TOP25
  6
HIDDEN
 62
     7
 10
1410.289977
 20
798.803273
 11
1519.462834
 21
689.630416
  0
ARC
  8
TOP25
  6
HIDDEN
 62
     7
 10
1228.198204
 20
876.460644
 40
346.035574
 50
319.864933
 51
330.673031
  0
LINE
  8
DIMENSIONS
  6
CONTINUOUS
 62
     7
 10
1497.943079
 20
1188.004471
 11
1712.5
 21
1188.004471
  0
TEXT
  8
HIBINO-BASE
  6
CONTINUOUS
 62
     7
 10
1487.5
 20
175.0
 40
25.0
  1
N.Sasaki
  7
TTF_DEFAULT
  0
LINE
  8
HIBINO-BASE
  6
CONTINUOUS
 62
     7
 10
1000.0
 20
250.0
 11
1900.0
 21
250.0
  0
TEXT
  8
HIBINO-BASE
  6
CONTINUOUS
 62
     7
 10
1480.0
 20
225.0
 40
25.0
  1
DRAWN
  7
TTF_DEFAULT
  0
TEXT
  8
DATA
  6
CONTINUOUS
 62
     7
 10
1500.0
 20
331.25
 40
30.0
  1
JBL
  7
TTF_DEFAULT
  0
TEXT
  8
DATA
  6
CONTINUOUS
 62
     7
 10
1500.0
 20
300.0
 40
20.0
  1
8330A & 8340A用
  7
TTF_DEFAULT
  0
TEXT
  8
DATA
  6
CONTINUOUS
 62
     7
 10
1500.0
 20
268.75
 40
30.0
  1
2517取付金具装着外観図
  7
TTF_DEFAULT
  0
LINE
  8
HIBINO-BASE
  6
CONTINUOUS
 62
     7
 10
1000.0
 20
376.5
 11
1900.0
 21
376.5
  0
LINE
  8
HIBINO-BASE
  6
CONTINUOUS
 62
     7
 10
1000.0
 20
373.5
 11
1900.0
 21
373.5
  0
LINE
  8
HIBINO-BASE
  6
CONTINUOUS
 62
     7
 10
1000.0
 20
376.5
 11
1000.0
 21
373.5
  0
LINE
  8
HIBINO-BASE
  6
CONTINUOUS
 62
     7
 10
1900.0
 20
376.5
 11
1900.0
 21
373.5
  0
SOLID
  8
HIBINO-BASE
  6
CONTINUOUS
 62
     7
 10
1000.0
 20
376.5
 11
1900.0
 21
376.5
 12
1000.0
 22
373.5
 13
1900.0
 23
373.5
  0
LINE
  8
TOP25
  6
HIDDEN
 62
     7
 10
1410.289977
 20
735.870769
 11
1492.751752
 21
653.408994
  0
LINE
  8
DIMENSIONS
  6
CONTINUOUS
 62
     7
 10
1150.0
 20
1040.467288
 11
1150.0
 21
537.5
  0
LINE
  8
DIMENSIONS
  6
CONTINUOUS
 62
     7
 10
1410.289977
 20
698.108264
 11
1410.289977
 21
537.5
  0
LINE
  8
TOP25
  6
HIDDEN
 62
     7
 10
1391.884749
 20
683.565319
 11
1435.94304
 21
639.507028
  0
LINE
  8
DIMENSIONS
  6
CONTINUOUS
 62
     7
 10
1000.0
 20
650.0
 11
1000.0
 21
690.0
  0
LINE
  8
DIMENSIONS
  6
CONTINUOUS
 62
     7
 10
1000.0
 20
1103.004471
 11
1000.0
 21
650.0
  0
LINE
  8
DATA
  6
CONTINUOUS
 62
     7
 10
1188.246958
 20
1086.603869
 11
1344.618567
 21
656.976403
  0
LINE
  8
DATA
  6
CONTINUOUS
 62
     7
 10
1151.639099
 20
1040.992915
 11
1287.257164
 21
668.385343
  0
ARC
  8
DATA
  6
CONTINUOUS
 62
     7
 10
1199.117327
 20
970.935011
 40
346.035574
 50
294.864933
 51
305.673031
  0
LINE
  8
DIMENSIONS
  6
CONTINUOUS
 62
     7
 10
1150.0
 20
550.0
 11
1410.289977
 21
550.0
  0
LINE
  8
DIMENSIONS
  6
CONTINUOUS
 62
     7
 10
987.5
 20
631.375187
 11
1445.755534
 21
631.375187
  0
LINE
  8
DIMENSIONS
  6
CONTINUOUS
 62
     7
 10
1303.695227
 20
650.0
 11
987.5
 21
650.0
  0
TEXT
  8
HIBINO-BASE
  6
CONTINUOUS
 62
     7
 10
1230.0
 20
225.0
 40
25.0
  1
DATE
  7
TTF_DEFAULT
  0
TEXT
  8
HIBINO-BASE
  6
CONTINUOUS
 62
     7
 10
1237.5
 20
175.0
 40
25.0
  1
'00.05.
  7
TTF_DEFAULT
  0
LINE
  8
HIBINO-BASE
  6
CONTINUOUS
 62
     7
 10
998.5
 20
150.0
 11
998.5
 21
375.0
  0
LINE
  8
HIBINO-BASE
  6
CONTINUOUS
 62
     7
 10
1001.5
 20
150.0
 11
1001.5
 21
375.0
  0
LINE
  8
HIBINO-BASE
  6
CONTINUOUS
 62
     7
 10
998.5
 20
150.0
 11
1001.5
 21
150.0
  0
LINE
  8
HIBINO-BASE
  6
CONTINUOUS
 62
     7
 10
998.5
 20
375.0
 11
1001.5
 21
375.0
  0
SOLID
  8
HIBINO-BASE
  6
CONTINUOUS
 62
     7
 10
998.5
 20
150.0
 11
998.5
 21
375.0
 12
1001.5
 22
150.0
 13
1001.5
 23
375.0
  0
TEXT
  8
HIBINO-BASE
  6
CONTINUOUS
 62
     7
 10
1037.5
 20
162.5
 40
40.0
  1
A4
  7
TTF_DEFAULT
  0
LINE
  8
HIBINO-BASE
  6
CONTINUOUS
 62
     7
 10
1143.75
 20
162.5
 11
1181.25
 21
200.0
  0
TEXT
  8
HIBINO-BASE
  6
CONTINUOUS
 62
     7
 10
1137.5
 20
181.25
 40
30.0
  1
1
  7
TTF_DEFAULT
  0
TEXT
  8
HIBINO-BASE
  6
CONTINUOUS
 62
     7
 10
1005.0
 20
225.0
 40
22.5
  1
図面サイズ
  7
TTF_DEFAULT
  0
TEXT
  8
HIBINO-BASE
  6
CONTINUOUS
 62
     7
 10
1130.0
 20
225.0
 40
25.0
  1
SCALE
  7
TTF_DEFAULT
  0
LINE
  8
HIBINO-BASE
  6
CONTINUOUS
 62
     7
 10
1225.0
 20
150.0
 11
1225.0
 21
250.0
  0
LINE
  8
HIBINO-BASE
  6
CONTINUOUS
 62
     7
 10
1125.0
 20
150.0
 11
1125.0
 21
250.0
  0
TEXT
  8
HIBINO-BASE
  6
CONTINUOUS
 62
     7
 10
1175.0
 20
162.5
 40
30.0
  1
10
  7
TTF_DEFAULT
  0
LINE
  8
DIMENSIONS
  6
CONTINUOUS
 62
     7
 10
1170.0
 20
546.6668
 11
1150.0
 21
550.0
  0
LINE
  8
DIMENSIONS
  6
CONTINUOUS
 62
     7
 10
1170.0
 20
553.3332
 11
1150.0
 21
550.0
  0
LINE
  8
DIMENSIONS
  6
CONTINUOUS
 62
     7
 10
1000.0
 20
631.375187
 11
1000.0
 21
591.375187
  0
LINE
  8
DIMENSIONS
  6
CONTINUOUS
 62
     7
 10
996.6668
 20
670.0
 11
1000.0
 21
650.0
  0
LINE
  8
DIMENSIONS
  6
CONTINUOUS
 62
     7
 10
1003.3332
 20
670.0
 11
1000.0
 21
650.0
  0
LINE
  8
DIMENSIONS
  6
CONTINUOUS
 62
     7
 10
996.6668
 20
611.375187
 11
1000.0
 21
631.375187
  0
LINE
  8
DIMENSIONS
  6
CONTINUOUS
 62
     7
 10
1003.3332
 20
611.375187
 11
1000.0
 21
631.375187
  0
LINE
  8
DIMENSIONS
  6
CONTINUOUS
 62
     7
 10
996.6668
 20
670.0
 11
1000.0
 21
650.0
  0
LINE
  8
DIMENSIONS
  6
CONTINUOUS
 62
     7
 10
1003.3332
 20
670.0
 11
1000.0
 21
650.0
  0
TEXT
  8
HIBINO-BASE
  6
CONTINUOUS
 62
     7
 10
1005.0
 20
350.0
 40
25.0
  1
NOTE
  7
TTF_DEFAULT
  0
LINE
  8
HIBINO-BASE
  6
CONTINUOUS
 62
     7
 10
1350.0
 20
150.0
 11
1350.0
 21
375.0
  0
TEXT
  8
HIBINO-BASE
  6
CONTINUOUS
 62
     7
 10
1355.0
 20
225.0
 40
25.0
  1
DESIGN
  7
TTF_DEFAULT
  0
LINE
  8
HIBINO-BASE
  6
CONTINUOUS
 62
     7
 10
1475.0
 20
250.0
 11
1475.0
 21
150.0
  0
ARC
  8
TOP25
  6
HIDDEN
 62
     7
 10
1455.755534
 20
659.576783
 40
28.201595
 50
225.369581
 51
308.919826
  0
LINE
  8
DIMENSIONS
  6
CONTINUOUS
 62
     7
 10
1390.289977
 20
546.6668
 11
1410.289977
 21
550.0
  0
LINE
  8
DIMENSIONS
  6
CONTINUOUS
 62
     7
 10
1390.289977
 20
553.3332
 11
1410.289977
 21
550.0
  0
LINE
  8
DIMENSIONS
  6
CONTINUOUS
 62
     7
 10
1430.289977
 20
546.6668
 11
1410.289977
 21
550.0
  0
LINE
  8
DIMENSIONS
  6
CONTINUOUS
 62
     7
 10
1430.289977
 20
553.3332
 11
1410.289977
 21
550.0
  0
LINE
  8
TOP25
  6
HIDDEN
 62
     7
 10
1473.472688
 20
637.635214
 11
1492.751752
 21
653.408994
  0
TEXT
  8
HIBINO-BASE
  6
CONTINUOUS
 62
     7
 10
1355.0
 20
350.0
 40
25.0
  1
TITLE
  7
TTF_DEFAULT
  0
TEXT
  8
DIMENSIONS
  6
CONTINUOUS
 62
     7
 10
1247.312125
 20
562.5
 40
25.0
  1
260.3
  7
TTF_DEFAULT
  0
TEXT
  8
DIMENSIONS
  6
CONTINUOUS
 62
     7
 10
1458.090259
 20
562.5
 40
25.0
  1
135
  7
TTF_DEFAULT
  0
ARC
  8
DATA
  6
CONTINUOUS
 62
     7
 10
1313.695227
 20
678.201595
 40
28.201595
 50
200.369581
 51
283.919826
  0
LINE
  8
DATA
  6
CONTINUOUS
 62
     7
 10
1320.479513
 20
650.828188
 11
1344.618567
 21
656.976403
  0
LINE
  8
DATA
  6
CONTINUOUS
 62
     7
 10
1150.0
 20
1188.004471
 11
1487.943079
 21
1188.004471
  0
LINE
  8
DATA
  6
CENTER
 62
     7
 10
1426.616024
 20
989.189089
 11
1119.721833
 21
877.488738
  0
LINE
  8
TOP25
  6
CENTER
 62
     7
 10
1426.63265
 20
989.204324
 11
1195.698663
 21
758.270337
  0
LINE
  8
TOP-20
  6
CONTINUOUS
 62
     7
 10
1426.589977
 20
989.234204
 11
1100.0
 21
989.234204
  0
LINE
  8
DIMENSIONS
  6
CONTINUOUS
 62
     7
 10
1270.47533
 20
1103.004471
 11
987.5
 21
1103.004471
  0
ARC
  8
TOP-20
  6
HIDDEN
 62
     7
 10
1236.691794
 20
894.78004
 40
267.522267
 50
44.729525
 51
90.166552
  0
LINE
  8
DATA
  6
CONTINUOUS
 62
     7
 10
1218.97154
 20
1188.004471
 11
1247.839053
 21
1238.004471
  0
LINE
  8
DATA
  6
CONTINUOUS
 62
     7
 10
1231.293157
 20
1098.444705
 11
1384.134863
 21
678.515569
  0
ARC
  8
DATA
  6
CONTINUOUS
 62
     7
 10
1280.47533
 20
835.482204
 40
267.522267
 50
64.729525
 51
110.166552
  0
ARC
  8
DATA
  6
CONTINUOUS
 62
     7
 10
1178.201595
 20
1050.467288
 40
28.201595
 50
116.080174
 51
199.630419
  0
LINE
  8
TOP-20
  6
CONTINUOUS
 62
     7
 10
1076.470478
 20
969.336292
 11
1072.5739
 21
989.234204
  0
LINE
  8
TOP-20
  6
CONTINUOUS
 62
     7
 10
1069.806735
 20
969.148064
 11
1072.5739
 21
989.234204
  0
TEXT
  8
TOP-20
  6
CONTINUOUS
 62
     7
 10
1018.935618
 20
915.23391
 40
25.0
  1
20°
  7
TTF_DEFAULT
  0
TEXT
  8
TOP25
  6
CONTINUOUS
 62
     7
 10
1069.112385
 20
773.96603
 40
25.0
  1
25°
  7
TTF_DEFAULT
  0
LINE
  8
TOP-20
  6
CONTINUOUS
 62
     7
 10
1047.5739
 20
989.234204
 11
1090.0
 21
989.234204
  0
LINE
  8
TOP-20
  6
CONTINUOUS
 62
     7
 10
1090.788826
 20
888.132901
 11
1093.932728
 21
868.102272
  0
LINE
  8
TOP-20
  6
CONTINUOUS
 62
     7
 10
1084.462579
 20
886.030643
 11
1093.932728
 21
868.102272
  0
ARC
  8
TOP-20
  6
CONTINUOUS
 62
     7
 10
1426.739977
 20
989.234204
 40
354.166077
 50
180.0
 51
200.0
  0
LINE
  8
TOP25
  6
CONTINUOUS
 62
     7
 10
1070.440091
 20
859.551651
 11
1110.324907
 21
874.068537
  0
LINE
  8
TOP25
  6
CONTINUOUS
 62
     7
 10
1104.399658
 20
850.73705
 11
1093.932406
 21
868.102155
  0
LINE
  8
TOP25
  6
CONTINUOUS
 62
     7
 10
1098.202191
 20
848.280975
 11
1093.932406
 21
868.102155
  0
LINE
  8
TOP-20
  6
CONTINUOUS
 62
     7
 10
1070.440412
 20
859.551768
 11
1110.324907
 21
874.068537
  0
LINE
  8
TOP25
  6
CONTINUOUS
 62
     7
 10
1164.961883
 20
755.673398
 11
1176.276362
 21
738.848036
  0
LINE
  8
TOP25
  6
CONTINUOUS
 62
     7
 10
1160.116762
 20
751.094568
 11
1176.276362
 21
738.848036
  0
LINE
  8
TOP25
  6
CONTINUOUS
 62
     7
 10
1158.598692
 20
721.170366
 11
1188.627595
 21
751.199269
  0
ARC
  8
TOP25
  6
CONTINUOUS
 62
     7
 10
1426.618211
 20
989.189885
 40
354.036839
 50
200.0
 51
225.0
  0
ARC
  8
TOP-20
  6
HIDDEN
 62
     7
 10
1214.11515
 20
1131.779614
 40
28.201595
 50
96.080174
 51
179.630419
  0
LINE
  8
DATA
  6
CONTINUOUS
 62
     7
 10
1168.97154
 20
1188.004471
 11
1197.839053
 21
1238.004471
  0
LINE
  8
DIMENSIONS
  6
CONTINUOUS
 62
     7
 10
987.5
 20
1162.302307
 11
1226.691794
 21
1162.302307
  0
LINE
  8
TOP-20
  6
HIDDEN
 62
     7
 10
1185.914141
 20
1085.734766
 11
1185.914141
 21
1131.961525
  0
LINE
  8
DIMENSIONS
  6
CONTINUOUS
 62
     7
 10
1000.0
 20
1103.004471
 11
1000.0
 21
1162.302307
  0
LINE
  8
DIMENSIONS
  6
CONTINUOUS
 62
     7
 10
1003.3332
 20
1123.004471
 11
1000.0
 21
1103.004471
  0
LINE
  8
DIMENSIONS
  6
CONTINUOUS
 62
     7
 10
996.6668
 20
1123.004471
 11
1000.0
 21
1103.004471
  0
LINE
  8
DIMENSIONS
  6
CONTINUOUS
 62
     7
 10
1003.3332
 20
1142.302307
 11
1000.0
 21
1162.302307
  0
LINE
  8
DIMENSIONS
  6
CONTINUOUS
 62
     7
 10
996.6668
 20
1142.302307
 11
1000.0
 21
1162.302307
  0
LINE
  8
DIMENSIONS
  6
CONTINUOUS
 62
     7
 10
996.6668
 20
1083.004471
 11
1000.0
 21
1103.004471
  0
LINE
  8
DIMENSIONS
  6
CONTINUOUS
 62
     7
 10
1003.3332
 20
1083.004471
 11
1000.0
 21
1103.004471
  0
LINE
  8
TOP-20
  6
HIDDEN
 62
     7
 10
1211.128037
 20
1159.822566
 11
1235.914141
 21
1162.301176
  0
LINE
  8
TOP-20
  6
HIDDEN
 62
     7
 10
1235.914141
 20
1099.267086
 11
1235.914141
 21
1162.301176
  0
LINE
  8
DATA
  6
CONTINUOUS
 62
     7
 10
1165.803373
 20
1075.79739
 11
1188.246958
 21
1086.603869
  0
LINE
  8
TOP-20
  6
HIDDEN
 62
     7
 10
1410.289977
 20
992.184491
 11
1431.453383
 21
1050.330471
  0
LINE
  8
KANAGU
  6
HIDDEN
 62
     7
 10
1386.5209
 20
988.21852
 11
1356.474431
 21
1070.770516
  0
LINE
  8
DATA
  6
CONTINUOUS
 62
     7
 10
1252.002252
 20
1101.484924
 11
1401.641057
 21
690.355686
  0
LINE
  8
DATA
  6
CONTINUOUS
 62
     7
 10
1410.289977
 20
1048.264183
 11
1410.289977
 21
708.108264
  0
LINE
  8
DATA
  6
CONTINUOUS
 62
     7
 10
1353.155389
 20
1071.069007
 11
1407.365581
 21
922.127727
  0
ARC
  8
KANAGU
  6
HIDDEN
 62
     7
 10
1410.813676
 20
976.734571
 40
3.1
 50
99.72591
 51
260.27409
  0
LINE
  8
KANAGU
  6
HIDDEN
 62
     7
 10
1385.017392
 20
987.671287
 11
1410.289977
 21
996.869756
  0
LINE
  8
KANAGU
  6
HIDDEN
 62
     7
 10
1385.375133
 20
991.36649
 11
1383.871625
 21
990.819258
  0
LINE
  8
KANAGU
  6
HIDDEN
 62
     7
 10
1396.388181
 20
961.108387
 11
1394.884673
 21
960.561155
  0
LINE
  8
KANAGU
  6
HIDDEN
 62
     7
 10
1408.871917
 20
926.809607
 11
1395.242414
 21
964.256358
  0
LINE
  8
KANAGU
  6
HIDDEN
 62
     7
 10
1408.871917
 20
926.809607
 11
1407.368409
 21
926.262375
  0
ARC
  8
KANAGU
  6
CONTINUOUS
 62
     7
 10
1410.813676
 20
976.734571
 40
3.1
 50
260.27409
 51
99.72591
  0
LINE
  8
KANAGU
  6
HIDDEN
 62
     7
 10
1393.738906
 20
963.709126
 11
1410.289977
 21
969.733223
  0
ARC
  8
KANAGU
  6
CONTINUOUS
 62
     7
 10
1426.730931
 20
989.285507
 40
12.75
 50
290.0
 51
110.0
  0
CIRCLE
  8
KANAGU
  6
CONTINUOUS
 62
     7
 10
1426.589977
 20
989.234204
 40
6.75
  0
LINE
  8
KANAGU
  6
CONTINUOUS
 62
     7
 10
1428.261225
 20
991.22592
 11
1429.150477
 21
988.782719
  0
LINE
  8
KANAGU
  6
CONTINUOUS
 62
     7
 10
1429.150477
 20
988.782719
 11
1427.479229
 21
986.791003
  0
LINE
  8
KANAGU
  6
CONTINUOUS
 62
     7
 10
1427.479229
 20
986.791003
 11
1424.918729
 21
987.242489
  0
LINE
  8
KANAGU
  6
CONTINUOUS
 62
     7
 10
1424.918729
 20
987.242489
 11
1424.029477
 21
989.685689
  0
LINE
  8
KANAGU
  6
CONTINUOUS
 62
     7
 10
1424.029477
 20
989.685689
 11
1425.700724
 21
991.677405
  0
LINE
  8
KANAGU
  6
CONTINUOUS
 62
     7
 10
1425.700724
 20
991.677405
 11
1428.261225
 21
991.22592
  0
CIRCLE
  8
KANAGU
  6
CONTINUOUS
 62
     7
 10
1426.589977
 20
989.234204
 40
3.5
  0
LINE
  8
KANAGU
  6
CONTINUOUS
 62
     7
 10
1410.289977
 20
996.869756
 11
1422.370174
 21
1001.266588
  0
LINE
  8
KANAGU
  6
CONTINUOUS
 62
     7
 10
1410.289977
 20
969.733223
 11
1431.091687
 21
977.304426
  0
POLYLINE
  8
TOP25
  6
HIDDEN
 62
     7
 66
     1
 70
     1
  0
VERTEX
  8
TOP25
 10
1489.115393
 20
734.473546
 42
0.135076
 70
     2
 50
225.0
  0
VERTEX
  8
TOP25
 10
1488.372954
 20
733.16739
 42
0.106889
 70
     2
 50
254.220826
  0
VERTEX
  8
TOP25
 10
1488.306257
 20
731.282682
 42
0.081996
 70
     2
 50
280.175511
  0
VERTEX
  8
TOP25
 10
1488.967829
 20
729.419693
 42
0.070252
 70
     2
 50
298.296023
  0
VERTEX
  8
TOP25
 10
1490.35283
 20
727.579255
 42
0.070252
 70
     2
 50
315.0
  0
VERTEX
  8
TOP25
 10
1492.193268
 20
726.194254
 42
0.081996
 70
     2
 50
331.703977
  0
VERTEX
  8
TOP25
 10
1494.056257
 20
725.532682
 42
0.106889
 70
     2
 50
349.824489
  0
VERTEX
  8
TOP25
 10
1495.940965
 20
725.599379
 42
0.135076
 70
     2
 50
15.779174
  0
VERTEX
  8
TOP25
 10
1497.247121
 20
726.341818
 42
0.135076
 70
     2
 50
45.0
  0
VERTEX
  8
TOP25
 10
1497.989559
 20
727.647974
 42
0.106889
 70
     2
 50
74.220826
  0
VERTEX
  8
TOP25
 10
1498.056257
 20
729.532682
 42
0.081996
 70
     2
 50
100.175511
  0
VERTEX
  8
TOP25
 10
1497.394685
 20
731.39567
 42
0.070252
 70
     2
 50
118.296023
  0
VERTEX
  8
TOP25
 10
1496.009684
 20
733.236109
 42
0.070252
 70
     2
 50
135.0
  0
VERTEX
  8
TOP25
 10
1494.169245
 20
734.62111
 42
0.081996
 70
     2
 50
151.703977
  0
VERTEX
  8
TOP25
 10
1492.306257
 20
735.282682
 42
0.106889
 70
     2
 50
169.824489
  0
VERTEX
  8
TOP25
 10
1490.421549
 20
735.215984
 42
0.135076
 70
     2
 50
195.779174
  0
SEQEND
  8
TOP25
  0
POLYLINE
  8
DATA
  6
CONTINUOUS
 62
     7
 66
     1
 70
     1
  0
VERTEX
  8
DATA
 10
1295.207533
 20
952.810395
 42
0.135076
 70
     2
 50
200.0
  0
VERTEX
  8
DATA
 10
1293.982649
 20
951.940384
 42
0.106889
 70
     2
 50
229.220826
  0
VERTEX
  8
DATA
 10
1293.125689
 20
950.260446
 42
0.081996
 70
     2
 50
255.175511
  0
VERTEX
  8
DATA
 10
1292.937944
 20
948.292413
 42
0.070252
 70
     2
 50
273.296023
  0
VERTEX
  8
DATA
 10
1293.415378
 20
946.039082
 42
0.070252
 70
     2
 50
290.0
  0
VERTEX
  8
DATA
 10
1294.498055
 20
944.006042
 42
0.081996
 70
     2
 50
306.703977
  0
VERTEX
  8
DATA
 10
1295.906904
 20
942.619121
 42
0.106889
 70
     2
 50
324.824489
  0
VERTEX
  8
DATA
 10
1297.643217
 20
941.883058
 42
0.135076
 70
     2
 50
350.779174
  0
VERTEX
  8
DATA
 10
1299.140764
 20
942.00393
 42
0.135076
 70
     2
 50
20.0
  0
VERTEX
  8
DATA
 10
1300.365648
 20
942.873942
 42
0.106889
 70
     2
 50
49.220826
  0
VERTEX
  8
DATA
 10
1301.222608
 20
944.553879
 42
0.081996
 70
     2
 50
75.175511
  0
VERTEX
  8
DATA
 10
1301.410353
 20
946.521913
 42
0.070252
 70
     2
 50
93.296023
  0
VERTEX
  8
DATA
 10
1300.932919
 20
948.775243
 42
0.070252
 70
     2
 50
110.0
  0
VERTEX
  8
DATA
 10
1299.850242
 20
950.808283
 42
0.081996
 70
     2
 50
126.703977
  0
VERTEX
  8
DATA
 10
1298.441393
 20
952.195204
 42
0.106889
 70
     2
 50
144.824489
  0
VERTEX
  8
DATA
 10
1296.70508
 20
952.931268
 42
0.135076
 70
     2
 50
170.779174
  0
SEQEND
  8
DATA
  0
ARC
  8
DATA
  6
CONTINUOUS
 62
     7
 10
1396.257562
 20
936.70785
 40
8.951429
 50
327.517301
 51
72.482699
  0
ARC
  8
DATA
  6
CONTINUOUS
 62
     7
 10
1387.789977
 20
708.108264
 40
22.5
 50
305.673031
 51
0.0
  0
POLYLINE
  8
DATA
  6
CONTINUOUS
 62
     7
 66
     1
 70
     1
  0
VERTEX
  8
DATA
 10
1375.582266
 20
731.982629
 42
0.135076
 70
     2
 50
200.0
  0
VERTEX
  8
DATA
 10
1374.357383
 20
731.112618
 42
0.106889
 70
     2
 50
229.220826
  0
VERTEX
  8
DATA
 10
1373.500423
 20
729.43268
 42
0.081996
 70
     2
 50
255.175511
  0
VERTEX
  8
DATA
 10
1373.312678
 20
727.464647
 42
0.070252
 70
     2
 50
273.296023
  0
VERTEX
  8
DATA
 10
1373.790112
 20
725.211316
 42
0.070252
 70
     2
 50
290.0
  0
VERTEX
  8
DATA
 10
1374.872789
 20
723.178276
 42
0.081996
 70
     2
 50
306.703977
  0
VERTEX
  8
DATA
 10
1376.281637
 20
721.791355
 42
0.106889
 70
     2
 50
324.824489
  0
VERTEX
  8
DATA
 10
1378.01795
 20
721.055292
 42
0.135076
 70
     2
 50
350.779174
  0
VERTEX
  8
DATA
 10
1379.515498
 20
721.176164
 42
0.135076
 70
     2
 50
20.0
  0
VERTEX
  8
DATA
 10
1380.740381
 20
722.046176
 42
0.106889
 70
     2
 50
49.220826
  0
VERTEX
  8
DATA
 10
1381.597342
 20
723.726114
 42
0.081996
 70
     2
 50
75.175511
  0
VERTEX
  8
DATA
 10
1381.785087
 20
725.694147
 42
0.070252
 70
     2
 50
93.296023
  0
VERTEX
  8
DATA
 10
1381.307653
 20
727.947477
 42
0.070252
 70
     2
 50
110.0
  0
VERTEX
  8
DATA
 10
1380.224975
 20
729.980518
 42
0.081996
 70
     2
 50
126.703977
  0
VERTEX
  8
DATA
 10
1378.816127
 20
731.367438
 42
0.106889
 70
     2
 50
144.824489
  0
VERTEX
  8
DATA
 10
1377.079814
 20
732.103502
 42
0.135076
 70
     2
 50
170.779174
  0
SEQEND
  8
DATA
  0
POLYLINE
  8
DATA
  6
CONTINUOUS
 62
     7
 66
     1
 70
     1
  0
VERTEX
  8
DATA
 10
1335.3949
 20
842.396512
 42
0.135076
 70
     2
 50
200.0
  0
VERTEX
  8
DATA
 10
1334.170016
 20
841.526501
 42
0.106889
 70
     2
 50
229.220826
  0
VERTEX
  8
DATA
 10
1333.313056
 20
839.846563
 42
0.081996
 70
     2
 50
255.175511
  0
VERTEX
  8
DATA
 10
1333.125311
 20
837.87853
 42
0.070252
 70
     2
 50
273.296023
  0
VERTEX
  8
DATA
 10
1333.602745
 20
835.625199
 42
0.070252
 70
     2
 50
290.0
  0
VERTEX
  8
DATA
 10
1334.685422
 20
833.592159
 42
0.081996
 70
     2
 50
306.703977
  0
VERTEX
  8
DATA
 10
1336.094271
 20
832.205238
 42
0.106889
 70
     2
 50
324.824489
  0
VERTEX
  8
DATA
 10
1337.830584
 20
831.469175
 42
0.135076
 70
     2
 50
350.779174
  0
VERTEX
  8
DATA
 10
1339.328131
 20
831.590047
 42
0.135076
 70
     2
 50
20.0
  0
VERTEX
  8
DATA
 10
1340.553014
 20
832.460059
 42
0.106889
 70
     2
 50
49.220826
  0
VERTEX
  8
DATA
 10
1341.409975
 20
834.139996
 42
0.081996
 70
     2
 50
75.175511
  0
VERTEX
  8
DATA
 10
1341.59772
 20
836.10803
 42
0.070252
 70
     2
 50
93.296023
  0
VERTEX
  8
DATA
 10
1341.120286
 20
838.36136
 42
0.070252
 70
     2
 50
110.0
  0
VERTEX
  8
DATA
 10
1340.037609
 20
840.394401
 42
0.081996
 70
     2
 50
126.703977
  0
VERTEX
  8
DATA
 10
1338.62876
 20
841.781321
 42
0.106889
 70
     2
 50
144.824489
  0
VERTEX
  8
DATA
 10
1336.892447
 20
842.517385
 42
0.135076
 70
     2
 50
170.779174
  0
SEQEND
  8
DATA
  0
LINE
  8
DATA
  6
CONTINUOUS
 62
     7
 10
1407.365581
 20
922.127727
 11
1410.289977
 21
923.19212
  0
LINE
  8
DATA
  6
CONTINUOUS
 62
     7
 10
1268.97154
 20
1188.004471
 11
1297.839053
 21
1238.004471
  0
POLYLINE
  8
TOP-20
  6
HIDDEN
 62
     7
 66
     1
 70
     1
  0
VERTEX
  8
TOP-20
 10
1290.664141
 20
1117.493765
 42
0.135076
 70
     2
 50
180.0
  0
VERTEX
  8
TOP-20
 10
1289.215566
 20
1117.095157
 42
0.106889
 70
     2
 50
209.220826
  0
VERTEX
  8
TOP-20
 10
1287.835714
 20
1115.809629
 42
0.081996
 70
     2
 50
235.175511
  0
VERTEX
  8
TOP-20
 10
1286.986184
 20
1114.024495
 42
0.070252
 70
     2
 50
253.296023
  0
VERTEX
  8
TOP-20
 10
1286.664141
 20
1111.743765
 42
0.070252
 70
     2
 50
270.0
  0
VERTEX
  8
TOP-20
 10
1286.986184
 20
1109.463035
 42
0.081996
 70
     2
 50
286.703977
  0
VERTEX
  8
TOP-20
 10
1287.835714
 20
1107.677901
 42
0.106889
 70
     2
 50
304.824489
  0
VERTEX
  8
TOP-20
 10
1289.215566
 20
1106.392374
 42
0.135076
 70
     2
 50
330.779174
  0
VERTEX
  8
TOP-20
 10
1290.664141
 20
1105.993765
 42
0.135076
 70
     2
 50
0.0
  0
VERTEX
  8
TOP-20
 10
1292.112716
 20
1106.392374
 42
0.106889
 70
     2
 50
29.220826
  0
VERTEX
  8
TOP-20
 10
1293.492568
 20
1107.677901
 42
0.081996
 70
     2
 50
55.175511
  0
VERTEX
  8
TOP-20
 10
1294.342098
 20
1109.463035
 42
0.070252
 70
     2
 50
73.296023
  0
VERTEX
  8
TOP-20
 10
1294.664141
 20
1111.743765
 42
0.070252
 70
     2
 50
90.0
  0
VERTEX
  8
TOP-20
 10
1294.342098
 20
1114.024495
 42
0.081996
 70
     2
 50
106.703977
  0
VERTEX
  8
TOP-20
 10
1293.492568
 20
1115.809629
 42
0.106889
 70
     2
 50
124.824489
  0
VERTEX
  8
TOP-20
 10
1292.112716
 20
1117.095157
 42
0.135076
 70
     2
 50
150.779174
  0
SEQEND
  8
TOP-20
  0
LINE
  8
TOP-20
  6
HIDDEN
 62
     7
 10
1280.414141
 20
1103.004464
 11
1280.414141
 21
1158.705256
  0
LINE
  8
TOP-20
  6
HIDDEN
 62
     7
 10
1300.914141
 20
1102.222561
 11
1300.914141
 21
1154.479199
  0
LINE
  8
DATA
  6
CONTINUOUS
 62
     7
 10
1318.97154
 20
1188.004471
 11
1347.839053
 21
1238.004471
  0
LINE
  8
DATA
  6
CONTINUOUS
 62
     7
 10
1368.97154
 20
1188.004471
 11
1397.839053
 21
1238.004471
  0
ARC
  8
TOP-20
  6
HIDDEN
 62
     7
 10
1398.564141
 20
1062.301176
 40
35.0
 50
340.0
 51
36.361187
  0
LINE
  8
DATA
  6
CONTINUOUS
 62
     7
 10
1418.97154
 20
1188.004471
 11
1447.839053
 21
1238.004471
  0
LINE
  8
KANAGU
  6
HIDDEN
 62
     7
 10
1356.474431
 20
1070.770516
 11
1354.970923
 21
1070.223284
  0
LINE
  8
DATA
  6
CONTINUOUS
 62
     7
 10
1468.97154
 20
1188.004471
 11
1497.839053
 21
1238.004471
  0
POLYLINE
  8
DATA
  6
CONTINUOUS
 62
     7
 66
     1
 70
     1
  0
VERTEX
  8
DATA
 10
1255.020166
 20
1063.224278
 42
0.135076
 70
     2
 50
200.0
  0
VERTEX
  8
DATA
 10
1253.795283
 20
1062.354267
 42
0.106889
 70
     2
 50
229.220826
  0
VERTEX
  8
DATA
 10
1252.938322
 20
1060.674329
 42
0.081996
 70
     2
 50
255.175511
  0
VERTEX
  8
DATA
 10
1252.750577
 20
1058.706296
 42
0.070252
 70
     2
 50
273.296023
  0
VERTEX
  8
DATA
 10
1253.228011
 20
1056.452965
 42
0.070252
 70
     2
 50
290.0
  0
VERTEX
  8
DATA
 10
1254.310688
 20
1054.419925
 42
0.081996
 70
     2
 50
306.703977
  0
VERTEX
  8
DATA
 10
1255.719537
 20
1053.033004
 42
0.106889
 70
     2
 50
324.824489
  0
VERTEX
  8
DATA
 10
1257.45585
 20
1052.296941
 42
0.135076
 70
     2
 50
350.779174
  0
VERTEX
  8
DATA
 10
1258.953397
 20
1052.417813
 42
0.135076
 70
     2
 50
20.0
  0
VERTEX
  8
DATA
 10
1260.178281
 20
1053.287825
 42
0.106889
 70
     2
 50
49.220826
  0
VERTEX
  8
DATA
 10
1261.035241
 20
1054.967762
 42
0.081996
 70
     2
 50
75.175511
  0
VERTEX
  8
DATA
 10
1261.222986
 20
1056.935796
 42
0.070252
 70
     2
 50
93.296023
  0
VERTEX
  8
DATA
 10
1260.745552
 20
1059.189126
 42
0.070252
 70
     2
 50
110.0
  0
VERTEX
  8
DATA
 10
1259.662875
 20
1061.222166
 42
0.081996
 70
     2
 50
126.703977
  0
VERTEX
  8
DATA
 10
1258.254026
 20
1062.609087
 42
0.106889
 70
     2
 50
144.824489
  0
VERTEX
  8
DATA
 10
1256.517713
 20
1063.345151
 42
0.135076
 70
     2
 50
170.779174
  0
SEQEND
  8
DATA
  0
LINE
  8
DATA
  6
CONTINUOUS
 62
     7
 10
1315.559372
 20
1099.806201
 11
1329.193227
 21
1062.347494
  0
LINE
  8
DATA
  6
CONTINUOUS
 62
     7
 10
1329.193227
 20
1062.347494
 11
1353.155389
 21
1071.069007
  0
ARC
  8
DATA
  6
CONTINUOUS
 62
     7
 10
1352.821003
 20
1056.048812
 40
8.951429
 50
327.517301
 51
72.482699
  0
LINE
  8
DATA
  6
CONTINUOUS
 62
     7
 10
1325.306984
 20
1087.643879
 11
1330.50569
 21
1073.360551
  0
LINE
  8
DATA
  6
CONTINUOUS
 62
     7
 10
1325.807227
 20
1071.650451
 11
1330.50569
 21
1073.360551
  0
LINE
  8
DATA
  6
CONTINUOUS
 62
     7
 10
1320.608521
 20
1085.933779
 11
1325.306984
 21
1087.643879
  0
LINE
  8
DATA
  6
CONTINUOUS
 62
     7
 10
1342.093625
 20
1092.689539
 11
1346.608291
 21
1080.285597
  0
LINE
  8
DATA
  6
CONTINUOUS
 62
     7
 10
1346.608291
 20
1080.285597
 11
1337.681211
 21
1077.036405
  0
LINE
  8
DATA
  6
CONTINUOUS
 62
     7
 10
1333.166545
 20
1089.440348
 11
1342.093625
 21
1092.689539
  0
LINE
  8
DATA
  6
CONTINUOUS
 62
     7
 10
1336.552545
 20
1080.137391
 11
1345.479625
 21
1083.386582
  0
LINE
  8
DATA
  6
CONTINUOUS
 62
     7
 10
1334.295212
 20
1086.339362
 11
1343.222292
 21
1089.588554
  0
LINE
  8
DATA
  6
CONTINUOUS
 62
     7
 10
1330.446179
 20
1073.524058
 11
1337.96372
 21
1076.260219
  0
LINE
  8
DATA
  6
CONTINUOUS
 62
     7
 10
1332.884037
 20
1090.216534
 11
1337.96372
 21
1076.260219
  0
LINE
  8
DATA
  6
CONTINUOUS
 62
     7
 10
1325.315877
 20
1087.619447
 11
1332.833418
 21
1090.355608
  0
ARC
  8
DATA
  6
CONTINUOUS
 62
     7
 10
1375.289977
 20
1048.264183
 40
35.0
 50
0.0
 51
56.361187
  0
LINE
  8
DIMENSIONS
  6
CONTINUOUS
 62
     7
 10
1545.289977
 20
854.584204
 11
1545.289977
 21
537.5
  0
TEXT
  8
HIBINO-BASE
  6
CONTINUOUS
 62
     7
 10
1730.0
 20
225.0
 40
25.0
  1
DRAWING NO.
  7
TTF_DEFAULT
  0
TEXT
  8
HIBINO-BASE
  6
CONTINUOUS
 62
     7
 10
1562.300263
 20
85.9132
 40
40.0
  1
ヒビノ株式会社
  7
TTF_DEFAULT
  0
TEXT
  8
HIBINO-BASE
  6
CONTINUOUS
 62
     7
 10
1605.0
 20
225.0
 40
25.0
  1
CHECK
  7
TTF_DEFAULT
  0
LINE
  8
HIBINO-BASE
  6
CONTINUOUS
 62
     7
 10
1725.0
 20
250.0
 11
1725.0
 21
150.0
  0
LINE
  8
HIBINO-BASE
  6
CONTINUOUS
 62
     7
 10
1600.0
 20
150.0
 11
1600.0
 21
250.0
  0
LINE
  8
DIMENSIONS
  6
CONTINUOUS
 62
     7
 10
1525.289977
 20
546.6668
 11
1545.289977
 21
550.0
  0
LINE
  8
DIMENSIONS
  6
CONTINUOUS
 62
     7
 10
1525.289977
 20
553.3332
 11
1545.289977
 21
550.0
  0
LINE
  8
DATA
  6
CONTINUOUS
 62
     7
 10
1545.289977
 20
1100.0
 11
1545.289977
 21
762.056921
  0
LINE
  8
DIMENSIONS
  6
CONTINUOUS
 62
     7
 10
1700.0
 20
1188.004471
 11
1700.0
 21
960.084204
  0
TEXT
  8
DIMENSIONS
  6
CONTINUOUS
 62
     7
 10
1750.0
 20
975.0
 40
25.0
  1
227.9(取付穴最小寸法)
 50
90.0
  7
TTF_DEFAULT
  0
ARC
  8
DATA
  6
CONTINUOUS
 62
     7
 10
1548.015691
 20
960.084204
 40
4.475714
 50
127.517301
 51
232.482699
  0
ARC
  8
DATA
  6
CONTINUOUS
 62
     7
 10
1548.015691
 20
871.084204
 40
4.475714
 50
127.517301
 51
232.482699
  0
LINE
  8
KANAGU
  6
CONTINUOUS
 62
     7
 10
1519.989977
 20
939.584204
 11
1519.989977
 21
948.884204
  0
LINE
  8
KANAGU
  6
CONTINUOUS
 62
     7
 10
1519.989977
 20
948.884204
 11
1526.189977
 21
948.884204
  0
LINE
  8
KANAGU
  6
CONTINUOUS
 62
     7
 10
1519.989977
 20
939.584204
 11
1526.189977
 21
939.584204
  0
LINE
  8
KANAGU
  6
CONTINUOUS
 62
     7
 10
1545.289977
 20
966.584204
 11
1545.289977
 21
864.584204
  0
LINE
  8
KANAGU
  6
CONTINUOUS
 62
     7
 10
1543.689977
 20
966.584204
 11
1543.689977
 21
864.584204
  0
LINE
  8
KANAGU
  6
CONTINUOUS
 62
     7
 10
1527.789977
 20
873.784204
 11
1527.789977
 21
966.584204
  0
LINE
  8
KANAGU
  6
CONTINUOUS
 62
     7
 10
1526.189977
 20
934.934204
 11
1526.189977
 21
953.534204
  0
LINE
  8
KANAGU
  6
CONTINUOUS
 62
     7
 10
1527.789977
 20
864.584204
 11
1527.789977
 21
867.984204
  0
LINE
  8
KANAGU
  6
CONTINUOUS
 62
     7
 10
1527.789977
 20
864.584204
 11
1545.289977
 21
864.584204
  0
ARC
  8
KANAGU
  6
CONTINUOUS
 62
     7
 10
1525.205361
 20
870.884204
 40
3.884615
 50
311.708916
 51
48.291084
  0
LINE
  8
KANAGU
  6
CONTINUOUS
 62
     7
 10
1529.389977
 20
941.084204
 11
1529.389977
 21
947.384204
  0
ARC
  8
KANAGU
  6
CONTINUOUS
 62
     7
 10
1535.639977
 20
944.234204
 40
3.15
 50
270.0
 51
90.0
  0
LINE
  8
KANAGU
  6
CONTINUOUS
 62
     7
 10
1535.639977
 20
947.384204
 11
1527.789977
 21
947.384204
  0
LINE
  8
KANAGU
  6
CONTINUOUS
 62
     7
 10
1535.639977
 20
941.084204
 11
1527.789977
 21
941.084204
  0
LINE
  8
KANAGU
  6
CONTINUOUS
 62
     7
 10
1526.189977
 20
934.934204
 11
1527.789977
 21
934.934204
  0
ARC
  8
KANAGU
  6
CONTINUOUS
 62
     7
 10
1522.389977
 20
975.734204
 40
7.0
 50
0.0
 51
90.0
  0
ARC
  8
KANAGU
  6
CONTINUOUS
 62
     7
 10
1522.389977
 20
975.734204
 40
20.0
 50
0.0
 51
90.0
  0
LINE
  8
KANAGU
  6
CONTINUOUS
 62
     7
 10
1542.389977
 20
966.584204
 11
1542.389977
 21
975.734204
  0
LINE
  8
KANAGU
  6
CONTINUOUS
 62
     7
 10
1529.389977
 20
966.584204
 11
1529.389977
 21
975.734204
  0
LINE
  8
KANAGU
  6
CONTINUOUS
 62
     7
 10
1545.289977
 20
966.584204
 11
1527.789977
 21
966.584204
  0
LINE
  8
KANAGU
  6
CONTINUOUS
 62
     7
 10
1526.189977
 20
953.534204
 11
1527.789977
 21
953.534204
  0
ARC
  8
TOP25
  6
HIDDEN
 62
     7
 10
1510.269079
 20
717.995224
 40
22.5
 50
330.673031
 51
25.0
  0
LINE
  8
DATA
  6
CONTINUOUS
 62
     7
 10
1545.289977
 20
781.02846
 11
1595.289977
 21
752.160947
  0
LINE
  8
DATA
  6
CONTINUOUS
 62
     7
 10
1545.289977
 20
831.02846
 11
1595.289977
 21
802.160947
  0
LINE
  8
DATA
  6
CONTINUOUS
 62
     7
 10
1545.289977
 20
1031.02846
 11
1595.289977
 21
1002.160947
  0
LINE
  8
DATA
  6
CONTINUOUS
 62
     7
 10
1545.289977
 20
981.02846
 11
1595.289977
 21
952.160947
  0
LINE
  8
DATA
  6
CONTINUOUS
 62
     7
 10
1545.289977
 20
931.02846
 11
1595.289977
 21
902.160947
  0
LINE
  8
DATA
  6
CONTINUOUS
 62
     7
 10
1545.289977
 20
881.02846
 11
1595.289977
 21
852.160947
  0
LINE
  8
DIMENSIONS
  6
CONTINUOUS
 62
     7
 10
1700.0
 20
960.084204
 11
1700.0
 21
871.084204
  0
LINE
  8
DIMENSIONS
  6
CONTINUOUS
 62
     7
 10
1555.289977
 20
871.084204
 11
1712.5
 21
871.084204
  0
LINE
  8
DIMENSIONS
  6
CONTINUOUS
 62
     7
 10
1696.6668
 20
940.084204
 11
1700.0
 21
960.084204
  0
LINE
  8
DIMENSIONS
  6
CONTINUOUS
 62
     7
 10
1703.3332
 20
940.084204
 11
1700.0
 21
960.084204
  0
LINE
  8
DIMENSIONS
  6
CONTINUOUS
 62
     7
 10
1696.6668
 20
891.084204
 11
1700.0
 21
871.084204
  0
LINE
  8
DIMENSIONS
  6
CONTINUOUS
 62
     7
 10
1703.3332
 20
891.084204
 11
1700.0
 21
871.084204
  0
LINE
  8
DIMENSIONS
  6
CONTINUOUS
 62
     7
 10
1555.289977
 20
960.084204
 11
1712.5
 21
960.084204
  0
LINE
  8
DIMENSIONS
  6
CONTINUOUS
 62
     7
 10
1696.6668
 20
980.084204
 11
1700.0
 21
960.084204
  0
LINE
  8
DIMENSIONS
  6
CONTINUOUS
 62
     7
 10
1703.3332
 20
980.084204
 11
1700.0
 21
960.084204
  0
TEXT
  8
DIMENSIONS
  6
CONTINUOUS
 62
     7
 10
1687.5
 20
902.451059
 40
25.0
  1
89
 50
90.0
  7
TTF_DEFAULT
  0
LINE
  8
DATA
  6
CONTINUOUS
 62
     7
 10
1545.289977
 20
1081.02846
 11
1595.289977
 21
1052.160947
  0
LINE
  8
DIMENSIONS
  6
CONTINUOUS
 62
     7
 10
1696.6668
 20
1168.004471
 11
1700.0
 21
1188.004471
  0
LINE
  8
DIMENSIONS
  6
CONTINUOUS
 62
     7
 10
1703.3332
 20
1168.004471
 11
1700.0
 21
1188.004471
  0
LINE
  8
KANAGU
  6
CONTINUOUS
 62
     7
 10
1350.0
 20
1900.0
 11
1550.0
 21
1900.0
  0
TEXT
  8
KANAGU
  6
CONTINUOUS
 62
     7
 10
1462.5
 20
2087.5
 40
25.0
  1
4-φ6.2
  7
TTF_DEFAULT
  0
CIRCLE
  8
KANAGU
  6
CONTINUOUS
 62
     7
 10
1351.0
 20
2156.3
 40
2.9
  0
CIRCLE
  8
KANAGU
  6
CONTINUOUS
 62
     7
 10
1383.25
 20
2156.5
 40
3.1
  0
CIRCLE
  8
KANAGU
  6
CONTINUOUS
 62
     7
 10
1318.75
 20
2156.5
 40
3.1
  0
LINE
  8
KANAGU
  6
CONTINUOUS
 62
     7
 10
1389.75
 20
2153.0
 11
1389.75
 21
2249.0
  0
LINE
  8
KANAGU
  6
CONTINUOUS
 62
     7
 10
1357.65
 20
2150.0
 11
1357.65
 21
2252.0
  0
LINE
  8
KANAGU
  6
CONTINUOUS
 62
     7
 10
1344.35
 20
2150.0
 11
1344.35
 21
2252.0
  0
LINE
  8
KANAGU
  6
CONTINUOUS
 62
     7
 10
1312.25
 20
2153.0
 11
1312.25
 21
2249.0
  0
LINE
  8
KANAGU
  6
CONTINUOUS
 62
     7
 10
1200.0
 20
2252.0
 11
1200.0
 21
2150.0
  0
LINE
  8
KANAGU
  6
CONTINUOUS
 62
     7
 10
1196.6668
 20
2170.0
 11
1200.0
 21
2150.0
  0
LINE
  8
KANAGU
  6
CONTINUOUS
 62
     7
 10
1203.3332
 20
2170.0
 11
1200.0
 21
2150.0
  0
LINE
  8
KANAGU
  6
CONTINUOUS
 62
     7
 10
1150.0
 20
2375.25
 11
1150.0
 21
2150.0
  0
LINE
  8
KANAGU
  6
CONTINUOUS
 62
     7
 10
1146.6668
 20
2170.0
 11
1150.0
 21
2150.0
  0
LINE
  8
KANAGU
  6
CONTINUOUS
 62
     7
 10
1153.3332
 20
2170.0
 11
1150.0
 21
2150.0
  0
LINE
  8
KANAGU
  6
CONTINUOUS
 62
     7
 10
1250.0
 20
2245.5
 11
1250.0
 21
2156.5
  0
LINE
  8
KANAGU
  6
CONTINUOUS
 62
     7
 10
1246.6668
 20
2176.5
 11
1250.0
 21
2156.5
  0
LINE
  8
KANAGU
  6
CONTINUOUS
 62
     7
 10
1253.3332
 20
2176.5
 11
1250.0
 21
2156.5
  0
LINE
  8
KANAGU
  6
CONTINUOUS
 62
     7
 10
1300.0
 20
2215.05
 11
1300.0
 21
1987.5
  0
LINE
  8
KANAGU
  6
CONTINUOUS
 62
     7
 10
1402.0
 20
2215.05
 11
1402.0
 21
1987.5
  0
LINE
  8
KANAGU
  6
CONTINUOUS
 62
     7
 10
1305.25
 20
2150.0
 11
1137.5
 21
2150.0
  0
LINE
  8
KANAGU
  6
CONTINUOUS
 62
     7
 10
1305.65
 20
2156.5
 11
1237.5
 21
2156.5
  0
ARC
  8
SIDE35
  6
HIDDEN
 62
     7
 10
1005.245225
 20
1802.950617
 40
20.0
 50
305.0
 51
22.46412
  0
LINE
  8
SIDE35
  6
CONTINUOUS
 62
     7
 10
1025.245225
 20
1437.5
 11
1025.245225
 21
1792.950617
  0
LINE
  8
SIDE35
  6
CONTINUOUS
 62
     7
 10
1005.245225
 20
1446.6668
 11
1025.245225
 21
1450.0
  0
LINE
  8
SIDE35
  6
CONTINUOUS
 62
     7
 10
1005.245225
 20
1453.3332
 11
1025.245225
 21
1450.0
  0
LINE
  8
SIDE35
  6
HIDDEN
 62
     7
 10
987.013101
 20
1864.262395
 11
1015.258001
 21
1832.23706
  0
LINE
  8
SIDE35
  6
HIDDEN
 62
     7
 10
1023.727605
 20
1810.592713
 11
1015.258001
 21
1832.23706
  0
ARC
  8
SIDE35
  6
HIDDEN
 62
     7
 10
985.513129
 20
1862.939488
 40
2.0
 50
41.41084
 51
87.379397
  0
LINE
  8
DATA
  6
CONTINUOUS
 62
     7
 10
1002.125934
 20
1995.289977
 11
1030.993447
 21
2045.289977
  0
TEXT
  8
KANAGU
  6
CONTINUOUS
 62
     7
 10
1371.42814
 20
1912.5
 40
25.0
  1
2517取付金具
  7
TTF_DEFAULT
  0
LINE
  8
KANAGU
  6
CONTINUOUS
 62
     7
 10
1386.75
 20
2150.0
 11
1315.25
 21
2150.0
  0
ARC
  8
KANAGU
  6
CONTINUOUS
 62
     7
 10
1386.75
 20
2153.0
 40
3.0
 50
270.0
 51
0.0
  0
ARC
  8
KANAGU
  6
CONTINUOUS
 62
     7
 10
1315.25
 20
2153.0
 40
3.0
 50
180.0
 51
270.0
  0
LINE
  8
KANAGU
  6
CONTINUOUS
 62
     7
 10
1385.092302
 20
2154.006825
 11
1425.0
 21
2100.0
  0
LINE
  8
KANAGU
  6
CONTINUOUS
 62
     7
 10
1425.0
 20
2100.0
 11
1450.0
 21
2100.0
  0
LINE
  8
KANAGU
  6
CONTINUOUS
 62
     7
 10
1394.297396
 20
2135.940932
 11
1385.092302
 21
2154.006825
  0
LINE
  8
KANAGU
  6
CONTINUOUS
 62
     7
 10
1399.658848
 20
2139.902714
 11
1385.092302
 21
2154.006825
  0
LINE
  8
KANAGU
  6
CONTINUOUS
 62
     7
 10
1300.0
 20
2000.0
 11
1402.0
 21
2000.0
  0
LINE
  8
KANAGU
  6
CONTINUOUS
 62
     7
 10
1320.0
 20
1996.6668
 11
1300.0
 21
2000.0
  0
LINE
  8
KANAGU
  6
CONTINUOUS
 62
     7
 10
1320.0
 20
2003.3332
 11
1300.0
 21
2000.0
  0
LINE
  8
KANAGU
  6
CONTINUOUS
 62
     7
 10
1382.0
 20
1996.6668
 11
1402.0
 21
2000.0
  0
LINE
  8
KANAGU
  6
CONTINUOUS
 62
     7
 10
1382.0
 20
2003.3332
 11
1402.0
 21
2000.0
  0
LINE
  8
KANAGU
  6
CONTINUOUS
 62
     7
 10
1318.75
 20
2100.0
 11
1383.25
 21
2100.0
  0
LINE
  8
KANAGU
  6
CONTINUOUS
 62
     7
 10
1318.75
 20
2143.4
 11
1318.75
 21
2087.5
  0
LINE
  8
KANAGU
  6
CONTINUOUS
 62
     7
 10
1383.25
 20
2143.4
 11
1383.25
 21
2087.5
  0
LINE
  8
KANAGU
  6
CONTINUOUS
 62
     7
 10
1338.75
 20
2096.6668
 11
1318.75
 21
2100.0
  0
LINE
  8
KANAGU
  6
CONTINUOUS
 62
     7
 10
1338.75
 20
2103.3332
 11
1318.75
 21
2100.0
  0
LINE
  8
KANAGU
  6
CONTINUOUS
 62
     7
 10
1363.25
 20
2096.6668
 11
1383.25
 21
2100.0
  0
LINE
  8
KANAGU
  6
CONTINUOUS
 62
     7
 10
1363.25
 20
2103.3332
 11
1383.25
 21
2100.0
  0
LINE
  8
KANAGU
  6
CONTINUOUS
 62
     7
 10
1312.25
 20
2050.0
 11
1389.75
 21
2050.0
  0
LINE
  8
KANAGU
  6
CONTINUOUS
 62
     7
 10
1312.25
 20
2143.0
 11
1312.25
 21
2037.5
  0
LINE
  8
KANAGU
  6
CONTINUOUS
 62
     7
 10
1389.75
 20
2143.0
 11
1389.75
 21
2037.5
  0
LINE
  8
KANAGU
  6
CONTINUOUS
 62
     7
 10
1332.25
 20
2046.6668
 11
1312.25
 21
2050.0
  0
LINE
  8
KANAGU
  6
CONTINUOUS
 62
     7
 10
1332.25
 20
2053.3332
 11
1312.25
 21
2050.0
  0
LINE
  8
KANAGU
  6
CONTINUOUS
 62
     7
 10
1369.75
 20
2046.6668
 11
1389.75
 21
2050.0
  0
LINE
  8
KANAGU
  6
CONTINUOUS
 62
     7
 10
1369.75
 20
2053.3332
 11
1389.75
 21
2050.0
  0
TEXT
  8
KANAGU
  6
CONTINUOUS
 62
     7
 10
1325.246997
 20
2112.5
 40
25.0
  1
64.5
  7
TTF_DEFAULT
  0
TEXT
  8
KANAGU
  6
CONTINUOUS
 62
     7
 10
1325.246997
 20
2062.5
 40
25.0
  1
77.5
  7
TTF_DEFAULT
  0
TEXT
  8
KANAGU
  6
CONTINUOUS
 62
     7
 10
1331.685247
 20
2012.5
 40
25.0
  1
102
  7
TTF_DEFAULT
  0
LINE
  8
KANAGU
  6
CONTINUOUS
 62
     7
 10
1305.25
 20
2252.0
 11
1187.5
 21
2252.0
  0
LINE
  8
KANAGU
  6
CONTINUOUS
 62
     7
 10
1293.0
 20
2375.25
 11
1137.5
 21
2375.25
  0
LINE
  8
KANAGU
  6
CONTINUOUS
 62
     7
 10
1305.65
 20
2245.5
 11
1237.5
 21
2245.5
  0
LINE
  8
KANAGU
  6
CONTINUOUS
 62
     7
 10
1290.0
 20
2583.3
 11
1137.5
 21
2583.3
  0
LINE
  8
KANAGU
  6
CONTINUOUS
 62
     7
 10
1302.25
 20
2425.0
 11
1137.5
 21
2425.0
  0
LINE
  8
KANAGU
  6
CONTINUOUS
 62
     7
 10
1150.0
 20
2583.3
 11
1150.0
 21
2425.0
  0
TEXT
  8
KANAGU
  6
CONTINUOUS
 62
     7
 10
1137.5
 20
2471.989769
 40
25.0
  1
158.3
 50
90.0
  7
TTF_DEFAULT
  0
LINE
  8
KANAGU
  6
CONTINUOUS
 62
     7
 10
1196.6668
 20
2232.0
 11
1200.0
 21
2252.0
  0
LINE
  8
KANAGU
  6
CONTINUOUS
 62
     7
 10
1203.3332
 20
2232.0
 11
1200.0
 21
2252.0
  0
LINE
  8
KANAGU
  6
CONTINUOUS
 62
     7
 10
1146.6668
 20
2355.25
 11
1150.0
 21
2375.25
  0
LINE
  8
KANAGU
  6
CONTINUOUS
 62
     7
 10
1153.3332
 20
2355.25
 11
1150.0
 21
2375.25
  0
LINE
  8
KANAGU
  6
CONTINUOUS
 62
     7
 10
1146.6668
 20
2445.0
 11
1150.0
 21
2425.0
  0
LINE
  8
KANAGU
  6
CONTINUOUS
 62
     7
 10
1153.3332
 20
2445.0
 11
1150.0
 21
2425.0
  0
TEXT
  8
KANAGU
  6
CONTINUOUS
 62
     7
 10
1137.5
 20
2230.464769
 40
25.0
  1
225.2
 50
90.0
  7
TTF_DEFAULT
  0
TEXT
  8
KANAGU
  6
CONTINUOUS
 62
     7
 10
1187.5
 20
2181.889998
 40
25.0
  1
102
 50
90.0
  7
TTF_DEFAULT
  0
TEXT
  8
KANAGU
  6
CONTINUOUS
 62
     7
 10
1237.5
 20
2188.259998
 40
25.0
  1
89
 50
90.0
  7
TTF_DEFAULT
  0
LINE
  8
KANAGU
  6
CONTINUOUS
 62
     7
 10
1146.6668
 20
2563.3
 11
1150.0
 21
2583.3
  0
LINE
  8
KANAGU
  6
CONTINUOUS
 62
     7
 10
1153.3332
 20
2563.3
 11
1150.0
 21
2583.3
  0
LINE
  8
KANAGU
  6
CONTINUOUS
 62
     7
 10
1357.5
 20
2434.4
 11
1357.5
 21
2535.9
  0
LINE
  8
KANAGU
  6
CONTINUOUS
 62
     7
 10
1344.5
 20
2434.4
 11
1344.5
 21
2535.9
  0
ARC
  8
KANAGU
  6
CONTINUOUS
 62
     7
 10
1399.0
 20
2372.25
 40
3.0
 50
0.0
 51
90.0
  0
LINE
  8
KANAGU
  6
CONTINUOUS
 62
     7
 10
1344.5
 20
2442.5
 11
1341.7
 21
2442.5
  0
LINE
  8
KANAGU
  6
CONTINUOUS
 62
     7
 10
1360.3
 20
2442.5
 11
1357.5
 21
2442.5
  0
LINE
  8
KANAGU
  6
CONTINUOUS
 62
     7
 10
1344.5
 20
2444.1
 11
1341.7
 21
2444.1
  0
LINE
  8
KANAGU
  6
CONTINUOUS
 62
     7
 10
1360.3
 20
2444.1
 11
1357.5
 21
2444.1
  0
LINE
  8
KANAGU
  6
CONTINUOUS
 62
     7
 10
1360.3
 20
2444.1
 11
1360.3
 21
2442.5
  0
LINE
  8
KANAGU
  6
CONTINUOUS
 62
     7
 10
1341.7
 20
2444.1
 11
1341.7
 21
2442.5
  0
ARC
  8
KANAGU
  6
CONTINUOUS
 62
     7
 10
1351.0
 20
2434.25
 40
6.65
 50
167.807516
 51
180.0
  0
ARC
  8
KANAGU
  6
CONTINUOUS
 62
     7
 10
1351.0
 20
2434.25
 40
6.65
 50
0.0
 51
12.192484
  0
ARC
  8
KANAGU
  6
CONTINUOUS
 62
     7
 10
1351.0
 20
2434.25
 40
8.25
 50
141.98772
 51
180.0
  0
ARC
  8
KANAGU
  6
CONTINUOUS
 62
     7
 10
1351.0
 20
2434.25
 40
8.25
 50
0.0
 51
38.01228
  0
ARC
  8
KANAGU
  6
CONTINUOUS
 62
     7
 10
1360.65
 20
2428.0
 40
1.4
 50
180.0
 51
270.0
  0
LINE
  8
KANAGU
  6
CONTINUOUS
 62
     7
 10
1360.65
 20
2426.6
 11
1389.75
 21
2426.6
  0
ARC
  8
KANAGU
  6
CONTINUOUS
 62
     7
 10
1341.35
 20
2428.0
 40
1.4
 50
270.0
 51
0.0
  0
ARC
  8
KANAGU
  6
CONTINUOUS
 62
     7
 10
1360.65
 20
2428.0
 40
3.0
 50
180.0
 51
270.0
  0
LINE
  8
KANAGU
  6
CONTINUOUS
 62
     7
 10
1360.65
 20
2425.0
 11
1389.75
 21
2425.0
  0
ARC
  8
KANAGU
  6
CONTINUOUS
 62
     7
 10
1341.35
 20
2428.0
 40
3.0
 50
270.0
 51
0.0
  0
LINE
  8
KANAGU
  6
CONTINUOUS
 62
     7
 10
1389.75
 20
2426.6
 11
1389.75
 21
2425.0
  0
LINE
  8
KANAGU
  6
CONTINUOUS
 62
     7
 10
1359.25
 20
2434.25
 11
1359.25
 21
2428.0
  0
LINE
  8
KANAGU
  6
CONTINUOUS
 62
     7
 10
1342.75
 20
2434.25
 11
1342.75
 21
2428.0
  0
LINE
  8
KANAGU
  6
CONTINUOUS
 62
     7
 10
1357.65
 20
2434.25
 11
1357.65
 21
2428.0
  0
LINE
  8
KANAGU
  6
CONTINUOUS
 62
     7
 10
1344.35
 20
2434.25
 11
1344.35
 21
2428.0
  0
ARC
  8
KANAGU
  6
CONTINUOUS
 62
     7
 10
1351.0
 20
2434.4
 40
6.5
 50
180.0
 51
0.0
  0
LINE
  8
KANAGU
  6
CONTINUOUS
 62
     7
 10
1353.6
 20
2364.1
 11
1357.0
 21
2366.9
  0
LINE
  8
KANAGU
  6
CONTINUOUS
 62
     7
 10
1357.0
 20
2366.9
 11
1360.4
 21
2364.1
  0
LINE
  8
KANAGU
  6
CONTINUOUS
 62
     7
 10
1353.6
 20
2364.1
 11
1354.75
 21
2364.1
  0
LINE
  8
KANAGU
  6
CONTINUOUS
 62
     7
 10
1359.25
 20
2364.1
 11
1360.4
 21
2364.1
  0
TEXT
  8
KANAGU
  6
CONTINUOUS
 62
     7
 10
1340.644494
 20
2366.25
 40
3.0
  1
Install
  7
TTF_DEFAULT
  0
TEXT
  8
KANAGU
  6
CONTINUOUS
 62
     7
 10
1345.170642
 20
2362.25
 40
3.0
  1
With
  7
TTF_DEFAULT
  0
ARC
  8
KANAGU
  6
CONTINUOUS
 62
     7
 10
1360.75
 20
2367.25
 40
3.0
 50
0.0
 51
90.0
  0
LINE
  8
KANAGU
  6
CONTINUOUS
 62
     7
 10
1341.25
 20
2370.25
 11
1360.75
 21
2370.25
  0
ARC
  8
KANAGU
  6
CONTINUOUS
 62
     7
 10
1341.25
 20
2367.25
 40
3.0
 50
90.0
 51
180.0
  0
LINE
  8
KANAGU
  6
CONTINUOUS
 62
     7
 10
1312.25
 20
2425.0
 11
1312.25
 21
2426.6
  0
ARC
  8
KANAGU
  6
CONTINUOUS
 62
     7
 10
1303.0
 20
2372.25
 40
3.0
 50
90.0
 51
180.0
  0
LINE
  8
KANAGU
  6
CONTINUOUS
 62
     7
 10
1312.25
 20
2426.6
 11
1341.35
 21
2426.6
  0
LINE
  8
KANAGU
  6
CONTINUOUS
 62
     7
 10
1312.25
 20
2425.0
 11
1341.35
 21
2425.0
  0
LINE
  8
KANAGU
  6
CONTINUOUS
 62
     7
 10
1303.0
 20
2375.25
 11
1399.0
 21
2375.25
  0
TEXT
  8
KANAGU
  6
CONTINUOUS
 62
     7
 10
1346.679358
 20
2354.25
 40
3.0
  1
End
  7
TTF_DEFAULT
  0
TEXT
  8
KANAGU
  6
CONTINUOUS
 62
     7
 10
1348.188074
 20
2350.25
 40
3.0
  1
Up
  7
TTF_DEFAULT
  0
LINE
  8
KANAGU
  6
CONTINUOUS
 62
     7
 10
1394.85
 20
2271.15
 11
1394.85
 21
2278.15
  0
LINE
  8
KANAGU
  6
CONTINUOUS
 62
     7
 10
1354.75
 20
2348.1
 11
1359.25
 21
2348.1
  0
ARC
  8
KANAGU
  6
CONTINUOUS
 62
     7
 10
1341.25
 20
2347.75
 40
3.0
 50
180.0
 51
270.0
  0
LINE
  8
KANAGU
  6
CONTINUOUS
 62
     7
 10
1360.75
 20
2344.75
 11
1341.25
 21
2344.75
  0
ARC
  8
KANAGU
  6
CONTINUOUS
 62
     7
 10
1360.75
 20
2347.75
 40
3.0
 50
270.0
 51
0.0
  0
LINE
  8
KANAGU
  6
CONTINUOUS
 62
     7
 10
1357.5
 20
2266.65
 11
1389.15
 21
2266.65
  0
LINE
  8
KANAGU
  6
CONTINUOUS
 62
     7
 10
1387.6
 20
2282.65
 11
1387.6
 21
2266.65
  0
LINE
  8
KANAGU
  6
CONTINUOUS
 62
     7
 10
1387.75
 20
2287.4
 11
1390.75
 21
2287.4
  0
ARC
  8
KANAGU
  6
CONTINUOUS
 62
     7
 10
1351.0
 20
2274.65
 40
6.5
 50
0.0
 51
180.0
  0
LINE
  8
KANAGU
  6
CONTINUOUS
 62
     7
 10
1387.75
 20
2282.65
 11
1387.75
 21
2290.75
  0
LINE
  8
KANAGU
  6
CONTINUOUS
 62
     7
 10
1314.4
 20
2266.65
 11
1314.4
 21
2282.65
  0
LINE
  8
KANAGU
  6
CONTINUOUS
 62
     7
 10
1314.25
 20
2282.65
 11
1314.25
 21
2290.75
  0
LINE
  8
KANAGU
  6
CONTINUOUS
 62
     7
 10
1312.85
 20
2282.65
 11
1389.15
 21
2282.65
  0
LINE
  8
KANAGU
  6
CONTINUOUS
 62
     7
 10
1312.85
 20
2266.65
 11
1344.5
 21
2266.65
  0
LINE
  8
KANAGU
  6
CONTINUOUS
 62
     7
 10
1387.75
 20
2261.9
 11
1390.75
 21
2261.9
  0
LINE
  8
KANAGU
  6
CONTINUOUS
 62
     7
 10
1387.75
 20
2258.55
 11
1387.75
 21
2266.65
  0
LINE
  8
KANAGU
  6
CONTINUOUS
 62
     7
 10
1390.75
 20
2261.9
 11
1390.75
 21
2287.4
  0
LINE
  8
KANAGU
  6
CONTINUOUS
 62
     7
 10
1389.15
 20
2261.9
 11
1389.15
 21
2287.4
  0
LINE
  8
KANAGU
  6
CONTINUOUS
 62
     7
 10
1314.25
 20
2258.55
 11
1314.25
 21
2266.65
  0
LINE
  8
KANAGU
  6
CONTINUOUS
 62
     7
 10
1312.85
 20
2261.9
 11
1312.85
 21
2287.4
  0
LINE
  8
KANAGU
  6
CONTINUOUS
 62
     7
 10
1387.75
 20
2290.75
 11
1402.0
 21
2290.75
  0
ARC
  8
KANAGU
  6
CONTINUOUS
 62
     7
 10
1389.995217
 20
2273.063342
 40
5.218218
 50
278.316657
 51
338.489867
  0
ARC
  8
KANAGU
  6
CONTINUOUS
 62
     7
 10
1389.995217
 20
2276.236658
 40
5.218218
 50
21.510133
 51
81.683343
  0
LINE
  8
KANAGU
  6
CONTINUOUS
 62
     7
 10
1307.15
 20
2271.15
 11
1307.15
 21
2278.15
  0
ARC
  8
KANAGU
  6
CONTINUOUS
 62
     7
 10
1312.004783
 20
2273.063342
 40
5.218218
 50
201.510133
 51
261.683343
  0
ARC
  8
KANAGU
  6
CONTINUOUS
 62
     7
 10
1312.004783
 20
2276.236658
 40
5.218218
 50
98.316657
 51
158.489867
  0
LINE
  8
KANAGU
  6
CONTINUOUS
 62
     7
 10
1311.25
 20
2261.9
 11
1311.25
 21
2287.4
  0
LINE
  8
KANAGU
  6
CONTINUOUS
 62
     7
 10
1300.0
 20
2290.75
 11
1314.25
 21
2290.75
  0
LINE
  8
KANAGU
  6
CONTINUOUS
 62
     7
 10
1311.25
 20
2287.4
 11
1314.25
 21
2287.4
  0
LINE
  8
KANAGU
  6
CONTINUOUS
 62
     7
 10
1311.25
 20
2261.9
 11
1314.25
 21
2261.9
  0
CIRCLE
  8
KANAGU
  6
CONTINUOUS
 62
     7
 10
1386.0
 20
2362.15
 40
4.25
  0
TEXT
  8
KANAGU
  6
CONTINUOUS
 62
     7
 10
1345.170642
 20
2358.25
 40
3.0
  1
This
  7
TTF_DEFAULT
  0
CIRCLE
  8
KANAGU
  6
CONTINUOUS
 62
     7
 10
1316.0
 20
2362.15
 40
4.25
  0
LINE
  8
KANAGU
  6
CONTINUOUS
 62
     7
 10
1402.0
 20
2290.75
 11
1402.0
 21
2372.25
  0
LINE
  8
KANAGU
  6
CONTINUOUS
 62
     7
 10
1354.75
 20
2348.1
 11
1354.75
 21
2364.1
  0
LINE
  8
KANAGU
  6
CONTINUOUS
 62
     7
 10
1359.25
 20
2348.1
 11
1359.25
 21
2364.1
  0
LINE
  8
KANAGU
  6
CONTINUOUS
 62
     7
 10
1338.25
 20
2347.75
 11
1338.25
 21
2367.25
  0
LINE
  8
KANAGU
  6
CONTINUOUS
 62
     7
 10
1363.75
 20
2367.25
 11
1363.75
 21
2347.75
  0
LINE
  8
KANAGU
  6
CONTINUOUS
 62
     7
 10
1300.0
 20
2290.75
 11
1300.0
 21
2372.25
  0
ARC
  8
KANAGU
  6
CONTINUOUS
 62
     7
 10
1399.0
 20
2225.05
 40
3.0
 50
270.0
 51
360.0
  0
LINE
  8
KANAGU
  6
CONTINUOUS
 62
     7
 10
1402.0
 20
2225.05
 11
1402.0
 21
2258.55
  0
LINE
  8
KANAGU
  6
CONTINUOUS
 62
     7
 10
1357.5
 20
2252.0
 11
1386.75
 21
2252.0
  0
ARC
  8
KANAGU
  6
CONTINUOUS
 62
     7
 10
1386.75
 20
2249.0
 40
3.0
 50
0.0
 51
90.0
  0
CIRCLE
  8
KANAGU
  6
CONTINUOUS
 62
     7
 10
1383.25
 20
2245.5
 40
3.1
  0
CIRCLE
  8
KANAGU
  6
CONTINUOUS
 62
     7
 10
1318.75
 20
2245.5
 40
3.1
  0
LINE
  8
KANAGU
  6
CONTINUOUS
 62
     7
 10
1315.25
 20
2252.0
 11
1344.5
 21
2252.0
  0
ARC
  8
KANAGU
  6
CONTINUOUS
 62
     7
 10
1386.0
 20
2235.15
 40
4.25
 50
331.927513
 51
28.072487
  0
CIRCLE
  8
KANAGU
  6
CONTINUOUS
 62
     7
 10
1351.0
 20
2229.65
 40
2.5
  0
LINE
  8
KANAGU
  6
CONTINUOUS
 62
     7
 10
1354.75
 20
2181.65
 11
1357.5
 21
2191.15
  0
LINE
  8
KANAGU
  6
CONTINUOUS
 62
     7
 10
1347.25
 20
2181.65
 11
1344.5
 21
2191.15
  0
LINE
  8
KANAGU
  6
CONTINUOUS
 62
     7
 10
1357.5
 20
2191.15
 11
1344.5
 21
2191.15
  0
ARC
  8
KANAGU
  6
CONTINUOUS
 62
     7
 10
1351.0
 20
2183.2125
 40
4.0625
 50
202.619865
 51
337.380135
  0
LINE
  8
KANAGU
  6
CONTINUOUS
 62
     7
 10
1387.75
 20
2258.55
 11
1402.0
 21
2258.55
  0
LINE
  8
KANAGU
  6
CONTINUOUS
 62
     7
 10
1389.75
 20
2222.05
 11
1399.0
 21
2222.05
  0
ARC
  8
KANAGU
  6
CONTINUOUS
 62
     7
 10
1316.0
 20
2235.15
 40
4.25
 50
151.927513
 51
208.072487
  0
LINE
  8
KANAGU
  6
CONTINUOUS
 62
     7
 10
1303.0
 20
2222.05
 11
1312.25
 21
2222.05
  0
ARC
  8
KANAGU
  6
CONTINUOUS
 62
     7
 10
1303.0
 20
2225.05
 40
3.0
 50
180.0
 51
270.0
  0
LINE
  8
KANAGU
  6
CONTINUOUS
 62
     7
 10
1300.0
 20
2225.05
 11
1300.0
 21
2258.55
  0
ARC
  8
KANAGU
  6
CONTINUOUS
 62
     7
 10
1315.25
 20
2249.0
 40
3.0
 50
90.0
 51
180.0
  0
LINE
  8
KANAGU
  6
CONTINUOUS
 62
     7
 10
1300.0
 20
2258.55
 11
1314.25
 21
2258.55
  0
LINE
  8
KANAGU
  6
CONTINUOUS
 62
     7
 10
1357.5
 20
2191.15
 11
1357.5
 21
2274.65
  0
LINE
  8
KANAGU
  6
CONTINUOUS
 62
     7
 10
1344.5
 20
2191.15
 11
1344.5
 21
2274.65
  0
LINE
  8
KANAGU
  6
CONTINUOUS
 62
     7
 10
1246.6668
 20
2225.5
 11
1250.0
 21
2245.5
  0
LINE
  8
KANAGU
  6
CONTINUOUS
 62
     7
 10
1253.3332
 20
2225.5
 11
1250.0
 21
2245.5
  0
LINE
  8
KANAGU
  6
CONTINUOUS
 62
     7
 10
1402.0
 20
2583.3
 11
1402.0
 21
2581.7
  0
LINE
  8
KANAGU
  6
CONTINUOUS
 62
     7
 10
1394.85
 20
2540.2
 11
1394.85
 21
2547.2
  0
LINE
  8
KANAGU
  6
CONTINUOUS
 62
     7
 10
1357.5
 20
2535.7
 11
1389.15
 21
2535.7
  0
LINE
  8
KANAGU
  6
CONTINUOUS
 62
     7
 10
1344.5
 20
2535.9
 11
1357.5
 21
2535.9
  0
LINE
  8
KANAGU
  6
CONTINUOUS
 62
     7
 10
1389.15
 20
2530.8
 11
1390.75
 21
2530.8
  0
LINE
  8
KANAGU
  6
CONTINUOUS
 62
     7
 10
1387.6
 20
2535.7
 11
1387.6
 21
2551.7
  0
LINE
  8
KANAGU
  6
CONTINUOUS
 62
     7
 10
1314.4
 20
2535.7
 11
1314.4
 21
2551.7
  0
LINE
  8
KANAGU
  6
CONTINUOUS
 62
     7
 10
1312.85
 20
2551.7
 11
1389.15
 21
2551.7
  0
LINE
  8
KANAGU
  6
CONTINUOUS
 62
     7
 10
1312.85
 20
2535.7
 11
1344.5
 21
2535.7
  0
ARC
  8
KANAGU
  6
CONTINUOUS
 62
     7
 10
1389.995217
 20
2545.286658
 40
5.218218
 50
21.510133
 51
81.683343
  0
ARC
  8
KANAGU
  6
CONTINUOUS
 62
     7
 10
1389.995217
 20
2542.113342
 40
5.218218
 50
278.316657
 51
338.489867
  0
LINE
  8
KANAGU
  6
CONTINUOUS
 62
     7
 10
1389.15
 20
2530.8
 11
1389.15
 21
2581.7
  0
LINE
  8
KANAGU
  6
CONTINUOUS
 62
     7
 10
1390.75
 20
2530.8
 11
1390.75
 21
2581.7
  0
LINE
  8
KANAGU
  6
CONTINUOUS
 62
     7
 10
1312.85
 20
2530.8
 11
1312.85
 21
2581.7
  0
LINE
  8
KANAGU
  6
CONTINUOUS
 62
     7
 10
1300.0
 20
2581.7
 11
1300.0
 21
2583.3
  0
ARC
  8
KANAGU
  6
CONTINUOUS
 62
     7
 10
1312.004783
 20
2545.286658
 40
5.218218
 50
98.316657
 51
158.489867
  0
ARC
  8
KANAGU
  6
CONTINUOUS
 62
     7
 10
1312.004783
 20
2542.113342
 40
5.218218
 50
201.510133
 51
261.683343
  0
LINE
  8
KANAGU
  6
CONTINUOUS
 62
     7
 10
1307.15
 20
2540.2
 11
1307.15
 21
2547.2
  0
LINE
  8
KANAGU
  6
CONTINUOUS
 62
     7
 10
1311.25
 20
2530.8
 11
1311.25
 21
2581.7
  0
LINE
  8
KANAGU
  6
CONTINUOUS
 62
     7
 10
1311.25
 20
2530.8
 11
1312.85
 21
2530.8
  0
LINE
  8
KANAGU
  6
CONTINUOUS
 62
     7
 10
1300.0
 20
2581.7
 11
1402.0
 21
2581.7
  0
LINE
  8
KANAGU
  6
CONTINUOUS
 62
     7
 10
1300.0
 20
2583.3
 11
1402.0
 21
2583.3
  0
ARC
  8
KANAGU
  6
CONTINUOUS
 62
     7
 10
1545.084615
 20
2156.3
 40
3.884615
 50
131.708916
 51
228.291084
  0
LINE
  8
KANAGU
  6
CONTINUOUS
 62
     7
 10
1525.0
 20
2252.0
 11
1525.0
 21
2150.0
  0
LINE
  8
KANAGU
  6
CONTINUOUS
 62
     7
 10
1526.6
 20
2252.0
 11
1526.6
 21
2150.0
  0
LINE
  8
KANAGU
  6
CONTINUOUS
 62
     7
 10
1542.5
 20
2150.0
 11
1525.0
 21
2150.0
  0
LINE
  8
KANAGU
  6
CONTINUOUS
 62
     7
 10
1542.5
 20
2150.0
 11
1542.5
 21
2153.4
  0
LINE
  8
KANAGU
  6
CONTINUOUS
 62
     7
 10
1681.7
 20
2375.25
 11
1683.3
 21
2375.25
  0
LINE
  8
KANAGU
  6
CONTINUOUS
 62
     7
 10
1681.7
 20
2290.75
 11
1683.3
 21
2290.75
  0
CIRCLE
  8
KANAGU
  6
CONTINUOUS
 62
     7
 10
1662.8
 20
2268.3
 40
3.1
  0
CIRCLE
  8
KANAGU
  6
CONTINUOUS
 62
     7
 10
1643.7
 20
2274.65
 40
3.5
  0
LINE
  8
KANAGU
  6
CONTINUOUS
 62
     7
 10
1643.7
 20
2277.25
 11
1641.448334
 21
2275.95
  0
LINE
  8
KANAGU
  6
CONTINUOUS
 62
     7
 10
1645.951666
 20
2275.95
 11
1643.7
 21
2277.25
  0
LINE
  8
KANAGU
  6
CONTINUOUS
 62
     7
 10
1645.951666
 20
2273.35
 11
1645.951666
 21
2275.95
  0
LINE
  8
KANAGU
  6
CONTINUOUS
 62
     7
 10
1643.7
 20
2272.05
 11
1645.951666
 21
2273.35
  0
LINE
  8
KANAGU
  6
CONTINUOUS
 62
     7
 10
1641.448334
 20
2273.35
 11
1643.7
 21
2272.05
  0
LINE
  8
KANAGU
  6
CONTINUOUS
 62
     7
 10
1641.448334
 20
2275.95
 11
1641.448334
 21
2273.35
  0
CIRCLE
  8
KANAGU
  6
CONTINUOUS
 62
     7
 10
1643.7
 20
2274.65
 40
6.75
  0
ARC
  8
KANAGU
  6
CONTINUOUS
 62
     7
 10
1643.55
 20
2274.65
 40
12.75
 50
90.0
 51
270.0
  0
LINE
  8
KANAGU
  6
CONTINUOUS
 62
     7
 10
1643.55
 20
2287.4
 11
1683.3
 21
2287.4
  0
LINE
  8
KANAGU
  6
CONTINUOUS
 62
     7
 10
1643.55
 20
2261.9
 11
1683.3
 21
2261.9
  0
LINE
  8
KANAGU
  6
CONTINUOUS
 62
     7
 10
1681.7
 20
2287.4
 11
1681.7
 21
2375.25
  0
ARC
  8
KANAGU
  6
CONTINUOUS
 62
     7
 10
1547.9
 20
2261.15
 40
20.0
 50
90.0
 51
180.0
  0
ARC
  8
KANAGU
  6
CONTINUOUS
 62
     7
 10
1547.9
 20
2261.15
 40
7.0
 50
90.0
 51
180.0
  0
LINE
  8
KANAGU
  6
CONTINUOUS
 62
     7
 10
1547.9
 20
2281.15
 11
1632.581295
 21
2281.15
  0
LINE
  8
KANAGU
  6
CONTINUOUS
 62
     7
 10
1547.9
 20
2268.15
 11
1632.581295
 21
2268.15
  0
LINE
  8
KANAGU
  6
CONTINUOUS
 62
     7
 10
1681.7
 20
2258.55
 11
1683.3
 21
2258.55
  0
LINE
  8
KANAGU
  6
CONTINUOUS
 62
     7
 10
1681.7
 20
2222.05
 11
1683.3
 21
2222.05
  0
LINE
  8
KANAGU
  6
CONTINUOUS
 62
     7
 10
1550.3
 20
2225.0
 11
1550.3
 21
2234.3
  0
LINE
  8
KANAGU
  6
CONTINUOUS
 62
     7
 10
1544.1
 20
2238.95
 11
1542.5
 21
2238.95
  0
LINE
  8
KANAGU
  6
CONTINUOUS
 62
     7
 10
1525.0
 20
2252.0
 11
1542.5
 21
2252.0
  0
LINE
  8
KANAGU
  6
CONTINUOUS
 62
     7
 10
1544.1
 20
2220.35
 11
1542.5
 21
2220.35
  0
LINE
  8
KANAGU
  6
CONTINUOUS
 62
     7
 10
1534.65
 20
2226.5
 11
1542.5
 21
2226.5
  0
LINE
  8
KANAGU
  6
CONTINUOUS
 62
     7
 10
1534.65
 20
2232.8
 11
1542.5
 21
2232.8
  0
ARC
  8
KANAGU
  6
CONTINUOUS
 62
     7
 10
1534.65
 20
2229.65
 40
3.15
 50
90.0
 51
270.0
  0
LINE
  8
KANAGU
  6
CONTINUOUS
 62
     7
 10
1540.9
 20
2226.5
 11
1540.9
 21
2232.8
  0
LINE
  8
KANAGU
  6
CONTINUOUS
 62
     7
 10
1544.1
 20
2220.35
 11
1544.1
 21
2238.95
  0
LINE
  8
KANAGU
  6
CONTINUOUS
 62
     7
 10
1542.5
 20
2159.2
 11
1542.5
 21
2252.0
  0
LINE
  8
KANAGU
  6
CONTINUOUS
 62
     7
 10
1550.3
 20
2225.0
 11
1544.1
 21
2225.0
  0
LINE
  8
KANAGU
  6
CONTINUOUS
 62
     7
 10
1550.3
 20
2234.3
 11
1544.1
 21
2234.3
  0
LINE
  8
KANAGU
  6
CONTINUOUS
 62
     7
 10
1681.7
 20
2222.05
 11
1681.7
 21
2261.9
  0
LINE
  8
KANAGU
  6
CONTINUOUS
 62
     7
 10
1683.3
 20
2222.05
 11
1683.3
 21
2375.25
  0
LINE
  8
KANAGU
  6
CONTINUOUS
 62
     7
 10
1540.9
 20
2252.0
 11
1540.9
 21
2261.15
  0
LINE
  8
KANAGU
  6
CONTINUOUS
 62
     7
 10
1527.9
 20
2252.0
 11
1527.9
 21
2261.15
  0
ENDSEC
  0
EOF
