  0
SECTION
  2
HEADER
  9
$ACADVER
  1
AC1015
  9
$ACADMAINTVER
 70
    20
  9
$DWGCODEPAGE
  3
ANSI_932
  9
$INSBASE
 10
0.0
 20
0.0
 30
0.0
  9
$EXTMIN
 10
-1800.109854899474
 20
-2685.333787791113
 30
-0.0015258207003583
  9
$EXTMAX
 10
1800.109871663281
 20
2667.267500140166
 30
0.0000000349246037
  9
$LIMMIN
 10
0.0
 20
0.0
  9
$LIMMAX
 10
0.0
 20
0.0
  9
$ORTHOMODE
 70
     0
  9
$REGENMODE
 70
     1
  9
$FILLMODE
 70
     1
  9
$QTEXTMODE
 70
     0
  9
$MIRRTEXT
 70
     1
  9
$LTSCALE
 40
101.6
  9
$ATTMODE
 70
     1
  9
$TEXTSIZE
 40
0.0
  9
$TRACEWID
 40
1.0
  9
$TEXTSTYLE
  7
STANDARD
  9
$CLAYER
  8
DATA
  9
$CELTYPE
  6
ByLayer
  9
$CECOLOR
 62
   256
  9
$CELTSCALE
 40
1.0
  9
$DISPSILH
 70
     0
  9
$DIMSCALE
 40
1.0
  9
$DIMASZ
 40
0.18
  9
$DIMEXO
 40
0.0625
  9
$DIMDLI
 40
0.38
  9
$DIMRND
 40
0.0
  9
$DIMDLE
 40
0.0
  9
$DIMEXE
 40
0.18
  9
$DIMTP
 40
0.0
  9
$DIMTM
 40
0.0
  9
$DIMTXT
 40
0.18
  9
$DIMCEN
 40
0.09
  9
$DIMTSZ
 40
0.0
  9
$DIMTOL
 70
     0
  9
$DIMLIM
 70
     0
  9
$DIMTIH
 70
     1
  9
$DIMTOH
 70
     1
  9
$DIMSE1
 70
     0
  9
$DIMSE2
 70
     0
  9
$DIMTAD
 70
     0
  9
$DIMZIN
 70
     0
  9
$DIMBLK
  1

  9
$DIMASO
 70
     1
  9
$DIMSHO
 70
     1
  9
$DIMPOST
  1

  9
$DIMAPOST
  1

  9
$DIMALT
 70
     0
  9
$DIMALTD
 70
     2
  9
$DIMALTF
 40
25.4
  9
$DIMLFAC
 40
1.0
  9
$DIMTOFL
 70
     0
  9
$DIMTVP
 40
0.0
  9
$DIMTIX
 70
     0
  9
$DIMSOXD
 70
     0
  9
$DIMSAH
 70
     0
  9
$DIMBLK1
  1

  9
$DIMBLK2
  1

  9
$DIMSTYLE
  2
STANDARD
  9
$DIMCLRD
 70
     0
  9
$DIMCLRE
 70
     0
  9
$DIMCLRT
 70
     0
  9
$DIMTFAC
 40
1.0
  9
$DIMGAP
 40
0.09
  9
$DIMJUST
 70
     0
  9
$DIMSD1
 70
     0
  9
$DIMSD2
 70
     0
  9
$DIMTOLJ
 70
     1
  9
$DIMTZIN
 70
     0
  9
$DIMALTZ
 70
     0
  9
$DIMALTTZ
 70
     0
  9
$DIMUPT
 70
     0
  9
$DIMDEC
 70
     4
  9
$DIMTDEC
 70
     4
  9
$DIMALTU
 70
     2
  9
$DIMALTTD
 70
     2
  9
$DIMTXSTY
  7
STANDARD
  9
$DIMAUNIT
 70
     0
  9
$DIMADEC
 70
     0
  9
$DIMALTRND
 40
0.0
  9
$DIMAZIN
 70
     0
  9
$DIMDSEP
 70
    46
  9
$DIMATFIT
 70
     3
  9
$DIMFRAC
 70
     0
  9
$DIMLDRBLK
  1

  9
$DIMLUNIT
 70
     2
  9
$DIMLWD
 70
    -2
  9
$DIMLWE
 70
    -2
  9
$DIMTMOVE
 70
     0
  9
$LUNITS
 70
     2
  9
$LUPREC
 70
     4
  9
$SKETCHINC
 40
0.1
  9
$FILLETRAD
 40
0.0
  9
$AUNITS
 70
     0
  9
$AUPREC
 70
     0
  9
$MENU
  1
acad
  9
$ELEVATION
 40
0.0
  9
$PELEVATION
 40
0.0
  9
$THICKNESS
 40
0.0
  9
$LIMCHECK
 70
     0
  9
$CHAMFERA
 40
0.0
  9
$CHAMFERB
 40
0.0
  9
$CHAMFERC
 40
0.0
  9
$CHAMFERD
 40
0.0
  9
$SKPOLY
 70
     0
  9
$TDCREATE
 40
2457954.595972223
  9
$TDUCREATE
 40
2457954.220972222
  9
$TDUPDATE
 40
2457954.603148148
  9
$TDUUPDATE
 40
2457954.228148148
  9
$TDINDWG
 40
0.0018518519
  9
$TDUSRTIMER
 40
0.0018518519
  9
$USRTIMER
 70
     1
  9
$ANGBASE
 50
0.0
  9
$ANGDIR
 70
     0
  9
$PDMODE
 70
     1
  9
$PDSIZE
 40
-2.0
  9
$PLINEWID
 40
0.0
  9
$SPLFRAME
 70
     0
  9
$SPLINETYPE
 70
     6
  9
$SPLINESEGS
 70
     8
  9
$HANDSEED
  5
2C7
  9
$SURFTAB1
 70
     6
  9
$SURFTAB2
 70
     6
  9
$SURFTYPE
 70
     6
  9
$SURFU
 70
     6
  9
$SURFV
 70
     6
  9
$UCSBASE
  2

  9
$UCSNAME
  2

  9
$UCSORG
 10
0.0
 20
0.0
 30
0.0
  9
$UCSXDIR
 10
1.0
 20
0.0
 30
0.0
  9
$UCSYDIR
 10
0.0
 20
1.0
 30
0.0
  9
$UCSORTHOREF
  2

  9
$UCSORTHOVIEW
 70
     0
  9
$UCSORGTOP
 10
0.0
 20
0.0
 30
0.0
  9
$UCSORGBOTTOM
 10
0.0
 20
0.0
 30
0.0
  9
$UCSORGLEFT
 10
0.0
 20
0.0
 30
0.0
  9
$UCSORGRIGHT
 10
0.0
 20
0.0
 30
0.0
  9
$UCSORGFRONT
 10
0.0
 20
0.0
 30
0.0
  9
$UCSORGBACK
 10
0.0
 20
0.0
 30
0.0
  9
$PUCSBASE
  2

  9
$PUCSNAME
  2

  9
$PUCSORG
 10
0.0
 20
0.0
 30
0.0
  9
$PUCSXDIR
 10
1.0
 20
0.0
 30
0.0
  9
$PUCSYDIR
 10
0.0
 20
1.0
 30
0.0
  9
$PUCSORTHOREF
  2

  9
$PUCSORTHOVIEW
 70
     0
  9
$PUCSORGTOP
 10
0.0
 20
0.0
 30
0.0
  9
$PUCSORGBOTTOM
 10
0.0
 20
0.0
 30
0.0
  9
$PUCSORGLEFT
 10
0.0
 20
0.0
 30
0.0
  9
$PUCSORGRIGHT
 10
0.0
 20
0.0
 30
0.0
  9
$PUCSORGFRONT
 10
0.0
 20
0.0
 30
0.0
  9
$PUCSORGBACK
 10
0.0
 20
0.0
 30
0.0
  9
$USERI1
 70
     0
  9
$USERI2
 70
     0
  9
$USERI3
 70
     0
  9
$USERI4
 70
     0
  9
$USERI5
 70
     0
  9
$USERR1
 40
0.0
  9
$USERR2
 40
0.0
  9
$USERR3
 40
0.0
  9
$USERR4
 40
0.0
  9
$USERR5
 40
0.0
  9
$WORLDVIEW
 70
     1
  9
$SHADEDGE
 70
     3
  9
$SHADEDIF
 70
    70
  9
$TILEMODE
 70
     1
  9
$MAXACTVP
 70
    64
  9
$PINSBASE
 10
0.0
 20
0.0
 30
0.0
  9
$PLIMCHECK
 70
     0
  9
$PEXTMIN
 10
1.000000000000000E+20
 20
1.000000000000000E+20
 30
1.000000000000000E+20
  9
$PEXTMAX
 10
-1.000000000000000E+20
 20
-1.000000000000000E+20
 30
-1.000000000000000E+20
  9
$PLIMMIN
 10
0.0
 20
0.0
  9
$PLIMMAX
 10
12.0
 20
9.0
  9
$UNITMODE
 70
     0
  9
$VISRETAIN
 70
     0
  9
$PLINEGEN
 70
     1
  9
$PSLTSCALE
 70
     0
  9
$TREEDEPTH
 70
  3020
  9
$CMLSTYLE
  2
Standard
  9
$CMLJUST
 70
     0
  9
$CMLSCALE
 40
1.0
  9
$PROXYGRAPHICS
 70
     1
  9
$MEASUREMENT
 70
     0
  9
$CELWEIGHT
370
    -1
  9
$ENDCAPS
280
     0
  9
$JOINSTYLE
280
     0
  9
$LWDISPLAY
290
     0
  9
$INSUNITS
 70
     0
  9
$HYPERLINKBASE
  1

  9
$STYLESHEET
  1

  9
$XEDIT
290
     1
  9
$CEPSNTYPE
380
     0
  9
$PSTYLEMODE
290
     1
  9
$FINGERPRINTGUID
  2
{EFEA13EF-B802-9C47-BAEB-27789E55BBA2}
  9
$VERSIONGUID
  2
{8BA9993D-6E51-E642-BB41-35157DB58F82}
  9
$EXTNAMES
290
     1
  9
$PSVPSCALE
 40
0.0
  9
$OLESTARTUP
290
     0
  0
ENDSEC
  0
SECTION
  2
CLASSES
  0
CLASS
  1
ACDBDICTIONARYWDFLT
  2
AcDbDictionaryWithDefault
  3
ObjectDBX Classes
 90
        0
280
     0
281
     0
  0
CLASS
  1
MATERIAL
  2
AcDbMaterial
  3
ObjectDBX Classes
 90
     1153
280
     0
281
     0
  0
CLASS
  1
VISUALSTYLE
  2
AcDbVisualStyle
  3
ObjectDBX Classes
 90
     4095
280
     0
281
     0
  0
CLASS
  1
SCALE
  2
AcDbScale
  3
ObjectDBX Classes
 90
     1153
280
     0
281
     0
  0
CLASS
  1
TABLESTYLE
  2
AcDbTableStyle
  3
ObjectDBX Classes
 90
     4095
280
     0
281
     0
  0
CLASS
  1
MLEADERSTYLE
  2
AcDbMLeaderStyle
  3
ACDB_MLEADERSTYLE_CLASS
 90
     4095
280
     0
281
     0
  0
CLASS
  1
ACDBSECTIONVIEWSTYLE
  2
AcDbSectionViewStyle
  3
ObjectDBX Classes
 90
     1025
280
     0
281
     0
  0
CLASS
  1
ACDBDETAILVIEWSTYLE
  2
AcDbDetailViewStyle
  3
ObjectDBX Classes
 90
     1025
280
     0
281
     0
  0
CLASS
  1
DICTIONARYVAR
  2
AcDbDictionaryVar
  3
ObjectDBX Classes
 90
        0
280
     0
281
     0
  0
CLASS
  1
CELLSTYLEMAP
  2
AcDbCellStyleMap
  3
ObjectDBX Classes
 90
     1152
280
     0
281
     0
  0
CLASS
  1
ACDBPLACEHOLDER
  2
AcDbPlaceHolder
  3
ObjectDBX Classes
 90
        0
280
     0
281
     0
  0
CLASS
  1
LAYOUT
  2
AcDbLayout
  3
ObjectDBX Classes
 90
        0
280
     0
281
     0
  0
ENDSEC
  0
SECTION
  2
TABLES
  0
TABLE
  2
VPORT
  5
1F1
330
0
100
AcDbSymbolTable
 70
     1
  0
VPORT
  5
25D
330
1F1
100
AcDbSymbolTableRecord
100
AcDbViewportTableRecord
  2
*ACTIVE
 70
     0
 10
0.0
 20
0.0
 11
1.0
 21
1.0
 12
0.0000083819031715
 22
-9.033143825473416
 13
0.0
 23
0.0
 14
1.0
 24
1.0
 15
0.0
 25
0.0
 16
0.0
 26
0.0
 36
1.0
 17
0.0
 27
0.0
 37
0.0
 40
5392.103880462137
 41
2.497536945812807
 42
50.0
 43
0.0
 44
0.0
 50
0.0
 51
0.0
 71
     0
 72
  2000
 73
     1
 74
     1
 75
     0
 76
     0
 77
     0
 78
     0
281
     0
 65
     1
110
0.0
120
0.0
130
0.0
111
1.0
121
0.0
131
0.0
112
0.0
122
1.0
132
0.0
 79
     0
146
0.0
1001
ACAD_NAV_VCDISPLAY
1070
     3
  0
ENDTAB
  0
TABLE
  2
LTYPE
  5
1EE
330
0
100
AcDbSymbolTable
 70
    11
  0
LTYPE
  5
243
330
1EE
100
AcDbSymbolTableRecord
100
AcDbLinetypeTableRecord
  2
ByBlock
 70
     0
  3

 72
    65
 73
     0
 40
0.0
  0
LTYPE
  5
244
330
1EE
100
AcDbSymbolTableRecord
100
AcDbLinetypeTableRecord
  2
ByLayer
 70
     0
  3

 72
    65
 73
     0
 40
0.0
  0
LTYPE
  5
245
330
1EE
100
AcDbSymbolTableRecord
100
AcDbLinetypeTableRecord
  2
CONTINUOUS
 70
     0
  3
Solid line
 72
    65
 73
     0
 40
0.0
  0
ENDTAB
  0
TABLE
  2
LAYER
  5
1EB
330
0
100
AcDbSymbolTable
 70
     5
  0
LAYER
  5
23D
102
{ACAD_XDICTIONARY
360
271
102
}
330
1EB
100
AcDbSymbolTableRecord
100
AcDbLayerTableRecord
  2
0
 70
     0
 62
     7
  6
CONTINUOUS
370
    -3
390
1F8
  0
LAYER
  5
25C
102
{ACAD_XDICTIONARY
360
273
102
}
330
1EB
100
AcDbSymbolTableRecord
100
AcDbLayerTableRecord
  2
DATA
 70
     0
 62
     7
  6
CONTINUOUS
370
    -3
390
1F8
  0
LAYER
  5
268
102
{ACAD_XDICTIONARY
360
275
102
}
330
1EB
100
AcDbSymbolTableRecord
100
AcDbLayerTableRecord
  2
HIBINO-BASE
 70
     0
 62
     7
  6
CONTINUOUS
370
    -3
390
1F8
  0
LAYER
  5
269
102
{ACAD_XDICTIONARY
360
277
102
}
330
1EB
100
AcDbSymbolTableRecord
100
AcDbLayerTableRecord
  2
SPEC
 70
     0
 62
     7
  6
CONTINUOUS
370
    -3
390
1F8
  0
LAYER
  5
26A
102
{ACAD_XDICTIONARY
360
279
102
}
330
1EB
100
AcDbSymbolTableRecord
100
AcDbLayerTableRecord
  2
DIMNSIONS
 70
     0
 62
     7
  6
CONTINUOUS
370
    -3
390
1F8
  0
ENDTAB
  0
TABLE
  2
STYLE
  5
1EC
330
0
100
AcDbSymbolTable
 70
     3
  0
STYLE
  5
23E
330
1EC
100
AcDbSymbolTableRecord
100
AcDbTextStyleTableRecord
  2
STANDARD
 70
     0
 40
0.0
 41
1.0
 50
0.0
 71
     0
 42
0.0
  3
txt
  4
BIGFONT.SHX
  0
ENDTAB
  0
TABLE
  2
VIEW
  5
1EF
330
0
100
AcDbSymbolTable
 70
     0
  0
ENDTAB
  0
TABLE
  2
UCS
  5
1F0
330
0
100
AcDbSymbolTable
 70
     0
  0
ENDTAB
  0
TABLE
  2
APPID
  5
1F2
330
0
100
AcDbSymbolTable
 70
     4
  0
APPID
  5
23F
330
1F2
100
AcDbSymbolTableRecord
100
AcDbRegAppTableRecord
  2
ACAD
 70
     0
  0
APPID
  5
246
330
1F2
100
AcDbSymbolTableRecord
100
AcDbRegAppTableRecord
  2
AcadAnnotative
 70
     0
  0
APPID
  5
285
330
1F2
100
AcDbSymbolTableRecord
100
AcDbRegAppTableRecord
  2
ACAD_NAV_VCDISPLAY
 70
     0
  0
APPID
  5
2BE
330
1F2
100
AcDbSymbolTableRecord
100
AcDbRegAppTableRecord
  2
ACAD_MLEADERVER
 70
     0
  0
ENDTAB
  0
TABLE
  2
DIMSTYLE
  5
1F3
330
0
100
AcDbSymbolTable
 70
     2
100
AcDbDimStyleTable
 71
     0
  0
DIMSTYLE
105
240
330
1F3
100
AcDbSymbolTableRecord
100
AcDbDimStyleTableRecord
  2
STANDARD
 70
     0
279
     2
340
23E
  0
ENDTAB
  0
TABLE
  2
BLOCK_RECORD
  5
1EA
330
0
100
AcDbSymbolTable
 70
     0
  0
BLOCK_RECORD
  5
258
330
1EA
100
AcDbSymbolTableRecord
100
AcDbBlockTableRecord
  2
*Model_Space
340
25B
  0
BLOCK_RECORD
  5
254
330
1EA
100
AcDbSymbolTableRecord
100
AcDbBlockTableRecord
  2
*Paper_Space
340
257
  0
ENDTAB
  0
ENDSEC
  0
SECTION
  2
BLOCKS
  0
BLOCK
  5
259
330
258
100
AcDbEntity
  8
0
100
AcDbBlockBegin
  2
*Model_Space
 70
     0
 10
0.0
 20
0.0
 30
0.0
  3
*Model_Space
  1

  0
ENDBLK
  5
25A
330
258
100
AcDbEntity
  8
0
100
AcDbBlockEnd
  0
BLOCK
  5
255
330
254
100
AcDbEntity
 67
     1
  8
0
100
AcDbBlockBegin
  2
*Paper_Space
 70
     0
 10
0.0
 20
0.0
 30
0.0
  3
*Paper_Space
  1

  0
ENDBLK
  5
256
330
254
100
AcDbEntity
 67
     1
  8
0
100
AcDbBlockEnd
  0
ENDSEC
  0
SECTION
  2
ENTITIES
  0
LINE
  5
2C
330
258
100
AcDbEntity
  8
HIBINO-BASE
  6
Continuous
 62
     7
100
AcDbLine
 10
-1800.0
 20
2667.104485000001
 30
0.0
 11
1800.0
 21
2667.104485000001
 31
0.0
  0
LINE
  5
2D
330
258
100
AcDbEntity
  8
HIBINO-BASE
  6
Continuous
 62
     7
100
AcDbLine
 10
1800.0
 20
-2532.895514999999
 30
0.0
 11
-1800.0
 21
-2532.895514999999
 31
0.0
  0
LINE
  5
2E
330
258
100
AcDbEntity
  8
HIBINO-BASE
  6
Continuous
 62
     7
100
AcDbLine
 10
-1800.0
 20
-2532.895514999999
 30
0.0
 11
-1800.0
 21
2667.104485000001
 31
0.0
  0
LINE
  5
2F
330
258
100
AcDbEntity
  8
HIBINO-BASE
  6
Continuous
 62
     7
100
AcDbLine
 10
1800.0
 20
2667.104485000001
 30
0.0
 11
1800.0
 21
-2532.895514999999
 31
0.0
  0
LINE
  5
30
330
258
100
AcDbEntity
  8
HIBINO-BASE
  6
Continuous
 62
     7
100
AcDbLine
 10
0.0000000000002842
 20
-2082.895514999999
 30
0.0
 11
1800.0
 21
-2082.895514999999
 31
0.0
  0
LINE
  5
31
330
258
100
AcDbEntity
  8
HIBINO-BASE
  6
Continuous
 62
     7
100
AcDbLine
 10
0.0000000000002842
 20
-2532.895514999999
 30
0.0
 11
0.0000000000002842
 21
-2082.895514999999
 31
0.0
  0
TEXT
  5
32
330
258
100
AcDbEntity
  8
HIBINO-BASE
 62
     7
100
AcDbText
 10
18.00000000000039
 20
-2133.069381666665
 30
0.0
 40
32.57682291666667
  1
NOTE
 41
0.7
 11
18.00000000000039
 21
-2100.492558749999
 31
0.0
100
AcDbText
 73
     3
  0
LINE
  5
33
330
258
100
AcDbEntity
  8
HIBINO-BASE
  6
Continuous
 62
     7
100
AcDbLine
 10
700.0
 20
-2532.895514999999
 30
0.0
 11
700.0
 21
-2082.895514999999
 31
0.0
  0
TEXT
  5
34
330
258
100
AcDbEntity
  8
HIBINO-BASE
 62
     7
100
AcDbText
 10
717.9999999999997
 20
-2133.069381666665
 30
0.0
 40
32.57682291666667
  1
TITLE
 41
0.7
 11
717.9999999999997
 21
-2100.492558749999
 31
0.0
100
AcDbText
 73
     3
  0
LINE
  5
35
330
258
100
AcDbEntity
  8
HIBINO-BASE
  6
Continuous
 62
     7
100
AcDbLine
 10
0.0000000000002842
 20
-2332.895514999999
 30
0.0
 11
1800.0
 21
-2332.895514999999
 31
0.0
  0
TEXT
  5
36
330
258
100
AcDbEntity
  8
HIBINO-BASE
 62
     7
100
AcDbText
 10
967.9999999999996
 20
-2381.942981666667
 30
0.0
 40
32.57682291666667
  1
DRAWN
 41
0.7
 11
967.9999999999996
 21
-2349.36615875
 31
0.0
100
AcDbText
 73
     3
  0
TEXT
  5
37
330
258
100
AcDbEntity
  8
HIBINO-BASE
 62
     7
100
AcDbText
 10
467.9999999999998
 20
-2381.942981666667
 30
0.0
 40
32.57682291666667
  1
DATE
 41
0.7
 11
467.9999999999998
 21
-2349.36615875
 31
0.0
100
AcDbText
 73
     3
  0
TEXT
  5
38
330
258
100
AcDbEntity
  8
HIBINO-BASE
 62
     7
100
AcDbText
 10
267.9999999999998
 20
-2381.942981666667
 30
0.0
 40
32.57682291666667
  1
SCALE
 41
0.7
 11
267.9999999999998
 21
-2349.36615875
 31
0.0
100
AcDbText
 73
     3
  0
TEXT
  5
39
330
258
100
AcDbEntity
  8
HIBINO-BASE
 62
     7
100
AcDbText
 10
717.9999999999997
 20
-2381.942981666667
 30
0.0
 40
32.57682291666667
  1
DESIGN
 41
0.7
 11
717.9999999999997
 21
-2349.36615875
 31
0.0
100
AcDbText
 73
     3
  0
TEXT
  5
3A
330
258
100
AcDbEntity
  8
HIBINO-BASE
 62
     7
100
AcDbText
 10
1468.0
 20
-2381.942981666667
 30
0.0
 40
32.57682291666667
  1
DRAWING NO.
 41
0.7
 11
1468.0
 21
-2349.36615875
 31
0.0
100
AcDbText
 73
     3
  0
TEXT
  5
3B
330
258
100
AcDbEntity
  8
HIBINO-BASE
 62
     7
100
AcDbText
 10
1218.0
 20
-2381.942981666667
 30
0.0
 40
32.57682291666667
  1
CHECK
 41
0.7
 11
1218.0
 21
-2349.36615875
 31
0.0
100
AcDbText
 73
     3
  0
LINE
  5
3C
330
258
100
AcDbEntity
  8
HIBINO-BASE
  6
Continuous
 62
     7
100
AcDbLine
 10
287.5000000000003
 20
-2507.895514999999
 30
0.0
 11
362.5000000000002
 21
-2432.895514999999
 31
0.0
  0
TEXT
  5
3D
330
258
100
AcDbEntity
  8
HIBINO-BASE
 62
     7
100
AcDbText
 10
275.0000000000003
 20
-2455.074381666666
 30
0.0
 40
32.57682291666667
  1
1
 41
0.7
 11
275.0000000000003
 21
-2422.497558749999
 31
0.0
100
AcDbText
 73
     3
  0
LINE
  5
3E
330
258
100
AcDbEntity
  8
HIBINO-BASE
  6
Continuous
 62
     7
100
AcDbLine
 10
250.0000000000003
 20
-2532.895514999999
 30
0.0
 11
250.0000000000003
 21
-2332.895514999999
 31
0.0
  0
LINE
  5
3F
330
258
100
AcDbEntity
  8
HIBINO-BASE
  6
Continuous
 62
     7
100
AcDbLine
 10
449.9999999999997
 20
-2532.895514999999
 30
0.0
 11
449.9999999999997
 21
-2332.895514999999
 31
0.0
  0
LINE
  5
40
330
258
100
AcDbEntity
  8
HIBINO-BASE
  6
Continuous
 62
     7
100
AcDbLine
 10
949.9999999999996
 20
-2332.895514999999
 30
0.0
 11
949.9999999999996
 21
-2532.895514999999
 31
0.0
  0
LINE
  5
41
330
258
100
AcDbEntity
  8
HIBINO-BASE
  6
Continuous
 62
     7
100
AcDbLine
 10
1450.0
 20
-2332.895514999999
 30
0.0
 11
1450.0
 21
-2532.895514999999
 31
0.0
  0
LINE
  5
42
330
258
100
AcDbEntity
  8
HIBINO-BASE
  6
Continuous
 62
     7
100
AcDbLine
 10
1200.0
 20
-2532.895514999999
 30
0.0
 11
1200.0
 21
-2332.895514999999
 31
0.0
  0
TEXT
  5
43
330
258
100
AcDbEntity
  8
HIBINO-BASE
 62
     7
100
AcDbText
 10
467.1308000000001
 20
-2475.622581666665
 30
0.0
 40
32.57682291666667
  1
'17.06.
 41
0.7
 11
467.1308000000001
 21
-2443.045758749999
 31
0.0
100
AcDbText
 73
     3
  0
TEXT
  5
44
330
258
100
AcDbEntity
  8
HIBINO-BASE
 62
     7
100
AcDbText
 10
350.0000000000002
 20
-2492.574381666666
 30
0.0
 40
32.57682291666667
  1
20
 41
0.7
 11
350.0000000000002
 21
-2459.99755875
 31
0.0
100
AcDbText
 73
     3
  0
TEXT
  5
45
330
258
100
AcDbEntity
  8
HIBINO-BASE
 62
     7
100
AcDbText
 10
980.1162002206924
 20
-2475.622581666665
 30
0.0
 40
32.57682291666667
  1
N.Sasaki
 41
0.7
 11
980.1162002206924
 21
-2443.045758749999
 31
0.0
100
AcDbText
 73
     3
  0
TEXT
  5
46
330
258
100
AcDbEntity
  8
HIBINO-BASE
 62
     7
100
AcDbText
 10
77.66666666666735
 20
-2493.375514999999
 30
0.0
 40
65.15364583333333
  1
A4
 41
0.7
 11
77.66666666666735
 21
-2428.221869166666
 31
0.0
100
AcDbText
 73
     3
  0
TEXT
  5
47
330
258
100
AcDbEntity
  8
HIBINO-BASE
 62
     7
100
AcDbText
 10
19.16666666666656
 20
-2385.284615
 30
0.0
 40
32.57682291666667
  1
PAPER SIZE
 41
0.7
 11
19.16666666666657
 21
-2352.707792083333
 31
0.0
100
AcDbText
 73
     3
  0
TEXT
  5
48
330
258
100
AcDbEntity
  8
HIBINO-BASE
 62
     7
100
AcDbText
 10
-1656.319999999999
 20
-2661.069071
 30
0.0
 40
72.00088359374998
  1
Hibino Corporation
 41
0.7
 11
-1656.319999999999
 21
-2589.06818740625
 31
0.0
100
AcDbText
 73
     3
  0
TEXT
  5
49
330
258
100
AcDbEntity
  8
HIBINO-BASE
 62
     7
100
AcDbText
 10
1001.3678
 20
-2661.069071
 30
0.0
 40
72.00088359374998
  1
ヒビノ株式会社
 41
0.7
 11
1001.3678
 21
-2589.06818740625
 31
0.0
100
AcDbText
 73
     3
  0
LINE
  5
4A
330
258
100
AcDbEntity
  8
SPEC
  6
Continuous
 62
     7
100
AcDbLine
 10
-1650.0
 20
2467.104485000001
 30
0.0
 11
1300.0
 21
2467.104485000001
 31
0.0
  0
LINE
  5
4B
330
258
100
AcDbEntity
  8
SPEC
  6
Continuous
 62
     7
100
AcDbLine
 10
-1650.0
 20
2317.104485000001
 30
0.0
 11
1300.0
 21
2317.104485000001
 31
0.0
  0
LINE
  5
4C
330
258
100
AcDbEntity
  8
SPEC
  6
Continuous
 62
     7
100
AcDbLine
 10
-1650.0
 20
2392.104485000001
 30
0.0
 11
1300.0
 21
2392.104485000001
 31
0.0
  0
LINE
  5
4D
330
258
100
AcDbEntity
  8
SPEC
  6
Continuous
 62
     7
100
AcDbLine
 10
-1650.0
 20
2467.104485000001
 30
0.0
 11
-1650.0
 21
1567.104485
 31
0.0
  0
TEXT
  5
4E
330
258
100
AcDbEntity
  8
SPEC
 62
     7
100
AcDbText
 10
-1625.0
 20
2494.969885000001
 30
0.0
 40
48.86523437500001
  1
仕様
 41
0.7
 11
-1625.0
 21
2543.835119375001
 31
0.0
100
AcDbText
 73
     3
  0
LINE
  5
4F
330
258
100
AcDbEntity
  8
SPEC
  6
Continuous
 62
     7
100
AcDbLine
 10
-1000.0
 20
2467.104485000001
 30
0.0
 11
-1000.0
 21
1567.104485
 31
0.0
  0
LINE
  5
50
330
258
100
AcDbEntity
  8
SPEC
  6
Continuous
 62
     7
100
AcDbLine
 10
1300.0
 20
2467.104485000001
 30
0.0
 11
1300.0
 21
1567.104485
 31
0.0
  0
LINE
  5
51
330
258
100
AcDbEntity
  8
SPEC
  6
Continuous
 62
     7
100
AcDbLine
 10
-1649.999999999999
 20
2242.104485000001
 30
0.0
 11
1300.0
 21
2242.104485000001
 31
0.0
  0
TEXT
  5
52
330
258
100
AcDbEntity
  8
SPEC
 62
     7
100
AcDbText
 10
-982.0
 20
2407.862929444445
 30
0.0
 40
38.00629340277778
  1
28Hz～
 41
0.7
 11
-982.0
 21
2445.869222847223
 31
0.0
100
AcDbText
 73
     3
  0
TEXT
  5
53
330
258
100
AcDbEntity
  8
SPEC
 62
     7
100
AcDbText
 10
-1632.0
 20
2407.862929444445
 30
0.0
 40
38.00629340277778
  1
周波数レンジ(-10dB)
 41
0.7
 11
-1632.0
 21
2445.869222847223
 31
0.0
100
AcDbText
 73
     3
  0
TEXT
  5
54
330
258
100
AcDbEntity
  8
SPEC
 62
     7
100
AcDbText
 10
-1632.0
 20
2257.862929444445
 30
0.0
 40
38.00629340277778
  1
感度(1W、1m)
 41
0.7
 11
-1632.0
 21
2295.869222847223
 31
0.0
100
AcDbText
 73
     3
  0
TEXT
  5
55
330
258
100
AcDbEntity
  8
SPEC
 62
     7
100
AcDbText
 10
-1632.0
 20
2332.862929444445
 30
0.0
 40
38.00629340277778
  1
許容入力
 41
0.7
 11
-1632.0
 21
2370.869222847223
 31
0.0
100
AcDbText
 73
     3
  0
TEXT
  5
56
330
258
100
AcDbEntity
  8
SPEC
 62
     7
100
AcDbText
 10
-982.0
 20
2332.862929444445
 30
0.0
 40
38.00629340277778
  1
300W
 41
0.7
 11
-982.0
 21
2370.869222847223
 31
0.0
100
AcDbText
 73
     3
  0
TEXT
  5
57
330
258
100
AcDbEntity
  8
SPEC
 62
     7
100
AcDbText
 10
-1632.0
 20
2182.862929444445
 30
0.0
 40
38.00629340277778
  1
最大音圧(1m)
 41
0.7
 11
-1632.0
 21
2220.869222847223
 31
0.0
100
AcDbText
 73
     3
  0
TEXT
  5
58
330
258
100
AcDbEntity
  8
SPEC
 62
     7
100
AcDbText
 10
-982.0
 20
2257.862929444445
 30
0.0
 40
38.00629340277778
  1
100dB SPL
 41
0.7
 11
-982.0
 21
2295.869222847223
 31
0.0
100
AcDbText
 73
     3
  0
TEXT
  5
59
330
258
100
AcDbEntity
  8
SPEC
 62
     7
100
AcDbText
 10
-982.0
 20
2182.862929444445
 30
0.0
 40
38.00629340277778
  1
125dB SPL(連続)、131dB SPL(ピーク)
 41
0.7
 11
-982.0
 21
2220.869222847223
 31
0.0
100
AcDbText
 73
     3
  0
TEXT
  5
5A
330
258
100
AcDbEntity
  8
SPEC
 62
     7
100
AcDbText
 10
-982.0
 20
1732.862929444445
 30
0.0
 40
38.00629340277778
  1
スピーカーユニットは前面側で交換
 41
0.7
 11
-982.0
 21
1770.869222847223
 31
0.0
100
AcDbText
 73
     3
  0
TEXT
  5
5B
330
258
100
AcDbEntity
  8
SPEC
 62
     7
100
AcDbText
 10
-982.0
 20
1807.862929444445
 30
0.0
 40
38.00629340277778
  1
正相
 41
0.7
 11
-982.0
 21
1845.869222847223
 31
0.0
100
AcDbText
 73
     3
  0
TEXT
  5
5C
330
258
100
AcDbEntity
  8
SPEC
 62
     7
100
AcDbText
 10
-982.0
 20
2107.862929444445
 30
0.0
 40
38.00629340277778
  1
100Hz
 41
0.7
 11
-982.0
 21
2145.869222847223
 31
0.0
100
AcDbText
 73
     3
  0
TEXT
  5
5D
330
258
100
AcDbEntity
  8
SPEC
 62
     7
100
AcDbText
 10
-1632.0
 20
2107.862929444445
 30
0.0
 40
38.00629340277778
  1
推奨クロスオーバー周波数
 41
0.7
 11
-1632.0
 21
2145.869222847223
 31
0.0
100
AcDbText
 73
     3
  0
TEXT
  5
5E
330
258
100
AcDbEntity
  8
SPEC
 62
     7
100
AcDbText
 10
-1632.0
 20
1732.862929444445
 30
0.0
 40
38.00629340277778
  1
メンテナンス
 41
0.7
 11
-1632.0
 21
1770.869222847223
 31
0.0
100
AcDbText
 73
     3
  0
TEXT
  5
5F
330
258
100
AcDbEntity
  8
SPEC
 62
     7
100
AcDbText
 10
-1632.0
 20
1807.862929444445
 30
0.0
 40
38.00629340277778
  1
極性
 41
0.7
 11
-1632.0
 21
1845.869222847223
 31
0.0
100
AcDbText
 73
     3
  0
LINE
  5
60
330
258
100
AcDbEntity
  8
SPEC
  6
Continuous
 62
     7
100
AcDbLine
 10
-1650.0
 20
2167.104485000001
 30
0.0
 11
1300.0
 21
2167.104485000001
 31
0.0
  0
LINE
  5
61
330
258
100
AcDbEntity
  8
SPEC
  6
Continuous
 62
     7
100
AcDbLine
 10
-1650.0
 20
2017.104485
 30
0.0
 11
1300.0
 21
2017.104485
 31
0.0
  0
LINE
  5
62
330
258
100
AcDbEntity
  8
SPEC
  6
Continuous
 62
     7
100
AcDbLine
 10
-1650.0
 20
2092.104485000001
 30
0.0
 11
1300.0
 21
2092.104485000001
 31
0.0
  0
LINE
  5
63
330
258
100
AcDbEntity
  8
SPEC
  6
Continuous
 62
     7
100
AcDbLine
 10
-1649.999999999999
 20
1942.104485
 30
0.0
 11
1300.0
 21
1942.104485
 31
0.0
  0
TEXT
  5
64
330
258
100
AcDbEntity
  8
SPEC
 62
     7
100
AcDbText
 10
-1632.0
 20
2032.862929444445
 30
0.0
 40
38.00629340277778
  1
公称インピーダンス
 41
0.7
 11
-1632.0
 21
2070.869222847223
 31
0.0
100
AcDbText
 73
     3
  0
TEXT
  5
65
330
258
100
AcDbEntity
  8
SPEC
 62
     7
100
AcDbText
 10
-1632.0
 20
1957.862929444445
 30
0.0
 40
38.00629340277778
  1
ドライバー構成
 41
0.7
 11
-1632.0
 21
1995.869222847223
 31
0.0
100
AcDbText
 73
     3
  0
TEXT
  5
66
330
258
100
AcDbEntity
  8
SPEC
 62
     7
100
AcDbText
 10
-1632.0
 20
1882.862929444445
 30
0.0
 40
38.00629340277778
  1
入力コネクター
 41
0.7
 11
-1632.0
 21
1920.869222847223
 31
0.0
100
AcDbText
 73
     3
  0
TEXT
  5
67
330
258
100
AcDbEntity
  8
SPEC
 62
     7
100
AcDbText
 10
-982.0
 20
2032.862929444445
 30
0.0
 40
38.00629340277778
  1
8Ω
 41
0.7
 11
-982.0
 21
2070.869222847223
 31
0.0
100
AcDbText
 73
     3
  0
TEXT
  5
68
330
258
100
AcDbEntity
  8
SPEC
 62
     7
100
AcDbText
 10
-982.0
 20
1957.862929444445
 30
0.0
 40
38.00629340277778
  1
2042HPL(18インチ(457mm))
 41
0.7
 11
-982.0
 21
1995.869222847223
 31
0.0
100
AcDbText
 73
     3
  0
TEXT
  5
69
330
258
100
AcDbEntity
  8
SPEC
 62
     7
100
AcDbText
 10
-982.0
 20
1882.862929444445
 30
0.0
 40
38.00629340277778
  1
ねじ止め端子
 41
0.7
 11
-982.0
 21
1920.869222847223
 31
0.0
100
AcDbText
 73
     3
  0
LINE
  5
6A
330
258
100
AcDbEntity
  8
SPEC
  6
Continuous
 62
     7
100
AcDbLine
 10
-1650.0
 20
1867.104485
 30
0.0
 11
1300.0
 21
1867.104485
 31
0.0
  0
LINE
  5
6B
330
258
100
AcDbEntity
  8
SPEC
  6
Continuous
 62
     7
100
AcDbLine
 10
-1650.0
 20
1792.104485
 30
0.0
 11
1300.0
 21
1792.104485
 31
0.0
  0
LINE
  5
6C
330
258
100
AcDbEntity
  8
SPEC
  6
Continuous
 62
     7
100
AcDbLine
 10
-1650.0
 20
1717.104485
 30
0.0
 11
1300.0
 21
1717.104485
 31
0.0
  0
LINE
  5
6D
330
258
100
AcDbEntity
  8
SPEC
  6
Continuous
 62
     7
100
AcDbLine
 10
-1650.0
 20
1567.104485
 30
0.0
 11
1300.0
 21
1567.104485
 31
0.0
  0
LINE
  5
6E
330
258
100
AcDbEntity
  8
SPEC
  6
Continuous
 62
     7
100
AcDbLine
 10
-1650.0
 20
1642.104485
 30
0.0
 11
1300.0
 21
1642.104485
 31
0.0
  0
TEXT
  5
6F
330
258
100
AcDbEntity
  8
SPEC
 62
     7
100
AcDbText
 10
-982.0
 20
1582.862929444445
 30
0.0
 40
38.00629340277778
  1
51kg
 41
0.7
 11
-982.0
 21
1620.869222847223
 31
0.0
100
AcDbText
 73
     3
  0
TEXT
  5
70
330
258
100
AcDbEntity
  8
SPEC
 62
     7
100
AcDbText
 10
-1632.0
 20
1657.862929444445
 30
0.0
 40
38.00629340277778
  1
寸法(W×H×D)
 41
0.7
 11
-1632.0
 21
1695.869222847223
 31
0.0
100
AcDbText
 73
     3
  0
TEXT
  5
71
330
258
100
AcDbEntity
  8
SPEC
 62
     7
100
AcDbText
 10
-1632.0
 20
1582.862929444445
 30
0.0
 40
38.00629340277778
  1
質量
 41
0.7
 11
-1632.0
 21
1620.869222847223
 31
0.0
100
AcDbText
 73
     3
  0
TEXT
  5
72
330
258
100
AcDbEntity
  8
SPEC
 62
     7
100
AcDbText
 10
-982.0
 20
1657.862929444445
 30
0.0
 40
38.00629340277778
  1
652×1,168×368mm(除突起部)
 41
0.7
 11
-982.0
 21
1695.869222847223
 31
0.0
100
AcDbText
 73
     3
  0
TEXT
  5
73
330
258
100
AcDbEntity
  8
DIMNSIONS
 62
     7
100
AcDbText
 10
-400.0
 20
-2287.505714999999
 30
0.0
 40
48.86523437500001
  1
(単位：mm)
 41
0.7
 11
-400.0
 21
-2238.640480624999
 31
0.0
100
AcDbText
 73
     3
  0
LINE
  5
74
330
258
100
AcDbEntity
  8
DIMNSIONS
  6
Continuous
 62
     7
100
AcDbLine
 10
-1349.404999999999
 20
-31.70000000000073
 30
0.0
 11
-1420.0
 21
-31.70000000000073
 31
0.0
  0
LINE
  5
75
330
258
100
AcDbEntity
  8
DIMNSIONS
  6
Continuous
 62
     7
100
AcDbLine
 10
-1349.404999999999
 20
-400.0
 30
0.0
 11
-1420.0
 21
-400.0
 31
0.0
  0
LINE
  5
76
330
258
100
AcDbEntity
  8
DIMNSIONS
  6
Continuous
 62
     7
100
AcDbLine
 10
-1400.0
 20
-31.70000000000073
 30
0.0
 11
-1400.0
 21
-400.0
 31
0.0
  0
LINE
  5
77
330
258
100
AcDbEntity
  8
DIMNSIONS
  6
Continuous
 62
     7
100
AcDbLine
 10
-1400.0
 20
-31.70000000000073
 30
0.0
 11
-1389.282686475588
 21
-71.69755859375072
 31
0.0
  0
LINE
  5
78
330
258
100
AcDbEntity
  8
DIMNSIONS
  6
Continuous
 62
     7
100
AcDbLine
 10
-1400.0
 20
-31.70000000000073
 30
0.0
 11
-1410.717313524411
 21
-71.69755859375072
 31
0.0
  0
LINE
  5
79
330
258
100
AcDbEntity
  8
DIMNSIONS
  6
Continuous
 62
     7
100
AcDbLine
 10
-1400.0
 20
-400.0
 30
0.0
 11
-1410.717313524411
 21
-360.00244140625
 31
0.0
  0
LINE
  5
7A
330
258
100
AcDbEntity
  8
DIMNSIONS
  6
Continuous
 62
     7
100
AcDbLine
 10
-1400.0
 20
-400.0
 30
0.0
 11
-1389.282686475588
 21
-360.00244140625
 31
0.0
  0
TEXT
  5
7B
330
258
100
AcDbEntity
  8
DIMNSIONS
 62
     7
100
AcDbText
 10
-1419.877777777778
 20
-268.766666666667
 30
0.0
 40
54.29470486111111
  1
368
 50
90.0
 41
0.7
 11
-1474.172482638889
 21
-268.766666666667
 31
0.0
100
AcDbText
 73
     3
  0
LINE
  5
7C
330
258
100
AcDbEntity
  8
DIMNSIONS
  6
Continuous
 62
     7
100
AcDbLine
 10
-1355.755
 20
-581.5999999999995
 30
0.0
 11
-1420.0
 21
-581.5999999999995
 31
0.0
  0
LINE
  5
7D
330
258
100
AcDbEntity
  8
DIMNSIONS
  6
Continuous
 62
     7
100
AcDbLine
 10
-1355.755
 20
-1750.0
 30
0.0
 11
-1420.0
 21
-1750.0
 31
0.0
  0
LINE
  5
7E
330
258
100
AcDbEntity
  8
DIMNSIONS
  6
Continuous
 62
     7
100
AcDbLine
 10
-1400.0
 20
-581.5999999999995
 30
0.0
 11
-1400.0
 21
-1750.0
 31
0.0
  0
LINE
  5
7F
330
258
100
AcDbEntity
  8
DIMNSIONS
  6
Continuous
 62
     7
100
AcDbLine
 10
-1400.0
 20
-581.5999999999995
 30
0.0
 11
-1389.282686475588
 21
-621.5975585937496
 31
0.0
  0
LINE
  5
80
330
258
100
AcDbEntity
  8
DIMNSIONS
  6
Continuous
 62
     7
100
AcDbLine
 10
-1400.0
 20
-581.5999999999995
 30
0.0
 11
-1410.717313524411
 21
-621.5975585937496
 31
0.0
  0
LINE
  5
81
330
258
100
AcDbEntity
  8
DIMNSIONS
  6
Continuous
 62
     7
100
AcDbLine
 10
-1400.0
 20
-1750.0
 30
0.0
 11
-1410.717313524411
 21
-1710.00244140625
 31
0.0
  0
LINE
  5
82
330
258
100
AcDbEntity
  8
DIMNSIONS
  6
Continuous
 62
     7
100
AcDbLine
 10
-1400.0
 20
-1750.0
 30
0.0
 11
-1389.282686475588
 21
-1710.00244140625
 31
0.0
  0
TEXT
  5
83
330
258
100
AcDbEntity
  8
DIMNSIONS
 62
     7
100
AcDbText
 10
-1419.877777777778
 20
-1236.355555555556
 30
0.0
 40
54.29470486111111
  1
1168
 50
90.0
 41
0.7
 11
-1474.172482638889
 21
-1236.355555555556
 31
0.0
100
AcDbText
 73
     3
  0
LINE
  5
84
330
258
100
AcDbEntity
  8
DIMNSIONS
  6
Continuous
 62
     7
100
AcDbLine
 10
-1325.755
 20
-1780.0
 30
0.0
 11
-1325.755
 21
-1895.0
 31
0.0
  0
LINE
  5
85
330
258
100
AcDbEntity
  8
DIMNSIONS
  6
Continuous
 62
     7
100
AcDbLine
 10
-674.2449999999998
 20
-1780.0
 30
0.0
 11
-674.2449999999998
 21
-1895.0
 31
0.0
  0
LINE
  5
86
330
258
100
AcDbEntity
  8
DIMNSIONS
  6
Continuous
 62
     7
100
AcDbLine
 10
-1325.755
 20
-1875.0
 30
0.0
 11
-674.2449999999998
 21
-1875.0
 31
0.0
  0
LINE
  5
87
330
258
100
AcDbEntity
  8
DIMNSIONS
  6
Continuous
 62
     7
100
AcDbLine
 10
-1325.755
 20
-1875.0
 30
0.0
 11
-1285.75744140625
 21
-1864.282686475588
 31
0.0
  0
LINE
  5
88
330
258
100
AcDbEntity
  8
DIMNSIONS
  6
Continuous
 62
     7
100
AcDbLine
 10
-1325.755
 20
-1875.0
 30
0.0
 11
-1285.75744140625
 21
-1885.717313524412
 31
0.0
  0
LINE
  5
89
330
258
100
AcDbEntity
  8
DIMNSIONS
  6
Continuous
 62
     7
100
AcDbLine
 10
-674.2449999999998
 20
-1875.0
 30
0.0
 11
-714.2425585937498
 21
-1885.717313524412
 31
0.0
  0
LINE
  5
8A
330
258
100
AcDbEntity
  8
DIMNSIONS
  6
Continuous
 62
     7
100
AcDbLine
 10
-674.2449999999998
 20
-1875.0
 30
0.0
 11
-714.2425585937498
 21
-1864.282686475588
 31
0.0
  0
TEXT
  5
8B
330
258
100
AcDbEntity
  8
DIMNSIONS
 62
     7
100
AcDbText
 10
-1052.916666666666
 20
-1855.122222222222
 30
0.0
 40
54.29470486111111
  1
652
 41
0.7
 11
-1052.916666666666
 21
-1800.827517361111
 31
0.0
100
AcDbText
 73
     3
  0
LINE
  5
8C
330
258
100
AcDbEntity
  8
DIMNSIONS
  6
Continuous
 62
     7
100
AcDbLine
 10
-1349.404999999999
 20
-400.0
 30
0.0
 11
-1420.0
 21
-400.0
 31
0.0
  0
LINE
  5
8D
330
258
100
AcDbEntity
  8
DIMNSIONS
  6
Continuous
 62
     7
100
AcDbLine
 10
-1261.775
 20
-424.0000000000005
 30
0.0
 11
-1420.0
 21
-424.0000000000005
 31
0.0
  0
LINE
  5
8E
330
258
100
AcDbEntity
  8
DIMNSIONS
  6
Continuous
 62
     7
100
AcDbLine
 10
-1400.0
 20
-424.0000000000005
 30
0.0
 11
-1400.0
 21
-400.0
 31
0.0
  0
LINE
  5
8F
330
258
100
AcDbEntity
  8
DIMNSIONS
  6
Continuous
 62
     7
100
AcDbLine
 10
-1400.0
 20
-400.0
 30
0.0
 11
-1400.0
 21
-330.0
 31
0.0
  0
LINE
  5
90
330
258
100
AcDbEntity
  8
DIMNSIONS
  6
Continuous
 62
     7
100
AcDbLine
 10
-1400.0
 20
-400.0
 30
0.0
 11
-1410.717313524411
 21
-360.00244140625
 31
0.0
  0
LINE
  5
91
330
258
100
AcDbEntity
  8
DIMNSIONS
  6
Continuous
 62
     7
100
AcDbLine
 10
-1400.0
 20
-400.0
 30
0.0
 11
-1389.282686475588
 21
-360.00244140625
 31
0.0
  0
LINE
  5
92
330
258
100
AcDbEntity
  8
DIMNSIONS
  6
Continuous
 62
     7
100
AcDbLine
 10
-1400.0
 20
-424.0000000000005
 30
0.0
 11
-1400.0
 21
-566.1111111111112
 31
0.0
  0
LINE
  5
93
330
258
100
AcDbEntity
  8
DIMNSIONS
  6
Continuous
 62
     7
100
AcDbLine
 10
-1400.0
 20
-424.0000000000005
 30
0.0
 11
-1389.282686475588
 21
-463.9975585937505
 31
0.0
  0
LINE
  5
94
330
258
100
AcDbEntity
  8
DIMNSIONS
  6
Continuous
 62
     7
100
AcDbLine
 10
-1400.0
 20
-424.0000000000005
 30
0.0
 11
-1410.717313524411
 21
-463.9975585937505
 31
0.0
  0
TEXT
  5
95
330
258
100
AcDbEntity
  8
DIMNSIONS
 62
     7
100
AcDbText
 10
-1419.877777777778
 20
-566.1111111111112
 30
0.0
 40
54.29470486111111
  1
24.0
 50
90.0
 41
0.7
 11
-1474.172482638889
 21
-566.1111111111112
 31
0.0
100
AcDbText
 73
     3
  0
TEXT
  5
96
330
258
100
AcDbEntity
  8
DATA
 62
     7
100
AcDbText
 10
-1750.0
 20
-2375.369959444444
 30
0.0
 40
38.00629340277778
  1
※仕様及び外観は予告なく変更されることがあります。
 41
0.7
 11
-1750.0
 21
-2337.363666041666
 31
0.0
100
AcDbText
 73
     3
  0
TEXT
  5
97
330
258
100
AcDbEntity
  8
DATA
 62
     7
100
AcDbText
 10
-1750.0
 20
-2424.758848333333
 30
0.0
 40
38.00629340277778
  1
　また、同一商品でも若干の個体差があることがあります。ご了承ください。
 41
0.7
 11
-1750.0
 21
-2386.752554930555
 31
0.0
100
AcDbText
 73
     3
  0
TEXT
  5
98
330
258
100
AcDbEntity
  8
DATA
 62
     7
100
AcDbText
 10
999.9999999999996
 20
-2165.277714999999
 30
0.0
 40
48.86523437500001
  1
JBL PROFESSIONAL
 41
0.7
 11
999.9999999999996
 21
-2116.412480624999
 31
0.0
100
AcDbText
 73
     3
  0
TEXT
  5
99
330
258
100
AcDbEntity
  8
DATA
 62
     7
100
AcDbText
 10
999.9999999999996
 20
-2310.277714999999
 30
0.0
 40
48.86523437500001
  1
3635
 41
0.7
 11
999.9999999999996
 21
-2261.412480624999
 31
0.0
100
AcDbText
 73
     3
  0
LINE
  5
9A
330
258
100
AcDbEntity
  8
DATA
  6
Continuous
 62
     7
100
AcDbLine
 10
-106.7050000000008
 20
-1730.949999999999
 30
0.0
 11
506.7049999999991
 21
-1730.949999999999
 31
0.0
  0
LINE
  5
9B
330
258
100
AcDbEntity
  8
DATA
  6
Continuous
 62
     7
100
AcDbLine
 10
-125.7550000000001
 20
-1750.0
 30
0.0
 11
525.7550000000001
 21
-1750.0
 31
0.0
  0
LINE
  5
9C
330
258
100
AcDbEntity
  8
DATA
  6
Continuous
 62
     7
100
AcDbLine
 10
-106.7050000000008
 20
-600.6499999999997
 30
0.0
 11
506.7050000000008
 21
-600.6499999999997
 31
0.0
  0
LINE
  5
9D
330
258
100
AcDbEntity
  8
DATA
  6
Continuous
 62
     7
100
AcDbLine
 10
-125.7550000000001
 20
-581.5999999999995
 30
0.0
 11
525.7550000000001
 21
-581.599999999999
 31
0.0
  0
LINE
  5
9E
330
258
100
AcDbEntity
  8
DATA
  6
Continuous
 62
     7
100
AcDbLine
 10
-1319.404999999999
 20
-400.0
 30
0.0
 11
-680.5950000000002
 21
-400.0
 31
0.0
  0
LINE
  5
9F
330
258
100
AcDbEntity
  8
DATA
  6
Continuous
 62
     7
100
AcDbLine
 10
-1319.404999999999
 20
-31.70000000000073
 30
0.0
 11
-680.5950000000002
 21
-31.70000000000027
 31
0.0
  0
LINE
  5
A0
330
258
100
AcDbEntity
  8
DATA
  6
Continuous
 62
     7
100
AcDbLine
 10
-1306.705000000001
 20
-600.6499999999997
 30
0.0
 11
-693.2949999999992
 21
-600.6499999999997
 31
0.0
  0
LINE
  5
A1
330
258
100
AcDbEntity
  8
DATA
  6
Continuous
 62
     7
100
AcDbLine
 10
-1306.705000000001
 20
-1730.949999999999
 30
0.0
 11
-693.2949999999992
 21
-1730.949999999999
 31
0.0
  0
LINE
  5
A2
330
258
100
AcDbEntity
  8
DATA
  6
Continuous
 62
     7
100
AcDbLine
 10
-1325.755
 20
-1750.0
 30
0.0
 11
-674.2449999999998
 21
-1750.0
 31
0.0
  0
LINE
  5
A3
330
258
100
AcDbEntity
  8
DATA
  6
Continuous
 62
     7
100
AcDbLine
 10
-1325.755
 20
-581.5999999999995
 30
0.0
 11
-674.2449999999998
 21
-581.599999999999
 31
0.0
  0
LINE
  5
A4
330
258
100
AcDbEntity
  8
DATA
  6
Continuous
 62
     7
100
AcDbLine
 10
-1231.775
 20
-424.0000000000005
 30
0.0
 11
-768.2249999999993
 21
-424.0
 31
0.0
  0
CIRCLE
  5
A5
330
258
100
AcDbEntity
  8
DATA
  6
Continuous
 62
     7
100
AcDbCircle
 10
-1000.000000000001
 20
-760.5999999999995
 30
0.0
 40
62.5
  0
CIRCLE
  5
A6
330
258
100
AcDbEntity
  8
DATA
  6
Continuous
 62
     7
100
AcDbCircle
 10
-1000.000000000001
 20
-760.5999999999995
 30
0.0
 40
50.0
  0
LINE
  5
A7
330
258
100
AcDbEntity
  8
DATA
  6
Continuous
 62
     7
100
AcDbLine
 10
-1062.5
 20
-403.0
 30
0.0
 11
-937.5000000000008
 21
-403.0
 31
0.0
  0
LINE
  5
A8
330
258
100
AcDbEntity
  8
DATA
  6
Continuous
 62
     7
100
AcDbLine
 10
-1306.705000000001
 20
-1730.949999999999
 30
0.0
 11
-1306.705
 21
-600.6499999999997
 31
0.0
  0
LINE
  5
A9
330
258
100
AcDbEntity
  8
DATA
  6
Continuous
 62
     7
100
AcDbLine
 10
-1325.755
 20
-1750.0
 30
0.0
 11
-1325.755
 21
-581.5999999999995
 31
0.0
  0
LINE
  5
AA
330
258
100
AcDbEntity
  8
DATA
  6
Continuous
 62
     7
100
AcDbLine
 10
-1306.705000000001
 20
-1730.949999999999
 30
0.0
 11
-1325.755
 21
-1750.0
 31
0.0
  0
CIRCLE
  5
AB
330
258
100
AcDbEntity
  8
DATA
  6
Continuous
 62
     7
100
AcDbCircle
 10
-1153.255
 20
-760.5999999999995
 30
0.0
 40
62.5
  0
CIRCLE
  5
AC
330
258
100
AcDbEntity
  8
DATA
  6
Continuous
 62
     7
100
AcDbCircle
 10
-1153.255
 20
-760.5999999999995
 30
0.0
 40
50.0
  0
LINE
  5
AD
330
258
100
AcDbEntity
  8
DATA
  6
Continuous
 62
     7
100
AcDbLine
 10
-1306.705000000001
 20
-600.6499999999997
 30
0.0
 11
-1325.755
 21
-581.5999999999995
 31
0.0
  0
LINE
  5
AE
330
258
100
AcDbEntity
  8
DATA
  6
Continuous
 62
     7
100
AcDbLine
 10
-1215.755
 20
-403.0
 30
0.0
 11
-1090.755
 21
-403.0
 31
0.0
  0
ARC
  5
AF
330
258
100
AcDbEntity
  8
DATA
  6
Continuous
 62
     7
100
AcDbCircle
 10
-1319.404999999999
 20
-38.05000000000064
 30
0.0
 40
6.349999999999909
100
AcDbArc
 50
90.0
 51
180.0
  0
LINE
  5
B0
330
258
100
AcDbEntity
  8
DATA
  6
Continuous
 62
     7
100
AcDbLine
 10
-1325.755
 20
-393.6500000000001
 30
0.0
 11
-1325.755
 21
-38.05000000000064
 31
0.0
  0
ARC
  5
B1
330
258
100
AcDbEntity
  8
DATA
  6
Continuous
 62
     7
100
AcDbCircle
 10
-1319.404999999999
 20
-393.6500000000001
 30
0.0
 40
6.350000000000363
100
AcDbArc
 50
180.0
 51
270.0
  0
LINE
  5
B2
330
258
100
AcDbEntity
  8
DATA
  6
Continuous
 62
     7
100
AcDbLine
 10
-1215.755
 20
-400.0
 30
0.0
 11
-1215.755
 21
-402.9999999999995
 31
0.0
  0
LINE
  5
B3
330
258
100
AcDbEntity
  8
DATA
  6
Continuous
 62
     7
100
AcDbLine
 10
-1231.775
 20
-424.0
 30
0.0
 11
-1231.775
 21
-400.0
 31
0.0
  0
LINE
  5
B4
330
258
100
AcDbEntity
  8
DATA
  6
Continuous
 62
     7
100
AcDbLine
 10
-1090.755
 20
-400.0
 30
0.0
 11
-1090.755
 21
-403.0
 31
0.0
  0
LINE
  5
B5
330
258
100
AcDbEntity
  8
DATA
  6
Continuous
 62
     7
100
AcDbLine
 10
-1062.5
 20
-400.0
 30
0.0
 11
-1062.5
 21
-402.9999999999995
 31
0.0
  0
LINE
  5
B6
330
258
100
AcDbEntity
  8
DATA
  6
Continuous
 62
     7
100
AcDbLine
 10
-693.2949999999992
 20
-1730.949999999999
 30
0.0
 11
-693.2949999999992
 21
-600.6499999999997
 31
0.0
  0
LINE
  5
B7
330
258
100
AcDbEntity
  8
DATA
  6
Continuous
 62
     7
100
AcDbLine
 10
-674.2449999999998
 20
-1750.0
 30
0.0
 11
-674.2449999999998
 21
-581.5999999999995
 31
0.0
  0
LINE
  5
B8
330
258
100
AcDbEntity
  8
DATA
  6
Continuous
 62
     7
100
AcDbLine
 10
-550.0
 20
-581.5999999999995
 30
0.0
 11
-550.0
 21
-1750.0
 31
0.0
  0
LINE
  5
B9
330
258
100
AcDbEntity
  8
DATA
  6
Continuous
 62
     7
100
AcDbLine
 10
-574.0
 20
-1482.574999999999
 30
0.0
 11
-574.0
 21
-1019.025
 31
0.0
  0
LINE
  5
BA
330
258
100
AcDbEntity
  8
DATA
  6
Continuous
 62
     7
100
AcDbLine
 10
-181.7000000000007
 20
-1750.0
 30
0.0
 11
-181.7000000000007
 21
-581.5999999999995
 31
0.0
  0
LINE
  5
BB
330
258
100
AcDbEntity
  8
DATA
  6
Continuous
 62
     7
100
AcDbLine
 10
-106.7050000000008
 20
-1730.949999999999
 30
0.0
 11
-106.7050000000008
 21
-600.6499999999997
 31
0.0
  0
LINE
  5
BC
330
258
100
AcDbEntity
  8
DATA
  6
Continuous
 62
     7
100
AcDbLine
 10
-125.7550000000001
 20
-1750.0
 30
0.0
 11
-125.7550000000001
 21
-581.5999999999995
 31
0.0
  0
LINE
  5
BD
330
258
100
AcDbEntity
  8
DATA
  6
Continuous
 62
     7
100
AcDbLine
 10
-550.0
 20
-1750.0
 30
0.0
 11
-181.7000000000007
 21
-1750.0
 31
0.0
  0
LINE
  5
BE
330
258
100
AcDbEntity
  8
DATA
  6
Continuous
 62
     7
100
AcDbLine
 10
-693.2949999999992
 20
-1730.949999999999
 30
0.0
 11
-674.2449999999998
 21
-1750.0
 31
0.0
  0
LINE
  5
BF
330
258
100
AcDbEntity
  8
DATA
  6
Continuous
 62
     7
100
AcDbLine
 10
-574.0
 20
-1482.574999999999
 30
0.0
 11
-550.0
 21
-1482.574999999999
 31
0.0
  0
LINE
  5
C0
330
258
100
AcDbEntity
  8
DATA
  6
Continuous
 62
     7
100
AcDbLine
 10
-106.7050000000008
 20
-1730.949999999999
 30
0.0
 11
-125.7550000000001
 21
-1750.0
 31
0.0
  0
LINE
  5
C1
330
258
100
AcDbEntity
  8
DATA
  6
Continuous
 62
     7
100
AcDbLine
 10
-550.0
 20
-581.5999999999995
 30
0.0
 11
-181.7000000000007
 21
-581.5999999999995
 31
0.0
  0
CIRCLE
  5
C2
330
258
100
AcDbEntity
  8
DATA
  6
Continuous
 62
     7
100
AcDbCircle
 10
-846.7449999999999
 20
-760.5999999999997
 30
0.0
 40
62.5
  0
CIRCLE
  5
C3
330
258
100
AcDbEntity
  8
DATA
  6
Continuous
 62
     7
100
AcDbCircle
 10
-846.7449999999999
 20
-760.5999999999997
 30
0.0
 40
50.0
  0
LINE
  5
C4
330
258
100
AcDbEntity
  8
DATA
  6
Continuous
 62
     7
100
AcDbLine
 10
-670.2449999999998
 20
-781.5999999999997
 30
0.0
 11
-670.2449999999998
 21
-698.5999999999997
 31
0.0
  0
LINE
  5
C5
330
258
100
AcDbEntity
  8
DATA
  6
Continuous
 62
     7
100
AcDbLine
 10
-674.2449999999998
 20
-698.5999999999997
 30
0.0
 11
-670.2449999999998
 21
-698.5999999999997
 31
0.0
  0
LINE
  5
C6
330
258
100
AcDbEntity
  8
DATA
  6
Continuous
 62
     7
100
AcDbLine
 10
-674.2449999999998
 20
-781.5999999999997
 30
0.0
 11
-670.2449999999998
 21
-781.5999999999993
 31
0.0
  0
LINE
  5
C7
330
258
100
AcDbEntity
  8
DATA
  6
Continuous
 62
     7
100
AcDbLine
 10
-693.2949999999992
 20
-600.6499999999997
 30
0.0
 11
-674.2449999999998
 21
-581.5999999999995
 31
0.0
  0
LINE
  5
C8
330
258
100
AcDbEntity
  8
DATA
  6
Continuous
 62
     7
100
AcDbLine
 10
-574.0
 20
-1019.025
 30
0.0
 11
-550.0
 21
-1019.025
 31
0.0
  0
LINE
  5
C9
330
258
100
AcDbEntity
  8
DATA
  6
Continuous
 62
     7
100
AcDbLine
 10
-553.0
 20
-823.0999999999999
 30
0.0
 11
-550.0
 21
-823.0999999999996
 31
0.0
  0
LINE
  5
CA
330
258
100
AcDbEntity
  8
DATA
  6
Continuous
 62
     7
100
AcDbLine
 10
-553.0
 20
-698.1
 30
0.0
 11
-550.0
 21
-698.1
 31
0.0
  0
LINE
  5
CB
330
258
100
AcDbEntity
  8
DATA
  6
Continuous
 62
     7
100
AcDbLine
 10
-553.0
 20
-823.0999999999996
 30
0.0
 11
-553.0
 21
-698.1
 31
0.0
  0
ARC
  5
CC
330
258
100
AcDbEntity
  8
DATA
  6
Continuous
 62
     7
100
AcDbCircle
 10
-680.5950000000002
 20
-393.6500000000001
 30
0.0
 40
6.349999999999909
100
AcDbArc
 50
270.0
 51
0.0
  0
LINE
  5
CD
330
258
100
AcDbEntity
  8
DATA
  6
Continuous
 62
     7
100
AcDbLine
 10
-674.2449999999998
 20
-393.6500000000001
 30
0.0
 11
-674.2449999999998
 21
-38.04999999999973
 31
0.0
  0
ARC
  5
CE
330
258
100
AcDbEntity
  8
DATA
  6
Continuous
 62
     7
100
AcDbCircle
 10
-680.5950000000002
 20
-38.04999999999973
 30
0.0
 40
6.350000000000363
100
AcDbArc
 50
0.0
 51
90.0
  0
LINE
  5
CF
330
258
100
AcDbEntity
  8
DATA
  6
Continuous
 62
     7
100
AcDbLine
 10
-937.5000000000008
 20
-400.0
 30
0.0
 11
-937.5000000000008
 21
-403.0
 31
0.0
  0
LINE
  5
D0
330
258
100
AcDbEntity
  8
DATA
  6
Continuous
 62
     7
100
AcDbLine
 10
-909.2449999999999
 20
-403.0
 30
0.0
 11
-784.245
 21
-403.0
 31
0.0
  0
LINE
  5
D1
330
258
100
AcDbEntity
  8
DATA
  6
Continuous
 62
     7
100
AcDbLine
 10
-909.2449999999999
 20
-400.0
 30
0.0
 11
-909.2449999999999
 21
-402.9999999999995
 31
0.0
  0
LINE
  5
D2
330
258
100
AcDbEntity
  8
DATA
  6
Continuous
 62
     7
100
AcDbLine
 10
-784.245
 20
-400.0
 30
0.0
 11
-784.245
 21
-403.0
 31
0.0
  0
LINE
  5
D3
330
258
100
AcDbEntity
  8
DATA
  6
Continuous
 62
     7
100
AcDbLine
 10
-768.2249999999993
 20
-424.0
 30
0.0
 11
-768.2249999999993
 21
-400.0
 31
0.0
  0
LINE
  5
D4
330
258
100
AcDbEntity
  8
DATA
  6
Continuous
 62
     7
100
AcDbLine
 10
-670.2449999999998
 20
-282.0000000000004
 30
0.0
 11
-670.2449999999998
 21
-184.0000000000008
 31
0.0
  0
LINE
  5
D5
330
258
100
AcDbEntity
  8
DATA
  6
Continuous
 62
     7
100
AcDbLine
 10
-674.2449999999998
 20
-184.0000000000008
 30
0.0
 11
-670.2449999999998
 21
-184.0000000000004
 31
0.0
  0
LINE
  5
D6
330
258
100
AcDbEntity
  8
DATA
  6
Continuous
 62
     7
100
AcDbLine
 10
-674.2449999999998
 20
-282.0000000000004
 30
0.0
 11
-670.2449999999998
 21
-282.0000000000004
 31
0.0
  0
ARC
  5
D7
330
258
100
AcDbEntity
  8
DATA
  6
Continuous
 62
     7
100
AcDbCircle
 10
-428.8200000000006
 20
-701.7799999999998
 30
0.0
 40
3.179999999999836
100
AcDbArc
 50
90.0
 51
180.0
  0
LINE
  5
D8
330
258
100
AcDbEntity
  8
DATA
  6
Continuous
 62
     7
100
AcDbLine
 10
-432.0
 20
-701.7799999999998
 30
0.0
 11
-432.0
 21
-778.4199999999998
 31
0.0
  0
ARC
  5
D9
330
258
100
AcDbEntity
  8
DATA
  6
Continuous
 62
     7
100
AcDbCircle
 10
-428.8200000000006
 20
-778.4199999999998
 30
0.0
 40
3.179999999999381
100
AcDbArc
 50
180.0
 51
270.0
  0
LINE
  5
DA
330
258
100
AcDbEntity
  8
DATA
  6
Continuous
 62
     7
100
AcDbLine
 10
-428.8200000000006
 20
-781.5999999999997
 30
0.0
 11
-337.1800000000003
 21
-781.5999999999997
 31
0.0
  0
ARC
  5
DB
330
258
100
AcDbEntity
  8
DATA
  6
Continuous
 62
     7
100
AcDbCircle
 10
-337.1800000000003
 20
-778.4199999999998
 30
0.0
 40
3.180000000000064
100
AcDbArc
 50
270.0
 51
0.0
  0
LINE
  5
DC
330
258
100
AcDbEntity
  8
DATA
  6
Continuous
 62
     7
100
AcDbLine
 10
-334.0
 20
-701.7799999999998
 30
0.0
 11
-334.0
 21
-778.4199999999998
 31
0.0
  0
LINE
  5
DD
330
258
100
AcDbEntity
  8
DATA
  6
Continuous
 62
     7
100
AcDbLine
 10
-428.8200000000006
 20
-698.5999999999997
 30
0.0
 11
-337.1800000000003
 21
-698.6
 31
0.0
  0
ARC
  5
DE
330
258
100
AcDbEntity
  8
DATA
  6
Continuous
 62
     7
100
AcDbCircle
 10
-337.1800000000003
 20
-701.7799999999998
 30
0.0
 40
3.180000000000291
100
AcDbArc
 50
0.0
 51
90.0
  0
ARC
  5
DF
330
258
100
AcDbEntity
  8
DATA
  6
Continuous
 62
     7
100
AcDbCircle
 10
-415.3200000000015
 20
-715.2799999999993
 30
0.0
 40
3.180000000000064
100
AcDbArc
 50
90.0
 51
180.0
  0
LINE
  5
E0
330
258
100
AcDbEntity
  8
DATA
  6
Continuous
 62
     7
100
AcDbLine
 10
-418.5000000000008
 20
-715.2799999999993
 30
0.0
 11
-418.5
 21
-764.9199999999995
 31
0.0
  0
ARC
  5
E1
330
258
100
AcDbEntity
  8
DATA
  6
Continuous
 62
     7
100
AcDbCircle
 10
-415.3199999999997
 20
-764.9199999999995
 30
0.0
 40
3.180000000000291
100
AcDbArc
 50
180.0
 51
270.0
  0
LINE
  5
E2
330
258
100
AcDbEntity
  8
DATA
  6
Continuous
 62
     7
100
AcDbLine
 10
-415.3199999999997
 20
-768.0999999999995
 30
0.0
 11
-350.6800000000002
 21
-768.0999999999995
 31
0.0
  0
ARC
  5
E3
330
258
100
AcDbEntity
  8
DATA
  6
Continuous
 62
     7
100
AcDbCircle
 10
-350.6800000000002
 20
-764.9199999999997
 30
0.0
 40
3.180000000000064
100
AcDbArc
 50
270.0
 51
0.0
  0
LINE
  5
E4
330
258
100
AcDbEntity
  8
DATA
  6
Continuous
 62
     7
100
AcDbLine
 10
-347.5
 20
-715.2800000000001
 30
0.0
 11
-347.5
 21
-764.9199999999997
 31
0.0
  0
LINE
  5
E5
330
258
100
AcDbEntity
  8
DATA
  6
Continuous
 62
     7
100
AcDbLine
 10
-415.3200000000015
 20
-712.0999999999996
 30
0.0
 11
-350.6800000000002
 21
-712.1
 31
0.0
  0
ARC
  5
E6
330
258
100
AcDbEntity
  8
DATA
  6
Continuous
 62
     7
100
AcDbCircle
 10
-350.6800000000002
 20
-715.2800000000001
 30
0.0
 40
3.180000000000291
100
AcDbArc
 50
0.0
 51
90.0
  0
LINE
  5
E7
330
258
100
AcDbEntity
  8
DATA
  6
Continuous
 62
     7
100
AcDbLine
 10
-391.5418000000008
 20
-728.0095999999995
 30
0.0
 11
-408.4582000000009
 21
-728.0095999999995
 31
0.0
  0
LINE
  5
E8
330
258
100
AcDbEntity
  8
DATA
  6
Continuous
 62
     7
100
AcDbLine
 10
-391.5418000000008
 20
-729.6605999999997
 30
0.0
 11
-408.4582000000009
 21
-729.6605999999997
 31
0.0
  0
LINE
  5
E9
330
258
100
AcDbEntity
  8
DATA
  6
Continuous
 62
     7
100
AcDbLine
 10
-391.5418000000008
 20
-739.1855999999997
 30
0.0
 11
-408.4582000000009
 21
-739.1855999999997
 31
0.0
  0
LINE
  5
EA
330
258
100
AcDbEntity
  8
DATA
  6
Continuous
 62
     7
100
AcDbLine
 10
-391.5418000000008
 20
-740.8365999999993
 30
0.0
 11
-408.4582000000009
 21
-740.8365999999993
 31
0.0
  0
LINE
  5
EB
330
258
100
AcDbEntity
  8
DATA
  6
Continuous
 62
     7
100
AcDbLine
 10
-391.5418000000008
 20
-751.8347999999995
 30
0.0
 11
-408.4582000000009
 21
-751.8347999999995
 31
0.0
  0
LINE
  5
EC
330
258
100
AcDbEntity
  8
DATA
  6
Continuous
 62
     7
100
AcDbLine
 10
-391.5418000000008
 20
-750.1837999999996
 30
0.0
 11
-408.4582000000009
 21
-750.1837999999996
 31
0.0
  0
LINE
  5
ED
330
258
100
AcDbEntity
  8
DATA
  6
Continuous
 62
     7
100
AcDbLine
 10
-391.5418000000008
 20
-729.6605999999997
 30
0.0
 11
-391.5418000000008
 21
-728.0095999999995
 31
0.0
  0
LINE
  5
EE
330
258
100
AcDbEntity
  8
DATA
  6
Continuous
 62
     7
100
AcDbLine
 10
-391.5418000000008
 20
-740.8365999999993
 30
0.0
 11
-391.5418000000008
 21
-739.1855999999997
 31
0.0
  0
LINE
  5
EF
330
258
100
AcDbEntity
  8
DATA
  6
Continuous
 62
     7
100
AcDbLine
 10
-405.664200000001
 20
-749.7011999999994
 30
0.0
 11
-405.664200000001
 21
-741.7001999999994
 31
0.0
  0
LINE
  5
F0
330
258
100
AcDbEntity
  8
DATA
  6
Continuous
 62
     7
100
AcDbLine
 10
-407.1120000000009
 20
-750.1837999999996
 30
0.0
 11
-407.1120000000009
 21
-740.8365999999993
 31
0.0
  0
LINE
  5
F1
330
258
100
AcDbEntity
  8
DATA
  6
Continuous
 62
     7
100
AcDbLine
 10
-406.4261999999999
 20
-750.1837999999996
 30
0.0
 11
-406.4261999999999
 21
-740.8365999999993
 31
0.0
  0
LINE
  5
F2
330
258
100
AcDbEntity
  8
DATA
  6
Continuous
 62
     7
100
AcDbLine
 10
-407.1120000000009
 20
-739.1855999999997
 30
0.0
 11
-407.1120000000009
 21
-729.6605999999997
 31
0.0
  0
LINE
  5
F3
330
258
100
AcDbEntity
  8
DATA
  6
Continuous
 62
     7
100
AcDbLine
 10
-406.4261999999999
 20
-739.1855999999997
 30
0.0
 11
-406.4261999999999
 21
-729.6605999999997
 31
0.0
  0
LINE
  5
F4
330
258
100
AcDbEntity
  8
DATA
  6
Continuous
 62
     7
100
AcDbLine
 10
-405.664200000001
 20
-738.4235999999997
 30
0.0
 11
-405.664200000001
 21
-730.4225999999995
 31
0.0
  0
LINE
  5
F5
330
258
100
AcDbEntity
  8
DATA
  6
Continuous
 62
     7
100
AcDbLine
 10
-394.3358000000009
 20
-738.4235999999997
 30
0.0
 11
-405.664200000001
 21
-738.4235999999997
 31
0.0
  0
LINE
  5
F6
330
258
100
AcDbEntity
  8
DATA
  6
Continuous
 62
     7
100
AcDbLine
 10
-394.3358000000009
 20
-741.7001999999994
 30
0.0
 11
-405.664200000001
 21
-741.7001999999994
 31
0.0
  0
LINE
  5
F7
330
258
100
AcDbEntity
  8
DATA
  6
Continuous
 62
     7
100
AcDbLine
 10
-408.4582000000009
 20
-751.8347999999995
 30
0.0
 11
-408.4582000000009
 21
-750.1837999999996
 31
0.0
  0
LINE
  5
F8
330
258
100
AcDbEntity
  8
DATA
  6
Continuous
 62
     7
100
AcDbLine
 10
-408.4582000000009
 20
-729.6605999999997
 30
0.0
 11
-408.4582000000009
 21
-728.0095999999995
 31
0.0
  0
LINE
  5
F9
330
258
100
AcDbEntity
  8
DATA
  6
Continuous
 62
     7
100
AcDbLine
 10
-408.4582000000009
 20
-740.8365999999993
 30
0.0
 11
-408.4582000000009
 21
-739.1855999999997
 31
0.0
  0
CIRCLE
  5
FA
330
258
100
AcDbEntity
  8
DATA
  6
Continuous
 62
     7
100
AcDbCircle
 10
-400.0
 20
-745.5609999999997
 30
0.0
 40
3.365499999999884
  0
CIRCLE
  5
FB
330
258
100
AcDbEntity
  8
DATA
  6
Continuous
 62
     7
100
AcDbCircle
 10
-400.0
 20
-734.2833999999993
 30
0.0
 40
3.365499999999884
  0
LINE
  5
FC
330
258
100
AcDbEntity
  8
DATA
  6
Continuous
 62
     7
100
AcDbLine
 10
-400.0
 20
-747.6599543999997
 30
0.0
 11
-400.0
 21
-743.4620201999996
 31
0.0
  0
LINE
  5
FD
330
258
100
AcDbEntity
  8
DATA
  6
Continuous
 62
     7
100
AcDbLine
 10
-397.9010456000006
 20
-745.5609999999997
 30
0.0
 11
-402.0989544000003
 21
-745.5609999999997
 31
0.0
  0
LINE
  5
FE
330
258
100
AcDbEntity
  8
DATA
  6
Continuous
 62
     7
100
AcDbLine
 10
-397.9010456000006
 20
-734.2833999999993
 30
0.0
 11
-402.0989544000003
 21
-734.2833999999993
 31
0.0
  0
LINE
  5
FF
330
258
100
AcDbEntity
  8
DATA
  6
Continuous
 62
     7
100
AcDbLine
 10
-400.0
 20
-736.3823543999997
 30
0.0
 11
-400.0
 21
-732.1844201999997
 31
0.0
  0
LINE
  5
100
330
258
100
AcDbEntity
  8
DATA
  6
Continuous
 62
     7
100
AcDbLine
 10
-391.5418000000008
 20
-751.8347999999995
 30
0.0
 11
-391.5418000000008
 21
-750.1837999999996
 31
0.0
  0
LINE
  5
101
330
258
100
AcDbEntity
  8
DATA
  6
Continuous
 62
     7
100
AcDbLine
 10
-392.8880000000008
 20
-739.1855999999997
 30
0.0
 11
-392.8880000000008
 21
-729.6605999999997
 31
0.0
  0
LINE
  5
102
330
258
100
AcDbEntity
  8
DATA
  6
Continuous
 62
     7
100
AcDbLine
 10
-393.5738
 20
-739.1855999999997
 30
0.0
 11
-393.5738
 21
-729.6605999999997
 31
0.0
  0
LINE
  5
103
330
258
100
AcDbEntity
  8
DATA
  6
Continuous
 62
     7
100
AcDbLine
 10
-394.3358000000009
 20
-738.4235999999997
 30
0.0
 11
-394.3358000000009
 21
-730.4225999999996
 31
0.0
  0
LINE
  5
104
330
258
100
AcDbEntity
  8
DATA
  6
Continuous
 62
     7
100
AcDbLine
 10
-405.664200000001
 20
-730.4225999999995
 30
0.0
 11
-394.3357999999999
 21
-730.422599999999
 31
0.0
  0
LINE
  5
105
330
258
100
AcDbEntity
  8
DATA
  6
Continuous
 62
     7
100
AcDbLine
 10
-394.3358000000009
 20
-749.7011999999994
 30
0.0
 11
-405.664200000001
 21
-749.7011999999994
 31
0.0
  0
LINE
  5
106
330
258
100
AcDbEntity
  8
DATA
  6
Continuous
 62
     7
100
AcDbLine
 10
-394.3358000000009
 20
-749.7011999999994
 30
0.0
 11
-394.3358000000009
 21
-741.7001999999994
 31
0.0
  0
LINE
  5
107
330
258
100
AcDbEntity
  8
DATA
  6
Continuous
 62
     7
100
AcDbLine
 10
-392.8880000000008
 20
-750.1837999999996
 30
0.0
 11
-392.8880000000008
 21
-740.8365999999993
 31
0.0
  0
LINE
  5
108
330
258
100
AcDbEntity
  8
DATA
  6
Continuous
 62
     7
100
AcDbLine
 10
-393.5738
 20
-750.1837999999996
 30
0.0
 11
-393.5738
 21
-740.8365999999993
 31
0.0
  0
LINE
  5
109
330
258
100
AcDbEntity
  8
DATA
  6
Continuous
 62
     7
100
AcDbLine
 10
-392.8880000000008
 20
-761.9820999999997
 30
0.0
 11
-407.1120000000009
 21
-761.9820999999997
 31
0.0
  0
LINE
  5
10A
330
258
100
AcDbEntity
  8
DATA
  6
Continuous
 62
     7
100
AcDbLine
 10
-392.8880000000008
 20
-761.9820999999997
 30
0.0
 11
-392.8880000000008
 21
-751.8728999999997
 31
0.0
  0
LINE
  5
10B
330
258
100
AcDbEntity
  8
DATA
  6
Continuous
 62
     7
100
AcDbLine
 10
-406.4261999999999
 20
-761.9820999999997
 30
0.0
 11
-406.4261999999999
 21
-751.8728999999997
 31
0.0
  0
LINE
  5
10C
330
258
100
AcDbEntity
  8
DATA
  6
Continuous
 62
     7
100
AcDbLine
 10
-407.1120000000009
 20
-761.9820999999997
 30
0.0
 11
-407.1120000000009
 21
-751.8728999999997
 31
0.0
  0
LINE
  5
10D
330
258
100
AcDbEntity
  8
DATA
  6
Continuous
 62
     7
100
AcDbLine
 10
-393.5738
 20
-761.9820999999997
 30
0.0
 11
-393.5738
 21
-751.8728999999997
 31
0.0
  0
CIRCLE
  5
10E
330
258
100
AcDbEntity
  8
DATA
  6
Continuous
 62
     7
100
AcDbCircle
 10
-400.0
 20
-756.4448999999997
 30
0.0
 40
2.464054000000032
  0
CIRCLE
  5
10F
330
258
100
AcDbEntity
  8
DATA
  6
Continuous
 62
     7
100
AcDbCircle
 10
-400.0
 20
-756.4448999999997
 30
0.0
 40
3.682999999999083
  0
LINE
  5
110
330
258
100
AcDbEntity
  8
DATA
  6
Continuous
 62
     7
100
AcDbLine
 10
-397.9010456000006
 20
-756.4448999999997
 30
0.0
 11
-402.0989544000003
 21
-756.4448999999997
 31
0.0
  0
LINE
  5
111
330
258
100
AcDbEntity
  8
DATA
  6
Continuous
 62
     7
100
AcDbLine
 10
-400.0
 20
-758.5438543999996
 30
0.0
 11
-400.0
 21
-754.3459201999996
 31
0.0
  0
LINE
  5
112
330
258
100
AcDbEntity
  8
DATA
  6
Continuous
 62
     7
100
AcDbLine
 10
-392.8880000000008
 20
-718.2178999999991
 30
0.0
 11
-407.1120000000009
 21
-718.2178999999991
 31
0.0
  0
LINE
  5
113
330
258
100
AcDbEntity
  8
DATA
  6
Continuous
 62
     7
100
AcDbLine
 10
-392.8880000000008
 20
-728.0095999999995
 30
0.0
 11
-392.8880000000008
 21
-718.2178999999991
 31
0.0
  0
LINE
  5
114
330
258
100
AcDbEntity
  8
DATA
  6
Continuous
 62
     7
100
AcDbLine
 10
-407.1120000000009
 20
-728.0095999999995
 30
0.0
 11
-407.1120000000009
 21
-718.2178999999991
 31
0.0
  0
LINE
  5
115
330
258
100
AcDbEntity
  8
DATA
  6
Continuous
 62
     7
100
AcDbLine
 10
-406.4261999999999
 20
-728.0095999999995
 30
0.0
 11
-406.4261999999999
 21
-718.2178999999991
 31
0.0
  0
LINE
  5
116
330
258
100
AcDbEntity
  8
DATA
  6
Continuous
 62
     7
100
AcDbLine
 10
-393.5738
 20
-728.0095999999995
 30
0.0
 11
-393.5738
 21
-718.2178999999991
 31
0.0
  0
CIRCLE
  5
117
330
258
100
AcDbEntity
  8
DATA
  6
Continuous
 62
     7
100
AcDbCircle
 10
-400.0
 20
-723.7550999999997
 30
0.0
 40
3.682999999999083
  0
CIRCLE
  5
118
330
258
100
AcDbEntity
  8
DATA
  6
Continuous
 62
     7
100
AcDbCircle
 10
-400.0
 20
-723.7550999999997
 30
0.0
 40
2.464054000000032
  0
LINE
  5
119
330
258
100
AcDbEntity
  8
DATA
  6
Continuous
 62
     7
100
AcDbLine
 10
-397.9010456000006
 20
-723.7550999999997
 30
0.0
 11
-402.0989544000003
 21
-723.7550999999997
 31
0.0
  0
LINE
  5
11A
330
258
100
AcDbEntity
  8
DATA
  6
Continuous
 62
     7
100
AcDbLine
 10
-400.0
 20
-725.8540543999991
 30
0.0
 11
-400.0
 21
-721.6561201999992
 31
0.0
  0
CIRCLE
  5
11B
330
258
100
AcDbEntity
  8
DATA
  6
Continuous
 62
     7
100
AcDbCircle
 10
-386.0
 20
-734.2833999999993
 30
0.0
 40
3.0
  0
CIRCLE
  5
11C
330
258
100
AcDbEntity
  8
DATA
  6
Continuous
 62
     7
100
AcDbCircle
 10
-425.4999999999999
 20
-705.0999999999996
 30
0.0
 40
3.0
  0
LINE
  5
11D
330
258
100
AcDbEntity
  8
DATA
  6
Continuous
 62
     7
100
AcDbLine
 10
-427.2499999999999
 20
-705.0999999999996
 30
0.0
 11
-423.7500000000008
 21
-705.0999999999996
 31
0.0
  0
LINE
  5
11E
330
258
100
AcDbEntity
  8
DATA
  6
Continuous
 62
     7
100
AcDbLine
 10
-425.4999999999999
 20
-706.8499999999996
 30
0.0
 11
-425.4999999999999
 21
-703.3499999999996
 31
0.0
  0
CIRCLE
  5
11F
330
258
100
AcDbEntity
  8
DATA
  6
Continuous
 62
     7
100
AcDbCircle
 10
-340.5
 20
-705.0999999999996
 30
0.0
 40
3.0
  0
LINE
  5
120
330
258
100
AcDbEntity
  8
DATA
  6
Continuous
 62
     7
100
AcDbLine
 10
-342.2500000000009
 20
-705.0999999999996
 30
0.0
 11
-338.75
 21
-705.0999999999996
 31
0.0
  0
LINE
  5
121
330
258
100
AcDbEntity
  8
DATA
  6
Continuous
 62
     7
100
AcDbLine
 10
-340.5
 20
-706.8499999999996
 30
0.0
 11
-340.5
 21
-703.3499999999996
 31
0.0
  0
CIRCLE
  5
122
330
258
100
AcDbEntity
  8
DATA
  6
Continuous
 62
     7
100
AcDbCircle
 10
-340.5
 20
-775.0999999999996
 30
0.0
 40
3.0
  0
LINE
  5
123
330
258
100
AcDbEntity
  8
DATA
  6
Continuous
 62
     7
100
AcDbLine
 10
-342.2500000000009
 20
-775.0999999999996
 30
0.0
 11
-338.75
 21
-775.0999999999996
 31
0.0
  0
LINE
  5
124
330
258
100
AcDbEntity
  8
DATA
  6
Continuous
 62
     7
100
AcDbLine
 10
-340.5
 20
-776.85
 30
0.0
 11
-340.5
 21
-773.3499999999996
 31
0.0
  0
CIRCLE
  5
125
330
258
100
AcDbEntity
  8
DATA
  6
Continuous
 62
     7
100
AcDbCircle
 10
-425.4999999999999
 20
-775.0999999999996
 30
0.0
 40
3.0
  0
LINE
  5
126
330
258
100
AcDbEntity
  8
DATA
  6
Continuous
 62
     7
100
AcDbLine
 10
-427.2499999999999
 20
-775.0999999999996
 30
0.0
 11
-423.7500000000008
 21
-775.0999999999996
 31
0.0
  0
LINE
  5
127
330
258
100
AcDbEntity
  8
DATA
  6
Continuous
 62
     7
100
AcDbLine
 10
-425.4999999999999
 20
-776.85
 30
0.0
 11
-425.4999999999999
 21
-773.3499999999996
 31
0.0
  0
LINE
  5
128
330
258
100
AcDbEntity
  8
DATA
  6
Continuous
 62
     7
100
AcDbLine
 10
-452.0
 20
-888.5999999999995
 30
0.0
 11
-273.0
 21
-888.5999999999995
 31
0.0
  0
LINE
  5
129
330
258
100
AcDbEntity
  8
DATA
  6
Continuous
 62
     7
100
AcDbLine
 10
-452.0
 20
-1035.6
 30
0.0
 11
-273.0
 21
-1035.6
 31
0.0
  0
LINE
  5
12A
330
258
100
AcDbEntity
  8
DATA
  6
Continuous
 62
     7
100
AcDbLine
 10
-452.0
 20
-1035.6
 30
0.0
 11
-452.0
 21
-888.5999999999993
 31
0.0
  0
LINE
  5
12B
330
258
100
AcDbEntity
  8
DATA
  6
Continuous
 62
     7
100
AcDbLine
 10
-273.0
 20
-1035.6
 30
0.0
 11
-273.0
 21
-888.5999999999993
 31
0.0
  0
LINE
  5
12C
330
258
100
AcDbEntity
  8
DATA
  6
Continuous
 62
     7
100
AcDbLine
 10
-129.7550000000001
 20
-781.6
 30
0.0
 11
-129.7550000000001
 21
-698.5999999999997
 31
0.0
  0
LINE
  5
12D
330
258
100
AcDbEntity
  8
DATA
  6
Continuous
 62
     7
100
AcDbLine
 10
-125.7550000000001
 20
-698.5999999999997
 30
0.0
 11
-129.7550000000001
 21
-698.5999999999997
 31
0.0
  0
LINE
  5
12E
330
258
100
AcDbEntity
  8
DATA
  6
Continuous
 62
     7
100
AcDbLine
 10
-125.7550000000001
 20
-781.6
 30
0.0
 11
-129.7550000000001
 21
-781.5999999999997
 31
0.0
  0
LINE
  5
12F
330
258
100
AcDbEntity
  8
DATA
  6
Continuous
 62
     7
100
AcDbLine
 10
-106.7050000000008
 20
-600.6499999999997
 30
0.0
 11
-125.7550000000001
 21
-581.5999999999995
 31
0.0
  0
TEXT
  5
130
330
258
100
AcDbEntity
  8
DATA
 62
     7
100
AcDbText
 10
1123.90417390046
 20
-1627.147352430555
 30
0.0
 40
54.29470486111111
  1
側面パネル拡大図
 41
0.7
 72
     1
 11
1299.999999999997
 21
-1600.0
 31
0.0
100
AcDbText
 73
     2
  0
LINE
  5
131
330
258
100
AcDbEntity
  8
DATA
  6
Continuous
 62
     7
100
AcDbLine
 10
1000.0
 20
-1650.0
 30
0.0
 11
1600.0
 21
-1650.0
 31
0.0
  0
LINE
  5
132
330
258
100
AcDbEntity
  8
DATA
  6
Continuous
 62
     7
100
AcDbLine
 10
979.2599999999982
 20
-939.9999999999982
 30
0.0
 11
1620.739999999996
 21
-940.0000000000018
 31
0.0
  0
LINE
  5
133
330
258
100
AcDbEntity
  8
DATA
  6
Continuous
 62
     7
100
AcDbLine
 10
979.2599999999982
 20
-1520.999999999999
 30
0.0
 11
1620.739999999996
 21
-1520.999999999999
 31
0.0
  0
LINE
  5
134
330
258
100
AcDbEntity
  8
DATA
  6
Continuous
 62
     7
100
AcDbLine
 10
1073.760000000002
 20
-1426.499999999997
 30
0.0
 11
1526.24
 21
-1426.499999999997
 31
0.0
  0
LINE
  5
135
330
258
100
AcDbEntity
  8
DATA
  6
Continuous
 62
     7
100
AcDbLine
 10
1073.759999999994
 20
-1034.499999999998
 30
0.0
 11
1526.24
 21
-1034.500000000001
 31
0.0
  0
LINE
  5
136
330
258
100
AcDbEntity
  8
DATA
  6
Continuous
 62
     7
100
AcDbLine
 10
1230.783999999997
 20
-1077.325299999995
 30
0.0
 11
1131.215999999996
 21
-1077.325299999995
 31
0.0
  0
LINE
  5
137
330
258
100
AcDbEntity
  8
DATA
  6
Continuous
 62
     7
100
AcDbLine
 10
1230.783999999997
 20
-1383.674699999999
 30
0.0
 11
1131.215999999996
 21
-1383.674699999999
 31
0.0
  0
LINE
  5
138
330
258
100
AcDbEntity
  8
DATA
  6
Continuous
 62
     7
100
AcDbLine
 10
1220.649400000002
 20
-1297.708399999996
 30
0.0
 11
1141.350599999998
 21
-1297.708399999996
 31
0.0
  0
LINE
  5
139
330
258
100
AcDbEntity
  8
DATA
  6
Continuous
 62
     7
100
AcDbLine
 10
1141.350599999998
 20
-1162.758199999997
 30
0.0
 11
1220.649400000002
 21
-1162.758199999994
 31
0.0
  0
LINE
  5
13A
330
258
100
AcDbEntity
  8
DATA
  6
Continuous
 62
     7
100
AcDbLine
 10
1220.649400000002
 20
-1241.701399999997
 30
0.0
 11
1141.350599999998
 21
-1241.701399999997
 31
0.0
  0
LINE
  5
13B
330
258
100
AcDbEntity
  8
DATA
  6
Continuous
 62
     7
100
AcDbLine
 10
1220.649400000002
 20
-1218.765199999998
 30
0.0
 11
1141.350599999998
 21
-1218.765199999998
 31
0.0
  0
LINE
  5
13C
330
258
100
AcDbEntity
  8
DATA
  6
Continuous
 62
     7
100
AcDbLine
 10
1240.207400000001
 20
-1301.086599999998
 30
0.0
 11
1121.792599999997
 21
-1301.086599999998
 31
0.0
  0
LINE
  5
13D
330
258
100
AcDbEntity
  8
DATA
  6
Continuous
 62
     7
100
AcDbLine
 10
1240.207400000001
 20
-1312.643599999996
 30
0.0
 11
1121.792599999997
 21
-1312.643599999996
 31
0.0
  0
LINE
  5
13E
330
258
100
AcDbEntity
  8
DATA
  6
Continuous
 62
     7
100
AcDbLine
 10
1240.207400000001
 20
-1235.656199999996
 30
0.0
 11
1121.792599999997
 21
-1235.656199999996
 31
0.0
  0
LINE
  5
13F
330
258
100
AcDbEntity
  8
DATA
  6
Continuous
 62
     7
100
AcDbLine
 10
1240.207400000001
 20
-1224.099199999997
 30
0.0
 11
1121.792599999997
 21
-1224.099199999997
 31
0.0
  0
LINE
  5
140
330
258
100
AcDbEntity
  8
DATA
  6
Continuous
 62
     7
100
AcDbLine
 10
1240.207400000001
 20
-1157.424199999998
 30
0.0
 11
1121.792599999997
 21
-1157.424199999998
 31
0.0
  0
LINE
  5
141
330
258
100
AcDbEntity
  8
DATA
  6
Continuous
 62
     7
100
AcDbLine
 10
1240.207400000001
 20
-1145.867199999995
 30
0.0
 11
1121.792599999997
 21
-1145.867199999995
 31
0.0
  0
LINE
  5
142
330
258
100
AcDbEntity
  8
DATA
  6
Continuous
 62
     7
100
AcDbLine
 10
956.9999999999982
 20
-962.2599999999971
 30
0.0
 11
956.9999999999982
 21
-1498.739999999998
 31
0.0
  0
LINE
  5
143
330
258
100
AcDbEntity
  8
DATA
  6
Continuous
 62
     7
100
AcDbLine
 10
506.7049999999991
 20
-1730.949999999999
 30
0.0
 11
506.7050000000008
 21
-600.6499999999997
 31
0.0
  0
LINE
  5
144
330
258
100
AcDbEntity
  8
DATA
  6
Continuous
 62
     7
100
AcDbLine
 10
525.7550000000001
 20
-1750.0
 30
0.0
 11
525.7550000000001
 21
-581.5999999999995
 31
0.0
  0
LINE
  5
145
330
258
100
AcDbEntity
  8
DATA
  6
Continuous
 62
     7
100
AcDbLine
 10
1051.5
 20
-1056.759999999997
 30
0.0
 11
1051.5
 21
-1404.239999999997
 31
0.0
  0
LINE
  5
146
330
258
100
AcDbEntity
  8
DATA
  6
Continuous
 62
     7
100
AcDbLine
 10
1136.016599999999
 20
-1301.086599999998
 30
0.0
 11
1136.016599999999
 21
-1235.656199999996
 31
0.0
  0
LINE
  5
147
330
258
100
AcDbEntity
  8
DATA
  6
Continuous
 62
     7
100
AcDbLine
 10
1131.215999999996
 20
-1301.086599999998
 30
0.0
 11
1131.215999999996
 21
-1235.656199999996
 31
0.0
  0
LINE
  5
148
330
258
100
AcDbEntity
  8
DATA
  6
Continuous
 62
     7
100
AcDbLine
 10
1141.350599999998
 20
-1297.708399999996
 30
0.0
 11
1141.350599999998
 21
-1241.701399999997
 31
0.0
  0
CIRCLE
  5
149
330
258
100
AcDbEntity
  8
DATA
  6
Continuous
 62
     7
100
AcDbCircle
 10
1002.5
 20
-1475.499999999996
 30
0.0
 40
21.0
  0
LINE
  5
14A
330
258
100
AcDbEntity
  8
DATA
  6
Continuous
 62
     7
100
AcDbLine
 10
1002.500000000003
 20
-1487.750000000001
 30
0.0
 11
1002.500000000003
 21
-1463.249999999999
 31
0.0
  0
LINE
  5
14B
330
258
100
AcDbEntity
  8
DATA
  6
Continuous
 62
     7
100
AcDbLine
 10
990.2499999999982
 20
-1475.499999999996
 30
0.0
 11
1014.749999999998
 21
-1475.499999999996
 31
0.0
  0
ARC
  5
14C
330
258
100
AcDbEntity
  8
DATA
  6
Continuous
 62
     7
100
AcDbCircle
 10
979.2599999999982
 20
-1498.739999999998
 30
0.0
 40
22.26000000000022
100
AcDbArc
 50
180.0
 51
270.0
  0
LINE
  5
14D
330
258
100
AcDbEntity
  8
DATA
  6
Continuous
 62
     7
100
AcDbLine
 10
506.7049999999991
 20
-1730.949999999999
 30
0.0
 11
525.7550000000001
 21
-1750.0
 31
0.0
  0
ARC
  5
14E
330
258
100
AcDbEntity
  8
DATA
  6
Continuous
 62
     7
100
AcDbCircle
 10
1073.760000000002
 20
-1404.239999999997
 30
0.0
 40
22.26000000000022
100
AcDbArc
 50
180.0
 51
270.0
  0
LINE
  5
14F
330
258
100
AcDbEntity
  8
DATA
  6
Continuous
 62
     7
100
AcDbLine
 10
1131.215999999996
 20
-1383.674699999999
 30
0.0
 11
1131.215999999996
 21
-1312.910299999999
 31
0.0
  0
LINE
  5
150
330
258
100
AcDbEntity
  8
DATA
  6
Continuous
 62
     7
100
AcDbLine
 10
1136.016599999999
 20
-1383.674699999999
 30
0.0
 11
1136.016599999999
 21
-1312.910299999999
 31
0.0
  0
LINE
  5
151
330
258
100
AcDbEntity
  8
DATA
  6
Continuous
 62
     7
100
AcDbLine
 10
1121.792599999997
 20
-1312.643599999996
 30
0.0
 11
1121.792599999997
 21
-1301.086599999998
 31
0.0
  0
CIRCLE
  5
152
330
258
100
AcDbEntity
  8
DATA
  6
Continuous
 62
     7
100
AcDbCircle
 10
1002.5
 20
-985.4999999999968
 30
0.0
 40
21.0
  0
LINE
  5
153
330
258
100
AcDbEntity
  8
DATA
  6
Continuous
 62
     7
100
AcDbLine
 10
1002.500000000003
 20
-997.75
 30
0.0
 11
1002.500000000003
 21
-973.2499999999967
 31
0.0
  0
LINE
  5
154
330
258
100
AcDbEntity
  8
DATA
  6
Continuous
 62
     7
100
AcDbLine
 10
990.2499999999982
 20
-985.4999999999968
 30
0.0
 11
1014.749999999998
 21
-985.4999999999968
 31
0.0
  0
ARC
  5
155
330
258
100
AcDbEntity
  8
DATA
  6
Continuous
 62
     7
100
AcDbCircle
 10
979.2599999999982
 20
-962.2599999999971
 30
0.0
 40
22.25999999999999
100
AcDbArc
 50
90.0
 51
180.0
  0
LINE
  5
156
330
258
100
AcDbEntity
  8
DATA
  6
Continuous
 62
     7
100
AcDbLine
 10
506.7049999999991
 20
-600.6499999999997
 30
0.0
 11
525.7550000000001
 21
-581.5999999999995
 31
0.0
  0
ARC
  5
157
330
258
100
AcDbEntity
  8
DATA
  6
Continuous
 62
     7
100
AcDbCircle
 10
1073.759999999994
 20
-1056.759999999997
 30
0.0
 40
22.26000000000022
100
AcDbArc
 50
90.0
 51
180.0
  0
LINE
  5
158
330
258
100
AcDbEntity
  8
DATA
  6
Continuous
 62
     7
100
AcDbLine
 10
1136.016599999999
 20
-1145.867199999995
 30
0.0
 11
1136.016599999999
 21
-1077.325299999995
 31
0.0
  0
LINE
  5
159
330
258
100
AcDbEntity
  8
DATA
  6
Continuous
 62
     7
100
AcDbLine
 10
1131.215999999996
 20
-1145.867199999995
 30
0.0
 11
1131.215999999996
 21
-1077.325299999995
 31
0.0
  0
LINE
  5
15A
330
258
100
AcDbEntity
  8
DATA
  6
Continuous
 62
     7
100
AcDbLine
 10
1121.792599999997
 20
-1235.656199999996
 30
0.0
 11
1121.792599999997
 21
-1224.099199999997
 31
0.0
  0
LINE
  5
15B
330
258
100
AcDbEntity
  8
DATA
  6
Continuous
 62
     7
100
AcDbLine
 10
1121.792599999997
 20
-1157.424199999998
 30
0.0
 11
1121.792599999997
 21
-1145.867199999995
 31
0.0
  0
LINE
  5
15C
330
258
100
AcDbEntity
  8
DATA
  6
Continuous
 62
     7
100
AcDbLine
 10
1141.350599999998
 20
-1218.765199999998
 30
0.0
 11
1141.350599999998
 21
-1162.758199999997
 31
0.0
  0
LINE
  5
15D
330
258
100
AcDbEntity
  8
DATA
  6
Continuous
 62
     7
100
AcDbLine
 10
1136.016599999999
 20
-1224.099199999997
 30
0.0
 11
1136.016599999999
 21
-1157.424199999998
 31
0.0
  0
LINE
  5
15E
330
258
100
AcDbEntity
  8
DATA
  6
Continuous
 62
     7
100
AcDbLine
 10
1131.215999999996
 20
-1224.099199999997
 30
0.0
 11
1131.215999999996
 21
-1157.424199999998
 31
0.0
  0
LINE
  5
15F
330
258
100
AcDbEntity
  8
DATA
  6
Continuous
 62
     7
100
AcDbLine
 10
1548.499999999996
 20
-1056.760000000001
 30
0.0
 11
1548.499999999996
 21
-1404.239999999998
 31
0.0
  0
LINE
  5
160
330
258
100
AcDbEntity
  8
DATA
  6
Continuous
 62
     7
100
AcDbLine
 10
1643.0
 20
-962.260000000001
 30
0.0
 11
1643.0
 21
-1498.739999999998
 31
0.0
  0
LINE
  5
161
330
258
100
AcDbEntity
  8
DATA
  6
Continuous
 62
     7
100
AcDbLine
 10
1225.983400000003
 20
-1301.086599999998
 30
0.0
 11
1225.983400000003
 21
-1235.656199999996
 31
0.0
  0
LINE
  5
162
330
258
100
AcDbEntity
  8
DATA
  6
Continuous
 62
     7
100
AcDbLine
 10
1230.783999999997
 20
-1301.086599999998
 30
0.0
 11
1230.783999999997
 21
-1235.656199999996
 31
0.0
  0
LINE
  5
163
330
258
100
AcDbEntity
  8
DATA
  6
Continuous
 62
     7
100
AcDbLine
 10
1220.649400000002
 20
-1297.708399999996
 30
0.0
 11
1220.649400000002
 21
-1241.701399999997
 31
0.0
  0
LINE
  5
164
330
258
100
AcDbEntity
  8
DATA
  6
Continuous
 62
     7
100
AcDbLine
 10
1181.0
 20
-1283.419680799998
 30
0.0
 11
1181.0
 21
-1254.034141399998
 31
0.0
  0
CIRCLE
  5
165
330
258
100
AcDbEntity
  8
DATA
  6
Continuous
 62
     7
100
AcDbCircle
 10
1181.0
 20
-1268.726999999998
 30
0.0
 40
23.55849999999918
  0
ARC
  5
166
330
258
100
AcDbEntity
  8
DATA
  6
Continuous
 62
     7
100
AcDbCircle
 10
1526.24
 20
-1404.239999999998
 30
0.0
 40
22.25999999999977
100
AcDbArc
 50
270.0
 51
0.0
  0
ARC
  5
167
330
258
100
AcDbEntity
  8
DATA
  6
Continuous
 62
     7
100
AcDbCircle
 10
1620.739999999996
 20
-1498.739999999998
 30
0.0
 40
22.25999999999977
100
AcDbArc
 50
270.0
 51
0.0
  0
LINE
  5
168
330
258
100
AcDbEntity
  8
DATA
  6
Continuous
 62
     7
100
AcDbLine
 10
1597.500000000002
 20
-1487.750000000001
 30
0.0
 11
1597.500000000002
 21
-1463.249999999999
 31
0.0
  0
LINE
  5
169
330
258
100
AcDbEntity
  8
DATA
  6
Continuous
 62
     7
100
AcDbLine
 10
1585.25
 20
-1475.499999999996
 30
0.0
 11
1609.749999999996
 21
-1475.499999999996
 31
0.0
  0
CIRCLE
  5
16A
330
258
100
AcDbEntity
  8
DATA
  6
Continuous
 62
     7
100
AcDbCircle
 10
1597.499999999998
 20
-1475.499999999996
 30
0.0
 40
21.0
  0
LINE
  5
16B
330
258
100
AcDbEntity
  8
DATA
  6
Continuous
 62
     7
100
AcDbLine
 10
1181.0
 20
-1359.606980799999
 30
0.0
 11
1181.0
 21
-1330.221441399999
 31
0.0
  0
LINE
  5
16C
330
258
100
AcDbEntity
  8
DATA
  6
Continuous
 62
     7
100
AcDbLine
 10
1195.692680799999
 20
-1344.914299999998
 30
0.0
 11
1166.307319199999
 21
-1344.914299999998
 31
0.0
  0
CIRCLE
  5
16D
330
258
100
AcDbEntity
  8
DATA
  6
Continuous
 62
     7
100
AcDbCircle
 10
1181.0
 20
-1344.914299999998
 30
0.0
 40
25.78099999999904
  0
CIRCLE
  5
16E
330
258
100
AcDbEntity
  8
DATA
  6
Continuous
 62
     7
100
AcDbCircle
 10
1181.0
 20
-1344.914299999998
 30
0.0
 40
17.24837799999841
  0
LINE
  5
16F
330
258
100
AcDbEntity
  8
DATA
  6
Continuous
 62
     7
100
AcDbLine
 10
1225.983400000003
 20
-1383.674699999999
 30
0.0
 11
1225.983400000003
 21
-1312.910299999999
 31
0.0
  0
LINE
  5
170
330
258
100
AcDbEntity
  8
DATA
  6
Continuous
 62
     7
100
AcDbLine
 10
1230.783999999997
 20
-1383.674699999999
 30
0.0
 11
1230.783999999997
 21
-1312.910299999999
 31
0.0
  0
LINE
  5
171
330
258
100
AcDbEntity
  8
DATA
  6
Continuous
 62
     7
100
AcDbLine
 10
1240.207400000001
 20
-1312.643599999996
 30
0.0
 11
1240.207400000001
 21
-1301.086599999998
 31
0.0
  0
LINE
  5
172
330
258
100
AcDbEntity
  8
DATA
  6
Continuous
 62
     7
100
AcDbLine
 10
1195.692680799999
 20
-1268.726999999998
 30
0.0
 11
1166.307319199999
 21
-1268.726999999998
 31
0.0
  0
ARC
  5
173
330
258
100
AcDbEntity
  8
DATA
  6
Continuous
 62
     7
100
AcDbCircle
 10
1526.24
 20
-1056.760000000001
 30
0.0
 40
22.26000000000022
100
AcDbArc
 50
0.0
 51
90.0
  0
LINE
  5
174
330
258
100
AcDbEntity
  8
DATA
  6
Continuous
 62
     7
100
AcDbLine
 10
1181.0
 20
-1130.778380799996
 30
0.0
 11
1181.0
 21
-1101.392841399995
 31
0.0
  0
LINE
  5
175
330
258
100
AcDbEntity
  8
DATA
  6
Continuous
 62
     7
100
AcDbLine
 10
1195.692680799999
 20
-1116.085699999998
 30
0.0
 11
1166.307319199999
 21
-1116.085699999998
 31
0.0
  0
CIRCLE
  5
176
330
258
100
AcDbEntity
  8
DATA
  6
Continuous
 62
     7
100
AcDbCircle
 10
1181.0
 20
-1116.085699999998
 30
0.0
 40
17.24837799999841
  0
CIRCLE
  5
177
330
258
100
AcDbEntity
  8
DATA
  6
Continuous
 62
     7
100
AcDbCircle
 10
1181.0
 20
-1116.085699999998
 30
0.0
 40
25.78099999999904
  0
LINE
  5
178
330
258
100
AcDbEntity
  8
DATA
  6
Continuous
 62
     7
100
AcDbLine
 10
1225.983400000003
 20
-1145.867199999995
 30
0.0
 11
1225.983400000003
 21
-1077.325299999995
 31
0.0
  0
LINE
  5
179
330
258
100
AcDbEntity
  8
DATA
  6
Continuous
 62
     7
100
AcDbLine
 10
1230.783999999997
 20
-1145.867199999995
 30
0.0
 11
1230.783999999997
 21
-1077.325299999995
 31
0.0
  0
LINE
  5
17A
330
258
100
AcDbEntity
  8
DATA
  6
Continuous
 62
     7
100
AcDbLine
 10
1220.649400000002
 20
-1218.765199999998
 30
0.0
 11
1220.649400000002
 21
-1162.758199999999
 31
0.0
  0
LINE
  5
17B
330
258
100
AcDbEntity
  8
DATA
  6
Continuous
 62
     7
100
AcDbLine
 10
1225.983400000003
 20
-1224.099199999997
 30
0.0
 11
1225.983399999999
 21
-1157.424199999998
 31
0.0
  0
LINE
  5
17C
330
258
100
AcDbEntity
  8
DATA
  6
Continuous
 62
     7
100
AcDbLine
 10
1230.783999999997
 20
-1224.099199999997
 30
0.0
 11
1230.783999999997
 21
-1157.424199999998
 31
0.0
  0
LINE
  5
17D
330
258
100
AcDbEntity
  8
DATA
  6
Continuous
 62
     7
100
AcDbLine
 10
1181.0
 20
-1204.476480799997
 30
0.0
 11
1181.0
 21
-1175.090941399997
 31
0.0
  0
LINE
  5
17E
330
258
100
AcDbEntity
  8
DATA
  6
Continuous
 62
     7
100
AcDbLine
 10
1195.692680799999
 20
-1189.783799999998
 30
0.0
 11
1166.307319199999
 21
-1189.783799999998
 31
0.0
  0
CIRCLE
  5
17F
330
258
100
AcDbEntity
  8
DATA
  6
Continuous
 62
     7
100
AcDbCircle
 10
1181.0
 20
-1189.783799999998
 30
0.0
 40
23.55849999999918
  0
LINE
  5
180
330
258
100
AcDbEntity
  8
DATA
  6
Continuous
 62
     7
100
AcDbLine
 10
1240.207400000001
 20
-1235.656199999996
 30
0.0
 11
1240.207400000001
 21
-1224.099199999997
 31
0.0
  0
LINE
  5
181
330
258
100
AcDbEntity
  8
DATA
  6
Continuous
 62
     7
100
AcDbLine
 10
1240.207400000001
 20
-1157.424199999998
 30
0.0
 11
1240.207400000001
 21
-1145.867199999995
 31
0.0
  0
ARC
  5
182
330
258
100
AcDbEntity
  8
DATA
  6
Continuous
 62
     7
100
AcDbCircle
 10
1279.000000000001
 20
-1189.783799999998
 30
0.0
 40
21.00000000000008
100
AcDbArc
 50
315.5846914028068
 51
44.41530859719228
  0
ARC
  5
183
330
258
100
AcDbEntity
  8
DATA
  6
Continuous
 62
     7
100
AcDbCircle
 10
1279.000000000001
 20
-1189.783799999998
 30
0.0
 40
21.00000000000008
100
AcDbArc
 50
135.5846914028068
 51
224.4153085971941
  0
ARC
  5
184
330
258
100
AcDbEntity
  8
DATA
  6
Continuous
 62
     7
100
AcDbCircle
 10
1620.739999999996
 20
-962.260000000001
 30
0.0
 40
22.26000000000022
100
AcDbArc
 50
0.0
 51
90.0
  0
LINE
  5
185
330
258
100
AcDbEntity
  8
DATA
  6
Continuous
 62
     7
100
AcDbLine
 10
1597.500000000002
 20
-997.75
 30
0.0
 11
1597.500000000002
 21
-973.2499999999967
 31
0.0
  0
LINE
  5
186
330
258
100
AcDbEntity
  8
DATA
  6
Continuous
 62
     7
100
AcDbLine
 10
1585.25
 20
-985.4999999999968
 30
0.0
 11
1609.749999999996
 21
-985.4999999999968
 31
0.0
  0
CIRCLE
  5
187
330
258
100
AcDbEntity
  8
DATA
  6
Continuous
 62
     7
100
AcDbCircle
 10
1597.499999999998
 20
-985.4999999999968
 30
0.0
 40
21.0
  0
TEXT
  5
188
330
258
100
AcDbEntity
  8
DATA
 62
     7
100
AcDbText
 10
1290.611328125002
 20
-1212.065841325843
 30
0.0
 40
20.66612243652344
  1
RED
 50
90.0
 41
0.7
 11
1269.945205688478
 21
-1212.065841325843
 31
0.0
100
AcDbText
 73
     3
  0
CIRCLE
  5
189
330
258
100
AcDbEntity
  8
DATA
  6
Continuous
 62
     7
100
AcDbCircle
 10
-1000.000000000001
 20
-1250.799999999999
 30
0.0
 40
80.01000000000022
  0
CIRCLE
  5
18A
330
258
100
AcDbEntity
  8
DATA
  6
Continuous
 62
     7
100
AcDbCircle
 10
-1000.000000000001
 20
-1250.799999999999
 30
0.0
 40
184.1500000000014
  0
CIRCLE
  5
18B
330
258
100
AcDbEntity
  8
DATA
  6
Continuous
 62
     7
100
AcDbCircle
 10
-1000.000000000001
 20
-1250.799999999999
 30
0.0
 40
193.1500074000014
  0
CIRCLE
  5
18C
330
258
100
AcDbEntity
  8
DATA
  6
Continuous
 62
     7
100
AcDbCircle
 10
-1000.000000000001
 20
-1250.799999999999
 30
0.0
 40
200.1499934000003
  0
CIRCLE
  5
18D
330
258
100
AcDbEntity
  8
DATA
  6
Continuous
 62
     7
100
AcDbCircle
 10
-1000.000000000001
 20
-1250.799999999999
 30
0.0
 40
207.3910000000005
  0
CIRCLE
  5
18E
330
258
100
AcDbEntity
  8
DATA
  6
Continuous
 62
     7
100
AcDbCircle
 10
-1000.000000000001
 20
-1250.799999999999
 30
0.0
 40
210.4390000000003
  0
CIRCLE
  5
18F
330
258
100
AcDbEntity
  8
DATA
  6
Continuous
 62
     7
100
AcDbCircle
 10
-1000.000000000001
 20
-1250.799999999999
 30
0.0
 40
225.9300000000003
  0
CIRCLE
  5
190
330
258
100
AcDbEntity
  8
DATA
  6
Continuous
 62
     7
100
AcDbCircle
 10
-1000.000000000001
 20
-1250.799999999999
 30
0.0
 40
231.7750000000014
  0
CIRCLE
  5
191
330
258
100
AcDbEntity
  8
DATA
  6
Continuous
 62
     7
100
AcDbCircle
 10
-1084.4681826
 20
-1046.8757698
 30
0.0
 40
3.365499999999884
  0
ARC
  5
192
330
258
100
AcDbEntity
  8
DATA
  6
Continuous
 62
     7
100
AcDbCircle
 10
-1084.4681826
 20
-1046.8757698
 30
0.0
 40
3.962399999999933
100
AcDbArc
 50
202.4999999999987
 51
22.49999999999867
  0
LINE
  5
193
330
258
100
AcDbEntity
  8
DATA
  6
Continuous
 62
     7
100
AcDbLine
 10
-1090.107153500683
 20
-1043.616347681569
 30
0.0
 11
-1088.128957600001
 21
-1048.392098999999
 31
0.0
  0
LINE
  5
194
330
258
100
AcDbEntity
  8
DATA
  6
Continuous
 62
     7
100
AcDbLine
 10
-1082.785582337931
 20
-1040.583653687517
 30
0.0
 11
-1080.8074076
 21
-1045.3594152
 31
0.0
  0
CIRCLE
  5
195
330
258
100
AcDbEntity
  8
DATA
  6
Continuous
 62
     7
100
AcDbCircle
 10
-1203.9242302
 20
-1166.3318174
 30
0.0
 40
3.365499999999884
  0
ARC
  5
196
330
258
100
AcDbEntity
  8
DATA
  6
Continuous
 62
     7
100
AcDbCircle
 10
-1203.9242302
 20
-1166.3318174
 30
0.0
 40
3.962399999999759
100
AcDbArc
 50
247.5000000000074
 51
67.50000000000742
  0
LINE
  5
197
330
258
100
AcDbEntity
  8
DATA
  6
Continuous
 62
     7
100
AcDbLine
 10
-1207.183652318431
 20
-1160.692846499316
 30
0.0
 11
-1202.407900999999
 21
-1162.6710424
 31
0.0
  0
LINE
  5
198
330
258
100
AcDbEntity
  8
DATA
  6
Continuous
 62
     7
100
AcDbLine
 10
-1210.216346312482
 20
-1168.014417662068
 30
0.0
 11
-1205.440584799999
 21
-1169.992592399999
 31
0.0
  0
CIRCLE
  5
199
330
258
100
AcDbEntity
  8
DATA
  6
Continuous
 62
     7
100
AcDbCircle
 10
-915.5318173999994
 20
-1046.8757698
 30
0.0
 40
3.365499999999884
  0
ARC
  5
19A
330
258
100
AcDbEntity
  8
DATA
  6
Continuous
 62
     7
100
AcDbCircle
 10
-915.5318173999994
 20
-1046.8757698
 30
0.0
 40
3.962399999999933
100
AcDbArc
 50
157.5000000000013
 51
337.5000000000012
  0
LINE
  5
19B
330
258
100
AcDbEntity
  8
DATA
  6
Continuous
 62
     7
100
AcDbLine
 10
-919.1925923999997
 20
-1045.3594152
 30
0.0
 11
-917.2144176620687
 21
-1040.583653687517
 31
0.0
  0
LINE
  5
19C
330
258
100
AcDbEntity
  8
DATA
  6
Continuous
 62
     7
100
AcDbLine
 10
-911.8710424000012
 20
-1048.392098999999
 30
0.0
 11
-909.8928464993177
 21
-1043.616347681569
 31
0.0
  0
ARC
  5
19D
330
258
100
AcDbEntity
  8
DATA
  6
Continuous
 62
     7
100
AcDbCircle
 10
-796.0757698000005
 20
-1166.3318174
 30
0.0
 40
3.962400000000108
100
AcDbArc
 50
112.5000000000047
 51
292.5000000000048
  0
CIRCLE
  5
19E
330
258
100
AcDbEntity
  8
DATA
  6
Continuous
 62
     7
100
AcDbCircle
 10
-796.0757698000005
 20
-1166.3318174
 30
0.0
 40
3.365499999999884
  0
LINE
  5
19F
330
258
100
AcDbEntity
  8
DATA
  6
Continuous
 62
     7
100
AcDbLine
 10
-797.5920990000003
 20
-1162.6710424
 30
0.0
 11
-792.816347681569
 21
-1160.692846499316
 31
0.0
  0
LINE
  5
1A0
330
258
100
AcDbEntity
  8
DATA
  6
Continuous
 62
     7
100
AcDbLine
 10
-794.5594152000003
 20
-1169.992592399999
 30
0.0
 11
-789.7836536875176
 21
-1168.014417662068
 31
0.0
  0
ARC
  5
1A1
330
258
100
AcDbEntity
  8
DATA
  6
Continuous
 62
     7
100
AcDbCircle
 10
-796.0757698000005
 20
-1335.268182599999
 30
0.0
 40
3.962400000000108
100
AcDbArc
 50
67.49999999999528
 51
247.5000000000049
  0
CIRCLE
  5
1A2
330
258
100
AcDbEntity
  8
DATA
  6
Continuous
 62
     7
100
AcDbCircle
 10
-796.0757698000005
 20
-1335.268182599999
 30
0.0
 40
3.365499999999884
  0
LINE
  5
1A3
330
258
100
AcDbEntity
  8
DATA
  6
Continuous
 62
     7
100
AcDbLine
 10
-794.5594152000003
 20
-1331.607407599999
 30
0.0
 11
-789.7836536875176
 21
-1333.585582337931
 31
0.0
  0
LINE
  5
1A4
330
258
100
AcDbEntity
  8
DATA
  6
Continuous
 62
     7
100
AcDbLine
 10
-797.5920990000003
 20
-1338.928957599999
 30
0.0
 11
-792.816347681569
 21
-1340.907153500683
 31
0.0
  0
CIRCLE
  5
1A5
330
258
100
AcDbEntity
  8
DATA
  6
Continuous
 62
     7
100
AcDbCircle
 10
-915.5318173999994
 20
-1454.7242302
 30
0.0
 40
3.365499999999884
  0
ARC
  5
1A6
330
258
100
AcDbEntity
  8
DATA
  6
Continuous
 62
     7
100
AcDbCircle
 10
-915.5318173999994
 20
-1454.7242302
 30
0.0
 40
3.962399999999933
100
AcDbArc
 50
22.49999999999865
 51
202.4999999999986
  0
LINE
  5
1A7
330
258
100
AcDbEntity
  8
DATA
  6
Continuous
 62
     7
100
AcDbLine
 10
-919.1925923999997
 20
-1456.2405848
 30
0.0
 11
-917.2144176620687
 21
-1461.016346312483
 31
0.0
  0
LINE
  5
1A8
330
258
100
AcDbEntity
  8
DATA
  6
Continuous
 62
     7
100
AcDbLine
 10
-911.8710424000012
 20
-1453.207900999999
 30
0.0
 11
-909.8928464993177
 21
-1457.983652318431
 31
0.0
  0
CIRCLE
  5
1A9
330
258
100
AcDbEntity
  8
DATA
  6
Continuous
 62
     7
100
AcDbCircle
 10
-1084.4681826
 20
-1454.7242302
 30
0.0
 40
3.365499999999884
  0
ARC
  5
1AA
330
258
100
AcDbEntity
  8
DATA
  6
Continuous
 62
     7
100
AcDbCircle
 10
-1084.4681826
 20
-1454.7242302
 30
0.0
 40
3.962399999999933
100
AcDbArc
 50
337.5000000000012
 51
157.4999999999953
  0
LINE
  5
1AB
330
258
100
AcDbEntity
  8
DATA
  6
Continuous
 62
     7
100
AcDbLine
 10
-1090.107153500683
 20
-1457.983652318431
 30
0.0
 11
-1088.128957600001
 21
-1453.207900999999
 31
0.0
  0
LINE
  5
1AC
330
258
100
AcDbEntity
  8
DATA
  6
Continuous
 62
     7
100
AcDbLine
 10
-1082.785582337931
 20
-1461.016346312483
 30
0.0
 11
-1080.8074076
 21
-1456.2405848
 31
0.0
  0
CIRCLE
  5
1AD
330
258
100
AcDbEntity
  8
DATA
  6
Continuous
 62
     7
100
AcDbCircle
 10
-1203.9242302
 20
-1335.268182599999
 30
0.0
 40
3.365499999999884
  0
ARC
  5
1AE
330
258
100
AcDbEntity
  8
DATA
  6
Continuous
 62
     7
100
AcDbCircle
 10
-1203.9242302
 20
-1335.268182599999
 30
0.0
 40
3.962399999999759
100
AcDbArc
 50
292.4999999999926
 51
112.4999999999926
  0
LINE
  5
1AF
330
258
100
AcDbEntity
  8
DATA
  6
Continuous
 62
     7
100
AcDbLine
 10
-1210.216346312482
 20
-1333.58558233793
 30
0.0
 11
-1205.440584799999
 21
-1331.607407599999
 31
0.0
  0
LINE
  5
1B0
330
258
100
AcDbEntity
  8
DATA
  6
Continuous
 62
     7
100
AcDbLine
 10
-1207.183652318431
 20
-1340.907153500683
 30
0.0
 11
-1202.407900999999
 21
-1338.928957599999
 31
0.0
  0
ARC
  5
1B1
330
258
100
AcDbEntity
  8
DATA
  6
Continuous
 62
     7
100
AcDbCircle
 10
-355.823806655062
 20
-983.1081607472626
 30
0.0
 40
1.912698688910818
100
AcDbArc
 50
307.641902497583
 51
354.2670192893888
  0
LINE
  5
1B2
330
258
100
AcDbEntity
  8
DATA
  6
Continuous
 62
     7
100
AcDbLine
 10
-404.9537948365014
 20
-952.9671250184989
 30
0.0
 11
-395.9870348365011
 21
-931.6018450184987
 31
0.0
  0
LINE
  5
1B3
330
258
100
AcDbEntity
  8
DATA
  6
Continuous
 62
     7
100
AcDbLine
 10
-404.9537948365014
 20
-952.9671250184989
 30
0.0
 11
-413.8099148365008
 21
-931.6018450184987
 31
0.0
  0
LINE
  5
1B4
330
258
100
AcDbEntity
  8
DATA
  6
Continuous
 62
     7
100
AcDbLine
 10
-336.9833948365013
 20
-991.6018450184989
 30
0.0
 11
-336.9833948365013
 21
-931.6018450184987
 31
0.0
  0
LINE
  5
1B5
330
258
100
AcDbEntity
  8
DATA
  6
Continuous
 62
     7
100
AcDbLine
 10
-325.4704748365012
 20
-931.6018450184987
 30
0.0
 11
-325.4704748365012
 21
-982.4136850184975
 31
0.0
  0
LINE
  5
1B6
330
258
100
AcDbEntity
  8
DATA
  6
Continuous
 62
     7
100
AcDbLine
 10
-391.7803748365004
 20
-931.6018450184987
 30
0.0
 11
-391.7803748365004
 21
-982.4136850184975
 31
0.0
  0
LINE
  5
1B7
330
258
100
AcDbEntity
  8
DATA
  6
Continuous
 62
     7
100
AcDbLine
 10
-380.7102548365009
 20
-931.6018450184987
 30
0.0
 11
-380.7102548365009
 21
-982.4136850184975
 31
0.0
  0
LINE
  5
1B8
330
258
100
AcDbEntity
  8
DATA
  6
Continuous
 62
     7
100
AcDbLine
 10
-374.9537948365014
 20
-931.6018450184987
 30
0.0
 11
-374.9537948365014
 21
-991.6018450184989
 31
0.0
  0
LINE
  5
1B9
330
258
100
AcDbEntity
  8
DATA
  6
Continuous
 62
     7
100
AcDbLine
 10
-364.8799748365009
 20
-937.2475450184985
 30
0.0
 11
-364.8799748365009
 21
-956.5095850184988
 31
0.0
  0
LINE
  5
1BA
330
258
100
AcDbEntity
  8
DATA
  6
Continuous
 62
     7
100
AcDbLine
 10
-343.2884948365008
 20
-955.3950250184984
 30
0.0
 11
-343.2884948365008
 21
-941.3435650184979
 31
0.0
  0
LINE
  5
1BB
330
258
100
AcDbEntity
  8
DATA
  6
Continuous
 62
     7
100
AcDbLine
 10
-353.9206748365005
 20
-939.9044050184985
 30
0.0
 11
-353.9206748365005
 21
-953.8527850184989
 31
0.0
  0
ARC
  5
1BC
330
258
100
AcDbEntity
  8
DATA
  6
Continuous
 62
     7
100
AcDbCircle
 10
-394.0018148365008
 20
-976.1950450184986
 30
0.0
 40
15.47312055100619
100
AcDbArc
 50
264.6908562215332
 51
323.9911991542441
  0
LINE
  5
1BD
330
258
100
AcDbEntity
  8
DATA
  6
Continuous
 62
     7
100
AcDbLine
 10
-400.1936348365007
 20
-972.7826050184976
 30
0.0
 11
-400.1936348365007
 21
-982.4135650184979
 31
0.0
  0
LINE
  5
1BE
330
258
100
AcDbEntity
  8
DATA
  6
Continuous
 62
     7
100
AcDbLine
 10
-400.1936348365007
 20
-972.7826050184976
 30
0.0
 11
-410.1567548365009
 21
-972.7826050184976
 31
0.0
  0
LINE
  5
1BF
330
258
100
AcDbEntity
  8
DATA
  6
Continuous
 62
     7
100
AcDbLine
 10
-410.1567548365009
 20
-972.7826050184976
 30
0.0
 11
-410.1567548365009
 21
-982.4135650184979
 31
0.0
  0
ARC
  5
1C0
330
258
100
AcDbEntity
  8
DATA
  6
Continuous
 62
     7
100
AcDbCircle
 10
-395.9659148365008
 20
-982.5434050184977
 30
0.0
 40
4.187572957454399
100
AcDbArc
 50
269.7118487927503
 51
1.77598700568177
  0
ARC
  5
1C1
330
258
100
AcDbEntity
  8
DATA
  6
Continuous
 62
     7
100
AcDbCircle
 10
-396.0080948365012
 20
-982.5434050184977
 30
0.0
 40
4.187551544756873
100
AcDbArc
 50
178.2240129943168
 51
270.2881512072524
  0
ARC
  5
1C2
330
258
100
AcDbEntity
  8
DATA
  6
Continuous
 62
     7
100
AcDbCircle
 10
-396.8651948365005
 20
-976.1950450184986
 30
0.0
 40
15.47309542168012
100
AcDbArc
 50
216.0088008457556
 51
275.3091437784623
  0
ARC
  5
1C3
330
258
100
AcDbEntity
  8
DATA
  6
Continuous
 62
     7
100
AcDbCircle
 10
-403.1641148365006
 20
-982.0743850184976
 30
0.0
 40
7.000801249057247
100
AcDbArc
 50
182.7769954499968
 51
207.3596066671515
  0
CIRCLE
  5
1C4
330
258
100
AcDbEntity
  8
DATA
  6
Continuous
 62
     7
100
AcDbCircle
 10
-404.3449148365008
 20
-961.2697450184983
 30
0.0
 40
5.701079999999819
  0
LINE
  5
1C5
330
258
100
AcDbEntity
  8
DATA
  6
Continuous
 62
     7
100
AcDbLine
 10
-306.9833948365012
 20
-991.6017850184978
 30
0.0
 11
-336.9833948365013
 21
-991.6017850184978
 31
0.0
  0
LINE
  5
1C6
330
258
100
AcDbEntity
  8
DATA
  6
Continuous
 62
     7
100
AcDbLine
 10
-306.9833948365012
 20
-991.6017850184978
 30
0.0
 11
-306.9833948365012
 21
-972.7825450184978
 31
0.0
  0
LINE
  5
1C7
330
258
100
AcDbEntity
  8
DATA
  6
Continuous
 62
     7
100
AcDbLine
 10
-306.9833948365012
 20
-972.7826050184976
 30
0.0
 11
-317.0571548365006
 21
-972.7826050184976
 31
0.0
  0
LINE
  5
1C8
330
258
100
AcDbEntity
  8
DATA
  6
Continuous
 62
     7
100
AcDbLine
 10
-317.0571548365006
 20
-972.7826050184976
 30
0.0
 11
-317.0571548365006
 21
-982.4135650184979
 31
0.0
  0
LINE
  5
1C9
330
258
100
AcDbEntity
  8
DATA
  6
Continuous
 62
     7
100
AcDbLine
 10
-374.9537948365014
 20
-991.6017850184978
 30
0.0
 11
-353.9206748365005
 21
-991.6017250184976
 31
0.0
  0
LINE
  5
1CA
330
258
100
AcDbEntity
  8
DATA
  6
Continuous
 62
     7
100
AcDbLine
 10
-364.8800348365012
 20
-985.956025018498
 30
0.0
 11
-359.4556748365012
 21
-985.956025018498
 31
0.0
  0
LINE
  5
1CB
330
258
100
AcDbEntity
  8
DATA
  6
Continuous
 62
     7
100
AcDbLine
 10
-364.8799748365009
 20
-985.956025018498
 30
0.0
 11
-364.8799748365009
 21
-962.2659850184986
 31
0.0
  0
LINE
  5
1CC
330
258
100
AcDbEntity
  8
DATA
  6
Continuous
 62
     7
100
AcDbLine
 10
-364.8800348365012
 20
-962.2659850184986
 30
0.0
 11
-359.4556748365012
 21
-962.2659850184986
 31
0.0
  0
LINE
  5
1CD
330
258
100
AcDbEntity
  8
DATA
  6
Continuous
 62
     7
100
AcDbLine
 10
-353.9206748365005
 20
-983.2992250184979
 30
0.0
 11
-353.9206748365005
 21
-964.9227850184988
 31
0.0
  0
ARC
  5
1CE
330
258
100
AcDbEntity
  8
DATA
  6
Continuous
 62
     7
100
AcDbCircle
 10
-387.7028948365005
 20
-982.0743850184976
 30
0.0
 40
7.000791287190543
100
AcDbArc
 50
332.6403933328431
 51
357.2230045500053
  0
ARC
  5
1CF
330
258
100
AcDbEntity
  8
DATA
  6
Continuous
 62
     7
100
AcDbCircle
 10
-321.2427548365013
 20
-982.5434050184977
 30
0.0
 40
4.187572957454399
100
AcDbArc
 50
269.7118487927503
 51
1.77598700568177
  0
ARC
  5
1D0
330
258
100
AcDbEntity
  8
DATA
  6
Continuous
 62
     7
100
AcDbCircle
 10
-321.2848748365004
 20
-982.5434050184977
 30
0.0
 40
4.187551544757782
100
AcDbArc
 50
178.2240129943172
 51
270.2881512072399
  0
LINE
  5
1D1
330
258
100
AcDbEntity
  8
DATA
  6
Continuous
 62
     7
100
AcDbLine
 10
-343.2933548365008
 20
-981.9707650184987
 30
0.0
 11
-343.2933548365008
 21
-966.0298450184976
 31
0.0
  0
LINE
  5
1D2
330
258
100
AcDbEntity
  8
DATA
  6
Continuous
 62
     7
100
AcDbLine
 10
-364.8800348365012
 20
-956.5095850184988
 30
0.0
 11
-359.4556748365012
 21
-956.5095850184988
 31
0.0
  0
ARC
  5
1D3
330
258
100
AcDbEntity
  8
DATA
  6
Continuous
 62
     7
100
AcDbCircle
 10
-354.6833948365011
 20
-980.2115650184983
 30
0.0
 40
11.4156684703082
100
AcDbArc
 50
273.8309816091184
 51
351.1351473098017
  0
LINE
  5
1D4
330
258
100
AcDbEntity
  8
DATA
  6
Continuous
 62
     7
100
AcDbLine
 10
-391.7803748365004
 20
-931.6018450184987
 30
0.0
 11
-380.7102548365009
 21
-931.6018450184987
 31
0.0
  0
LINE
  5
1D5
330
258
100
AcDbEntity
  8
DATA
  6
Continuous
 62
     7
100
AcDbLine
 10
-413.8099148365008
 20
-931.6018450184987
 30
0.0
 11
-395.9870348365011
 21
-931.6018450184987
 31
0.0
  0
LINE
  5
1D6
330
258
100
AcDbEntity
  8
DATA
  6
Continuous
 62
     7
100
AcDbLine
 10
-336.9833948365013
 20
-931.6018450184987
 30
0.0
 11
-325.4704748365012
 21
-931.6018450184987
 31
0.0
  0
LINE
  5
1D7
330
258
100
AcDbEntity
  8
DATA
  6
Continuous
 62
     7
100
AcDbLine
 10
-374.9537948365014
 20
-931.6018450184987
 30
0.0
 11
-353.8050540676204
 21
-931.6018935809401
 31
0.0
  0
LINE
  5
1D8
330
258
100
AcDbEntity
  8
DATA
  6
Continuous
 62
     7
100
AcDbLine
 10
-364.8800348365012
 20
-937.2476050184982
 30
0.0
 11
-359.4556748365012
 21
-937.2476050184982
 31
0.0
  0
ARC
  5
1D9
330
258
100
AcDbEntity
  8
DATA
  6
Continuous
 62
     7
100
AcDbCircle
 10
-354.5695748365005
 20
-942.9746050184984
 30
0.0
 40
11.39837959746895
100
AcDbArc
 50
8.226923859019304
 51
86.15412669215213
  0
ARC
  5
1DA
330
258
100
AcDbEntity
  8
DATA
  6
Continuous
 62
     7
100
AcDbCircle
 10
-359.3916220608817
 20
-975.4338972549758
 30
0.0
 40
10.52232272029101
100
AcDbArc
 50
269.6512199376164
 51
282.8264828068743
  0
ARC
  5
1DB
330
258
100
AcDbEntity
  8
DATA
  6
Continuous
 62
     7
100
AcDbCircle
 10
-358.2097986717008
 20
-979.8825268858605
 30
0.0
 40
5.924627422159932
100
AcDbArc
 50
281.2331036226597
 51
306.8620088940656
  0
ARC
  5
1DC
330
258
100
AcDbEntity
  8
DATA
  6
Continuous
 62
     7
100
AcDbCircle
 10
-355.823806655062
 20
-965.1138492897324
 30
0.0
 40
1.9126986889115
100
AcDbArc
 50
5.732980710567882
 51
52.35809750241696
  0
ARC
  5
1DD
330
258
100
AcDbEntity
  8
DATA
  6
Continuous
 62
     7
100
AcDbCircle
 10
-359.3916220608817
 20
-972.7881127820195
 30
0.0
 40
10.52232272028988
100
AcDbArc
 50
77.1735171931242
 51
90.34878006238363
  0
ARC
  5
1DE
330
258
100
AcDbEntity
  8
DATA
  6
Continuous
 62
     7
100
AcDbCircle
 10
-358.2097986717008
 20
-968.3394831511348
 30
0.0
 40
5.92462742215926
100
AcDbArc
 50
53.13799110593873
 51
78.76689637733919
  0
ARC
  5
1DF
330
258
100
AcDbEntity
  8
DATA
  6
Continuous
 62
     7
100
AcDbCircle
 10
-349.0994348365011
 20
-966.4223050184988
 30
0.0
 40
5.819328983482901
100
AcDbArc
 50
3.867006359830988
 51
88.36163456789945
  0
ARC
  5
1E0
330
258
100
AcDbEntity
  8
DATA
  6
Continuous
 62
     7
100
AcDbCircle
 10
-349.1047748365008
 20
-954.7827850184985
 30
0.0
 40
5.825111639684632
100
AcDbArc
 50
271.6892821046425
 51
356.0782829826637
  0
ARC
  5
1E1
330
258
100
AcDbEntity
  8
DATA
  6
Continuous
 62
     7
100
AcDbCircle
 10
-355.823806655062
 20
-953.6617207472636
 30
0.0
 40
1.912698688910818
100
AcDbArc
 50
307.641902497583
 51
354.2670192893888
  0
ARC
  5
1E2
330
258
100
AcDbEntity
  8
DATA
  6
Continuous
 62
     7
100
AcDbCircle
 10
-359.3916220608817
 20
-945.9874572549763
 30
0.0
 40
10.52232272029101
100
AcDbArc
 50
269.6512199376164
 51
282.8264828068744
  0
ARC
  5
1E3
330
258
100
AcDbEntity
  8
DATA
  6
Continuous
 62
     7
100
AcDbCircle
 10
-358.2097986717008
 20
-950.4360868858611
 30
0.0
 40
5.924627422158593
100
AcDbArc
 50
281.2331036226624
 51
306.8620088940653
  0
ARC
  5
1E4
330
258
100
AcDbEntity
  8
DATA
  6
Continuous
 62
     7
100
AcDbCircle
 10
-355.823806655062
 20
-940.0954692897336
 30
0.0
 40
1.912698688911636
100
AcDbArc
 50
5.732980710608544
 51
52.35809750241904
  0
ARC
  5
1E5
330
258
100
AcDbEntity
  8
DATA
  6
Continuous
 62
     7
100
AcDbCircle
 10
-359.3916220608817
 20
-947.7697327820205
 30
0.0
 40
10.52232272029121
100
AcDbArc
 50
77.17351719312588
 51
90.3487800623836
  0
ARC
  5
1E6
330
258
100
AcDbEntity
  8
DATA
  6
Continuous
 62
     7
100
AcDbCircle
 10
-358.2097986717008
 20
-943.321103151136
 30
0.0
 40
5.92462742215926
100
AcDbArc
 50
53.13799110593873
 51
78.76689637734803
  0
TEXT
  5
1E7
330
258
100
AcDbEntity
  8
DATA
 62
     7
100
AcDbText
 10
949.9999999999996
 20
-2237.356815
 30
0.0
 40
38.00629340277778
  1
シネマ・サブウーファー
 41
0.7
 11
949.9999999999996
 21
-2199.350521597221
 31
0.0
100
AcDbText
 73
     3
  0
ENDSEC
  0
SECTION
  2
OBJECTS
  0
DICTIONARY
  5
1F5
330
0
100
AcDbDictionary
281
     1
  3
ACAD_CIP_PREVIOUS_PRODUCT_INFO
350
270
  3
ACAD_COLOR
350
24B
  3
ACAD_DETAILVIEWSTYLE
350
252
  3
ACAD_GROUP
350
1F6
  3
ACAD_LAYOUT
350
24A
  3
ACAD_MATERIAL
350
1F9
  3
ACAD_MLEADERSTYLE
350
24E
  3
ACAD_MLINESTYLE
350
247
  3
ACAD_PLOTSETTINGS
350
249
  3
ACAD_PLOTSTYLENAME
350
1F7
  3
ACAD_SCALELIST
350
22B
  3
ACAD_SECTIONVIEWSTYLE
350
250
  3
ACAD_TABLESTYLE
350
24C
  3
ACAD_VISUALSTYLE
350
212
  3
ACDB_RECOMPOSE_DATA
350
288
  3
AcDbVariableDictionary
350
27B
  3
DWGPROPS
350
289
  0
DICTIONARY
  5
271
330
23D
100
AcDbDictionary
280
     1
281
     1
  3
ADSK_XREC_LAYER_RECONCILED
360
272
  0
DICTIONARY
  5
273
330
25C
100
AcDbDictionary
280
     1
281
     1
  3
ADSK_XREC_LAYER_RECONCILED
360
274
  0
DICTIONARY
  5
275
330
268
100
AcDbDictionary
280
     1
281
     1
  3
ADSK_XREC_LAYER_RECONCILED
360
276
  0
DICTIONARY
  5
277
330
269
100
AcDbDictionary
280
     1
281
     1
  3
ADSK_XREC_LAYER_RECONCILED
360
278
  0
DICTIONARY
  5
279
330
26A
100
AcDbDictionary
280
     1
281
     1
  3
ADSK_XREC_LAYER_RECONCILED
360
27A
  0
XRECORD
  5
270
102
{ACAD_REACTORS
330
1F5
102
}
330
1F5
100
AcDbXrecord
280
     1
300
ACDLT
300
2018
300

  0
DICTIONARY
  5
24B
102
{ACAD_REACTORS
330
1F5
102
}
330
1F5
100
AcDbDictionary
281
     1
  0
DICTIONARY
  5
252
102
{ACAD_REACTORS
330
1F5
102
}
330
1F5
100
AcDbDictionary
281
     1
  3
Imperial24
350
253
  0
DICTIONARY
  5
1F6
102
{ACAD_REACTORS
330
1F5
102
}
330
1F5
100
AcDbDictionary
281
     1
  0
DICTIONARY
  5
24A
102
{ACAD_REACTORS
330
1F5
102
}
330
1F5
100
AcDbDictionary
281
     1
  3
Model
350
25B
  3
レイアウト1
350
257
  0
DICTIONARY
  5
1F9
102
{ACAD_REACTORS
330
1F5
102
}
330
1F5
100
AcDbDictionary
281
     1
  3
ByBlock
350
202
  3
ByLayer
350
1FA
  3
Global
350
20A
  0
DICTIONARY
  5
24E
102
{ACAD_REACTORS
330
1F5
102
}
330
1F5
100
AcDbDictionary
281
     1
  3
Standard
350
24F
  0
DICTIONARY
  5
247
102
{ACAD_REACTORS
330
1F5
102
}
330
1F5
100
AcDbDictionary
281
     1
  3
Standard
350
248
  0
DICTIONARY
  5
249
102
{ACAD_REACTORS
330
1F5
102
}
330
1F5
100
AcDbDictionary
281
     1
  0
ACDBDICTIONARYWDFLT
  5
1F7
102
{ACAD_REACTORS
330
1F5
102
}
330
1F5
100
AcDbDictionary
281
     1
  3
Normal
350
1F8
100
AcDbDictionaryWithDefault
340
1F8
  0
DICTIONARY
  5
22B
102
{ACAD_REACTORS
330
1F5
102
}
330
1F5
100
AcDbDictionary
281
     1
  3
A0
350
22C
  3
A1
350
22D
  3
A2
350
22E
  3
A3
350
22F
  3
A4
350
230
  3
A5
350
231
  3
A6
350
232
  3
A7
350
233
  3
A8
350
234
  3
A9
350
235
  3
B0
350
236
  3
B1
350
237
  3
B2
350
238
  3
B3
350
239
  3
B4
350
23A
  3
B5
350
23B
  3
B6
350
23C
  0
DICTIONARY
  5
250
102
{ACAD_REACTORS
330
1F5
102
}
330
1F5
100
AcDbDictionary
281
     1
  3
Imperial24
350
251
  0
DICTIONARY
  5
24C
102
{ACAD_REACTORS
330
1F5
102
}
330
1F5
100
AcDbDictionary
281
     1
  3
Standard
350
24D
  0
DICTIONARY
  5
212
102
{ACAD_REACTORS
330
1F5
102
}
330
1F5
100
AcDbDictionary
281
     1
  3
2dWireframe
350
218
  3
Basic
350
217
  3
Brighten
350
21E
  3
ColorChange
350
222
  3
Conceptual
350
21B
  3
Dim
350
21D
  3
EdgeColorOff
350
22A
  3
Facepattern
350
221
  3
Flat
350
213
  3
FlatWithEdges
350
214
  3
Gouraud
350
215
  3
GouraudWithEdges
350
216
  3
Hidden
350
21A
  3
JitterOff
350
228
  3
Linepattern
350
220
  3
OverhangOff
350
229
  3
Realistic
350
21C
  3
Shaded
350
227
  3
Shaded with edges
350
226
  3
Shades of Gray
350
223
  3
Sketchy
350
224
  3
Thicken
350
21F
  3
Wireframe
350
219
  3
X-Ray
350
225
  0
XRECORD
  5
288
102
{ACAD_REACTORS
330
1F5
102
}
330
1F5
100
AcDbXrecord
280
     1
 90
        1
330
24D
  0
DICTIONARY
  5
27B
102
{ACAD_REACTORS
330
1F5
102
}
330
1F5
100
AcDbDictionary
281
     1
  3
CANNOSCALE
350
280
  3
CMLEADERSTYLE
350
27D
  3
CTABLESTYLE
350
27C
  3
CVIEWDETAILSTYLE
350
27E
  3
CVIEWSECTIONSTYLE
350
27F
  3
DIMASSOC
350
283
  3
INDEXCTL
350
282
  3
SORTENTS
350
281
  3
XCLIPFRAME
350
284
  0
XRECORD
  5
289
102
{ACAD_REACTORS
330
1F5
102
}
330
1F5
100
AcDbXrecord
280
     1
  1
DWGPROPS COOKIE
  2

  3

  4

  6

  7

  8
sasaki_n
  9

300
=
301
=
302
=
303
=
304
=
305
=
306
=
307
=
308
=
309
=
 40
0.0018518518518519
 41
2457954.595972223
 42
2457954.603148148
  1

 90
        0
  0
XRECORD
  5
272
102
{ACAD_REACTORS
330
271
102
}
330
271
100
AcDbXrecord
280
     1
290
     1
  0
XRECORD
  5
274
102
{ACAD_REACTORS
330
273
102
}
330
273
100
AcDbXrecord
280
     1
290
     1
  0
XRECORD
  5
276
102
{ACAD_REACTORS
330
275
102
}
330
275
100
AcDbXrecord
280
     1
290
     1
  0
XRECORD
  5
278
102
{ACAD_REACTORS
330
277
102
}
330
277
100
AcDbXrecord
280
     1
290
     1
  0
XRECORD
  5
27A
102
{ACAD_REACTORS
330
279
102
}
330
279
100
AcDbXrecord
280
     1
290
     1
  0
ACDBDETAILVIEWSTYLE
  5
253
102
{ACAD_XDICTIONARY
360
2C1
102
}
102
{ACAD_REACTORS
330
252
102
}
330
252
100
AcDbModelDocViewStyle
 70
     0
  3
Imperial24
290
     0
100
AcDbDetailViewStyle
 70
     0
 71
     0
 90
        3
 71
     1
340
23E
 40
0.24
340
0
 40
0.24
300

 40
0.36
280
     3
 71
     2
340
245
 90
       25
 71
     3
340
23E
 40
0.24
 90
        1
 40
0.75
 90
        1
300
%<\AcVar ViewType \f "%tc1">% %<\AcVar ViewDetailId>%\PSCALE %<\AcVar ViewScale \f "%sn">%
 71
     4
340
245
 90
       25
340
245
 90
       25
280
     0
  0
LAYOUT
  5
25B
102
{ACAD_XDICTIONARY
360
2C5
102
}
102
{ACAD_REACTORS
330
24A
102
}
330
24A
100
AcDbPlotSettings
  1

  2
DocuPrint 3000-2
  4

  6

 40
0.0
 41
0.0
 42
0.0
 43
0.0
 44
0.0
 45
0.0
 46
0.0
 47
0.0
 48
0.0
 49
0.0
140
0.0
141
0.0
142
1.0
143
1.0
 70
  1712
 72
     0
 73
     0
 74
     0
  7

 75
     0
147
1.0
148
0.0
149
0.0
100
AcDbLayout
  1
Model
 70
     1
 71
     0
 10
0.0
 20
0.0
 11
12.0
 21
9.0
 12
0.0
 22
0.0
 32
0.0
 14
0.0
 24
0.0
 34
0.0
 15
0.0
 25
0.0
 35
0.0
146
0.0
 13
0.0
 23
0.0
 33
0.0
 16
1.0
 26
0.0
 36
0.0
 17
0.0
 27
1.0
 37
0.0
 76
     0
330
258
331
25D
  0
LAYOUT
  5
257
102
{ACAD_XDICTIONARY
360
2C3
102
}
102
{ACAD_REACTORS
330
24A
102
}
330
24A
100
AcDbPlotSettings
  1

  2
DocuPrint 3000-2
  4

  6

 40
0.0
 41
0.0
 42
0.0
 43
0.0
 44
0.0
 45
0.0
 46
0.0
 47
0.0
 48
0.0
 49
0.0
140
0.0
141
0.0
142
1.0
143
1.0
 70
   688
 72
     0
 73
     0
 74
     5
  7

 75
    16
147
1.0
148
0.0
149
0.0
100
AcDbLayout
  1
レイアウト1
 70
     0
 71
     1
 10
0.0
 20
0.0
 11
12.0
 21
9.0
 12
0.0
 22
0.0
 32
0.0
 14
1.000000000000000E+20
 24
1.000000000000000E+20
 34
1.000000000000000E+20
 15
-1.000000000000000E+20
 25
-1.000000000000000E+20
 35
-1.000000000000000E+20
146
0.0
 13
0.0
 23
0.0
 33
0.0
 16
1.0
 26
0.0
 36
0.0
 17
0.0
 27
1.0
 37
0.0
 76
     0
330
254
  0
MATERIAL
  5
202
102
{ACAD_XDICTIONARY
360
203
102
}
102
{ACAD_REACTORS
330
1F9
102
}
330
1F9
100
AcDbMaterial
  1
ByBlock
 72
     0
 43
0.0208333333333333
 43
0.0
 43
0.0
 43
0.0
 43
0.0
 43
0.0208333333333333
 43
0.0
 43
0.0
 43
0.0
 43
0.0
 43
1.0
 43
0.0
 43
0.0
 43
0.0
 43
0.0
 43
1.0
 77
     0
 47
0.0208333333333333
 47
0.0
 47
0.0
 47
0.0
 47
0.0
 47
0.0208333333333333
 47
0.0
 47
0.0
 47
0.0
 47
0.0
 47
1.0
 47
0.0
 47
0.0
 47
0.0
 47
0.0
 47
1.0
171
     0
 49
0.0208333333333333
 49
0.0
 49
0.0
 49
0.0
 49
0.0
 49
0.0208333333333333
 49
0.0
 49
0.0
 49
0.0
 49
0.0
 49
1.0
 49
0.0
 49
0.0
 49
0.0
 49
0.0
 49
1.0
175
     0
142
0.0208333333333333
142
0.0
142
0.0
142
0.0
142
0.0
142
0.0208333333333333
142
0.0
142
0.0
142
0.0
142
0.0
142
1.0
142
0.0
142
0.0
142
0.0
142
0.0
142
1.0
179
     0
144
0.0208333333333333
144
0.0
144
0.0
144
0.0
144
0.0
144
0.0208333333333333
144
0.0
144
0.0
144
0.0
144
0.0
144
1.0
144
0.0
144
0.0
144
0.0
144
0.0
144
1.0
147
0.0208333333333333
147
0.0
147
0.0
147
0.0
147
0.0
147
0.0208333333333333
147
0.0
147
0.0
147
0.0
147
0.0
147
1.0
147
0.0
147
0.0
147
0.0
147
0.0
147
1.0
  0
MATERIAL
  5
1FA
102
{ACAD_XDICTIONARY
360
1FB
102
}
102
{ACAD_REACTORS
330
1F9
102
}
330
1F9
100
AcDbMaterial
  1
ByLayer
 72
     0
 43
0.0208333333333333
 43
0.0
 43
0.0
 43
0.0
 43
0.0
 43
0.0208333333333333
 43
0.0
 43
0.0
 43
0.0
 43
0.0
 43
1.0
 43
0.0
 43
0.0
 43
0.0
 43
0.0
 43
1.0
 77
     0
 47
0.0208333333333333
 47
0.0
 47
0.0
 47
0.0
 47
0.0
 47
0.0208333333333333
 47
0.0
 47
0.0
 47
0.0
 47
0.0
 47
1.0
 47
0.0
 47
0.0
 47
0.0
 47
0.0
 47
1.0
171
     0
 49
0.0208333333333333
 49
0.0
 49
0.0
 49
0.0
 49
0.0
 49
0.0208333333333333
 49
0.0
 49
0.0
 49
0.0
 49
0.0
 49
1.0
 49
0.0
 49
0.0
 49
0.0
 49
0.0
 49
1.0
175
     0
142
0.0208333333333333
142
0.0
142
0.0
142
0.0
142
0.0
142
0.0208333333333333
142
0.0
142
0.0
142
0.0
142
0.0
142
1.0
142
0.0
142
0.0
142
0.0
142
0.0
142
1.0
179
     0
144
0.0208333333333333
144
0.0
144
0.0
144
0.0
144
0.0
144
0.0208333333333333
144
0.0
144
0.0
144
0.0
144
0.0
144
1.0
144
0.0
144
0.0
144
0.0
144
0.0
144
1.0
147
0.0208333333333333
147
0.0
147
0.0
147
0.0
147
0.0
147
0.0208333333333333
147
0.0
147
0.0
147
0.0
147
0.0
147
1.0
147
0.0
147
0.0
147
0.0
147
0.0
147
1.0
  0
MATERIAL
  5
20A
102
{ACAD_XDICTIONARY
360
20B
102
}
102
{ACAD_REACTORS
330
1F9
102
}
330
1F9
100
AcDbMaterial
  1
Global
 72
     0
 43
0.0208333333333333
 43
0.0
 43
0.0
 43
0.0
 43
0.0
 43
0.0208333333333333
 43
0.0
 43
0.0
 43
0.0
 43
0.0
 43
1.0
 43
0.0
 43
0.0
 43
0.0
 43
0.0
 43
1.0
 77
     0
 47
0.0208333333333333
 47
0.0
 47
0.0
 47
0.0
 47
0.0
 47
0.0208333333333333
 47
0.0
 47
0.0
 47
0.0
 47
0.0
 47
1.0
 47
0.0
 47
0.0
 47
0.0
 47
0.0
 47
1.0
171
     0
 49
0.0208333333333333
 49
0.0
 49
0.0
 49
0.0
 49
0.0
 49
0.0208333333333333
 49
0.0
 49
0.0
 49
0.0
 49
0.0
 49
1.0
 49
0.0
 49
0.0
 49
0.0
 49
0.0
 49
1.0
175
     0
142
0.0208333333333333
142
0.0
142
0.0
142
0.0
142
0.0
142
0.0208333333333333
142
0.0
142
0.0
142
0.0
142
0.0
142
1.0
142
0.0
142
0.0
142
0.0
142
0.0
142
1.0
179
     0
144
0.0208333333333333
144
0.0
144
0.0
144
0.0
144
0.0
144
0.0208333333333333
144
0.0
144
0.0
144
0.0
144
0.0
144
1.0
144
0.0
144
0.0
144
0.0
144
0.0
144
1.0
147
0.0208333333333333
147
0.0
147
0.0
147
0.0
147
0.0
147
0.0208333333333333
147
0.0
147
0.0
147
0.0
147
0.0
147
1.0
147
0.0
147
0.0
147
0.0
147
0.0
147
1.0
  0
MLEADERSTYLE
  5
24F
102
{ACAD_REACTORS
330
24E
102
}
330
24E
100
AcDbMLeaderStyle
170
     2
171
     1
172
     0
 90
        2
 40
0.0
 41
0.0
173
     1
 91
-1056964608
340
243
 92
       -2
290
     1
 42
0.09
291
     1
 43
0.36
  3
Standard
 44
0.18
300

342
23E
174
     1
178
     6
175
     1
176
     0
 93
-1056964608
 45
0.18
292
     0
297
     0
 46
0.18
 94
-1056964608
 47
1.0
 49
1.0
140
1.0
293
     1
141
0.0
294
     1
177
     0
142
1.0
295
     0
296
     0
143
0.125
1001
ACAD_MLEADERVER
1070
     2
  0
MLINESTYLE
  5
248
102
{ACAD_REACTORS
330
247
102
}
330
247
100
AcDbMlineStyle
  2
STANDARD
 70
     0
  3

 62
   256
 51
90.0
 52
90.0
 71
     2
 49
0.5
 62
   256
  6
BYLAYER
 49
-0.5
 62
   256
  6
BYLAYER
  0
ACDBPLACEHOLDER
  5
1F8
102
{ACAD_REACTORS
330
1F7
102
}
330
1F7
  0
SCALE
  5
22C
102
{ACAD_REACTORS
330
22B
102
}
330
22B
100
AcDbScale
 70
     0
300
1:1
140
1.0
141
1.0
290
     1
  0
SCALE
  5
22D
102
{ACAD_REACTORS
330
22B
102
}
330
22B
100
AcDbScale
 70
     0
300
1/128" = 1'-0"
140
0.0078125
141
12.0
290
     0
  0
SCALE
  5
22E
102
{ACAD_REACTORS
330
22B
102
}
330
22B
100
AcDbScale
 70
     0
300
1/64" = 1'-0"
140
0.015625
141
12.0
290
     0
  0
SCALE
  5
22F
102
{ACAD_REACTORS
330
22B
102
}
330
22B
100
AcDbScale
 70
     0
300
1/32" = 1'-0"
140
0.03125
141
12.0
290
     0
  0
SCALE
  5
230
102
{ACAD_REACTORS
330
22B
102
}
330
22B
100
AcDbScale
 70
     0
300
1/16" = 1'-0"
140
0.0625
141
12.0
290
     0
  0
SCALE
  5
231
102
{ACAD_REACTORS
330
22B
102
}
330
22B
100
AcDbScale
 70
     0
300
3/32" = 1'-0"
140
0.09375
141
12.0
290
     0
  0
SCALE
  5
232
102
{ACAD_REACTORS
330
22B
102
}
330
22B
100
AcDbScale
 70
     0
300
1/8" = 1'-0"
140
0.125
141
12.0
290
     0
  0
SCALE
  5
233
102
{ACAD_REACTORS
330
22B
102
}
330
22B
100
AcDbScale
 70
     0
300
3/16" = 1'-0"
140
0.1875
141
12.0
290
     0
  0
SCALE
  5
234
102
{ACAD_REACTORS
330
22B
102
}
330
22B
100
AcDbScale
 70
     0
300
1/4" = 1'-0"
140
0.25
141
12.0
290
     0
  0
SCALE
  5
235
102
{ACAD_REACTORS
330
22B
102
}
330
22B
100
AcDbScale
 70
     0
300
3/8" = 1'-0"
140
0.375
141
12.0
290
     0
  0
SCALE
  5
236
102
{ACAD_REACTORS
330
22B
102
}
330
22B
100
AcDbScale
 70
     0
300
1/2" = 1'-0"
140
0.5
141
12.0
290
     0
  0
SCALE
  5
237
102
{ACAD_REACTORS
330
22B
102
}
330
22B
100
AcDbScale
 70
     0
300
3/4" = 1'-0"
140
0.75
141
12.0
290
     0
  0
SCALE
  5
238
102
{ACAD_REACTORS
330
22B
102
}
330
22B
100
AcDbScale
 70
     0
300
1" = 1'-0"
140
1.0
141
12.0
290
     0
  0
SCALE
  5
239
102
{ACAD_REACTORS
330
22B
102
}
330
22B
100
AcDbScale
 70
     0
300
1-1/2" = 1'-0"
140
1.5
141
12.0
290
     0
  0
SCALE
  5
23A
102
{ACAD_REACTORS
330
22B
102
}
330
22B
100
AcDbScale
 70
     0
300
3" = 1'-0"
140
3.0
141
12.0
290
     0
  0
SCALE
  5
23B
102
{ACAD_REACTORS
330
22B
102
}
330
22B
100
AcDbScale
 70
     0
300
6" = 1'-0"
140
6.0
141
12.0
290
     0
  0
SCALE
  5
23C
102
{ACAD_REACTORS
330
22B
102
}
330
22B
100
AcDbScale
 70
     0
300
1'-0" = 1'-0"
140
12.0
141
12.0
290
     0
  0
ACDBSECTIONVIEWSTYLE
  5
251
102
{ACAD_XDICTIONARY
360
2BF
102
}
102
{ACAD_REACTORS
330
250
102
}
330
250
100
AcDbModelDocViewStyle
 70
     0
  3
Imperial24
290
     0
100
AcDbSectionViewStyle
 70
     0
 71
     0
 90
       78
 71
     1
340
23E
 40
0.24
340
0
340
0
 40
0.24
300
I, O, Q, S, X, Z
 40
0.48
 90
        3
 40
0.18
 90
        1
 71
     2
340
245
 90
       25
340
245
 90
       50
 40
0.24
 40
0.0
 40
0.24
 71
     3
340
23E
 40
0.24
 90
        1
 40
0.75
 90
        1
300
%<\AcVar ViewType \f "%tc1">% %<\AcVar ViewSectionStartId>%-%<\AcVar ViewSectionEndId>%\PSCALE %<\AcVar ViewScale \f "%sn">%
 71
     4
300
ANSI31
 40
1.0
 90
        0
290
     0
290
     0
 90
        6
 40
0.0
 40
1.570796326794896
 40
0.2617993877991494
 40
1.308996938995747
 40
-0.2617993877991494
 40
1.832595714594046
  0
TABLESTYLE
  5
24D
102
{ACAD_XDICTIONARY
360
286
102
}
102
{ACAD_REACTORS
330
24C
102
}
330
24C
100
AcDbTableStyle
  3
Standard
 70
     0
 71
     0
 40
0.06
 41
0.06
280
     0
281
     0
  7
STANDARD
140
0.18
170
     2
 62
     0
 63
     7
283
     0
274
    -2
284
     1
 64
     0
275
    -2
285
     1
 65
     0
276
    -2
286
     1
 66
     0
277
    -2
287
     1
 67
     0
278
    -2
288
     1
 68
     0
279
    -2
289
     1
 69
     0
  7
STANDARD
140
0.25
170
     5
 62
     0
 63
     7
283
     0
274
    -2
284
     1
 64
     0
275
    -2
285
     1
 65
     0
276
    -2
286
     1
 66
     0
277
    -2
287
     1
 67
     0
278
    -2
288
     1
 68
     0
279
    -2
289
     1
 69
     0
  7
STANDARD
140
0.18
170
     5
 62
     0
 63
     7
283
     0
274
    -2
284
     1
 64
     0
275
    -2
285
     1
 65
     0
276
    -2
286
     1
 66
     0
277
    -2
287
     1
 67
     0
278
    -2
288
     1
 68
     0
279
    -2
289
     1
 69
     0
  0
VISUALSTYLE
  5
218
102
{ACAD_XDICTIONARY
360
297
102
}
102
{ACAD_REACTORS
330
212
102
}
330
212
100
AcDbVisualStyle
  2
2dWireframe
 70
     4
 71
     0
 72
     2
 73
     0
 90
        0
 40
-0.6
 41
-30.0
 62
     5
 63
     7
 74
     1
 91
        4
 64
     7
 65
   257
 75
     1
175
     1
 42
1.0
 92
        0
 66
   257
 43
1.0
 76
     1
 77
     6
 78
     2
 67
     7
 79
     5
170
     0
171
     0
290
     0
174
     0
 93
        1
 44
0.0
173
     0
291
     0
 45
0.0
1001
ACAD
1000
AcDbSavedByObjectVersion
1070
     0
  0
VISUALSTYLE
  5
217
102
{ACAD_XDICTIONARY
360
295
102
}
102
{ACAD_REACTORS
330
212
102
}
330
212
100
AcDbVisualStyle
  2
Basic
 70
     7
 71
     1
 72
     0
 73
     1
 90
        0
 40
-0.6
 41
-30.0
 62
     5
 63
     7
 74
     0
 91
        4
 64
     7
 65
   257
 75
     1
175
     1
 42
1.0
 92
        8
 66
     7
 43
1.0
 76
     1
 77
     6
 78
     2
 67
     7
 79
     5
170
     0
171
     0
290
     0
174
     0
 93
        1
 44
0.0
173
     0
291
     1
 45
0.0
1001
ACAD
1000
AcDbSavedByObjectVersion
1070
     0
  0
VISUALSTYLE
  5
21E
102
{ACAD_XDICTIONARY
360
2A3
102
}
102
{ACAD_REACTORS
330
212
102
}
330
212
100
AcDbVisualStyle
  2
Brighten
 70
    12
 71
     2
 72
     2
 73
     0
 90
        0
 40
-0.6
 41
-30.0
 62
     5
 63
     7
 74
     1
 91
        4
 64
     7
 65
   257
 75
     1
175
     1
 42
1.0
 92
        8
 66
     7
 43
1.0
 76
     1
 77
     6
 78
     2
 67
     7
 79
     5
170
     0
171
     0
290
     0
174
     0
 93
        1
 44
50.0
173
     0
291
     1
 45
0.0
1001
ACAD
1000
AcDbSavedByObjectVersion
1070
     0
  0
VISUALSTYLE
  5
222
102
{ACAD_XDICTIONARY
360
2AB
102
}
102
{ACAD_REACTORS
330
212
102
}
330
212
100
AcDbVisualStyle
  2
ColorChange
 70
    16
 71
     2
 72
     2
 73
     3
 90
        0
 40
-0.6
 41
-30.0
 62
     5
 63
     8
 74
     1
 91
        4
 64
     7
 65
   257
 75
     1
175
     1
 42
1.0
 92
        8
 66
     8
 43
1.0
 76
     1
 77
     6
 78
     2
 67
     7
 79
     5
170
     0
171
     0
290
     0
174
     0
 93
        1
 44
0.0
173
     0
291
     1
 45
0.0
1001
ACAD
1000
AcDbSavedByObjectVersion
1070
     0
  0
VISUALSTYLE
  5
21B
102
{ACAD_XDICTIONARY
360
29D
102
}
102
{ACAD_REACTORS
330
212
102
}
330
212
100
AcDbVisualStyle
  2
Conceptual
 70
     9
 71
     3
 72
     2
 73
     0
 90
        0
 40
-0.6
 41
-30.0
 62
     5
 63
     7
 74
     2
 91
        2
 64
     7
 65
   257
 75
     1
175
     1
 42
179.0
 92
        8
 66
     7
 43
1.0
 76
     1
 77
     6
 78
     2
 67
     7
 79
     3
170
     0
171
     0
290
     0
174
     0
 93
        1
 44
0.0
173
     0
291
     0
 45
0.0
1001
ACAD
1000
AcDbSavedByObjectVersion
1070
     0
  0
VISUALSTYLE
  5
21D
102
{ACAD_XDICTIONARY
360
2A1
102
}
102
{ACAD_REACTORS
330
212
102
}
330
212
100
AcDbVisualStyle
  2
Dim
 70
    11
 71
     2
 72
     2
 73
     0
 90
        0
 40
-0.6
 41
-30.0
 62
     5
 63
     7
 74
     1
 91
        4
 64
     7
 65
   257
 75
     1
175
     1
 42
1.0
 92
        8
 66
     7
 43
1.0
 76
     1
 77
     6
 78
     2
 67
     7
 79
     5
170
     0
171
     0
290
     0
174
     0
 93
        1
 44
-50.0
173
     0
291
     1
 45
0.0
1001
ACAD
1000
AcDbSavedByObjectVersion
1070
     0
  0
VISUALSTYLE
  5
22A
102
{ACAD_XDICTIONARY
360
2BB
102
}
102
{ACAD_REACTORS
330
212
102
}
330
212
100
AcDbVisualStyle
  2
EdgeColorOff
 70
    22
 71
     2
 72
     2
 73
     0
 90
        0
 40
-0.6
 41
-30.0
 62
     5
 63
     7
 74
     1
 91
        4
 64
     7
 65
   257
 75
     1
175
     1
 42
1.0
 92
        8
 66
     7
 43
1.0
 76
     1
 77
     6
 78
     2
 67
     7
 79
     5
170
     0
171
     0
290
     0
174
     0
 93
        1
 44
0.0
173
     0
291
     1
 45
0.0
1001
ACAD
1000
AcDbSavedByObjectVersion
1070
     0
  0
VISUALSTYLE
  5
221
102
{ACAD_XDICTIONARY
360
2A9
102
}
102
{ACAD_REACTORS
330
212
102
}
330
212
100
AcDbVisualStyle
  2
Facepattern
 70
    15
 71
     2
 72
     2
 73
     0
 90
        0
 40
-0.6
 41
-30.0
 62
     5
 63
     7
 74
     1
 91
        4
 64
     7
 65
   257
 75
     1
175
     1
 42
1.0
 92
        8
 66
     7
 43
1.0
 76
     1
 77
     6
 78
     2
 67
     7
 79
     5
170
     0
171
     0
290
     0
174
     0
 93
        1
 44
0.0
173
     0
291
     1
 45
0.0
1001
ACAD
1000
AcDbSavedByObjectVersion
1070
     0
  0
VISUALSTYLE
  5
213
102
{ACAD_XDICTIONARY
360
28D
102
}
102
{ACAD_REACTORS
330
212
102
}
330
212
100
AcDbVisualStyle
  2
Flat
 70
     0
 71
     2
 72
     1
 73
     1
 90
        2
 40
-0.6
 41
30.0
 62
     5
 63
     7
 74
     0
 91
        0
 64
     7
 65
   257
 75
     1
175
     1
 42
1.0
 92
        8
 66
     7
 43
1.0
 76
     1
 77
     6
 78
     2
 67
     7
 79
     5
170
     0
171
     0
290
     0
174
     0
 93
       13
 44
0.0
173
     0
291
     1
 45
0.0
1001
ACAD
1000
AcDbSavedByObjectVersion
1070
     0
  0
VISUALSTYLE
  5
214
102
{ACAD_XDICTIONARY
360
28F
102
}
102
{ACAD_REACTORS
330
212
102
}
330
212
100
AcDbVisualStyle
  2
FlatWithEdges
 70
     1
 71
     2
 72
     1
 73
     1
 90
        2
 40
-0.6
 41
30.0
 62
     5
 63
     7
 74
     1
 91
        0
 64
     7
 65
   257
 75
     1
175
     1
 42
1.0
 92
        0
 66
   257
 43
1.0
 76
     1
 77
     6
 78
     2
 67
     7
 79
     5
170
     0
171
     0
290
     0
174
     0
 93
       13
 44
0.0
173
     0
291
     1
 45
0.0
1001
ACAD
1000
AcDbSavedByObjectVersion
1070
     0
  0
VISUALSTYLE
  5
215
102
{ACAD_XDICTIONARY
360
291
102
}
102
{ACAD_REACTORS
330
212
102
}
330
212
100
AcDbVisualStyle
  2
Gouraud
 70
     2
 71
     2
 72
     2
 73
     1
 90
        2
 40
-0.6
 41
30.0
 62
     5
 63
     7
 74
     0
 91
        0
 64
     7
 65
   257
 75
     1
175
     1
 42
1.0
 92
        0
 66
     7
 43
1.0
 76
     1
 77
     6
 78
     2
 67
     7
 79
     5
170
     0
171
     0
290
     0
174
     0
 93
       13
 44
0.0
173
     0
291
     1
 45
0.0
1001
ACAD
1000
AcDbSavedByObjectVersion
1070
     0
  0
VISUALSTYLE
  5
216
102
{ACAD_XDICTIONARY
360
293
102
}
102
{ACAD_REACTORS
330
212
102
}
330
212
100
AcDbVisualStyle
  2
GouraudWithEdges
 70
     3
 71
     2
 72
     2
 73
     1
 90
        2
 40
-0.6
 41
30.0
 62
     5
 63
     7
 74
     1
 91
        0
 64
     7
 65
   257
 75
     1
175
     1
 42
1.0
 92
        0
 66
   257
 43
1.0
 76
     1
 77
     6
 78
     2
 67
     7
 79
     5
170
     0
171
     0
290
     0
174
     0
 93
       13
 44
0.0
173
     0
291
     1
 45
0.0
1001
ACAD
1000
AcDbSavedByObjectVersion
1070
     0
  0
VISUALSTYLE
  5
21A
102
{ACAD_XDICTIONARY
360
29B
102
}
102
{ACAD_REACTORS
330
212
102
}
330
212
100
AcDbVisualStyle
  2
Hidden
 70
     6
 71
     1
 72
     2
 73
     2
 90
        0
 40
-0.6
 41
-30.0
 62
     5
 63
     7
 74
     2
 91
        2
 64
     7
 65
   257
 75
     2
175
     1
 42
40.0
 92
        0
 66
   257
 43
1.0
 76
     1
 77
     6
 78
     2
 67
     7
 79
     3
170
     0
171
     0
290
     0
174
     0
 93
        1
 44
0.0
173
     0
291
     0
 45
0.0
1001
ACAD
1000
AcDbSavedByObjectVersion
1070
     0
  0
VISUALSTYLE
  5
228
102
{ACAD_XDICTIONARY
360
2B7
102
}
102
{ACAD_REACTORS
330
212
102
}
330
212
100
AcDbVisualStyle
  2
JitterOff
 70
    20
 71
     2
 72
     2
 73
     0
 90
        0
 40
-0.6
 41
-30.0
 62
     5
 63
     7
 74
     1
 91
        4
 64
     7
 65
   257
 75
     1
175
     1
 42
1.0
 92
       10
 66
     7
 43
1.0
 76
     1
 77
     6
 78
     2
 67
     7
 79
     5
170
     0
171
     0
290
     0
174
     0
 93
        1
 44
0.0
173
     0
291
     1
 45
0.0
1001
ACAD
1000
AcDbSavedByObjectVersion
1070
     0
  0
VISUALSTYLE
  5
220
102
{ACAD_XDICTIONARY
360
2A7
102
}
102
{ACAD_REACTORS
330
212
102
}
330
212
100
AcDbVisualStyle
  2
Linepattern
 70
    14
 71
     2
 72
     2
 73
     0
 90
        0
 40
-0.6
 41
-30.0
 62
     5
 63
     7
 74
     1
 91
        4
 64
     7
 65
   257
 75
     7
175
     7
 42
1.0
 92
        8
 66
     7
 43
1.0
 76
     1
 77
     6
 78
     2
 67
     7
 79
     5
170
     0
171
     0
290
     0
174
     0
 93
        1
 44
0.0
173
     0
291
     1
 45
0.0
1001
ACAD
1000
AcDbSavedByObjectVersion
1070
     0
  0
VISUALSTYLE
  5
229
102
{ACAD_XDICTIONARY
360
2B9
102
}
102
{ACAD_REACTORS
330
212
102
}
330
212
100
AcDbVisualStyle
  2
OverhangOff
 70
    21
 71
     2
 72
     2
 73
     0
 90
        0
 40
-0.6
 41
-30.0
 62
     5
 63
     7
 74
     1
 91
        4
 64
     7
 65
   257
 75
     1
175
     1
 42
1.0
 92
        9
 66
     7
 43
1.0
 76
     1
 77
     6
 78
     2
 67
     7
 79
     5
170
     0
171
     0
290
     0
174
     0
 93
        1
 44
0.0
173
     0
291
     1
 45
0.0
1001
ACAD
1000
AcDbSavedByObjectVersion
1070
     0
  0
VISUALSTYLE
  5
21C
102
{ACAD_XDICTIONARY
360
29F
102
}
102
{ACAD_REACTORS
330
212
102
}
330
212
100
AcDbVisualStyle
  2
Realistic
 70
     8
 71
     2
 72
     3
 73
     0
 90
        2
 40
-0.6
 41
30.0
 62
     5
 63
     7
 74
     0
 91
        0
 64
     7
 65
   257
 75
     1
175
     1
 42
1.0
 92
        8
 66
   257
 43
1.0
 76
     1
 77
     6
 78
     2
 67
     7
 79
     3
170
     0
171
     0
290
     0
174
     0
 93
       13
 44
0.0
173
     0
291
     0
 45
0.0
1001
ACAD
1000
AcDbSavedByObjectVersion
1070
     0
  0
VISUALSTYLE
  5
227
102
{ACAD_XDICTIONARY
360
2B5
102
}
102
{ACAD_REACTORS
330
212
102
}
330
212
100
AcDbVisualStyle
  2
Shaded
 70
    27
 71
     2
 72
     2
 73
     1
 90
        2
 40
-0.6
 41
30.0
 62
     5
 63
     7
 74
     0
 91
        4
 64
     7
 65
   257
 75
     1
175
     1
 42
1.0
 92
        8
 66
   257
 43
1.0
 76
     1
 77
     6
 78
     2
 67
     8
 79
     3
170
     0
171
     0
290
     0
174
     0
 93
        5
 44
0.0
173
     0
291
     0
 45
0.0
1001
ACAD
1000
AcDbSavedByObjectVersion
1070
     0
  0
VISUALSTYLE
  5
226
102
{ACAD_XDICTIONARY
360
2B3
102
}
102
{ACAD_REACTORS
330
212
102
}
330
212
100
AcDbVisualStyle
  2
Shaded with edges
 70
    26
 71
     2
 72
     2
 73
     1
 90
        2
 40
-0.6
 41
30.0
 62
     5
 63
     7
 74
     1
 91
        2
 64
     7
 65
   257
 75
     2
175
     1
 42
1.0
 92
        8
 66
   257
 43
1.0
 76
     1
 77
     6
 78
     2
 67
     7
 79
     3
170
     0
171
     0
290
     0
174
     0
 93
        5
 44
0.0
173
     0
291
     0
 45
0.0
1001
ACAD
1000
AcDbSavedByObjectVersion
1070
     0
  0
VISUALSTYLE
  5
223
102
{ACAD_XDICTIONARY
360
2AD
102
}
102
{ACAD_REACTORS
330
212
102
}
330
212
100
AcDbVisualStyle
  2
Shades of Gray
 70
    23
 71
     2
 72
     2
 73
     3
 90
        0
 40
-0.6
 41
-30.0
 62
     5
 63
     7
 74
     2
 91
        2
 64
     7
 65
     7
 75
     1
175
     1
 42
40.0
 92
        8
 66
     7
 43
1.0
 76
     1
 77
     6
 78
     2
 67
     7
 79
     3
170
     0
171
     0
290
     0
174
     0
 93
        1
 44
0.0
173
     0
291
     0
 45
0.0
1001
ACAD
1000
AcDbSavedByObjectVersion
1070
     0
  0
VISUALSTYLE
  5
224
102
{ACAD_XDICTIONARY
360
2AF
102
}
102
{ACAD_REACTORS
330
212
102
}
330
212
100
AcDbVisualStyle
  2
Sketchy
 70
    24
 71
     1
 72
     2
 73
     2
 90
        0
 40
-0.6
 41
-30.0
 62
     5
 63
     7
 74
     2
 91
        2
 64
     7
 65
     7
 75
     1
175
     1
 42
40.0
 92
       11
 66
     7
 43
1.0
 76
     1
 77
     6
 78
     2
 67
     7
 79
     6
170
     0
171
     0
290
     0
174
     0
 93
        1
 44
0.0
173
     0
291
     0
 45
0.0
1001
ACAD
1000
AcDbSavedByObjectVersion
1070
     0
  0
VISUALSTYLE
  5
21F
102
{ACAD_XDICTIONARY
360
2A5
102
}
102
{ACAD_REACTORS
330
212
102
}
330
212
100
AcDbVisualStyle
  2
Thicken
 70
    13
 71
     2
 72
     2
 73
     0
 90
        0
 40
-0.6
 41
-30.0
 62
     5
 63
     7
 74
     1
 91
        4
 64
     7
 65
   257
 75
     1
175
     1
 42
1.0
 92
       12
 66
     7
 43
1.0
 76
     1
 77
     6
 78
     2
 67
     7
 79
     5
170
     0
171
     0
290
     0
174
     0
 93
        1
 44
0.0
173
     0
291
     1
 45
0.0
1001
ACAD
1000
AcDbSavedByObjectVersion
1070
     0
  0
VISUALSTYLE
  5
219
102
{ACAD_XDICTIONARY
360
299
102
}
102
{ACAD_REACTORS
330
212
102
}
330
212
100
AcDbVisualStyle
  2
Wireframe
 70
     5
 71
     0
 72
     2
 73
     0
 90
        0
 40
-0.6
 41
-30.0
 62
     5
 63
     7
 74
     1
 91
        4
 64
     7
 65
   257
 75
     1
175
     1
 42
1.0
 92
        0
 66
   257
 43
1.0
 76
     1
 77
     6
 78
     2
 67
     7
 79
     3
170
     0
171
     0
290
     0
174
     0
 93
        1
 44
0.0
173
     0
291
     0
 45
0.0
1001
ACAD
1000
AcDbSavedByObjectVersion
1070
     0
  0
VISUALSTYLE
  5
225
102
{ACAD_XDICTIONARY
360
2B1
102
}
102
{ACAD_REACTORS
330
212
102
}
330
212
100
AcDbVisualStyle
  2
X-Ray
 70
    25
 71
     2
 72
     2
 73
     1
 90
        1
 40
0.5
 41
-30.0
 62
     5
 63
     7
 74
     1
 91
        0
 64
     7
 65
   257
 75
     1
175
     1
 42
1.0
 92
        8
 66
     7
 43
1.0
 76
     1
 77
     6
 78
     2
 67
     7
 79
     3
170
     0
171
     0
290
     0
174
     0
 93
       13
 44
0.0
173
     0
291
     0
 45
0.0
1001
ACAD
1000
AcDbSavedByObjectVersion
1070
     0
  0
DICTIONARYVAR
  5
280
102
{ACAD_REACTORS
330
27B
102
}
330
27B
100
DictionaryVariables
280
     0
  1
1:1
  0
DICTIONARYVAR
  5
27D
102
{ACAD_REACTORS
330
27B
102
}
330
27B
100
DictionaryVariables
280
     0
  1
STANDARD
  0
DICTIONARYVAR
  5
27C
102
{ACAD_REACTORS
330
27B
102
}
330
27B
100
DictionaryVariables
280
     0
  1
STANDARD
  0
DICTIONARYVAR
  5
27E
102
{ACAD_REACTORS
330
27B
102
}
330
27B
100
DictionaryVariables
280
     0
  1
Imperial24
  0
DICTIONARYVAR
  5
27F
102
{ACAD_REACTORS
330
27B
102
}
330
27B
100
DictionaryVariables
280
     0
  1
Imperial24
  0
DICTIONARYVAR
  5
283
102
{ACAD_REACTORS
330
27B
102
}
330
27B
100
DictionaryVariables
280
     0
  1
1
  0
DICTIONARYVAR
  5
282
102
{ACAD_REACTORS
330
27B
102
}
330
27B
100
DictionaryVariables
280
     0
  1
0
  0
DICTIONARYVAR
  5
281
102
{ACAD_REACTORS
330
27B
102
}
330
27B
100
DictionaryVariables
280
     0
  1
127
  0
DICTIONARYVAR
  5
284
102
{ACAD_REACTORS
330
27B
102
}
330
27B
100
DictionaryVariables
280
     0
  1
2
  0
DICTIONARY
  5
2C1
330
253
100
AcDbDictionary
280
     1
281
     1
  3
ACAD_XREC_ROUNDTRIP
360
2C2
  0
DICTIONARY
  5
2C5
330
25B
100
AcDbDictionary
280
     1
281
     1
  3
ACAD_XREC_ROUNDTRIP
360
2C6
  0
DICTIONARY
  5
2C3
330
257
100
AcDbDictionary
280
     1
281
     1
  3
ACAD_XREC_ROUNDTRIP
360
2C4
  0
DICTIONARY
  5
203
330
202
100
AcDbDictionary
280
     1
281
     1
  3
ACAD_XREC_ROUNDTRIP
360
28B
  3
BUMPTILE
360
205
  3
DIFFUSETILE
360
204
  3
OPACITYTILE
360
208
  3
REFLECTIONTILE
360
207
  3
REFRACTIONTILE
360
209
  3
SPECULARTILE
360
206
  0
DICTIONARY
  5
1FB
330
1FA
100
AcDbDictionary
280
     1
281
     1
  3
ACAD_XREC_ROUNDTRIP
360
28A
  3
BUMPTILE
360
1FD
  3
DIFFUSETILE
360
1FC
  3
OPACITYTILE
360
200
  3
REFLECTIONTILE
360
1FF
  3
REFRACTIONTILE
360
201
  3
SPECULARTILE
360
1FE
  0
DICTIONARY
  5
20B
330
20A
100
AcDbDictionary
280
     1
281
     1
  3
ACAD_XREC_ROUNDTRIP
360
28C
  3
BUMPTILE
360
20D
  3
DIFFUSETILE
360
20C
  3
OPACITYTILE
360
210
  3
REFLECTIONTILE
360
20F
  3
REFRACTIONTILE
360
211
  3
SPECULARTILE
360
20E
  0
DICTIONARY
  5
2BF
330
251
100
AcDbDictionary
280
     1
281
     1
  3
ACAD_XREC_ROUNDTRIP
360
2C0
  0
DICTIONARY
  5
286
330
24D
100
AcDbDictionary
280
     1
281
     1
  3
ACAD_ROUNDTRIP_2008_TABLESTYLE_CELLSTYLEMAP
360
287
  3
ACAD_XREC_ROUNDTRIP
360
2BD
  0
DICTIONARY
  5
297
330
218
100
AcDbDictionary
280
     1
281
     1
  3
ACAD_XREC_ROUNDTRIP
360
298
  0
DICTIONARY
  5
295
330
217
100
AcDbDictionary
280
     1
281
     1
  3
ACAD_XREC_ROUNDTRIP
360
296
  0
DICTIONARY
  5
2A3
330
21E
100
AcDbDictionary
280
     1
281
     1
  3
ACAD_XREC_ROUNDTRIP
360
2A4
  0
DICTIONARY
  5
2AB
330
222
100
AcDbDictionary
280
     1
281
     1
  3
ACAD_XREC_ROUNDTRIP
360
2AC
  0
DICTIONARY
  5
29D
330
21B
100
AcDbDictionary
280
     1
281
     1
  3
ACAD_XREC_ROUNDTRIP
360
29E
  0
DICTIONARY
  5
2A1
330
21D
100
AcDbDictionary
280
     1
281
     1
  3
ACAD_XREC_ROUNDTRIP
360
2A2
  0
DICTIONARY
  5
2BB
330
22A
100
AcDbDictionary
280
     1
281
     1
  3
ACAD_XREC_ROUNDTRIP
360
2BC
  0
DICTIONARY
  5
2A9
330
221
100
AcDbDictionary
280
     1
281
     1
  3
ACAD_XREC_ROUNDTRIP
360
2AA
  0
DICTIONARY
  5
28D
330
213
100
AcDbDictionary
280
     1
281
     1
  3
ACAD_XREC_ROUNDTRIP
360
28E
  0
DICTIONARY
  5
28F
330
214
100
AcDbDictionary
280
     1
281
     1
  3
ACAD_XREC_ROUNDTRIP
360
290
  0
DICTIONARY
  5
291
330
215
100
AcDbDictionary
280
     1
281
     1
  3
ACAD_XREC_ROUNDTRIP
360
292
  0
DICTIONARY
  5
293
330
216
100
AcDbDictionary
280
     1
281
     1
  3
ACAD_XREC_ROUNDTRIP
360
294
  0
DICTIONARY
  5
29B
330
21A
100
AcDbDictionary
280
     1
281
     1
  3
ACAD_XREC_ROUNDTRIP
360
29C
  0
DICTIONARY
  5
2B7
330
228
100
AcDbDictionary
280
     1
281
     1
  3
ACAD_XREC_ROUNDTRIP
360
2B8
  0
DICTIONARY
  5
2A7
330
220
100
AcDbDictionary
280
     1
281
     1
  3
ACAD_XREC_ROUNDTRIP
360
2A8
  0
DICTIONARY
  5
2B9
330
229
100
AcDbDictionary
280
     1
281
     1
  3
ACAD_XREC_ROUNDTRIP
360
2BA
  0
DICTIONARY
  5
29F
330
21C
100
AcDbDictionary
280
     1
281
     1
  3
ACAD_XREC_ROUNDTRIP
360
2A0
  0
DICTIONARY
  5
2B5
330
227
100
AcDbDictionary
280
     1
281
     1
  3
ACAD_XREC_ROUNDTRIP
360
2B6
  0
DICTIONARY
  5
2B3
330
226
100
AcDbDictionary
280
     1
281
     1
  3
ACAD_XREC_ROUNDTRIP
360
2B4
  0
DICTIONARY
  5
2AD
330
223
100
AcDbDictionary
280
     1
281
     1
  3
ACAD_XREC_ROUNDTRIP
360
2AE
  0
DICTIONARY
  5
2AF
330
224
100
AcDbDictionary
280
     1
281
     1
  3
ACAD_XREC_ROUNDTRIP
360
2B0
  0
DICTIONARY
  5
2A5
330
21F
100
AcDbDictionary
280
     1
281
     1
  3
ACAD_XREC_ROUNDTRIP
360
2A6
  0
DICTIONARY
  5
299
330
219
100
AcDbDictionary
280
     1
281
     1
  3
ACAD_XREC_ROUNDTRIP
360
29A
  0
DICTIONARY
  5
2B1
330
225
100
AcDbDictionary
280
     1
281
     1
  3
ACAD_XREC_ROUNDTRIP
360
2B2
  0
XRECORD
  5
2C2
102
{ACAD_REACTORS
330
2C1
102
}
330
2C1
100
AcDbXrecord
280
     1
102
DISPLAYNAME
  1
Imperial24
102
FLAGS
 90
        0
  0
XRECORD
  5
2C6
102
{ACAD_REACTORS
330
2C5
102
}
330
2C5
100
AcDbXrecord
280
     1
102
SHADEPLOT
 70
     0
102
SHADEPLOTRESLEVEL
 70
     2
102
SHADEPLOTCUSTOMDPI
 70
   300
  0
XRECORD
  5
2C4
102
{ACAD_REACTORS
330
2C3
102
}
330
2C3
100
AcDbXrecord
280
     1
102
SHADEPLOT
 70
     0
102
SHADEPLOTRESLEVEL
 70
     2
102
SHADEPLOTCUSTOMDPI
 70
   300
  0
XRECORD
  5
28B
102
{ACAD_REACTORS
330
203
102
}
330
203
100
AcDbXrecord
280
     1
102
MATERIAL
148
0.0
149
0.0
149
0.0
 93
        0
 94
      127
282
     0
 72
     0
 77
     0
171
     0
175
     0
179
     0
273
     0
  0
XRECORD
  5
205
102
{ACAD_REACTORS
330
203
102
}
330
203
100
AcDbXrecord
280
     1
270
     1
271
     1
  0
XRECORD
  5
204
102
{ACAD_REACTORS
330
203
102
}
330
203
100
AcDbXrecord
280
     1
270
     1
271
     1
  0
XRECORD
  5
208
102
{ACAD_REACTORS
330
203
102
}
330
203
100
AcDbXrecord
280
     1
270
     1
271
     1
  0
XRECORD
  5
207
102
{ACAD_REACTORS
330
203
102
}
330
203
100
AcDbXrecord
280
     1
270
     1
271
     1
  0
XRECORD
  5
209
102
{ACAD_REACTORS
330
203
102
}
330
203
100
AcDbXrecord
280
     1
270
     1
271
     1
  0
XRECORD
  5
206
102
{ACAD_REACTORS
330
203
102
}
330
203
100
AcDbXrecord
280
     1
270
     1
271
     1
  0
XRECORD
  5
28A
102
{ACAD_REACTORS
330
1FB
102
}
330
1FB
100
AcDbXrecord
280
     1
102
MATERIAL
148
0.0
149
0.0
149
0.0
 93
        0
 94
      127
282
     0
 72
     0
 77
     0
171
     0
175
     0
179
     0
273
     0
  0
XRECORD
  5
1FD
102
{ACAD_REACTORS
330
1FB
102
}
330
1FB
100
AcDbXrecord
280
     1
270
     1
271
     1
  0
XRECORD
  5
1FC
102
{ACAD_REACTORS
330
1FB
102
}
330
1FB
100
AcDbXrecord
280
     1
270
     1
271
     1
  0
XRECORD
  5
200
102
{ACAD_REACTORS
330
1FB
102
}
330
1FB
100
AcDbXrecord
280
     1
270
     1
271
     1
  0
XRECORD
  5
1FF
102
{ACAD_REACTORS
330
1FB
102
}
330
1FB
100
AcDbXrecord
280
     1
270
     1
271
     1
  0
XRECORD
  5
201
102
{ACAD_REACTORS
330
1FB
102
}
330
1FB
100
AcDbXrecord
280
     1
270
     1
271
     1
  0
XRECORD
  5
1FE
102
{ACAD_REACTORS
330
1FB
102
}
330
1FB
100
AcDbXrecord
280
     1
270
     1
271
     1
  0
XRECORD
  5
28C
102
{ACAD_REACTORS
330
20B
102
}
330
20B
100
AcDbXrecord
280
     1
102
MATERIAL
148
0.0
149
0.0
149
0.0
 93
        0
 94
      127
282
     0
 72
     0
 77
     0
171
     0
175
     0
179
     0
273
     0
  0
XRECORD
  5
20D
102
{ACAD_REACTORS
330
20B
102
}
330
20B
100
AcDbXrecord
280
     1
270
     1
271
     1
  0
XRECORD
  5
20C
102
{ACAD_REACTORS
330
20B
102
}
330
20B
100
AcDbXrecord
280
     1
270
     1
271
     1
  0
XRECORD
  5
210
102
{ACAD_REACTORS
330
20B
102
}
330
20B
100
AcDbXrecord
280
     1
270
     1
271
     1
  0
XRECORD
  5
20F
102
{ACAD_REACTORS
330
20B
102
}
330
20B
100
AcDbXrecord
280
     1
270
     1
271
     1
  0
XRECORD
  5
211
102
{ACAD_REACTORS
330
20B
102
}
330
20B
100
AcDbXrecord
280
     1
270
     1
271
     1
  0
XRECORD
  5
20E
102
{ACAD_REACTORS
330
20B
102
}
330
20B
100
AcDbXrecord
280
     1
270
     1
271
     1
  0
XRECORD
  5
2C0
102
{ACAD_REACTORS
330
2BF
102
}
330
2BF
100
AcDbXrecord
280
     1
102
DISPLAYNAME
  1
Imperial24
102
FLAGS
 90
        0
  0
CELLSTYLEMAP
  5
287
102
{ACAD_REACTORS
330
286
102
}
330
286
100
AcDbCellStyleMap
 90
        3
300
CELLSTYLE
  1
TABLEFORMAT_BEGIN
 90
        5
170
     1
 91
        0
 92
    32768
 62
   257
 93
        1
300
CONTENTFORMAT
  1
CONTENTFORMAT_BEGIN
 90
        0
 91
        0
 92
      512
 93
        0
300

 40
0.0
140
1.0
 94
        5
 62
     0
340
23E
144
0.25
309
CONTENTFORMAT_END
171
     0
 94
        0
309
TABLEFORMAT_END
  1
CELLSTYLE_BEGIN
 90
        1
 91
        1
300
_TITLE
309
CELLSTYLE_END
300
CELLSTYLE
  1
TABLEFORMAT_BEGIN
 90
        5
170
     1
 91
        0
 92
        0
 62
   257
 93
        1
300
CONTENTFORMAT
  1
CONTENTFORMAT_BEGIN
 90
        0
 91
        0
 92
      512
 93
        0
300

 40
0.0
140
1.0
 94
        5
 62
     0
340
23E
144
0.18
309
CONTENTFORMAT_END
171
     0
 94
        0
309
TABLEFORMAT_END
  1
CELLSTYLE_BEGIN
 90
        2
 91
        1
300
_HEADER
309
CELLSTYLE_END
300
CELLSTYLE
  1
TABLEFORMAT_BEGIN
 90
        5
170
     1
 91
        0
 92
        0
 62
   257
 93
        1
300
CONTENTFORMAT
  1
CONTENTFORMAT_BEGIN
 90
        0
 91
        0
 92
      512
 93
        0
300

 40
0.0
140
1.0
 94
        2
 62
     0
340
23E
144
0.18
309
CONTENTFORMAT_END
171
     0
 94
        0
309
TABLEFORMAT_END
  1
CELLSTYLE_BEGIN
 90
        3
 91
        2
300
_DATA
309
CELLSTYLE_END
  0
XRECORD
  5
2BD
102
{ACAD_REACTORS
330
286
102
}
330
286
100
AcDbXrecord
280
     1
102
ACAD_ROUNDTRIP_PRE2007_TABLESTYLE
 90
      512
 91
        0
  1

 92
      512
 93
        0
  2

 94
      512
 95
        0
  3

  0
XRECORD
  5
298
102
{ACAD_REACTORS
330
297
102
}
330
297
100
AcDbXrecord
280
     1
102
RTVSPost2010Prop28
280
     1
102
RTVSPost2010PropOp28
 70
     1
102
RTVSPost2010Prop29
280
     1
102
RTVSPost2010PropOp29
 70
     1
102
RTVSPost2010Prop30
280
     0
102
RTVSPost2010PropOp30
 70
     1
102
RTVSPost2010Prop31
280
     0
102
RTVSPost2010PropOp31
 70
     1
102
RTVSPost2010Prop32
280
     0
102
RTVSPost2010PropOp32
 70
     1
102
RTVSPost2010Prop33
280
     0
102
RTVSPost2010PropOp33
 70
     1
102
RTVSPost2010Prop34
280
     0
102
RTVSPost2010PropOp34
 70
     1
102
RTVSPost2010Prop35
280
     0
102
RTVSPost2010PropOp35
 70
     1
102
RTVSPost2010Prop36
280
     0
102
RTVSPost2010PropOp36
 70
     1
102
RTVSPost2010Prop37
 90
       50
102
RTVSPost2010PropOp37
 70
     1
102
RTVSPost2010Prop38
140
0.0
102
RTVSPost2010PropOp38
 70
     1
102
RTVSPost2010Prop39
140
1.0
102
RTVSPost2010PropOp39
 70
     1
102
RTVSPost2010Prop40
 90
        0
102
RTVSPost2010PropOp40
 70
     1
102
RTVSPost2010Prop41ColorIndex
 90
       18
102
RTVSPost2010Prop41ColorRGB
 90
        0
102
RTVSPost2010PropOp41
 70
     1
102
RTVSPost2010Prop42
 90
       50
102
RTVSPost2010PropOp42
 70
     1
102
RTVSPost2010Prop43
 90
        3
102
RTVSPost2010PropOp43
 70
     1
102
RTVSPost2010Prop44ColorIndex
 90
        5
102
RTVSPost2010Prop44ColorRGB
 90
      255
102
RTVSPost2010PropOp44
 70
     1
102
RTVSPost2010Prop45
280
     0
102
RTVSPost2010PropOp45
 70
     1
102
RTVSPost2010Prop46
 90
       50
102
RTVSPost2010PropOp46
 70
     1
102
RTVSPost2010Prop47
 90
       50
102
RTVSPost2010PropOp47
 70
     1
102
RTVSPost2010Prop48
 90
       50
102
RTVSPost2010PropOp48
 70
     1
102
RTVSPost2010Prop49
280
     0
102
RTVSPost2010PropOp49
 70
     1
102
RTVSPost2010Prop50
 90
       50
102
RTVSPost2010PropOp50
 70
     1
102
RTVSPost2010Prop51ColorIndex
 90
      256
102
RTVSPost2010Prop51ColorRGB
 90
-16777216
102
RTVSPost2010PropOp51
 70
     0
102
RTVSPost2010Prop52
140
1.0
102
RTVSPost2010PropOp52
 70
     0
102
RTVSPost2010Prop53
 90
        2
102
RTVSPost2010PropOp53
 70
     1
102
RTVSPost2010Prop54
  1
strokes_ogs.tif
102
RTVSPost2010PropOp54
 70
     1
102
RTVSPost2010Prop55
280
     0
102
RTVSPost2010PropOp55
 70
     1
102
RTVSPost2010Prop56
140
1.0
102
RTVSPost2010PropOp56
 70
     1
102
RTVSPost2010Prop57
140
1.0
102
RTVSPost2010PropOp57
 70
     1
102
RTVSPropertyOp0
 70
     1
102
RTVSPropertyOp1
 70
     1
102
RTVSPropertyOp2
 70
     1
102
RTVSPropertyOp3
 70
     1
102
RTVSPropertyOp4
 70
     1
102
RTVSPropertyOp5
 70
     1
102
RTVSPropertyOp6
 70
     1
102
RTVSPropertyOp7
 70
     1
102
RTVSPropertyOp8
 70
     1
102
RTVSPropertyOp9
 70
     1
102
RTVSPropertyOp10
 70
     1
102
RTVSPropertyOp11
 70
     1
102
RTVSPropertyOp12
 70
     1
102
RTVSPropertyOp13
 70
     1
102
RTVSPropertyOp14
 70
     1
102
RTVSPropertyOp15
 70
     1
102
RTVSPropertyOp16
 70
     1
102
RTVSPropertyOp17
 70
     1
102
RTVSPropertyOp18
 70
     1
102
RTVSPropertyOp19
 70
     1
102
RTVSPropertyOp20
 70
     1
102
RTVSPropertyOp21
 70
     1
102
RTVSPropertyOp22
 70
     1
102
RTVSPropertyOp23
 70
     1
102
RTVSPropertyOp24
 70
     1
102
RTVSPropertyOp25
 70
     1
102
RTVSPropertyOp26
 70
     1
102
RTVSPropertyOp27
 70
     1
102
RTVSPropertyOp28
 70
     1
102
RTVSPropertyOp29
 70
     1
102
RTVSPropertyOp30
 70
     1
102
RTVSPropertyOp31
 70
     1
102
RTVSPropertyOp32
 70
     1
102
RTVSPropertyOp33
 70
     1
102
RTVSPropertyOp34
 70
     1
102
RTVSPropertyOp35
 70
     1
102
RTVSPropertyOp36
 70
     1
102
RTVSPropertyOp37
 70
     1
102
RTVSPropertyOp38
 70
     1
102
RTVSPropertyOp39
 70
     1
102
RTVSPropertyOp40
 70
     1
102
RTVSPropertyOp41
 70
     1
102
RTVSPropertyOp42
 70
     1
102
RTVSPropertyOp43
 70
     1
102
RTVSPropertyOp44
 70
     1
102
RTVSPropertyOp45
 70
     1
102
RTVSPropertyOp46
 70
     1
102
RTVSPropertyOp47
 70
     1
102
RTVSPropertyOp48
 70
     1
102
RTVSPropertyOp49
 70
     1
102
RTVSPropertyOp50
 70
     1
102
RTVSPropertyOp51
 70
     0
102
RTVSPropertyOp52
 70
     0
102
RTVSPropertyOp53
 70
     1
102
RTVSPropertyOp54
 70
     1
102
RTVSPropertyOp55
 70
     1
102
RTVSPropertyOp56
 70
     1
102
RTVSPropertyOp57
 70
     1
102
RTVSPropertyOp58
 70
     1
102
RTVSPropertyOp59
 70
     1
102
RTVSPropertyOp60
 70
     1
102
RTVSPropertyOp61
 70
     1
102
RTVSPropertyOp62
 70
     1
  0
XRECORD
  5
296
102
{ACAD_REACTORS
330
295
102
}
330
295
100
AcDbXrecord
280
     1
102
RTVSPost2010Prop28
280
     0
102
RTVSPost2010PropOp28
 70
     1
102
RTVSPost2010Prop29
280
     1
102
RTVSPost2010PropOp29
 70
     1
102
RTVSPost2010Prop30
280
     1
102
RTVSPost2010PropOp30
 70
     1
102
RTVSPost2010Prop31
280
     0
102
RTVSPost2010PropOp31
 70
     1
102
RTVSPost2010Prop32
280
     0
102
RTVSPost2010PropOp32
 70
     1
102
RTVSPost2010Prop33
280
     0
102
RTVSPost2010PropOp33
 70
     1
102
RTVSPost2010Prop34
280
     0
102
RTVSPost2010PropOp34
 70
     1
102
RTVSPost2010Prop35
280
     0
102
RTVSPost2010PropOp35
 70
     1
102
RTVSPost2010Prop36
280
     0
102
RTVSPost2010PropOp36
 70
     1
102
RTVSPost2010Prop37
 90
       50
102
RTVSPost2010PropOp37
 70
     1
102
RTVSPost2010Prop38
140
0.0
102
RTVSPost2010PropOp38
 70
     1
102
RTVSPost2010Prop39
140
1.0
102
RTVSPost2010PropOp39
 70
     1
102
RTVSPost2010Prop40
 90
        0
102
RTVSPost2010PropOp40
 70
     1
102
RTVSPost2010Prop41ColorIndex
 90
       18
102
RTVSPost2010Prop41ColorRGB
 90
        0
102
RTVSPost2010PropOp41
 70
     1
102
RTVSPost2010Prop42
 90
       50
102
RTVSPost2010PropOp42
 70
     1
102
RTVSPost2010Prop43
 90
        3
102
RTVSPost2010PropOp43
 70
     1
102
RTVSPost2010Prop44ColorIndex
 90
        5
102
RTVSPost2010Prop44ColorRGB
 90
      255
102
RTVSPost2010PropOp44
 70
     1
102
RTVSPost2010Prop45
280
     0
102
RTVSPost2010PropOp45
 70
     1
102
RTVSPost2010Prop46
 90
       50
102
RTVSPost2010PropOp46
 70
     1
102
RTVSPost2010Prop47
 90
       50
102
RTVSPost2010PropOp47
 70
     1
102
RTVSPost2010Prop48
 90
       50
102
RTVSPost2010PropOp48
 70
     1
102
RTVSPost2010Prop49
280
     0
102
RTVSPost2010PropOp49
 70
     1
102
RTVSPost2010Prop50
 90
       50
102
RTVSPost2010PropOp50
 70
     1
102
RTVSPost2010Prop51ColorIndex
 90
      256
102
RTVSPost2010Prop51ColorRGB
 90
-16777216
102
RTVSPost2010PropOp51
 70
     0
102
RTVSPost2010Prop52
140
1.0
102
RTVSPost2010PropOp52
 70
     0
102
RTVSPost2010Prop53
 90
        2
102
RTVSPost2010PropOp53
 70
     1
102
RTVSPost2010Prop54
  1
strokes_ogs.tif
102
RTVSPost2010PropOp54
 70
     1
102
RTVSPost2010Prop55
280
     0
102
RTVSPost2010PropOp55
 70
     1
102
RTVSPost2010Prop56
140
1.0
102
RTVSPost2010PropOp56
 70
     1
102
RTVSPost2010Prop57
140
1.0
102
RTVSPost2010PropOp57
 70
     1
102
RTVSPropertyOp0
 70
     1
102
RTVSPropertyOp1
 70
     1
102
RTVSPropertyOp2
 70
     1
102
RTVSPropertyOp3
 70
     1
102
RTVSPropertyOp4
 70
     1
102
RTVSPropertyOp5
 70
     1
102
RTVSPropertyOp6
 70
     1
102
RTVSPropertyOp7
 70
     1
102
RTVSPropertyOp8
 70
     1
102
RTVSPropertyOp9
 70
     1
102
RTVSPropertyOp10
 70
     1
102
RTVSPropertyOp11
 70
     1
102
RTVSPropertyOp12
 70
     1
102
RTVSPropertyOp13
 70
     1
102
RTVSPropertyOp14
 70
     1
102
RTVSPropertyOp15
 70
     1
102
RTVSPropertyOp16
 70
     1
102
RTVSPropertyOp17
 70
     1
102
RTVSPropertyOp18
 70
     1
102
RTVSPropertyOp19
 70
     1
102
RTVSPropertyOp20
 70
     1
102
RTVSPropertyOp21
 70
     1
102
RTVSPropertyOp22
 70
     1
102
RTVSPropertyOp23
 70
     1
102
RTVSPropertyOp24
 70
     1
102
RTVSPropertyOp25
 70
     1
102
RTVSPropertyOp26
 70
     1
102
RTVSPropertyOp27
 70
     1
102
RTVSPropertyOp28
 70
     1
102
RTVSPropertyOp29
 70
     1
102
RTVSPropertyOp30
 70
     1
102
RTVSPropertyOp31
 70
     1
102
RTVSPropertyOp32
 70
     1
102
RTVSPropertyOp33
 70
     1
102
RTVSPropertyOp34
 70
     1
102
RTVSPropertyOp35
 70
     1
102
RTVSPropertyOp36
 70
     1
102
RTVSPropertyOp37
 70
     1
102
RTVSPropertyOp38
 70
     1
102
RTVSPropertyOp39
 70
     1
102
RTVSPropertyOp40
 70
     1
102
RTVSPropertyOp41
 70
     1
102
RTVSPropertyOp42
 70
     1
102
RTVSPropertyOp43
 70
     1
102
RTVSPropertyOp44
 70
     1
102
RTVSPropertyOp45
 70
     1
102
RTVSPropertyOp46
 70
     1
102
RTVSPropertyOp47
 70
     1
102
RTVSPropertyOp48
 70
     1
102
RTVSPropertyOp49
 70
     1
102
RTVSPropertyOp50
 70
     1
102
RTVSPropertyOp51
 70
     0
102
RTVSPropertyOp52
 70
     0
102
RTVSPropertyOp53
 70
     1
102
RTVSPropertyOp54
 70
     1
102
RTVSPropertyOp55
 70
     1
102
RTVSPropertyOp56
 70
     1
102
RTVSPropertyOp57
 70
     1
102
RTVSPropertyOp58
 70
     1
102
RTVSPropertyOp59
 70
     1
102
RTVSPropertyOp60
 70
     1
102
RTVSPropertyOp61
 70
     1
102
RTVSPropertyOp62
 70
     1
  0
XRECORD
  5
2A4
102
{ACAD_REACTORS
330
2A3
102
}
330
2A3
100
AcDbXrecord
280
     1
102
RTVSPost2010Prop28
280
     0
102
RTVSPost2010PropOp28
 70
     1
102
RTVSPost2010Prop29
280
     1
102
RTVSPost2010PropOp29
 70
     1
102
RTVSPost2010Prop30
280
     1
102
RTVSPost2010PropOp30
 70
     1
102
RTVSPost2010Prop31
280
     0
102
RTVSPost2010PropOp31
 70
     1
102
RTVSPost2010Prop32
280
     0
102
RTVSPost2010PropOp32
 70
     1
102
RTVSPost2010Prop33
280
     0
102
RTVSPost2010PropOp33
 70
     1
102
RTVSPost2010Prop34
280
     0
102
RTVSPost2010PropOp34
 70
     1
102
RTVSPost2010Prop35
280
     0
102
RTVSPost2010PropOp35
 70
     1
102
RTVSPost2010Prop36
280
     0
102
RTVSPost2010PropOp36
 70
     1
102
RTVSPost2010Prop37
 90
       50
102
RTVSPost2010PropOp37
 70
     1
102
RTVSPost2010Prop38
140
0.0
102
RTVSPost2010PropOp38
 70
     1
102
RTVSPost2010Prop39
140
1.0
102
RTVSPost2010PropOp39
 70
     1
102
RTVSPost2010Prop40
 90
        0
102
RTVSPost2010PropOp40
 70
     1
102
RTVSPost2010Prop41ColorIndex
 90
       18
102
RTVSPost2010Prop41ColorRGB
 90
        0
102
RTVSPost2010PropOp41
 70
     1
102
RTVSPost2010Prop42
 90
       50
102
RTVSPost2010PropOp42
 70
     1
102
RTVSPost2010Prop43
 90
        3
102
RTVSPost2010PropOp43
 70
     1
102
RTVSPost2010Prop44ColorIndex
 90
        5
102
RTVSPost2010Prop44ColorRGB
 90
      255
102
RTVSPost2010PropOp44
 70
     1
102
RTVSPost2010Prop45
280
     0
102
RTVSPost2010PropOp45
 70
     1
102
RTVSPost2010Prop46
 90
       50
102
RTVSPost2010PropOp46
 70
     1
102
RTVSPost2010Prop47
 90
       50
102
RTVSPost2010PropOp47
 70
     1
102
RTVSPost2010Prop48
 90
       50
102
RTVSPost2010PropOp48
 70
     1
102
RTVSPost2010Prop49
280
     0
102
RTVSPost2010PropOp49
 70
     1
102
RTVSPost2010Prop50
 90
       50
102
RTVSPost2010PropOp50
 70
     1
102
RTVSPost2010Prop51ColorIndex
 90
      256
102
RTVSPost2010Prop51ColorRGB
 90
-16777216
102
RTVSPost2010PropOp51
 70
     0
102
RTVSPost2010Prop52
140
1.0
102
RTVSPost2010PropOp52
 70
     0
102
RTVSPost2010Prop53
 90
        2
102
RTVSPost2010PropOp53
 70
     1
102
RTVSPost2010Prop54
  1
strokes_ogs.tif
102
RTVSPost2010PropOp54
 70
     1
102
RTVSPost2010Prop55
280
     0
102
RTVSPost2010PropOp55
 70
     1
102
RTVSPost2010Prop56
140
1.0
102
RTVSPost2010PropOp56
 70
     1
102
RTVSPost2010Prop57
140
1.0
102
RTVSPost2010PropOp57
 70
     1
102
RTVSPropertyOp0
 70
     1
102
RTVSPropertyOp1
 70
     1
102
RTVSPropertyOp2
 70
     1
102
RTVSPropertyOp3
 70
     1
102
RTVSPropertyOp4
 70
     1
102
RTVSPropertyOp5
 70
     1
102
RTVSPropertyOp6
 70
     1
102
RTVSPropertyOp7
 70
     1
102
RTVSPropertyOp8
 70
     1
102
RTVSPropertyOp9
 70
     1
102
RTVSPropertyOp10
 70
     1
102
RTVSPropertyOp11
 70
     1
102
RTVSPropertyOp12
 70
     1
102
RTVSPropertyOp13
 70
     1
102
RTVSPropertyOp14
 70
     1
102
RTVSPropertyOp15
 70
     1
102
RTVSPropertyOp16
 70
     1
102
RTVSPropertyOp17
 70
     1
102
RTVSPropertyOp18
 70
     1
102
RTVSPropertyOp19
 70
     1
102
RTVSPropertyOp20
 70
     1
102
RTVSPropertyOp21
 70
     1
102
RTVSPropertyOp22
 70
     1
102
RTVSPropertyOp23
 70
     1
102
RTVSPropertyOp24
 70
     1
102
RTVSPropertyOp25
 70
     1
102
RTVSPropertyOp26
 70
     1
102
RTVSPropertyOp27
 70
     1
102
RTVSPropertyOp28
 70
     1
102
RTVSPropertyOp29
 70
     1
102
RTVSPropertyOp30
 70
     1
102
RTVSPropertyOp31
 70
     1
102
RTVSPropertyOp32
 70
     1
102
RTVSPropertyOp33
 70
     1
102
RTVSPropertyOp34
 70
     1
102
RTVSPropertyOp35
 70
     1
102
RTVSPropertyOp36
 70
     1
102
RTVSPropertyOp37
 70
     1
102
RTVSPropertyOp38
 70
     1
102
RTVSPropertyOp39
 70
     1
102
RTVSPropertyOp40
 70
     1
102
RTVSPropertyOp41
 70
     1
102
RTVSPropertyOp42
 70
     1
102
RTVSPropertyOp43
 70
     1
102
RTVSPropertyOp44
 70
     1
102
RTVSPropertyOp45
 70
     1
102
RTVSPropertyOp46
 70
     1
102
RTVSPropertyOp47
 70
     1
102
RTVSPropertyOp48
 70
     1
102
RTVSPropertyOp49
 70
     1
102
RTVSPropertyOp50
 70
     1
102
RTVSPropertyOp51
 70
     0
102
RTVSPropertyOp52
 70
     0
102
RTVSPropertyOp53
 70
     1
102
RTVSPropertyOp54
 70
     1
102
RTVSPropertyOp55
 70
     1
102
RTVSPropertyOp56
 70
     1
102
RTVSPropertyOp57
 70
     1
102
RTVSPropertyOp58
 70
     1
102
RTVSPropertyOp59
 70
     1
102
RTVSPropertyOp60
 70
     1
102
RTVSPropertyOp61
 70
     1
102
RTVSPropertyOp62
 70
     1
  0
XRECORD
  5
2AC
102
{ACAD_REACTORS
330
2AB
102
}
330
2AB
100
AcDbXrecord
280
     1
102
RTVSPost2010Prop28
280
     0
102
RTVSPost2010PropOp28
 70
     1
102
RTVSPost2010Prop29
280
     1
102
RTVSPost2010PropOp29
 70
     1
102
RTVSPost2010Prop30
280
     1
102
RTVSPost2010PropOp30
 70
     1
102
RTVSPost2010Prop31
280
     0
102
RTVSPost2010PropOp31
 70
     1
102
RTVSPost2010Prop32
280
     0
102
RTVSPost2010PropOp32
 70
     1
102
RTVSPost2010Prop33
280
     0
102
RTVSPost2010PropOp33
 70
     1
102
RTVSPost2010Prop34
280
     0
102
RTVSPost2010PropOp34
 70
     1
102
RTVSPost2010Prop35
280
     0
102
RTVSPost2010PropOp35
 70
     1
102
RTVSPost2010Prop36
280
     0
102
RTVSPost2010PropOp36
 70
     1
102
RTVSPost2010Prop37
 90
       50
102
RTVSPost2010PropOp37
 70
     1
102
RTVSPost2010Prop38
140
0.0
102
RTVSPost2010PropOp38
 70
     1
102
RTVSPost2010Prop39
140
1.0
102
RTVSPost2010PropOp39
 70
     1
102
RTVSPost2010Prop40
 90
        0
102
RTVSPost2010PropOp40
 70
     1
102
RTVSPost2010Prop41ColorIndex
 90
       18
102
RTVSPost2010Prop41ColorRGB
 90
        0
102
RTVSPost2010PropOp41
 70
     1
102
RTVSPost2010Prop42
 90
       50
102
RTVSPost2010PropOp42
 70
     1
102
RTVSPost2010Prop43
 90
        3
102
RTVSPost2010PropOp43
 70
     1
102
RTVSPost2010Prop44ColorIndex
 90
        5
102
RTVSPost2010Prop44ColorRGB
 90
      255
102
RTVSPost2010PropOp44
 70
     1
102
RTVSPost2010Prop45
280
     0
102
RTVSPost2010PropOp45
 70
     1
102
RTVSPost2010Prop46
 90
       50
102
RTVSPost2010PropOp46
 70
     1
102
RTVSPost2010Prop47
 90
       50
102
RTVSPost2010PropOp47
 70
     1
102
RTVSPost2010Prop48
 90
       50
102
RTVSPost2010PropOp48
 70
     1
102
RTVSPost2010Prop49
280
     0
102
RTVSPost2010PropOp49
 70
     1
102
RTVSPost2010Prop50
 90
       50
102
RTVSPost2010PropOp50
 70
     1
102
RTVSPost2010Prop51ColorIndex
 90
      256
102
RTVSPost2010Prop51ColorRGB
 90
-16777216
102
RTVSPost2010PropOp51
 70
     0
102
RTVSPost2010Prop52
140
1.0
102
RTVSPost2010PropOp52
 70
     0
102
RTVSPost2010Prop53
 90
        2
102
RTVSPost2010PropOp53
 70
     1
102
RTVSPost2010Prop54
  1
strokes_ogs.tif
102
RTVSPost2010PropOp54
 70
     1
102
RTVSPost2010Prop55
280
     0
102
RTVSPost2010PropOp55
 70
     1
102
RTVSPost2010Prop56
140
1.0
102
RTVSPost2010PropOp56
 70
     1
102
RTVSPost2010Prop57
140
1.0
102
RTVSPost2010PropOp57
 70
     1
102
RTVSPropertyOp0
 70
     1
102
RTVSPropertyOp1
 70
     1
102
RTVSPropertyOp2
 70
     1
102
RTVSPropertyOp3
 70
     1
102
RTVSPropertyOp4
 70
     1
102
RTVSPropertyOp5
 70
     1
102
RTVSPropertyOp6
 70
     1
102
RTVSPropertyOp7
 70
     1
102
RTVSPropertyOp8
 70
     1
102
RTVSPropertyOp9
 70
     1
102
RTVSPropertyOp10
 70
     1
102
RTVSPropertyOp11
 70
     1
102
RTVSPropertyOp12
 70
     1
102
RTVSPropertyOp13
 70
     1
102
RTVSPropertyOp14
 70
     1
102
RTVSPropertyOp15
 70
     1
102
RTVSPropertyOp16
 70
     1
102
RTVSPropertyOp17
 70
     1
102
RTVSPropertyOp18
 70
     1
102
RTVSPropertyOp19
 70
     1
102
RTVSPropertyOp20
 70
     1
102
RTVSPropertyOp21
 70
     1
102
RTVSPropertyOp22
 70
     1
102
RTVSPropertyOp23
 70
     1
102
RTVSPropertyOp24
 70
     1
102
RTVSPropertyOp25
 70
     1
102
RTVSPropertyOp26
 70
     1
102
RTVSPropertyOp27
 70
     1
102
RTVSPropertyOp28
 70
     1
102
RTVSPropertyOp29
 70
     1
102
RTVSPropertyOp30
 70
     1
102
RTVSPropertyOp31
 70
     1
102
RTVSPropertyOp32
 70
     1
102
RTVSPropertyOp33
 70
     1
102
RTVSPropertyOp34
 70
     1
102
RTVSPropertyOp35
 70
     1
102
RTVSPropertyOp36
 70
     1
102
RTVSPropertyOp37
 70
     1
102
RTVSPropertyOp38
 70
     1
102
RTVSPropertyOp39
 70
     1
102
RTVSPropertyOp40
 70
     1
102
RTVSPropertyOp41
 70
     1
102
RTVSPropertyOp42
 70
     1
102
RTVSPropertyOp43
 70
     1
102
RTVSPropertyOp44
 70
     1
102
RTVSPropertyOp45
 70
     1
102
RTVSPropertyOp46
 70
     1
102
RTVSPropertyOp47
 70
     1
102
RTVSPropertyOp48
 70
     1
102
RTVSPropertyOp49
 70
     1
102
RTVSPropertyOp50
 70
     1
102
RTVSPropertyOp51
 70
     0
102
RTVSPropertyOp52
 70
     0
102
RTVSPropertyOp53
 70
     1
102
RTVSPropertyOp54
 70
     1
102
RTVSPropertyOp55
 70
     1
102
RTVSPropertyOp56
 70
     1
102
RTVSPropertyOp57
 70
     1
102
RTVSPropertyOp58
 70
     1
102
RTVSPropertyOp59
 70
     1
102
RTVSPropertyOp60
 70
     1
102
RTVSPropertyOp61
 70
     1
102
RTVSPropertyOp62
 70
     1
  0
XRECORD
  5
29E
102
{ACAD_REACTORS
330
29D
102
}
330
29D
100
AcDbXrecord
280
     1
102
RTVSPost2010Prop28
280
     0
102
RTVSPost2010PropOp28
 70
     1
102
RTVSPost2010Prop29
280
     1
102
RTVSPost2010PropOp29
 70
     1
102
RTVSPost2010Prop30
280
     1
102
RTVSPost2010PropOp30
 70
     1
102
RTVSPost2010Prop31
280
     0
102
RTVSPost2010PropOp31
 70
     1
102
RTVSPost2010Prop32
280
     0
102
RTVSPost2010PropOp32
 70
     1
102
RTVSPost2010Prop33
280
     0
102
RTVSPost2010PropOp33
 70
     1
102
RTVSPost2010Prop34
280
     0
102
RTVSPost2010PropOp34
 70
     1
102
RTVSPost2010Prop35
280
     0
102
RTVSPost2010PropOp35
 70
     1
102
RTVSPost2010Prop36
280
     0
102
RTVSPost2010PropOp36
 70
     1
102
RTVSPost2010Prop37
 90
       50
102
RTVSPost2010PropOp37
 70
     1
102
RTVSPost2010Prop38
140
0.0
102
RTVSPost2010PropOp38
 70
     1
102
RTVSPost2010Prop39
140
1.0
102
RTVSPost2010PropOp39
 70
     1
102
RTVSPost2010Prop40
 90
        0
102
RTVSPost2010PropOp40
 70
     1
102
RTVSPost2010Prop41ColorIndex
 90
       18
102
RTVSPost2010Prop41ColorRGB
 90
        0
102
RTVSPost2010PropOp41
 70
     1
102
RTVSPost2010Prop42
 90
       50
102
RTVSPost2010PropOp42
 70
     1
102
RTVSPost2010Prop43
 90
        3
102
RTVSPost2010PropOp43
 70
     1
102
RTVSPost2010Prop44ColorIndex
 90
        5
102
RTVSPost2010Prop44ColorRGB
 90
      255
102
RTVSPost2010PropOp44
 70
     1
102
RTVSPost2010Prop45
280
     0
102
RTVSPost2010PropOp45
 70
     1
102
RTVSPost2010Prop46
 90
       50
102
RTVSPost2010PropOp46
 70
     1
102
RTVSPost2010Prop47
 90
       50
102
RTVSPost2010PropOp47
 70
     1
102
RTVSPost2010Prop48
 90
       50
102
RTVSPost2010PropOp48
 70
     1
102
RTVSPost2010Prop49
280
     0
102
RTVSPost2010PropOp49
 70
     1
102
RTVSPost2010Prop50
 90
       50
102
RTVSPost2010PropOp50
 70
     1
102
RTVSPost2010Prop51ColorIndex
 90
      256
102
RTVSPost2010Prop51ColorRGB
 90
-16777216
102
RTVSPost2010PropOp51
 70
     0
102
RTVSPost2010Prop52
140
1.0
102
RTVSPost2010PropOp52
 70
     0
102
RTVSPost2010Prop53
 90
        2
102
RTVSPost2010PropOp53
 70
     1
102
RTVSPost2010Prop54
  1
strokes_ogs.tif
102
RTVSPost2010PropOp54
 70
     1
102
RTVSPost2010Prop55
280
     0
102
RTVSPost2010PropOp55
 70
     1
102
RTVSPost2010Prop56
140
1.0
102
RTVSPost2010PropOp56
 70
     1
102
RTVSPost2010Prop57
140
1.0
102
RTVSPost2010PropOp57
 70
     1
102
RTVSPropertyOp0
 70
     1
102
RTVSPropertyOp1
 70
     1
102
RTVSPropertyOp2
 70
     1
102
RTVSPropertyOp3
 70
     1
102
RTVSPropertyOp4
 70
     1
102
RTVSPropertyOp5
 70
     1
102
RTVSPropertyOp6
 70
     1
102
RTVSPropertyOp7
 70
     1
102
RTVSPropertyOp8
 70
     1
102
RTVSPropertyOp9
 70
     1
102
RTVSPropertyOp10
 70
     1
102
RTVSPropertyOp11
 70
     1
102
RTVSPropertyOp12
 70
     1
102
RTVSPropertyOp13
 70
     1
102
RTVSPropertyOp14
 70
     1
102
RTVSPropertyOp15
 70
     1
102
RTVSPropertyOp16
 70
     1
102
RTVSPropertyOp17
 70
     1
102
RTVSPropertyOp18
 70
     1
102
RTVSPropertyOp19
 70
     1
102
RTVSPropertyOp20
 70
     1
102
RTVSPropertyOp21
 70
     1
102
RTVSPropertyOp22
 70
     1
102
RTVSPropertyOp23
 70
     1
102
RTVSPropertyOp24
 70
     1
102
RTVSPropertyOp25
 70
     1
102
RTVSPropertyOp26
 70
     1
102
RTVSPropertyOp27
 70
     1
102
RTVSPropertyOp28
 70
     1
102
RTVSPropertyOp29
 70
     1
102
RTVSPropertyOp30
 70
     1
102
RTVSPropertyOp31
 70
     1
102
RTVSPropertyOp32
 70
     1
102
RTVSPropertyOp33
 70
     1
102
RTVSPropertyOp34
 70
     1
102
RTVSPropertyOp35
 70
     1
102
RTVSPropertyOp36
 70
     1
102
RTVSPropertyOp37
 70
     1
102
RTVSPropertyOp38
 70
     1
102
RTVSPropertyOp39
 70
     1
102
RTVSPropertyOp40
 70
     1
102
RTVSPropertyOp41
 70
     1
102
RTVSPropertyOp42
 70
     1
102
RTVSPropertyOp43
 70
     1
102
RTVSPropertyOp44
 70
     1
102
RTVSPropertyOp45
 70
     1
102
RTVSPropertyOp46
 70
     1
102
RTVSPropertyOp47
 70
     1
102
RTVSPropertyOp48
 70
     1
102
RTVSPropertyOp49
 70
     1
102
RTVSPropertyOp50
 70
     1
102
RTVSPropertyOp51
 70
     0
102
RTVSPropertyOp52
 70
     0
102
RTVSPropertyOp53
 70
     1
102
RTVSPropertyOp54
 70
     1
102
RTVSPropertyOp55
 70
     1
102
RTVSPropertyOp56
 70
     1
102
RTVSPropertyOp57
 70
     1
102
RTVSPropertyOp58
 70
     1
102
RTVSPropertyOp59
 70
     1
102
RTVSPropertyOp60
 70
     1
102
RTVSPropertyOp61
 70
     1
102
RTVSPropertyOp62
 70
     1
  0
XRECORD
  5
2A2
102
{ACAD_REACTORS
330
2A1
102
}
330
2A1
100
AcDbXrecord
280
     1
102
RTVSPost2010Prop28
280
     0
102
RTVSPost2010PropOp28
 70
     1
102
RTVSPost2010Prop29
280
     1
102
RTVSPost2010PropOp29
 70
     1
102
RTVSPost2010Prop30
280
     1
102
RTVSPost2010PropOp30
 70
     1
102
RTVSPost2010Prop31
280
     0
102
RTVSPost2010PropOp31
 70
     1
102
RTVSPost2010Prop32
280
     0
102
RTVSPost2010PropOp32
 70
     1
102
RTVSPost2010Prop33
280
     0
102
RTVSPost2010PropOp33
 70
     1
102
RTVSPost2010Prop34
280
     0
102
RTVSPost2010PropOp34
 70
     1
102
RTVSPost2010Prop35
280
     0
102
RTVSPost2010PropOp35
 70
     1
102
RTVSPost2010Prop36
280
     0
102
RTVSPost2010PropOp36
 70
     1
102
RTVSPost2010Prop37
 90
       50
102
RTVSPost2010PropOp37
 70
     1
102
RTVSPost2010Prop38
140
0.0
102
RTVSPost2010PropOp38
 70
     1
102
RTVSPost2010Prop39
140
1.0
102
RTVSPost2010PropOp39
 70
     1
102
RTVSPost2010Prop40
 90
        0
102
RTVSPost2010PropOp40
 70
     1
102
RTVSPost2010Prop41ColorIndex
 90
       18
102
RTVSPost2010Prop41ColorRGB
 90
        0
102
RTVSPost2010PropOp41
 70
     1
102
RTVSPost2010Prop42
 90
       50
102
RTVSPost2010PropOp42
 70
     1
102
RTVSPost2010Prop43
 90
        3
102
RTVSPost2010PropOp43
 70
     1
102
RTVSPost2010Prop44ColorIndex
 90
        5
102
RTVSPost2010Prop44ColorRGB
 90
      255
102
RTVSPost2010PropOp44
 70
     1
102
RTVSPost2010Prop45
280
     0
102
RTVSPost2010PropOp45
 70
     1
102
RTVSPost2010Prop46
 90
       50
102
RTVSPost2010PropOp46
 70
     1
102
RTVSPost2010Prop47
 90
       50
102
RTVSPost2010PropOp47
 70
     1
102
RTVSPost2010Prop48
 90
       50
102
RTVSPost2010PropOp48
 70
     1
102
RTVSPost2010Prop49
280
     0
102
RTVSPost2010PropOp49
 70
     1
102
RTVSPost2010Prop50
 90
       50
102
RTVSPost2010PropOp50
 70
     1
102
RTVSPost2010Prop51ColorIndex
 90
      256
102
RTVSPost2010Prop51ColorRGB
 90
-16777216
102
RTVSPost2010PropOp51
 70
     0
102
RTVSPost2010Prop52
140
1.0
102
RTVSPost2010PropOp52
 70
     0
102
RTVSPost2010Prop53
 90
        2
102
RTVSPost2010PropOp53
 70
     1
102
RTVSPost2010Prop54
  1
strokes_ogs.tif
102
RTVSPost2010PropOp54
 70
     1
102
RTVSPost2010Prop55
280
     0
102
RTVSPost2010PropOp55
 70
     1
102
RTVSPost2010Prop56
140
1.0
102
RTVSPost2010PropOp56
 70
     1
102
RTVSPost2010Prop57
140
1.0
102
RTVSPost2010PropOp57
 70
     1
102
RTVSPropertyOp0
 70
     1
102
RTVSPropertyOp1
 70
     1
102
RTVSPropertyOp2
 70
     1
102
RTVSPropertyOp3
 70
     1
102
RTVSPropertyOp4
 70
     1
102
RTVSPropertyOp5
 70
     1
102
RTVSPropertyOp6
 70
     1
102
RTVSPropertyOp7
 70
     1
102
RTVSPropertyOp8
 70
     1
102
RTVSPropertyOp9
 70
     1
102
RTVSPropertyOp10
 70
     1
102
RTVSPropertyOp11
 70
     1
102
RTVSPropertyOp12
 70
     1
102
RTVSPropertyOp13
 70
     1
102
RTVSPropertyOp14
 70
     1
102
RTVSPropertyOp15
 70
     1
102
RTVSPropertyOp16
 70
     1
102
RTVSPropertyOp17
 70
     1
102
RTVSPropertyOp18
 70
     1
102
RTVSPropertyOp19
 70
     1
102
RTVSPropertyOp20
 70
     1
102
RTVSPropertyOp21
 70
     1
102
RTVSPropertyOp22
 70
     1
102
RTVSPropertyOp23
 70
     1
102
RTVSPropertyOp24
 70
     1
102
RTVSPropertyOp25
 70
     1
102
RTVSPropertyOp26
 70
     1
102
RTVSPropertyOp27
 70
     1
102
RTVSPropertyOp28
 70
     1
102
RTVSPropertyOp29
 70
     1
102
RTVSPropertyOp30
 70
     1
102
RTVSPropertyOp31
 70
     1
102
RTVSPropertyOp32
 70
     1
102
RTVSPropertyOp33
 70
     1
102
RTVSPropertyOp34
 70
     1
102
RTVSPropertyOp35
 70
     1
102
RTVSPropertyOp36
 70
     1
102
RTVSPropertyOp37
 70
     1
102
RTVSPropertyOp38
 70
     1
102
RTVSPropertyOp39
 70
     1
102
RTVSPropertyOp40
 70
     1
102
RTVSPropertyOp41
 70
     1
102
RTVSPropertyOp42
 70
     1
102
RTVSPropertyOp43
 70
     1
102
RTVSPropertyOp44
 70
     1
102
RTVSPropertyOp45
 70
     1
102
RTVSPropertyOp46
 70
     1
102
RTVSPropertyOp47
 70
     1
102
RTVSPropertyOp48
 70
     1
102
RTVSPropertyOp49
 70
     1
102
RTVSPropertyOp50
 70
     1
102
RTVSPropertyOp51
 70
     0
102
RTVSPropertyOp52
 70
     0
102
RTVSPropertyOp53
 70
     1
102
RTVSPropertyOp54
 70
     1
102
RTVSPropertyOp55
 70
     1
102
RTVSPropertyOp56
 70
     1
102
RTVSPropertyOp57
 70
     1
102
RTVSPropertyOp58
 70
     1
102
RTVSPropertyOp59
 70
     1
102
RTVSPropertyOp60
 70
     1
102
RTVSPropertyOp61
 70
     1
102
RTVSPropertyOp62
 70
     1
  0
XRECORD
  5
2BC
102
{ACAD_REACTORS
330
2BB
102
}
330
2BB
100
AcDbXrecord
280
     1
102
RTVSPost2010Prop28
280
     0
102
RTVSPost2010PropOp28
 70
     1
102
RTVSPost2010Prop29
280
     1
102
RTVSPost2010PropOp29
 70
     1
102
RTVSPost2010Prop30
280
     1
102
RTVSPost2010PropOp30
 70
     1
102
RTVSPost2010Prop31
280
     0
102
RTVSPost2010PropOp31
 70
     1
102
RTVSPost2010Prop32
280
     0
102
RTVSPost2010PropOp32
 70
     1
102
RTVSPost2010Prop33
280
     0
102
RTVSPost2010PropOp33
 70
     1
102
RTVSPost2010Prop34
280
     0
102
RTVSPost2010PropOp34
 70
     1
102
RTVSPost2010Prop35
280
     0
102
RTVSPost2010PropOp35
 70
     1
102
RTVSPost2010Prop36
280
     0
102
RTVSPost2010PropOp36
 70
     1
102
RTVSPost2010Prop37
 90
       50
102
RTVSPost2010PropOp37
 70
     0
102
RTVSPost2010Prop38
140
0.0
102
RTVSPost2010PropOp38
 70
     0
102
RTVSPost2010Prop39
140
1.0
102
RTVSPost2010PropOp39
 70
     0
102
RTVSPost2010Prop40
 90
        0
102
RTVSPost2010PropOp40
 70
     0
102
RTVSPost2010Prop41ColorIndex
 90
       18
102
RTVSPost2010Prop41ColorRGB
 90
        0
102
RTVSPost2010PropOp41
 70
     0
102
RTVSPost2010Prop42
 90
       50
102
RTVSPost2010PropOp42
 70
     0
102
RTVSPost2010Prop43
 90
        3
102
RTVSPost2010PropOp43
 70
     0
102
RTVSPost2010Prop44ColorIndex
 90
        5
102
RTVSPost2010Prop44ColorRGB
 90
      255
102
RTVSPost2010PropOp44
 70
     0
102
RTVSPost2010Prop45
280
     0
102
RTVSPost2010PropOp45
 70
     1
102
RTVSPost2010Prop46
 90
       50
102
RTVSPost2010PropOp46
 70
     0
102
RTVSPost2010Prop47
 90
       50
102
RTVSPost2010PropOp47
 70
     0
102
RTVSPost2010Prop48
 90
       50
102
RTVSPost2010PropOp48
 70
     0
102
RTVSPost2010Prop49
280
     0
102
RTVSPost2010PropOp49
 70
     1
102
RTVSPost2010Prop50
 90
       50
102
RTVSPost2010PropOp50
 70
     0
102
RTVSPost2010Prop51ColorIndex
 90
      256
102
RTVSPost2010Prop51ColorRGB
 90
-16777216
102
RTVSPost2010PropOp51
 70
     0
102
RTVSPost2010Prop52
140
1.0
102
RTVSPost2010PropOp52
 70
     0
102
RTVSPost2010Prop53
 90
        2
102
RTVSPost2010PropOp53
 70
     0
102
RTVSPost2010Prop54
  1
strokes_ogs.tif
102
RTVSPost2010PropOp54
 70
     0
102
RTVSPost2010Prop55
280
     0
102
RTVSPost2010PropOp55
 70
     1
102
RTVSPost2010Prop56
140
1.0
102
RTVSPost2010PropOp56
 70
     0
102
RTVSPost2010Prop57
140
1.0
102
RTVSPost2010PropOp57
 70
     0
102
RTVSPropertyOp0
 70
     0
102
RTVSPropertyOp1
 70
     0
102
RTVSPropertyOp2
 70
     0
102
RTVSPropertyOp3
 70
     0
102
RTVSPropertyOp4
 70
     0
102
RTVSPropertyOp5
 70
     0
102
RTVSPropertyOp6
 70
     0
102
RTVSPropertyOp7
 70
     0
102
RTVSPropertyOp8
 70
     0
102
RTVSPropertyOp9
 70
     0
102
RTVSPropertyOp10
 70
     0
102
RTVSPropertyOp11
 70
     0
102
RTVSPropertyOp12
 70
     0
102
RTVSPropertyOp13
 70
     0
102
RTVSPropertyOp14
 70
     2
102
RTVSPropertyOp15
 70
     0
102
RTVSPropertyOp16
 70
     0
102
RTVSPropertyOp17
 70
     0
102
RTVSPropertyOp18
 70
     0
102
RTVSPropertyOp19
 70
     0
102
RTVSPropertyOp20
 70
     0
102
RTVSPropertyOp21
 70
     0
102
RTVSPropertyOp22
 70
     0
102
RTVSPropertyOp23
 70
     0
102
RTVSPropertyOp24
 70
     0
102
RTVSPropertyOp25
 70
     0
102
RTVSPropertyOp26
 70
     0
102
RTVSPropertyOp27
 70
     0
102
RTVSPropertyOp28
 70
     1
102
RTVSPropertyOp29
 70
     1
102
RTVSPropertyOp30
 70
     1
102
RTVSPropertyOp31
 70
     1
102
RTVSPropertyOp32
 70
     1
102
RTVSPropertyOp33
 70
     1
102
RTVSPropertyOp34
 70
     1
102
RTVSPropertyOp35
 70
     1
102
RTVSPropertyOp36
 70
     1
102
RTVSPropertyOp37
 70
     0
102
RTVSPropertyOp38
 70
     0
102
RTVSPropertyOp39
 70
     0
102
RTVSPropertyOp40
 70
     0
102
RTVSPropertyOp41
 70
     0
102
RTVSPropertyOp42
 70
     0
102
RTVSPropertyOp43
 70
     0
102
RTVSPropertyOp44
 70
     0
102
RTVSPropertyOp45
 70
     1
102
RTVSPropertyOp46
 70
     0
102
RTVSPropertyOp47
 70
     0
102
RTVSPropertyOp48
 70
     0
102
RTVSPropertyOp49
 70
     1
102
RTVSPropertyOp50
 70
     0
102
RTVSPropertyOp51
 70
     0
102
RTVSPropertyOp52
 70
     0
102
RTVSPropertyOp53
 70
     0
102
RTVSPropertyOp54
 70
     0
102
RTVSPropertyOp55
 70
     1
102
RTVSPropertyOp56
 70
     0
102
RTVSPropertyOp57
 70
     0
102
RTVSPropertyOp58
 70
     0
102
RTVSPropertyOp59
 70
     0
102
RTVSPropertyOp60
 70
     0
102
RTVSPropertyOp61
 70
     0
102
RTVSPropertyOp62
 70
     0
  0
XRECORD
  5
2AA
102
{ACAD_REACTORS
330
2A9
102
}
330
2A9
100
AcDbXrecord
280
     1
102
RTVSPost2010Prop28
280
     0
102
RTVSPost2010PropOp28
 70
     1
102
RTVSPost2010Prop29
280
     1
102
RTVSPost2010PropOp29
 70
     1
102
RTVSPost2010Prop30
280
     1
102
RTVSPost2010PropOp30
 70
     1
102
RTVSPost2010Prop31
280
     0
102
RTVSPost2010PropOp31
 70
     1
102
RTVSPost2010Prop32
280
     0
102
RTVSPost2010PropOp32
 70
     1
102
RTVSPost2010Prop33
280
     0
102
RTVSPost2010PropOp33
 70
     1
102
RTVSPost2010Prop34
280
     0
102
RTVSPost2010PropOp34
 70
     1
102
RTVSPost2010Prop35
280
     0
102
RTVSPost2010PropOp35
 70
     1
102
RTVSPost2010Prop36
280
     0
102
RTVSPost2010PropOp36
 70
     1
102
RTVSPost2010Prop37
 90
       50
102
RTVSPost2010PropOp37
 70
     1
102
RTVSPost2010Prop38
140
0.0
102
RTVSPost2010PropOp38
 70
     1
102
RTVSPost2010Prop39
140
1.0
102
RTVSPost2010PropOp39
 70
     1
102
RTVSPost2010Prop40
 90
        0
102
RTVSPost2010PropOp40
 70
     1
102
RTVSPost2010Prop41ColorIndex
 90
       18
102
RTVSPost2010Prop41ColorRGB
 90
        0
102
RTVSPost2010PropOp41
 70
     1
102
RTVSPost2010Prop42
 90
       50
102
RTVSPost2010PropOp42
 70
     1
102
RTVSPost2010Prop43
 90
        3
102
RTVSPost2010PropOp43
 70
     1
102
RTVSPost2010Prop44ColorIndex
 90
        5
102
RTVSPost2010Prop44ColorRGB
 90
      255
102
RTVSPost2010PropOp44
 70
     1
102
RTVSPost2010Prop45
280
     0
102
RTVSPost2010PropOp45
 70
     1
102
RTVSPost2010Prop46
 90
       50
102
RTVSPost2010PropOp46
 70
     1
102
RTVSPost2010Prop47
 90
       50
102
RTVSPost2010PropOp47
 70
     1
102
RTVSPost2010Prop48
 90
       50
102
RTVSPost2010PropOp48
 70
     1
102
RTVSPost2010Prop49
280
     0
102
RTVSPost2010PropOp49
 70
     1
102
RTVSPost2010Prop50
 90
       50
102
RTVSPost2010PropOp50
 70
     1
102
RTVSPost2010Prop51ColorIndex
 90
      256
102
RTVSPost2010Prop51ColorRGB
 90
-16777216
102
RTVSPost2010PropOp51
 70
     0
102
RTVSPost2010Prop52
140
1.0
102
RTVSPost2010PropOp52
 70
     0
102
RTVSPost2010Prop53
 90
        2
102
RTVSPost2010PropOp53
 70
     1
102
RTVSPost2010Prop54
  1
strokes_ogs.tif
102
RTVSPost2010PropOp54
 70
     1
102
RTVSPost2010Prop55
280
     0
102
RTVSPost2010PropOp55
 70
     1
102
RTVSPost2010Prop56
140
1.0
102
RTVSPost2010PropOp56
 70
     1
102
RTVSPost2010Prop57
140
1.0
102
RTVSPost2010PropOp57
 70
     1
102
RTVSPropertyOp0
 70
     1
102
RTVSPropertyOp1
 70
     1
102
RTVSPropertyOp2
 70
     1
102
RTVSPropertyOp3
 70
     1
102
RTVSPropertyOp4
 70
     1
102
RTVSPropertyOp5
 70
     1
102
RTVSPropertyOp6
 70
     1
102
RTVSPropertyOp7
 70
     1
102
RTVSPropertyOp8
 70
     1
102
RTVSPropertyOp9
 70
     1
102
RTVSPropertyOp10
 70
     1
102
RTVSPropertyOp11
 70
     1
102
RTVSPropertyOp12
 70
     1
102
RTVSPropertyOp13
 70
     1
102
RTVSPropertyOp14
 70
     1
102
RTVSPropertyOp15
 70
     1
102
RTVSPropertyOp16
 70
     1
102
RTVSPropertyOp17
 70
     1
102
RTVSPropertyOp18
 70
     1
102
RTVSPropertyOp19
 70
     1
102
RTVSPropertyOp20
 70
     1
102
RTVSPropertyOp21
 70
     1
102
RTVSPropertyOp22
 70
     1
102
RTVSPropertyOp23
 70
     1
102
RTVSPropertyOp24
 70
     1
102
RTVSPropertyOp25
 70
     1
102
RTVSPropertyOp26
 70
     1
102
RTVSPropertyOp27
 70
     1
102
RTVSPropertyOp28
 70
     1
102
RTVSPropertyOp29
 70
     1
102
RTVSPropertyOp30
 70
     1
102
RTVSPropertyOp31
 70
     1
102
RTVSPropertyOp32
 70
     1
102
RTVSPropertyOp33
 70
     1
102
RTVSPropertyOp34
 70
     1
102
RTVSPropertyOp35
 70
     1
102
RTVSPropertyOp36
 70
     1
102
RTVSPropertyOp37
 70
     1
102
RTVSPropertyOp38
 70
     1
102
RTVSPropertyOp39
 70
     1
102
RTVSPropertyOp40
 70
     1
102
RTVSPropertyOp41
 70
     1
102
RTVSPropertyOp42
 70
     1
102
RTVSPropertyOp43
 70
     1
102
RTVSPropertyOp44
 70
     1
102
RTVSPropertyOp45
 70
     1
102
RTVSPropertyOp46
 70
     1
102
RTVSPropertyOp47
 70
     1
102
RTVSPropertyOp48
 70
     1
102
RTVSPropertyOp49
 70
     1
102
RTVSPropertyOp50
 70
     1
102
RTVSPropertyOp51
 70
     0
102
RTVSPropertyOp52
 70
     0
102
RTVSPropertyOp53
 70
     1
102
RTVSPropertyOp54
 70
     1
102
RTVSPropertyOp55
 70
     1
102
RTVSPropertyOp56
 70
     1
102
RTVSPropertyOp57
 70
     1
102
RTVSPropertyOp58
 70
     1
102
RTVSPropertyOp59
 70
     1
102
RTVSPropertyOp60
 70
     1
102
RTVSPropertyOp61
 70
     1
102
RTVSPropertyOp62
 70
     1
  0
XRECORD
  5
28E
102
{ACAD_REACTORS
330
28D
102
}
330
28D
100
AcDbXrecord
280
     1
102
RTVSPost2010Prop28
280
     0
102
RTVSPost2010PropOp28
 70
     1
102
RTVSPost2010Prop29
280
     1
102
RTVSPost2010PropOp29
 70
     1
102
RTVSPost2010Prop30
280
     1
102
RTVSPost2010PropOp30
 70
     1
102
RTVSPost2010Prop31
280
     0
102
RTVSPost2010PropOp31
 70
     1
102
RTVSPost2010Prop32
280
     0
102
RTVSPost2010PropOp32
 70
     1
102
RTVSPost2010Prop33
280
     0
102
RTVSPost2010PropOp33
 70
     1
102
RTVSPost2010Prop34
280
     0
102
RTVSPost2010PropOp34
 70
     1
102
RTVSPost2010Prop35
280
     0
102
RTVSPost2010PropOp35
 70
     1
102
RTVSPost2010Prop36
280
     0
102
RTVSPost2010PropOp36
 70
     1
102
RTVSPost2010Prop37
 90
       50
102
RTVSPost2010PropOp37
 70
     1
102
RTVSPost2010Prop38
140
0.0
102
RTVSPost2010PropOp38
 70
     1
102
RTVSPost2010Prop39
140
1.0
102
RTVSPost2010PropOp39
 70
     1
102
RTVSPost2010Prop40
 90
        0
102
RTVSPost2010PropOp40
 70
     1
102
RTVSPost2010Prop41ColorIndex
 90
       18
102
RTVSPost2010Prop41ColorRGB
 90
        0
102
RTVSPost2010PropOp41
 70
     1
102
RTVSPost2010Prop42
 90
       50
102
RTVSPost2010PropOp42
 70
     1
102
RTVSPost2010Prop43
 90
        3
102
RTVSPost2010PropOp43
 70
     1
102
RTVSPost2010Prop44ColorIndex
 90
        5
102
RTVSPost2010Prop44ColorRGB
 90
      255
102
RTVSPost2010PropOp44
 70
     1
102
RTVSPost2010Prop45
280
     0
102
RTVSPost2010PropOp45
 70
     1
102
RTVSPost2010Prop46
 90
       50
102
RTVSPost2010PropOp46
 70
     1
102
RTVSPost2010Prop47
 90
       50
102
RTVSPost2010PropOp47
 70
     1
102
RTVSPost2010Prop48
 90
       50
102
RTVSPost2010PropOp48
 70
     1
102
RTVSPost2010Prop49
280
     0
102
RTVSPost2010PropOp49
 70
     1
102
RTVSPost2010Prop50
 90
       50
102
RTVSPost2010PropOp50
 70
     1
102
RTVSPost2010Prop51ColorIndex
 90
      256
102
RTVSPost2010Prop51ColorRGB
 90
-16777216
102
RTVSPost2010PropOp51
 70
     0
102
RTVSPost2010Prop52
140
1.0
102
RTVSPost2010PropOp52
 70
     0
102
RTVSPost2010Prop53
 90
        2
102
RTVSPost2010PropOp53
 70
     1
102
RTVSPost2010Prop54
  1
strokes_ogs.tif
102
RTVSPost2010PropOp54
 70
     1
102
RTVSPost2010Prop55
280
     0
102
RTVSPost2010PropOp55
 70
     1
102
RTVSPost2010Prop56
140
1.0
102
RTVSPost2010PropOp56
 70
     1
102
RTVSPost2010Prop57
140
1.0
102
RTVSPost2010PropOp57
 70
     1
102
RTVSPropertyOp0
 70
     1
102
RTVSPropertyOp1
 70
     1
102
RTVSPropertyOp2
 70
     1
102
RTVSPropertyOp3
 70
     1
102
RTVSPropertyOp4
 70
     1
102
RTVSPropertyOp5
 70
     1
102
RTVSPropertyOp6
 70
     1
102
RTVSPropertyOp7
 70
     1
102
RTVSPropertyOp8
 70
     1
102
RTVSPropertyOp9
 70
     1
102
RTVSPropertyOp10
 70
     1
102
RTVSPropertyOp11
 70
     1
102
RTVSPropertyOp12
 70
     1
102
RTVSPropertyOp13
 70
     1
102
RTVSPropertyOp14
 70
     1
102
RTVSPropertyOp15
 70
     1
102
RTVSPropertyOp16
 70
     1
102
RTVSPropertyOp17
 70
     1
102
RTVSPropertyOp18
 70
     1
102
RTVSPropertyOp19
 70
     1
102
RTVSPropertyOp20
 70
     1
102
RTVSPropertyOp21
 70
     1
102
RTVSPropertyOp22
 70
     1
102
RTVSPropertyOp23
 70
     1
102
RTVSPropertyOp24
 70
     1
102
RTVSPropertyOp25
 70
     1
102
RTVSPropertyOp26
 70
     1
102
RTVSPropertyOp27
 70
     1
102
RTVSPropertyOp28
 70
     1
102
RTVSPropertyOp29
 70
     1
102
RTVSPropertyOp30
 70
     1
102
RTVSPropertyOp31
 70
     1
102
RTVSPropertyOp32
 70
     1
102
RTVSPropertyOp33
 70
     1
102
RTVSPropertyOp34
 70
     1
102
RTVSPropertyOp35
 70
     1
102
RTVSPropertyOp36
 70
     1
102
RTVSPropertyOp37
 70
     1
102
RTVSPropertyOp38
 70
     1
102
RTVSPropertyOp39
 70
     1
102
RTVSPropertyOp40
 70
     1
102
RTVSPropertyOp41
 70
     1
102
RTVSPropertyOp42
 70
     1
102
RTVSPropertyOp43
 70
     1
102
RTVSPropertyOp44
 70
     1
102
RTVSPropertyOp45
 70
     1
102
RTVSPropertyOp46
 70
     1
102
RTVSPropertyOp47
 70
     1
102
RTVSPropertyOp48
 70
     1
102
RTVSPropertyOp49
 70
     1
102
RTVSPropertyOp50
 70
     1
102
RTVSPropertyOp51
 70
     0
102
RTVSPropertyOp52
 70
     0
102
RTVSPropertyOp53
 70
     1
102
RTVSPropertyOp54
 70
     1
102
RTVSPropertyOp55
 70
     1
102
RTVSPropertyOp56
 70
     1
102
RTVSPropertyOp57
 70
     1
102
RTVSPropertyOp58
 70
     1
102
RTVSPropertyOp59
 70
     1
102
RTVSPropertyOp60
 70
     1
102
RTVSPropertyOp61
 70
     1
102
RTVSPropertyOp62
 70
     1
  0
XRECORD
  5
290
102
{ACAD_REACTORS
330
28F
102
}
330
28F
100
AcDbXrecord
280
     1
102
RTVSPost2010Prop28
280
     0
102
RTVSPost2010PropOp28
 70
     1
102
RTVSPost2010Prop29
280
     1
102
RTVSPost2010PropOp29
 70
     1
102
RTVSPost2010Prop30
280
     1
102
RTVSPost2010PropOp30
 70
     1
102
RTVSPost2010Prop31
280
     0
102
RTVSPost2010PropOp31
 70
     1
102
RTVSPost2010Prop32
280
     0
102
RTVSPost2010PropOp32
 70
     1
102
RTVSPost2010Prop33
280
     0
102
RTVSPost2010PropOp33
 70
     1
102
RTVSPost2010Prop34
280
     0
102
RTVSPost2010PropOp34
 70
     1
102
RTVSPost2010Prop35
280
     0
102
RTVSPost2010PropOp35
 70
     1
102
RTVSPost2010Prop36
280
     0
102
RTVSPost2010PropOp36
 70
     1
102
RTVSPost2010Prop37
 90
       50
102
RTVSPost2010PropOp37
 70
     1
102
RTVSPost2010Prop38
140
0.0
102
RTVSPost2010PropOp38
 70
     1
102
RTVSPost2010Prop39
140
1.0
102
RTVSPost2010PropOp39
 70
     1
102
RTVSPost2010Prop40
 90
        0
102
RTVSPost2010PropOp40
 70
     1
102
RTVSPost2010Prop41ColorIndex
 90
       18
102
RTVSPost2010Prop41ColorRGB
 90
        0
102
RTVSPost2010PropOp41
 70
     1
102
RTVSPost2010Prop42
 90
       50
102
RTVSPost2010PropOp42
 70
     1
102
RTVSPost2010Prop43
 90
        3
102
RTVSPost2010PropOp43
 70
     1
102
RTVSPost2010Prop44ColorIndex
 90
        5
102
RTVSPost2010Prop44ColorRGB
 90
      255
102
RTVSPost2010PropOp44
 70
     1
102
RTVSPost2010Prop45
280
     0
102
RTVSPost2010PropOp45
 70
     1
102
RTVSPost2010Prop46
 90
       50
102
RTVSPost2010PropOp46
 70
     1
102
RTVSPost2010Prop47
 90
       50
102
RTVSPost2010PropOp47
 70
     1
102
RTVSPost2010Prop48
 90
       50
102
RTVSPost2010PropOp48
 70
     1
102
RTVSPost2010Prop49
280
     0
102
RTVSPost2010PropOp49
 70
     1
102
RTVSPost2010Prop50
 90
       50
102
RTVSPost2010PropOp50
 70
     1
102
RTVSPost2010Prop51ColorIndex
 90
      256
102
RTVSPost2010Prop51ColorRGB
 90
-16777216
102
RTVSPost2010PropOp51
 70
     0
102
RTVSPost2010Prop52
140
1.0
102
RTVSPost2010PropOp52
 70
     0
102
RTVSPost2010Prop53
 90
        2
102
RTVSPost2010PropOp53
 70
     1
102
RTVSPost2010Prop54
  1
strokes_ogs.tif
102
RTVSPost2010PropOp54
 70
     1
102
RTVSPost2010Prop55
280
     0
102
RTVSPost2010PropOp55
 70
     1
102
RTVSPost2010Prop56
140
1.0
102
RTVSPost2010PropOp56
 70
     1
102
RTVSPost2010Prop57
140
1.0
102
RTVSPost2010PropOp57
 70
     1
102
RTVSPropertyOp0
 70
     1
102
RTVSPropertyOp1
 70
     1
102
RTVSPropertyOp2
 70
     1
102
RTVSPropertyOp3
 70
     1
102
RTVSPropertyOp4
 70
     1
102
RTVSPropertyOp5
 70
     1
102
RTVSPropertyOp6
 70
     1
102
RTVSPropertyOp7
 70
     1
102
RTVSPropertyOp8
 70
     1
102
RTVSPropertyOp9
 70
     1
102
RTVSPropertyOp10
 70
     1
102
RTVSPropertyOp11
 70
     1
102
RTVSPropertyOp12
 70
     1
102
RTVSPropertyOp13
 70
     1
102
RTVSPropertyOp14
 70
     1
102
RTVSPropertyOp15
 70
     1
102
RTVSPropertyOp16
 70
     1
102
RTVSPropertyOp17
 70
     1
102
RTVSPropertyOp18
 70
     1
102
RTVSPropertyOp19
 70
     1
102
RTVSPropertyOp20
 70
     1
102
RTVSPropertyOp21
 70
     1
102
RTVSPropertyOp22
 70
     1
102
RTVSPropertyOp23
 70
     1
102
RTVSPropertyOp24
 70
     1
102
RTVSPropertyOp25
 70
     1
102
RTVSPropertyOp26
 70
     1
102
RTVSPropertyOp27
 70
     1
102
RTVSPropertyOp28
 70
     1
102
RTVSPropertyOp29
 70
     1
102
RTVSPropertyOp30
 70
     1
102
RTVSPropertyOp31
 70
     1
102
RTVSPropertyOp32
 70
     1
102
RTVSPropertyOp33
 70
     1
102
RTVSPropertyOp34
 70
     1
102
RTVSPropertyOp35
 70
     1
102
RTVSPropertyOp36
 70
     1
102
RTVSPropertyOp37
 70
     1
102
RTVSPropertyOp38
 70
     1
102
RTVSPropertyOp39
 70
     1
102
RTVSPropertyOp40
 70
     1
102
RTVSPropertyOp41
 70
     1
102
RTVSPropertyOp42
 70
     1
102
RTVSPropertyOp43
 70
     1
102
RTVSPropertyOp44
 70
     1
102
RTVSPropertyOp45
 70
     1
102
RTVSPropertyOp46
 70
     1
102
RTVSPropertyOp47
 70
     1
102
RTVSPropertyOp48
 70
     1
102
RTVSPropertyOp49
 70
     1
102
RTVSPropertyOp50
 70
     1
102
RTVSPropertyOp51
 70
     0
102
RTVSPropertyOp52
 70
     0
102
RTVSPropertyOp53
 70
     1
102
RTVSPropertyOp54
 70
     1
102
RTVSPropertyOp55
 70
     1
102
RTVSPropertyOp56
 70
     1
102
RTVSPropertyOp57
 70
     1
102
RTVSPropertyOp58
 70
     1
102
RTVSPropertyOp59
 70
     1
102
RTVSPropertyOp60
 70
     1
102
RTVSPropertyOp61
 70
     1
102
RTVSPropertyOp62
 70
     1
  0
XRECORD
  5
292
102
{ACAD_REACTORS
330
291
102
}
330
291
100
AcDbXrecord
280
     1
102
RTVSPost2010Prop28
280
     0
102
RTVSPost2010PropOp28
 70
     1
102
RTVSPost2010Prop29
280
     1
102
RTVSPost2010PropOp29
 70
     1
102
RTVSPost2010Prop30
280
     1
102
RTVSPost2010PropOp30
 70
     1
102
RTVSPost2010Prop31
280
     0
102
RTVSPost2010PropOp31
 70
     1
102
RTVSPost2010Prop32
280
     0
102
RTVSPost2010PropOp32
 70
     1
102
RTVSPost2010Prop33
280
     0
102
RTVSPost2010PropOp33
 70
     1
102
RTVSPost2010Prop34
280
     0
102
RTVSPost2010PropOp34
 70
     1
102
RTVSPost2010Prop35
280
     0
102
RTVSPost2010PropOp35
 70
     1
102
RTVSPost2010Prop36
280
     0
102
RTVSPost2010PropOp36
 70
     1
102
RTVSPost2010Prop37
 90
       50
102
RTVSPost2010PropOp37
 70
     1
102
RTVSPost2010Prop38
140
0.0
102
RTVSPost2010PropOp38
 70
     1
102
RTVSPost2010Prop39
140
1.0
102
RTVSPost2010PropOp39
 70
     1
102
RTVSPost2010Prop40
 90
        0
102
RTVSPost2010PropOp40
 70
     1
102
RTVSPost2010Prop41ColorIndex
 90
       18
102
RTVSPost2010Prop41ColorRGB
 90
        0
102
RTVSPost2010PropOp41
 70
     1
102
RTVSPost2010Prop42
 90
       50
102
RTVSPost2010PropOp42
 70
     1
102
RTVSPost2010Prop43
 90
        3
102
RTVSPost2010PropOp43
 70
     1
102
RTVSPost2010Prop44ColorIndex
 90
        5
102
RTVSPost2010Prop44ColorRGB
 90
      255
102
RTVSPost2010PropOp44
 70
     1
102
RTVSPost2010Prop45
280
     0
102
RTVSPost2010PropOp45
 70
     1
102
RTVSPost2010Prop46
 90
       50
102
RTVSPost2010PropOp46
 70
     1
102
RTVSPost2010Prop47
 90
       50
102
RTVSPost2010PropOp47
 70
     1
102
RTVSPost2010Prop48
 90
       50
102
RTVSPost2010PropOp48
 70
     1
102
RTVSPost2010Prop49
280
     0
102
RTVSPost2010PropOp49
 70
     1
102
RTVSPost2010Prop50
 90
       50
102
RTVSPost2010PropOp50
 70
     1
102
RTVSPost2010Prop51ColorIndex
 90
      256
102
RTVSPost2010Prop51ColorRGB
 90
-16777216
102
RTVSPost2010PropOp51
 70
     0
102
RTVSPost2010Prop52
140
1.0
102
RTVSPost2010PropOp52
 70
     0
102
RTVSPost2010Prop53
 90
        2
102
RTVSPost2010PropOp53
 70
     1
102
RTVSPost2010Prop54
  1
strokes_ogs.tif
102
RTVSPost2010PropOp54
 70
     1
102
RTVSPost2010Prop55
280
     0
102
RTVSPost2010PropOp55
 70
     1
102
RTVSPost2010Prop56
140
1.0
102
RTVSPost2010PropOp56
 70
     1
102
RTVSPost2010Prop57
140
1.0
102
RTVSPost2010PropOp57
 70
     1
102
RTVSPropertyOp0
 70
     1
102
RTVSPropertyOp1
 70
     1
102
RTVSPropertyOp2
 70
     1
102
RTVSPropertyOp3
 70
     1
102
RTVSPropertyOp4
 70
     1
102
RTVSPropertyOp5
 70
     1
102
RTVSPropertyOp6
 70
     1
102
RTVSPropertyOp7
 70
     1
102
RTVSPropertyOp8
 70
     1
102
RTVSPropertyOp9
 70
     1
102
RTVSPropertyOp10
 70
     1
102
RTVSPropertyOp11
 70
     1
102
RTVSPropertyOp12
 70
     1
102
RTVSPropertyOp13
 70
     1
102
RTVSPropertyOp14
 70
     1
102
RTVSPropertyOp15
 70
     1
102
RTVSPropertyOp16
 70
     1
102
RTVSPropertyOp17
 70
     1
102
RTVSPropertyOp18
 70
     1
102
RTVSPropertyOp19
 70
     1
102
RTVSPropertyOp20
 70
     1
102
RTVSPropertyOp21
 70
     1
102
RTVSPropertyOp22
 70
     1
102
RTVSPropertyOp23
 70
     1
102
RTVSPropertyOp24
 70
     1
102
RTVSPropertyOp25
 70
     1
102
RTVSPropertyOp26
 70
     1
102
RTVSPropertyOp27
 70
     1
102
RTVSPropertyOp28
 70
     1
102
RTVSPropertyOp29
 70
     1
102
RTVSPropertyOp30
 70
     1
102
RTVSPropertyOp31
 70
     1
102
RTVSPropertyOp32
 70
     1
102
RTVSPropertyOp33
 70
     1
102
RTVSPropertyOp34
 70
     1
102
RTVSPropertyOp35
 70
     1
102
RTVSPropertyOp36
 70
     1
102
RTVSPropertyOp37
 70
     1
102
RTVSPropertyOp38
 70
     1
102
RTVSPropertyOp39
 70
     1
102
RTVSPropertyOp40
 70
     1
102
RTVSPropertyOp41
 70
     1
102
RTVSPropertyOp42
 70
     1
102
RTVSPropertyOp43
 70
     1
102
RTVSPropertyOp44
 70
     1
102
RTVSPropertyOp45
 70
     1
102
RTVSPropertyOp46
 70
     1
102
RTVSPropertyOp47
 70
     1
102
RTVSPropertyOp48
 70
     1
102
RTVSPropertyOp49
 70
     1
102
RTVSPropertyOp50
 70
     1
102
RTVSPropertyOp51
 70
     0
102
RTVSPropertyOp52
 70
     0
102
RTVSPropertyOp53
 70
     1
102
RTVSPropertyOp54
 70
     1
102
RTVSPropertyOp55
 70
     1
102
RTVSPropertyOp56
 70
     1
102
RTVSPropertyOp57
 70
     1
102
RTVSPropertyOp58
 70
     1
102
RTVSPropertyOp59
 70
     1
102
RTVSPropertyOp60
 70
     1
102
RTVSPropertyOp61
 70
     1
102
RTVSPropertyOp62
 70
     1
  0
XRECORD
  5
294
102
{ACAD_REACTORS
330
293
102
}
330
293
100
AcDbXrecord
280
     1
102
RTVSPost2010Prop28
280
     0
102
RTVSPost2010PropOp28
 70
     1
102
RTVSPost2010Prop29
280
     1
102
RTVSPost2010PropOp29
 70
     1
102
RTVSPost2010Prop30
280
     1
102
RTVSPost2010PropOp30
 70
     1
102
RTVSPost2010Prop31
280
     0
102
RTVSPost2010PropOp31
 70
     1
102
RTVSPost2010Prop32
280
     0
102
RTVSPost2010PropOp32
 70
     1
102
RTVSPost2010Prop33
280
     0
102
RTVSPost2010PropOp33
 70
     1
102
RTVSPost2010Prop34
280
     0
102
RTVSPost2010PropOp34
 70
     1
102
RTVSPost2010Prop35
280
     0
102
RTVSPost2010PropOp35
 70
     1
102
RTVSPost2010Prop36
280
     0
102
RTVSPost2010PropOp36
 70
     1
102
RTVSPost2010Prop37
 90
       50
102
RTVSPost2010PropOp37
 70
     1
102
RTVSPost2010Prop38
140
0.0
102
RTVSPost2010PropOp38
 70
     1
102
RTVSPost2010Prop39
140
1.0
102
RTVSPost2010PropOp39
 70
     1
102
RTVSPost2010Prop40
 90
        0
102
RTVSPost2010PropOp40
 70
     1
102
RTVSPost2010Prop41ColorIndex
 90
       18
102
RTVSPost2010Prop41ColorRGB
 90
        0
102
RTVSPost2010PropOp41
 70
     1
102
RTVSPost2010Prop42
 90
       50
102
RTVSPost2010PropOp42
 70
     1
102
RTVSPost2010Prop43
 90
        3
102
RTVSPost2010PropOp43
 70
     1
102
RTVSPost2010Prop44ColorIndex
 90
        5
102
RTVSPost2010Prop44ColorRGB
 90
      255
102
RTVSPost2010PropOp44
 70
     1
102
RTVSPost2010Prop45
280
     0
102
RTVSPost2010PropOp45
 70
     1
102
RTVSPost2010Prop46
 90
       50
102
RTVSPost2010PropOp46
 70
     1
102
RTVSPost2010Prop47
 90
       50
102
RTVSPost2010PropOp47
 70
     1
102
RTVSPost2010Prop48
 90
       50
102
RTVSPost2010PropOp48
 70
     1
102
RTVSPost2010Prop49
280
     0
102
RTVSPost2010PropOp49
 70
     1
102
RTVSPost2010Prop50
 90
       50
102
RTVSPost2010PropOp50
 70
     1
102
RTVSPost2010Prop51ColorIndex
 90
      256
102
RTVSPost2010Prop51ColorRGB
 90
-16777216
102
RTVSPost2010PropOp51
 70
     0
102
RTVSPost2010Prop52
140
1.0
102
RTVSPost2010PropOp52
 70
     0
102
RTVSPost2010Prop53
 90
        2
102
RTVSPost2010PropOp53
 70
     1
102
RTVSPost2010Prop54
  1
strokes_ogs.tif
102
RTVSPost2010PropOp54
 70
     1
102
RTVSPost2010Prop55
280
     0
102
RTVSPost2010PropOp55
 70
     1
102
RTVSPost2010Prop56
140
1.0
102
RTVSPost2010PropOp56
 70
     1
102
RTVSPost2010Prop57
140
1.0
102
RTVSPost2010PropOp57
 70
     1
102
RTVSPropertyOp0
 70
     1
102
RTVSPropertyOp1
 70
     1
102
RTVSPropertyOp2
 70
     1
102
RTVSPropertyOp3
 70
     1
102
RTVSPropertyOp4
 70
     1
102
RTVSPropertyOp5
 70
     1
102
RTVSPropertyOp6
 70
     1
102
RTVSPropertyOp7
 70
     1
102
RTVSPropertyOp8
 70
     1
102
RTVSPropertyOp9
 70
     1
102
RTVSPropertyOp10
 70
     1
102
RTVSPropertyOp11
 70
     1
102
RTVSPropertyOp12
 70
     1
102
RTVSPropertyOp13
 70
     1
102
RTVSPropertyOp14
 70
     1
102
RTVSPropertyOp15
 70
     1
102
RTVSPropertyOp16
 70
     1
102
RTVSPropertyOp17
 70
     1
102
RTVSPropertyOp18
 70
     1
102
RTVSPropertyOp19
 70
     1
102
RTVSPropertyOp20
 70
     1
102
RTVSPropertyOp21
 70
     1
102
RTVSPropertyOp22
 70
     1
102
RTVSPropertyOp23
 70
     1
102
RTVSPropertyOp24
 70
     1
102
RTVSPropertyOp25
 70
     1
102
RTVSPropertyOp26
 70
     1
102
RTVSPropertyOp27
 70
     1
102
RTVSPropertyOp28
 70
     1
102
RTVSPropertyOp29
 70
     1
102
RTVSPropertyOp30
 70
     1
102
RTVSPropertyOp31
 70
     1
102
RTVSPropertyOp32
 70
     1
102
RTVSPropertyOp33
 70
     1
102
RTVSPropertyOp34
 70
     1
102
RTVSPropertyOp35
 70
     1
102
RTVSPropertyOp36
 70
     1
102
RTVSPropertyOp37
 70
     1
102
RTVSPropertyOp38
 70
     1
102
RTVSPropertyOp39
 70
     1
102
RTVSPropertyOp40
 70
     1
102
RTVSPropertyOp41
 70
     1
102
RTVSPropertyOp42
 70
     1
102
RTVSPropertyOp43
 70
     1
102
RTVSPropertyOp44
 70
     1
102
RTVSPropertyOp45
 70
     1
102
RTVSPropertyOp46
 70
     1
102
RTVSPropertyOp47
 70
     1
102
RTVSPropertyOp48
 70
     1
102
RTVSPropertyOp49
 70
     1
102
RTVSPropertyOp50
 70
     1
102
RTVSPropertyOp51
 70
     0
102
RTVSPropertyOp52
 70
     0
102
RTVSPropertyOp53
 70
     1
102
RTVSPropertyOp54
 70
     1
102
RTVSPropertyOp55
 70
     1
102
RTVSPropertyOp56
 70
     1
102
RTVSPropertyOp57
 70
     1
102
RTVSPropertyOp58
 70
     1
102
RTVSPropertyOp59
 70
     1
102
RTVSPropertyOp60
 70
     1
102
RTVSPropertyOp61
 70
     1
102
RTVSPropertyOp62
 70
     1
  0
XRECORD
  5
29C
102
{ACAD_REACTORS
330
29B
102
}
330
29B
100
AcDbXrecord
280
     1
102
RTVSPost2010Prop28
280
     0
102
RTVSPost2010PropOp28
 70
     1
102
RTVSPost2010Prop29
280
     1
102
RTVSPost2010PropOp29
 70
     1
102
RTVSPost2010Prop30
280
     1
102
RTVSPost2010PropOp30
 70
     1
102
RTVSPost2010Prop31
280
     0
102
RTVSPost2010PropOp31
 70
     1
102
RTVSPost2010Prop32
280
     0
102
RTVSPost2010PropOp32
 70
     1
102
RTVSPost2010Prop33
280
     0
102
RTVSPost2010PropOp33
 70
     1
102
RTVSPost2010Prop34
280
     0
102
RTVSPost2010PropOp34
 70
     1
102
RTVSPost2010Prop35
280
     0
102
RTVSPost2010PropOp35
 70
     1
102
RTVSPost2010Prop36
280
     0
102
RTVSPost2010PropOp36
 70
     1
102
RTVSPost2010Prop37
 90
       50
102
RTVSPost2010PropOp37
 70
     1
102
RTVSPost2010Prop38
140
0.0
102
RTVSPost2010PropOp38
 70
     1
102
RTVSPost2010Prop39
140
1.0
102
RTVSPost2010PropOp39
 70
     1
102
RTVSPost2010Prop40
 90
        0
102
RTVSPost2010PropOp40
 70
     1
102
RTVSPost2010Prop41ColorIndex
 90
       18
102
RTVSPost2010Prop41ColorRGB
 90
        0
102
RTVSPost2010PropOp41
 70
     1
102
RTVSPost2010Prop42
 90
       50
102
RTVSPost2010PropOp42
 70
     1
102
RTVSPost2010Prop43
 90
        3
102
RTVSPost2010PropOp43
 70
     1
102
RTVSPost2010Prop44ColorIndex
 90
        5
102
RTVSPost2010Prop44ColorRGB
 90
      255
102
RTVSPost2010PropOp44
 70
     1
102
RTVSPost2010Prop45
280
     0
102
RTVSPost2010PropOp45
 70
     1
102
RTVSPost2010Prop46
 90
       50
102
RTVSPost2010PropOp46
 70
     1
102
RTVSPost2010Prop47
 90
       50
102
RTVSPost2010PropOp47
 70
     1
102
RTVSPost2010Prop48
 90
       50
102
RTVSPost2010PropOp48
 70
     1
102
RTVSPost2010Prop49
280
     0
102
RTVSPost2010PropOp49
 70
     1
102
RTVSPost2010Prop50
 90
       50
102
RTVSPost2010PropOp50
 70
     1
102
RTVSPost2010Prop51ColorIndex
 90
      256
102
RTVSPost2010Prop51ColorRGB
 90
-16777216
102
RTVSPost2010PropOp51
 70
     0
102
RTVSPost2010Prop52
140
1.0
102
RTVSPost2010PropOp52
 70
     0
102
RTVSPost2010Prop53
 90
        2
102
RTVSPost2010PropOp53
 70
     1
102
RTVSPost2010Prop54
  1
strokes_ogs.tif
102
RTVSPost2010PropOp54
 70
     1
102
RTVSPost2010Prop55
280
     0
102
RTVSPost2010PropOp55
 70
     1
102
RTVSPost2010Prop56
140
1.0
102
RTVSPost2010PropOp56
 70
     1
102
RTVSPost2010Prop57
140
1.0
102
RTVSPost2010PropOp57
 70
     1
102
RTVSPropertyOp0
 70
     1
102
RTVSPropertyOp1
 70
     1
102
RTVSPropertyOp2
 70
     1
102
RTVSPropertyOp3
 70
     1
102
RTVSPropertyOp4
 70
     1
102
RTVSPropertyOp5
 70
     1
102
RTVSPropertyOp6
 70
     1
102
RTVSPropertyOp7
 70
     1
102
RTVSPropertyOp8
 70
     1
102
RTVSPropertyOp9
 70
     1
102
RTVSPropertyOp10
 70
     1
102
RTVSPropertyOp11
 70
     1
102
RTVSPropertyOp12
 70
     1
102
RTVSPropertyOp13
 70
     1
102
RTVSPropertyOp14
 70
     1
102
RTVSPropertyOp15
 70
     1
102
RTVSPropertyOp16
 70
     1
102
RTVSPropertyOp17
 70
     1
102
RTVSPropertyOp18
 70
     1
102
RTVSPropertyOp19
 70
     1
102
RTVSPropertyOp20
 70
     1
102
RTVSPropertyOp21
 70
     1
102
RTVSPropertyOp22
 70
     1
102
RTVSPropertyOp23
 70
     1
102
RTVSPropertyOp24
 70
     1
102
RTVSPropertyOp25
 70
     1
102
RTVSPropertyOp26
 70
     1
102
RTVSPropertyOp27
 70
     1
102
RTVSPropertyOp28
 70
     1
102
RTVSPropertyOp29
 70
     1
102
RTVSPropertyOp30
 70
     1
102
RTVSPropertyOp31
 70
     1
102
RTVSPropertyOp32
 70
     1
102
RTVSPropertyOp33
 70
     1
102
RTVSPropertyOp34
 70
     1
102
RTVSPropertyOp35
 70
     1
102
RTVSPropertyOp36
 70
     1
102
RTVSPropertyOp37
 70
     1
102
RTVSPropertyOp38
 70
     1
102
RTVSPropertyOp39
 70
     1
102
RTVSPropertyOp40
 70
     1
102
RTVSPropertyOp41
 70
     1
102
RTVSPropertyOp42
 70
     1
102
RTVSPropertyOp43
 70
     1
102
RTVSPropertyOp44
 70
     1
102
RTVSPropertyOp45
 70
     1
102
RTVSPropertyOp46
 70
     1
102
RTVSPropertyOp47
 70
     1
102
RTVSPropertyOp48
 70
     1
102
RTVSPropertyOp49
 70
     1
102
RTVSPropertyOp50
 70
     1
102
RTVSPropertyOp51
 70
     0
102
RTVSPropertyOp52
 70
     0
102
RTVSPropertyOp53
 70
     1
102
RTVSPropertyOp54
 70
     1
102
RTVSPropertyOp55
 70
     1
102
RTVSPropertyOp56
 70
     1
102
RTVSPropertyOp57
 70
     1
102
RTVSPropertyOp58
 70
     1
102
RTVSPropertyOp59
 70
     1
102
RTVSPropertyOp60
 70
     1
102
RTVSPropertyOp61
 70
     1
102
RTVSPropertyOp62
 70
     1
  0
XRECORD
  5
2B8
102
{ACAD_REACTORS
330
2B7
102
}
330
2B7
100
AcDbXrecord
280
     1
102
RTVSPost2010Prop28
280
     0
102
RTVSPost2010PropOp28
 70
     1
102
RTVSPost2010Prop29
280
     1
102
RTVSPost2010PropOp29
 70
     1
102
RTVSPost2010Prop30
280
     1
102
RTVSPost2010PropOp30
 70
     1
102
RTVSPost2010Prop31
280
     0
102
RTVSPost2010PropOp31
 70
     1
102
RTVSPost2010Prop32
280
     0
102
RTVSPost2010PropOp32
 70
     1
102
RTVSPost2010Prop33
280
     0
102
RTVSPost2010PropOp33
 70
     1
102
RTVSPost2010Prop34
280
     0
102
RTVSPost2010PropOp34
 70
     1
102
RTVSPost2010Prop35
280
     0
102
RTVSPost2010PropOp35
 70
     1
102
RTVSPost2010Prop36
280
     0
102
RTVSPost2010PropOp36
 70
     1
102
RTVSPost2010Prop37
 90
       50
102
RTVSPost2010PropOp37
 70
     0
102
RTVSPost2010Prop38
140
0.0
102
RTVSPost2010PropOp38
 70
     0
102
RTVSPost2010Prop39
140
1.0
102
RTVSPost2010PropOp39
 70
     0
102
RTVSPost2010Prop40
 90
        0
102
RTVSPost2010PropOp40
 70
     0
102
RTVSPost2010Prop41ColorIndex
 90
       18
102
RTVSPost2010Prop41ColorRGB
 90
        0
102
RTVSPost2010PropOp41
 70
     0
102
RTVSPost2010Prop42
 90
       50
102
RTVSPost2010PropOp42
 70
     0
102
RTVSPost2010Prop43
 90
        3
102
RTVSPost2010PropOp43
 70
     0
102
RTVSPost2010Prop44ColorIndex
 90
        5
102
RTVSPost2010Prop44ColorRGB
 90
      255
102
RTVSPost2010PropOp44
 70
     0
102
RTVSPost2010Prop45
280
     0
102
RTVSPost2010PropOp45
 70
     1
102
RTVSPost2010Prop46
 90
       50
102
RTVSPost2010PropOp46
 70
     0
102
RTVSPost2010Prop47
 90
       50
102
RTVSPost2010PropOp47
 70
     0
102
RTVSPost2010Prop48
 90
       50
102
RTVSPost2010PropOp48
 70
     0
102
RTVSPost2010Prop49
280
     0
102
RTVSPost2010PropOp49
 70
     1
102
RTVSPost2010Prop50
 90
       50
102
RTVSPost2010PropOp50
 70
     0
102
RTVSPost2010Prop51ColorIndex
 90
      256
102
RTVSPost2010Prop51ColorRGB
 90
-16777216
102
RTVSPost2010PropOp51
 70
     0
102
RTVSPost2010Prop52
140
1.0
102
RTVSPost2010PropOp52
 70
     0
102
RTVSPost2010Prop53
 90
        2
102
RTVSPost2010PropOp53
 70
     0
102
RTVSPost2010Prop54
  1
strokes_ogs.tif
102
RTVSPost2010PropOp54
 70
     0
102
RTVSPost2010Prop55
280
     0
102
RTVSPost2010PropOp55
 70
     1
102
RTVSPost2010Prop56
140
1.0
102
RTVSPost2010PropOp56
 70
     0
102
RTVSPost2010Prop57
140
1.0
102
RTVSPost2010PropOp57
 70
     0
102
RTVSPropertyOp0
 70
     0
102
RTVSPropertyOp1
 70
     0
102
RTVSPropertyOp2
 70
     0
102
RTVSPropertyOp3
 70
     0
102
RTVSPropertyOp4
 70
     0
102
RTVSPropertyOp5
 70
     0
102
RTVSPropertyOp6
 70
     0
102
RTVSPropertyOp7
 70
     0
102
RTVSPropertyOp8
 70
     0
102
RTVSPropertyOp9
 70
     0
102
RTVSPropertyOp10
 70
     0
102
RTVSPropertyOp11
 70
     0
102
RTVSPropertyOp12
 70
     0
102
RTVSPropertyOp13
 70
     0
102
RTVSPropertyOp14
 70
     2
102
RTVSPropertyOp15
 70
     0
102
RTVSPropertyOp16
 70
     0
102
RTVSPropertyOp17
 70
     0
102
RTVSPropertyOp18
 70
     0
102
RTVSPropertyOp19
 70
     0
102
RTVSPropertyOp20
 70
     0
102
RTVSPropertyOp21
 70
     0
102
RTVSPropertyOp22
 70
     0
102
RTVSPropertyOp23
 70
     0
102
RTVSPropertyOp24
 70
     0
102
RTVSPropertyOp25
 70
     0
102
RTVSPropertyOp26
 70
     0
102
RTVSPropertyOp27
 70
     0
102
RTVSPropertyOp28
 70
     1
102
RTVSPropertyOp29
 70
     1
102
RTVSPropertyOp30
 70
     1
102
RTVSPropertyOp31
 70
     1
102
RTVSPropertyOp32
 70
     1
102
RTVSPropertyOp33
 70
     1
102
RTVSPropertyOp34
 70
     1
102
RTVSPropertyOp35
 70
     1
102
RTVSPropertyOp36
 70
     1
102
RTVSPropertyOp37
 70
     0
102
RTVSPropertyOp38
 70
     0
102
RTVSPropertyOp39
 70
     0
102
RTVSPropertyOp40
 70
     0
102
RTVSPropertyOp41
 70
     0
102
RTVSPropertyOp42
 70
     0
102
RTVSPropertyOp43
 70
     0
102
RTVSPropertyOp44
 70
     0
102
RTVSPropertyOp45
 70
     1
102
RTVSPropertyOp46
 70
     0
102
RTVSPropertyOp47
 70
     0
102
RTVSPropertyOp48
 70
     0
102
RTVSPropertyOp49
 70
     1
102
RTVSPropertyOp50
 70
     0
102
RTVSPropertyOp51
 70
     0
102
RTVSPropertyOp52
 70
     0
102
RTVSPropertyOp53
 70
     0
102
RTVSPropertyOp54
 70
     0
102
RTVSPropertyOp55
 70
     1
102
RTVSPropertyOp56
 70
     0
102
RTVSPropertyOp57
 70
     0
102
RTVSPropertyOp58
 70
     0
102
RTVSPropertyOp59
 70
     0
102
RTVSPropertyOp60
 70
     0
102
RTVSPropertyOp61
 70
     0
102
RTVSPropertyOp62
 70
     0
  0
XRECORD
  5
2A8
102
{ACAD_REACTORS
330
2A7
102
}
330
2A7
100
AcDbXrecord
280
     1
102
RTVSPost2010Prop28
280
     0
102
RTVSPost2010PropOp28
 70
     1
102
RTVSPost2010Prop29
280
     1
102
RTVSPost2010PropOp29
 70
     1
102
RTVSPost2010Prop30
280
     1
102
RTVSPost2010PropOp30
 70
     1
102
RTVSPost2010Prop31
280
     0
102
RTVSPost2010PropOp31
 70
     1
102
RTVSPost2010Prop32
280
     0
102
RTVSPost2010PropOp32
 70
     1
102
RTVSPost2010Prop33
280
     0
102
RTVSPost2010PropOp33
 70
     1
102
RTVSPost2010Prop34
280
     0
102
RTVSPost2010PropOp34
 70
     1
102
RTVSPost2010Prop35
280
     0
102
RTVSPost2010PropOp35
 70
     1
102
RTVSPost2010Prop36
280
     0
102
RTVSPost2010PropOp36
 70
     1
102
RTVSPost2010Prop37
 90
       50
102
RTVSPost2010PropOp37
 70
     1
102
RTVSPost2010Prop38
140
0.0
102
RTVSPost2010PropOp38
 70
     1
102
RTVSPost2010Prop39
140
1.0
102
RTVSPost2010PropOp39
 70
     1
102
RTVSPost2010Prop40
 90
        0
102
RTVSPost2010PropOp40
 70
     1
102
RTVSPost2010Prop41ColorIndex
 90
       18
102
RTVSPost2010Prop41ColorRGB
 90
        0
102
RTVSPost2010PropOp41
 70
     1
102
RTVSPost2010Prop42
 90
       50
102
RTVSPost2010PropOp42
 70
     1
102
RTVSPost2010Prop43
 90
        3
102
RTVSPost2010PropOp43
 70
     1
102
RTVSPost2010Prop44ColorIndex
 90
        5
102
RTVSPost2010Prop44ColorRGB
 90
      255
102
RTVSPost2010PropOp44
 70
     1
102
RTVSPost2010Prop45
280
     0
102
RTVSPost2010PropOp45
 70
     1
102
RTVSPost2010Prop46
 90
       50
102
RTVSPost2010PropOp46
 70
     1
102
RTVSPost2010Prop47
 90
       50
102
RTVSPost2010PropOp47
 70
     1
102
RTVSPost2010Prop48
 90
       50
102
RTVSPost2010PropOp48
 70
     1
102
RTVSPost2010Prop49
280
     0
102
RTVSPost2010PropOp49
 70
     1
102
RTVSPost2010Prop50
 90
       50
102
RTVSPost2010PropOp50
 70
     1
102
RTVSPost2010Prop51ColorIndex
 90
      256
102
RTVSPost2010Prop51ColorRGB
 90
-16777216
102
RTVSPost2010PropOp51
 70
     0
102
RTVSPost2010Prop52
140
1.0
102
RTVSPost2010PropOp52
 70
     0
102
RTVSPost2010Prop53
 90
        2
102
RTVSPost2010PropOp53
 70
     1
102
RTVSPost2010Prop54
  1
strokes_ogs.tif
102
RTVSPost2010PropOp54
 70
     1
102
RTVSPost2010Prop55
280
     0
102
RTVSPost2010PropOp55
 70
     1
102
RTVSPost2010Prop56
140
1.0
102
RTVSPost2010PropOp56
 70
     1
102
RTVSPost2010Prop57
140
1.0
102
RTVSPost2010PropOp57
 70
     1
102
RTVSPropertyOp0
 70
     1
102
RTVSPropertyOp1
 70
     1
102
RTVSPropertyOp2
 70
     1
102
RTVSPropertyOp3
 70
     1
102
RTVSPropertyOp4
 70
     1
102
RTVSPropertyOp5
 70
     1
102
RTVSPropertyOp6
 70
     1
102
RTVSPropertyOp7
 70
     1
102
RTVSPropertyOp8
 70
     1
102
RTVSPropertyOp9
 70
     1
102
RTVSPropertyOp10
 70
     1
102
RTVSPropertyOp11
 70
     1
102
RTVSPropertyOp12
 70
     1
102
RTVSPropertyOp13
 70
     1
102
RTVSPropertyOp14
 70
     1
102
RTVSPropertyOp15
 70
     1
102
RTVSPropertyOp16
 70
     1
102
RTVSPropertyOp17
 70
     1
102
RTVSPropertyOp18
 70
     1
102
RTVSPropertyOp19
 70
     1
102
RTVSPropertyOp20
 70
     1
102
RTVSPropertyOp21
 70
     1
102
RTVSPropertyOp22
 70
     1
102
RTVSPropertyOp23
 70
     1
102
RTVSPropertyOp24
 70
     1
102
RTVSPropertyOp25
 70
     1
102
RTVSPropertyOp26
 70
     1
102
RTVSPropertyOp27
 70
     1
102
RTVSPropertyOp28
 70
     1
102
RTVSPropertyOp29
 70
     1
102
RTVSPropertyOp30
 70
     1
102
RTVSPropertyOp31
 70
     1
102
RTVSPropertyOp32
 70
     1
102
RTVSPropertyOp33
 70
     1
102
RTVSPropertyOp34
 70
     1
102
RTVSPropertyOp35
 70
     1
102
RTVSPropertyOp36
 70
     1
102
RTVSPropertyOp37
 70
     1
102
RTVSPropertyOp38
 70
     1
102
RTVSPropertyOp39
 70
     1
102
RTVSPropertyOp40
 70
     1
102
RTVSPropertyOp41
 70
     1
102
RTVSPropertyOp42
 70
     1
102
RTVSPropertyOp43
 70
     1
102
RTVSPropertyOp44
 70
     1
102
RTVSPropertyOp45
 70
     1
102
RTVSPropertyOp46
 70
     1
102
RTVSPropertyOp47
 70
     1
102
RTVSPropertyOp48
 70
     1
102
RTVSPropertyOp49
 70
     1
102
RTVSPropertyOp50
 70
     1
102
RTVSPropertyOp51
 70
     0
102
RTVSPropertyOp52
 70
     0
102
RTVSPropertyOp53
 70
     1
102
RTVSPropertyOp54
 70
     1
102
RTVSPropertyOp55
 70
     1
102
RTVSPropertyOp56
 70
     1
102
RTVSPropertyOp57
 70
     1
102
RTVSPropertyOp58
 70
     1
102
RTVSPropertyOp59
 70
     1
102
RTVSPropertyOp60
 70
     1
102
RTVSPropertyOp61
 70
     1
102
RTVSPropertyOp62
 70
     1
  0
XRECORD
  5
2BA
102
{ACAD_REACTORS
330
2B9
102
}
330
2B9
100
AcDbXrecord
280
     1
102
RTVSPost2010Prop28
280
     0
102
RTVSPost2010PropOp28
 70
     1
102
RTVSPost2010Prop29
280
     1
102
RTVSPost2010PropOp29
 70
     1
102
RTVSPost2010Prop30
280
     1
102
RTVSPost2010PropOp30
 70
     1
102
RTVSPost2010Prop31
280
     0
102
RTVSPost2010PropOp31
 70
     1
102
RTVSPost2010Prop32
280
     0
102
RTVSPost2010PropOp32
 70
     1
102
RTVSPost2010Prop33
280
     0
102
RTVSPost2010PropOp33
 70
     1
102
RTVSPost2010Prop34
280
     0
102
RTVSPost2010PropOp34
 70
     1
102
RTVSPost2010Prop35
280
     0
102
RTVSPost2010PropOp35
 70
     1
102
RTVSPost2010Prop36
280
     0
102
RTVSPost2010PropOp36
 70
     1
102
RTVSPost2010Prop37
 90
       50
102
RTVSPost2010PropOp37
 70
     0
102
RTVSPost2010Prop38
140
0.0
102
RTVSPost2010PropOp38
 70
     0
102
RTVSPost2010Prop39
140
1.0
102
RTVSPost2010PropOp39
 70
     0
102
RTVSPost2010Prop40
 90
        0
102
RTVSPost2010PropOp40
 70
     0
102
RTVSPost2010Prop41ColorIndex
 90
       18
102
RTVSPost2010Prop41ColorRGB
 90
        0
102
RTVSPost2010PropOp41
 70
     0
102
RTVSPost2010Prop42
 90
       50
102
RTVSPost2010PropOp42
 70
     0
102
RTVSPost2010Prop43
 90
        3
102
RTVSPost2010PropOp43
 70
     0
102
RTVSPost2010Prop44ColorIndex
 90
        5
102
RTVSPost2010Prop44ColorRGB
 90
      255
102
RTVSPost2010PropOp44
 70
     0
102
RTVSPost2010Prop45
280
     0
102
RTVSPost2010PropOp45
 70
     1
102
RTVSPost2010Prop46
 90
       50
102
RTVSPost2010PropOp46
 70
     0
102
RTVSPost2010Prop47
 90
       50
102
RTVSPost2010PropOp47
 70
     0
102
RTVSPost2010Prop48
 90
       50
102
RTVSPost2010PropOp48
 70
     0
102
RTVSPost2010Prop49
280
     0
102
RTVSPost2010PropOp49
 70
     1
102
RTVSPost2010Prop50
 90
       50
102
RTVSPost2010PropOp50
 70
     0
102
RTVSPost2010Prop51ColorIndex
 90
      256
102
RTVSPost2010Prop51ColorRGB
 90
-16777216
102
RTVSPost2010PropOp51
 70
     0
102
RTVSPost2010Prop52
140
1.0
102
RTVSPost2010PropOp52
 70
     0
102
RTVSPost2010Prop53
 90
        2
102
RTVSPost2010PropOp53
 70
     0
102
RTVSPost2010Prop54
  1
strokes_ogs.tif
102
RTVSPost2010PropOp54
 70
     0
102
RTVSPost2010Prop55
280
     0
102
RTVSPost2010PropOp55
 70
     1
102
RTVSPost2010Prop56
140
1.0
102
RTVSPost2010PropOp56
 70
     0
102
RTVSPost2010Prop57
140
1.0
102
RTVSPost2010PropOp57
 70
     0
102
RTVSPropertyOp0
 70
     0
102
RTVSPropertyOp1
 70
     0
102
RTVSPropertyOp2
 70
     0
102
RTVSPropertyOp3
 70
     0
102
RTVSPropertyOp4
 70
     0
102
RTVSPropertyOp5
 70
     0
102
RTVSPropertyOp6
 70
     0
102
RTVSPropertyOp7
 70
     0
102
RTVSPropertyOp8
 70
     0
102
RTVSPropertyOp9
 70
     0
102
RTVSPropertyOp10
 70
     0
102
RTVSPropertyOp11
 70
     0
102
RTVSPropertyOp12
 70
     0
102
RTVSPropertyOp13
 70
     0
102
RTVSPropertyOp14
 70
     2
102
RTVSPropertyOp15
 70
     0
102
RTVSPropertyOp16
 70
     0
102
RTVSPropertyOp17
 70
     0
102
RTVSPropertyOp18
 70
     0
102
RTVSPropertyOp19
 70
     0
102
RTVSPropertyOp20
 70
     0
102
RTVSPropertyOp21
 70
     0
102
RTVSPropertyOp22
 70
     0
102
RTVSPropertyOp23
 70
     0
102
RTVSPropertyOp24
 70
     0
102
RTVSPropertyOp25
 70
     0
102
RTVSPropertyOp26
 70
     0
102
RTVSPropertyOp27
 70
     0
102
RTVSPropertyOp28
 70
     1
102
RTVSPropertyOp29
 70
     1
102
RTVSPropertyOp30
 70
     1
102
RTVSPropertyOp31
 70
     1
102
RTVSPropertyOp32
 70
     1
102
RTVSPropertyOp33
 70
     1
102
RTVSPropertyOp34
 70
     1
102
RTVSPropertyOp35
 70
     1
102
RTVSPropertyOp36
 70
     1
102
RTVSPropertyOp37
 70
     0
102
RTVSPropertyOp38
 70
     0
102
RTVSPropertyOp39
 70
     0
102
RTVSPropertyOp40
 70
     0
102
RTVSPropertyOp41
 70
     0
102
RTVSPropertyOp42
 70
     0
102
RTVSPropertyOp43
 70
     0
102
RTVSPropertyOp44
 70
     0
102
RTVSPropertyOp45
 70
     1
102
RTVSPropertyOp46
 70
     0
102
RTVSPropertyOp47
 70
     0
102
RTVSPropertyOp48
 70
     0
102
RTVSPropertyOp49
 70
     1
102
RTVSPropertyOp50
 70
     0
102
RTVSPropertyOp51
 70
     0
102
RTVSPropertyOp52
 70
     0
102
RTVSPropertyOp53
 70
     0
102
RTVSPropertyOp54
 70
     0
102
RTVSPropertyOp55
 70
     1
102
RTVSPropertyOp56
 70
     0
102
RTVSPropertyOp57
 70
     0
102
RTVSPropertyOp58
 70
     0
102
RTVSPropertyOp59
 70
     0
102
RTVSPropertyOp60
 70
     0
102
RTVSPropertyOp61
 70
     0
102
RTVSPropertyOp62
 70
     0
  0
XRECORD
  5
2A0
102
{ACAD_REACTORS
330
29F
102
}
330
29F
100
AcDbXrecord
280
     1
102
RTVSPost2010Prop28
280
     0
102
RTVSPost2010PropOp28
 70
     1
102
RTVSPost2010Prop29
280
     1
102
RTVSPost2010PropOp29
 70
     1
102
RTVSPost2010Prop30
280
     1
102
RTVSPost2010PropOp30
 70
     1
102
RTVSPost2010Prop31
280
     0
102
RTVSPost2010PropOp31
 70
     1
102
RTVSPost2010Prop32
280
     0
102
RTVSPost2010PropOp32
 70
     1
102
RTVSPost2010Prop33
280
     0
102
RTVSPost2010PropOp33
 70
     1
102
RTVSPost2010Prop34
280
     0
102
RTVSPost2010PropOp34
 70
     1
102
RTVSPost2010Prop35
280
     0
102
RTVSPost2010PropOp35
 70
     1
102
RTVSPost2010Prop36
280
     0
102
RTVSPost2010PropOp36
 70
     1
102
RTVSPost2010Prop37
 90
       50
102
RTVSPost2010PropOp37
 70
     1
102
RTVSPost2010Prop38
140
0.0
102
RTVSPost2010PropOp38
 70
     1
102
RTVSPost2010Prop39
140
1.0
102
RTVSPost2010PropOp39
 70
     1
102
RTVSPost2010Prop40
 90
        0
102
RTVSPost2010PropOp40
 70
     1
102
RTVSPost2010Prop41ColorIndex
 90
       18
102
RTVSPost2010Prop41ColorRGB
 90
        0
102
RTVSPost2010PropOp41
 70
     1
102
RTVSPost2010Prop42
 90
       50
102
RTVSPost2010PropOp42
 70
     1
102
RTVSPost2010Prop43
 90
        3
102
RTVSPost2010PropOp43
 70
     1
102
RTVSPost2010Prop44ColorIndex
 90
        5
102
RTVSPost2010Prop44ColorRGB
 90
      255
102
RTVSPost2010PropOp44
 70
     1
102
RTVSPost2010Prop45
280
     0
102
RTVSPost2010PropOp45
 70
     1
102
RTVSPost2010Prop46
 90
       50
102
RTVSPost2010PropOp46
 70
     1
102
RTVSPost2010Prop47
 90
       50
102
RTVSPost2010PropOp47
 70
     1
102
RTVSPost2010Prop48
 90
       50
102
RTVSPost2010PropOp48
 70
     1
102
RTVSPost2010Prop49
280
     0
102
RTVSPost2010PropOp49
 70
     1
102
RTVSPost2010Prop50
 90
       50
102
RTVSPost2010PropOp50
 70
     1
102
RTVSPost2010Prop51ColorIndex
 90
      256
102
RTVSPost2010Prop51ColorRGB
 90
-16777216
102
RTVSPost2010PropOp51
 70
     0
102
RTVSPost2010Prop52
140
1.0
102
RTVSPost2010PropOp52
 70
     0
102
RTVSPost2010Prop53
 90
        2
102
RTVSPost2010PropOp53
 70
     1
102
RTVSPost2010Prop54
  1
strokes_ogs.tif
102
RTVSPost2010PropOp54
 70
     1
102
RTVSPost2010Prop55
280
     0
102
RTVSPost2010PropOp55
 70
     1
102
RTVSPost2010Prop56
140
1.0
102
RTVSPost2010PropOp56
 70
     1
102
RTVSPost2010Prop57
140
1.0
102
RTVSPost2010PropOp57
 70
     1
102
RTVSPropertyOp0
 70
     1
102
RTVSPropertyOp1
 70
     1
102
RTVSPropertyOp2
 70
     1
102
RTVSPropertyOp3
 70
     1
102
RTVSPropertyOp4
 70
     1
102
RTVSPropertyOp5
 70
     1
102
RTVSPropertyOp6
 70
     1
102
RTVSPropertyOp7
 70
     1
102
RTVSPropertyOp8
 70
     1
102
RTVSPropertyOp9
 70
     1
102
RTVSPropertyOp10
 70
     1
102
RTVSPropertyOp11
 70
     1
102
RTVSPropertyOp12
 70
     1
102
RTVSPropertyOp13
 70
     1
102
RTVSPropertyOp14
 70
     1
102
RTVSPropertyOp15
 70
     1
102
RTVSPropertyOp16
 70
     1
102
RTVSPropertyOp17
 70
     1
102
RTVSPropertyOp18
 70
     1
102
RTVSPropertyOp19
 70
     1
102
RTVSPropertyOp20
 70
     1
102
RTVSPropertyOp21
 70
     1
102
RTVSPropertyOp22
 70
     1
102
RTVSPropertyOp23
 70
     1
102
RTVSPropertyOp24
 70
     1
102
RTVSPropertyOp25
 70
     1
102
RTVSPropertyOp26
 70
     1
102
RTVSPropertyOp27
 70
     1
102
RTVSPropertyOp28
 70
     1
102
RTVSPropertyOp29
 70
     1
102
RTVSPropertyOp30
 70
     1
102
RTVSPropertyOp31
 70
     1
102
RTVSPropertyOp32
 70
     1
102
RTVSPropertyOp33
 70
     1
102
RTVSPropertyOp34
 70
     1
102
RTVSPropertyOp35
 70
     1
102
RTVSPropertyOp36
 70
     1
102
RTVSPropertyOp37
 70
     1
102
RTVSPropertyOp38
 70
     1
102
RTVSPropertyOp39
 70
     1
102
RTVSPropertyOp40
 70
     1
102
RTVSPropertyOp41
 70
     1
102
RTVSPropertyOp42
 70
     1
102
RTVSPropertyOp43
 70
     1
102
RTVSPropertyOp44
 70
     1
102
RTVSPropertyOp45
 70
     1
102
RTVSPropertyOp46
 70
     1
102
RTVSPropertyOp47
 70
     1
102
RTVSPropertyOp48
 70
     1
102
RTVSPropertyOp49
 70
     1
102
RTVSPropertyOp50
 70
     1
102
RTVSPropertyOp51
 70
     0
102
RTVSPropertyOp52
 70
     0
102
RTVSPropertyOp53
 70
     1
102
RTVSPropertyOp54
 70
     1
102
RTVSPropertyOp55
 70
     1
102
RTVSPropertyOp56
 70
     1
102
RTVSPropertyOp57
 70
     1
102
RTVSPropertyOp58
 70
     1
102
RTVSPropertyOp59
 70
     1
102
RTVSPropertyOp60
 70
     1
102
RTVSPropertyOp61
 70
     1
102
RTVSPropertyOp62
 70
     1
  0
XRECORD
  5
2B6
102
{ACAD_REACTORS
330
2B5
102
}
330
2B5
100
AcDbXrecord
280
     1
102
RTVSPost2010Prop28
280
     0
102
RTVSPost2010PropOp28
 70
     1
102
RTVSPost2010Prop29
280
     1
102
RTVSPost2010PropOp29
 70
     1
102
RTVSPost2010Prop30
280
     1
102
RTVSPost2010PropOp30
 70
     1
102
RTVSPost2010Prop31
280
     0
102
RTVSPost2010PropOp31
 70
     1
102
RTVSPost2010Prop32
280
     0
102
RTVSPost2010PropOp32
 70
     1
102
RTVSPost2010Prop33
280
     0
102
RTVSPost2010PropOp33
 70
     1
102
RTVSPost2010Prop34
280
     0
102
RTVSPost2010PropOp34
 70
     1
102
RTVSPost2010Prop35
280
     0
102
RTVSPost2010PropOp35
 70
     1
102
RTVSPost2010Prop36
280
     0
102
RTVSPost2010PropOp36
 70
     1
102
RTVSPost2010Prop37
 90
       50
102
RTVSPost2010PropOp37
 70
     1
102
RTVSPost2010Prop38
140
0.0
102
RTVSPost2010PropOp38
 70
     1
102
RTVSPost2010Prop39
140
1.0
102
RTVSPost2010PropOp39
 70
     1
102
RTVSPost2010Prop40
 90
        0
102
RTVSPost2010PropOp40
 70
     1
102
RTVSPost2010Prop41ColorIndex
 90
       18
102
RTVSPost2010Prop41ColorRGB
 90
        0
102
RTVSPost2010PropOp41
 70
     1
102
RTVSPost2010Prop42
 90
       50
102
RTVSPost2010PropOp42
 70
     1
102
RTVSPost2010Prop43
 90
        3
102
RTVSPost2010PropOp43
 70
     1
102
RTVSPost2010Prop44ColorIndex
 90
        5
102
RTVSPost2010Prop44ColorRGB
 90
      255
102
RTVSPost2010PropOp44
 70
     1
102
RTVSPost2010Prop45
280
     0
102
RTVSPost2010PropOp45
 70
     1
102
RTVSPost2010Prop46
 90
       50
102
RTVSPost2010PropOp46
 70
     1
102
RTVSPost2010Prop47
 90
       50
102
RTVSPost2010PropOp47
 70
     1
102
RTVSPost2010Prop48
 90
       50
102
RTVSPost2010PropOp48
 70
     1
102
RTVSPost2010Prop49
280
     0
102
RTVSPost2010PropOp49
 70
     1
102
RTVSPost2010Prop50
 90
       50
102
RTVSPost2010PropOp50
 70
     1
102
RTVSPost2010Prop51ColorIndex
 90
      256
102
RTVSPost2010Prop51ColorRGB
 90
-16777216
102
RTVSPost2010PropOp51
 70
     0
102
RTVSPost2010Prop52
140
1.0
102
RTVSPost2010PropOp52
 70
     0
102
RTVSPost2010Prop53
 90
        2
102
RTVSPost2010PropOp53
 70
     1
102
RTVSPost2010Prop54
  1
strokes_ogs.tif
102
RTVSPost2010PropOp54
 70
     1
102
RTVSPost2010Prop55
280
     0
102
RTVSPost2010PropOp55
 70
     1
102
RTVSPost2010Prop56
140
1.0
102
RTVSPost2010PropOp56
 70
     1
102
RTVSPost2010Prop57
140
1.0
102
RTVSPost2010PropOp57
 70
     1
102
RTVSPropertyOp0
 70
     1
102
RTVSPropertyOp1
 70
     1
102
RTVSPropertyOp2
 70
     1
102
RTVSPropertyOp3
 70
     1
102
RTVSPropertyOp4
 70
     1
102
RTVSPropertyOp5
 70
     1
102
RTVSPropertyOp6
 70
     1
102
RTVSPropertyOp7
 70
     1
102
RTVSPropertyOp8
 70
     1
102
RTVSPropertyOp9
 70
     1
102
RTVSPropertyOp10
 70
     1
102
RTVSPropertyOp11
 70
     1
102
RTVSPropertyOp12
 70
     1
102
RTVSPropertyOp13
 70
     1
102
RTVSPropertyOp14
 70
     1
102
RTVSPropertyOp15
 70
     1
102
RTVSPropertyOp16
 70
     1
102
RTVSPropertyOp17
 70
     1
102
RTVSPropertyOp18
 70
     1
102
RTVSPropertyOp19
 70
     1
102
RTVSPropertyOp20
 70
     1
102
RTVSPropertyOp21
 70
     1
102
RTVSPropertyOp22
 70
     1
102
RTVSPropertyOp23
 70
     1
102
RTVSPropertyOp24
 70
     1
102
RTVSPropertyOp25
 70
     1
102
RTVSPropertyOp26
 70
     1
102
RTVSPropertyOp27
 70
     1
102
RTVSPropertyOp28
 70
     1
102
RTVSPropertyOp29
 70
     1
102
RTVSPropertyOp30
 70
     1
102
RTVSPropertyOp31
 70
     1
102
RTVSPropertyOp32
 70
     1
102
RTVSPropertyOp33
 70
     1
102
RTVSPropertyOp34
 70
     1
102
RTVSPropertyOp35
 70
     1
102
RTVSPropertyOp36
 70
     1
102
RTVSPropertyOp37
 70
     1
102
RTVSPropertyOp38
 70
     1
102
RTVSPropertyOp39
 70
     1
102
RTVSPropertyOp40
 70
     1
102
RTVSPropertyOp41
 70
     1
102
RTVSPropertyOp42
 70
     1
102
RTVSPropertyOp43
 70
     1
102
RTVSPropertyOp44
 70
     1
102
RTVSPropertyOp45
 70
     1
102
RTVSPropertyOp46
 70
     1
102
RTVSPropertyOp47
 70
     1
102
RTVSPropertyOp48
 70
     1
102
RTVSPropertyOp49
 70
     1
102
RTVSPropertyOp50
 70
     1
102
RTVSPropertyOp51
 70
     0
102
RTVSPropertyOp52
 70
     0
102
RTVSPropertyOp53
 70
     1
102
RTVSPropertyOp54
 70
     1
102
RTVSPropertyOp55
 70
     1
102
RTVSPropertyOp56
 70
     1
102
RTVSPropertyOp57
 70
     1
102
RTVSPropertyOp58
 70
     1
102
RTVSPropertyOp59
 70
     1
102
RTVSPropertyOp60
 70
     1
102
RTVSPropertyOp61
 70
     1
102
RTVSPropertyOp62
 70
     1
  0
XRECORD
  5
2B4
102
{ACAD_REACTORS
330
2B3
102
}
330
2B3
100
AcDbXrecord
280
     1
102
RTVSPost2010Prop28
280
     0
102
RTVSPost2010PropOp28
 70
     1
102
RTVSPost2010Prop29
280
     1
102
RTVSPost2010PropOp29
 70
     1
102
RTVSPost2010Prop30
280
     1
102
RTVSPost2010PropOp30
 70
     1
102
RTVSPost2010Prop31
280
     0
102
RTVSPost2010PropOp31
 70
     1
102
RTVSPost2010Prop32
280
     0
102
RTVSPost2010PropOp32
 70
     1
102
RTVSPost2010Prop33
280
     0
102
RTVSPost2010PropOp33
 70
     1
102
RTVSPost2010Prop34
280
     0
102
RTVSPost2010PropOp34
 70
     1
102
RTVSPost2010Prop35
280
     0
102
RTVSPost2010PropOp35
 70
     1
102
RTVSPost2010Prop36
280
     0
102
RTVSPost2010PropOp36
 70
     1
102
RTVSPost2010Prop37
 90
       50
102
RTVSPost2010PropOp37
 70
     1
102
RTVSPost2010Prop38
140
0.0
102
RTVSPost2010PropOp38
 70
     1
102
RTVSPost2010Prop39
140
1.0
102
RTVSPost2010PropOp39
 70
     1
102
RTVSPost2010Prop40
 90
        0
102
RTVSPost2010PropOp40
 70
     1
102
RTVSPost2010Prop41ColorIndex
 90
       18
102
RTVSPost2010Prop41ColorRGB
 90
        0
102
RTVSPost2010PropOp41
 70
     1
102
RTVSPost2010Prop42
 90
       50
102
RTVSPost2010PropOp42
 70
     1
102
RTVSPost2010Prop43
 90
        3
102
RTVSPost2010PropOp43
 70
     1
102
RTVSPost2010Prop44ColorIndex
 90
        5
102
RTVSPost2010Prop44ColorRGB
 90
      255
102
RTVSPost2010PropOp44
 70
     1
102
RTVSPost2010Prop45
280
     0
102
RTVSPost2010PropOp45
 70
     1
102
RTVSPost2010Prop46
 90
       50
102
RTVSPost2010PropOp46
 70
     1
102
RTVSPost2010Prop47
 90
       50
102
RTVSPost2010PropOp47
 70
     1
102
RTVSPost2010Prop48
 90
       50
102
RTVSPost2010PropOp48
 70
     1
102
RTVSPost2010Prop49
280
     0
102
RTVSPost2010PropOp49
 70
     1
102
RTVSPost2010Prop50
 90
       50
102
RTVSPost2010PropOp50
 70
     1
102
RTVSPost2010Prop51ColorIndex
 90
      256
102
RTVSPost2010Prop51ColorRGB
 90
-16777216
102
RTVSPost2010PropOp51
 70
     0
102
RTVSPost2010Prop52
140
1.0
102
RTVSPost2010PropOp52
 70
     0
102
RTVSPost2010Prop53
 90
        2
102
RTVSPost2010PropOp53
 70
     1
102
RTVSPost2010Prop54
  1
strokes_ogs.tif
102
RTVSPost2010PropOp54
 70
     1
102
RTVSPost2010Prop55
280
     0
102
RTVSPost2010PropOp55
 70
     1
102
RTVSPost2010Prop56
140
1.0
102
RTVSPost2010PropOp56
 70
     1
102
RTVSPost2010Prop57
140
1.0
102
RTVSPost2010PropOp57
 70
     1
102
RTVSPropertyOp0
 70
     1
102
RTVSPropertyOp1
 70
     1
102
RTVSPropertyOp2
 70
     1
102
RTVSPropertyOp3
 70
     1
102
RTVSPropertyOp4
 70
     1
102
RTVSPropertyOp5
 70
     1
102
RTVSPropertyOp6
 70
     1
102
RTVSPropertyOp7
 70
     1
102
RTVSPropertyOp8
 70
     1
102
RTVSPropertyOp9
 70
     1
102
RTVSPropertyOp10
 70
     1
102
RTVSPropertyOp11
 70
     1
102
RTVSPropertyOp12
 70
     1
102
RTVSPropertyOp13
 70
     1
102
RTVSPropertyOp14
 70
     1
102
RTVSPropertyOp15
 70
     1
102
RTVSPropertyOp16
 70
     1
102
RTVSPropertyOp17
 70
     1
102
RTVSPropertyOp18
 70
     1
102
RTVSPropertyOp19
 70
     1
102
RTVSPropertyOp20
 70
     1
102
RTVSPropertyOp21
 70
     1
102
RTVSPropertyOp22
 70
     1
102
RTVSPropertyOp23
 70
     1
102
RTVSPropertyOp24
 70
     1
102
RTVSPropertyOp25
 70
     1
102
RTVSPropertyOp26
 70
     1
102
RTVSPropertyOp27
 70
     1
102
RTVSPropertyOp28
 70
     1
102
RTVSPropertyOp29
 70
     1
102
RTVSPropertyOp30
 70
     1
102
RTVSPropertyOp31
 70
     1
102
RTVSPropertyOp32
 70
     1
102
RTVSPropertyOp33
 70
     1
102
RTVSPropertyOp34
 70
     1
102
RTVSPropertyOp35
 70
     1
102
RTVSPropertyOp36
 70
     1
102
RTVSPropertyOp37
 70
     1
102
RTVSPropertyOp38
 70
     1
102
RTVSPropertyOp39
 70
     1
102
RTVSPropertyOp40
 70
     1
102
RTVSPropertyOp41
 70
     1
102
RTVSPropertyOp42
 70
     1
102
RTVSPropertyOp43
 70
     1
102
RTVSPropertyOp44
 70
     1
102
RTVSPropertyOp45
 70
     1
102
RTVSPropertyOp46
 70
     1
102
RTVSPropertyOp47
 70
     1
102
RTVSPropertyOp48
 70
     1
102
RTVSPropertyOp49
 70
     1
102
RTVSPropertyOp50
 70
     1
102
RTVSPropertyOp51
 70
     0
102
RTVSPropertyOp52
 70
     0
102
RTVSPropertyOp53
 70
     1
102
RTVSPropertyOp54
 70
     1
102
RTVSPropertyOp55
 70
     1
102
RTVSPropertyOp56
 70
     1
102
RTVSPropertyOp57
 70
     1
102
RTVSPropertyOp58
 70
     1
102
RTVSPropertyOp59
 70
     1
102
RTVSPropertyOp60
 70
     1
102
RTVSPropertyOp61
 70
     1
102
RTVSPropertyOp62
 70
     1
  0
XRECORD
  5
2AE
102
{ACAD_REACTORS
330
2AD
102
}
330
2AD
100
AcDbXrecord
280
     1
102
RTVSPost2010Prop28
280
     0
102
RTVSPost2010PropOp28
 70
     1
102
RTVSPost2010Prop29
280
     1
102
RTVSPost2010PropOp29
 70
     1
102
RTVSPost2010Prop30
280
     1
102
RTVSPost2010PropOp30
 70
     1
102
RTVSPost2010Prop31
280
     0
102
RTVSPost2010PropOp31
 70
     1
102
RTVSPost2010Prop32
280
     0
102
RTVSPost2010PropOp32
 70
     1
102
RTVSPost2010Prop33
280
     0
102
RTVSPost2010PropOp33
 70
     1
102
RTVSPost2010Prop34
280
     0
102
RTVSPost2010PropOp34
 70
     1
102
RTVSPost2010Prop35
280
     0
102
RTVSPost2010PropOp35
 70
     1
102
RTVSPost2010Prop36
280
     0
102
RTVSPost2010PropOp36
 70
     1
102
RTVSPost2010Prop37
 90
       50
102
RTVSPost2010PropOp37
 70
     1
102
RTVSPost2010Prop38
140
0.0
102
RTVSPost2010PropOp38
 70
     1
102
RTVSPost2010Prop39
140
1.0
102
RTVSPost2010PropOp39
 70
     1
102
RTVSPost2010Prop40
 90
        0
102
RTVSPost2010PropOp40
 70
     1
102
RTVSPost2010Prop41ColorIndex
 90
       18
102
RTVSPost2010Prop41ColorRGB
 90
        0
102
RTVSPost2010PropOp41
 70
     1
102
RTVSPost2010Prop42
 90
       50
102
RTVSPost2010PropOp42
 70
     1
102
RTVSPost2010Prop43
 90
        3
102
RTVSPost2010PropOp43
 70
     1
102
RTVSPost2010Prop44ColorIndex
 90
        5
102
RTVSPost2010Prop44ColorRGB
 90
      255
102
RTVSPost2010PropOp44
 70
     1
102
RTVSPost2010Prop45
280
     0
102
RTVSPost2010PropOp45
 70
     1
102
RTVSPost2010Prop46
 90
       50
102
RTVSPost2010PropOp46
 70
     1
102
RTVSPost2010Prop47
 90
       50
102
RTVSPost2010PropOp47
 70
     1
102
RTVSPost2010Prop48
 90
       50
102
RTVSPost2010PropOp48
 70
     1
102
RTVSPost2010Prop49
280
     0
102
RTVSPost2010PropOp49
 70
     1
102
RTVSPost2010Prop50
 90
       50
102
RTVSPost2010PropOp50
 70
     1
102
RTVSPost2010Prop51ColorIndex
 90
      256
102
RTVSPost2010Prop51ColorRGB
 90
-16777216
102
RTVSPost2010PropOp51
 70
     0
102
RTVSPost2010Prop52
140
1.0
102
RTVSPost2010PropOp52
 70
     0
102
RTVSPost2010Prop53
 90
        2
102
RTVSPost2010PropOp53
 70
     1
102
RTVSPost2010Prop54
  1
strokes_ogs.tif
102
RTVSPost2010PropOp54
 70
     1
102
RTVSPost2010Prop55
280
     0
102
RTVSPost2010PropOp55
 70
     1
102
RTVSPost2010Prop56
140
1.0
102
RTVSPost2010PropOp56
 70
     1
102
RTVSPost2010Prop57
140
1.0
102
RTVSPost2010PropOp57
 70
     1
102
RTVSPropertyOp0
 70
     1
102
RTVSPropertyOp1
 70
     1
102
RTVSPropertyOp2
 70
     1
102
RTVSPropertyOp3
 70
     1
102
RTVSPropertyOp4
 70
     1
102
RTVSPropertyOp5
 70
     1
102
RTVSPropertyOp6
 70
     1
102
RTVSPropertyOp7
 70
     1
102
RTVSPropertyOp8
 70
     1
102
RTVSPropertyOp9
 70
     1
102
RTVSPropertyOp10
 70
     1
102
RTVSPropertyOp11
 70
     1
102
RTVSPropertyOp12
 70
     1
102
RTVSPropertyOp13
 70
     1
102
RTVSPropertyOp14
 70
     1
102
RTVSPropertyOp15
 70
     1
102
RTVSPropertyOp16
 70
     1
102
RTVSPropertyOp17
 70
     1
102
RTVSPropertyOp18
 70
     1
102
RTVSPropertyOp19
 70
     1
102
RTVSPropertyOp20
 70
     1
102
RTVSPropertyOp21
 70
     1
102
RTVSPropertyOp22
 70
     1
102
RTVSPropertyOp23
 70
     1
102
RTVSPropertyOp24
 70
     1
102
RTVSPropertyOp25
 70
     1
102
RTVSPropertyOp26
 70
     1
102
RTVSPropertyOp27
 70
     1
102
RTVSPropertyOp28
 70
     1
102
RTVSPropertyOp29
 70
     1
102
RTVSPropertyOp30
 70
     1
102
RTVSPropertyOp31
 70
     1
102
RTVSPropertyOp32
 70
     1
102
RTVSPropertyOp33
 70
     1
102
RTVSPropertyOp34
 70
     1
102
RTVSPropertyOp35
 70
     1
102
RTVSPropertyOp36
 70
     1
102
RTVSPropertyOp37
 70
     1
102
RTVSPropertyOp38
 70
     1
102
RTVSPropertyOp39
 70
     1
102
RTVSPropertyOp40
 70
     1
102
RTVSPropertyOp41
 70
     1
102
RTVSPropertyOp42
 70
     1
102
RTVSPropertyOp43
 70
     1
102
RTVSPropertyOp44
 70
     1
102
RTVSPropertyOp45
 70
     1
102
RTVSPropertyOp46
 70
     1
102
RTVSPropertyOp47
 70
     1
102
RTVSPropertyOp48
 70
     1
102
RTVSPropertyOp49
 70
     1
102
RTVSPropertyOp50
 70
     1
102
RTVSPropertyOp51
 70
     0
102
RTVSPropertyOp52
 70
     0
102
RTVSPropertyOp53
 70
     1
102
RTVSPropertyOp54
 70
     1
102
RTVSPropertyOp55
 70
     1
102
RTVSPropertyOp56
 70
     1
102
RTVSPropertyOp57
 70
     1
102
RTVSPropertyOp58
 70
     1
102
RTVSPropertyOp59
 70
     1
102
RTVSPropertyOp60
 70
     1
102
RTVSPropertyOp61
 70
     1
102
RTVSPropertyOp62
 70
     1
  0
XRECORD
  5
2B0
102
{ACAD_REACTORS
330
2AF
102
}
330
2AF
100
AcDbXrecord
280
     1
102
RTVSPost2010Prop28
280
     0
102
RTVSPost2010PropOp28
 70
     1
102
RTVSPost2010Prop29
280
     1
102
RTVSPost2010PropOp29
 70
     1
102
RTVSPost2010Prop30
280
     1
102
RTVSPost2010PropOp30
 70
     1
102
RTVSPost2010Prop31
280
     0
102
RTVSPost2010PropOp31
 70
     1
102
RTVSPost2010Prop32
280
     0
102
RTVSPost2010PropOp32
 70
     1
102
RTVSPost2010Prop33
280
     0
102
RTVSPost2010PropOp33
 70
     1
102
RTVSPost2010Prop34
280
     0
102
RTVSPost2010PropOp34
 70
     1
102
RTVSPost2010Prop35
280
     0
102
RTVSPost2010PropOp35
 70
     1
102
RTVSPost2010Prop36
280
     0
102
RTVSPost2010PropOp36
 70
     1
102
RTVSPost2010Prop37
 90
       50
102
RTVSPost2010PropOp37
 70
     1
102
RTVSPost2010Prop38
140
0.0
102
RTVSPost2010PropOp38
 70
     1
102
RTVSPost2010Prop39
140
1.0
102
RTVSPost2010PropOp39
 70
     1
102
RTVSPost2010Prop40
 90
        0
102
RTVSPost2010PropOp40
 70
     1
102
RTVSPost2010Prop41ColorIndex
 90
       18
102
RTVSPost2010Prop41ColorRGB
 90
        0
102
RTVSPost2010PropOp41
 70
     1
102
RTVSPost2010Prop42
 90
       50
102
RTVSPost2010PropOp42
 70
     1
102
RTVSPost2010Prop43
 90
        3
102
RTVSPost2010PropOp43
 70
     1
102
RTVSPost2010Prop44ColorIndex
 90
        5
102
RTVSPost2010Prop44ColorRGB
 90
      255
102
RTVSPost2010PropOp44
 70
     1
102
RTVSPost2010Prop45
280
     0
102
RTVSPost2010PropOp45
 70
     1
102
RTVSPost2010Prop46
 90
       50
102
RTVSPost2010PropOp46
 70
     1
102
RTVSPost2010Prop47
 90
       50
102
RTVSPost2010PropOp47
 70
     1
102
RTVSPost2010Prop48
 90
       50
102
RTVSPost2010PropOp48
 70
     1
102
RTVSPost2010Prop49
280
     0
102
RTVSPost2010PropOp49
 70
     1
102
RTVSPost2010Prop50
 90
       50
102
RTVSPost2010PropOp50
 70
     1
102
RTVSPost2010Prop51ColorIndex
 90
      256
102
RTVSPost2010Prop51ColorRGB
 90
-16777216
102
RTVSPost2010PropOp51
 70
     0
102
RTVSPost2010Prop52
140
1.0
102
RTVSPost2010PropOp52
 70
     0
102
RTVSPost2010Prop53
 90
        2
102
RTVSPost2010PropOp53
 70
     1
102
RTVSPost2010Prop54
  1
strokes_ogs.tif
102
RTVSPost2010PropOp54
 70
     1
102
RTVSPost2010Prop55
280
     0
102
RTVSPost2010PropOp55
 70
     1
102
RTVSPost2010Prop56
140
1.0
102
RTVSPost2010PropOp56
 70
     1
102
RTVSPost2010Prop57
140
1.0
102
RTVSPost2010PropOp57
 70
     1
102
RTVSPropertyOp0
 70
     1
102
RTVSPropertyOp1
 70
     1
102
RTVSPropertyOp2
 70
     1
102
RTVSPropertyOp3
 70
     1
102
RTVSPropertyOp4
 70
     1
102
RTVSPropertyOp5
 70
     1
102
RTVSPropertyOp6
 70
     1
102
RTVSPropertyOp7
 70
     1
102
RTVSPropertyOp8
 70
     1
102
RTVSPropertyOp9
 70
     1
102
RTVSPropertyOp10
 70
     1
102
RTVSPropertyOp11
 70
     1
102
RTVSPropertyOp12
 70
     1
102
RTVSPropertyOp13
 70
     1
102
RTVSPropertyOp14
 70
     1
102
RTVSPropertyOp15
 70
     1
102
RTVSPropertyOp16
 70
     1
102
RTVSPropertyOp17
 70
     1
102
RTVSPropertyOp18
 70
     1
102
RTVSPropertyOp19
 70
     1
102
RTVSPropertyOp20
 70
     1
102
RTVSPropertyOp21
 70
     1
102
RTVSPropertyOp22
 70
     1
102
RTVSPropertyOp23
 70
     1
102
RTVSPropertyOp24
 70
     1
102
RTVSPropertyOp25
 70
     1
102
RTVSPropertyOp26
 70
     1
102
RTVSPropertyOp27
 70
     1
102
RTVSPropertyOp28
 70
     1
102
RTVSPropertyOp29
 70
     1
102
RTVSPropertyOp30
 70
     1
102
RTVSPropertyOp31
 70
     1
102
RTVSPropertyOp32
 70
     1
102
RTVSPropertyOp33
 70
     1
102
RTVSPropertyOp34
 70
     1
102
RTVSPropertyOp35
 70
     1
102
RTVSPropertyOp36
 70
     1
102
RTVSPropertyOp37
 70
     1
102
RTVSPropertyOp38
 70
     1
102
RTVSPropertyOp39
 70
     1
102
RTVSPropertyOp40
 70
     1
102
RTVSPropertyOp41
 70
     1
102
RTVSPropertyOp42
 70
     1
102
RTVSPropertyOp43
 70
     1
102
RTVSPropertyOp44
 70
     1
102
RTVSPropertyOp45
 70
     1
102
RTVSPropertyOp46
 70
     1
102
RTVSPropertyOp47
 70
     1
102
RTVSPropertyOp48
 70
     1
102
RTVSPropertyOp49
 70
     1
102
RTVSPropertyOp50
 70
     1
102
RTVSPropertyOp51
 70
     0
102
RTVSPropertyOp52
 70
     0
102
RTVSPropertyOp53
 70
     1
102
RTVSPropertyOp54
 70
     1
102
RTVSPropertyOp55
 70
     1
102
RTVSPropertyOp56
 70
     1
102
RTVSPropertyOp57
 70
     1
102
RTVSPropertyOp58
 70
     1
102
RTVSPropertyOp59
 70
     1
102
RTVSPropertyOp60
 70
     1
102
RTVSPropertyOp61
 70
     1
102
RTVSPropertyOp62
 70
     1
  0
XRECORD
  5
2A6
102
{ACAD_REACTORS
330
2A5
102
}
330
2A5
100
AcDbXrecord
280
     1
102
RTVSPost2010Prop28
280
     0
102
RTVSPost2010PropOp28
 70
     1
102
RTVSPost2010Prop29
280
     1
102
RTVSPost2010PropOp29
 70
     1
102
RTVSPost2010Prop30
280
     1
102
RTVSPost2010PropOp30
 70
     1
102
RTVSPost2010Prop31
280
     0
102
RTVSPost2010PropOp31
 70
     1
102
RTVSPost2010Prop32
280
     0
102
RTVSPost2010PropOp32
 70
     1
102
RTVSPost2010Prop33
280
     0
102
RTVSPost2010PropOp33
 70
     1
102
RTVSPost2010Prop34
280
     0
102
RTVSPost2010PropOp34
 70
     1
102
RTVSPost2010Prop35
280
     0
102
RTVSPost2010PropOp35
 70
     1
102
RTVSPost2010Prop36
280
     0
102
RTVSPost2010PropOp36
 70
     1
102
RTVSPost2010Prop37
 90
       50
102
RTVSPost2010PropOp37
 70
     1
102
RTVSPost2010Prop38
140
0.0
102
RTVSPost2010PropOp38
 70
     1
102
RTVSPost2010Prop39
140
1.0
102
RTVSPost2010PropOp39
 70
     1
102
RTVSPost2010Prop40
 90
        0
102
RTVSPost2010PropOp40
 70
     1
102
RTVSPost2010Prop41ColorIndex
 90
       18
102
RTVSPost2010Prop41ColorRGB
 90
        0
102
RTVSPost2010PropOp41
 70
     1
102
RTVSPost2010Prop42
 90
       50
102
RTVSPost2010PropOp42
 70
     1
102
RTVSPost2010Prop43
 90
        3
102
RTVSPost2010PropOp43
 70
     1
102
RTVSPost2010Prop44ColorIndex
 90
        5
102
RTVSPost2010Prop44ColorRGB
 90
      255
102
RTVSPost2010PropOp44
 70
     1
102
RTVSPost2010Prop45
280
     0
102
RTVSPost2010PropOp45
 70
     1
102
RTVSPost2010Prop46
 90
       50
102
RTVSPost2010PropOp46
 70
     1
102
RTVSPost2010Prop47
 90
       50
102
RTVSPost2010PropOp47
 70
     1
102
RTVSPost2010Prop48
 90
       50
102
RTVSPost2010PropOp48
 70
     1
102
RTVSPost2010Prop49
280
     0
102
RTVSPost2010PropOp49
 70
     1
102
RTVSPost2010Prop50
 90
       50
102
RTVSPost2010PropOp50
 70
     1
102
RTVSPost2010Prop51ColorIndex
 90
      256
102
RTVSPost2010Prop51ColorRGB
 90
-16777216
102
RTVSPost2010PropOp51
 70
     0
102
RTVSPost2010Prop52
140
1.0
102
RTVSPost2010PropOp52
 70
     0
102
RTVSPost2010Prop53
 90
        2
102
RTVSPost2010PropOp53
 70
     1
102
RTVSPost2010Prop54
  1
strokes_ogs.tif
102
RTVSPost2010PropOp54
 70
     1
102
RTVSPost2010Prop55
280
     0
102
RTVSPost2010PropOp55
 70
     1
102
RTVSPost2010Prop56
140
1.0
102
RTVSPost2010PropOp56
 70
     1
102
RTVSPost2010Prop57
140
1.0
102
RTVSPost2010PropOp57
 70
     1
102
RTVSPropertyOp0
 70
     1
102
RTVSPropertyOp1
 70
     1
102
RTVSPropertyOp2
 70
     1
102
RTVSPropertyOp3
 70
     1
102
RTVSPropertyOp4
 70
     1
102
RTVSPropertyOp5
 70
     1
102
RTVSPropertyOp6
 70
     1
102
RTVSPropertyOp7
 70
     1
102
RTVSPropertyOp8
 70
     1
102
RTVSPropertyOp9
 70
     1
102
RTVSPropertyOp10
 70
     1
102
RTVSPropertyOp11
 70
     1
102
RTVSPropertyOp12
 70
     1
102
RTVSPropertyOp13
 70
     1
102
RTVSPropertyOp14
 70
     1
102
RTVSPropertyOp15
 70
     1
102
RTVSPropertyOp16
 70
     1
102
RTVSPropertyOp17
 70
     1
102
RTVSPropertyOp18
 70
     1
102
RTVSPropertyOp19
 70
     1
102
RTVSPropertyOp20
 70
     1
102
RTVSPropertyOp21
 70
     1
102
RTVSPropertyOp22
 70
     1
102
RTVSPropertyOp23
 70
     1
102
RTVSPropertyOp24
 70
     1
102
RTVSPropertyOp25
 70
     1
102
RTVSPropertyOp26
 70
     1
102
RTVSPropertyOp27
 70
     1
102
RTVSPropertyOp28
 70
     1
102
RTVSPropertyOp29
 70
     1
102
RTVSPropertyOp30
 70
     1
102
RTVSPropertyOp31
 70
     1
102
RTVSPropertyOp32
 70
     1
102
RTVSPropertyOp33
 70
     1
102
RTVSPropertyOp34
 70
     1
102
RTVSPropertyOp35
 70
     1
102
RTVSPropertyOp36
 70
     1
102
RTVSPropertyOp37
 70
     1
102
RTVSPropertyOp38
 70
     1
102
RTVSPropertyOp39
 70
     1
102
RTVSPropertyOp40
 70
     1
102
RTVSPropertyOp41
 70
     1
102
RTVSPropertyOp42
 70
     1
102
RTVSPropertyOp43
 70
     1
102
RTVSPropertyOp44
 70
     1
102
RTVSPropertyOp45
 70
     1
102
RTVSPropertyOp46
 70
     1
102
RTVSPropertyOp47
 70
     1
102
RTVSPropertyOp48
 70
     1
102
RTVSPropertyOp49
 70
     1
102
RTVSPropertyOp50
 70
     1
102
RTVSPropertyOp51
 70
     0
102
RTVSPropertyOp52
 70
     0
102
RTVSPropertyOp53
 70
     1
102
RTVSPropertyOp54
 70
     1
102
RTVSPropertyOp55
 70
     1
102
RTVSPropertyOp56
 70
     1
102
RTVSPropertyOp57
 70
     1
102
RTVSPropertyOp58
 70
     1
102
RTVSPropertyOp59
 70
     1
102
RTVSPropertyOp60
 70
     1
102
RTVSPropertyOp61
 70
     1
102
RTVSPropertyOp62
 70
     1
  0
XRECORD
  5
29A
102
{ACAD_REACTORS
330
299
102
}
330
299
100
AcDbXrecord
280
     1
102
RTVSPost2010Prop28
280
     0
102
RTVSPost2010PropOp28
 70
     1
102
RTVSPost2010Prop29
280
     1
102
RTVSPost2010PropOp29
 70
     1
102
RTVSPost2010Prop30
280
     1
102
RTVSPost2010PropOp30
 70
     1
102
RTVSPost2010Prop31
280
     0
102
RTVSPost2010PropOp31
 70
     1
102
RTVSPost2010Prop32
280
     0
102
RTVSPost2010PropOp32
 70
     1
102
RTVSPost2010Prop33
280
     0
102
RTVSPost2010PropOp33
 70
     1
102
RTVSPost2010Prop34
280
     0
102
RTVSPost2010PropOp34
 70
     1
102
RTVSPost2010Prop35
280
     0
102
RTVSPost2010PropOp35
 70
     1
102
RTVSPost2010Prop36
280
     0
102
RTVSPost2010PropOp36
 70
     1
102
RTVSPost2010Prop37
 90
       50
102
RTVSPost2010PropOp37
 70
     1
102
RTVSPost2010Prop38
140
0.0
102
RTVSPost2010PropOp38
 70
     1
102
RTVSPost2010Prop39
140
1.0
102
RTVSPost2010PropOp39
 70
     1
102
RTVSPost2010Prop40
 90
        0
102
RTVSPost2010PropOp40
 70
     1
102
RTVSPost2010Prop41ColorIndex
 90
       18
102
RTVSPost2010Prop41ColorRGB
 90
        0
102
RTVSPost2010PropOp41
 70
     1
102
RTVSPost2010Prop42
 90
       50
102
RTVSPost2010PropOp42
 70
     1
102
RTVSPost2010Prop43
 90
        3
102
RTVSPost2010PropOp43
 70
     1
102
RTVSPost2010Prop44ColorIndex
 90
        5
102
RTVSPost2010Prop44ColorRGB
 90
      255
102
RTVSPost2010PropOp44
 70
     1
102
RTVSPost2010Prop45
280
     0
102
RTVSPost2010PropOp45
 70
     1
102
RTVSPost2010Prop46
 90
       50
102
RTVSPost2010PropOp46
 70
     1
102
RTVSPost2010Prop47
 90
       50
102
RTVSPost2010PropOp47
 70
     1
102
RTVSPost2010Prop48
 90
       50
102
RTVSPost2010PropOp48
 70
     1
102
RTVSPost2010Prop49
280
     0
102
RTVSPost2010PropOp49
 70
     1
102
RTVSPost2010Prop50
 90
       50
102
RTVSPost2010PropOp50
 70
     1
102
RTVSPost2010Prop51ColorIndex
 90
      256
102
RTVSPost2010Prop51ColorRGB
 90
-16777216
102
RTVSPost2010PropOp51
 70
     0
102
RTVSPost2010Prop52
140
1.0
102
RTVSPost2010PropOp52
 70
     0
102
RTVSPost2010Prop53
 90
        2
102
RTVSPost2010PropOp53
 70
     1
102
RTVSPost2010Prop54
  1
strokes_ogs.tif
102
RTVSPost2010PropOp54
 70
     1
102
RTVSPost2010Prop55
280
     0
102
RTVSPost2010PropOp55
 70
     1
102
RTVSPost2010Prop56
140
1.0
102
RTVSPost2010PropOp56
 70
     1
102
RTVSPost2010Prop57
140
1.0
102
RTVSPost2010PropOp57
 70
     1
102
RTVSPropertyOp0
 70
     1
102
RTVSPropertyOp1
 70
     1
102
RTVSPropertyOp2
 70
     1
102
RTVSPropertyOp3
 70
     1
102
RTVSPropertyOp4
 70
     1
102
RTVSPropertyOp5
 70
     1
102
RTVSPropertyOp6
 70
     1
102
RTVSPropertyOp7
 70
     1
102
RTVSPropertyOp8
 70
     1
102
RTVSPropertyOp9
 70
     1
102
RTVSPropertyOp10
 70
     1
102
RTVSPropertyOp11
 70
     1
102
RTVSPropertyOp12
 70
     1
102
RTVSPropertyOp13
 70
     1
102
RTVSPropertyOp14
 70
     1
102
RTVSPropertyOp15
 70
     1
102
RTVSPropertyOp16
 70
     1
102
RTVSPropertyOp17
 70
     1
102
RTVSPropertyOp18
 70
     1
102
RTVSPropertyOp19
 70
     1
102
RTVSPropertyOp20
 70
     1
102
RTVSPropertyOp21
 70
     1
102
RTVSPropertyOp22
 70
     1
102
RTVSPropertyOp23
 70
     1
102
RTVSPropertyOp24
 70
     1
102
RTVSPropertyOp25
 70
     1
102
RTVSPropertyOp26
 70
     1
102
RTVSPropertyOp27
 70
     1
102
RTVSPropertyOp28
 70
     1
102
RTVSPropertyOp29
 70
     1
102
RTVSPropertyOp30
 70
     1
102
RTVSPropertyOp31
 70
     1
102
RTVSPropertyOp32
 70
     1
102
RTVSPropertyOp33
 70
     1
102
RTVSPropertyOp34
 70
     1
102
RTVSPropertyOp35
 70
     1
102
RTVSPropertyOp36
 70
     1
102
RTVSPropertyOp37
 70
     1
102
RTVSPropertyOp38
 70
     1
102
RTVSPropertyOp39
 70
     1
102
RTVSPropertyOp40
 70
     1
102
RTVSPropertyOp41
 70
     1
102
RTVSPropertyOp42
 70
     1
102
RTVSPropertyOp43
 70
     1
102
RTVSPropertyOp44
 70
     1
102
RTVSPropertyOp45
 70
     1
102
RTVSPropertyOp46
 70
     1
102
RTVSPropertyOp47
 70
     1
102
RTVSPropertyOp48
 70
     1
102
RTVSPropertyOp49
 70
     1
102
RTVSPropertyOp50
 70
     1
102
RTVSPropertyOp51
 70
     0
102
RTVSPropertyOp52
 70
     0
102
RTVSPropertyOp53
 70
     1
102
RTVSPropertyOp54
 70
     1
102
RTVSPropertyOp55
 70
     1
102
RTVSPropertyOp56
 70
     1
102
RTVSPropertyOp57
 70
     1
102
RTVSPropertyOp58
 70
     1
102
RTVSPropertyOp59
 70
     1
102
RTVSPropertyOp60
 70
     1
102
RTVSPropertyOp61
 70
     1
102
RTVSPropertyOp62
 70
     1
  0
XRECORD
  5
2B2
102
{ACAD_REACTORS
330
2B1
102
}
330
2B1
100
AcDbXrecord
280
     1
102
RTVSPost2010Prop28
280
     0
102
RTVSPost2010PropOp28
 70
     1
102
RTVSPost2010Prop29
280
     1
102
RTVSPost2010PropOp29
 70
     1
102
RTVSPost2010Prop30
280
     1
102
RTVSPost2010PropOp30
 70
     1
102
RTVSPost2010Prop31
280
     0
102
RTVSPost2010PropOp31
 70
     1
102
RTVSPost2010Prop32
280
     0
102
RTVSPost2010PropOp32
 70
     1
102
RTVSPost2010Prop33
280
     0
102
RTVSPost2010PropOp33
 70
     1
102
RTVSPost2010Prop34
280
     0
102
RTVSPost2010PropOp34
 70
     1
102
RTVSPost2010Prop35
280
     0
102
RTVSPost2010PropOp35
 70
     1
102
RTVSPost2010Prop36
280
     0
102
RTVSPost2010PropOp36
 70
     1
102
RTVSPost2010Prop37
 90
       50
102
RTVSPost2010PropOp37
 70
     1
102
RTVSPost2010Prop38
140
0.0
102
RTVSPost2010PropOp38
 70
     1
102
RTVSPost2010Prop39
140
1.0
102
RTVSPost2010PropOp39
 70
     1
102
RTVSPost2010Prop40
 90
        0
102
RTVSPost2010PropOp40
 70
     1
102
RTVSPost2010Prop41ColorIndex
 90
       18
102
RTVSPost2010Prop41ColorRGB
 90
        0
102
RTVSPost2010PropOp41
 70
     1
102
RTVSPost2010Prop42
 90
       50
102
RTVSPost2010PropOp42
 70
     1
102
RTVSPost2010Prop43
 90
        3
102
RTVSPost2010PropOp43
 70
     1
102
RTVSPost2010Prop44ColorIndex
 90
        5
102
RTVSPost2010Prop44ColorRGB
 90
      255
102
RTVSPost2010PropOp44
 70
     1
102
RTVSPost2010Prop45
280
     0
102
RTVSPost2010PropOp45
 70
     1
102
RTVSPost2010Prop46
 90
       50
102
RTVSPost2010PropOp46
 70
     1
102
RTVSPost2010Prop47
 90
       50
102
RTVSPost2010PropOp47
 70
     1
102
RTVSPost2010Prop48
 90
       50
102
RTVSPost2010PropOp48
 70
     1
102
RTVSPost2010Prop49
280
     0
102
RTVSPost2010PropOp49
 70
     1
102
RTVSPost2010Prop50
 90
       50
102
RTVSPost2010PropOp50
 70
     1
102
RTVSPost2010Prop51ColorIndex
 90
      256
102
RTVSPost2010Prop51ColorRGB
 90
-16777216
102
RTVSPost2010PropOp51
 70
     0
102
RTVSPost2010Prop52
140
1.0
102
RTVSPost2010PropOp52
 70
     0
102
RTVSPost2010Prop53
 90
        2
102
RTVSPost2010PropOp53
 70
     1
102
RTVSPost2010Prop54
  1
strokes_ogs.tif
102
RTVSPost2010PropOp54
 70
     1
102
RTVSPost2010Prop55
280
     0
102
RTVSPost2010PropOp55
 70
     1
102
RTVSPost2010Prop56
140
1.0
102
RTVSPost2010PropOp56
 70
     1
102
RTVSPost2010Prop57
140
1.0
102
RTVSPost2010PropOp57
 70
     1
102
RTVSPropertyOp0
 70
     1
102
RTVSPropertyOp1
 70
     1
102
RTVSPropertyOp2
 70
     1
102
RTVSPropertyOp3
 70
     1
102
RTVSPropertyOp4
 70
     1
102
RTVSPropertyOp5
 70
     1
102
RTVSPropertyOp6
 70
     1
102
RTVSPropertyOp7
 70
     1
102
RTVSPropertyOp8
 70
     1
102
RTVSPropertyOp9
 70
     1
102
RTVSPropertyOp10
 70
     1
102
RTVSPropertyOp11
 70
     1
102
RTVSPropertyOp12
 70
     1
102
RTVSPropertyOp13
 70
     1
102
RTVSPropertyOp14
 70
     1
102
RTVSPropertyOp15
 70
     1
102
RTVSPropertyOp16
 70
     1
102
RTVSPropertyOp17
 70
     1
102
RTVSPropertyOp18
 70
     1
102
RTVSPropertyOp19
 70
     1
102
RTVSPropertyOp20
 70
     1
102
RTVSPropertyOp21
 70
     1
102
RTVSPropertyOp22
 70
     1
102
RTVSPropertyOp23
 70
     1
102
RTVSPropertyOp24
 70
     1
102
RTVSPropertyOp25
 70
     1
102
RTVSPropertyOp26
 70
     1
102
RTVSPropertyOp27
 70
     1
102
RTVSPropertyOp28
 70
     1
102
RTVSPropertyOp29
 70
     1
102
RTVSPropertyOp30
 70
     1
102
RTVSPropertyOp31
 70
     1
102
RTVSPropertyOp32
 70
     1
102
RTVSPropertyOp33
 70
     1
102
RTVSPropertyOp34
 70
     1
102
RTVSPropertyOp35
 70
     1
102
RTVSPropertyOp36
 70
     1
102
RTVSPropertyOp37
 70
     1
102
RTVSPropertyOp38
 70
     1
102
RTVSPropertyOp39
 70
     1
102
RTVSPropertyOp40
 70
     1
102
RTVSPropertyOp41
 70
     1
102
RTVSPropertyOp42
 70
     1
102
RTVSPropertyOp43
 70
     1
102
RTVSPropertyOp44
 70
     1
102
RTVSPropertyOp45
 70
     1
102
RTVSPropertyOp46
 70
     1
102
RTVSPropertyOp47
 70
     1
102
RTVSPropertyOp48
 70
     1
102
RTVSPropertyOp49
 70
     1
102
RTVSPropertyOp50
 70
     1
102
RTVSPropertyOp51
 70
     0
102
RTVSPropertyOp52
 70
     0
102
RTVSPropertyOp53
 70
     1
102
RTVSPropertyOp54
 70
     1
102
RTVSPropertyOp55
 70
     1
102
RTVSPropertyOp56
 70
     1
102
RTVSPropertyOp57
 70
     1
102
RTVSPropertyOp58
 70
     1
102
RTVSPropertyOp59
 70
     1
102
RTVSPropertyOp60
 70
     1
102
RTVSPropertyOp61
 70
     1
102
RTVSPropertyOp62
 70
     1
  0
ENDSEC
  0
EOF
