  0
SECTION
  2
HEADER
  9
$ACADVER
  1
AC1015
  9
$ACADMAINTVER
 70
    20
  9
$DWGCODEPAGE
  3
ANSI_932
  9
$INSBASE
 10
0.0
 20
0.0
 30
0.0
  9
$EXTMIN
 10
-1350.082391174606
 20
-2014.883294593333
 30
-0.0015258207003583
  9
$EXTMAX
 10
1350.082403747461
 20
1999.567671355127
 30
0.0000000349246037
  9
$LIMMIN
 10
0.0
 20
0.0
  9
$LIMMAX
 10
0.0
 20
0.0
  9
$ORTHOMODE
 70
     0
  9
$REGENMODE
 70
     1
  9
$FILLMODE
 70
     1
  9
$QTEXTMODE
 70
     0
  9
$MIRRTEXT
 70
     1
  9
$LTSCALE
 40
76.2
  9
$ATTMODE
 70
     1
  9
$TEXTSIZE
 40
0.0
  9
$TRACEWID
 40
1.0
  9
$TEXTSTYLE
  7
STANDARD
  9
$CLAYER
  8
DATA
  9
$CELTYPE
  6
ByLayer
  9
$CECOLOR
 62
   256
  9
$CELTSCALE
 40
1.0
  9
$DISPSILH
 70
     0
  9
$DIMSCALE
 40
1.0
  9
$DIMASZ
 40
0.18
  9
$DIMEXO
 40
0.0625
  9
$DIMDLI
 40
0.38
  9
$DIMRND
 40
0.0
  9
$DIMDLE
 40
0.0
  9
$DIMEXE
 40
0.18
  9
$DIMTP
 40
0.0
  9
$DIMTM
 40
0.0
  9
$DIMTXT
 40
0.18
  9
$DIMCEN
 40
0.09
  9
$DIMTSZ
 40
0.0
  9
$DIMTOL
 70
     0
  9
$DIMLIM
 70
     0
  9
$DIMTIH
 70
     1
  9
$DIMTOH
 70
     1
  9
$DIMSE1
 70
     0
  9
$DIMSE2
 70
     0
  9
$DIMTAD
 70
     0
  9
$DIMZIN
 70
     0
  9
$DIMBLK
  1

  9
$DIMASO
 70
     1
  9
$DIMSHO
 70
     1
  9
$DIMPOST
  1

  9
$DIMAPOST
  1

  9
$DIMALT
 70
     0
  9
$DIMALTD
 70
     2
  9
$DIMALTF
 40
25.4
  9
$DIMLFAC
 40
1.0
  9
$DIMTOFL
 70
     0
  9
$DIMTVP
 40
0.0
  9
$DIMTIX
 70
     0
  9
$DIMSOXD
 70
     0
  9
$DIMSAH
 70
     0
  9
$DIMBLK1
  1

  9
$DIMBLK2
  1

  9
$DIMSTYLE
  2
STANDARD
  9
$DIMCLRD
 70
     0
  9
$DIMCLRE
 70
     0
  9
$DIMCLRT
 70
     0
  9
$DIMTFAC
 40
1.0
  9
$DIMGAP
 40
0.09
  9
$DIMJUST
 70
     0
  9
$DIMSD1
 70
     0
  9
$DIMSD2
 70
     0
  9
$DIMTOLJ
 70
     1
  9
$DIMTZIN
 70
     0
  9
$DIMALTZ
 70
     0
  9
$DIMALTTZ
 70
     0
  9
$DIMUPT
 70
     0
  9
$DIMDEC
 70
     4
  9
$DIMTDEC
 70
     4
  9
$DIMALTU
 70
     2
  9
$DIMALTTD
 70
     2
  9
$DIMTXSTY
  7
STANDARD
  9
$DIMAUNIT
 70
     0
  9
$DIMADEC
 70
     0
  9
$DIMALTRND
 40
0.0
  9
$DIMAZIN
 70
     0
  9
$DIMDSEP
 70
    46
  9
$DIMATFIT
 70
     3
  9
$DIMFRAC
 70
     0
  9
$DIMLDRBLK
  1

  9
$DIMLUNIT
 70
     2
  9
$DIMLWD
 70
    -2
  9
$DIMLWE
 70
    -2
  9
$DIMTMOVE
 70
     0
  9
$LUNITS
 70
     2
  9
$LUPREC
 70
     4
  9
$SKETCHINC
 40
0.1
  9
$FILLETRAD
 40
0.0
  9
$AUNITS
 70
     0
  9
$AUPREC
 70
     0
  9
$MENU
  1
acad
  9
$ELEVATION
 40
0.0
  9
$PELEVATION
 40
0.0
  9
$THICKNESS
 40
0.0
  9
$LIMCHECK
 70
     0
  9
$CHAMFERA
 40
0.0
  9
$CHAMFERB
 40
0.0
  9
$CHAMFERC
 40
0.0
  9
$CHAMFERD
 40
0.0
  9
$SKPOLY
 70
     0
  9
$TDCREATE
 40
2457812.430856482
  9
$TDUCREATE
 40
2457812.055856482
  9
$TDUPDATE
 40
2457812.451886574
  9
$TDUUPDATE
 40
2457812.076886574
  9
$TDINDWG
 40
0.0002893519
  9
$TDUSRTIMER
 40
0.0002893519
  9
$USRTIMER
 70
     1
  9
$ANGBASE
 50
0.0
  9
$ANGDIR
 70
     0
  9
$PDMODE
 70
     1
  9
$PDSIZE
 40
-2.0
  9
$PLINEWID
 40
0.0
  9
$SPLFRAME
 70
     0
  9
$SPLINETYPE
 70
     6
  9
$SPLINESEGS
 70
     8
  9
$HANDSEED
  5
635
  9
$SURFTAB1
 70
     6
  9
$SURFTAB2
 70
     6
  9
$SURFTYPE
 70
     6
  9
$SURFU
 70
     6
  9
$SURFV
 70
     6
  9
$UCSBASE
  2

  9
$UCSNAME
  2

  9
$UCSORG
 10
0.0
 20
0.0
 30
0.0
  9
$UCSXDIR
 10
1.0
 20
0.0
 30
0.0
  9
$UCSYDIR
 10
0.0
 20
1.0
 30
0.0
  9
$UCSORTHOREF
  2

  9
$UCSORTHOVIEW
 70
     0
  9
$UCSORGTOP
 10
0.0
 20
0.0
 30
0.0
  9
$UCSORGBOTTOM
 10
0.0
 20
0.0
 30
0.0
  9
$UCSORGLEFT
 10
0.0
 20
0.0
 30
0.0
  9
$UCSORGRIGHT
 10
0.0
 20
0.0
 30
0.0
  9
$UCSORGFRONT
 10
0.0
 20
0.0
 30
0.0
  9
$UCSORGBACK
 10
0.0
 20
0.0
 30
0.0
  9
$PUCSBASE
  2

  9
$PUCSNAME
  2

  9
$PUCSORG
 10
0.0
 20
0.0
 30
0.0
  9
$PUCSXDIR
 10
1.0
 20
0.0
 30
0.0
  9
$PUCSYDIR
 10
0.0
 20
1.0
 30
0.0
  9
$PUCSORTHOREF
  2

  9
$PUCSORTHOVIEW
 70
     0
  9
$PUCSORGTOP
 10
0.0
 20
0.0
 30
0.0
  9
$PUCSORGBOTTOM
 10
0.0
 20
0.0
 30
0.0
  9
$PUCSORGLEFT
 10
0.0
 20
0.0
 30
0.0
  9
$PUCSORGRIGHT
 10
0.0
 20
0.0
 30
0.0
  9
$PUCSORGFRONT
 10
0.0
 20
0.0
 30
0.0
  9
$PUCSORGBACK
 10
0.0
 20
0.0
 30
0.0
  9
$USERI1
 70
     0
  9
$USERI2
 70
     0
  9
$USERI3
 70
     0
  9
$USERI4
 70
     0
  9
$USERI5
 70
     0
  9
$USERR1
 40
0.0
  9
$USERR2
 40
0.0
  9
$USERR3
 40
0.0
  9
$USERR4
 40
0.0
  9
$USERR5
 40
0.0
  9
$WORLDVIEW
 70
     1
  9
$SHADEDGE
 70
     3
  9
$SHADEDIF
 70
    70
  9
$TILEMODE
 70
     1
  9
$MAXACTVP
 70
    64
  9
$PINSBASE
 10
0.0
 20
0.0
 30
0.0
  9
$PLIMCHECK
 70
     0
  9
$PEXTMIN
 10
1.000000000000000E+20
 20
1.000000000000000E+20
 30
1.000000000000000E+20
  9
$PEXTMAX
 10
-1.000000000000000E+20
 20
-1.000000000000000E+20
 30
-1.000000000000000E+20
  9
$PLIMMIN
 10
0.0
 20
0.0
  9
$PLIMMAX
 10
12.0
 20
9.0
  9
$UNITMODE
 70
     0
  9
$VISRETAIN
 70
     0
  9
$PLINEGEN
 70
     1
  9
$PSLTSCALE
 70
     0
  9
$TREEDEPTH
 70
  3020
  9
$CMLSTYLE
  2
Standard
  9
$CMLJUST
 70
     0
  9
$CMLSCALE
 40
1.0
  9
$PROXYGRAPHICS
 70
     1
  9
$MEASUREMENT
 70
     0
  9
$CELWEIGHT
370
    -1
  9
$ENDCAPS
280
     0
  9
$JOINSTYLE
280
     0
  9
$LWDISPLAY
290
     0
  9
$INSUNITS
 70
     0
  9
$HYPERLINKBASE
  1

  9
$STYLESHEET
  1

  9
$XEDIT
290
     1
  9
$CEPSNTYPE
380
     0
  9
$PSTYLEMODE
290
     1
  9
$FINGERPRINTGUID
  2
{ECC9FD82-AEA9-F349-BA7E-DA135735CAE2}
  9
$VERSIONGUID
  2
{01101A96-7D08-C84A-B9F4-E532ED765412}
  9
$EXTNAMES
290
     1
  9
$PSVPSCALE
 40
0.0
  9
$OLESTARTUP
290
     0
  0
ENDSEC
  0
SECTION
  2
CLASSES
  0
CLASS
  1
ACDBDICTIONARYWDFLT
  2
AcDbDictionaryWithDefault
  3
ObjectDBX Classes
 90
        0
280
     0
281
     0
  0
CLASS
  1
MATERIAL
  2
AcDbMaterial
  3
ObjectDBX Classes
 90
     1153
280
     0
281
     0
  0
CLASS
  1
VISUALSTYLE
  2
AcDbVisualStyle
  3
ObjectDBX Classes
 90
     4095
280
     0
281
     0
  0
CLASS
  1
SCALE
  2
AcDbScale
  3
ObjectDBX Classes
 90
     1153
280
     0
281
     0
  0
CLASS
  1
TABLESTYLE
  2
AcDbTableStyle
  3
ObjectDBX Classes
 90
     4095
280
     0
281
     0
  0
CLASS
  1
MLEADERSTYLE
  2
AcDbMLeaderStyle
  3
ACDB_MLEADERSTYLE_CLASS
 90
     4095
280
     0
281
     0
  0
CLASS
  1
ACDBSECTIONVIEWSTYLE
  2
AcDbSectionViewStyle
  3
ObjectDBX Classes
 90
     1025
280
     0
281
     0
  0
CLASS
  1
ACDBDETAILVIEWSTYLE
  2
AcDbDetailViewStyle
  3
ObjectDBX Classes
 90
     1025
280
     0
281
     0
  0
CLASS
  1
DICTIONARYVAR
  2
AcDbDictionaryVar
  3
ObjectDBX Classes
 90
        0
280
     0
281
     0
  0
CLASS
  1
CELLSTYLEMAP
  2
AcDbCellStyleMap
  3
ObjectDBX Classes
 90
     1152
280
     0
281
     0
  0
CLASS
  1
ACDBPLACEHOLDER
  2
AcDbPlaceHolder
  3
ObjectDBX Classes
 90
        0
280
     0
281
     0
  0
CLASS
  1
LAYOUT
  2
AcDbLayout
  3
ObjectDBX Classes
 90
        0
280
     0
281
     0
  0
ENDSEC
  0
SECTION
  2
TABLES
  0
TABLE
  2
VPORT
  5
55F
330
0
100
AcDbSymbolTable
 70
     1
  0
VPORT
  5
5CB
330
55F
100
AcDbSymbolTableRecord
100
AcDbViewportTableRecord
  2
*ACTIVE
 70
     0
 10
0.0
 20
0.0
 11
1.0
 21
1.0
 12
0.0000062864282881
 22
-7.657811619102631
 13
0.0
 23
0.0
 14
1.0
 24
1.0
 15
0.0
 25
0.0
 16
0.0
 26
0.0
 36
1.0
 17
0.0
 27
0.0
 37
0.0
 40
4036.794848875817
 41
2.358402971216341
 42
50.0
 43
0.0
 44
0.0
 50
0.0
 51
0.0
 71
     0
 72
  2000
 73
     1
 74
     1
 75
     0
 76
     0
 77
     0
 78
     0
281
     0
 65
     1
110
0.0
120
0.0
130
0.0
111
1.0
121
0.0
131
0.0
112
0.0
122
1.0
132
0.0
 79
     0
146
0.0
1001
ACAD_NAV_VCDISPLAY
1070
     3
  0
ENDTAB
  0
TABLE
  2
LTYPE
  5
55C
330
0
100
AcDbSymbolTable
 70
    11
  0
LTYPE
  5
5B1
330
55C
100
AcDbSymbolTableRecord
100
AcDbLinetypeTableRecord
  2
ByBlock
 70
     0
  3

 72
    65
 73
     0
 40
0.0
  0
LTYPE
  5
5B2
330
55C
100
AcDbSymbolTableRecord
100
AcDbLinetypeTableRecord
  2
ByLayer
 70
     0
  3

 72
    65
 73
     0
 40
0.0
  0
LTYPE
  5
5B3
330
55C
100
AcDbSymbolTableRecord
100
AcDbLinetypeTableRecord
  2
CONTINUOUS
 70
     0
  3
Solid line
 72
    65
 73
     0
 40
0.0
  0
LTYPE
  5
5CC
330
55C
100
AcDbSymbolTableRecord
100
AcDbLinetypeTableRecord
  2
STYLE_01
 70
     0
  3

 72
    65
 73
     2
 40
0.4166412353515625
 49
0.208282470703125
 74
     0
 49
-0.2083587646484375
 74
     0
  0
ENDTAB
  0
TABLE
  2
LAYER
  5
559
330
0
100
AcDbSymbolTable
 70
     5
  0
LAYER
  5
5AB
102
{ACAD_XDICTIONARY
360
5DF
102
}
330
559
100
AcDbSymbolTableRecord
100
AcDbLayerTableRecord
  2
0
 70
     0
 62
     7
  6
CONTINUOUS
370
    -3
390
566
  0
LAYER
  5
5CA
102
{ACAD_XDICTIONARY
360
5E1
102
}
330
559
100
AcDbSymbolTableRecord
100
AcDbLayerTableRecord
  2
DATA
 70
     0
 62
     7
  6
CONTINUOUS
370
    -3
390
566
  0
LAYER
  5
5D6
102
{ACAD_XDICTIONARY
360
5E3
102
}
330
559
100
AcDbSymbolTableRecord
100
AcDbLayerTableRecord
  2
HIBINO-BASE
 70
     0
 62
     7
  6
CONTINUOUS
370
    -3
390
566
  0
LAYER
  5
5D7
102
{ACAD_XDICTIONARY
360
5E5
102
}
330
559
100
AcDbSymbolTableRecord
100
AcDbLayerTableRecord
  2
SPEC
 70
     0
 62
     7
  6
CONTINUOUS
370
    -3
390
566
  0
LAYER
  5
5D8
102
{ACAD_XDICTIONARY
360
5E7
102
}
330
559
100
AcDbSymbolTableRecord
100
AcDbLayerTableRecord
  2
DIMNSIONS
 70
     0
 62
     7
  6
CONTINUOUS
370
    -3
390
566
  0
ENDTAB
  0
TABLE
  2
STYLE
  5
55A
330
0
100
AcDbSymbolTable
 70
     3
  0
STYLE
  5
5AC
330
55A
100
AcDbSymbolTableRecord
100
AcDbTextStyleTableRecord
  2
STANDARD
 70
     0
 40
0.0
 41
1.0
 50
0.0
 71
     0
 42
0.0
  3
txt
  4
BIGFONT.SHX
  0
ENDTAB
  0
TABLE
  2
VIEW
  5
55D
330
0
100
AcDbSymbolTable
 70
     0
  0
ENDTAB
  0
TABLE
  2
UCS
  5
55E
330
0
100
AcDbSymbolTable
 70
     0
  0
ENDTAB
  0
TABLE
  2
APPID
  5
560
330
0
100
AcDbSymbolTable
 70
     4
  0
APPID
  5
5AD
330
560
100
AcDbSymbolTableRecord
100
AcDbRegAppTableRecord
  2
ACAD
 70
     0
  0
APPID
  5
5B4
330
560
100
AcDbSymbolTableRecord
100
AcDbRegAppTableRecord
  2
AcadAnnotative
 70
     0
  0
APPID
  5
5F3
330
560
100
AcDbSymbolTableRecord
100
AcDbRegAppTableRecord
  2
ACAD_NAV_VCDISPLAY
 70
     0
  0
APPID
  5
62C
330
560
100
AcDbSymbolTableRecord
100
AcDbRegAppTableRecord
  2
ACAD_MLEADERVER
 70
     0
  0
ENDTAB
  0
TABLE
  2
DIMSTYLE
  5
561
330
0
100
AcDbSymbolTable
 70
     2
100
AcDbDimStyleTable
 71
     0
  0
DIMSTYLE
105
5AE
330
561
100
AcDbSymbolTableRecord
100
AcDbDimStyleTableRecord
  2
STANDARD
 70
     0
279
     2
340
5AC
  0
ENDTAB
  0
TABLE
  2
BLOCK_RECORD
  5
558
330
0
100
AcDbSymbolTable
 70
     0
  0
BLOCK_RECORD
  5
5C6
330
558
100
AcDbSymbolTableRecord
100
AcDbBlockTableRecord
  2
*Model_Space
340
5C9
  0
BLOCK_RECORD
  5
5C2
330
558
100
AcDbSymbolTableRecord
100
AcDbBlockTableRecord
  2
*Paper_Space
340
5C5
  0
ENDTAB
  0
ENDSEC
  0
SECTION
  2
BLOCKS
  0
BLOCK
  5
5C7
330
5C6
100
AcDbEntity
  8
0
100
AcDbBlockBegin
  2
*Model_Space
 70
     0
 10
0.0
 20
0.0
 30
0.0
  3
*Model_Space
  1

  0
ENDBLK
  5
5C8
330
5C6
100
AcDbEntity
  8
0
100
AcDbBlockEnd
  0
BLOCK
  5
5C3
330
5C2
100
AcDbEntity
 67
     1
  8
0
100
AcDbBlockBegin
  2
*Paper_Space
 70
     0
 10
0.0
 20
0.0
 30
0.0
  3
*Paper_Space
  1

  0
ENDBLK
  5
5C4
330
5C2
100
AcDbEntity
 67
     1
  8
0
100
AcDbBlockEnd
  0
ENDSEC
  0
SECTION
  2
ENTITIES
  0
LINE
  5
2C
330
5C6
100
AcDbEntity
  8
HIBINO-BASE
  6
Continuous
 62
     7
100
AcDbLine
 10
-1350.0
 20
1999.44541
 30
0.0
 11
1350.0
 21
1999.44541
 31
0.0
  0
LINE
  5
2D
330
5C6
100
AcDbEntity
  8
HIBINO-BASE
  6
Continuous
 62
     7
100
AcDbLine
 10
1350.0
 20
-1900.554590000001
 30
0.0
 11
-1350.0
 21
-1900.554590000001
 31
0.0
  0
LINE
  5
2E
330
5C6
100
AcDbEntity
  8
HIBINO-BASE
  6
Continuous
 62
     7
100
AcDbLine
 10
-1350.0
 20
-1900.554590000001
 30
0.0
 11
-1350.0
 21
1999.44541
 31
0.0
  0
LINE
  5
2F
330
5C6
100
AcDbEntity
  8
HIBINO-BASE
  6
Continuous
 62
     7
100
AcDbLine
 10
1350.0
 20
1999.44541
 30
0.0
 11
1350.0
 21
-1900.554590000001
 31
0.0
  0
LINE
  5
30
330
5C6
100
AcDbEntity
  8
HIBINO-BASE
  6
Continuous
 62
     7
100
AcDbLine
 10
0.0000000000001066
 20
-1563.054590000001
 30
0.0
 11
1350.0
 21
-1563.054590000001
 31
0.0
  0
LINE
  5
31
330
5C6
100
AcDbEntity
  8
HIBINO-BASE
  6
Continuous
 62
     7
100
AcDbLine
 10
0.0000000000001066
 20
-1900.554590000001
 30
0.0
 11
0.0000000000001066
 21
-1563.054590000001
 31
0.0
  0
TEXT
  5
32
330
5C6
100
AcDbEntity
  8
HIBINO-BASE
 62
     7
100
AcDbText
 10
13.50000000000019
 20
-1600.68499
 30
0.0
 40
24.4326171875
  1
NOTE
 41
0.7
 11
13.50000000000019
 21
-1576.2523728125
 31
0.0
100
AcDbText
 73
     3
  0
LINE
  5
33
330
5C6
100
AcDbEntity
  8
HIBINO-BASE
  6
Continuous
 62
     7
100
AcDbLine
 10
525.0000000000003
 20
-1900.554590000001
 30
0.0
 11
525.0000000000003
 21
-1563.054590000001
 31
0.0
  0
TEXT
  5
34
330
5C6
100
AcDbEntity
  8
HIBINO-BASE
 62
     7
100
AcDbText
 10
538.4999999999999
 20
-1600.68499
 30
0.0
 40
24.4326171875
  1
TITLE
 41
0.7
 11
538.4999999999999
 21
-1576.2523728125
 31
0.0
100
AcDbText
 73
     3
  0
LINE
  5
35
330
5C6
100
AcDbEntity
  8
HIBINO-BASE
  6
Continuous
 62
     7
100
AcDbLine
 10
0.0000000000001066
 20
-1750.554590000001
 30
0.0
 11
1350.0
 21
-1750.554590000001
 31
0.0
  0
TEXT
  5
36
330
5C6
100
AcDbEntity
  8
HIBINO-BASE
 62
     7
100
AcDbText
 10
726.0
 20
-1787.34019
 30
0.0
 40
24.4326171875
  1
DRAWN
 41
0.7
 11
726.0
 21
-1762.9075728125
 31
0.0
100
AcDbText
 73
     3
  0
TEXT
  5
37
330
5C6
100
AcDbEntity
  8
HIBINO-BASE
 62
     7
100
AcDbText
 10
351.0
 20
-1787.34019
 30
0.0
 40
24.4326171875
  1
DATE
 41
0.7
 11
351.0
 21
-1762.9075728125
 31
0.0
100
AcDbText
 73
     3
  0
TEXT
  5
38
330
5C6
100
AcDbEntity
  8
HIBINO-BASE
 62
     7
100
AcDbText
 10
201.0
 20
-1787.34019
 30
0.0
 40
24.4326171875
  1
SCALE
 41
0.7
 11
201.0
 21
-1762.9075728125
 31
0.0
100
AcDbText
 73
     3
  0
TEXT
  5
39
330
5C6
100
AcDbEntity
  8
HIBINO-BASE
 62
     7
100
AcDbText
 10
538.4999999999999
 20
-1787.34019
 30
0.0
 40
24.4326171875
  1
DESIGN
 41
0.7
 11
538.4999999999999
 21
-1762.9075728125
 31
0.0
100
AcDbText
 73
     3
  0
TEXT
  5
3A
330
5C6
100
AcDbEntity
  8
HIBINO-BASE
 62
     7
100
AcDbText
 10
1100.999999999999
 20
-1787.34019
 30
0.0
 40
24.4326171875
  1
DRAWING NO.
 41
0.7
 11
1100.999999999999
 21
-1762.9075728125
 31
0.0
100
AcDbText
 73
     3
  0
TEXT
  5
3B
330
5C6
100
AcDbEntity
  8
HIBINO-BASE
 62
     7
100
AcDbText
 10
913.4999999999999
 20
-1787.34019
 30
0.0
 40
24.4326171875
  1
CHECK
 41
0.7
 11
913.4999999999999
 21
-1762.9075728125
 31
0.0
100
AcDbText
 73
     3
  0
LINE
  5
3C
330
5C6
100
AcDbEntity
  8
HIBINO-BASE
  6
Continuous
 62
     7
100
AcDbLine
 10
215.6250000000001
 20
-1881.804590000001
 30
0.0
 11
271.8750000000004
 21
-1825.554590000001
 31
0.0
  0
TEXT
  5
3D
330
5C6
100
AcDbEntity
  8
HIBINO-BASE
 62
     7
100
AcDbText
 10
206.2500000000001
 20
-1842.18874
 30
0.0
 40
24.4326171875
  1
1
 41
0.7
 11
206.2500000000001
 21
-1817.7561228125
 31
0.0
100
AcDbText
 73
     3
  0
LINE
  5
3E
330
5C6
100
AcDbEntity
  8
HIBINO-BASE
  6
Continuous
 62
     7
100
AcDbLine
 10
187.5000000000001
 20
-1900.554590000001
 30
0.0
 11
187.5000000000001
 21
-1750.554590000001
 31
0.0
  0
LINE
  5
3F
330
5C6
100
AcDbEntity
  8
HIBINO-BASE
  6
Continuous
 62
     7
100
AcDbLine
 10
337.4999999999999
 20
-1900.554590000001
 30
0.0
 11
337.4999999999999
 21
-1750.554590000001
 31
0.0
  0
LINE
  5
40
330
5C6
100
AcDbEntity
  8
HIBINO-BASE
  6
Continuous
 62
     7
100
AcDbLine
 10
712.4999999999996
 20
-1750.554590000001
 30
0.0
 11
712.4999999999996
 21
-1900.554590000001
 31
0.0
  0
LINE
  5
41
330
5C6
100
AcDbEntity
  8
HIBINO-BASE
  6
Continuous
 62
     7
100
AcDbLine
 10
1087.5
 20
-1750.554590000001
 30
0.0
 11
1087.5
 21
-1900.554590000001
 31
0.0
  0
LINE
  5
42
330
5C6
100
AcDbEntity
  8
HIBINO-BASE
  6
Continuous
 62
     7
100
AcDbLine
 10
899.9999999999996
 20
-1900.554590000001
 30
0.0
 11
899.9999999999996
 21
-1750.554590000001
 31
0.0
  0
TEXT
  5
43
330
5C6
100
AcDbEntity
  8
HIBINO-BASE
 62
     7
100
AcDbText
 10
350.3481000000002
 20
-1857.59989
 30
0.0
 40
24.4326171875
  1
'17.01.
 41
0.7
 11
350.3481000000002
 21
-1833.1672728125
 31
0.0
100
AcDbText
 73
     3
  0
TEXT
  5
44
330
5C6
100
AcDbEntity
  8
HIBINO-BASE
 62
     7
100
AcDbText
 10
262.5
 20
-1870.31374
 30
0.0
 40
24.4326171875
  1
15
 41
0.7
 11
262.5
 21
-1845.8811228125
 31
0.0
100
AcDbText
 73
     3
  0
TEXT
  5
45
330
5C6
100
AcDbEntity
  8
HIBINO-BASE
 62
     7
100
AcDbText
 10
735.0871501655194
 20
-1857.59989
 30
0.0
 40
24.4326171875
  1
N.Sasaki
 41
0.7
 11
735.0871501655194
 21
-1833.1672728125
 31
0.0
100
AcDbText
 73
     3
  0
TEXT
  5
46
330
5C6
100
AcDbEntity
  8
HIBINO-BASE
 62
     7
100
AcDbText
 10
58.25000000000041
 20
-1870.91459
 30
0.0
 40
48.86523437499999
  1
A4
 41
0.7
 11
58.25000000000041
 21
-1822.049355625
 31
0.0
100
AcDbText
 73
     3
  0
TEXT
  5
47
330
5C6
100
AcDbEntity
  8
HIBINO-BASE
 62
     7
100
AcDbText
 10
14.37500000000003
 20
-1789.846415
 30
0.0
 40
24.4326171875
  1
PAPER SIZE
 41
0.7
 11
14.37500000000003
 21
-1765.4137978125
 31
0.0
100
AcDbText
 73
     3
  0
TEXT
  5
48
330
5C6
100
AcDbEntity
  8
HIBINO-BASE
 62
     7
100
AcDbText
 10
-1242.24
 20
-1996.684757
 30
0.0
 40
54.00066269531249
  1
Hibino Corporation
 41
0.7
 11
-1242.24
 21
-1942.684094304688
 31
0.0
100
AcDbText
 73
     3
  0
TEXT
  5
49
330
5C6
100
AcDbEntity
  8
HIBINO-BASE
 62
     7
100
AcDbText
 10
751.02585
 20
-1996.684757
 30
0.0
 40
54.00066269531249
  1
ヒビノ株式会社
 41
0.7
 11
751.02585
 21
-1942.684094304688
 31
0.0
100
AcDbText
 73
     3
  0
LINE
  5
4A
330
5C6
100
AcDbEntity
  8
SPEC
  6
Continuous
 62
     7
100
AcDbLine
 10
-1237.5
 20
1849.44541
 30
0.0
 11
875.0
 21
1849.44541
 31
0.0
  0
LINE
  5
4B
330
5C6
100
AcDbEntity
  8
SPEC
  6
Continuous
 62
     7
100
AcDbLine
 10
-1237.5
 20
1793.195409999999
 30
0.0
 11
875.0
 21
1793.195409999999
 31
0.0
  0
LINE
  5
4C
330
5C6
100
AcDbEntity
  8
SPEC
  6
Continuous
 62
     7
100
AcDbLine
 10
-1237.5
 20
668.1954099999996
 30
0.0
 11
875.0
 21
668.1954099999996
 31
0.0
  0
LINE
  5
4D
330
5C6
100
AcDbEntity
  8
SPEC
  6
Continuous
 62
     7
100
AcDbLine
 10
-1237.5
 20
1849.44541
 30
0.0
 11
-1237.5
 21
668.1954099999996
 31
0.0
  0
TEXT
  5
4E
330
5C6
100
AcDbEntity
  8
SPEC
 62
     7
100
AcDbText
 10
-1218.75
 20
1870.344459999999
 30
0.0
 40
36.64892578125
  1
仕様
 41
0.7
 11
-1218.75
 21
1906.993385781249
 31
0.0
100
AcDbText
 73
     3
  0
LINE
  5
4F
330
5C6
100
AcDbEntity
  8
SPEC
  6
Continuous
 62
     7
100
AcDbLine
 10
-625.0
 20
1849.44541
 30
0.0
 11
-625.0
 21
668.1954099999996
 31
0.0
  0
LINE
  5
50
330
5C6
100
AcDbEntity
  8
SPEC
  6
Continuous
 62
     7
100
AcDbLine
 10
875.0
 20
1849.44541
 30
0.0
 11
875.0
 21
668.1954099999996
 31
0.0
  0
TEXT
  5
51
330
5C6
100
AcDbEntity
  8
SPEC
 62
     7
100
AcDbText
 10
-1224.0
 20
680.0141766666663
 30
0.0
 40
28.50472005208334
  1
質量
 41
0.7
 11
-1224.0
 21
708.5188967187497
 31
0.0
100
AcDbText
 73
     3
  0
LINE
  5
52
330
5C6
100
AcDbEntity
  8
SPEC
  6
Continuous
 62
     7
100
AcDbLine
 10
-1237.5
 20
1736.945409999999
 30
0.0
 11
875.0
 21
1736.945409999999
 31
0.0
  0
LINE
  5
53
330
5C6
100
AcDbEntity
  8
SPEC
  6
Continuous
 62
     7
100
AcDbLine
 10
-1237.5
 20
1680.695409999999
 30
0.0
 11
875.0
 21
1680.695409999999
 31
0.0
  0
LINE
  5
54
330
5C6
100
AcDbEntity
  8
SPEC
  6
Continuous
 62
     7
100
AcDbLine
 10
-950.0000000000008
 20
1624.445409999999
 30
0.0
 11
875.0
 21
1624.445409999999
 31
0.0
  0
LINE
  5
55
330
5C6
100
AcDbEntity
  8
SPEC
  6
Continuous
 62
     7
100
AcDbLine
 10
-1237.5
 20
1511.945409999999
 30
0.0
 11
875.0
 21
1511.945409999999
 31
0.0
  0
LINE
  5
56
330
5C6
100
AcDbEntity
  8
SPEC
  6
Continuous
 62
     7
100
AcDbLine
 10
-950.0000000000008
 20
1455.695409999999
 30
0.0
 11
875.0
 21
1455.695409999999
 31
0.0
  0
LINE
  5
57
330
5C6
100
AcDbEntity
  8
SPEC
  6
Continuous
 62
     7
100
AcDbLine
 10
-1237.5
 20
1343.19541
 30
0.0
 11
875.0
 21
1343.19541
 31
0.0
  0
LINE
  5
58
330
5C6
100
AcDbEntity
  8
SPEC
  6
Continuous
 62
     7
100
AcDbLine
 10
-950.0000000000008
 20
1286.945409999999
 30
0.0
 11
875.0
 21
1286.945409999999
 31
0.0
  0
LINE
  5
59
330
5C6
100
AcDbEntity
  8
SPEC
  6
Continuous
 62
     7
100
AcDbLine
 10
-1237.5
 20
1230.69541
 30
0.0
 11
875.0
 21
1230.69541
 31
0.0
  0
LINE
  5
5A
330
5C6
100
AcDbEntity
  8
SPEC
  6
Continuous
 62
     7
100
AcDbLine
 10
-950.0000000000008
 20
1174.445409999999
 30
0.0
 11
875.0
 21
1174.445409999999
 31
0.0
  0
LINE
  5
5B
330
5C6
100
AcDbEntity
  8
SPEC
  6
Continuous
 62
     7
100
AcDbLine
 10
-1237.5
 20
1061.945409999999
 30
0.0
 11
875.0
 21
1061.945409999999
 31
0.0
  0
LINE
  5
5C
330
5C6
100
AcDbEntity
  8
SPEC
  6
Continuous
 62
     7
100
AcDbLine
 10
-1237.5
 20
1005.695409999999
 30
0.0
 11
875.0
 21
1005.695409999999
 31
0.0
  0
LINE
  5
5D
330
5C6
100
AcDbEntity
  8
SPEC
  6
Continuous
 62
     7
100
AcDbLine
 10
-1237.5
 20
893.1954099999996
 30
0.0
 11
875.0
 21
893.1954099999996
 31
0.0
  0
LINE
  5
5E
330
5C6
100
AcDbEntity
  8
SPEC
  6
Continuous
 62
     7
100
AcDbLine
 10
-1237.5
 20
836.9454099999996
 30
0.0
 11
875.0
 21
836.9454099999996
 31
0.0
  0
LINE
  5
5F
330
5C6
100
AcDbEntity
  8
SPEC
  6
Continuous
 62
     7
100
AcDbLine
 10
-1237.5
 20
780.6954099999996
 30
0.0
 11
875.0
 21
780.6954099999996
 31
0.0
  0
LINE
  5
60
330
5C6
100
AcDbEntity
  8
SPEC
  6
Continuous
 62
     7
100
AcDbLine
 10
-1237.5
 20
724.4454099999996
 30
0.0
 11
875.0
 21
724.4454099999996
 31
0.0
  0
LINE
  5
61
330
5C6
100
AcDbEntity
  8
SPEC
  6
Continuous
 62
     7
100
AcDbLine
 10
-125.0000000000009
 20
1793.195409999999
 30
0.0
 11
-125.0000000000009
 21
1849.44541
 31
0.0
  0
LINE
  5
62
330
5C6
100
AcDbEntity
  8
SPEC
  6
Continuous
 62
     7
100
AcDbLine
 10
374.9999999999992
 20
1793.195409999999
 30
0.0
 11
374.9999999999992
 21
1849.44541
 31
0.0
  0
TEXT
  5
63
330
5C6
100
AcDbEntity
  8
SPEC
 62
     7
100
AcDbText
 10
-458.1387668185763
 20
1804.096816640625
 30
0.0
 40
28.50472005208333
  1
AC2212/64
 41
0.7
 72
     1
 11
-375.0
 21
1818.349176666666
 31
0.0
100
AcDbText
 73
     2
  0
TEXT
  5
64
330
5C6
100
AcDbEntity
  8
SPEC
 62
     7
100
AcDbText
 10
41.86123318142273
 20
1804.096816640625
 30
0.0
 40
28.50472005208333
  1
AC2212/95
 41
0.7
 72
     1
 11
124.9999999999991
 21
1818.349176666666
 31
0.0
100
AcDbText
 73
     2
  0
TEXT
  5
65
330
5C6
100
AcDbEntity
  8
SPEC
 62
     7
100
AcDbText
 10
545.1867838541659
 20
1804.096816640625
 30
0.0
 40
28.50472005208333
  1
AC2212/00
 41
0.7
 72
     1
 11
624.9999999999992
 21
1818.349176666666
 31
0.0
100
AcDbText
 73
     2
  0
TEXT
  5
66
330
5C6
100
AcDbEntity
  8
SPEC
 62
     7
100
AcDbText
 10
-1225.0
 20
611.6649999999999
 30
0.0
 40
28.50472005208333
  1
※1 IECピンクノイズ、クレストファクタ ー6dB　※2 AESピンクノイズ、クレストファクタ ー6dB　※3 ボイスコイル径
 41
0.7
 11
-1225.0
 21
640.1697200520833
 31
0.0
100
AcDbText
 73
     3
  0
LINE
  5
67
330
5C6
100
AcDbEntity
  8
SPEC
  6
Continuous
 62
     7
100
AcDbLine
 10
-950.0000000000008
 20
1680.695409999999
 30
0.0
 11
-950.0000000000008
 21
1061.945409999999
 31
0.0
  0
TEXT
  5
68
330
5C6
100
AcDbEntity
  8
SPEC
 62
     7
100
AcDbText
 10
-1224.0
 20
1748.764176666666
 30
0.0
 40
28.50472005208333
  1
周波数レンジ(-10dB)
 41
0.7
 11
-1224.0
 21
1777.268896718749
 31
0.0
100
AcDbText
 73
     3
  0
TEXT
  5
69
330
5C6
100
AcDbEntity
  8
SPEC
 62
     7
100
AcDbText
 10
31.55202609591928
 20
1747.846816640624
 30
0.0
 40
28.50472005208333
  1
50Hz～19kHz
 41
0.7
 72
     1
 11
124.9999999999991
 21
1762.099176666666
 31
0.0
100
AcDbText
 73
     2
  0
TEXT
  5
6A
330
5C6
100
AcDbEntity
  8
SPEC
 62
     7
100
AcDbText
 10
-1224.0
 20
1692.514176666666
 30
0.0
 40
28.50472005208333
  1
カバレージ角(水平×垂直)
 41
0.7
 11
-1224.0
 21
1721.018896718749
 31
0.0
100
AcDbText
 73
     3
  0
TEXT
  5
6B
330
5C6
100
AcDbEntity
  8
SPEC
 62
     7
100
AcDbText
 10
-433.5296918402786
 20
1691.596816640624
 30
0.0
 40
28.50472005208333
  1
60°×40°
 41
0.7
 72
     1
 11
-375.0000000000008
 21
1705.849176666666
 31
0.0
100
AcDbText
 73
     2
  0
TEXT
  5
6C
330
5C6
100
AcDbEntity
  8
SPEC
 62
     7
100
AcDbText
 10
66.47030815972133
 20
1691.596816640624
 30
0.0
 40
28.50472005208333
  1
90°×50°
 41
0.7
 72
     1
 11
124.9999999999991
 21
1705.849176666666
 31
0.0
100
AcDbText
 73
     2
  0
TEXT
  5
6D
330
5C6
100
AcDbEntity
  8
SPEC
 62
     7
100
AcDbText
 10
556.4936561414922
 20
1691.596816640624
 30
0.0
 40
28.50472005208333
  1
100°×100°
 41
0.7
 72
     1
 11
624.9999999999992
 21
1705.849176666666
 31
0.0
100
AcDbText
 73
     2
  0
TEXT
  5
6E
330
5C6
100
AcDbEntity
  8
SPEC
 62
     7
100
AcDbText
 10
-1224.0
 20
1636.264176666666
 30
0.0
 40
28.50472005208333
  1
許容入力
 41
0.7
 11
-1224.0
 21
1664.768896718749
 31
0.0
100
AcDbText
 73
     3
  0
TEXT
  5
6F
330
5C6
100
AcDbEntity
  8
SPEC
 62
     7
100
AcDbText
 10
-936.5
 20
1636.264176666666
 30
0.0
 40
28.50472005208333
  1
パッシブ※1
 41
0.7
 11
-936.5
 21
1664.768896718749
 31
0.0
100
AcDbText
 73
     3
  0
TEXT
  5
70
330
5C6
100
AcDbEntity
  8
SPEC
 62
     7
100
AcDbText
 10
-44.93563937717093
 20
1635.346816640624
 30
0.0
 40
28.50472005208333
  1
300W(2h)、250W(100h)
 41
0.7
 72
     1
 11
124.9999999999991
 21
1649.599176666666
 31
0.0
100
AcDbText
 73
     2
  0
TEXT
  5
71
330
5C6
100
AcDbEntity
  8
SPEC
 62
     7
100
AcDbText
 10
-936.5
 20
1580.014176666666
 30
0.0
 40
28.50472005208333
  1
バイアンプ※2
 41
0.7
 11
-936.5
 21
1608.518896718749
 31
0.0
100
AcDbText
 73
     3
  0
TEXT
  5
72
330
5C6
100
AcDbEntity
  8
SPEC
 62
     7
100
AcDbText
 10
-68.21449408637232
 20
1579.096816640624
 30
0.0
 40
28.50472005208333
  1
LF:300W(2h)、250W(100h)
 41
0.7
 72
     1
 11
124.9999999999991
 21
1593.349176666666
 31
0.0
100
AcDbText
 73
     2
  0
TEXT
  5
73
330
5C6
100
AcDbEntity
  8
SPEC
 62
     7
100
AcDbText
 10
40.19845784505124
 20
1522.846816640624
 30
0.0
 40
28.50472005208333
  1
HF:30W(2h)
 41
0.7
 72
     1
 11
124.9999999999991
 21
1537.099176666666
 31
0.0
100
AcDbText
 73
     2
  0
TEXT
  5
74
330
5C6
100
AcDbEntity
  8
SPEC
 62
     7
100
AcDbText
 10
-1224.0
 20
1467.514176666666
 30
0.0
 40
28.50472005208333
  1
感度(1W、1m)
 41
0.7
 11
-1224.0
 21
1496.018896718749
 31
0.0
100
AcDbText
 73
     3
  0
TEXT
  5
75
330
5C6
100
AcDbEntity
  8
SPEC
 62
     7
100
AcDbText
 10
-936.5
 20
1467.514176666666
 30
0.0
 40
28.50472005208333
  1
パッシブ
 41
0.7
 11
-936.5
 21
1496.018896718749
 31
0.0
100
AcDbText
 73
     3
  0
TEXT
  5
76
330
5C6
100
AcDbEntity
  8
SPEC
 62
     7
100
AcDbText
 10
52.50299533420051
 20
1466.596816640624
 30
0.0
 40
28.50472005208333
  1
95dB SPL
 41
0.7
 72
     1
 11
124.9999999999991
 21
1480.849176666666
 31
0.0
100
AcDbText
 73
     2
  0
TEXT
  5
77
330
5C6
100
AcDbEntity
  8
SPEC
 62
     7
100
AcDbText
 10
-936.5
 20
1411.264176666666
 30
0.0
 40
28.50472005208333
  1
バイアンプ
 41
0.7
 11
-936.5
 21
1439.768896718749
 31
0.0
100
AcDbText
 73
     3
  0
TEXT
  5
78
330
5C6
100
AcDbEntity
  8
SPEC
 62
     7
100
AcDbText
 10
-470.7758593750007
 20
1410.346816640624
 30
0.0
 40
28.50472005208333
  1
LF:95dB SPL
 41
0.7
 72
     1
 11
-375.0000000000008
 21
1424.599176666666
 31
0.0
100
AcDbText
 73
     2
  0
TEXT
  5
79
330
5C6
100
AcDbEntity
  8
SPEC
 62
     7
100
AcDbText
 10
-474.1014100477438
 20
1354.096816640624
 30
0.0
 40
28.50472005208333
  1
HF:114dB SPL
 41
0.7
 72
     1
 11
-375.0000000000008
 21
1368.349176666666
 31
0.0
100
AcDbText
 73
     2
  0
TEXT
  5
7A
330
5C6
100
AcDbEntity
  8
SPEC
 62
     7
100
AcDbText
 10
29.22414062499915
 20
1410.346816640624
 30
0.0
 40
28.50472005208333
  1
LF:95dB SPL
 41
0.7
 72
     1
 11
124.9999999999991
 21
1424.599176666666
 31
0.0
100
AcDbText
 73
     2
  0
TEXT
  5
7B
330
5C6
100
AcDbEntity
  8
SPEC
 62
     7
100
AcDbText
 10
25.89858995225609
 20
1354.096816640624
 30
0.0
 40
28.50472005208333
  1
HF:112dB SPL
 41
0.7
 72
     1
 11
124.9999999999991
 21
1368.349176666666
 31
0.0
100
AcDbText
 73
     2
  0
TEXT
  5
7C
330
5C6
100
AcDbEntity
  8
SPEC
 62
     7
100
AcDbText
 10
529.2241406249992
 20
1410.346816640624
 30
0.0
 40
28.50472005208333
  1
LF:95dB SPL
 41
0.7
 72
     1
 11
624.9999999999992
 21
1424.599176666666
 31
0.0
100
AcDbText
 73
     2
  0
TEXT
  5
7D
330
5C6
100
AcDbEntity
  8
SPEC
 62
     7
100
AcDbText
 10
524.2358146158847
 20
1354.096816640624
 30
0.0
 40
28.50472005208333
  1
HF:109dB SPL
 41
0.7
 72
     1
 11
624.9999999999992
 21
1368.349176666666
 31
0.0
100
AcDbText
 73
     2
  0
TEXT
  5
7E
330
5C6
100
AcDbEntity
  8
SPEC
 62
     7
100
AcDbText
 10
-1224.0
 20
1298.764176666666
 30
0.0
 40
28.50472005208333
  1
公称インピー
 41
0.7
 11
-1224.0
 21
1327.26889671875
 31
0.0
100
AcDbText
 73
     3
  0
TEXT
  5
7F
330
5C6
100
AcDbEntity
  8
SPEC
 62
     7
100
AcDbText
 10
-936.5
 20
1298.764176666666
 30
0.0
 40
28.50472005208333
  1
パッシブ
 41
0.7
 11
-936.5
 21
1327.26889671875
 31
0.0
100
AcDbText
 73
     3
  0
TEXT
  5
80
330
5C6
100
AcDbEntity
  8
SPEC
 62
     7
100
AcDbText
 10
106.376916232638
 20
1297.846816640624
 30
0.0
 40
28.50472005208333
  1
8Ω
 41
0.7
 72
     1
 11
124.9999999999991
 21
1312.099176666666
 31
0.0
100
AcDbText
 73
     2
  0
TEXT
  5
81
330
5C6
100
AcDbEntity
  8
SPEC
 62
     7
100
AcDbText
 10
-936.5
 20
1242.514176666666
 30
0.0
 40
28.50472005208333
  1
バイアンプ
 41
0.7
 11
-936.5
 21
1271.018896718749
 31
0.0
100
AcDbText
 73
     3
  0
TEXT
  5
82
330
5C6
100
AcDbEntity
  8
SPEC
 62
     7
100
AcDbText
 10
25.89858995225608
 20
1241.596816640624
 30
0.0
 40
28.50472005208333
  1
LF:8Ω、HF:8Ω
 41
0.7
 72
     1
 11
124.9999999999991
 21
1255.849176666666
 31
0.0
100
AcDbText
 73
     2
  0
TEXT
  5
83
330
5C6
100
AcDbEntity
  8
SPEC
 62
     7
100
AcDbText
 10
-1224.0
 20
1186.264176666666
 30
0.0
 40
28.50472005208333
  1
最大音圧(1m)
 41
0.7
 11
-1224.0
 21
1214.768896718749
 31
0.0
100
AcDbText
 73
     3
  0
TEXT
  5
84
330
5C6
100
AcDbEntity
  8
SPEC
 62
     7
100
AcDbText
 10
-936.5
 20
1186.264176666666
 30
0.0
 40
28.50472005208333
  1
パッシブ
 41
0.7
 11
-936.5
 21
1214.768896718749
 31
0.0
100
AcDbText
 73
     3
  0
TEXT
  5
85
330
5C6
100
AcDbEntity
  8
SPEC
 62
     7
100
AcDbText
 10
47.51466932508593
 20
1185.346816640624
 30
0.0
 40
28.50472005208333
  1
120dB SPL
 41
0.7
 72
     1
 11
124.9999999999991
 21
1199.599176666666
 31
0.0
100
AcDbText
 73
     2
  0
TEXT
  5
86
330
5C6
100
AcDbEntity
  8
SPEC
 62
     7
100
AcDbText
 10
-936.5
 20
1130.014176666666
 30
0.0
 40
28.50472005208333
  1
バイアンプ
 41
0.7
 11
-936.5
 21
1158.518896718749
 31
0.0
100
AcDbText
 73
     3
  0
TEXT
  5
87
330
5C6
100
AcDbEntity
  8
SPEC
 62
     7
100
AcDbText
 10
-475.7641853841153
 20
1129.096816640624
 30
0.0
 40
28.50472005208333
  1
LF:120dB SPL
 41
0.7
 72
     1
 11
-375.0000000000008
 21
1143.349176666666
 31
0.0
100
AcDbText
 73
     2
  0
TEXT
  5
88
330
5C6
100
AcDbEntity
  8
SPEC
 62
     7
100
AcDbText
 10
-477.4269607204868
 20
1072.846816640624
 30
0.0
 40
28.50472005208333
  1
HF:129dB SPL
 41
0.7
 72
     1
 11
-375.0000000000008
 21
1087.099176666666
 31
0.0
100
AcDbText
 73
     2
  0
TEXT
  5
89
330
5C6
100
AcDbEntity
  8
SPEC
 62
     7
100
AcDbText
 10
24.23581461588457
 20
1129.096816640624
 30
0.0
 40
28.50472005208333
  1
LF:120dB SPL
 41
0.7
 72
     1
 11
124.9999999999991
 21
1143.349176666666
 31
0.0
100
AcDbText
 73
     2
  0
TEXT
  5
8A
330
5C6
100
AcDbEntity
  8
SPEC
 62
     7
100
AcDbText
 10
22.57303927951303
 20
1072.846816640624
 30
0.0
 40
28.50472005208333
  1
HF:127dB SPL
 41
0.7
 72
     1
 11
124.9999999999991
 21
1087.099176666666
 31
0.0
100
AcDbText
 73
     2
  0
TEXT
  5
8B
330
5C6
100
AcDbEntity
  8
SPEC
 62
     7
100
AcDbText
 10
524.2358146158847
 20
1129.096816640624
 30
0.0
 40
28.50472005208333
  1
LF:120dB SPL
 41
0.7
 72
     1
 11
624.9999999999992
 21
1143.349176666666
 31
0.0
100
AcDbText
 73
     2
  0
TEXT
  5
8C
330
5C6
100
AcDbEntity
  8
SPEC
 62
     7
100
AcDbText
 10
522.5730392795131
 20
1072.846816640624
 30
0.0
 40
28.50472005208333
  1
HF:126dB SPL
 41
0.7
 72
     1
 11
624.9999999999992
 21
1087.099176666666
 31
0.0
100
AcDbText
 73
     2
  0
TEXT
  5
8D
330
5C6
100
AcDbEntity
  8
SPEC
 62
     7
100
AcDbText
 10
-1224.0
 20
1017.514176666665
 30
0.0
 40
28.50472005208333
  1
クロスオーバー周波数
 41
0.7
 11
-1224.0
 21
1046.018896718749
 31
0.0
100
AcDbText
 73
     3
  0
TEXT
  5
8E
330
5C6
100
AcDbEntity
  8
SPEC
 62
     7
100
AcDbText
 10
-511.347577582466
 20
1016.596816640624
 30
0.0
 40
28.50472005208333
  1
2.1kHz(18dB/oct)
 41
0.7
 72
     1
 11
-375.0000000000008
 21
1030.849176666666
 31
0.0
100
AcDbText
 73
     2
  0
TEXT
  5
8F
330
5C6
100
AcDbEntity
  8
SPEC
 62
     7
100
AcDbText
 10
-11.34757758246616
 20
1016.596816640624
 30
0.0
 40
28.50472005208333
  1
1.7kHz(18dB/oct)
 41
0.7
 72
     1
 11
124.9999999999991
 21
1030.849176666666
 31
0.0
100
AcDbText
 73
     2
  0
TEXT
  5
90
330
5C6
100
AcDbEntity
  8
SPEC
 62
     7
100
AcDbText
 10
485.3268717447908
 20
1016.596816640624
 30
0.0
 40
28.50472005208333
  1
1.3kHz(24dB/oct)
 41
0.7
 72
     1
 11
624.9999999999992
 21
1030.849176666666
 31
0.0
100
AcDbText
 73
     2
  0
TEXT
  5
91
330
5C6
100
AcDbEntity
  8
SPEC
 62
     7
100
AcDbText
 10
-1224.0
 20
961.2641766666657
 30
0.0
 40
28.50472005208333
  1
ドライバー構成
 41
0.7
 11
-1224.0
 21
989.7688967187489
 31
0.0
100
AcDbText
 73
     3
  0
TEXT
  5
92
330
5C6
100
AcDbEntity
  8
SPEC
 62
     7
100
AcDbText
 10
-508.0220269097229
 20
960.3468166406242
 30
0.0
 40
28.50472005208333
  1
LF:300mm(M112-8)
 41
0.7
 72
     1
 11
-375.0000000000008
 21
974.5991766666659
 31
0.0
100
AcDbText
 73
     2
  0
TEXT
  5
93
330
5C6
100
AcDbEntity
  8
SPEC
 62
     7
100
AcDbText
 10
-556.5750667317716
 20
904.0968166406242
 30
0.0
 40
28.50472005208333
  1
HF:25mm(2412H/MTA)※3
 41
0.7
 72
     1
 11
-375.0000000000008
 21
918.3491766666659
 31
0.0
100
AcDbText
 73
     2
  0
TEXT
  5
94
330
5C6
100
AcDbEntity
  8
SPEC
 62
     7
100
AcDbText
 10
-8.022026909722995
 20
960.3468166406242
 30
0.0
 40
28.50472005208333
  1
LF:300mm(M112-8)
 41
0.7
 72
     1
 11
124.9999999999991
 21
974.5991766666659
 31
0.0
100
AcDbText
 73
     2
  0
TEXT
  5
95
330
5C6
100
AcDbEntity
  8
SPEC
 62
     7
100
AcDbText
 10
-18.33123399522651
 20
904.0968166406242
 30
0.0
 40
28.50472005208333
  1
HF;25mm(2412H)※3
 41
0.7
 72
     1
 11
124.9999999999991
 21
918.3491766666659
 31
0.0
100
AcDbText
 73
     2
  0
TEXT
  5
96
330
5C6
100
AcDbEntity
  8
SPEC
 62
     7
100
AcDbText
 10
491.9779730902771
 20
960.3468166406242
 30
0.0
 40
28.50472005208333
  1
LF:300mm(M112-8)
 41
0.7
 72
     1
 11
624.9999999999992
 21
974.5991766666659
 31
0.0
100
AcDbText
 73
     2
  0
TEXT
  5
97
330
5C6
100
AcDbEntity
  8
SPEC
 62
     7
100
AcDbText
 10
426.7971799045133
 20
904.0968166406242
 30
0.0
 40
28.50472005208333
  1
HF:44mm(2418H-1/MTA)※3
 41
0.7
 72
     1
 11
624.9999999999992
 21
918.3491766666659
 31
0.0
100
AcDbText
 73
     2
  0
TEXT
  5
98
330
5C6
100
AcDbEntity
  8
SPEC
 62
     7
100
AcDbText
 10
-1224.0
 20
848.7641766666657
 30
0.0
 40
28.50472005208333
  1
入力端子
 41
0.7
 11
-1224.0
 21
877.2688967187489
 31
0.0
100
AcDbText
 73
     3
  0
TEXT
  5
99
330
5C6
100
AcDbEntity
  8
SPEC
 62
     7
100
AcDbText
 10
-23.31956000434116
 20
847.8468166406244
 30
0.0
 40
28.50472005208333
  1
ねじ止め端子、4Pスピコン
 41
0.7
 72
     1
 11
124.9999999999991
 21
862.099176666666
 31
0.0
100
AcDbText
 73
     2
  0
TEXT
  5
9A
330
5C6
100
AcDbEntity
  8
SPEC
 62
     7
100
AcDbText
 10
-1224.0
 20
792.5141766666663
 30
0.0
 40
28.50472005208333
  1
仕上げ/色
 41
0.7
 11
-1224.0
 21
821.0188967187496
 31
0.0
100
AcDbText
 73
     3
  0
TEXT
  5
9B
330
5C6
100
AcDbEntity
  8
SPEC
 62
     7
100
AcDbText
 10
8.273171386717876
 20
791.5968166406245
 30
0.0
 40
28.50472005208333
  1
DuraFlex/黒、白
 41
0.7
 72
     1
 11
124.9999999999991
 21
805.849176666666
 31
0.0
100
AcDbText
 73
     2
  0
TEXT
  5
9C
330
5C6
100
AcDbEntity
  8
SPEC
 62
     7
100
AcDbText
 10
-5.361586371528631
 20
735.3468166406245
 30
0.0
 40
28.50472005208333
  1
359×548×357mm
 41
0.7
 72
     1
 11
124.9999999999991
 21
749.5991766666661
 31
0.0
100
AcDbText
 73
     2
  0
TEXT
  5
9D
330
5C6
100
AcDbEntity
  8
SPEC
 62
     7
100
AcDbText
 10
-408.2555067274314
 20
679.0968166406247
 30
0.0
 40
28.50472005208333
  1
18kg
 41
0.7
 72
     1
 11
-375.0000000000008
 21
693.3491766666663
 31
0.0
100
AcDbText
 73
     2
  0
TEXT
  5
9E
330
5C6
100
AcDbEntity
  8
SPEC
 62
     7
100
AcDbText
 10
91.74449327256855
 20
679.0968166406247
 30
0.0
 40
28.50472005208333
  1
18kg
 41
0.7
 72
     1
 11
124.9999999999991
 21
693.3491766666663
 31
0.0
100
AcDbText
 73
     2
  0
TEXT
  5
9F
330
5C6
100
AcDbEntity
  8
SPEC
 62
     7
100
AcDbText
 10
591.7444932725686
 20
679.0968166406247
 30
0.0
 40
28.50472005208333
  1
19kg
 41
0.7
 72
     1
 11
624.9999999999992
 21
693.3491766666663
 31
0.0
100
AcDbText
 73
     2
  0
TEXT
  5
A0
330
5C6
100
AcDbEntity
  8
SPEC
 62
     7
100
AcDbText
 10
-1224.0
 20
736.2641766666656
 30
0.0
 40
28.50472005208333
  1
寸法(W×H×D)
 41
0.7
 11
-1224.0
 21
764.768896718749
 31
0.0
100
AcDbText
 73
     3
  0
LINE
  5
A1
330
5C6
100
AcDbEntity
  8
SPEC
  6
Continuous
 62
     7
100
AcDbLine
 10
-125.0000000000009
 20
1680.695409999999
 30
0.0
 11
-125.0000000000009
 21
1736.945409999999
 31
0.0
  0
LINE
  5
A2
330
5C6
100
AcDbEntity
  8
SPEC
  6
Continuous
 62
     7
100
AcDbLine
 10
374.9999999999992
 20
1680.695409999999
 30
0.0
 11
374.9999999999992
 21
1736.945409999999
 31
0.0
  0
LINE
  5
A3
330
5C6
100
AcDbEntity
  8
SPEC
  6
Continuous
 62
     7
100
AcDbLine
 10
-125.0000000000009
 20
1343.19541
 30
0.0
 11
-125.0000000000009
 21
1455.695409999999
 31
0.0
  0
LINE
  5
A4
330
5C6
100
AcDbEntity
  8
SPEC
  6
Continuous
 62
     7
100
AcDbLine
 10
374.9999999999992
 20
1343.19541
 30
0.0
 11
374.9999999999992
 21
1455.695409999999
 31
0.0
  0
TEXT
  5
A5
330
5C6
100
AcDbEntity
  8
SPEC
 62
     7
100
AcDbText
 10
-1224.0
 20
1242.514176666665
 30
0.0
 40
28.50472005208333
  1
ダンス
 41
0.7
 11
-1224.0
 21
1271.018896718749
 31
0.0
100
AcDbText
 73
     3
  0
LINE
  5
A6
330
5C6
100
AcDbEntity
  8
SPEC
  6
Continuous
 62
     7
100
AcDbLine
 10
-125.0
 20
724.4454099999996
 30
0.0
 11
-125.0
 21
668.1954099999996
 31
0.0
  0
LINE
  5
A7
330
5C6
100
AcDbEntity
  8
SPEC
  6
Continuous
 62
     7
100
AcDbLine
 10
375.0
 20
724.4454099999996
 30
0.0
 11
375.0
 21
668.1954099999996
 31
0.0
  0
LINE
  5
A8
330
5C6
100
AcDbEntity
  8
SPEC
  6
Continuous
 62
     7
100
AcDbLine
 10
-125.0000000000009
 20
893.1954099999996
 30
0.0
 11
-125.0000000000009
 21
1174.445409999999
 31
0.0
  0
LINE
  5
A9
330
5C6
100
AcDbEntity
  8
SPEC
  6
Continuous
 62
     7
100
AcDbLine
 10
374.9999999999992
 20
893.1954099999996
 30
0.0
 11
374.9999999999992
 21
1174.445409999999
 31
0.0
  0
TEXT
  5
AA
330
5C6
100
AcDbEntity
  8
DIMNSIONS
 62
     7
100
AcDbText
 10
-299.9999999999999
 20
-1716.51224
 30
0.0
 40
36.64892578125
  1
(単位：mm)
 41
0.7
 11
-299.9999999999999
 21
-1679.86331421875
 31
0.0
100
AcDbText
 73
     3
  0
LINE
  5
AB
330
5C6
100
AcDbEntity
  8
DIMNSIONS
  6
Continuous
 62
     7
100
AcDbLine
 10
-645.6759999999998
 20
-462.7560385337037
 30
0.0
 11
-645.6759999999998
 21
-130.8415954272474
 31
0.0
  0
LINE
  5
AC
330
5C6
100
AcDbEntity
  8
DIMNSIONS
  6
Continuous
 62
     7
100
AcDbLine
 10
-733.8874936829338
 20
-173.168399756946
 30
0.0
 11
-741.8315641348781
 21
-143.486696010453
 31
0.0
  0
ARC
  5
AD
330
5C6
100
AcDbEntity
  8
DIMNSIONS
  6
Continuous
 62
     7
100
AcDbCircle
 10
-645.6759999999998
 20
-502.7560385337038
 30
0.0
 40
356.9144431064564
100
AcDbArc
 50
90.0
 51
104.9835767573729
  0
LINE
  5
AE
330
5C6
100
AcDbEntity
  8
DIMNSIONS
  6
Continuous
 62
     7
100
AcDbLine
 10
-737.9534317074954
 20
-157.9766956265911
 30
0.0
 11
-703.9897404435517
 21
-139.1503141382398
 31
0.0
  0
LINE
  5
AF
330
5C6
100
AcDbEntity
  8
DIMNSIONS
  6
Continuous
 62
     7
100
AcDbLine
 10
-737.9534317074954
 20
-157.9766956265911
 30
0.0
 11
-699.126821522453
 21
-158.6544166283136
 31
0.0
  0
LINE
  5
B0
330
5C6
100
AcDbEntity
  8
DIMNSIONS
  6
Continuous
 62
     7
100
AcDbLine
 10
-645.6759999999998
 20
-145.8415954272474
 30
0.0
 11
-683.185338378906
 21
-155.892192354501
 31
0.0
  0
LINE
  5
B1
330
5C6
100
AcDbEntity
  8
DIMNSIONS
  6
Continuous
 62
     7
100
AcDbLine
 10
-645.6759999999998
 20
-145.8415954272474
 30
0.0
 11
-683.185338378906
 21
-135.7909984999938
 31
0.0
  0
TEXT
  5
B2
330
5C6
100
AcDbEntity
  8
DIMNSIONS
 62
     7
100
AcDbText
 10
-738.4994700892319
 20
-131.1786633644191
 30
0.0
 40
40.72102864583334
  1
15°
 50
6.084277314307797
 41
0.7
 11
-742.8155411245583
 21
-90.68701354877452
 31
0.0
100
AcDbText
 73
     3
  0
LINE
  5
B3
330
5C6
100
AcDbEntity
  8
DIMNSIONS
  6
Continuous
 62
     7
100
AcDbLine
 10
-1004.324
 20
-1241.112
 30
0.0
 11
-1004.324
 21
-1315.0
 31
0.0
  0
LINE
  5
B4
330
5C6
100
AcDbEntity
  8
DIMNSIONS
  6
Continuous
 62
     7
100
AcDbLine
 10
-645.6759999999998
 20
-1241.112
 30
0.0
 11
-645.6759999999998
 21
-1315.0
 31
0.0
  0
LINE
  5
B5
330
5C6
100
AcDbEntity
  8
DIMNSIONS
  6
Continuous
 62
     7
100
AcDbLine
 10
-1004.324
 20
-1300.0
 30
0.0
 11
-645.6759999999998
 21
-1300.0
 31
0.0
  0
LINE
  5
B6
330
5C6
100
AcDbEntity
  8
DIMNSIONS
  6
Continuous
 62
     7
100
AcDbLine
 10
-1004.324
 20
-1300.0
 30
0.0
 11
-966.8146616210936
 21
-1289.949403072746
 31
0.0
  0
LINE
  5
B7
330
5C6
100
AcDbEntity
  8
DIMNSIONS
  6
Continuous
 62
     7
100
AcDbLine
 10
-1004.324
 20
-1300.0
 30
0.0
 11
-966.8146616210936
 21
-1310.050596927254
 31
0.0
  0
LINE
  5
B8
330
5C6
100
AcDbEntity
  8
DIMNSIONS
  6
Continuous
 62
     7
100
AcDbLine
 10
-645.6759999999998
 20
-1300.0
 30
0.0
 11
-683.185338378906
 21
-1310.050596927254
 31
0.0
  0
LINE
  5
B9
330
5C6
100
AcDbEntity
  8
DIMNSIONS
  6
Continuous
 62
     7
100
AcDbLine
 10
-645.6759999999998
 20
-1300.0
 30
0.0
 11
-683.185338378906
 21
-1289.949403072746
 31
0.0
  0
TEXT
  5
BA
330
5C6
100
AcDbEntity
  8
DIMNSIONS
 62
     7
100
AcDbText
 10
-864.6874999999999
 20
-1285.091666666666
 30
0.0
 40
40.72102864583334
  1
359
 41
0.7
 11
-864.6874999999999
 21
-1244.370638020833
 31
0.0
100
AcDbText
 73
     3
  0
LINE
  5
BB
330
5C6
100
AcDbEntity
  8
DIMNSIONS
  6
Continuous
 62
     7
100
AcDbLine
 10
-1021.624
 20
-676.1880000000001
 30
0.0
 11
-1065.0
 21
-676.1880000000001
 31
0.0
  0
LINE
  5
BC
330
5C6
100
AcDbEntity
  8
DIMNSIONS
  6
Continuous
 62
     7
100
AcDbLine
 10
-1021.624
 20
-1223.812
 30
0.0
 11
-1065.0
 21
-1223.812
 31
0.0
  0
LINE
  5
BD
330
5C6
100
AcDbEntity
  8
DIMNSIONS
  6
Continuous
 62
     7
100
AcDbLine
 10
-1050.0
 20
-676.1880000000001
 30
0.0
 11
-1050.0
 21
-1223.812
 31
0.0
  0
LINE
  5
BE
330
5C6
100
AcDbEntity
  8
DIMNSIONS
  6
Continuous
 62
     7
100
AcDbLine
 10
-1050.0
 20
-676.1880000000001
 30
0.0
 11
-1039.949403072746
 21
-713.6973383789063
 31
0.0
  0
LINE
  5
BF
330
5C6
100
AcDbEntity
  8
DIMNSIONS
  6
Continuous
 62
     7
100
AcDbLine
 10
-1050.0
 20
-676.1880000000001
 30
0.0
 11
-1060.050596927253
 21
-713.6973383789063
 31
0.0
  0
LINE
  5
C0
330
5C6
100
AcDbEntity
  8
DIMNSIONS
  6
Continuous
 62
     7
100
AcDbLine
 10
-1050.0
 20
-1223.812
 30
0.0
 11
-1060.050596927253
 21
-1186.302661621093
 31
0.0
  0
LINE
  5
C1
330
5C6
100
AcDbEntity
  8
DIMNSIONS
  6
Continuous
 62
     7
100
AcDbLine
 10
-1050.0
 20
-1223.812
 30
0.0
 11
-1039.949403072746
 21
-1186.302661621093
 31
0.0
  0
TEXT
  5
C2
330
5C6
100
AcDbEntity
  8
DIMNSIONS
 62
     7
100
AcDbText
 10
-1064.908333333333
 20
-989.6874999999999
 30
0.0
 40
40.72102864583334
  1
548
 50
90.0
 41
0.7
 11
-1105.629361979166
 21
-989.6874999999999
 31
0.0
100
AcDbText
 73
     3
  0
LINE
  5
C3
330
5C6
100
AcDbEntity
  8
DIMNSIONS
  6
Continuous
 62
     7
100
AcDbLine
 10
-941.8345289306316
 20
-193.1100279418752
 30
0.0
 11
-1115.0
 21
-193.1100279418752
 31
0.0
  0
LINE
  5
C4
330
5C6
100
AcDbEntity
  8
DIMNSIONS
  6
Continuous
 62
     7
100
AcDbLine
 10
-854.757050183422
 20
-550.0
 30
0.0
 11
-1115.0
 21
-550.0
 31
0.0
  0
LINE
  5
C5
330
5C6
100
AcDbEntity
  8
DIMNSIONS
  6
Continuous
 62
     7
100
AcDbLine
 10
-1100.0
 20
-193.1100279418752
 30
0.0
 11
-1100.0
 21
-550.0
 31
0.0
  0
LINE
  5
C6
330
5C6
100
AcDbEntity
  8
DIMNSIONS
  6
Continuous
 62
     7
100
AcDbLine
 10
-1100.0
 20
-193.1100279418752
 30
0.0
 11
-1089.949403072746
 21
-230.6193663207814
 31
0.0
  0
LINE
  5
C7
330
5C6
100
AcDbEntity
  8
DIMNSIONS
  6
Continuous
 62
     7
100
AcDbLine
 10
-1100.0
 20
-193.1100279418752
 30
0.0
 11
-1110.050596927253
 21
-230.6193663207814
 31
0.0
  0
LINE
  5
C8
330
5C6
100
AcDbEntity
  8
DIMNSIONS
  6
Continuous
 62
     7
100
AcDbLine
 10
-1100.0
 20
-550.0
 30
0.0
 11
-1110.050596927253
 21
-512.4906616210937
 31
0.0
  0
LINE
  5
C9
330
5C6
100
AcDbEntity
  8
DIMNSIONS
  6
Continuous
 62
     7
100
AcDbLine
 10
-1100.0
 20
-550.0
 30
0.0
 11
-1089.949403072746
 21
-512.4906616210937
 31
0.0
  0
TEXT
  5
CA
330
5C6
100
AcDbEntity
  8
DIMNSIONS
 62
     7
100
AcDbText
 10
-1114.908333333333
 20
-411.2425139709376
 30
0.0
 40
40.72102864583334
  1
357
 50
90.0
 41
0.7
 11
-1155.629361979166
 21
-411.2425139709376
 31
0.0
100
AcDbText
 73
     3
  0
LINE
  5
CB
330
5C6
100
AcDbEntity
  8
DIMNSIONS
  6
Continuous
 62
     7
100
AcDbLine
 10
-225.81
 20
-1223.812
 30
0.0
 11
-160.0
 21
-1223.812
 31
0.0
  0
LINE
  5
CC
330
5C6
100
AcDbEntity
  8
DIMNSIONS
  6
Continuous
 62
     7
100
AcDbLine
 10
-432.8361814916502
 20
-1181.394
 30
0.0
 11
-160.0
 21
-1181.394
 31
0.0
  0
LINE
  5
CD
330
5C6
100
AcDbEntity
  8
DIMNSIONS
  6
Continuous
 62
     7
100
AcDbLine
 10
-175.0
 20
-1181.394
 30
0.0
 11
-175.0
 21
-1223.812
 31
0.0
  0
LINE
  5
CE
330
5C6
100
AcDbEntity
  8
DIMNSIONS
  6
Continuous
 62
     7
100
AcDbLine
 10
-175.0
 20
-1223.812
 30
0.0
 11
-175.0
 21
-1298.812
 31
0.0
  0
LINE
  5
CF
330
5C6
100
AcDbEntity
  8
DIMNSIONS
  6
Continuous
 62
     7
100
AcDbLine
 10
-175.0
 20
-1223.812
 30
0.0
 11
-164.9494030727464
 21
-1261.321338378906
 31
0.0
  0
LINE
  5
D0
330
5C6
100
AcDbEntity
  8
DIMNSIONS
  6
Continuous
 62
     7
100
AcDbLine
 10
-175.0
 20
-1223.812
 30
0.0
 11
-185.0505969272536
 21
-1261.321338378906
 31
0.0
  0
LINE
  5
D1
330
5C6
100
AcDbEntity
  8
DIMNSIONS
  6
Continuous
 62
     7
100
AcDbLine
 10
-175.0
 20
-1181.394
 30
0.0
 11
-175.0
 21
-1069.166666666667
 31
0.0
  0
LINE
  5
D2
330
5C6
100
AcDbEntity
  8
DIMNSIONS
  6
Continuous
 62
     7
100
AcDbLine
 10
-175.0
 20
-1181.394
 30
0.0
 11
-185.0505969272536
 21
-1143.884661621093
 31
0.0
  0
LINE
  5
D3
330
5C6
100
AcDbEntity
  8
DIMNSIONS
  6
Continuous
 62
     7
100
AcDbLine
 10
-175.0
 20
-1181.394
 30
0.0
 11
-164.9494030727464
 21
-1143.884661621093
 31
0.0
  0
TEXT
  5
D4
330
5C6
100
AcDbEntity
  8
DIMNSIONS
 62
     7
100
AcDbText
 10
-189.9083333333333
 20
-1175.0
 30
0.0
 40
40.72102864583334
  1
42.4
 50
90.0
 41
0.7
 11
-230.6293619791667
 21
-1175.0
 31
0.0
100
AcDbText
 73
     3
  0
LINE
  5
D5
330
5C6
100
AcDbEntity
  8
DIMNSIONS
  6
Continuous
 62
     7
100
AcDbLine
 10
-432.8361814916502
 20
-718.6060000000001
 30
0.0
 11
-135.0
 21
-718.6060000000001
 31
0.0
  0
LINE
  5
D6
330
5C6
100
AcDbEntity
  8
DIMNSIONS
  6
Continuous
 62
     7
100
AcDbLine
 10
-225.81
 20
-1223.812
 30
0.0
 11
-135.0
 21
-1223.812
 31
0.0
  0
LINE
  5
D7
330
5C6
100
AcDbEntity
  8
DIMNSIONS
  6
Continuous
 62
     7
100
AcDbLine
 10
-150.0
 20
-718.6060000000001
 30
0.0
 11
-150.0
 21
-1223.812
 31
0.0
  0
LINE
  5
D8
330
5C6
100
AcDbEntity
  8
DIMNSIONS
  6
Continuous
 62
     7
100
AcDbLine
 10
-150.0
 20
-718.6060000000001
 30
0.0
 11
-139.9494030727463
 21
-756.1153383789063
 31
0.0
  0
LINE
  5
D9
330
5C6
100
AcDbEntity
  8
DIMNSIONS
  6
Continuous
 62
     7
100
AcDbLine
 10
-150.0
 20
-718.6060000000001
 30
0.0
 11
-160.0505969272536
 21
-756.1153383789063
 31
0.0
  0
LINE
  5
DA
330
5C6
100
AcDbEntity
  8
DIMNSIONS
  6
Continuous
 62
     7
100
AcDbLine
 10
-150.0
 20
-1223.812
 30
0.0
 11
-160.0505969272536
 21
-1186.302661621093
 31
0.0
  0
LINE
  5
DB
330
5C6
100
AcDbEntity
  8
DIMNSIONS
  6
Continuous
 62
     7
100
AcDbLine
 10
-150.0
 20
-1223.812
 30
0.0
 11
-139.9494030727463
 21
-1186.302661621093
 31
0.0
  0
TEXT
  5
DC
330
5C6
100
AcDbEntity
  8
DIMNSIONS
 62
     7
100
AcDbText
 10
-164.9083333333333
 20
-1010.8965
 30
0.0
 40
40.72102864583334
  1
505
 50
90.0
 41
0.7
 11
-205.6293619791667
 21
-1010.8965
 31
0.0
100
AcDbText
 73
     3
  0
LINE
  5
DD
330
5C6
100
AcDbEntity
  8
DIMNSIONS
  6
Continuous
 62
     7
100
AcDbLine
 10
-942.0008855389367
 20
-193.1100279418752
 30
0.0
 11
-1040.0
 21
-193.1100279418752
 31
0.0
  0
LINE
  5
DE
330
5C6
100
AcDbEntity
  8
DIMNSIONS
  6
Continuous
 62
     7
100
AcDbLine
 10
-855.0
 20
-235.5280279418753
 30
0.0
 11
-1040.0
 21
-235.5280279418753
 31
0.0
  0
LINE
  5
DF
330
5C6
100
AcDbEntity
  8
DIMNSIONS
  6
Continuous
 62
     7
100
AcDbLine
 10
-1025.0
 20
-235.5280279418753
 30
0.0
 11
-1025.0
 21
-193.1100279418752
 31
0.0
  0
LINE
  5
E0
330
5C6
100
AcDbEntity
  8
DIMNSIONS
  6
Continuous
 62
     7
100
AcDbLine
 10
-1025.0
 20
-193.1100279418752
 30
0.0
 11
-1025.0
 21
-72.84293787880113
 31
0.0
  0
LINE
  5
E1
330
5C6
100
AcDbEntity
  8
DIMNSIONS
  6
Continuous
 62
     7
100
AcDbLine
 10
-1025.0
 20
-193.1100279418752
 30
0.0
 11
-1035.050596927253
 21
-155.6006895629689
 31
0.0
  0
LINE
  5
E2
330
5C6
100
AcDbEntity
  8
DIMNSIONS
  6
Continuous
 62
     7
100
AcDbLine
 10
-1025.0
 20
-193.1100279418752
 30
0.0
 11
-1014.949403072746
 21
-155.6006895629689
 31
0.0
  0
LINE
  5
E3
330
5C6
100
AcDbEntity
  8
DIMNSIONS
  6
Continuous
 62
     7
100
AcDbLine
 10
-1025.0
 20
-235.5280279418753
 30
0.0
 11
-1025.0
 21
-310.5280279418753
 31
0.0
  0
LINE
  5
E4
330
5C6
100
AcDbEntity
  8
DIMNSIONS
  6
Continuous
 62
     7
100
AcDbLine
 10
-1025.0
 20
-235.5280279418753
 30
0.0
 11
-1014.949403072746
 21
-273.0373663207815
 31
0.0
  0
LINE
  5
E5
330
5C6
100
AcDbEntity
  8
DIMNSIONS
  6
Continuous
 62
     7
100
AcDbLine
 10
-1025.0
 20
-235.5280279418753
 30
0.0
 11
-1035.050596927253
 21
-273.0373663207815
 31
0.0
  0
TEXT
  5
E6
330
5C6
100
AcDbEntity
  8
DIMNSIONS
 62
     7
100
AcDbText
 10
-1039.908333333333
 20
-178.6762712121344
 30
0.0
 40
40.72102864583334
  1
42.4
 50
90.0
 41
0.7
 11
-1080.629361979167
 21
-178.6762712121344
 31
0.0
100
AcDbText
 73
     3
  0
LINE
  5
E7
330
5C6
100
AcDbEntity
  8
DIMNSIONS
  6
Continuous
 62
     7
100
AcDbLine
 10
-855.0
 20
-235.5280279418753
 30
0.0
 11
-1040.0
 21
-235.5280279418753
 31
0.0
  0
LINE
  5
E8
330
5C6
100
AcDbEntity
  8
DIMNSIONS
  6
Continuous
 62
     7
100
AcDbLine
 10
-855.0
 20
-368.6100279418752
 30
0.0
 11
-1040.0
 21
-368.6100279418752
 31
0.0
  0
LINE
  5
E9
330
5C6
100
AcDbEntity
  8
DIMNSIONS
  6
Continuous
 62
     7
100
AcDbLine
 10
-1025.0
 20
-235.5280279418753
 30
0.0
 11
-1025.0
 21
-368.6100279418752
 31
0.0
  0
LINE
  5
EA
330
5C6
100
AcDbEntity
  8
DIMNSIONS
  6
Continuous
 62
     7
100
AcDbLine
 10
-1025.0
 20
-235.5280279418753
 30
0.0
 11
-1014.949403072746
 21
-273.0373663207815
 31
0.0
  0
LINE
  5
EB
330
5C6
100
AcDbEntity
  8
DIMNSIONS
  6
Continuous
 62
     7
100
AcDbLine
 10
-1025.0
 20
-235.5280279418753
 30
0.0
 11
-1035.050596927253
 21
-273.0373663207815
 31
0.0
  0
LINE
  5
EC
330
5C6
100
AcDbEntity
  8
DIMNSIONS
  6
Continuous
 62
     7
100
AcDbLine
 10
-1025.0
 20
-368.6100279418752
 30
0.0
 11
-1035.050596927253
 21
-331.1006895629688
 31
0.0
  0
LINE
  5
ED
330
5C6
100
AcDbEntity
  8
DIMNSIONS
  6
Continuous
 62
     7
100
AcDbLine
 10
-1025.0
 20
-368.6100279418752
 30
0.0
 11
-1014.949403072746
 21
-331.1006895629688
 31
0.0
  0
TEXT
  5
EE
330
5C6
100
AcDbEntity
  8
DIMNSIONS
 62
     7
100
AcDbText
 10
-1039.908333333333
 20
-341.7565279418752
 30
0.0
 40
40.72102864583334
  1
133
 50
90.0
 41
0.7
 11
-1080.629361979166
 21
-341.7565279418752
 31
0.0
100
AcDbText
 73
     3
  0
LINE
  5
EF
330
5C6
100
AcDbEntity
  8
DIMNSIONS
  6
Continuous
 62
     7
100
AcDbLine
 10
-972.1499864738824
 20
-434.6100279418751
 30
0.0
 11
-1040.0
 21
-434.6100279418751
 31
0.0
  0
LINE
  5
F0
330
5C6
100
AcDbEntity
  8
DIMNSIONS
  6
Continuous
 62
     7
100
AcDbLine
 10
-855.0
 20
-368.6100279418752
 30
0.0
 11
-1040.0
 21
-368.6100279418752
 31
0.0
  0
LINE
  5
F1
330
5C6
100
AcDbEntity
  8
DIMNSIONS
  6
Continuous
 62
     7
100
AcDbLine
 10
-1025.0
 20
-368.6100279418752
 30
0.0
 11
-1025.0
 21
-434.6100279418751
 31
0.0
  0
LINE
  5
F2
330
5C6
100
AcDbEntity
  8
DIMNSIONS
  6
Continuous
 62
     7
100
AcDbLine
 10
-1025.0
 20
-434.6100279418751
 30
0.0
 11
-1025.0
 21
-509.6100279418751
 31
0.0
  0
LINE
  5
F3
330
5C6
100
AcDbEntity
  8
DIMNSIONS
  6
Continuous
 62
     7
100
AcDbLine
 10
-1025.0
 20
-434.6100279418751
 30
0.0
 11
-1014.949403072746
 21
-472.1193663207814
 31
0.0
  0
LINE
  5
F4
330
5C6
100
AcDbEntity
  8
DIMNSIONS
  6
Continuous
 62
     7
100
AcDbLine
 10
-1025.0
 20
-434.6100279418751
 30
0.0
 11
-1035.050596927253
 21
-472.1193663207814
 31
0.0
  0
LINE
  5
F5
330
5C6
100
AcDbEntity
  8
DIMNSIONS
  6
Continuous
 62
     7
100
AcDbLine
 10
-1025.0
 20
-368.6100279418752
 30
0.0
 11
-1025.0
 21
-293.6100279418752
 31
0.0
  0
LINE
  5
F6
330
5C6
100
AcDbEntity
  8
DIMNSIONS
  6
Continuous
 62
     7
100
AcDbLine
 10
-1025.0
 20
-368.6100279418752
 30
0.0
 11
-1035.050596927253
 21
-331.1006895629688
 31
0.0
  0
LINE
  5
F7
330
5C6
100
AcDbEntity
  8
DIMNSIONS
  6
Continuous
 62
     7
100
AcDbLine
 10
-1025.0
 20
-368.6100279418752
 30
0.0
 11
-1014.949403072746
 21
-331.1006895629688
 31
0.0
  0
TEXT
  5
F8
330
5C6
100
AcDbEntity
  8
DIMNSIONS
 62
     7
100
AcDbText
 10
-1047.408333333333
 20
-487.5266946085416
 30
0.0
 40
40.72102864583334
  1
66.0
 50
90.0
 41
0.7
 11
-1088.129361979166
 21
-487.5266946085416
 31
0.0
100
AcDbText
 73
     3
  0
LINE
  5
F9
330
5C6
100
AcDbEntity
  8
DIMNSIONS
  6
Continuous
 62
     7
100
AcDbLine
 10
-825.0
 20
-398.6100279418752
 30
0.0
 11
-825.0
 21
-640.0
 31
0.0
  0
LINE
  5
FA
330
5C6
100
AcDbEntity
  8
DIMNSIONS
  6
Continuous
 62
     7
100
AcDbLine
 10
-707.8500135261175
 20
-464.6100279418751
 30
0.0
 11
-707.8500135261175
 21
-640.0
 31
0.0
  0
LINE
  5
FB
330
5C6
100
AcDbEntity
  8
DIMNSIONS
  6
Continuous
 62
     7
100
AcDbLine
 10
-825.0
 20
-625.0
 30
0.0
 11
-707.8500135261175
 21
-625.0
 31
0.0
  0
LINE
  5
FC
330
5C6
100
AcDbEntity
  8
DIMNSIONS
  6
Continuous
 62
     7
100
AcDbLine
 10
-825.0
 20
-625.0
 30
0.0
 11
-787.4906616210937
 21
-614.9494030727463
 31
0.0
  0
LINE
  5
FD
330
5C6
100
AcDbEntity
  8
DIMNSIONS
  6
Continuous
 62
     7
100
AcDbLine
 10
-825.0
 20
-625.0
 30
0.0
 11
-787.4906616210937
 21
-635.0505969272536
 31
0.0
  0
LINE
  5
FE
330
5C6
100
AcDbEntity
  8
DIMNSIONS
  6
Continuous
 62
     7
100
AcDbLine
 10
-707.8500135261175
 20
-625.0
 30
0.0
 11
-745.3593519050238
 21
-635.0505969272536
 31
0.0
  0
LINE
  5
FF
330
5C6
100
AcDbEntity
  8
DIMNSIONS
  6
Continuous
 62
     7
100
AcDbLine
 10
-707.8500135261175
 20
-625.0
 30
0.0
 11
-745.3593519050238
 21
-614.9494030727463
 31
0.0
  0
TEXT
  5
100
330
5C6
100
AcDbEntity
  8
DIMNSIONS
 62
     7
100
AcDbText
 10
-806.1125067630587
 20
-610.0916666666667
 30
0.0
 40
40.72102864583334
  1
117
 41
0.7
 11
-806.1125067630587
 21
-569.3706380208332
 31
0.0
100
AcDbText
 73
     3
  0
LINE
  5
101
330
5C6
100
AcDbEntity
  8
DIMNSIONS
  6
Continuous
 62
     7
100
AcDbLine
 10
-825.0
 20
-398.6100279418752
 30
0.0
 11
-825.0
 21
-640.0
 31
0.0
  0
LINE
  5
102
330
5C6
100
AcDbEntity
  8
DIMNSIONS
  6
Continuous
 62
     7
100
AcDbLine
 10
-942.1499864738825
 20
-464.6100279418751
 30
0.0
 11
-942.1499864738825
 21
-640.0
 31
0.0
  0
LINE
  5
103
330
5C6
100
AcDbEntity
  8
DIMNSIONS
  6
Continuous
 62
     7
100
AcDbLine
 10
-825.0
 20
-625.0
 30
0.0
 11
-942.1499864738825
 21
-625.0
 31
0.0
  0
LINE
  5
104
330
5C6
100
AcDbEntity
  8
DIMNSIONS
  6
Continuous
 62
     7
100
AcDbLine
 10
-825.0
 20
-625.0
 30
0.0
 11
-862.5093383789062
 21
-635.0505969272536
 31
0.0
  0
LINE
  5
105
330
5C6
100
AcDbEntity
  8
DIMNSIONS
  6
Continuous
 62
     7
100
AcDbLine
 10
-825.0
 20
-625.0
 30
0.0
 11
-862.5093383789062
 21
-614.9494030727463
 31
0.0
  0
LINE
  5
106
330
5C6
100
AcDbEntity
  8
DIMNSIONS
  6
Continuous
 62
     7
100
AcDbLine
 10
-942.1499864738825
 20
-625.0
 30
0.0
 11
-904.6406480949762
 21
-614.9494030727463
 31
0.0
  0
LINE
  5
107
330
5C6
100
AcDbEntity
  8
DIMNSIONS
  6
Continuous
 62
     7
100
AcDbLine
 10
-942.1499864738825
 20
-625.0
 30
0.0
 11
-904.6406480949762
 21
-635.0505969272536
 31
0.0
  0
TEXT
  5
108
330
5C6
100
AcDbEntity
  8
DIMNSIONS
 62
     7
100
AcDbText
 10
-923.2624932369411
 20
-610.0916666666667
 30
0.0
 40
40.72102864583334
  1
117
 41
0.7
 11
-923.2624932369411
 21
-569.3706380208332
 31
0.0
100
AcDbText
 73
     3
  0
LINE
  5
109
330
5C6
100
AcDbEntity
  8
DIMNSIONS
  6
Continuous
 62
     7
100
AcDbLine
 10
-697.537651486598
 20
-430.3021090515302
 30
0.0
 11
-625.0
 21
-400.0
 31
0.0
  0
LINE
  5
10A
330
5C6
100
AcDbEntity
  8
DIMNSIONS
  6
Continuous
 62
     7
100
AcDbLine
 10
-697.537651486598
 20
-430.3021090515302
 30
0.0
 11
-666.5246184229088
 21
-406.9321123804153
 31
0.0
  0
LINE
  5
10B
330
5C6
100
AcDbEntity
  8
DIMNSIONS
  6
Continuous
 62
     7
100
AcDbLine
 10
-697.537651486598
 20
-430.3021090515302
 30
0.0
 11
-658.994578669479
 21
-425.5696147798316
 31
0.0
  0
LINE
  5
10C
330
5C6
100
AcDbEntity
  8
DIMNSIONS
  6
Continuous
 62
     7
100
AcDbLine
 10
-625.0
 20
-400.0
 30
0.0
 11
-595.0
 21
-400.0
 31
0.0
  0
TEXT
  5
10D
330
5C6
100
AcDbEntity
  8
DIMNSIONS
 62
     7
100
AcDbText
 10
-595.0
 20
-419.0499999999999
 30
0.0
 40
40.72102864583334
  1
M10(8ヵ所)
 41
0.7
 11
-595.0
 21
-378.3289713541666
 31
0.0
100
AcDbText
 73
     3
  0
LINE
  5
10E
330
5C6
100
AcDbEntity
  8
DIMNSIONS
  6
Continuous
 62
     7
100
AcDbLine
 10
-479.155693233981
 20
-708.9051516010458
 30
0.0
 11
-525.0
 21
-625.0
 31
0.0
  0
LINE
  5
10F
330
5C6
100
AcDbEntity
  8
DIMNSIONS
  6
Continuous
 62
     7
100
AcDbLine
 10
-479.155693233981
 20
-708.9051516010458
 30
0.0
 11
-505.6394113055048
 21
-680.5048410160284
 31
0.0
  0
LINE
  5
110
330
5C6
100
AcDbEntity
  8
DIMNSIONS
  6
Continuous
 62
     7
100
AcDbLine
 10
-479.155693233981
 20
-708.9051516010458
 30
0.0
 11
-487.8911105780771
 21
-671.0679021232907
 31
0.0
  0
LINE
  5
111
330
5C6
100
AcDbEntity
  8
DIMNSIONS
  6
Continuous
 62
     7
100
AcDbLine
 10
-525.0
 20
-625.0
 30
0.0
 11
-495.0
 21
-625.0
 31
0.0
  0
TEXT
  5
112
330
5C6
100
AcDbEntity
  8
DIMNSIONS
 62
     7
100
AcDbText
 10
-495.0
 20
-644.0500000000001
 30
0.0
 40
40.72102864583334
  1
M10(4ヵ所)
 41
0.7
 11
-495.0
 21
-603.3289713541667
 31
0.0
100
AcDbText
 73
     3
  0
LINE
  5
113
330
5C6
100
AcDbEntity
  8
DIMNSIONS
  6
Continuous
 62
     7
100
AcDbLine
 10
66.840832216998
 20
-710.9685294050433
 30
0.0
 11
-25.0
 21
-625.0
 31
0.0
  0
LINE
  5
114
330
5C6
100
AcDbEntity
  8
DIMNSIONS
  6
Continuous
 62
     7
100
AcDbLine
 10
66.840832216998
 20
-710.9685294050433
 30
0.0
 11
32.87714095305445
 21
-692.1421479166922
 31
0.0
  0
LINE
  5
115
330
5C6
100
AcDbEntity
  8
DIMNSIONS
  6
Continuous
 62
     7
100
AcDbLine
 10
66.840832216998
 20
-710.9685294050433
 30
0.0
 11
46.84060352030689
 21
-677.6825591428223
 31
0.0
  0
LINE
  5
116
330
5C6
100
AcDbEntity
  8
DIMNSIONS
  6
Continuous
 62
     7
100
AcDbLine
 10
-25.0
 20
-625.0
 30
0.0
 11
5.0
 21
-625.0
 31
0.0
  0
TEXT
  5
117
330
5C6
100
AcDbEntity
  8
DIMNSIONS
 62
     7
100
AcDbText
 10
4.999999999999997
 20
-644.0500000000001
 30
0.0
 40
40.72102864583334
  1
M10(2ヵ所)
 41
0.7
 11
5.0
 21
-603.3289713541667
 31
0.0
100
AcDbText
 73
     3
  0
LINE
  5
118
330
5C6
100
AcDbEntity
  8
DIMNSIONS
  6
Continuous
 62
     7
100
AcDbLine
 10
116.1760000000004
 20
-1181.394
 30
0.0
 11
340.0
 21
-1181.394
 31
0.0
  0
LINE
  5
119
330
5C6
100
AcDbEntity
  8
DIMNSIONS
  6
Continuous
 62
     7
100
AcDbLine
 10
271.6239999999998
 20
-1223.812
 30
0.0
 11
340.0
 21
-1223.812
 31
0.0
  0
LINE
  5
11A
330
5C6
100
AcDbEntity
  8
DIMNSIONS
  6
Continuous
 62
     7
100
AcDbLine
 10
325.0
 20
-1223.812
 30
0.0
 11
325.0
 21
-1181.394
 31
0.0
  0
LINE
  5
11B
330
5C6
100
AcDbEntity
  8
DIMNSIONS
  6
Continuous
 62
     7
100
AcDbLine
 10
325.0
 20
-1181.394
 30
0.0
 11
325.0
 21
-1069.166666666667
 31
0.0
  0
LINE
  5
11C
330
5C6
100
AcDbEntity
  8
DIMNSIONS
  6
Continuous
 62
     7
100
AcDbLine
 10
325.0
 20
-1181.394
 30
0.0
 11
314.9494030727464
 21
-1143.884661621093
 31
0.0
  0
LINE
  5
11D
330
5C6
100
AcDbEntity
  8
DIMNSIONS
  6
Continuous
 62
     7
100
AcDbLine
 10
325.0
 20
-1181.394
 30
0.0
 11
335.0505969272536
 21
-1143.884661621093
 31
0.0
  0
LINE
  5
11E
330
5C6
100
AcDbEntity
  8
DIMNSIONS
  6
Continuous
 62
     7
100
AcDbLine
 10
325.0
 20
-1223.812
 30
0.0
 11
325.0
 21
-1298.812
 31
0.0
  0
LINE
  5
11F
330
5C6
100
AcDbEntity
  8
DIMNSIONS
  6
Continuous
 62
     7
100
AcDbLine
 10
325.0
 20
-1223.812
 30
0.0
 11
335.0505969272536
 21
-1261.321338378906
 31
0.0
  0
LINE
  5
120
330
5C6
100
AcDbEntity
  8
DIMNSIONS
  6
Continuous
 62
     7
100
AcDbLine
 10
325.0
 20
-1223.812
 30
0.0
 11
314.9494030727464
 21
-1261.321338378906
 31
0.0
  0
TEXT
  5
121
330
5C6
100
AcDbEntity
  8
DIMNSIONS
 62
     7
100
AcDbText
 10
310.0916666666667
 20
-1175.0
 30
0.0
 40
40.72102864583334
  1
42.4
 50
90.0
 41
0.7
 11
269.3706380208333
 21
-1175.0
 31
0.0
100
AcDbText
 73
     3
  0
LINE
  5
122
330
5C6
100
AcDbEntity
  8
DIMNSIONS
  6
Continuous
 62
     7
100
AcDbLine
 10
116.1760000000004
 20
-718.6060000000001
 30
0.0
 11
365.0
 21
-718.6060000000001
 31
0.0
  0
LINE
  5
123
330
5C6
100
AcDbEntity
  8
DIMNSIONS
  6
Continuous
 62
     7
100
AcDbLine
 10
271.6239999999998
 20
-1223.812
 30
0.0
 11
365.0
 21
-1223.812
 31
0.0
  0
LINE
  5
124
330
5C6
100
AcDbEntity
  8
DIMNSIONS
  6
Continuous
 62
     7
100
AcDbLine
 10
350.0
 20
-718.6060000000001
 30
0.0
 11
350.0
 21
-1223.812
 31
0.0
  0
LINE
  5
125
330
5C6
100
AcDbEntity
  8
DIMNSIONS
  6
Continuous
 62
     7
100
AcDbLine
 10
350.0
 20
-718.6060000000001
 30
0.0
 11
360.0505969272536
 21
-756.1153383789063
 31
0.0
  0
LINE
  5
126
330
5C6
100
AcDbEntity
  8
DIMNSIONS
  6
Continuous
 62
     7
100
AcDbLine
 10
350.0
 20
-718.6060000000001
 30
0.0
 11
339.9494030727464
 21
-756.1153383789063
 31
0.0
  0
LINE
  5
127
330
5C6
100
AcDbEntity
  8
DIMNSIONS
  6
Continuous
 62
     7
100
AcDbLine
 10
350.0
 20
-1223.812
 30
0.0
 11
339.9494030727464
 21
-1186.302661621093
 31
0.0
  0
LINE
  5
128
330
5C6
100
AcDbEntity
  8
DIMNSIONS
  6
Continuous
 62
     7
100
AcDbLine
 10
350.0
 20
-1223.812
 30
0.0
 11
360.0505969272536
 21
-1186.302661621093
 31
0.0
  0
TEXT
  5
129
330
5C6
100
AcDbEntity
  8
DIMNSIONS
 62
     7
100
AcDbText
 10
335.0916666666667
 20
-1010.8965
 30
0.0
 40
40.72102864583334
  1
505
 50
90.0
 41
0.7
 11
294.3706380208334
 21
-1010.8965
 31
0.0
100
AcDbText
 73
     3
  0
TEXT
  5
12A
330
5C6
100
AcDbEntity
  8
DATA
 62
     7
100
AcDbText
 10
-1312.5
 20
-1782.410423333334
 30
0.0
 40
28.50472005208334
  1
※仕様及び外観は予告なく変更されることがあります。
 41
0.7
 11
-1312.5
 21
-1753.905703281251
 31
0.0
100
AcDbText
 73
     3
  0
TEXT
  5
12B
330
5C6
100
AcDbEntity
  8
DATA
 62
     7
100
AcDbText
 10
-1312.5
 20
-1819.45209
 30
0.0
 40
28.50472005208334
  1
　また、同一商品でも若干の個体差があることがあります。ご了承ください。
 41
0.7
 11
-1312.5
 21
-1790.947369947917
 31
0.0
100
AcDbText
 73
     3
  0
TEXT
  5
12C
330
5C6
100
AcDbEntity
  8
DATA
 62
     7
100
AcDbText
 10
569.3397610417584
 20
-1733.59124
 30
0.0
 40
36.64892578125
  1
AC2212/64、AC2212/95、AC2212/00
 41
0.7
 11
569.3397610417584
 21
-1696.94231421875
 31
0.0
100
AcDbText
 73
     3
  0
TEXT
  5
12D
330
5C6
100
AcDbEntity
  8
DATA
 62
     7
100
AcDbText
 10
712.4999999999996
 20
-1673.448278563268
 30
0.0
 40
28.50472005208333
  1
2-Wayフルレンジ・スピーカー
 41
0.7
 11
712.4999999999996
 21
-1644.943558511185
 31
0.0
100
AcDbText
 73
     3
  0
TEXT
  5
12E
330
5C6
100
AcDbEntity
  8
DATA
 62
     7
100
AcDbText
 10
794.2366265190972
 20
-1395.360514322917
 30
0.0
 40
40.72102864583334
  1
端子拡大図
 41
0.7
 72
     1
 11
875.0
 21
-1375.0
 31
0.0
100
AcDbText
 73
     2
  0
LINE
  5
12F
330
5C6
100
AcDbEntity
  8
DATA
  6
Continuous
 62
     7
100
AcDbLine
 10
725.0
 20
-1425.0
 30
0.0
 11
1025.0
 21
-1425.0
 31
0.0
  0
ARC
  5
130
330
5C6
100
AcDbEntity
  8
DATA
  6
Continuous
 62
     7
100
AcDbCircle
 10
-825.0
 20
213.2699614662956
 30
0.0
 40
763.2699999999971
100
AcDbArc
 50
258.0392611775209
 51
281.9607388224791
  0
LINE
  5
131
330
5C6
100
AcDbEntity
  8
DATA
  6
Continuous
 62
     7
100
AcDbLine
 10
-923.7755213614006
 20
-202.1450237820754
 30
0.0
 11
-1004.324
 21
-502.7560385337038
 31
0.0
  0
LINE
  5
132
330
5C6
100
AcDbEntity
  8
DATA
  6
Continuous
 62
     7
100
AcDbLine
 10
-1004.324
 20
-502.7560385337038
 30
0.0
 11
-1004.324
 21
-507.3383345475622
 31
0.0
  0
LINE
  5
133
330
5C6
100
AcDbEntity
  8
DATA
  6
Continuous
 62
     7
100
AcDbLine
 10
-645.6759999999998
 20
-502.7560385337038
 30
0.0
 11
-726.224478638599
 21
-202.1450237820754
 31
0.0
  0
LINE
  5
134
330
5C6
100
AcDbEntity
  8
DATA
  6
Continuous
 62
     7
100
AcDbLine
 10
-645.6759999999998
 20
-507.3383345475622
 30
0.0
 11
-645.6759999999998
 21
-502.7560385337038
 31
0.0
  0
LINE
  5
135
330
5C6
100
AcDbEntity
  8
DATA
  6
Continuous
 62
     7
100
AcDbLine
 10
-898.9139999999997
 20
-1183.170000000003
 30
0.0
 11
-968.764
 21
-1113.320000000004
 31
0.0
  0
LINE
  5
136
330
5C6
100
AcDbEntity
  8
DATA
  6
Continuous
 62
     7
100
AcDbLine
 10
-979.6859999999998
 20
-1117.892000000003
 30
0.0
 11
-979.6859999999998
 21
-1187.742000000004
 31
0.0
  0
ARC
  5
137
330
5C6
100
AcDbEntity
  8
DATA
  6
Continuous
 62
     7
100
AcDbCircle
 10
-903.486
 20
-1187.742000000004
 30
0.0
 40
6.349999999999909
100
AcDbArc
 50
270.0
 51
45.0
  0
ARC
  5
138
330
5C6
100
AcDbEntity
  8
DATA
  6
Continuous
 62
     7
100
AcDbCircle
 10
-973.3359999999992
 20
-1187.742000000004
 30
0.0
 40
6.350000000000363
100
AcDbArc
 50
180.0
 51
270.0
  0
LINE
  5
139
330
5C6
100
AcDbEntity
  8
DATA
  6
Continuous
 62
     7
100
AcDbLine
 10
-973.3359999999992
 20
-1194.092000000003
 30
0.0
 11
-903.486
 21
-1194.092000000003
 31
0.0
  0
ARC
  5
13A
330
5C6
100
AcDbEntity
  8
DATA
  6
Continuous
 62
     7
100
AcDbCircle
 10
-973.3359999999992
 20
-1117.892000000003
 30
0.0
 40
6.349999999999913
100
AcDbArc
 50
45.0
 51
180.0
  0
ARC
  5
13B
330
5C6
100
AcDbEntity
  8
DATA
  6
Continuous
 62
     7
100
AcDbCircle
 10
-825.0
 20
-1036.358000000004
 30
0.0
 40
50.79999999999997
100
AcDbArc
 50
73.04009986254384
 51
239.153100103265
  0
ARC
  5
13C
330
5C6
100
AcDbEntity
  8
DATA
  6
Continuous
 62
     7
100
AcDbCircle
 10
-825.0
 20
-1036.358000000004
 30
0.0
 40
125.984000000003
100
AcDbArc
 50
64.68780308477473
 51
257.1884426782953
  0
ARC
  5
13D
330
5C6
100
AcDbEntity
  8
DATA
  6
Continuous
 62
     7
100
AcDbCircle
 10
-825.0
 20
-1036.358000000004
 30
0.0
 40
131.064000000003
100
AcDbArc
 50
64.78615570309691
 51
258.0840240865831
  0
ARC
  5
13E
330
5C6
100
AcDbEntity
  8
DATA
  6
Continuous
 62
     7
100
AcDbCircle
 10
-825.0
 20
-1036.358000000004
 30
0.0
 40
136.1440000000034
100
AcDbArc
 50
64.91229406753195
 51
258.9663417352439
  0
CIRCLE
  5
13F
330
5C6
100
AcDbEntity
  8
DATA
  6
Continuous
 62
     7
100
AcDbCircle
 10
-768.7773019402119
 20
-900.6243998308491
 30
0.0
 40
3.556000000000387
  0
CIRCLE
  5
140
330
5C6
100
AcDbEntity
  8
DATA
  6
Continuous
 62
     7
100
AcDbCircle
 10
-768.7773019402119
 20
-900.6243998308491
 30
0.0
 40
4.318000000000293
  0
CIRCLE
  5
141
330
5C6
100
AcDbEntity
  8
DATA
  6
Continuous
 62
     7
100
AcDbCircle
 10
-881.2226980597879
 20
-1172.091600169151
 30
0.0
 40
3.556000000000387
  0
CIRCLE
  5
142
330
5C6
100
AcDbEntity
  8
DATA
  6
Continuous
 62
     7
100
AcDbCircle
 10
-881.2226980597879
 20
-1172.091600169151
 30
0.0
 40
4.318000000000293
  0
CIRCLE
  5
143
330
5C6
100
AcDbEntity
  8
DATA
  6
Continuous
 62
     7
100
AcDbCircle
 10
-960.6366019270472
 20
-1092.540520072387
 30
0.0
 40
3.556000000000387
  0
CIRCLE
  5
144
330
5C6
100
AcDbEntity
  8
DATA
  6
Continuous
 62
     7
100
AcDbCircle
 10
-960.6366019270472
 20
-1092.540520072387
 30
0.0
 40
4.318000000000293
  0
CIRCLE
  5
145
330
5C6
100
AcDbEntity
  8
DATA
  6
Continuous
 62
     7
100
AcDbCircle
 10
-960.7336001691473
 20
-980.1353019402084
 30
0.0
 40
3.55600000000056
  0
CIRCLE
  5
146
330
5C6
100
AcDbEntity
  8
DATA
  6
Continuous
 62
     7
100
AcDbCircle
 10
-960.7336001691473
 20
-980.1353019402084
 30
0.0
 40
4.318000000000293
  0
CIRCLE
  5
147
330
5C6
100
AcDbEntity
  8
DATA
  6
Continuous
 62
     7
100
AcDbCircle
 10
-881.1825200723834
 20
-900.721398072949
 30
0.0
 40
3.555999999999547
  0
CIRCLE
  5
148
330
5C6
100
AcDbEntity
  8
DATA
  6
Continuous
 62
     7
100
AcDbCircle
 10
-881.1825200723834
 20
-900.721398072949
 30
0.0
 40
4.318000000000293
  0
ARC
  5
149
330
5C6
100
AcDbEntity
  8
DATA
  6
Continuous
 62
     7
100
AcDbCircle
 10
-825.0
 20
-1036.358000000004
 30
0.0
 40
155.1940000000025
100
AcDbArc
 50
65.58746681466081
 51
262.1856181907307
  0
ARC
  5
14A
330
5C6
100
AcDbEntity
  8
DATA
  6
Continuous
 62
     7
100
AcDbCircle
 10
-825.0
 20
-1036.358000000004
 30
0.0
 40
141.2240000000034
100
AcDbArc
 50
65.06329250866816
 51
259.837229730757
  0
LINE
  5
14B
330
5C6
100
AcDbEntity
  8
DATA
  6
Continuous
 62
     7
100
AcDbLine
 10
-808.2359999999999
 20
-801.6619999999965
 30
0.0
 11
-747.1327463803675
 21
-827.1216890081763
 31
0.0
  0
LINE
  5
14C
330
5C6
100
AcDbEntity
  8
DATA
  6
Continuous
 62
     7
100
AcDbLine
 10
-808.2359999999999
 20
-783.3739999999961
 30
0.0
 11
-748.7224843724633
 21
-758.5767018218562
 31
0.0
  0
LINE
  5
14D
330
5C6
100
AcDbEntity
  8
DATA
  6
Continuous
 62
     7
100
AcDbLine
 10
-841.7640000000002
 20
-801.6619999999965
 30
0.0
 11
-954.5399999999998
 21
-848.6519999999964
 31
0.0
  0
LINE
  5
14E
330
5C6
100
AcDbEntity
  8
DATA
  6
Continuous
 62
     7
100
AcDbLine
 10
-841.7640000000002
 20
-783.3739999999961
 30
0.0
 11
-954.5399999999998
 21
-736.3839999999965
 31
0.0
  0
LINE
  5
14F
330
5C6
100
AcDbEntity
  8
DATA
  6
Continuous
 62
     7
100
AcDbLine
 10
-751.0753835800998
 20
-856.1917786955232
 30
0.0
 11
-825.0
 21
-857.5419999999962
 31
0.0
  0
LINE
  5
150
330
5C6
100
AcDbEntity
  8
DATA
  6
Continuous
 62
     7
100
AcDbLine
 10
-936.2519999999998
 20
-855.5099999999965
 30
0.0
 11
-825.0
 21
-857.5419999999962
 31
0.0
  0
LWPOLYLINE
  5
151
330
5C6
100
AcDbEntity
  8
DATA
  6
Continuous
 62
     7
100
AcDbPolyline
 90
      200
 70
   128
 43
0.0
 10
-936.2519999999998
 20
-855.5099999999965
 10
-941.0779999999997
 20
-855.0019999999962
 10
-941.3319999999995
 20
-855.0019999999962
 10
-941.84
 20
-855.0019999999962
 10
-942.0939999999999
 20
-855.0019999999962
 10
-942.6019999999999
 20
-854.7479999999964
 10
-942.8559999999997
 20
-854.7479999999964
 10
-943.1099999999997
 20
-854.7479999999964
 10
-943.6179999999993
 20
-854.7479999999964
 10
-943.8719999999994
 20
-854.4939999999964
 10
-944.3799999999999
 20
-854.4939999999964
 10
-944.6340000000001
 20
-854.4939999999964
 10
-945.1419999999998
 20
-854.2399999999961
 10
-945.3959999999996
 20
-854.2399999999961
 10
-945.6499999999998
 20
-854.2399999999961
 10
-946.1579999999994
 20
-853.9859999999961
 10
-946.4120000000001
 20
-853.9859999999961
 10
-946.9199999999998
 20
-853.7319999999963
 10
-947.174
 20
-853.7319999999963
 10
-947.428
 20
-853.4779999999965
 10
-947.9359999999998
 20
-853.4779999999965
 10
-948.1899999999997
 20
-853.2239999999966
 10
-948.4439999999997
 20
-853.2239999999966
 10
-948.952
 20
-852.9699999999966
 10
-949.206
 20
-852.7159999999966
 10
-949.46
 20
-852.7159999999966
 10
-949.9679999999997
 20
-852.4619999999963
 10
-950.2219999999995
 20
-852.2079999999965
 10
-950.4759999999997
 20
-851.9539999999961
 10
-950.7299999999997
 20
-851.9539999999961
 10
-951.2379999999993
 20
-851.6999999999962
 10
-951.4920000000001
 20
-851.4459999999962
 10
-951.7460000000001
 20
-851.1919999999964
 10
-952.0
 20
-850.9379999999964
 10
-952.2540000000001
 20
-850.6839999999964
 10
-952.5079999999999
 20
-850.4299999999966
 10
-953.0159999999996
 20
-850.1759999999963
 10
-953.2699999999996
 20
-849.9219999999965
 10
-953.5239999999994
 20
-849.6679999999965
 10
-953.7780000000001
 20
-849.4139999999962
 10
-954.0320000000001
 20
-849.1599999999962
 10
-954.2859999999999
 20
-848.9059999999962
 10
-954.5399999999998
 20
-848.6519999999964
 10
-954.7939999999998
 20
-848.3979999999965
 10
-955.0479999999996
 20
-848.1439999999965
 10
-955.3019999999996
 20
-847.8899999999967
 10
-955.3019999999996
 20
-847.3819999999966
 10
-955.5559999999998
 20
-847.1279999999961
 10
-955.8099999999994
 20
-846.8739999999961
 10
-956.0639999999994
 20
-846.6199999999961
 10
-956.318
 20
-846.3659999999963
 10
-956.318
 20
-845.8579999999965
 10
-956.572
 20
-845.6039999999966
 10
-956.826
 20
-845.349999999996
 10
-957.08
 20
-844.8419999999964
 10
-957.08
 20
-844.5879999999961
 10
-957.3339999999998
 20
-844.3339999999963
 10
-957.3339999999998
 20
-843.8259999999965
 10
-957.5879999999997
 20
-843.5719999999964
 10
-957.8419999999995
 20
-843.3179999999964
 10
-957.8419999999995
 20
-842.8099999999963
 10
-958.0959999999997
 20
-842.5559999999963
 10
-958.0959999999997
 20
-842.3019999999965
 10
-958.0959999999997
 20
-841.7939999999962
 10
-958.3499999999993
 20
-841.5399999999962
 10
-958.3499999999993
 20
-841.0319999999964
 10
-958.6039999999993
 20
-840.7779999999966
 10
-958.6039999999993
 20
-840.5239999999961
 10
-958.6039999999993
 20
-840.0159999999964
 10
-958.858
 20
-839.7619999999966
 10
-958.858
 20
-839.2539999999961
 10
-958.858
 20
-838.9999999999963
 10
-958.858
 20
-838.4919999999963
 10
-958.858
 20
-838.2379999999965
 10
-959.112
 20
-837.7299999999964
 10
-959.112
 20
-837.4759999999964
 10
-959.112
 20
-837.2219999999963
 10
-959.112
 20
-836.7139999999961
 10
-959.112
 20
-836.4599999999963
 10
-959.112
 20
-835.9519999999966
 10
-959.112
 20
-835.6979999999968
 10
-959.112
 20
-835.1899999999965
 10
-959.112
 20
-834.9359999999965
 10
-959.112
 20
-834.4279999999962
 10
-959.112
 20
-834.1739999999964
 10
-958.858
 20
-833.6659999999964
 10
-958.858
 20
-833.4119999999966
 10
-958.858
 20
-833.1579999999961
 10
-958.858
 20
-832.6499999999963
 10
-958.858
 20
-832.3959999999962
 10
-958.858
 20
-831.887999999996
 10
-958.6039999999993
 20
-831.6339999999964
 10
-958.6039999999993
 20
-831.1259999999965
 10
-958.6039999999993
 20
-830.8719999999967
 10
-958.6039999999993
 20
-830.3639999999965
 10
-958.3499999999993
 20
-830.1099999999966
 10
-958.3499999999993
 20
-829.6019999999963
 10
-958.3499999999993
 20
-829.3479999999963
 10
-958.3499999999993
 20
-829.0939999999965
 10
-958.0959999999997
 20
-828.5859999999965
 10
-958.0959999999997
 20
-828.3319999999962
 10
-958.0959999999997
 20
-827.8239999999964
 10
-957.8419999999995
 20
-827.5699999999964
 10
-957.8419999999995
 20
-827.0619999999961
 10
-957.8419999999995
 20
-826.8079999999963
 10
-957.8419999999995
 20
-826.5539999999964
 10
-957.5879999999997
 20
-826.0459999999966
 10
-957.5879999999997
 20
-825.7919999999961
 10
-957.5879999999997
 20
-825.2839999999965
 10
-957.3339999999998
 20
-825.0299999999961
 10
-957.3339999999998
 20
-824.5219999999962
 10
-957.3339999999998
 20
-824.2679999999964
 10
-957.08
 20
-824.0139999999966
 10
-957.08
 20
-823.5059999999966
 10
-956.826
 20
-823.2519999999963
 10
-956.826
 20
-822.7439999999965
 10
-956.826
 20
-822.489999999996
 10
-956.572
 20
-821.9819999999963
 10
-956.572
 20
-821.7279999999965
 10
-956.572
 20
-821.4739999999965
 10
-956.318
 20
-820.9659999999962
 10
-956.318
 20
-820.7119999999964
 10
-956.0639999999994
 20
-820.2039999999964
 10
-956.0639999999994
 20
-819.9499999999961
 10
-956.0639999999994
 20
-819.6959999999961
 10
-955.8099999999994
 20
-819.1879999999965
 10
-955.8099999999994
 20
-818.9339999999964
 10
-955.5559999999998
 20
-818.4259999999962
 10
-955.5559999999998
 20
-818.1719999999964
 10
-955.5559999999998
 20
-817.9179999999965
 10
-955.3019999999996
 20
-817.4099999999961
 10
-955.3019999999996
 20
-817.1559999999963
 10
-955.0479999999996
 20
-816.6479999999964
 10
-955.0479999999996
 20
-816.3939999999966
 10
-954.7939999999998
 20
-816.1399999999963
 10
-954.7939999999998
 20
-815.6319999999965
 10
-954.7939999999998
 20
-815.3779999999965
 10
-954.5399999999998
 20
-814.869999999996
 10
-954.5399999999998
 20
-814.6159999999962
 10
-954.2859999999999
 20
-814.3619999999964
 10
-954.2859999999999
 20
-813.8539999999967
 10
-954.2859999999999
 20
-813.5999999999961
 10
-954.0320000000001
 20
-813.0919999999964
 10
-954.0320000000001
 20
-812.8379999999962
 10
-953.7780000000001
 20
-812.5839999999962
 10
-953.7780000000001
 20
-812.0759999999965
 10
-953.5239999999994
 20
-811.8219999999965
 10
-953.5239999999994
 20
-811.3139999999967
 10
-953.5239999999994
 20
-811.0599999999962
 10
-953.2699999999996
 20
-810.8059999999962
 10
-953.2699999999996
 20
-810.2979999999961
 10
-953.0159999999996
 20
-810.0439999999961
 10
-953.0159999999996
 20
-809.5359999999965
 10
-952.7619999999997
 20
-809.2819999999965
 10
-952.7619999999997
 20
-809.0279999999966
 10
-952.7619999999997
 20
-808.5199999999963
 10
-952.5079999999999
 20
-808.2659999999965
 10
-952.5079999999999
 20
-807.7579999999962
 10
-952.2540000000001
 20
-807.5039999999962
 10
-952.2540000000001
 20
-807.2499999999964
 10
-952.2540000000001
 20
-806.7419999999964
 10
-952.0
 20
-806.4879999999966
 10
-952.0
 20
-805.9799999999965
 10
-952.0
 20
-805.7259999999965
 10
-951.7460000000001
 20
-805.2179999999962
 10
-951.7460000000001
 20
-804.9639999999962
 10
-951.4920000000001
 20
-804.7099999999963
 10
-951.4920000000001
 20
-804.2019999999965
 10
-951.4920000000001
 20
-803.9479999999967
 10
-951.2379999999993
 20
-803.4399999999966
 10
-951.2379999999993
 20
-803.1859999999964
 10
-951.2379999999993
 20
-802.9319999999961
 10
-950.9839999999993
 20
-802.4239999999963
 10
-950.9839999999993
 20
-802.1699999999963
 10
-950.9839999999993
 20
-801.6619999999965
 10
-950.9839999999993
 20
-801.407999999996
 10
-950.7299999999997
 20
-800.8999999999964
 10
-950.7299999999997
 20
-800.6459999999965
 10
-950.7299999999997
 20
-800.3919999999963
 10
-950.4759999999997
 20
-799.8839999999964
 10
-950.4759999999997
 20
-799.6299999999965
 10
-950.4759999999997
 20
-799.1219999999966
 10
-950.4759999999997
 20
-798.8679999999962
 10
-950.4759999999997
 20
-798.3599999999966
 10
-950.2219999999995
 20
-798.1059999999961
 10
-950.2219999999995
 20
-797.5979999999963
 10
-950.2219999999995
 20
-797.3439999999965
 10
-950.2219999999995
 20
-796.8359999999965
 10
-950.2219999999995
 20
-796.5819999999962
 10
-949.9679999999997
 20
-796.3279999999963
 10
-949.9679999999997
 20
-795.8199999999965
 10
-949.9679999999997
 20
-795.5659999999961
 10
-949.9679999999997
 20
-795.0579999999964
 10
-949.9679999999997
 20
-794.8039999999964
 10
-949.9679999999997
 20
-794.2959999999966
 10
-949.9679999999997
 20
-794.0419999999961
 10
-949.9679999999997
 20
-793.5339999999964
 10
-949.9679999999997
 20
-793.2799999999962
 10
-949.9679999999997
 20
-792.7719999999961
 10
-949.9679999999997
 20
-792.5179999999965
  0
LINE
  5
21B
330
5C6
100
AcDbEntity
  8
DATA
  6
Continuous
 62
     7
100
AcDbLine
 10
-754.2272829424781
 20
-728.7866523663438
 30
0.0
 11
-825.0
 21
-727.4939999999965
 31
0.0
  0
LINE
  5
21C
330
5C6
100
AcDbEntity
  8
DATA
  6
Continuous
 62
     7
100
AcDbLine
 10
-936.2519999999998
 20
-729.5259999999962
 30
0.0
 11
-825.0
 21
-727.4939999999965
 31
0.0
  0
CIRCLE
  5
21D
330
5C6
100
AcDbEntity
  8
DATA
  6
Continuous
 62
     7
100
AcDbCircle
 10
-825.0
 20
-792.5179999999965
 30
0.0
 40
19.05000000000018
  0
LWPOLYLINE
  5
21E
330
5C6
100
AcDbEntity
  8
DATA
  6
Continuous
 62
     7
100
AcDbPolyline
 90
      200
 70
   128
 43
0.0
 10
-936.2519999999998
 20
-729.5259999999962
 10
-941.0779999999997
 20
-730.0339999999964
 10
-941.3319999999995
 20
-730.0339999999964
 10
-941.84
 20
-730.0339999999964
 10
-942.0939999999999
 20
-730.0339999999964
 10
-942.6019999999999
 20
-730.2879999999963
 10
-942.8559999999997
 20
-730.2879999999963
 10
-943.1099999999997
 20
-730.2879999999963
 10
-943.6179999999993
 20
-730.2879999999963
 10
-943.8719999999994
 20
-730.5419999999961
 10
-944.3799999999999
 20
-730.5419999999961
 10
-944.6340000000001
 20
-730.5419999999961
 10
-945.1419999999998
 20
-730.7959999999966
 10
-945.3959999999996
 20
-730.7959999999966
 10
-945.6499999999998
 20
-730.7959999999966
 10
-946.1579999999994
 20
-731.0499999999965
 10
-946.4120000000001
 20
-731.0499999999965
 10
-946.9199999999998
 20
-731.3039999999964
 10
-947.174
 20
-731.3039999999964
 10
-947.428
 20
-731.5579999999963
 10
-947.9359999999998
 20
-731.5579999999963
 10
-948.1899999999997
 20
-731.8119999999961
 10
-948.4439999999997
 20
-731.8119999999961
 10
-948.952
 20
-732.0659999999961
 10
-949.206
 20
-732.3199999999965
 10
-949.46
 20
-732.3199999999965
 10
-949.9679999999997
 20
-732.5739999999965
 10
-950.2219999999995
 20
-732.8279999999963
 10
-950.4759999999997
 20
-733.0819999999962
 10
-950.7299999999997
 20
-733.0819999999962
 10
-951.2379999999993
 20
-733.3359999999966
 10
-951.4920000000001
 20
-733.5899999999965
 10
-951.7460000000001
 20
-733.8439999999965
 10
-952.0
 20
-734.0979999999963
 10
-952.2540000000001
 20
-734.3519999999962
 10
-952.5079999999999
 20
-734.6059999999961
 10
-953.0159999999996
 20
-734.8599999999966
 10
-953.2699999999996
 20
-735.1139999999965
 10
-953.5239999999994
 20
-735.3679999999961
 10
-953.7780000000001
 20
-735.6219999999966
 10
-954.0320000000001
 20
-735.8759999999964
 10
-954.2859999999999
 20
-736.1299999999964
 10
-954.5399999999998
 20
-736.3839999999965
 10
-954.7939999999998
 20
-736.6379999999962
 10
-955.0479999999996
 20
-736.8919999999962
 10
-955.3019999999996
 20
-737.1459999999964
 10
-955.3019999999996
 20
-737.6539999999963
 10
-955.5559999999998
 20
-737.9079999999961
 10
-955.8099999999994
 20
-738.1619999999966
 10
-956.0639999999994
 20
-738.4159999999965
 10
-956.318
 20
-738.6699999999964
 10
-956.318
 20
-739.1779999999961
 10
-956.572
 20
-739.4319999999961
 10
-956.826
 20
-739.6859999999965
 10
-957.08
 20
-740.1939999999963
 10
-957.08
 20
-740.4479999999968
 10
-957.3339999999998
 20
-740.7019999999966
 10
-957.3339999999998
 20
-741.2099999999963
 10
-957.5879999999997
 20
-741.4639999999962
 10
-957.8419999999995
 20
-741.7179999999961
 10
-957.8419999999995
 20
-742.2259999999964
 10
-958.0959999999997
 20
-742.4799999999964
 10
-958.0959999999997
 20
-742.7339999999962
 10
-958.0959999999997
 20
-743.2419999999964
 10
-958.3499999999993
 20
-743.4959999999964
 10
-958.3499999999993
 20
-744.0039999999961
 10
-958.6039999999993
 20
-744.2579999999962
 10
-958.6039999999993
 20
-744.5119999999965
 10
-958.6039999999993
 20
-745.0199999999963
 10
-958.858
 20
-745.2739999999961
 10
-958.858
 20
-745.7819999999965
 10
-958.858
 20
-746.0359999999965
 10
-958.858
 20
-746.5439999999962
 10
-958.858
 20
-746.7979999999961
 10
-959.112
 20
-747.3059999999962
 10
-959.112
 20
-747.5599999999963
 10
-959.112
 20
-747.8139999999966
 10
-959.112
 20
-748.3219999999964
 10
-959.112
 20
-748.5759999999965
 10
-959.112
 20
-749.0839999999963
 10
-959.112
 20
-749.3379999999964
 10
-959.112
 20
-749.8459999999964
 10
-959.112
 20
-750.0999999999962
 10
-959.112
 20
-750.6079999999965
 10
-959.112
 20
-750.8619999999964
 10
-958.858
 20
-751.3699999999961
 10
-958.858
 20
-751.6239999999961
 10
-958.858
 20
-751.8779999999964
 10
-958.858
 20
-752.3859999999963
 10
-958.858
 20
-752.6399999999962
 10
-958.858
 20
-753.1479999999965
 10
-958.6039999999993
 20
-753.4019999999965
 10
-958.6039999999993
 20
-753.9099999999962
 10
-958.6039999999993
 20
-754.1639999999962
 10
-958.6039999999993
 20
-754.6719999999965
 10
-958.3499999999993
 20
-754.9259999999963
 10
-958.3499999999993
 20
-755.4339999999964
 10
-958.3499999999993
 20
-755.6879999999964
 10
-958.3499999999993
 20
-755.9419999999963
 10
-958.0959999999997
 20
-756.4499999999961
 10
-958.0959999999997
 20
-756.7039999999965
 10
-958.0959999999997
 20
-757.2119999999963
 10
-957.8419999999995
 20
-757.4659999999961
 10
-957.8419999999995
 20
-757.9739999999965
 10
-957.8419999999995
 20
-758.2279999999965
 10
-957.8419999999995
 20
-758.4819999999963
 10
-957.5879999999997
 20
-758.9899999999961
 10
-957.5879999999997
 20
-759.2439999999965
 10
-957.5879999999997
 20
-759.7519999999962
 10
-957.3339999999998
 20
-760.0059999999967
 10
-957.3339999999998
 20
-760.5139999999965
 10
-957.3339999999998
 20
-760.7679999999965
 10
-957.08
 20
-761.0219999999961
 10
-957.08
 20
-761.5299999999962
 10
-956.826
 20
-761.7839999999964
 10
-956.826
 20
-762.2919999999961
 10
-956.826
 20
-762.5459999999966
 10
-956.572
 20
-763.0539999999964
 10
-956.572
 20
-763.3079999999964
 10
-956.572
 20
-763.5619999999961
 10
-956.318
 20
-764.0699999999965
 10
-956.318
 20
-764.3239999999965
 10
-956.0639999999994
 20
-764.8319999999962
 10
-956.0639999999994
 20
-765.0859999999966
 10
-956.0639999999994
 20
-765.3399999999964
 10
-955.8099999999994
 20
-765.8479999999963
 10
-955.8099999999994
 20
-766.1019999999962
 10
-955.5559999999998
 20
-766.6099999999966
 10
-955.5559999999998
 20
-766.8639999999965
 10
-955.5559999999998
 20
-767.1179999999962
 10
-955.3019999999996
 20
-767.6259999999964
 10
-955.3019999999996
 20
-767.8799999999965
 10
-955.0479999999996
 20
-768.3879999999962
 10
-955.0479999999996
 20
-768.6419999999963
 10
-954.7939999999998
 20
-768.8959999999964
 10
-954.7939999999998
 20
-769.4039999999963
 10
-954.7939999999998
 20
-769.6579999999961
 10
-954.5399999999998
 20
-770.1659999999965
 10
-954.5399999999998
 20
-770.4199999999964
 10
-954.2859999999999
 20
-770.6739999999963
 10
-954.2859999999999
 20
-771.1819999999961
 10
-954.2859999999999
 20
-771.4359999999965
 10
-954.0320000000001
 20
-771.9439999999963
 10
-954.0320000000001
 20
-772.1979999999968
 10
-953.7780000000001
 20
-772.4519999999966
 10
-953.7780000000001
 20
-772.9599999999963
 10
-953.5239999999994
 20
-773.2139999999962
 10
-953.5239999999994
 20
-773.7219999999962
 10
-953.5239999999994
 20
-773.9759999999964
 10
-953.2699999999996
 20
-774.2299999999965
 10
-953.2699999999996
 20
-774.7379999999966
 10
-953.0159999999996
 20
-774.9919999999964
 10
-953.0159999999996
 20
-775.4999999999963
 10
-952.7619999999997
 20
-775.7539999999961
 10
-952.7619999999997
 20
-776.0079999999962
 10
-952.7619999999997
 20
-776.5159999999964
 10
-952.5079999999999
 20
-776.7699999999963
 10
-952.5079999999999
 20
-777.2779999999966
 10
-952.2540000000001
 20
-777.5319999999965
 10
-952.2540000000001
 20
-777.7859999999965
 10
-952.2540000000001
 20
-778.2939999999962
 10
-952.0
 20
-778.5479999999961
 10
-952.0
 20
-779.0559999999962
 10
-952.0
 20
-779.3099999999963
 10
-951.7460000000001
 20
-779.8179999999964
 10
-951.7460000000001
 20
-780.0719999999964
 10
-951.4920000000001
 20
-780.3259999999965
 10
-951.4920000000001
 20
-780.8339999999962
 10
-951.4920000000001
 20
-781.0879999999962
 10
-951.2379999999993
 20
-781.5959999999964
 10
-951.2379999999993
 20
-781.8499999999962
 10
-951.2379999999993
 20
-782.1039999999966
 10
-950.9839999999993
 20
-782.6119999999964
 10
-950.9839999999993
 20
-782.8659999999963
 10
-950.9839999999993
 20
-783.3739999999961
 10
-950.9839999999993
 20
-783.6279999999965
 10
-950.7299999999997
 20
-784.1359999999963
 10
-950.7299999999997
 20
-784.3899999999962
 10
-950.7299999999997
 20
-784.6439999999966
 10
-950.4759999999997
 20
-785.1519999999965
 10
-950.4759999999997
 20
-785.4059999999963
 10
-950.4759999999997
 20
-785.9139999999962
 10
-950.4759999999997
 20
-786.1679999999965
 10
-950.4759999999997
 20
-786.6759999999962
 10
-950.2219999999995
 20
-786.9299999999967
 10
-950.2219999999995
 20
-787.4379999999964
 10
-950.2219999999995
 20
-787.6919999999963
 10
-950.2219999999995
 20
-788.1999999999962
 10
-950.2219999999995
 20
-788.4539999999965
 10
-949.9679999999997
 20
-788.7079999999964
 10
-949.9679999999997
 20
-789.2159999999961
 10
-949.9679999999997
 20
-789.4699999999966
 10
-949.9679999999997
 20
-789.9779999999965
 10
-949.9679999999997
 20
-790.2319999999963
 10
-949.9679999999997
 20
-790.7399999999961
 10
-949.9679999999997
 20
-790.9939999999965
 10
-949.9679999999997
 20
-791.5019999999963
 10
-949.9679999999997
 20
-791.7559999999967
 10
-949.9679999999997
 20
-792.2639999999966
 10
-949.9679999999997
 20
-792.5179999999965
  0
ARC
  5
2E8
330
5C6
100
AcDbEntity
  8
DATA
  6
Continuous
 62
     7
100
AcDbCircle
 10
-952.0
 20
-735.3679999999961
 30
0.0
 40
25.40000000000009
100
AcDbArc
 50
90.0
 51
180.0
  0
LINE
  5
2E9
330
5C6
100
AcDbEntity
  8
DATA
  6
Continuous
 62
     7
100
AcDbLine
 10
-977.3999999999997
 20
-735.3679999999961
 30
0.0
 11
-977.3999999999997
 21
-849.6679999999965
 31
0.0
  0
ARC
  5
2EA
330
5C6
100
AcDbEntity
  8
DATA
  6
Continuous
 62
     7
100
AcDbCircle
 10
-952.0
 20
-849.6679999999965
 30
0.0
 40
25.39999999999964
100
AcDbArc
 50
180.0
 51
270.0
  0
LINE
  5
2EB
330
5C6
100
AcDbEntity
  8
DATA
  6
Continuous
 62
     7
100
AcDbLine
 10
-755.1622090220189
 20
-875.0679999999965
 30
0.0
 11
-952.0
 21
-875.0679999999965
 31
0.0
  0
LINE
  5
2EC
330
5C6
100
AcDbEntity
  8
DATA
  6
Continuous
 62
     7
100
AcDbLine
 10
-952.0
 20
-709.9679999999962
 30
0.0
 11
-759.2932666599402
 21
-709.9679999999962
 31
0.0
  0
CIRCLE
  5
2ED
330
5C6
100
AcDbEntity
  8
DATA
  6
Continuous
 62
     7
100
AcDbCircle
 10
-968.0019999999997
 20
-822.7439999999965
 30
0.0
 40
2.793999999999869
  0
CIRCLE
  5
2EE
330
5C6
100
AcDbEntity
  8
DATA
  6
Continuous
 62
     7
100
AcDbCircle
 10
-968.0019999999997
 20
-822.7439999999965
 30
0.0
 40
5.079999999999927
  0
CIRCLE
  5
2EF
330
5C6
100
AcDbEntity
  8
DATA
  6
Continuous
 62
     7
100
AcDbCircle
 10
-968.0019999999997
 20
-762.2919999999961
 30
0.0
 40
2.793999999999869
  0
CIRCLE
  5
2F0
330
5C6
100
AcDbEntity
  8
DATA
  6
Continuous
 62
     7
100
AcDbCircle
 10
-968.0019999999997
 20
-762.2919999999961
 30
0.0
 40
5.079999999999927
  0
CIRCLE
  5
2F1
330
5C6
100
AcDbEntity
  8
DATA
  6
Continuous
 62
     7
100
AcDbCircle
 10
-923.5519999999997
 20
-865.6699999999965
 30
0.0
 40
2.793999999999869
  0
CIRCLE
  5
2F2
330
5C6
100
AcDbEntity
  8
DATA
  6
Continuous
 62
     7
100
AcDbCircle
 10
-923.5519999999997
 20
-865.6699999999965
 30
0.0
 40
5.079999999999927
  0
CIRCLE
  5
2F3
330
5C6
100
AcDbEntity
  8
DATA
  6
Continuous
 62
     7
100
AcDbCircle
 10
-825.0
 20
-865.6699999999965
 30
0.0
 40
2.793999999999869
  0
CIRCLE
  5
2F4
330
5C6
100
AcDbEntity
  8
DATA
  6
Continuous
 62
     7
100
AcDbCircle
 10
-825.0
 20
-865.6699999999965
 30
0.0
 40
5.079999999999927
  0
CIRCLE
  5
2F5
330
5C6
100
AcDbEntity
  8
DATA
  6
Continuous
 62
     7
100
AcDbCircle
 10
-923.5519999999997
 20
-719.3659999999963
 30
0.0
 40
2.793999999999869
  0
CIRCLE
  5
2F6
330
5C6
100
AcDbEntity
  8
DATA
  6
Continuous
 62
     7
100
AcDbCircle
 10
-923.5519999999997
 20
-719.3659999999963
 30
0.0
 40
5.079999999999927
  0
CIRCLE
  5
2F7
330
5C6
100
AcDbEntity
  8
DATA
  6
Continuous
 62
     7
100
AcDbCircle
 10
-825.0
 20
-719.3659999999963
 30
0.0
 40
2.793999999999869
  0
CIRCLE
  5
2F8
330
5C6
100
AcDbEntity
  8
DATA
  6
Continuous
 62
     7
100
AcDbCircle
 10
-825.0
 20
-719.3659999999963
 30
0.0
 40
5.079999999999927
  0
LINE
  5
2F9
330
5C6
100
AcDbEntity
  8
DATA
  6
Continuous
 62
     7
100
AcDbLine
 10
-20.7825437365882
 20
-676.1880000000001
 30
0.0
 11
-20.7825437365882
 21
-1223.812
 31
0.0
  0
LINE
  5
2FA
330
5C6
100
AcDbEntity
  8
DATA
  6
Continuous
 62
     7
100
AcDbLine
 10
170.7747695164253
 20
-676.1880000000001
 30
0.0
 11
170.7747695164253
 21
-1223.812
 31
0.0
  0
LINE
  5
2FB
330
5C6
100
AcDbEntity
  8
DATA
  6
Continuous
 62
     7
100
AcDbLine
 10
-645.6759999999998
 20
-692.9529999999963
 30
0.0
 11
-1004.324
 21
-692.9529999999963
 31
0.0
  0
LINE
  5
2FC
330
5C6
100
AcDbEntity
  8
DATA
  6
Continuous
 62
     7
100
AcDbLine
 10
-979.686
 20
-705.6529999999966
 30
0.0
 11
-760.6358831330966
 21
-705.6529999999966
 31
0.0
  0
LINE
  5
2FD
330
5C6
100
AcDbEntity
  8
DATA
  6
Continuous
 62
     7
100
AcDbLine
 10
-979.686
 20
-705.6529999999966
 30
0.0
 11
-979.686
 21
-692.9529999999963
 31
0.0
  0
LINE
  5
2FE
330
5C6
100
AcDbEntity
  8
DATA
  6
Continuous
 62
     7
100
AcDbLine
 10
-991.6239999999996
 20
-676.1880000000001
 30
0.0
 11
-658.3760000000002
 21
-676.1880000000001
 31
0.0
  0
LINE
  5
2FF
330
5C6
100
AcDbEntity
  8
DATA
  6
Continuous
 62
     7
100
AcDbLine
 10
-587.3000000000001
 20
-676.1880000000001
 30
0.0
 11
-255.81
 21
-676.1880000000001
 31
0.0
  0
CIRCLE
  5
300
330
5C6
100
AcDbEntity
  8
DATA
  6
Continuous
 62
     7
100
AcDbCircle
 10
75.0
 20
-718.6060000000001
 30
0.0
 40
11.17600000000038
  0
LINE
  5
301
330
5C6
100
AcDbEntity
  8
DATA
  6
Continuous
 62
     7
100
AcDbLine
 10
77.79399999999987
 20
-716.8280000000002
 30
0.0
 11
75.0
 21
-715.0500000000001
 31
0.0
  0
LINE
  5
302
330
5C6
100
AcDbEntity
  8
DATA
  6
Continuous
 62
     7
100
AcDbLine
 10
72.20600000000013
 20
-720.384
 30
0.0
 11
75.0
 21
-721.9080000000003
 31
0.0
  0
LINE
  5
303
330
5C6
100
AcDbEntity
  8
DATA
  6
Continuous
 62
     7
100
AcDbLine
 10
77.79399999999987
 20
-720.384
 30
0.0
 11
77.79399999999987
 21
-716.8280000000002
 31
0.0
  0
LINE
  5
304
330
5C6
100
AcDbEntity
  8
DATA
  6
Continuous
 62
     7
100
AcDbLine
 10
72.20600000000013
 20
-716.8280000000002
 30
0.0
 11
72.20600000000013
 21
-720.384
 31
0.0
  0
LINE
  5
305
330
5C6
100
AcDbEntity
  8
DATA
  6
Continuous
 62
     7
100
AcDbLine
 10
75.0
 20
-721.9080000000003
 30
0.0
 11
77.79399999999987
 21
-720.384
 31
0.0
  0
LINE
  5
306
330
5C6
100
AcDbEntity
  8
DATA
  6
Continuous
 62
     7
100
AcDbLine
 10
75.0
 20
-715.0500000000001
 30
0.0
 11
72.20600000000013
 21
-716.8280000000002
 31
0.0
  0
LINE
  5
307
330
5C6
100
AcDbEntity
  8
DATA
  6
Continuous
 62
     7
100
AcDbLine
 10
-979.686
 20
-1194.597000000003
 30
0.0
 11
-844.7299651640614
 21
-1194.597000000003
 31
0.0
  0
LINE
  5
308
330
5C6
100
AcDbEntity
  8
DATA
  6
Continuous
 62
     7
100
AcDbLine
 10
-1004.324
 20
-1207.297000000003
 30
0.0
 11
-645.6759999999998
 21
-1207.297000000003
 31
0.0
  0
LINE
  5
309
330
5C6
100
AcDbEntity
  8
DATA
  6
Continuous
 62
     7
100
AcDbLine
 10
-979.686
 20
-1207.297000000003
 30
0.0
 11
-979.686
 21
-1194.597000000003
 31
0.0
  0
LINE
  5
30A
330
5C6
100
AcDbEntity
  8
DATA
  6
Continuous
 62
     7
100
AcDbLine
 10
-658.3760000000002
 20
-1223.812
 30
0.0
 11
-991.6239999999996
 21
-1223.812
 31
0.0
  0
LINE
  5
30B
330
5C6
100
AcDbEntity
  8
DATA
  6
Continuous
 62
     7
100
AcDbLine
 10
-255.81
 20
-1223.812
 30
0.0
 11
-587.3000000000001
 21
-1223.812
 31
0.0
  0
LINE
  5
30C
330
5C6
100
AcDbEntity
  8
DATA
  6
Continuous
 62
     7
100
AcDbLine
 10
-1004.324
 20
-688.8879999999998
 30
0.0
 11
-1004.324
 21
-1211.112
 31
0.0
  0
ARC
  5
30D
330
5C6
100
AcDbEntity
  8
DATA
  6
Continuous
 62
     7
100
AcDbCircle
 10
-991.6239999999996
 20
-1211.112
 30
0.0
 40
12.70000000000027
100
AcDbArc
 50
180.0
 51
270.0
  0
ARC
  5
30E
330
5C6
100
AcDbEntity
  8
DATA
  6
Continuous
 62
     7
100
AcDbCircle
 10
-991.6239999999996
 20
-688.8879999999998
 30
0.0
 40
12.69999999999982
100
AcDbArc
 50
90.0
 51
180.0
  0
LINE
  5
30F
330
5C6
100
AcDbEntity
  8
DATA
  6
Continuous
 62
     7
100
AcDbLine
 10
-645.6759999999998
 20
-1211.112
 30
0.0
 11
-645.6759999999998
 21
-688.8879999999998
 31
0.0
  0
ARC
  5
310
330
5C6
100
AcDbEntity
  8
DATA
  6
Continuous
 62
     7
100
AcDbCircle
 10
-658.3760000000002
 20
-688.8879999999998
 30
0.0
 40
12.70000000000027
100
AcDbArc
 50
0.0
 51
90.0
  0
ARC
  5
311
330
5C6
100
AcDbEntity
  8
DATA
  6
Continuous
 62
     7
100
AcDbCircle
 10
-658.3760000000002
 20
-1211.112
 30
0.0
 40
12.69999999999982
100
AcDbArc
 50
270.0
 51
0.0
  0
ARC
  5
312
330
5C6
100
AcDbEntity
  8
DATA
  6
Continuous
 62
     7
100
AcDbCircle
 10
-977.654
 20
-507.3383345475622
 30
0.0
 40
26.67000000000008
100
AcDbArc
 50
180.0
 51
258.0392611775209
  0
ARC
  5
313
330
5C6
100
AcDbEntity
  8
DATA
  6
Continuous
 62
     7
100
AcDbCircle
 10
-672.346
 20
-507.3383345475622
 30
0.0
 40
26.67000000000001
100
AcDbArc
 50
281.9607388224792
 51
0.0
  0
LINE
  5
314
330
5C6
100
AcDbEntity
  8
DATA
  6
Continuous
 62
     7
100
AcDbLine
 10
-91.6239999999998
 20
-676.1880000000001
 30
0.0
 11
241.6239999999998
 21
-676.1880000000001
 31
0.0
  0
LINE
  5
315
330
5C6
100
AcDbEntity
  8
DATA
  6
Continuous
 62
     7
100
AcDbLine
 10
241.6239999999998
 20
-1223.812
 30
0.0
 11
-91.6239999999998
 21
-1223.812
 31
0.0
  0
LINE
  5
316
330
5C6
100
AcDbEntity
  8
DATA
  6
Continuous
 62
     7
100
AcDbLine
 10
-104.3240000000001
 20
-688.8879999999998
 30
0.0
 11
-104.3240000000001
 21
-1211.112
 31
0.0
  0
ARC
  5
317
330
5C6
100
AcDbEntity
  8
DATA
  6
Continuous
 62
     7
100
AcDbCircle
 10
-91.6239999999998
 20
-1211.112
 30
0.0
 40
12.70000000000027
100
AcDbArc
 50
180.0
 51
270.0
  0
ARC
  5
318
330
5C6
100
AcDbEntity
  8
DATA
  6
Continuous
 62
     7
100
AcDbCircle
 10
-91.6239999999998
 20
-688.8879999999998
 30
0.0
 40
12.69999999999982
100
AcDbArc
 50
90.0
 51
180.0
  0
LINE
  5
319
330
5C6
100
AcDbEntity
  8
DATA
  6
Continuous
 62
     7
100
AcDbLine
 10
254.3239999999996
 20
-1211.112
 30
0.0
 11
254.3239999999996
 21
-688.8879999999998
 31
0.0
  0
ARC
  5
31A
330
5C6
100
AcDbEntity
  8
DATA
  6
Continuous
 62
     7
100
AcDbCircle
 10
241.6239999999998
 20
-688.8879999999998
 30
0.0
 40
12.69999999999982
100
AcDbArc
 50
0.0
 51
90.0
  0
ARC
  5
31B
330
5C6
100
AcDbEntity
  8
DATA
  6
Continuous
 62
     7
100
AcDbCircle
 10
241.6239999999998
 20
-1211.112
 30
0.0
 40
12.69999999999982
100
AcDbArc
 50
270.0
 51
0.0
  0
LINE
  5
31C
330
5C6
100
AcDbEntity
  8
DATA
  6
Continuous
 62
     7
100
AcDbLine
 10
-552.7560000000002
 20
-1207.297000000003
 30
0.0
 11
-552.7560000000002
 21
-692.9499999999961
 31
0.0
  0
LINE
  5
31D
330
5C6
100
AcDbEntity
  8
DATA
  6
STYLE_01
 62
     7
100
AcDbLine
 10
-571.5520000000005
 20
-885.0679799999962
 30
0.0
 11
-564.9480000000004
 21
-885.0679799999962
 31
0.0
  0
LINE
  5
31E
330
5C6
100
AcDbEntity
  8
DATA
  6
STYLE_01
 62
     7
100
AcDbLine
 10
-564.9480000000004
 20
-881.1538399999962
 30
0.0
 11
-552.7560000000002
 21
-881.1538399999962
 31
0.0
  0
LINE
  5
31F
330
5C6
100
AcDbEntity
  8
DATA
  6
STYLE_01
 62
     7
100
AcDbLine
 10
-564.9480000000004
 20
-881.1538399999962
 30
0.0
 11
-564.9480000000004
 21
-1191.732340000003
 31
0.0
  0
LINE
  5
320
330
5C6
100
AcDbEntity
  8
DATA
  6
STYLE_01
 62
     7
100
AcDbLine
 10
-571.5520000000005
 20
-885.0679799999962
 30
0.0
 11
-571.8060000000004
 21
-1187.818200000004
 31
0.0
  0
LINE
  5
321
330
5C6
100
AcDbEntity
  8
DATA
  6
STYLE_01
 62
     7
100
AcDbLine
 10
-556.0580000000007
 20
-875.0679999999965
 30
0.0
 11
-552.7560000000002
 21
-875.0679999999965
 31
0.0
  0
LINE
  5
322
330
5C6
100
AcDbEntity
  8
DATA
  6
STYLE_01
 62
     7
100
AcDbLine
 10
-557.0740000000005
 20
-873.7979999999961
 30
0.0
 11
-557.0740000000005
 21
-711.2379999999967
 31
0.0
  0
LINE
  5
323
330
5C6
100
AcDbEntity
  8
DATA
  6
STYLE_01
 62
     7
100
AcDbLine
 10
-557.0740000000005
 20
-873.7979999999961
 30
0.0
 11
-556.0580000000007
 21
-875.0679999999965
 31
0.0
  0
LINE
  5
324
330
5C6
100
AcDbEntity
  8
DATA
  6
Continuous
 62
     7
100
AcDbLine
 10
-600.0
 20
-688.8879999999998
 30
0.0
 11
-600.0
 21
-1211.112
 31
0.0
  0
LINE
  5
325
330
5C6
100
AcDbEntity
  8
DATA
  6
Continuous
 62
     7
100
AcDbLine
 10
-552.7560000000002
 20
-692.9529999999963
 30
0.0
 11
-600.0
 21
-692.9529999999963
 31
0.0
  0
LINE
  5
326
330
5C6
100
AcDbEntity
  8
DATA
  6
STYLE_01
 62
     7
100
AcDbLine
 10
-592.6340000000008
 20
-705.6529999999966
 30
0.0
 11
-552.7560000000002
 21
-705.6529999999966
 31
0.0
  0
LINE
  5
327
330
5C6
100
AcDbEntity
  8
DATA
  6
STYLE_01
 62
     7
100
AcDbLine
 10
-577.1400000000003
 20
-705.6529999999966
 30
0.0
 11
-577.1400000000003
 21
-692.9529999999963
 31
0.0
  0
LINE
  5
328
330
5C6
100
AcDbEntity
  8
DATA
  6
STYLE_01
 62
     7
100
AcDbLine
 10
-592.6340000000008
 20
-705.6529999999966
 30
0.0
 11
-592.6340000000008
 21
-692.9529999999963
 31
0.0
  0
LINE
  5
329
330
5C6
100
AcDbEntity
  8
DATA
  6
STYLE_01
 62
     7
100
AcDbLine
 10
-556.0580000000007
 20
-709.9709999999963
 30
0.0
 11
-552.7560000000002
 21
-709.9709999999963
 31
0.0
  0
LINE
  5
32A
330
5C6
100
AcDbEntity
  8
DATA
  6
STYLE_01
 62
     7
100
AcDbLine
 10
-557.0740000000005
 20
-711.2409999999968
 30
0.0
 11
-556.0580000000007
 21
-709.9709999999963
 31
0.0
  0
LINE
  5
32B
330
5C6
100
AcDbEntity
  8
DATA
  6
Continuous
 62
     7
100
AcDbLine
 10
-600.0
 20
-1207.297000000003
 30
0.0
 11
-552.7560000000002
 21
-1207.297000000003
 31
0.0
  0
LINE
  5
32C
330
5C6
100
AcDbEntity
  8
DATA
  6
STYLE_01
 62
     7
100
AcDbLine
 10
-577.1400000000003
 20
-1207.297000000003
 30
0.0
 11
-577.1400000000003
 21
-1194.597000000003
 31
0.0
  0
LINE
  5
32D
330
5C6
100
AcDbEntity
  8
DATA
  6
STYLE_01
 62
     7
100
AcDbLine
 10
-592.6340000000008
 20
-1207.297000000003
 30
0.0
 11
-592.6340000000008
 21
-1194.597000000003
 31
0.0
  0
LINE
  5
32E
330
5C6
100
AcDbEntity
  8
DATA
  6
STYLE_01
 62
     7
100
AcDbLine
 10
-592.6340000000008
 20
-1194.597000000003
 30
0.0
 11
-552.7560000000002
 21
-1194.597000000003
 31
0.0
  0
LINE
  5
32F
330
5C6
100
AcDbEntity
  8
DATA
  6
STYLE_01
 62
     7
100
AcDbLine
 10
-571.8060000000004
 20
-1187.815200000003
 30
0.0
 11
-564.9480000000004
 21
-1187.815200000003
 31
0.0
  0
LINE
  5
330
330
5C6
100
AcDbEntity
  8
DATA
  6
STYLE_01
 62
     7
100
AcDbLine
 10
-564.9480000000004
 20
-1191.729340000003
 30
0.0
 11
-552.7560000000002
 21
-1191.559160000003
 31
0.0
  0
ARC
  5
331
330
5C6
100
AcDbEntity
  8
DATA
  6
Continuous
 62
     7
100
AcDbCircle
 10
-587.3000000000001
 20
-688.8879999999998
 30
0.0
 40
12.69999999999982
100
AcDbArc
 50
90.0
 51
180.0
  0
ARC
  5
332
330
5C6
100
AcDbEntity
  8
DATA
  6
Continuous
 62
     7
100
AcDbCircle
 10
-587.3000000000001
 20
-1211.112
 30
0.0
 40
12.69999999999982
100
AcDbArc
 50
180.0
 51
270.0
  0
LINE
  5
333
330
5C6
100
AcDbEntity
  8
DATA
  6
Continuous
 62
     7
100
AcDbLine
 10
-243.1100000000001
 20
-1211.112
 30
0.0
 11
-243.1100000000001
 21
-688.8879999999998
 31
0.0
  0
ARC
  5
334
330
5C6
100
AcDbEntity
  8
DATA
  6
Continuous
 62
     7
100
AcDbCircle
 10
-255.81
 20
-688.8879999999998
 30
0.0
 40
12.69999999999982
100
AcDbArc
 50
0.0
 51
90.0
  0
ARC
  5
335
330
5C6
100
AcDbEntity
  8
DATA
  6
Continuous
 62
     7
100
AcDbCircle
 10
-255.81
 20
-1211.112
 30
0.0
 40
12.69999999999982
100
AcDbArc
 50
270.0
 51
0.0
  0
CIRCLE
  5
336
330
5C6
100
AcDbEntity
  8
DATA
  6
Continuous
 62
     7
100
AcDbCircle
 10
-942.1499864738825
 20
-434.6100279418751
 30
0.0
 40
11.17600000000038
  0
LINE
  5
337
330
5C6
100
AcDbEntity
  8
DATA
  6
Continuous
 62
     7
100
AcDbLine
 10
-939.3559864738817
 20
-432.8320279418753
 30
0.0
 11
-942.1499864738825
 21
-431.0540279418751
 31
0.0
  0
LINE
  5
338
330
5C6
100
AcDbEntity
  8
DATA
  6
Continuous
 62
     7
100
AcDbLine
 10
-944.9439864738824
 20
-436.3880279418749
 30
0.0
 11
-942.1499864738825
 21
-437.9120279418748
 31
0.0
  0
LINE
  5
339
330
5C6
100
AcDbEntity
  8
DATA
  6
Continuous
 62
     7
100
AcDbLine
 10
-939.3559864738817
 20
-436.3880279418749
 30
0.0
 11
-939.3559864738817
 21
-432.8320279418753
 31
0.0
  0
LINE
  5
33A
330
5C6
100
AcDbEntity
  8
DATA
  6
Continuous
 62
     7
100
AcDbLine
 10
-944.9439864738824
 20
-432.8320279418753
 30
0.0
 11
-944.9439864738824
 21
-436.3880279418749
 31
0.0
  0
LINE
  5
33B
330
5C6
100
AcDbEntity
  8
DATA
  6
Continuous
 62
     7
100
AcDbLine
 10
-942.1499864738825
 20
-437.9120279418748
 30
0.0
 11
-939.3559864738817
 21
-436.3880279418749
 31
0.0
  0
LINE
  5
33C
330
5C6
100
AcDbEntity
  8
DATA
  6
Continuous
 62
     7
100
AcDbLine
 10
-942.1499864738825
 20
-431.0540279418751
 30
0.0
 11
-944.9439864738824
 21
-432.8320279418753
 31
0.0
  0
CIRCLE
  5
33D
330
5C6
100
AcDbEntity
  8
DATA
  6
Continuous
 62
     7
100
AcDbCircle
 10
-825.0
 20
-235.5280279418753
 30
0.0
 40
11.17600000000038
  0
LINE
  5
33E
330
5C6
100
AcDbEntity
  8
DATA
  6
Continuous
 62
     7
100
AcDbLine
 10
-822.206
 20
-233.7500279418755
 30
0.0
 11
-825.0
 21
-232.2260279418752
 31
0.0
  0
LINE
  5
33F
330
5C6
100
AcDbEntity
  8
DATA
  6
Continuous
 62
     7
100
AcDbLine
 10
-827.7939999999999
 20
-237.3060279418751
 30
0.0
 11
-825.0
 21
-238.8300279418754
 31
0.0
  0
LINE
  5
340
330
5C6
100
AcDbEntity
  8
DATA
  6
Continuous
 62
     7
100
AcDbLine
 10
-822.206
 20
-237.3060279418751
 30
0.0
 11
-822.206
 21
-233.7500279418755
 31
0.0
  0
LINE
  5
341
330
5C6
100
AcDbEntity
  8
DATA
  6
Continuous
 62
     7
100
AcDbLine
 10
-827.7939999999999
 20
-233.7500279418755
 30
0.0
 11
-827.7939999999999
 21
-237.3060279418751
 31
0.0
  0
LINE
  5
342
330
5C6
100
AcDbEntity
  8
DATA
  6
Continuous
 62
     7
100
AcDbLine
 10
-825.0
 20
-238.8300279418754
 30
0.0
 11
-822.206
 21
-237.3060279418751
 31
0.0
  0
LINE
  5
343
330
5C6
100
AcDbEntity
  8
DATA
  6
Continuous
 62
     7
100
AcDbLine
 10
-825.0
 20
-232.2260279418752
 30
0.0
 11
-827.7939999999999
 21
-233.7500279418755
 31
0.0
  0
CIRCLE
  5
344
330
5C6
100
AcDbEntity
  8
DATA
  6
Continuous
 62
     7
100
AcDbCircle
 10
-707.8500135261175
 20
-434.6100279418751
 30
0.0
 40
11.17600000000038
  0
LINE
  5
345
330
5C6
100
AcDbEntity
  8
DATA
  6
Continuous
 62
     7
100
AcDbLine
 10
-705.0560135261175
 20
-432.8320279418753
 30
0.0
 11
-707.8500135261175
 21
-431.0540279418751
 31
0.0
  0
LINE
  5
346
330
5C6
100
AcDbEntity
  8
DATA
  6
Continuous
 62
     7
100
AcDbLine
 10
-710.6440135261172
 20
-436.1340279418751
 30
0.0
 11
-707.8500135261175
 21
-437.9120279418748
 31
0.0
  0
LINE
  5
347
330
5C6
100
AcDbEntity
  8
DATA
  6
Continuous
 62
     7
100
AcDbLine
 10
-705.0560135261175
 20
-436.1340279418751
 30
0.0
 11
-705.0560135261175
 21
-432.8320279418753
 31
0.0
  0
LINE
  5
348
330
5C6
100
AcDbEntity
  8
DATA
  6
Continuous
 62
     7
100
AcDbLine
 10
-710.6440135261172
 20
-432.8320279418753
 30
0.0
 11
-710.6440135261172
 21
-436.1340279418751
 31
0.0
  0
LINE
  5
349
330
5C6
100
AcDbEntity
  8
DATA
  6
Continuous
 62
     7
100
AcDbLine
 10
-707.8500135261175
 20
-437.9120279418748
 30
0.0
 11
-705.0560135261175
 21
-436.1340279418751
 31
0.0
  0
LINE
  5
34A
330
5C6
100
AcDbEntity
  8
DATA
  6
Continuous
 62
     7
100
AcDbLine
 10
-707.8500135261175
 20
-431.0540279418751
 30
0.0
 11
-710.6440135261172
 21
-432.8320279418753
 31
0.0
  0
LINE
  5
34B
330
5C6
100
AcDbEntity
  8
DATA
  6
Continuous
 62
     7
100
AcDbLine
 10
-737.9991144610625
 20
-193.1100279418752
 30
0.0
 11
-912.0008855389368
 21
-193.1100279418752
 31
0.0
  0
ARC
  5
34C
330
5C6
100
AcDbEntity
  8
DATA
  6
Continuous
 62
     7
100
AcDbCircle
 10
-912.0008855389368
 20
-205.3000279418752
 30
0.0
 40
12.19000000000005
100
AcDbArc
 50
90.0
 51
165.0000000000001
  0
ARC
  5
34D
330
5C6
100
AcDbEntity
  8
DATA
  6
Continuous
 62
     7
100
AcDbCircle
 10
-737.9991144610625
 20
-205.3000279418752
 30
0.0
 40
12.18999999999983
100
AcDbArc
 50
15.00000000000043
 51
90.0
  0
CIRCLE
  5
34E
330
5C6
100
AcDbEntity
  8
DATA
  6
Continuous
 62
     7
100
AcDbCircle
 10
-825.0
 20
-368.6100279418752
 30
0.0
 40
11.17600000000038
  0
LINE
  5
34F
330
5C6
100
AcDbEntity
  8
DATA
  6
Continuous
 62
     7
100
AcDbLine
 10
-822.206
 20
-366.8320279418749
 30
0.0
 11
-825.0
 21
-365.0540279418752
 31
0.0
  0
LINE
  5
350
330
5C6
100
AcDbEntity
  8
DATA
  6
Continuous
 62
     7
100
AcDbLine
 10
-827.7939999999999
 20
-370.3880279418754
 30
0.0
 11
-825.0
 21
-371.9120279418748
 31
0.0
  0
LINE
  5
351
330
5C6
100
AcDbEntity
  8
DATA
  6
Continuous
 62
     7
100
AcDbLine
 10
-822.206
 20
-370.3880279418754
 30
0.0
 11
-822.206
 21
-366.8320279418749
 31
0.0
  0
LINE
  5
352
330
5C6
100
AcDbEntity
  8
DATA
  6
Continuous
 62
     7
100
AcDbLine
 10
-827.7939999999999
 20
-366.8320279418749
 30
0.0
 11
-827.7939999999999
 21
-370.3880279418754
 31
0.0
  0
LINE
  5
353
330
5C6
100
AcDbEntity
  8
DATA
  6
Continuous
 62
     7
100
AcDbLine
 10
-825.0
 20
-371.9120279418748
 30
0.0
 11
-822.206
 21
-370.3880279418754
 31
0.0
  0
LINE
  5
354
330
5C6
100
AcDbEntity
  8
DATA
  6
Continuous
 62
     7
100
AcDbLine
 10
-825.0
 20
-365.0540279418752
 30
0.0
 11
-827.7939999999999
 21
-366.8320279418749
 31
0.0
  0
LINE
  5
355
330
5C6
100
AcDbEntity
  8
DATA
  6
Continuous
 62
     7
100
AcDbLine
 10
-470.9324222479917
 20
-716.9550000000002
 30
0.0
 11
-473.6314137448416
 21
-715.1770000000001
 31
0.0
  0
LINE
  5
356
330
5C6
100
AcDbEntity
  8
DATA
  6
Continuous
 62
     7
100
AcDbLine
 10
-476.3304052416915
 20
-720.2570000000001
 30
0.0
 11
-473.6314137448416
 21
-722.0349999999998
 31
0.0
  0
LINE
  5
357
330
5C6
100
AcDbEntity
  8
DATA
  6
Continuous
 62
     7
100
AcDbLine
 10
-470.9324222479917
 20
-720.2570000000001
 30
0.0
 11
-470.9324222479917
 21
-716.9550000000002
 31
0.0
  0
LINE
  5
358
330
5C6
100
AcDbEntity
  8
DATA
  6
Continuous
 62
     7
100
AcDbLine
 10
-476.3304052416915
 20
-716.9550000000002
 30
0.0
 11
-476.3304052416915
 21
-720.2570000000001
 31
0.0
  0
LINE
  5
359
330
5C6
100
AcDbEntity
  8
DATA
  6
Continuous
 62
     7
100
AcDbLine
 10
-473.6314137448416
 20
-722.0349999999998
 30
0.0
 11
-470.9324222479917
 21
-720.2570000000001
 31
0.0
  0
LINE
  5
35A
330
5C6
100
AcDbEntity
  8
DATA
  6
Continuous
 62
     7
100
AcDbLine
 10
-473.6314137448416
 20
-715.1770000000001
 30
0.0
 11
-476.3304052416915
 21
-716.9550000000002
 31
0.0
  0
ARC
  5
35B
330
5C6
100
AcDbEntity
  8
DATA
  6
Continuous
 62
     7
100
AcDbCircle
 10
-473.3960768251764
 20
-718.5850782790935
 30
0.0
 40
11.03058901399089
100
AcDbArc
 50
91.22249459016169
 51
180.108672984309
  0
ARC
  5
35C
330
5C6
100
AcDbEntity
  8
DATA
  6
Continuous
 62
     7
100
AcDbCircle
 10
-473.8667506645064
 20
-718.5850782790935
 30
0.0
 40
11.03058901399075
100
AcDbArc
 50
359.8913270156909
 51
88.77750540984068
  0
ARC
  5
35D
330
5C6
100
AcDbEntity
  8
DATA
  6
Continuous
 62
     7
100
AcDbCircle
 10
-473.3960802098777
 20
-718.5868632635009
 30
0.0
 40
11.03058901399093
100
AcDbArc
 50
179.6740378662656
 51
268.5602162604116
  0
ARC
  5
35E
330
5C6
100
AcDbEntity
  8
DATA
  6
Continuous
 62
     7
100
AcDbCircle
 10
-473.8667506645064
 20
-718.5850782790935
 30
0.0
 40
11.03058901399081
100
AcDbArc
 50
271.0052054407328
 51
359.8913838348825
  0
LINE
  5
35F
330
5C6
100
AcDbEntity
  8
DATA
  6
Continuous
 62
     7
100
AcDbLine
 10
-470.9324222479917
 20
-716.9550000000002
 30
0.0
 11
-473.6314137448416
 21
-715.1770000000001
 31
0.0
  0
LINE
  5
360
330
5C6
100
AcDbEntity
  8
DATA
  6
Continuous
 62
     7
100
AcDbLine
 10
-476.3304052416915
 20
-720.2570000000001
 30
0.0
 11
-473.6314137448416
 21
-722.0349999999998
 31
0.0
  0
LINE
  5
361
330
5C6
100
AcDbEntity
  8
DATA
  6
Continuous
 62
     7
100
AcDbLine
 10
-470.9324222479917
 20
-720.2570000000001
 30
0.0
 11
-470.9324222479917
 21
-716.9550000000002
 31
0.0
  0
LINE
  5
362
330
5C6
100
AcDbEntity
  8
DATA
  6
Continuous
 62
     7
100
AcDbLine
 10
-476.3304052416915
 20
-716.9550000000002
 30
0.0
 11
-476.3304052416915
 21
-720.2570000000001
 31
0.0
  0
LINE
  5
363
330
5C6
100
AcDbEntity
  8
DATA
  6
Continuous
 62
     7
100
AcDbLine
 10
-473.6314137448416
 20
-722.0349999999998
 30
0.0
 11
-470.9324222479917
 21
-720.2570000000001
 31
0.0
  0
LINE
  5
364
330
5C6
100
AcDbEntity
  8
DATA
  6
Continuous
 62
     7
100
AcDbLine
 10
-473.6314137448416
 20
-715.1770000000001
 30
0.0
 11
-476.3304052416915
 21
-716.9550000000002
 31
0.0
  0
ARC
  5
365
330
5C6
100
AcDbEntity
  8
DATA
  6
Continuous
 62
     7
100
AcDbCircle
 10
-473.3960768251764
 20
-718.5850782790935
 30
0.0
 40
11.03058901399089
100
AcDbArc
 50
91.22249459016169
 51
180.108672984309
  0
ARC
  5
366
330
5C6
100
AcDbEntity
  8
DATA
  6
Continuous
 62
     7
100
AcDbCircle
 10
-473.8667506645064
 20
-718.5850782790935
 30
0.0
 40
11.03058901399075
100
AcDbArc
 50
359.8913270156909
 51
88.77750540984068
  0
ARC
  5
367
330
5C6
100
AcDbEntity
  8
DATA
  6
Continuous
 62
     7
100
AcDbCircle
 10
-473.3960802098777
 20
-718.5868632635009
 30
0.0
 40
11.03058901399093
100
AcDbArc
 50
179.6740378662656
 51
268.5602162604116
  0
ARC
  5
368
330
5C6
100
AcDbEntity
  8
DATA
  6
Continuous
 62
     7
100
AcDbCircle
 10
-473.8667506645064
 20
-718.5850782790935
 30
0.0
 40
11.03058901399081
100
AcDbArc
 50
271.0052054407328
 51
359.8913838348825
  0
LINE
  5
369
330
5C6
100
AcDbEntity
  8
DATA
  6
Continuous
 62
     7
100
AcDbLine
 10
-82.39881341022373
 20
-716.8280000000002
 30
0.0
 11
-83.12262817341162
 21
-715.0500000000001
 31
0.0
  0
LINE
  5
36A
330
5C6
100
AcDbEntity
  8
DATA
  6
Continuous
 62
     7
100
AcDbLine
 10
-83.84644293659949
 20
-720.384
 30
0.0
 11
-83.12262817341162
 21
-721.9080000000003
 31
0.0
  0
LINE
  5
36B
330
5C6
100
AcDbEntity
  8
DATA
  6
Continuous
 62
     7
100
AcDbLine
 10
-82.39881341022373
 20
-720.384
 30
0.0
 11
-82.39881341022373
 21
-716.8280000000002
 31
0.0
  0
LINE
  5
36C
330
5C6
100
AcDbEntity
  8
DATA
  6
Continuous
 62
     7
100
AcDbLine
 10
-83.84644293659949
 20
-716.8280000000002
 30
0.0
 11
-83.84644293659949
 21
-720.384
 31
0.0
  0
LINE
  5
36D
330
5C6
100
AcDbEntity
  8
DATA
  6
Continuous
 62
     7
100
AcDbLine
 10
-83.12262817341162
 20
-721.9080000000003
 30
0.0
 11
-82.39881341022373
 21
-720.384
 31
0.0
  0
LINE
  5
36E
330
5C6
100
AcDbEntity
  8
DATA
  6
Continuous
 62
     7
100
AcDbLine
 10
-83.12262817341162
 20
-715.0500000000001
 30
0.0
 11
-83.84644293659949
 21
-716.8280000000002
 31
0.0
  0
ARC
  5
36F
330
5C6
100
AcDbEntity
  8
DATA
  6
Continuous
 62
     7
100
AcDbCircle
 10
-74.72480143153872
 20
-713.302641987026
 30
0.0
 40
10.76847774230535
100
AcDbArc
 50
153.9663607430504
 51
167.06837718805
  0
ARC
  5
370
330
5C6
100
AcDbEntity
  8
DATA
  6
Continuous
 62
     7
100
AcDbCircle
 10
-81.7690893700419
 20
-709.8266354555832
 30
0.0
 40
2.913484072732014
100
AcDbArc
 50
132.4569979195283
 51
154.5876035204743
  0
ARC
  5
371
330
5C6
100
AcDbEntity
  8
DATA
  6
Continuous
 62
     7
100
AcDbCircle
 10
-50.48897692754235
 20
-718.3826304290432
 30
0.0
 40
35.52961245176644
100
AcDbArc
 50
167.8304266575408
 51
180.3602127102605
  0
ARC
  5
372
330
5C6
100
AcDbEntity
  8
DATA
  6
Continuous
 62
     7
100
AcDbCircle
 10
-83.12262817341162
 20
-708.3142958788479
 30
0.0
 40
0.8842958788485288
100
AcDbArc
 50
46.10023338010182
 51
133.8997666198981
  0
ARC
  5
373
330
5C6
100
AcDbEntity
  8
DATA
  6
Continuous
 62
     7
100
AcDbCircle
 10
-91.52045491528452
 20
-713.302641987026
 30
0.0
 40
10.76847774230561
100
AcDbArc
 50
12.93162281194999
 51
26.03363925694858
  0
ARC
  5
374
330
5C6
100
AcDbEntity
  8
DATA
  6
Continuous
 62
     7
100
AcDbCircle
 10
-84.47616697678132
 20
-709.8266354555832
 30
0.0
 40
2.913484072732132
100
AcDbArc
 50
25.4123964795219
 51
47.5430020804717
  0
ARC
  5
375
330
5C6
100
AcDbEntity
  8
DATA
  6
Continuous
 62
     7
100
AcDbCircle
 10
-115.7562794192809
 20
-718.3826304290432
 30
0.0
 40
35.52961245176624
100
AcDbArc
 50
359.6397872897396
 51
12.16957334245921
  0
ARC
  5
376
330
5C6
100
AcDbEntity
  8
DATA
  6
Continuous
 62
     7
100
AcDbCircle
 10
-74.72480143153872
 20
-723.9093580129743
 30
0.0
 40
10.76847774230561
100
AcDbArc
 50
192.93162281195
 51
206.0336392569475
  0
ARC
  5
377
330
5C6
100
AcDbEntity
  8
DATA
  6
Continuous
 62
     7
100
AcDbCircle
 10
-81.7690893700419
 20
-727.3853645444169
 30
0.0
 40
2.913484072731721
100
AcDbArc
 50
205.4123964795257
 51
227.5430020804717
  0
ARC
  5
378
330
5C6
100
AcDbEntity
  8
DATA
  6
Continuous
 62
     7
100
AcDbCircle
 10
-50.48897692754235
 20
-718.8293695709567
 30
0.0
 40
35.52961245176623
100
AcDbArc
 50
179.6397872897403
 51
192.1695733424599
  0
ARC
  5
379
330
5C6
100
AcDbEntity
  8
DATA
  6
Continuous
 62
     7
100
AcDbCircle
 10
-83.12262817341162
 20
-728.8977041211518
 30
0.0
 40
0.8842958788485288
100
AcDbArc
 50
226.1002333801019
 51
313.8997666198981
  0
ARC
  5
37A
330
5C6
100
AcDbEntity
  8
DATA
  6
Continuous
 62
     7
100
AcDbCircle
 10
-91.52045491528452
 20
-723.9093580129743
 30
0.0
 40
10.76847774230555
100
AcDbArc
 50
333.9663607430536
 51
347.06837718805
  0
ARC
  5
37B
330
5C6
100
AcDbEntity
  8
DATA
  6
Continuous
 62
     7
100
AcDbCircle
 10
-84.47616697678132
 20
-727.3853645444169
 30
0.0
 40
2.913484072732014
100
AcDbArc
 50
312.4569979195283
 51
334.5876035204781
  0
ARC
  5
37C
330
5C6
100
AcDbEntity
  8
DATA
  6
Continuous
 62
     7
100
AcDbCircle
 10
-115.7562794192809
 20
-718.8293695709567
 30
0.0
 40
35.52961245176653
100
AcDbArc
 50
347.8304266575402
 51
0.3602127102597592
  0
LINE
  5
37D
330
5C6
100
AcDbEntity
  8
DATA
  6
Continuous
 62
     7
100
AcDbLine
 10
232.3988134102237
 20
-716.8280000000002
 30
0.0
 11
233.1226281734116
 21
-715.0500000000001
 31
0.0
  0
LINE
  5
37E
330
5C6
100
AcDbEntity
  8
DATA
  6
Continuous
 62
     7
100
AcDbLine
 10
233.8464429365995
 20
-720.384
 30
0.0
 11
233.1226281734116
 21
-721.9080000000003
 31
0.0
  0
LINE
  5
37F
330
5C6
100
AcDbEntity
  8
DATA
  6
Continuous
 62
     7
100
AcDbLine
 10
232.3988134102237
 20
-720.384
 30
0.0
 11
232.3988134102237
 21
-716.8280000000002
 31
0.0
  0
LINE
  5
380
330
5C6
100
AcDbEntity
  8
DATA
  6
Continuous
 62
     7
100
AcDbLine
 10
233.8464429365995
 20
-716.8280000000002
 30
0.0
 11
233.8464429365995
 21
-720.384
 31
0.0
  0
LINE
  5
381
330
5C6
100
AcDbEntity
  8
DATA
  6
Continuous
 62
     7
100
AcDbLine
 10
233.1226281734116
 20
-721.9080000000003
 30
0.0
 11
232.3988134102237
 21
-720.384
 31
0.0
  0
LINE
  5
382
330
5C6
100
AcDbEntity
  8
DATA
  6
Continuous
 62
     7
100
AcDbLine
 10
233.1226281734116
 20
-715.0500000000001
 30
0.0
 11
233.8464429365995
 21
-716.8280000000002
 31
0.0
  0
ARC
  5
383
330
5C6
100
AcDbEntity
  8
DATA
  6
Continuous
 62
     7
100
AcDbCircle
 10
224.7248014315382
 20
-713.302641987026
 30
0.0
 40
10.76847774230561
100
AcDbArc
 50
12.93162281194999
 51
26.03363925694753
  0
ARC
  5
384
330
5C6
100
AcDbEntity
  8
DATA
  6
Continuous
 62
     7
100
AcDbCircle
 10
231.7690893700419
 20
-709.8266354555832
 30
0.0
 40
2.913484072732132
100
AcDbArc
 50
25.4123964795219
 51
47.54300208047826
  0
ARC
  5
385
330
5C6
100
AcDbEntity
  8
DATA
  6
Continuous
 62
     7
100
AcDbCircle
 10
200.4889769275424
 20
-718.3826304290432
 30
0.0
 40
35.52961245176578
100
AcDbArc
 50
359.6397872897396
 51
12.16957334245939
  0
ARC
  5
386
330
5C6
100
AcDbEntity
  8
DATA
  6
Continuous
 62
     7
100
AcDbCircle
 10
233.1226281734116
 20
-708.3142958788479
 30
0.0
 40
0.8842958788482135
100
AcDbArc
 50
46.10023338012305
 51
133.8997666199194
  0
ARC
  5
387
330
5C6
100
AcDbEntity
  8
DATA
  6
Continuous
 62
     7
100
AcDbCircle
 10
241.5204549152849
 20
-713.302641987026
 30
0.0
 40
10.76847774230616
100
AcDbArc
 50
153.9663607430524
 51
167.0683771880511
  0
ARC
  5
388
330
5C6
100
AcDbEntity
  8
DATA
  6
Continuous
 62
     7
100
AcDbCircle
 10
234.4761669767813
 20
-709.8266354555832
 30
0.0
 40
2.913484072732321
100
AcDbArc
 50
132.4569979195349
 51
154.5876035204781
  0
ARC
  5
389
330
5C6
100
AcDbEntity
  8
DATA
  6
Continuous
 62
     7
100
AcDbCircle
 10
265.7562794192809
 20
-718.3826304290432
 30
0.0
 40
35.52961245176688
100
AcDbArc
 50
167.8304266575409
 51
180.3602127102605
  0
ARC
  5
38A
330
5C6
100
AcDbEntity
  8
DATA
  6
Continuous
 62
     7
100
AcDbCircle
 10
224.7248014315382
 20
-723.9093580129743
 30
0.0
 40
10.76847774230596
100
AcDbArc
 50
333.9663607430547
 51
347.06837718805
  0
ARC
  5
38B
330
5C6
100
AcDbEntity
  8
DATA
  6
Continuous
 62
     7
100
AcDbCircle
 10
231.7690893700419
 20
-727.3853645444169
 30
0.0
 40
2.913484072731708
100
AcDbArc
 50
312.4569979195218
 51
334.5876035204781
  0
ARC
  5
38C
330
5C6
100
AcDbEntity
  8
DATA
  6
Continuous
 62
     7
100
AcDbCircle
 10
200.4889769275424
 20
-718.8293695709567
 30
0.0
 40
35.52961245176609
100
AcDbArc
 50
347.8304266575399
 51
0.3602127102597592
  0
ARC
  5
38D
330
5C6
100
AcDbEntity
  8
DATA
  6
Continuous
 62
     7
100
AcDbCircle
 10
233.1226281734116
 20
-728.8977041211518
 30
0.0
 40
0.8842958788488443
100
AcDbArc
 50
226.1002333800806
 51
313.8997666198769
  0
ARC
  5
38E
330
5C6
100
AcDbEntity
  8
DATA
  6
Continuous
 62
     7
100
AcDbCircle
 10
241.5204549152849
 20
-723.9093580129743
 30
0.0
 40
10.76847774230649
100
AcDbArc
 50
192.9316228119489
 51
206.0336392569453
  0
ARC
  5
38F
330
5C6
100
AcDbEntity
  8
DATA
  6
Continuous
 62
     7
100
AcDbCircle
 10
234.4761669767813
 20
-727.3853645444169
 30
0.0
 40
2.913484072732132
100
AcDbArc
 50
205.4123964795218
 51
227.5430020804651
  0
ARC
  5
390
330
5C6
100
AcDbEntity
  8
DATA
  6
Continuous
 62
     7
100
AcDbCircle
 10
265.7562794192809
 20
-718.8293695709567
 30
0.0
 40
35.52961245176668
100
AcDbArc
 50
179.6397872897403
 51
192.1695733424598
  0
LINE
  5
391
330
5C6
100
AcDbEntity
  8
DATA
  6
Continuous
 62
     7
100
AcDbLine
 10
-470.9324222479917
 20
-1183.044999999999
 30
0.0
 11
-473.6314137448416
 21
-1184.823
 31
0.0
  0
LINE
  5
392
330
5C6
100
AcDbEntity
  8
DATA
  6
Continuous
 62
     7
100
AcDbLine
 10
-476.3304052416915
 20
-1179.743
 30
0.0
 11
-473.6314137448416
 21
-1177.965
 31
0.0
  0
LINE
  5
393
330
5C6
100
AcDbEntity
  8
DATA
  6
Continuous
 62
     7
100
AcDbLine
 10
-470.9324222479917
 20
-1179.743
 30
0.0
 11
-470.9324222479917
 21
-1183.044999999999
 31
0.0
  0
LINE
  5
394
330
5C6
100
AcDbEntity
  8
DATA
  6
Continuous
 62
     7
100
AcDbLine
 10
-476.3304052416915
 20
-1183.044999999999
 30
0.0
 11
-476.3304052416915
 21
-1179.743
 31
0.0
  0
LINE
  5
395
330
5C6
100
AcDbEntity
  8
DATA
  6
Continuous
 62
     7
100
AcDbLine
 10
-473.6314137448416
 20
-1177.965
 30
0.0
 11
-470.9324222479917
 21
-1179.743
 31
0.0
  0
LINE
  5
396
330
5C6
100
AcDbEntity
  8
DATA
  6
Continuous
 62
     7
100
AcDbLine
 10
-473.6314137448416
 20
-1184.823
 30
0.0
 11
-476.3304052416915
 21
-1183.044999999999
 31
0.0
  0
ARC
  5
397
330
5C6
100
AcDbEntity
  8
DATA
  6
Continuous
 62
     7
100
AcDbCircle
 10
-473.3960768251764
 20
-1181.414921720906
 30
0.0
 40
11.03058901399075
100
AcDbArc
 50
179.891327015691
 51
268.7775054098383
  0
ARC
  5
398
330
5C6
100
AcDbEntity
  8
DATA
  6
Continuous
 62
     7
100
AcDbCircle
 10
-473.8667506645064
 20
-1181.414921720906
 30
0.0
 40
11.03058901399088
100
AcDbArc
 50
271.2224945901593
 51
0.1086729843090097
  0
ARC
  5
399
330
5C6
100
AcDbEntity
  8
DATA
  6
Continuous
 62
     7
100
AcDbCircle
 10
-473.3960802098777
 20
-1181.413136736499
 30
0.0
 40
11.03058901399087
100
AcDbArc
 50
91.43978373958836
 51
180.3259621337367
  0
ARC
  5
39A
330
5C6
100
AcDbEntity
  8
DATA
  6
Continuous
 62
     7
100
AcDbCircle
 10
-473.8667506645064
 20
-1181.414921720906
 30
0.0
 40
11.03058901399087
100
AcDbArc
 50
0.1086161651175897
 51
88.99479455926719
  0
CIRCLE
  5
39B
330
5C6
100
AcDbEntity
  8
DATA
  6
Continuous
 62
     7
100
AcDbCircle
 10
75.0
 20
-1181.394
 30
0.0
 40
11.17600000000038
  0
LINE
  5
39C
330
5C6
100
AcDbEntity
  8
DATA
  6
Continuous
 62
     7
100
AcDbLine
 10
77.79399999999987
 20
-1183.172
 30
0.0
 11
75.0
 21
-1184.95
 31
0.0
  0
LINE
  5
39D
330
5C6
100
AcDbEntity
  8
DATA
  6
Continuous
 62
     7
100
AcDbLine
 10
72.20600000000013
 20
-1179.616
 30
0.0
 11
75.0
 21
-1178.092
 31
0.0
  0
LINE
  5
39E
330
5C6
100
AcDbEntity
  8
DATA
  6
Continuous
 62
     7
100
AcDbLine
 10
77.79399999999987
 20
-1179.616
 30
0.0
 11
77.79399999999987
 21
-1183.172
 31
0.0
  0
LINE
  5
39F
330
5C6
100
AcDbEntity
  8
DATA
  6
Continuous
 62
     7
100
AcDbLine
 10
72.20600000000013
 20
-1183.172
 30
0.0
 11
72.20600000000013
 21
-1179.616
 31
0.0
  0
LINE
  5
3A0
330
5C6
100
AcDbEntity
  8
DATA
  6
Continuous
 62
     7
100
AcDbLine
 10
75.0
 20
-1178.092
 30
0.0
 11
77.79399999999987
 21
-1179.616
 31
0.0
  0
LINE
  5
3A1
330
5C6
100
AcDbEntity
  8
DATA
  6
Continuous
 62
     7
100
AcDbLine
 10
75.0
 20
-1184.95
 30
0.0
 11
72.20600000000013
 21
-1183.172
 31
0.0
  0
LINE
  5
3A2
330
5C6
100
AcDbEntity
  8
DATA
  6
Continuous
 62
     7
100
AcDbLine
 10
-82.39881341022373
 20
-1183.172
 30
0.0
 11
-83.12262817341162
 21
-1184.95
 31
0.0
  0
LINE
  5
3A3
330
5C6
100
AcDbEntity
  8
DATA
  6
Continuous
 62
     7
100
AcDbLine
 10
-83.84644293659949
 20
-1179.616
 30
0.0
 11
-83.12262817341162
 21
-1178.092
 31
0.0
  0
LINE
  5
3A4
330
5C6
100
AcDbEntity
  8
DATA
  6
Continuous
 62
     7
100
AcDbLine
 10
-82.39881341022373
 20
-1179.616
 30
0.0
 11
-82.39881341022373
 21
-1183.172
 31
0.0
  0
LINE
  5
3A5
330
5C6
100
AcDbEntity
  8
DATA
  6
Continuous
 62
     7
100
AcDbLine
 10
-83.84644293659949
 20
-1183.172
 30
0.0
 11
-83.84644293659949
 21
-1179.616
 31
0.0
  0
LINE
  5
3A6
330
5C6
100
AcDbEntity
  8
DATA
  6
Continuous
 62
     7
100
AcDbLine
 10
-83.12262817341162
 20
-1178.092
 30
0.0
 11
-82.39881341022373
 21
-1179.616
 31
0.0
  0
LINE
  5
3A7
330
5C6
100
AcDbEntity
  8
DATA
  6
Continuous
 62
     7
100
AcDbLine
 10
-83.12262817341162
 20
-1184.95
 30
0.0
 11
-83.84644293659949
 21
-1183.172
 31
0.0
  0
ARC
  5
3A8
330
5C6
100
AcDbEntity
  8
DATA
  6
Continuous
 62
     7
100
AcDbCircle
 10
-74.72480143153872
 20
-1186.697358012974
 30
0.0
 40
10.76847774230561
100
AcDbArc
 50
192.93162281195
 51
206.0336392569497
  0
ARC
  5
3A9
330
5C6
100
AcDbEntity
  8
DATA
  6
Continuous
 62
     7
100
AcDbCircle
 10
-81.7690893700419
 20
-1190.173364544417
 30
0.0
 40
2.913484072731721
100
AcDbArc
 50
205.4123964795257
 51
227.5430020804717
  0
ARC
  5
3AA
330
5C6
100
AcDbEntity
  8
DATA
  6
Continuous
 62
     7
100
AcDbCircle
 10
-50.48897692754235
 20
-1181.617369570957
 30
0.0
 40
35.52961245176624
100
AcDbArc
 50
179.6397872897395
 51
192.1695733424592
  0
ARC
  5
3AB
330
5C6
100
AcDbEntity
  8
DATA
  6
Continuous
 62
     7
100
AcDbCircle
 10
-83.12262817341162
 20
-1191.685704121152
 30
0.0
 40
0.8842958788485288
100
AcDbArc
 50
226.1002333801019
 51
313.8997666198981
  0
ARC
  5
3AC
330
5C6
100
AcDbEntity
  8
DATA
  6
Continuous
 62
     7
100
AcDbCircle
 10
-91.52045491528452
 20
-1186.697358012974
 30
0.0
 40
10.76847774230575
100
AcDbArc
 50
333.9663607430515
 51
347.06837718805
  0
ARC
  5
3AD
330
5C6
100
AcDbEntity
  8
DATA
  6
Continuous
 62
     7
100
AcDbCircle
 10
-84.47616697678132
 20
-1190.173364544417
 30
0.0
 40
2.913484072732014
100
AcDbArc
 50
312.4569979195283
 51
334.5876035204781
  0
ARC
  5
3AE
330
5C6
100
AcDbEntity
  8
DATA
  6
Continuous
 62
     7
100
AcDbCircle
 10
-115.7562794192809
 20
-1181.617369570957
 30
0.0
 40
35.52961245176644
100
AcDbArc
 50
347.8304266575408
 51
0.3602127102604414
  0
ARC
  5
3AF
330
5C6
100
AcDbEntity
  8
DATA
  6
Continuous
 62
     7
100
AcDbCircle
 10
-74.72480143153872
 20
-1176.090641987025
 30
0.0
 40
10.76847774230515
100
AcDbArc
 50
153.9663607430525
 51
167.06837718805
  0
ARC
  5
3B0
330
5C6
100
AcDbEntity
  8
DATA
  6
Continuous
 62
     7
100
AcDbCircle
 10
-81.7690893700419
 20
-1172.614635455583
 30
0.0
 40
2.913484072732014
100
AcDbArc
 50
132.4569979195283
 51
154.5876035204743
  0
ARC
  5
3B1
330
5C6
100
AcDbEntity
  8
DATA
  6
Continuous
 62
     7
100
AcDbCircle
 10
-50.48897692754235
 20
-1181.170630429043
 30
0.0
 40
35.52961245176653
100
AcDbArc
 50
167.8304266575401
 51
180.3602127102597
  0
ARC
  5
3B2
330
5C6
100
AcDbEntity
  8
DATA
  6
Continuous
 62
     7
100
AcDbCircle
 10
-83.12262817341162
 20
-1171.102295878848
 30
0.0
 40
0.8842958788485288
100
AcDbArc
 50
46.10023338010182
 51
133.8997666198981
  0
ARC
  5
3B3
330
5C6
100
AcDbEntity
  8
DATA
  6
Continuous
 62
     7
100
AcDbCircle
 10
-91.52045491528452
 20
-1176.090641987025
 30
0.0
 40
10.76847774230561
100
AcDbArc
 50
12.93162281194999
 51
26.03363925694641
  0
ARC
  5
3B4
330
5C6
100
AcDbEntity
  8
DATA
  6
Continuous
 62
     7
100
AcDbCircle
 10
-84.47616697678132
 20
-1172.614635455583
 30
0.0
 40
2.913484072732132
100
AcDbArc
 50
25.4123964795219
 51
47.5430020804717
  0
ARC
  5
3B5
330
5C6
100
AcDbEntity
  8
DATA
  6
Continuous
 62
     7
100
AcDbCircle
 10
-115.7562794192809
 20
-1181.170630429043
 30
0.0
 40
35.52961245176623
100
AcDbArc
 50
359.6397872897403
 51
12.1695733424599
  0
LINE
  5
3B6
330
5C6
100
AcDbEntity
  8
DATA
  6
Continuous
 62
     7
100
AcDbLine
 10
232.3988134102237
 20
-1183.172
 30
0.0
 11
233.1226281734116
 21
-1184.95
 31
0.0
  0
LINE
  5
3B7
330
5C6
100
AcDbEntity
  8
DATA
  6
Continuous
 62
     7
100
AcDbLine
 10
233.8464429365995
 20
-1179.616
 30
0.0
 11
233.1226281734116
 21
-1178.092
 31
0.0
  0
LINE
  5
3B8
330
5C6
100
AcDbEntity
  8
DATA
  6
Continuous
 62
     7
100
AcDbLine
 10
232.3988134102237
 20
-1179.616
 30
0.0
 11
232.3988134102237
 21
-1183.172
 31
0.0
  0
LINE
  5
3B9
330
5C6
100
AcDbEntity
  8
DATA
  6
Continuous
 62
     7
100
AcDbLine
 10
233.8464429365995
 20
-1183.172
 30
0.0
 11
233.8464429365995
 21
-1179.616
 31
0.0
  0
LINE
  5
3BA
330
5C6
100
AcDbEntity
  8
DATA
  6
Continuous
 62
     7
100
AcDbLine
 10
233.1226281734116
 20
-1178.092
 30
0.0
 11
232.3988134102237
 21
-1179.616
 31
0.0
  0
LINE
  5
3BB
330
5C6
100
AcDbEntity
  8
DATA
  6
Continuous
 62
     7
100
AcDbLine
 10
233.1226281734116
 20
-1184.95
 30
0.0
 11
233.8464429365995
 21
-1183.172
 31
0.0
  0
ARC
  5
3BC
330
5C6
100
AcDbEntity
  8
DATA
  6
Continuous
 62
     7
100
AcDbCircle
 10
224.7248014315382
 20
-1186.697358012974
 30
0.0
 40
10.76847774230616
100
AcDbArc
 50
333.9663607430525
 51
347.06837718805
  0
ARC
  5
3BD
330
5C6
100
AcDbEntity
  8
DATA
  6
Continuous
 62
     7
100
AcDbCircle
 10
231.7690893700419
 20
-1190.173364544417
 30
0.0
 40
2.913484072731708
100
AcDbArc
 50
312.4569979195218
 51
334.5876035204781
  0
ARC
  5
3BE
330
5C6
100
AcDbEntity
  8
DATA
  6
Continuous
 62
     7
100
AcDbCircle
 10
200.4889769275424
 20
-1181.617369570957
 30
0.0
 40
35.52961245176599
100
AcDbArc
 50
347.8304266575407
 51
0.3602127102604982
  0
ARC
  5
3BF
330
5C6
100
AcDbEntity
  8
DATA
  6
Continuous
 62
     7
100
AcDbCircle
 10
233.1226281734116
 20
-1191.685704121152
 30
0.0
 40
0.8842958788488443
100
AcDbArc
 50
226.1002333800806
 51
313.8997666198769
  0
ARC
  5
3C0
330
5C6
100
AcDbEntity
  8
DATA
  6
Continuous
 62
     7
100
AcDbCircle
 10
241.5204549152849
 20
-1186.697358012974
 30
0.0
 40
10.76847774230649
100
AcDbArc
 50
192.9316228119489
 51
206.0336392569475
  0
ARC
  5
3C1
330
5C6
100
AcDbEntity
  8
DATA
  6
Continuous
 62
     7
100
AcDbCircle
 10
234.4761669767813
 20
-1190.173364544417
 30
0.0
 40
2.913484072732132
100
AcDbArc
 50
205.4123964795218
 51
227.5430020804651
  0
ARC
  5
3C2
330
5C6
100
AcDbEntity
  8
DATA
  6
Continuous
 62
     7
100
AcDbCircle
 10
265.7562794192809
 20
-1181.617369570957
 30
0.0
 40
35.52961245176669
100
AcDbArc
 50
179.6397872897395
 51
192.1695733424591
  0
ARC
  5
3C3
330
5C6
100
AcDbEntity
  8
DATA
  6
Continuous
 62
     7
100
AcDbCircle
 10
224.7248014315382
 20
-1176.090641987025
 30
0.0
 40
10.76847774230561
100
AcDbArc
 50
12.93162281194999
 51
26.03363925694536
  0
ARC
  5
3C4
330
5C6
100
AcDbEntity
  8
DATA
  6
Continuous
 62
     7
100
AcDbCircle
 10
231.7690893700419
 20
-1172.614635455583
 30
0.0
 40
2.913484072732132
100
AcDbArc
 50
25.4123964795219
 51
47.54300208047826
  0
ARC
  5
3C5
330
5C6
100
AcDbEntity
  8
DATA
  6
Continuous
 62
     7
100
AcDbCircle
 10
200.4889769275424
 20
-1181.170630429043
 30
0.0
 40
35.52961245176578
100
AcDbArc
 50
359.6397872897403
 51
12.16957334246006
  0
ARC
  5
3C6
330
5C6
100
AcDbEntity
  8
DATA
  6
Continuous
 62
     7
100
AcDbCircle
 10
233.1226281734116
 20
-1171.102295878848
 30
0.0
 40
0.8842958788482135
100
AcDbArc
 50
46.10023338012305
 51
133.8997666199194
  0
ARC
  5
3C7
330
5C6
100
AcDbEntity
  8
DATA
  6
Continuous
 62
     7
100
AcDbCircle
 10
241.5204549152849
 20
-1176.090641987025
 30
0.0
 40
10.76847774230596
100
AcDbArc
 50
153.9663607430547
 51
167.0683771880511
  0
ARC
  5
3C8
330
5C6
100
AcDbEntity
  8
DATA
  6
Continuous
 62
     7
100
AcDbCircle
 10
234.4761669767813
 20
-1172.614635455583
 30
0.0
 40
2.913484072732321
100
AcDbArc
 50
132.4569979195349
 51
154.5876035204781
  0
ARC
  5
3C9
330
5C6
100
AcDbEntity
  8
DATA
  6
Continuous
 62
     7
100
AcDbCircle
 10
265.7562794192809
 20
-1181.170630429043
 30
0.0
 40
35.52961245176696
100
AcDbArc
 50
167.8304266575402
 51
180.3602127102597
  0
CIRCLE
  5
3CA
330
5C6
100
AcDbEntity
  8
DATA
  6
Continuous
 62
     7
100
AcDbCircle
 10
40.49999999999999
 20
-767.6880000000001
 30
0.0
 40
3.80999999999949
  0
CIRCLE
  5
3CB
330
5C6
100
AcDbEntity
  8
DATA
  6
Continuous
 62
     7
100
AcDbCircle
 10
40.49999999999999
 20
-895.188
 30
0.0
 40
3.80999999999949
  0
CIRCLE
  5
3CC
330
5C6
100
AcDbEntity
  8
DATA
  6
Continuous
 62
     7
100
AcDbCircle
 10
40.49999999999999
 20
-895.188
 30
0.0
 40
6.603999999999359
  0
CIRCLE
  5
3CD
330
5C6
100
AcDbEntity
  8
DATA
  6
Continuous
 62
     7
100
AcDbCircle
 10
40.49999999999999
 20
-767.6880000000001
 30
0.0
 40
6.603999999999359
  0
LINE
  5
3CE
330
5C6
100
AcDbEntity
  8
DATA
  6
Continuous
 62
     7
100
AcDbLine
 10
43.29399999999987
 20
-765.9099999999998
 30
0.0
 11
40.49999999999999
 21
-764.1319999999999
 31
0.0
  0
LINE
  5
3CF
330
5C6
100
AcDbEntity
  8
DATA
  6
Continuous
 62
     7
100
AcDbLine
 10
37.70599999999922
 20
-769.4659999999999
 30
0.0
 11
40.49999999999999
 21
-770.9900000000001
 31
0.0
  0
LINE
  5
3D0
330
5C6
100
AcDbEntity
  8
DATA
  6
Continuous
 62
     7
100
AcDbLine
 10
43.29399999999987
 20
-893.4099999999999
 30
0.0
 11
40.49999999999999
 21
-891.6319999999998
 31
0.0
  0
LINE
  5
3D1
330
5C6
100
AcDbEntity
  8
DATA
  6
Continuous
 62
     7
100
AcDbLine
 10
37.70599999999922
 20
-896.9660000000001
 30
0.0
 11
40.49999999999999
 21
-898.4899999999996
 31
0.0
  0
LINE
  5
3D2
330
5C6
100
AcDbEntity
  8
DATA
  6
Continuous
 62
     7
100
AcDbLine
 10
43.29399999999987
 20
-769.4659999999999
 30
0.0
 11
43.29399999999987
 21
-765.9099999999998
 31
0.0
  0
LINE
  5
3D3
330
5C6
100
AcDbEntity
  8
DATA
  6
Continuous
 62
     7
100
AcDbLine
 10
43.29399999999987
 20
-896.9660000000001
 30
0.0
 11
43.29399999999987
 21
-893.4099999999999
 31
0.0
  0
LINE
  5
3D4
330
5C6
100
AcDbEntity
  8
DATA
  6
Continuous
 62
     7
100
AcDbLine
 10
37.70599999999922
 20
-893.4099999999999
 30
0.0
 11
37.70599999999922
 21
-896.9660000000001
 31
0.0
  0
LINE
  5
3D5
330
5C6
100
AcDbEntity
  8
DATA
  6
Continuous
 62
     7
100
AcDbLine
 10
37.70599999999922
 20
-765.9099999999998
 30
0.0
 11
37.70599999999922
 21
-769.4659999999999
 31
0.0
  0
LINE
  5
3D6
330
5C6
100
AcDbEntity
  8
DATA
  6
Continuous
 62
     7
100
AcDbLine
 10
40.49999999999999
 20
-898.4899999999996
 30
0.0
 11
43.29399999999987
 21
-896.9660000000001
 31
0.0
  0
LINE
  5
3D7
330
5C6
100
AcDbEntity
  8
DATA
  6
Continuous
 62
     7
100
AcDbLine
 10
40.49999999999999
 20
-891.6319999999998
 30
0.0
 11
37.70599999999922
 21
-893.4099999999999
 31
0.0
  0
LINE
  5
3D8
330
5C6
100
AcDbEntity
  8
DATA
  6
Continuous
 62
     7
100
AcDbLine
 10
40.49999999999999
 20
-770.9900000000001
 30
0.0
 11
43.29399999999987
 21
-769.4659999999999
 31
0.0
  0
LINE
  5
3D9
330
5C6
100
AcDbEntity
  8
DATA
  6
Continuous
 62
     7
100
AcDbLine
 10
40.49999999999999
 20
-764.1319999999999
 30
0.0
 11
37.70599999999922
 21
-765.9099999999998
 31
0.0
  0
CIRCLE
  5
3DA
330
5C6
100
AcDbEntity
  8
DATA
  6
Continuous
 62
     7
100
AcDbCircle
 10
109.5
 20
-895.188
 30
0.0
 40
3.8100000000004
  0
CIRCLE
  5
3DB
330
5C6
100
AcDbEntity
  8
DATA
  6
Continuous
 62
     7
100
AcDbCircle
 10
109.5
 20
-767.6880000000001
 30
0.0
 40
3.8100000000004
  0
CIRCLE
  5
3DC
330
5C6
100
AcDbEntity
  8
DATA
  6
Continuous
 62
     7
100
AcDbCircle
 10
109.5
 20
-895.188
 30
0.0
 40
6.604000000000269
  0
CIRCLE
  5
3DD
330
5C6
100
AcDbEntity
  8
DATA
  6
Continuous
 62
     7
100
AcDbCircle
 10
109.5
 20
-767.6880000000001
 30
0.0
 40
6.604000000000269
  0
LINE
  5
3DE
330
5C6
100
AcDbEntity
  8
DATA
  6
Continuous
 62
     7
100
AcDbLine
 10
112.2939999999998
 20
-765.9099999999998
 30
0.0
 11
109.5
 21
-764.1319999999999
 31
0.0
  0
LINE
  5
3DF
330
5C6
100
AcDbEntity
  8
DATA
  6
Continuous
 62
     7
100
AcDbLine
 10
106.7060000000001
 20
-769.4659999999999
 30
0.0
 11
109.5
 21
-770.9900000000001
 31
0.0
  0
LINE
  5
3E0
330
5C6
100
AcDbEntity
  8
DATA
  6
Continuous
 62
     7
100
AcDbLine
 10
112.2939999999998
 20
-893.4099999999999
 30
0.0
 11
109.5
 21
-891.6319999999998
 31
0.0
  0
LINE
  5
3E1
330
5C6
100
AcDbEntity
  8
DATA
  6
Continuous
 62
     7
100
AcDbLine
 10
106.7060000000001
 20
-896.9660000000001
 30
0.0
 11
109.5
 21
-898.4899999999996
 31
0.0
  0
LINE
  5
3E2
330
5C6
100
AcDbEntity
  8
DATA
  6
Continuous
 62
     7
100
AcDbLine
 10
112.2939999999998
 20
-769.4659999999999
 30
0.0
 11
112.2939999999998
 21
-765.9099999999998
 31
0.0
  0
LINE
  5
3E3
330
5C6
100
AcDbEntity
  8
DATA
  6
Continuous
 62
     7
100
AcDbLine
 10
112.2939999999998
 20
-896.9660000000001
 30
0.0
 11
112.2939999999998
 21
-893.4099999999999
 31
0.0
  0
LINE
  5
3E4
330
5C6
100
AcDbEntity
  8
DATA
  6
Continuous
 62
     7
100
AcDbLine
 10
106.7060000000001
 20
-893.4099999999999
 30
0.0
 11
106.7060000000001
 21
-896.9660000000001
 31
0.0
  0
LINE
  5
3E5
330
5C6
100
AcDbEntity
  8
DATA
  6
Continuous
 62
     7
100
AcDbLine
 10
106.7060000000001
 20
-765.9099999999998
 30
0.0
 11
106.7060000000001
 21
-769.4659999999999
 31
0.0
  0
LINE
  5
3E6
330
5C6
100
AcDbEntity
  8
DATA
  6
Continuous
 62
     7
100
AcDbLine
 10
109.5
 20
-898.4899999999996
 30
0.0
 11
112.2939999999998
 21
-896.9660000000001
 31
0.0
  0
LINE
  5
3E7
330
5C6
100
AcDbEntity
  8
DATA
  6
Continuous
 62
     7
100
AcDbLine
 10
109.5
 20
-891.6319999999998
 30
0.0
 11
106.7060000000001
 21
-893.4099999999999
 31
0.0
  0
LINE
  5
3E8
330
5C6
100
AcDbEntity
  8
DATA
  6
Continuous
 62
     7
100
AcDbLine
 10
109.5
 20
-770.9900000000001
 30
0.0
 11
112.2939999999998
 21
-769.4659999999999
 31
0.0
  0
LINE
  5
3E9
330
5C6
100
AcDbEntity
  8
DATA
  6
Continuous
 62
     7
100
AcDbLine
 10
109.5
 20
-764.1319999999999
 30
0.0
 11
106.7060000000001
 21
-765.9099999999998
 31
0.0
  0
LINE
  5
3EA
330
5C6
100
AcDbEntity
  8
DATA
  6
Continuous
 62
     7
100
AcDbLine
 10
13.5
 20
-1151.812
 30
0.0
 11
13.5
 21
-961.8120000000001
 31
0.0
  0
LINE
  5
3EB
330
5C6
100
AcDbEntity
  8
DATA
  6
Continuous
 62
     7
100
AcDbLine
 10
131.5
 20
-1156.812
 30
0.0
 11
18.5
 21
-1156.812
 31
0.0
  0
LINE
  5
3EC
330
5C6
100
AcDbEntity
  8
DATA
  6
Continuous
 62
     7
100
AcDbLine
 10
136.5
 20
-961.8120000000001
 30
0.0
 11
136.5
 21
-1151.812
 31
0.0
  0
LINE
  5
3ED
330
5C6
100
AcDbEntity
  8
DATA
  6
Continuous
 62
     7
100
AcDbLine
 10
18.5
 20
-956.812
 30
0.0
 11
131.5
 21
-956.812
 31
0.0
  0
LINE
  5
3EE
330
5C6
100
AcDbEntity
  8
DATA
  6
Continuous
 62
     7
100
AcDbLine
 10
28.5
 20
-1142.312
 30
0.0
 11
28.5
 21
-971.3119999999999
 31
0.0
  0
LINE
  5
3EF
330
5C6
100
AcDbEntity
  8
DATA
  6
Continuous
 62
     7
100
AcDbLine
 10
121.5
 20
-1142.312
 30
0.0
 11
28.5
 21
-1142.312
 31
0.0
  0
LINE
  5
3F0
330
5C6
100
AcDbEntity
  8
DATA
  6
Continuous
 62
     7
100
AcDbLine
 10
121.5
 20
-971.3119999999999
 30
0.0
 11
121.5
 21
-1142.312
 31
0.0
  0
LINE
  5
3F1
330
5C6
100
AcDbEntity
  8
DATA
  6
Continuous
 62
     7
100
AcDbLine
 10
28.5
 20
-971.3119999999999
 30
0.0
 11
121.5
 21
-971.3119999999999
 31
0.0
  0
LWPOLYLINE
  5
3F2
330
5C6
100
AcDbEntity
  8
DATA
  6
Continuous
 62
     7
100
AcDbPolyline
 90
        4
 70
     1
 43
0.0
 10
34.5
 20
-1094.312
 10
115.5
 20
-1094.312
 10
115.5
 20
-1112.312
 10
34.5
 20
-1112.312
  0
LWPOLYLINE
  5
3F9
330
5C6
100
AcDbEntity
  8
DATA
  6
Continuous
 62
     7
100
AcDbPolyline
 90
        5
 70
   129
 43
0.0
 10
63.25
 20
-1053.312
 42
-0.4142135623730951
 10
75.0
 20
-1041.562
 42
-0.4142135623730951
 10
86.75
 20
-1053.312
 42
-0.4142135623730951
 10
75.0
 20
-1065.062
 42
-0.4142135623730951
 10
63.25
 20
-1053.312
  0
LINE
  5
400
330
5C6
100
AcDbEntity
  8
DATA
  6
Continuous
 62
     7
100
AcDbLine
 10
72.0
 20
-1043.312
 30
0.0
 11
78.0
 21
-1043.312
 31
0.0
  0
LINE
  5
401
330
5C6
100
AcDbEntity
  8
DATA
  6
Continuous
 62
     7
100
AcDbLine
 10
73.0
 20
-1063.312
 30
0.0
 11
77.0
 21
-1063.312
 31
0.0
  0
LINE
  5
402
330
5C6
100
AcDbEntity
  8
DATA
  6
Continuous
 62
     7
100
AcDbLine
 10
73.0
 20
-1063.312
 30
0.0
 11
73.0
 21
-1062.111999999999
 31
0.0
  0
LINE
  5
403
330
5C6
100
AcDbEntity
  8
DATA
  6
Continuous
 62
     7
100
AcDbLine
 10
77.0
 20
-1063.312
 30
0.0
 11
77.0
 21
-1062.111999999999
 31
0.0
  0
LINE
  5
404
330
5C6
100
AcDbEntity
  8
DATA
  6
Continuous
 62
     7
100
AcDbLine
 10
72.0
 20
-1043.312
 30
0.0
 11
72.0
 21
-1045.03915
 31
0.0
  0
LINE
  5
405
330
5C6
100
AcDbEntity
  8
DATA
  6
Continuous
 62
     7
100
AcDbLine
 10
78.0
 20
-1043.312
 30
0.0
 11
78.0
 21
-1045.03915
 31
0.0
  0
ARC
  5
406
330
5C6
100
AcDbEntity
  8
DATA
  6
Continuous
 62
     7
100
AcDbCircle
 10
75.0
 20
-1053.312
 30
0.0
 40
8.800002677414209
100
AcDbArc
 50
109.9322641506793
 51
257.1961668196983
  0
ARC
  5
407
330
5C6
100
AcDbEntity
  8
DATA
  6
Continuous
 62
     7
100
AcDbCircle
 10
75.0
 20
-1053.312
 30
0.0
 40
8.800003504346152
100
AcDbArc
 50
282.9999995554209
 51
69.99999423796158
  0
ARC
  5
408
330
5C6
100
AcDbEntity
  8
DATA
  6
Continuous
 62
     7
100
AcDbCircle
 10
75.0
 20
-1053.312
 30
0.0
 40
6.200002162064216
100
AcDbArc
 50
60.00001153556218
 51
150.0000115355622
  0
LINE
  5
409
330
5C6
100
AcDbEntity
  8
DATA
  6
Continuous
 62
     7
100
AcDbLine
 10
69.6306599999998
 20
-1050.211969999999
 30
0.0
 11
70.12861999999995
 21
-1050.49947
 31
0.0
  0
LINE
  5
40A
330
5C6
100
AcDbEntity
  8
DATA
  6
Continuous
 62
     7
100
AcDbLine
 10
78.09996999999973
 20
-1047.94262
 30
0.0
 11
77.81246999999985
 21
-1048.44059
 31
0.0
  0
ARC
  5
40B
330
5C6
100
AcDbEntity
  8
DATA
  6
Continuous
 62
     7
100
AcDbCircle
 10
75.0
 20
-1053.312
 30
0.0
 40
6.200002162064216
100
AcDbArc
 50
240.0000115355621
 51
330.0000115355623
  0
LINE
  5
40C
330
5C6
100
AcDbEntity
  8
DATA
  6
Continuous
 62
     7
100
AcDbLine
 10
71.90000000000009
 20
-1058.68136
 30
0.0
 11
72.1875
 21
-1058.183389999999
 31
0.0
  0
LINE
  5
40D
330
5C6
100
AcDbEntity
  8
DATA
  6
Continuous
 62
     7
100
AcDbLine
 10
80.36936999999989
 20
-1056.41198
 30
0.0
 11
79.87139999999998
 21
-1056.12448
 31
0.0
  0
ARC
  5
40E
330
5C6
100
AcDbEntity
  8
DATA
  6
Continuous
 62
     7
100
AcDbCircle
 10
75.0
 20
-1053.312
 30
0.0
 40
5.625003831580804
100
AcDbArc
 50
149.9996696821054
 51
240.0002126043052
  0
ARC
  5
40F
330
5C6
100
AcDbEntity
  8
DATA
  6
Continuous
 62
     7
100
AcDbCircle
 10
75.0
 20
-1053.312
 30
0.0
 40
5.624996152034259
100
AcDbArc
 50
330.0002126043024
 51
60.00071824312165
  0
ARC
  5
410
330
5C6
100
AcDbEntity
  8
DATA
  6
Continuous
 62
     7
100
AcDbCircle
 10
75.0
 20
-1053.312
 30
0.0
 40
3.599990080874945
100
AcDbArc
 50
59.99990885470769
 51
149.9999088547113
  0
ARC
  5
411
330
5C6
100
AcDbEntity
  8
DATA
  6
Continuous
 62
     7
100
AcDbCircle
 10
75.0
 20
-1053.312
 30
0.0
 40
3.599990080875172
100
AcDbArc
 50
239.9999088547014
 51
329.9999088547076
  0
LINE
  5
412
330
5C6
100
AcDbEntity
  8
DATA
  6
Continuous
 62
     7
100
AcDbLine
 10
76.79997999999978
 20
-1050.19431
 30
0.0
 11
76.44999000000007
 21
-1050.80052
 31
0.0
  0
LINE
  5
413
330
5C6
100
AcDbEntity
  8
DATA
  6
Continuous
 62
     7
100
AcDbLine
 10
71.88232999999991
 20
-1051.51199
 30
0.0
 11
72.48853000000008
 21
-1051.86199
 31
0.0
  0
LINE
  5
414
330
5C6
100
AcDbEntity
  8
DATA
  6
Continuous
 62
     7
100
AcDbLine
 10
73.1999999999998
 20
-1056.429679999999
 30
0.0
 11
73.5499999999997
 21
-1055.823469999999
 31
0.0
  0
LINE
  5
415
330
5C6
100
AcDbEntity
  8
DATA
  6
Continuous
 62
     7
100
AcDbLine
 10
78.11769000000005
 20
-1055.11198
 30
0.0
 11
77.51148000000012
 21
-1054.76199
 31
0.0
  0
ARC
  5
416
330
5C6
100
AcDbEntity
  8
DATA
  6
Continuous
 62
     7
100
AcDbCircle
 10
75.0
 20
-1053.312
 30
0.0
 40
2.900001820861436
100
AcDbArc
 50
149.9997926340292
 51
240.0002336238281
  0
ARC
  5
417
330
5C6
100
AcDbEntity
  8
DATA
  6
Continuous
 62
     7
100
AcDbCircle
 10
75.0
 20
-1053.312
 30
0.0
 40
2.900000481120788
100
AcDbArc
 50
330.0002336238303
 51
59.99979263403268
  0
LINE
  5
418
330
5C6
100
AcDbEntity
  8
DATA
  6
Continuous
 62
     7
100
AcDbLine
 10
47.50000000000045
 20
-1112.312
 30
0.0
 11
47.50000000000045
 21
-1094.312
 31
0.0
  0
LINE
  5
419
330
5C6
100
AcDbEntity
  8
DATA
  6
Continuous
 62
     7
100
AcDbLine
 10
50.50000000000046
 20
-1112.312
 30
0.0
 11
50.50000000000046
 21
-1094.312
 31
0.0
  0
LINE
  5
41A
330
5C6
100
AcDbEntity
  8
DATA
  6
Continuous
 62
     7
100
AcDbLine
 10
60.50000000000046
 20
-1112.312
 30
0.0
 11
60.50000000000046
 21
-1094.312
 31
0.0
  0
LINE
  5
41B
330
5C6
100
AcDbEntity
  8
DATA
  6
Continuous
 62
     7
100
AcDbLine
 10
63.50000000000045
 20
-1112.312
 30
0.0
 11
63.50000000000045
 21
-1094.312
 31
0.0
  0
LINE
  5
41C
330
5C6
100
AcDbEntity
  8
DATA
  6
Continuous
 62
     7
100
AcDbLine
 10
73.50000000000045
 20
-1112.312
 30
0.0
 11
73.50000000000045
 21
-1094.312
 31
0.0
  0
LINE
  5
41D
330
5C6
100
AcDbEntity
  8
DATA
  6
Continuous
 62
     7
100
AcDbLine
 10
76.50000000000045
 20
-1112.312
 30
0.0
 11
76.50000000000045
 21
-1094.312
 31
0.0
  0
LINE
  5
41E
330
5C6
100
AcDbEntity
  8
DATA
  6
Continuous
 62
     7
100
AcDbLine
 10
86.50000000000046
 20
-1112.312
 30
0.0
 11
86.50000000000046
 21
-1094.312
 31
0.0
  0
LINE
  5
41F
330
5C6
100
AcDbEntity
  8
DATA
  6
Continuous
 62
     7
100
AcDbLine
 10
89.50000000000045
 20
-1112.312
 30
0.0
 11
89.50000000000045
 21
-1094.312
 31
0.0
  0
LINE
  5
420
330
5C6
100
AcDbEntity
  8
DATA
  6
Continuous
 62
     7
100
AcDbLine
 10
99.50000000000045
 20
-1112.312
 30
0.0
 11
99.50000000000045
 21
-1094.312
 31
0.0
  0
LINE
  5
421
330
5C6
100
AcDbEntity
  8
DATA
  6
Continuous
 62
     7
100
AcDbLine
 10
102.5000000000004
 20
-1112.312
 30
0.0
 11
102.5000000000004
 21
-1094.312
 31
0.0
  0
LINE
  5
422
330
5C6
100
AcDbEntity
  8
DATA
  6
Continuous
 62
     7
100
AcDbLine
 10
37.5
 20
-1112.312
 30
0.0
 11
37.5
 21
-1094.312
 31
0.0
  0
LINE
  5
423
330
5C6
100
AcDbEntity
  8
DATA
  6
Continuous
 62
     7
100
AcDbLine
 10
112.5
 20
-1094.312
 30
0.0
 11
112.5
 21
-1112.312
 31
0.0
  0
CIRCLE
  5
424
330
5C6
100
AcDbEntity
  8
DATA
  6
Continuous
 62
     7
100
AcDbCircle
 10
55.50000000000046
 20
-1103.312
 30
0.0
 40
3.999999999999804
  0
LWPOLYLINE
  5
425
330
5C6
100
AcDbEntity
  8
DATA
  6
Continuous
 62
     7
100
AcDbPolyline
 90
        4
 70
     1
 43
0.0
 10
52.69512195121977
 20
-1097.555902439024
 10
60.50000000000046
 20
-1099.311999999999
 10
58.30487804878066
 20
-1109.068097560975
 10
50.50000000000046
 20
-1107.311999999999
  0
LINE
  5
42C
330
5C6
100
AcDbEntity
  8
DATA
  6
Continuous
 62
     7
100
AcDbLine
 10
51.74122951685696
 20
-1101.943919426697
 30
0.0
 11
59.25877048314396
 21
-1104.680080573302
 31
0.0
  0
CIRCLE
  5
42D
330
5C6
100
AcDbEntity
  8
DATA
  6
Continuous
 62
     7
100
AcDbCircle
 10
68.50000000000045
 20
-1103.312
 30
0.0
 40
3.999999999999804
  0
LWPOLYLINE
  5
42E
330
5C6
100
AcDbEntity
  8
DATA
  6
Continuous
 62
     7
100
AcDbPolyline
 90
        4
 70
     1
 43
0.0
 10
65.69512195121977
 20
-1097.555902439024
 10
73.50000000000045
 20
-1099.311999999999
 10
71.30487804878066
 20
-1109.068097560975
 10
63.50000000000045
 20
-1107.311999999999
  0
CIRCLE
  5
435
330
5C6
100
AcDbEntity
  8
DATA
  6
Continuous
 62
     7
100
AcDbCircle
 10
81.50000000000046
 20
-1103.312
 30
0.0
 40
3.999999999999804
  0
LWPOLYLINE
  5
436
330
5C6
100
AcDbEntity
  8
DATA
  6
Continuous
 62
     7
100
AcDbPolyline
 90
        4
 70
     1
 43
0.0
 10
78.69512195121981
 20
-1097.555902439024
 10
86.50000000000046
 20
-1099.311999999999
 10
84.30487804878067
 20
-1109.068097560975
 10
76.50000000000045
 20
-1107.311999999999
  0
CIRCLE
  5
43D
330
5C6
100
AcDbEntity
  8
DATA
  6
Continuous
 62
     7
100
AcDbCircle
 10
94.50000000000043
 20
-1103.312
 30
0.0
 40
3.999999999999804
  0
LWPOLYLINE
  5
43E
330
5C6
100
AcDbEntity
  8
DATA
  6
Continuous
 62
     7
100
AcDbPolyline
 90
        4
 70
     1
 43
0.0
 10
91.6951219512198
 20
-1097.555902439024
 10
99.50000000000045
 20
-1099.311999999999
 10
97.30487804878066
 20
-1109.068097560975
 10
89.50000000000045
 20
-1107.311999999999
  0
CIRCLE
  5
445
330
5C6
100
AcDbEntity
  8
DATA
  6
Continuous
 62
     7
100
AcDbCircle
 10
107.5
 20
-1103.312
 30
0.0
 40
3.999999999999804
  0
CIRCLE
  5
446
330
5C6
100
AcDbEntity
  8
DATA
  6
Continuous
 62
     7
100
AcDbCircle
 10
42.5
 20
-1103.312
 30
0.0
 40
3.999999999999804
  0
TEXT
  5
447
330
5C6
100
AcDbEntity
  8
DATA
 62
     7
100
AcDbText
 10
53.00000000000046
 20
-1088.112
 30
0.0
 40
3.84765625
  1
1+
 41
0.7
 11
53.00000000000046
 21
-1084.26434375
 31
0.0
100
AcDbText
 73
     3
  0
TEXT
  5
448
330
5C6
100
AcDbEntity
  8
DATA
 62
     7
100
AcDbText
 10
66.00000000000045
 20
-1088.112
 30
0.0
 40
3.84765625
  1
1-
 41
0.7
 11
66.00000000000045
 21
-1084.26434375
 31
0.0
100
AcDbText
 73
     3
  0
TEXT
  5
449
330
5C6
100
AcDbEntity
  8
DATA
 62
     7
100
AcDbText
 10
79.00000000000045
 20
-1088.112
 30
0.0
 40
3.84765625
  1
2+
 41
0.7
 11
79.00000000000045
 21
-1084.26434375
 31
0.0
100
AcDbText
 73
     3
  0
TEXT
  5
44A
330
5C6
100
AcDbEntity
  8
DATA
 62
     7
100
AcDbText
 10
92.00000000000043
 20
-1088.112
 30
0.0
 40
3.84765625
  1
2-
 41
0.7
 11
92.00000000000043
 21
-1084.26434375
 31
0.0
100
AcDbText
 73
     3
  0
CIRCLE
  5
44B
330
5C6
100
AcDbEntity
  8
DATA
  6
Continuous
 62
     7
100
AcDbCircle
 10
45.0
 20
-1031.312
 30
0.0
 40
3.0
  0
CIRCLE
  5
44C
330
5C6
100
AcDbEntity
  8
DATA
  6
Continuous
 62
     7
100
AcDbCircle
 10
105.0
 20
-1031.312
 30
0.0
 40
3.0
  0
LWPOLYLINE
  5
44D
330
5C6
100
AcDbEntity
  8
DATA
  6
Continuous
 62
     7
100
AcDbPolyline
 90
        4
 70
     1
 43
0.0
 10
35.0
 20
-988.3119999999999
 10
115.0
 20
-988.3119999999999
 10
115.0
 20
-1026.312
 10
35.0
 20
-1026.312
  0
TEXT
  5
454
330
5C6
100
AcDbEntity
  8
DATA
 62
     7
100
AcDbText
 10
35.75
 20
-1023.612
 30
0.0
 40
3.84765625
  1
(Passive)
 41
0.7
 11
35.75
 21
-1019.76434375
 31
0.0
100
AcDbText
 73
     3
  0
TEXT
  5
455
330
5C6
100
AcDbEntity
  8
DATA
 62
     7
100
AcDbText
 10
93.0
 20
-1023.612
 30
0.0
 40
3.84765625
  1
(Bi-Amp)
 41
0.7
 11
93.0
 21
-1019.76434375
 31
0.0
100
AcDbText
 73
     3
  0
TEXT
  5
456
330
5C6
100
AcDbEntity
  8
DATA
 62
     7
100
AcDbText
 10
38.0
 20
-995.6119999999998
 30
0.0
 40
3.84765625
  1
Model: AC2212/
 41
0.7
 11
38.0
 21
-991.7643437499998
 31
0.0
100
AcDbText
 73
     3
  0
LWPOLYLINE
  5
457
330
5C6
100
AcDbEntity
  8
DATA
  6
Continuous
 62
     7
100
AcDbPolyline
 90
        4
 70
     1
 43
0.0
 10
51.5
 20
-1002.812
 10
98.50000000000001
 20
-1002.812
 10
98.50000000000001
 20
-1013.812
 10
51.5
 20
-1013.812
  0
LINE
  5
45E
330
5C6
100
AcDbEntity
  8
DATA
  6
Continuous
 62
     7
100
AcDbLine
 10
51.5
 20
-1006.478666666666
 30
0.0
 11
98.50000000000001
 21
-1006.478666666666
 31
0.0
  0
LINE
  5
45F
330
5C6
100
AcDbEntity
  8
DATA
  6
Continuous
 62
     7
100
AcDbLine
 10
51.5
 20
-1010.145333333333
 30
0.0
 11
98.50000000000001
 21
-1010.145333333333
 31
0.0
  0
LINE
  5
460
330
5C6
100
AcDbEntity
  8
DATA
  6
Continuous
 62
     7
100
AcDbLine
 10
65.5
 20
-1002.812
 30
0.0
 11
65.5
 21
-1013.812
 31
0.0
  0
LINE
  5
461
330
5C6
100
AcDbEntity
  8
DATA
  6
Continuous
 62
     7
100
AcDbLine
 10
83.50000000000045
 20
-1013.812
 30
0.0
 11
83.50000000000045
 21
-1002.812
 31
0.0
  0
TEXT
  5
462
330
5C6
100
AcDbEntity
  8
DATA
 62
     7
100
AcDbText
 10
69.25
 20
-1005.725333333333
 30
0.0
 40
2.30859375
  1
Passive
 41
0.7
 11
69.25
 21
-1003.416739583333
 31
0.0
100
AcDbText
 73
     3
  0
TEXT
  5
463
330
5C6
100
AcDbEntity
  8
DATA
 62
     7
100
AcDbText
 10
86.5
 20
-1005.725333333333
 30
0.0
 40
2.30859375
  1
Bi-Amp
 41
0.7
 11
86.5
 21
-1003.416739583333
 31
0.0
100
AcDbText
 73
     3
  0
TEXT
  5
464
330
5C6
100
AcDbEntity
  8
DATA
 62
     7
100
AcDbText
 10
54.75
 20
-1009.392
 30
0.0
 40
2.30859375
  1
1+/1-
 41
0.7
 11
54.75
 21
-1007.08340625
 31
0.0
100
AcDbText
 73
     3
  0
TEXT
  5
465
330
5C6
100
AcDbEntity
  8
DATA
 62
     7
100
AcDbText
 10
67.0
 20
-1009.392
 30
0.0
 40
2.30859375
  1
Full Renge
 41
0.7
 11
67.0
 21
-1007.08340625
 31
0.0
100
AcDbText
 73
     3
  0
TEXT
  5
466
330
5C6
100
AcDbEntity
  8
DATA
 62
     7
100
AcDbText
 10
88.75
 20
-1009.392
 30
0.0
 40
2.30859375
  1
Low
 41
0.7
 11
88.75
 21
-1007.08340625
 31
0.0
100
AcDbText
 73
     3
  0
TEXT
  5
467
330
5C6
100
AcDbEntity
  8
DATA
 62
     7
100
AcDbText
 10
54.75
 20
-1013.058666666666
 30
0.0
 40
2.30859375
  1
2+/2-
 41
0.7
 11
54.75
 21
-1010.750072916666
 31
0.0
100
AcDbText
 73
     3
  0
TEXT
  5
468
330
5C6
100
AcDbEntity
  8
DATA
 62
     7
100
AcDbText
 10
72.25
 20
-1013.058666666666
 30
0.0
 40
2.30859375
  1
n/c
 41
0.7
 11
72.25
 21
-1010.750072916666
 31
0.0
100
AcDbText
 73
     3
  0
ARC
  5
469
330
5C6
100
AcDbEntity
  8
DATA
  6
Continuous
 62
     7
100
AcDbCircle
 10
18.5
 20
-961.8120000000001
 30
0.0
 40
5.0
100
AcDbArc
 50
90.0
 51
180.0
  0
ARC
  5
46A
330
5C6
100
AcDbEntity
  8
DATA
  6
Continuous
 62
     7
100
AcDbCircle
 10
18.5
 20
-1151.812
 30
0.0
 40
5.0
100
AcDbArc
 50
180.0
 51
270.0
  0
ARC
  5
46B
330
5C6
100
AcDbEntity
  8
DATA
  6
Continuous
 62
     7
100
AcDbCircle
 10
131.5
 20
-1151.812
 30
0.0
 40
5.0
100
AcDbArc
 50
270.0
 51
0.0
  0
ARC
  5
46C
330
5C6
100
AcDbEntity
  8
DATA
  6
Continuous
 62
     7
100
AcDbCircle
 10
131.5
 20
-961.8120000000001
 30
0.0
 40
5.0
100
AcDbArc
 50
0.0
 51
90.0
  0
CIRCLE
  5
46D
330
5C6
100
AcDbEntity
  8
DATA
  6
Continuous
 62
     7
100
AcDbCircle
 10
20.0
 20
-963.812
 30
0.0
 40
3.25
  0
LINE
  5
46E
330
5C6
100
AcDbEntity
  8
DATA
  6
Continuous
 62
     7
100
AcDbLine
 10
56.09853525082007
 20
-1101.667537913624
 30
0.0
 11
54.90146474918038
 21
-1104.956462086375
 31
0.0
  0
LINE
  5
46F
330
5C6
100
AcDbEntity
  8
DATA
  6
Continuous
 62
     7
100
AcDbLine
 10
43.09853525082007
 20
-1104.956462086375
 30
0.0
 11
41.90146474917992
 21
-1101.667537913624
 31
0.0
  0
LINE
  5
470
330
5C6
100
AcDbEntity
  8
DATA
  6
Continuous
 62
     7
100
AcDbLine
 10
40.85553791362463
 20
-1103.91053525082
 30
0.0
 11
44.14446208637537
 21
-1102.713464749179
 31
0.0
  0
LINE
  5
471
330
5C6
100
AcDbEntity
  8
DATA
  6
Continuous
 62
     7
100
AcDbLine
 10
64.74122951685696
 20
-1101.943919426697
 30
0.0
 11
72.25877048314396
 21
-1104.680080573302
 31
0.0
  0
LINE
  5
472
330
5C6
100
AcDbEntity
  8
DATA
  6
Continuous
 62
     7
100
AcDbLine
 10
69.09853525082008
 20
-1101.667537913624
 30
0.0
 11
67.90146474918038
 21
-1104.956462086375
 31
0.0
  0
LINE
  5
473
330
5C6
100
AcDbEntity
  8
DATA
  6
Continuous
 62
     7
100
AcDbLine
 10
77.74122951685694
 20
-1101.943919426697
 30
0.0
 11
85.25877048314397
 21
-1104.680080573302
 31
0.0
  0
LINE
  5
474
330
5C6
100
AcDbEntity
  8
DATA
  6
Continuous
 62
     7
100
AcDbLine
 10
82.09853525082007
 20
-1101.667537913624
 30
0.0
 11
80.90146474918038
 21
-1104.956462086375
 31
0.0
  0
LINE
  5
475
330
5C6
100
AcDbEntity
  8
DATA
  6
Continuous
 62
     7
100
AcDbLine
 10
90.74122951685692
 20
-1101.943919426697
 30
0.0
 11
98.25877048314396
 21
-1104.680080573302
 31
0.0
  0
LINE
  5
476
330
5C6
100
AcDbEntity
  8
DATA
  6
Continuous
 62
     7
100
AcDbLine
 10
95.09853525082011
 20
-1101.667537913624
 30
0.0
 11
93.90146474918035
 21
-1104.956462086375
 31
0.0
  0
LINE
  5
477
330
5C6
100
AcDbEntity
  8
DATA
  6
Continuous
 62
     7
100
AcDbLine
 10
105.8555379136246
 20
-1103.91053525082
 30
0.0
 11
109.1444620863753
 21
-1102.713464749179
 31
0.0
  0
LINE
  5
478
330
5C6
100
AcDbEntity
  8
DATA
  6
Continuous
 62
     7
100
AcDbLine
 10
108.09853525082
 20
-1104.956462086375
 30
0.0
 11
106.9014647491799
 21
-1101.667537913624
 31
0.0
  0
LINE
  5
479
330
5C6
100
AcDbEntity
  8
DATA
  6
Continuous
 62
     7
100
AcDbLine
 10
20.0
 20
-965.3119999999999
 30
0.0
 11
20.0
 21
-962.312
 31
0.0
  0
LINE
  5
47A
330
5C6
100
AcDbEntity
  8
DATA
  6
Continuous
 62
     7
100
AcDbLine
 10
21.5
 20
-963.812
 30
0.0
 11
18.5
 21
-963.812
 31
0.0
  0
CIRCLE
  5
47B
330
5C6
100
AcDbEntity
  8
DATA
  6
Continuous
 62
     7
100
AcDbCircle
 10
130.0
 20
-963.812
 30
0.0
 40
3.25
  0
LINE
  5
47C
330
5C6
100
AcDbEntity
  8
DATA
  6
Continuous
 62
     7
100
AcDbLine
 10
130.0
 20
-965.3119999999999
 30
0.0
 11
130.0
 21
-962.312
 31
0.0
  0
LINE
  5
47D
330
5C6
100
AcDbEntity
  8
DATA
  6
Continuous
 62
     7
100
AcDbLine
 10
131.5
 20
-963.812
 30
0.0
 11
128.5
 21
-963.812
 31
0.0
  0
CIRCLE
  5
47E
330
5C6
100
AcDbEntity
  8
DATA
  6
Continuous
 62
     7
100
AcDbCircle
 10
20.0
 20
-1056.812
 30
0.0
 40
3.25
  0
LINE
  5
47F
330
5C6
100
AcDbEntity
  8
DATA
  6
Continuous
 62
     7
100
AcDbLine
 10
20.0
 20
-1058.312
 30
0.0
 11
20.0
 21
-1055.312
 31
0.0
  0
LINE
  5
480
330
5C6
100
AcDbEntity
  8
DATA
  6
Continuous
 62
     7
100
AcDbLine
 10
21.5
 20
-1056.812
 30
0.0
 11
18.5
 21
-1056.812
 31
0.0
  0
CIRCLE
  5
481
330
5C6
100
AcDbEntity
  8
DATA
  6
Continuous
 62
     7
100
AcDbCircle
 10
130.0
 20
-1056.812
 30
0.0
 40
3.25
  0
LINE
  5
482
330
5C6
100
AcDbEntity
  8
DATA
  6
Continuous
 62
     7
100
AcDbLine
 10
130.0
 20
-1058.312
 30
0.0
 11
130.0
 21
-1055.312
 31
0.0
  0
LINE
  5
483
330
5C6
100
AcDbEntity
  8
DATA
  6
Continuous
 62
     7
100
AcDbLine
 10
131.5
 20
-1056.812
 30
0.0
 11
128.5
 21
-1056.812
 31
0.0
  0
CIRCLE
  5
484
330
5C6
100
AcDbEntity
  8
DATA
  6
Continuous
 62
     7
100
AcDbCircle
 10
20.0
 20
-1149.812
 30
0.0
 40
3.25
  0
LINE
  5
485
330
5C6
100
AcDbEntity
  8
DATA
  6
Continuous
 62
     7
100
AcDbLine
 10
20.0
 20
-1151.312
 30
0.0
 11
20.0
 21
-1148.312
 31
0.0
  0
LINE
  5
486
330
5C6
100
AcDbEntity
  8
DATA
  6
Continuous
 62
     7
100
AcDbLine
 10
21.5
 20
-1149.812
 30
0.0
 11
18.5
 21
-1149.812
 31
0.0
  0
CIRCLE
  5
487
330
5C6
100
AcDbEntity
  8
DATA
  6
Continuous
 62
     7
100
AcDbCircle
 10
130.0
 20
-1149.812
 30
0.0
 40
3.25
  0
LINE
  5
488
330
5C6
100
AcDbEntity
  8
DATA
  6
Continuous
 62
     7
100
AcDbLine
 10
130.0
 20
-1151.312
 30
0.0
 11
130.0
 21
-1148.312
 31
0.0
  0
LINE
  5
489
330
5C6
100
AcDbEntity
  8
DATA
  6
Continuous
 62
     7
100
AcDbLine
 10
131.5
 20
-1149.812
 30
0.0
 11
128.5
 21
-1149.812
 31
0.0
  0
TEXT
  5
48A
330
5C6
100
AcDbEntity
  8
DATA
 62
     7
100
AcDbText
 10
87.99999983112044
 20
-1013.058666666666
 30
0.0
 40
2.30859375
  1
High
 41
0.7
 11
87.99999983112044
 21
-1010.750072916666
 31
0.0
100
AcDbText
 73
     3
  0
TEXT
  5
48B
330
5C6
100
AcDbEntity
  8
DATA
 62
     7
100
AcDbText
 10
53.99999995777989
 20
-1005.725333333333
 30
0.0
 40
2.30859375
  1
Wiring
 41
0.7
 11
53.99999995777989
 21
-1003.416739583333
 31
0.0
100
AcDbText
 73
     3
  0
ARC
  5
48C
330
5C6
100
AcDbEntity
  8
DATA
  6
Continuous
 62
     7
100
AcDbCircle
 10
-625.0
 20
-1125.0
 30
0.0
 40
230.4886114323222
100
AcDbArc
 50
139.3987053549955
 51
200.9194136764463
  0
ARC
  5
48D
330
5C6
100
AcDbEntity
  8
DATA
  6
Continuous
 62
     7
100
AcDbCircle
 10
-1056.25
 20
-800.0
 30
0.0
 40
310.3047896826601
100
AcDbArc
 50
325.6697828044966
 51
20.18019201282931
  0
LWPOLYLINE
  5
48E
330
5C6
100
AcDbEntity
  8
DATA
  6
Continuous
 62
     7
100
AcDbPolyline
 90
        4
 70
     1
 43
0.0
 10
-841.0
 20
-1106.812
 10
-809.0
 20
-1106.812
 10
-809.0
 20
-1138.812
 10
-841.0
 20
-1138.812
  0
LINE
  5
495
330
5C6
100
AcDbEntity
  8
DATA
  6
Continuous
 62
     7
100
AcDbLine
 10
-841.0
 20
-1133.812
 30
0.0
 11
-809.0
 21
-1133.812
 31
0.0
  0
ARC
  5
496
330
5C6
100
AcDbEntity
  8
DATA
  6
Continuous
 62
     7
100
AcDbCircle
 10
-824.4711405000694
 20
-1124.248741550273
 30
0.0
 40
0.3506614263002119
100
AcDbArc
 50
307.6419024975243
 51
354.2670192894126
  0
LINE
  5
497
330
5C6
100
AcDbEntity
  8
DATA
  6
Continuous
 62
     7
100
AcDbLine
 10
-833.4783050000002
 20
-1118.722884999999
 30
0.0
 11
-831.8343989999998
 21
-1114.805917
 31
0.0
  0
LINE
  5
498
330
5C6
100
AcDbEntity
  8
DATA
  6
Continuous
 62
     7
100
AcDbLine
 10
-833.4783050000002
 20
-1118.722884999999
 30
0.0
 11
-835.1019270000001
 21
-1114.805917
 31
0.0
  0
LINE
  5
499
330
5C6
100
AcDbEntity
  8
DATA
  6
Continuous
 62
     7
100
AcDbLine
 10
-821.017065
 20
-1125.805917
 30
0.0
 11
-821.017065
 21
-1114.805917
 31
0.0
  0
LINE
  5
49A
330
5C6
100
AcDbEntity
  8
DATA
  6
Continuous
 62
     7
100
AcDbLine
 10
-818.9063630000001
 20
-1114.805917
 30
0.0
 11
-818.9063630000001
 21
-1124.121420999999
 31
0.0
  0
LINE
  5
49B
330
5C6
100
AcDbEntity
  8
DATA
  6
Continuous
 62
     7
100
AcDbLine
 10
-831.0631779999999
 20
-1114.805917
 30
0.0
 11
-831.0631779999999
 21
-1124.121420999999
 31
0.0
  0
LINE
  5
49C
330
5C6
100
AcDbEntity
  8
DATA
  6
Continuous
 62
     7
100
AcDbLine
 10
-829.033656
 20
-1114.805917
 30
0.0
 11
-829.033656
 21
-1124.121420999999
 31
0.0
  0
LINE
  5
49D
330
5C6
100
AcDbEntity
  8
DATA
  6
Continuous
 62
     7
100
AcDbLine
 10
-827.9783050000002
 20
-1114.805917
 30
0.0
 11
-827.9783050000002
 21
-1125.805917
 31
0.0
  0
LINE
  5
49E
330
5C6
100
AcDbEntity
  8
DATA
  6
Continuous
 62
     7
100
AcDbLine
 10
-826.1314379999999
 20
-1115.840962
 30
0.0
 11
-826.1314379999999
 21
-1119.372336
 31
0.0
  0
LINE
  5
49F
330
5C6
100
AcDbEntity
  8
DATA
  6
Continuous
 62
     7
100
AcDbLine
 10
-822.1729999999997
 20
-1119.168
 30
0.0
 11
-822.1729999999997
 21
-1116.591899
 31
0.0
  0
LINE
  5
4A0
330
5C6
100
AcDbEntity
  8
DATA
  6
Continuous
 62
     7
100
AcDbLine
 10
-824.1222330000001
 20
-1116.328053
 30
0.0
 11
-824.1222330000001
 21
-1118.885256
 31
0.0
  0
ARC
  5
4A1
330
5C6
100
AcDbEntity
  8
DATA
  6
Continuous
 62
     7
100
AcDbCircle
 10
-831.4704419999998
 20
-1122.981336999999
 30
0.0
 40
2.83673876768499
100
AcDbArc
 50
264.6908562215342
 51
323.9911991542373
  0
LINE
  5
4A2
330
5C6
100
AcDbEntity
  8
DATA
  6
Continuous
 62
     7
100
AcDbLine
 10
-832.6056090000003
 20
-1122.355723
 30
0.0
 11
-832.6056090000003
 21
-1124.121399
 31
0.0
  0
LINE
  5
4A3
330
5C6
100
AcDbEntity
  8
DATA
  6
Continuous
 62
     7
100
AcDbLine
 10
-832.6056090000003
 20
-1122.355723
 30
0.0
 11
-834.4321810000002
 21
-1122.355723
 31
0.0
  0
LINE
  5
4A4
330
5C6
100
AcDbEntity
  8
DATA
  6
Continuous
 62
     7
100
AcDbLine
 10
-834.4321810000002
 20
-1122.355723
 30
0.0
 11
-834.4321810000002
 21
-1124.121399
 31
0.0
  0
ARC
  5
4A5
330
5C6
100
AcDbEntity
  8
DATA
  6
Continuous
 62
     7
100
AcDbCircle
 10
-831.8305269999999
 20
-1124.145202999999
 30
0.0
 40
0.7677217088668679
100
AcDbArc
 50
269.7118487927402
 51
1.775987005676711
  0
ARC
  5
4A6
330
5C6
100
AcDbEntity
  8
DATA
  6
Continuous
 62
     7
100
AcDbCircle
 10
-831.8382599999999
 20
-1124.145202999999
 30
0.0
 40
0.7677177832057113
100
AcDbArc
 50
178.2240129943259
 51
270.2881512072557
  0
ARC
  5
4A7
330
5C6
100
AcDbEntity
  8
DATA
  6
Continuous
 62
     7
100
AcDbCircle
 10
-831.9953949999998
 20
-1122.981336999999
 30
0.0
 40
2.83673416064133
100
AcDbArc
 50
216.008800845756
 51
275.3091437784656
  0
ARC
  5
4A8
330
5C6
100
AcDbEntity
  8
DATA
  6
Continuous
 62
     7
100
AcDbCircle
 10
-833.1501969999997
 20
-1124.059216
 30
0.0
 40
1.283480228993916
100
AcDbArc
 50
182.7769954499936
 51
207.3596066671262
  0
CIRCLE
  5
4A9
330
5C6
100
AcDbEntity
  8
DATA
  6
Continuous
 62
     7
100
AcDbCircle
 10
-833.366677
 20
-1120.245031999999
 30
0.0
 40
1.0451979999998
  0
LINE
  5
4AA
330
5C6
100
AcDbEntity
  8
DATA
  6
Continuous
 62
     7
100
AcDbLine
 10
-815.517065
 20
-1125.805906
 30
0.0
 11
-821.017065
 21
-1125.805906
 31
0.0
  0
LINE
  5
4AB
330
5C6
100
AcDbEntity
  8
DATA
  6
Continuous
 62
     7
100
AcDbLine
 10
-815.517065
 20
-1125.805906
 30
0.0
 11
-815.517065
 21
-1122.355712
 31
0.0
  0
LINE
  5
4AC
330
5C6
100
AcDbEntity
  8
DATA
  6
Continuous
 62
     7
100
AcDbLine
 10
-815.517065
 20
-1122.355723
 30
0.0
 11
-817.3639210000001
 21
-1122.355723
 31
0.0
  0
LINE
  5
4AD
330
5C6
100
AcDbEntity
  8
DATA
  6
Continuous
 62
     7
100
AcDbLine
 10
-817.3639210000001
 20
-1122.355723
 30
0.0
 11
-817.3639210000001
 21
-1124.121399
 31
0.0
  0
LINE
  5
4AE
330
5C6
100
AcDbEntity
  8
DATA
  6
Continuous
 62
     7
100
AcDbLine
 10
-827.9783050000002
 20
-1125.805906
 30
0.0
 11
-824.1222330000001
 21
-1125.805895
 31
0.0
  0
LINE
  5
4AF
330
5C6
100
AcDbEntity
  8
DATA
  6
Continuous
 62
     7
100
AcDbLine
 10
-826.131449
 20
-1124.77085
 30
0.0
 11
-825.1369830000003
 21
-1124.77085
 31
0.0
  0
LINE
  5
4B0
330
5C6
100
AcDbEntity
  8
DATA
  6
Continuous
 62
     7
100
AcDbLine
 10
-826.1314379999999
 20
-1124.77085
 30
0.0
 11
-826.1314379999999
 21
-1120.427676
 31
0.0
  0
LINE
  5
4B1
330
5C6
100
AcDbEntity
  8
DATA
  6
Continuous
 62
     7
100
AcDbLine
 10
-826.131449
 20
-1120.427676
 30
0.0
 11
-825.1369830000003
 21
-1120.427676
 31
0.0
  0
LINE
  5
4B2
330
5C6
100
AcDbEntity
  8
DATA
  6
Continuous
 62
     7
100
AcDbLine
 10
-824.1222330000001
 20
-1124.283769999999
 30
0.0
 11
-824.1222330000001
 21
-1120.914755999999
 31
0.0
  0
ARC
  5
4B3
330
5C6
100
AcDbEntity
  8
DATA
  6
Continuous
 62
     7
100
AcDbCircle
 10
-830.3156399999997
 20
-1124.059216
 30
0.0
 40
1.283478402651629
100
AcDbArc
 50
332.6403933328552
 51
357.2230045500196
  0
ARC
  5
4B4
330
5C6
100
AcDbEntity
  8
DATA
  6
Continuous
 62
     7
100
AcDbCircle
 10
-818.1312809999997
 20
-1124.145202999999
 30
0.0
 40
0.7677217088668679
100
AcDbArc
 50
269.7118487927402
 51
1.775987005676711
  0
ARC
  5
4B5
330
5C6
100
AcDbEntity
  8
DATA
  6
Continuous
 62
     7
100
AcDbCircle
 10
-818.1390030000001
 20
-1124.145202999999
 30
0.0
 40
0.7677177832052568
100
AcDbArc
 50
178.2240129943249
 51
270.2881512072557
  0
LINE
  5
4B6
330
5C6
100
AcDbEntity
  8
DATA
  6
Continuous
 62
     7
100
AcDbLine
 10
-822.1738909999997
 20
-1124.040219
 30
0.0
 11
-822.1738909999997
 21
-1121.117716999999
 31
0.0
  0
LINE
  5
4B7
330
5C6
100
AcDbEntity
  8
DATA
  6
Continuous
 62
     7
100
AcDbLine
 10
-826.131449
 20
-1119.372336
 30
0.0
 11
-825.1369830000003
 21
-1119.372336
 31
0.0
  0
ARC
  5
4B8
330
5C6
100
AcDbEntity
  8
DATA
  6
Continuous
 62
     7
100
AcDbCircle
 10
-824.262065
 20
-1123.717698999999
 30
0.0
 40
2.092872552890068
100
AcDbArc
 50
273.8309816091103
 51
351.1351473097952
  0
LINE
  5
4B9
330
5C6
100
AcDbEntity
  8
DATA
  6
Continuous
 62
     7
100
AcDbLine
 10
-831.0631779999999
 20
-1114.805917
 30
0.0
 11
-829.033656
 21
-1114.805917
 31
0.0
  0
LINE
  5
4BA
330
5C6
100
AcDbEntity
  8
DATA
  6
Continuous
 62
     7
100
AcDbLine
 10
-835.1019270000001
 20
-1114.805917
 30
0.0
 11
-831.8343989999998
 21
-1114.805917
 31
0.0
  0
LINE
  5
4BB
330
5C6
100
AcDbEntity
  8
DATA
  6
Continuous
 62
     7
100
AcDbLine
 10
-821.017065
 20
-1114.805917
 30
0.0
 11
-818.9063630000001
 21
-1114.805917
 31
0.0
  0
LINE
  5
4BC
330
5C6
100
AcDbEntity
  8
DATA
  6
Continuous
 62
     7
100
AcDbLine
 10
-827.9783050000002
 20
-1114.805917
 30
0.0
 11
-824.1010358590386
 21
-1114.805925903114
 31
0.0
  0
LINE
  5
4BD
330
5C6
100
AcDbEntity
  8
DATA
  6
Continuous
 62
     7
100
AcDbLine
 10
-826.131449
 20
-1115.840973
 30
0.0
 11
-825.1369830000003
 21
-1115.840973
 31
0.0
  0
ARC
  5
4BE
330
5C6
100
AcDbEntity
  8
DATA
  6
Continuous
 62
     7
100
AcDbCircle
 10
-824.2411979999996
 20
-1116.890923
 30
0.0
 40
2.089702926202661
100
AcDbArc
 50
8.226923859026152
 51
86.15412669216398
  0
ARC
  5
4BF
330
5C6
100
AcDbEntity
  8
DATA
  6
Continuous
 62
     7
100
AcDbCircle
 10
-825.1252399911363
 20
-1122.841793243354
 30
0.0
 40
1.929092498719679
100
AcDbArc
 50
269.651219937605
 51
282.8264828068766
  0
ARC
  5
4C0
330
5C6
100
AcDbEntity
  8
DATA
  6
Continuous
 62
     7
100
AcDbCircle
 10
-824.9085723697866
 20
-1123.657375342349
 30
0.0
 40
1.086181694062918
100
AcDbArc
 50
281.2331036226684
 51
306.862008894071
  0
ARC
  5
4C1
330
5C6
100
AcDbEntity
  8
DATA
  6
Continuous
 62
     7
100
AcDbCircle
 10
-824.4711405000694
 20
-1120.949784449726
 30
0.0
 40
0.3506614263001642
100
AcDbArc
 50
5.732980710587368
 51
52.35809750243029
  0
ARC
  5
4C2
330
5C6
100
AcDbEntity
  8
DATA
  6
Continuous
 62
     7
100
AcDbCircle
 10
-825.1252399911363
 20
-1122.356732756645
 30
0.0
 40
1.929092498720261
100
AcDbArc
 50
77.17351719312635
 51
90.34878006239486
  0
ARC
  5
4C3
330
5C6
100
AcDbEntity
  8
DATA
  6
Continuous
 62
     7
100
AcDbCircle
 10
-824.9085723697866
 20
-1121.54115065765
 30
0.0
 40
1.086181694062203
100
AcDbArc
 50
53.13799110593376
 51
78.76689637732693
  0
ARC
  5
4C4
330
5C6
100
AcDbEntity
  8
DATA
  6
Continuous
 62
     7
100
AcDbCircle
 10
-823.238339
 20
-1121.189668
 30
0.0
 40
1.066876980305241
100
AcDbArc
 50
3.867006359840625
 51
88.3616345678936
  0
ARC
  5
4C5
330
5C6
100
AcDbEntity
  8
DATA
  6
Continuous
 62
     7
100
AcDbCircle
 10
-823.2393179999998
 20
-1119.055756
 30
0.0
 40
1.067937133941954
100
AcDbArc
 50
271.689282104642
 51
356.0782829826845
  0
ARC
  5
4C6
330
5C6
100
AcDbEntity
  8
DATA
  6
Continuous
 62
     7
100
AcDbCircle
 10
-824.4711405000694
 20
-1118.850227550274
 30
0.0
 40
0.3506614262998518
100
AcDbArc
 50
307.6419024975697
 51
354.2670192894126
  0
ARC
  5
4C7
330
5C6
100
AcDbEntity
  8
DATA
  6
Continuous
 62
     7
100
AcDbCircle
 10
-825.1252399911363
 20
-1117.443279243354
 30
0.0
 40
1.929092498720134
100
AcDbArc
 50
269.6512199376051
 51
282.8264828068736
  0
ARC
  5
4C8
330
5C6
100
AcDbEntity
  8
DATA
  6
Continuous
 62
     7
100
AcDbCircle
 10
-824.9085723697866
 20
-1118.25886134235
 30
0.0
 40
1.086181694062472
100
AcDbArc
 50
281.2331036226731
 51
306.8620088940662
  0
ARC
  5
4C9
330
5C6
100
AcDbEntity
  8
DATA
  6
Continuous
 62
     7
100
AcDbCircle
 10
-824.4711405000694
 20
-1116.363081449726
 30
0.0
 40
0.3506614263002097
100
AcDbArc
 50
5.7329807106613
 51
52.35809750247568
  0
ARC
  5
4CA
330
5C6
100
AcDbEntity
  8
DATA
  6
Continuous
 62
     7
100
AcDbCircle
 10
-825.1252399911363
 20
-1117.770029756646
 30
0.0
 40
1.929092498720261
100
AcDbArc
 50
77.17351719312635
 51
90.34878006239486
  0
ARC
  5
4CB
330
5C6
100
AcDbEntity
  8
DATA
  6
Continuous
 62
     7
100
AcDbCircle
 10
-824.9085723697866
 20
-1116.95444765765
 30
0.0
 40
1.086181694062567
100
AcDbArc
 50
53.13799110594815
 51
78.76689637733159
  0
TEXT
  5
4CC
330
5C6
100
AcDbEntity
  8
DATA
 62
     7
100
AcDbText
 10
-838.4999998708563
 20
-1137.932
 30
0.0
 40
3.462890625
  1
PROFESSIONAL
 41
0.7
 11
-838.4999998708563
 21
-1134.469109375
 31
0.0
100
AcDbText
 73
     3
  0
LINE
  5
4CD
330
5C6
100
AcDbEntity
  8
DATA
  6
Continuous
 62
     7
100
AcDbLine
 10
503.0
 20
-1318.0
 30
0.0
 11
503.0
 21
50.0
 31
0.0
  0
LINE
  5
4CE
330
5C6
100
AcDbEntity
  8
DATA
  6
Continuous
 62
     7
100
AcDbLine
 10
1247.0
 20
-1318.0
 30
0.0
 11
503.0
 21
-1318.0
 31
0.0
  0
LINE
  5
4CF
330
5C6
100
AcDbEntity
  8
DATA
  6
Continuous
 62
     7
100
AcDbLine
 10
1247.0
 20
50.0
 30
0.0
 11
1247.0
 21
-1318.0
 31
0.0
  0
LINE
  5
4D0
330
5C6
100
AcDbEntity
  8
DATA
  6
Continuous
 62
     7
100
AcDbLine
 10
503.0
 20
50.0
 30
0.0
 11
1247.0
 21
50.0
 31
0.0
  0
LWPOLYLINE
  5
4D1
330
5C6
100
AcDbEntity
  8
DATA
  6
Continuous
 62
     7
100
AcDbPolyline
 90
        4
 70
     1
 43
0.0
 10
551.0
 20
-934.0
 10
1199.0
 20
-934.0
 10
1199.0
 20
-1078.0
 10
551.0
 20
-1078.0
  0
LWPOLYLINE
  5
4D8
330
5C6
100
AcDbEntity
  8
DATA
  6
Continuous
 62
     7
100
AcDbPolyline
 90
        5
 70
   129
 43
0.0
 10
781.0
 20
-606.0
 42
-0.4142135623730951
 10
875.0
 20
-512.0
 42
-0.4142135623730951
 10
969.0
 20
-606.0
 42
-0.4142135623730951
 10
875.0
 20
-700.0
 42
-0.4142135623730951
 10
781.0
 20
-606.0
  0
LINE
  5
4DF
330
5C6
100
AcDbEntity
  8
DATA
  6
Continuous
 62
     7
100
AcDbLine
 10
851.0
 20
-526.0
 30
0.0
 11
899.0
 21
-526.0
 31
0.0
  0
LINE
  5
4E0
330
5C6
100
AcDbEntity
  8
DATA
  6
Continuous
 62
     7
100
AcDbLine
 10
859.0
 20
-686.0
 30
0.0
 11
891.0
 21
-686.0
 31
0.0
  0
LINE
  5
4E1
330
5C6
100
AcDbEntity
  8
DATA
  6
Continuous
 62
     7
100
AcDbLine
 10
859.0
 20
-686.0
 30
0.0
 11
859.0
 21
-676.3999999999996
 31
0.0
  0
LINE
  5
4E2
330
5C6
100
AcDbEntity
  8
DATA
  6
Continuous
 62
     7
100
AcDbLine
 10
891.0
 20
-686.0
 30
0.0
 11
891.0
 21
-676.3999999999996
 31
0.0
  0
LINE
  5
4E3
330
5C6
100
AcDbEntity
  8
DATA
  6
Continuous
 62
     7
100
AcDbLine
 10
851.0
 20
-526.0
 30
0.0
 11
851.0
 21
-539.8172000000012
 31
0.0
  0
LINE
  5
4E4
330
5C6
100
AcDbEntity
  8
DATA
  6
Continuous
 62
     7
100
AcDbLine
 10
899.0
 20
-526.0
 30
0.0
 11
899.0
 21
-539.8172000000012
 31
0.0
  0
ARC
  5
4E5
330
5C6
100
AcDbEntity
  8
DATA
  6
Continuous
 62
     7
100
AcDbCircle
 10
875.0
 20
-606.0
 30
0.0
 40
70.40002141931369
100
AcDbArc
 50
109.9322641506793
 51
257.1961668196999
  0
ARC
  5
4E6
330
5C6
100
AcDbEntity
  8
DATA
  6
Continuous
 62
     7
100
AcDbCircle
 10
875.0
 20
-606.0
 30
0.0
 40
70.40002803476743
100
AcDbArc
 50
282.9999995554212
 51
69.99999423796211
  0
ARC
  5
4E7
330
5C6
100
AcDbEntity
  8
DATA
  6
Continuous
 62
     7
100
AcDbCircle
 10
875.0
 20
-606.0
 30
0.0
 40
49.60001729651261
100
AcDbArc
 50
60.00001153556022
 51
150.0000115355621
  0
LINE
  5
4E8
330
5C6
100
AcDbEntity
  8
DATA
  6
Continuous
 62
     7
100
AcDbLine
 10
832.0452800000003
 20
-581.1997599999995
 30
0.0
 11
836.0289599999996
 21
-583.4997600000006
 31
0.0
  0
LINE
  5
4E9
330
5C6
100
AcDbEntity
  8
DATA
  6
Continuous
 62
     7
100
AcDbLine
 10
899.7997599999999
 20
-563.0449599999992
 30
0.0
 11
897.4997599999996
 21
-567.0287200000002
 31
0.0
  0
ARC
  5
4EA
330
5C6
100
AcDbEntity
  8
DATA
  6
Continuous
 62
     7
100
AcDbCircle
 10
875.0
 20
-606.0
 30
0.0
 40
49.6000172965142
100
AcDbArc
 50
240.0000115355612
 51
330.0000115355623
  0
LINE
  5
4EB
330
5C6
100
AcDbEntity
  8
DATA
  6
Continuous
 62
     7
100
AcDbLine
 10
850.1999999999998
 20
-648.9548800000011
 30
0.0
 11
852.5
 21
-644.9711200000002
 31
0.0
  0
LINE
  5
4EC
330
5C6
100
AcDbEntity
  8
DATA
  6
Continuous
 62
     7
100
AcDbLine
 10
917.9549599999999
 20
-630.7998399999995
 30
0.0
 11
913.9711999999999
 21
-628.4998400000004
 31
0.0
  0
ARC
  5
4ED
330
5C6
100
AcDbEntity
  8
DATA
  6
Continuous
 62
     7
100
AcDbCircle
 10
875.0
 20
-606.0
 30
0.0
 40
45.00003065264735
100
AcDbArc
 50
149.9996696821033
 51
240.0002126043028
  0
ARC
  5
4EE
330
5C6
100
AcDbEntity
  8
DATA
  6
Continuous
 62
     7
100
AcDbCircle
 10
875.0
 20
-606.0
 30
0.0
 40
44.99996921627408
100
AcDbArc
 50
330.0002126043024
 51
60.00071824312291
  0
ARC
  5
4EF
330
5C6
100
AcDbEntity
  8
DATA
  6
Continuous
 62
     7
100
AcDbCircle
 10
875.0
 20
-606.0
 30
0.0
 40
28.79992064700205
100
AcDbArc
 50
59.99990885470639
 51
149.9999088547064
  0
ARC
  5
4F0
330
5C6
100
AcDbEntity
  8
DATA
  6
Continuous
 62
     7
100
AcDbCircle
 10
875.0
 20
-606.0
 30
0.0
 40
28.79992064700205
100
AcDbArc
 50
239.9999088547064
 51
329.9999088547064
  0
LINE
  5
4F1
330
5C6
100
AcDbEntity
  8
DATA
  6
Continuous
 62
     7
100
AcDbLine
 10
889.39984
 20
-581.0584799999995
 30
0.0
 11
886.5999199999997
 21
-585.9081600000008
 31
0.0
  0
LINE
  5
4F2
330
5C6
100
AcDbEntity
  8
DATA
  6
Continuous
 62
     7
100
AcDbLine
 10
850.0586400000003
 20
-591.5999200000006
 30
0.0
 11
854.9082399999997
 21
-594.3999199999998
 31
0.0
  0
LINE
  5
4F3
330
5C6
100
AcDbEntity
  8
DATA
  6
Continuous
 62
     7
100
AcDbLine
 10
860.6000000000003
 20
-630.9414400000004
 30
0.0
 11
863.3999999999998
 21
-626.0917599999993
 31
0.0
  0
LINE
  5
4F4
330
5C6
100
AcDbEntity
  8
DATA
  6
Continuous
 62
     7
100
AcDbLine
 10
899.9415200000003
 20
-620.39984
 30
0.0
 11
895.09184
 21
-617.5999200000005
 31
0.0
  0
ARC
  5
4F5
330
5C6
100
AcDbEntity
  8
DATA
  6
Continuous
 62
     7
100
AcDbCircle
 10
875.0
 20
-606.0
 30
0.0
 40
23.20001456689228
100
AcDbArc
 50
149.9997926340304
 51
240.0002336238289
  0
ARC
  5
4F6
330
5C6
100
AcDbEntity
  8
DATA
  6
Continuous
 62
     7
100
AcDbCircle
 10
875.0
 20
-606.0
 30
0.0
 40
23.20000384896552
100
AcDbArc
 50
330.0002336238291
 51
59.99979263402958
  0
LINE
  5
4F7
330
5C6
100
AcDbEntity
  8
DATA
  6
Continuous
 62
     7
100
AcDbLine
 10
655.0000000000027
 20
-1078.0
 30
0.0
 11
655.0000000000027
 21
-934.0
 31
0.0
  0
LINE
  5
4F8
330
5C6
100
AcDbEntity
  8
DATA
  6
Continuous
 62
     7
100
AcDbLine
 10
679.0000000000027
 20
-1078.0
 30
0.0
 11
679.0000000000027
 21
-934.0
 31
0.0
  0
LINE
  5
4F9
330
5C6
100
AcDbEntity
  8
DATA
  6
Continuous
 62
     7
100
AcDbLine
 10
759.0000000000027
 20
-1078.0
 30
0.0
 11
759.0000000000027
 21
-934.0
 31
0.0
  0
LINE
  5
4FA
330
5C6
100
AcDbEntity
  8
DATA
  6
Continuous
 62
     7
100
AcDbLine
 10
783.0000000000027
 20
-1078.0
 30
0.0
 11
783.0000000000027
 21
-934.0
 31
0.0
  0
LINE
  5
4FB
330
5C6
100
AcDbEntity
  8
DATA
  6
Continuous
 62
     7
100
AcDbLine
 10
863.0000000000027
 20
-1078.0
 30
0.0
 11
863.0000000000027
 21
-934.0
 31
0.0
  0
LINE
  5
4FC
330
5C6
100
AcDbEntity
  8
DATA
  6
Continuous
 62
     7
100
AcDbLine
 10
887.0000000000027
 20
-1078.0
 30
0.0
 11
887.0000000000027
 21
-934.0
 31
0.0
  0
LINE
  5
4FD
330
5C6
100
AcDbEntity
  8
DATA
  6
Continuous
 62
     7
100
AcDbLine
 10
967.000000000003
 20
-1078.0
 30
0.0
 11
967.000000000003
 21
-934.0
 31
0.0
  0
LINE
  5
4FE
330
5C6
100
AcDbEntity
  8
DATA
  6
Continuous
 62
     7
100
AcDbLine
 10
991.000000000003
 20
-1078.0
 30
0.0
 11
991.000000000003
 21
-934.0
 31
0.0
  0
LINE
  5
4FF
330
5C6
100
AcDbEntity
  8
DATA
  6
Continuous
 62
     7
100
AcDbLine
 10
1071.000000000003
 20
-1078.0
 30
0.0
 11
1071.000000000003
 21
-934.0
 31
0.0
  0
LINE
  5
500
330
5C6
100
AcDbEntity
  8
DATA
  6
Continuous
 62
     7
100
AcDbLine
 10
1095.000000000003
 20
-1078.0
 30
0.0
 11
1095.000000000003
 21
-934.0
 31
0.0
  0
LINE
  5
501
330
5C6
100
AcDbEntity
  8
DATA
  6
Continuous
 62
     7
100
AcDbLine
 10
575.0
 20
-1078.0
 30
0.0
 11
575.0
 21
-934.0
 31
0.0
  0
LINE
  5
502
330
5C6
100
AcDbEntity
  8
DATA
  6
Continuous
 62
     7
100
AcDbLine
 10
1175.0
 20
-934.0
 30
0.0
 11
1175.0
 21
-1078.0
 31
0.0
  0
CIRCLE
  5
503
330
5C6
100
AcDbEntity
  8
DATA
  6
Continuous
 62
     7
100
AcDbCircle
 10
719.0000000000027
 20
-1006.0
 30
0.0
 40
31.99999999999992
  0
LWPOLYLINE
  5
504
330
5C6
100
AcDbEntity
  8
DATA
  6
Continuous
 62
     7
100
AcDbPolyline
 90
        4
 70
     1
 43
0.0
 10
696.5609756097583
 20
-959.9512195121933
 10
759.0000000000017
 20
-973.9999999999982
 10
741.4390243902462
 20
-1052.048780487803
 10
679.0000000000016
 20
-1037.999999999998
  0
LINE
  5
50B
330
5C6
100
AcDbEntity
  8
DATA
  6
Continuous
 62
     7
100
AcDbLine
 10
688.9298361348538
 20
-995.0553554135767
 30
0.0
 11
749.0701638651517
 21
-1016.944644586421
 31
0.0
  0
CIRCLE
  5
50C
330
5C6
100
AcDbEntity
  8
DATA
  6
Continuous
 62
     7
100
AcDbCircle
 10
823.0000000000027
 20
-1006.0
 30
0.0
 40
31.99999999999992
  0
LWPOLYLINE
  5
50D
330
5C6
100
AcDbEntity
  8
DATA
  6
Continuous
 62
     7
100
AcDbPolyline
 90
        4
 70
     1
 43
0.0
 10
800.5609756097582
 20
-959.9512195121933
 10
863.0000000000016
 20
-973.9999999999982
 10
845.4390243902462
 20
-1052.048780487803
 10
783.0000000000016
 20
-1037.999999999998
  0
CIRCLE
  5
514
330
5C6
100
AcDbEntity
  8
DATA
  6
Continuous
 62
     7
100
AcDbCircle
 10
927.0000000000029
 20
-1006.0
 30
0.0
 40
31.99999999999992
  0
LWPOLYLINE
  5
515
330
5C6
100
AcDbEntity
  8
DATA
  6
Continuous
 62
     7
100
AcDbPolyline
 90
        4
 70
     1
 43
0.0
 10
904.5609756097583
 20
-959.9512195121933
 10
967.0000000000017
 20
-973.9999999999982
 10
949.4390243902461
 20
-1052.048780487803
 10
887.0000000000016
 20
-1037.999999999998
  0
CIRCLE
  5
51C
330
5C6
100
AcDbEntity
  8
DATA
  6
Continuous
 62
     7
100
AcDbCircle
 10
1031.000000000003
 20
-1006.0
 30
0.0
 40
31.99999999999992
  0
LWPOLYLINE
  5
51D
330
5C6
100
AcDbEntity
  8
DATA
  6
Continuous
 62
     7
100
AcDbPolyline
 90
        4
 70
     1
 43
0.0
 10
1008.560975609758
 20
-959.9512195121933
 10
1071.000000000001
 20
-973.9999999999982
 10
1053.439024390246
 20
-1052.048780487803
 10
991.0000000000017
 20
-1037.999999999998
  0
CIRCLE
  5
524
330
5C6
100
AcDbEntity
  8
DATA
  6
Continuous
 62
     7
100
AcDbCircle
 10
1135.000000000001
 20
-1006.0
 30
0.0
 40
31.99999999999844
  0
CIRCLE
  5
525
330
5C6
100
AcDbEntity
  8
DATA
  6
Continuous
 62
     7
100
AcDbCircle
 10
615.0000000000017
 20
-1006.0
 30
0.0
 40
31.99999999999906
  0
TEXT
  5
526
330
5C6
100
AcDbEntity
  8
DATA
 62
     7
100
AcDbText
 10
699.0000000000027
 20
-884.3999999999999
 30
0.0
 40
30.78125
  1
1+
 41
0.7
 11
699.0000000000027
 21
-853.61875
 31
0.0
100
AcDbText
 73
     3
  0
TEXT
  5
527
330
5C6
100
AcDbEntity
  8
DATA
 62
     7
100
AcDbText
 10
803.0000000000027
 20
-884.3999999999999
 30
0.0
 40
30.78125
  1
1-
 41
0.7
 11
803.0000000000027
 21
-853.61875
 31
0.0
100
AcDbText
 73
     3
  0
TEXT
  5
528
330
5C6
100
AcDbEntity
  8
DATA
 62
     7
100
AcDbText
 10
907.000000000003
 20
-884.3999999999999
 30
0.0
 40
30.78125
  1
2+
 41
0.7
 11
907.000000000003
 21
-853.61875
 31
0.0
100
AcDbText
 73
     3
  0
TEXT
  5
529
330
5C6
100
AcDbEntity
  8
DATA
 62
     7
100
AcDbText
 10
1011.000000000003
 20
-884.3999999999999
 30
0.0
 40
30.78125
  1
2-
 41
0.7
 11
1011.000000000003
 21
-853.61875
 31
0.0
100
AcDbText
 73
     3
  0
CIRCLE
  5
52A
330
5C6
100
AcDbEntity
  8
DATA
  6
Continuous
 62
     7
100
AcDbCircle
 10
1115.0
 20
-430.0
 30
0.0
 40
24.0
  0
LWPOLYLINE
  5
52B
330
5C6
100
AcDbEntity
  8
DATA
  6
Continuous
 62
     7
100
AcDbPolyline
 90
        4
 70
     1
 43
0.0
 10
555.0
 20
-86.0
 10
1195.0
 20
-86.0
 10
1195.0
 20
-390.0
 10
555.0
 20
-390.0
  0
TEXT
  5
532
330
5C6
100
AcDbEntity
  8
DATA
 62
     7
100
AcDbText
 10
561.0
 20
-368.4
 30
0.0
 40
30.78125
  1
(Passive)
 41
0.7
 11
561.0
 21
-337.61875
 31
0.0
100
AcDbText
 73
     3
  0
TEXT
  5
533
330
5C6
100
AcDbEntity
  8
DATA
 62
     7
100
AcDbText
 10
1019.0
 20
-368.4
 30
0.0
 40
30.78125
  1
(Bi-Amp)
 41
0.7
 11
1019.0
 21
-337.61875
 31
0.0
100
AcDbText
 73
     3
  0
TEXT
  5
534
330
5C6
100
AcDbEntity
  8
DATA
 62
     7
100
AcDbText
 10
579.0
 20
-144.4
 30
0.0
 40
30.78125
  1
Model: AC2212/
 41
0.7
 11
579.0
 21
-113.61875
 31
0.0
100
AcDbText
 73
     3
  0
LWPOLYLINE
  5
535
330
5C6
100
AcDbEntity
  8
DATA
  6
Continuous
 62
     7
100
AcDbPolyline
 90
        4
 70
     1
 43
0.0
 10
687.0
 20
-202.0
 10
1063.0
 20
-202.0
 10
1063.0
 20
-290.0
 10
687.0
 20
-290.0
  0
LINE
  5
53C
330
5C6
100
AcDbEntity
  8
DATA
  6
Continuous
 62
     7
100
AcDbLine
 10
687.0
 20
-231.333333333334
 30
0.0
 11
1063.0
 21
-231.333333333334
 31
0.0
  0
LINE
  5
53D
330
5C6
100
AcDbEntity
  8
DATA
  6
Continuous
 62
     7
100
AcDbLine
 10
687.0
 20
-260.6666666666661
 30
0.0
 11
1063.0
 21
-260.6666666666661
 31
0.0
  0
LINE
  5
53E
330
5C6
100
AcDbEntity
  8
DATA
  6
Continuous
 62
     7
100
AcDbLine
 10
799.0
 20
-202.0
 30
0.0
 11
799.0
 21
-290.0
 31
0.0
  0
LINE
  5
53F
330
5C6
100
AcDbEntity
  8
DATA
  6
Continuous
 62
     7
100
AcDbLine
 10
943.0000000000029
 20
-290.0
 30
0.0
 11
943.0000000000029
 21
-202.0
 31
0.0
  0
TEXT
  5
540
330
5C6
100
AcDbEntity
  8
DATA
 62
     7
100
AcDbText
 10
829.0000000000009
 20
-225.3066666666679
 30
0.0
 40
18.46875
  1
Passive
 41
0.7
 11
829.0000000000009
 21
-206.8379166666679
 31
0.0
100
AcDbText
 73
     3
  0
TEXT
  5
541
330
5C6
100
AcDbEntity
  8
DATA
 62
     7
100
AcDbText
 10
967.0000000000008
 20
-225.3066666666679
 30
0.0
 40
18.46875
  1
Bi-Amp
 41
0.7
 11
967.0000000000008
 21
-206.8379166666679
 31
0.0
100
AcDbText
 73
     3
  0
TEXT
  5
542
330
5C6
100
AcDbEntity
  8
DATA
 62
     7
100
AcDbText
 10
713.0
 20
-254.64
 30
0.0
 40
18.46875
  1
1+/1-
 41
0.7
 11
713.0
 21
-236.17125
 31
0.0
100
AcDbText
 73
     3
  0
TEXT
  5
543
330
5C6
100
AcDbEntity
  8
DATA
 62
     7
100
AcDbText
 10
811.000000000001
 20
-254.64
 30
0.0
 40
18.46875
  1
Full Renge
 41
0.7
 11
811.000000000001
 21
-236.17125
 31
0.0
100
AcDbText
 73
     3
  0
TEXT
  5
544
330
5C6
100
AcDbEntity
  8
DATA
 62
     7
100
AcDbText
 10
985.0000000000008
 20
-254.64
 30
0.0
 40
18.46875
  1
Low
 41
0.7
 11
985.0000000000008
 21
-236.17125
 31
0.0
100
AcDbText
 73
     3
  0
TEXT
  5
545
330
5C6
100
AcDbEntity
  8
DATA
 62
     7
100
AcDbText
 10
713.0
 20
-283.9733333333321
 30
0.0
 40
18.46875
  1
2+/2-
 41
0.7
 11
713.0
 21
-265.5045833333321
 31
0.0
100
AcDbText
 73
     3
  0
TEXT
  5
546
330
5C6
100
AcDbEntity
  8
DATA
 62
     7
100
AcDbText
 10
853.000000000001
 20
-283.9733333333321
 30
0.0
 40
18.46875
  1
n/c
 41
0.7
 11
853.000000000001
 21
-265.5045833333321
 31
0.0
100
AcDbText
 73
     3
  0
LINE
  5
547
330
5C6
100
AcDbEntity
  8
DATA
  6
Continuous
 62
     7
100
AcDbLine
 10
723.7882820065623
 20
-992.8443033089971
 30
0.0
 11
714.2117179934439
 21
-1019.155696691003
 31
0.0
  0
LINE
  5
548
330
5C6
100
AcDbEntity
  8
DATA
  6
Continuous
 62
     7
100
AcDbLine
 10
619.7882820065606
 20
-1019.155696691003
 30
0.0
 11
610.2117179934412
 21
-992.8443033089971
 31
0.0
  0
LINE
  5
549
330
5C6
100
AcDbEntity
  8
DATA
  6
Continuous
 62
     7
100
AcDbLine
 10
601.8443033089988
 20
-1010.788282006561
 30
0.0
 11
628.1556966910031
 21
-1001.211717993441
 31
0.0
  0
LINE
  5
54A
330
5C6
100
AcDbEntity
  8
DATA
  6
Continuous
 62
     7
100
AcDbLine
 10
792.9298361348538
 20
-995.0553554135767
 30
0.0
 11
853.0701638651517
 21
-1016.944644586421
 31
0.0
  0
LINE
  5
54B
330
5C6
100
AcDbEntity
  8
DATA
  6
Continuous
 62
     7
100
AcDbLine
 10
827.7882820065624
 20
-992.8443033089971
 30
0.0
 11
818.2117179934438
 21
-1019.155696691003
 31
0.0
  0
LINE
  5
54C
330
5C6
100
AcDbEntity
  8
DATA
  6
Continuous
 62
     7
100
AcDbLine
 10
896.9298361348538
 20
-995.0553554135767
 30
0.0
 11
957.0701638651517
 21
-1016.944644586421
 31
0.0
  0
LINE
  5
54D
330
5C6
100
AcDbEntity
  8
DATA
  6
Continuous
 62
     7
100
AcDbLine
 10
931.7882820065623
 20
-992.8443033089971
 30
0.0
 11
922.2117179934441
 21
-1019.155696691003
 31
0.0
  0
LINE
  5
54E
330
5C6
100
AcDbEntity
  8
DATA
  6
Continuous
 62
     7
100
AcDbLine
 10
1000.929836134854
 20
-995.0553554135767
 30
0.0
 11
1061.070163865152
 21
-1016.944644586421
 31
0.0
  0
LINE
  5
54F
330
5C6
100
AcDbEntity
  8
DATA
  6
Continuous
 62
     7
100
AcDbLine
 10
1035.788282006562
 20
-992.8443033089971
 30
0.0
 11
1026.211717993444
 21
-1019.155696691003
 31
0.0
  0
LINE
  5
550
330
5C6
100
AcDbEntity
  8
DATA
  6
Continuous
 62
     7
100
AcDbLine
 10
1121.844303308998
 20
-1010.788282006561
 30
0.0
 11
1148.155696691003
 21
-1001.211717993441
 31
0.0
  0
LINE
  5
551
330
5C6
100
AcDbEntity
  8
DATA
  6
Continuous
 62
     7
100
AcDbLine
 10
1139.78828200656
 20
-1019.155696691003
 30
0.0
 11
1130.211717993441
 21
-992.8443033089971
 31
0.0
  0
TEXT
  5
552
330
5C6
100
AcDbEntity
  8
DATA
 62
     7
100
AcDbText
 10
978.999998648962
 20
-283.9733333333321
 30
0.0
 40
18.46875
  1
High
 41
0.7
 11
978.999998648962
 21
-265.5045833333321
 31
0.0
100
AcDbText
 73
     3
  0
TEXT
  5
553
330
5C6
100
AcDbEntity
  8
DATA
 62
     7
100
AcDbText
 10
706.99999966224
 20
-225.3066666666679
 30
0.0
 40
18.46875
  1
Wiring
 41
0.7
 11
706.99999966224
 21
-206.8379166666679
 31
0.0
100
AcDbText
 73
     3
  0
CIRCLE
  5
554
330
5C6
100
AcDbEntity
  8
DATA
  6
Continuous
 62
     7
100
AcDbCircle
 10
635.0
 20
-430.0
 30
0.0
 40
24.0
  0
TEXT
  5
555
330
5C6
100
AcDbEntity
  8
DATA
 62
     7
100
AcDbText
 10
749.9999999999996
 20
-1624.84124
 30
0.0
 40
36.64892578125
  1
JBL PROFESSIONAL
 41
0.7
 11
749.9999999999996
 21
-1588.19231421875
 31
0.0
100
AcDbText
 73
     3
  0
ENDSEC
  0
SECTION
  2
OBJECTS
  0
DICTIONARY
  5
563
330
0
100
AcDbDictionary
281
     1
  3
ACAD_CIP_PREVIOUS_PRODUCT_INFO
350
5DE
  3
ACAD_COLOR
350
5B9
  3
ACAD_DETAILVIEWSTYLE
350
5C0
  3
ACAD_GROUP
350
564
  3
ACAD_LAYOUT
350
5B8
  3
ACAD_MATERIAL
350
567
  3
ACAD_MLEADERSTYLE
350
5BC
  3
ACAD_MLINESTYLE
350
5B5
  3
ACAD_PLOTSETTINGS
350
5B7
  3
ACAD_PLOTSTYLENAME
350
565
  3
ACAD_SCALELIST
350
599
  3
ACAD_SECTIONVIEWSTYLE
350
5BE
  3
ACAD_TABLESTYLE
350
5BA
  3
ACAD_VISUALSTYLE
350
580
  3
ACDB_RECOMPOSE_DATA
350
5F6
  3
AcDbVariableDictionary
350
5E9
  3
DWGPROPS
350
5F7
  0
DICTIONARY
  5
5DF
330
5AB
100
AcDbDictionary
280
     1
281
     1
  3
ADSK_XREC_LAYER_RECONCILED
360
5E0
  0
DICTIONARY
  5
5E1
330
5CA
100
AcDbDictionary
280
     1
281
     1
  3
ADSK_XREC_LAYER_RECONCILED
360
5E2
  0
DICTIONARY
  5
5E3
330
5D6
100
AcDbDictionary
280
     1
281
     1
  3
ADSK_XREC_LAYER_RECONCILED
360
5E4
  0
DICTIONARY
  5
5E5
330
5D7
100
AcDbDictionary
280
     1
281
     1
  3
ADSK_XREC_LAYER_RECONCILED
360
5E6
  0
DICTIONARY
  5
5E7
330
5D8
100
AcDbDictionary
280
     1
281
     1
  3
ADSK_XREC_LAYER_RECONCILED
360
5E8
  0
XRECORD
  5
5DE
102
{ACAD_REACTORS
330
563
102
}
330
563
100
AcDbXrecord
280
     1
300
ACDLT
300
2017
300
ACDLT_F_S
  0
DICTIONARY
  5
5B9
102
{ACAD_REACTORS
330
563
102
}
330
563
100
AcDbDictionary
281
     1
  0
DICTIONARY
  5
5C0
102
{ACAD_REACTORS
330
563
102
}
330
563
100
AcDbDictionary
281
     1
  3
Imperial24
350
5C1
  0
DICTIONARY
  5
564
102
{ACAD_REACTORS
330
563
102
}
330
563
100
AcDbDictionary
281
     1
  0
DICTIONARY
  5
5B8
102
{ACAD_REACTORS
330
563
102
}
330
563
100
AcDbDictionary
281
     1
  3
Model
350
5C9
  3
レイアウト1
350
5C5
  0
DICTIONARY
  5
567
102
{ACAD_REACTORS
330
563
102
}
330
563
100
AcDbDictionary
281
     1
  3
ByBlock
350
570
  3
ByLayer
350
568
  3
Global
350
578
  0
DICTIONARY
  5
5BC
102
{ACAD_REACTORS
330
563
102
}
330
563
100
AcDbDictionary
281
     1
  3
Standard
350
5BD
  0
DICTIONARY
  5
5B5
102
{ACAD_REACTORS
330
563
102
}
330
563
100
AcDbDictionary
281
     1
  3
Standard
350
5B6
  0
DICTIONARY
  5
5B7
102
{ACAD_REACTORS
330
563
102
}
330
563
100
AcDbDictionary
281
     1
  0
ACDBDICTIONARYWDFLT
  5
565
102
{ACAD_REACTORS
330
563
102
}
330
563
100
AcDbDictionary
281
     1
  3
Normal
350
566
100
AcDbDictionaryWithDefault
340
566
  0
DICTIONARY
  5
599
102
{ACAD_REACTORS
330
563
102
}
330
563
100
AcDbDictionary
281
     1
  3
A0
350
59A
  3
A1
350
59B
  3
A2
350
59C
  3
A3
350
59D
  3
A4
350
59E
  3
A5
350
59F
  3
A6
350
5A0
  3
A7
350
5A1
  3
A8
350
5A2
  3
A9
350
5A3
  3
B0
350
5A4
  3
B1
350
5A5
  3
B2
350
5A6
  3
B3
350
5A7
  3
B4
350
5A8
  3
B5
350
5A9
  3
B6
350
5AA
  0
DICTIONARY
  5
5BE
102
{ACAD_REACTORS
330
563
102
}
330
563
100
AcDbDictionary
281
     1
  3
Imperial24
350
5BF
  0
DICTIONARY
  5
5BA
102
{ACAD_REACTORS
330
563
102
}
330
563
100
AcDbDictionary
281
     1
  3
Standard
350
5BB
  0
DICTIONARY
  5
580
102
{ACAD_REACTORS
330
563
102
}
330
563
100
AcDbDictionary
281
     1
  3
2dWireframe
350
586
  3
Basic
350
585
  3
Brighten
350
58C
  3
ColorChange
350
590
  3
Conceptual
350
589
  3
Dim
350
58B
  3
EdgeColorOff
350
598
  3
Facepattern
350
58F
  3
Flat
350
581
  3
FlatWithEdges
350
582
  3
Gouraud
350
583
  3
GouraudWithEdges
350
584
  3
Hidden
350
588
  3
JitterOff
350
596
  3
Linepattern
350
58E
  3
OverhangOff
350
597
  3
Realistic
350
58A
  3
Shaded
350
595
  3
Shaded with edges
350
594
  3
Shades of Gray
350
591
  3
Sketchy
350
592
  3
Thicken
350
58D
  3
Wireframe
350
587
  3
X-Ray
350
593
  0
XRECORD
  5
5F6
102
{ACAD_REACTORS
330
563
102
}
330
563
100
AcDbXrecord
280
     1
 90
        1
330
5BB
  0
DICTIONARY
  5
5E9
102
{ACAD_REACTORS
330
563
102
}
330
563
100
AcDbDictionary
281
     1
  3
CANNOSCALE
350
5EE
  3
CMLEADERSTYLE
350
5EB
  3
CTABLESTYLE
350
5EA
  3
CVIEWDETAILSTYLE
350
5EC
  3
CVIEWSECTIONSTYLE
350
5ED
  3
DIMASSOC
350
5F1
  3
INDEXCTL
350
5F0
  3
SORTENTS
350
5EF
  3
XCLIPFRAME
350
5F2
  0
XRECORD
  5
5F7
102
{ACAD_REACTORS
330
563
102
}
330
563
100
AcDbXrecord
280
     1
  1
DWGPROPS COOKIE
  2

  3

  4

  6

  7

  8
sasaki_n
  9

300
=
301
=
302
=
303
=
304
=
305
=
306
=
307
=
308
=
309
=
 40
0.0002893518518519
 41
2457812.430856482
 42
2457812.451886574
  1

 90
        0
  0
XRECORD
  5
5E0
102
{ACAD_REACTORS
330
5DF
102
}
330
5DF
100
AcDbXrecord
280
     1
290
     1
  0
XRECORD
  5
5E2
102
{ACAD_REACTORS
330
5E1
102
}
330
5E1
100
AcDbXrecord
280
     1
290
     1
  0
XRECORD
  5
5E4
102
{ACAD_REACTORS
330
5E3
102
}
330
5E3
100
AcDbXrecord
280
     1
290
     1
  0
XRECORD
  5
5E6
102
{ACAD_REACTORS
330
5E5
102
}
330
5E5
100
AcDbXrecord
280
     1
290
     1
  0
XRECORD
  5
5E8
102
{ACAD_REACTORS
330
5E7
102
}
330
5E7
100
AcDbXrecord
280
     1
290
     1
  0
ACDBDETAILVIEWSTYLE
  5
5C1
102
{ACAD_XDICTIONARY
360
62F
102
}
102
{ACAD_REACTORS
330
5C0
102
}
330
5C0
100
AcDbModelDocViewStyle
 70
     0
  3
Imperial24
290
     0
100
AcDbDetailViewStyle
 70
     0
 71
     0
 90
        3
 71
     1
340
5AC
 40
0.24
340
0
 40
0.24
300

 40
0.36
280
     3
 71
     2
340
5B3
 90
       25
 71
     3
340
5AC
 40
0.24
 90
        1
 40
0.75
 90
        1
300
%<\AcVar ViewType \f "%tc1">% %<\AcVar ViewDetailId>%\PSCALE %<\AcVar ViewScale \f "%sn">%
 71
     4
340
5B3
 90
       25
340
5B3
 90
       25
280
     0
  0
LAYOUT
  5
5C9
102
{ACAD_XDICTIONARY
360
633
102
}
102
{ACAD_REACTORS
330
5B8
102
}
330
5B8
100
AcDbPlotSettings
  1

  2
DocuPrint 3000-2
  4

  6

 40
0.0
 41
0.0
 42
0.0
 43
0.0
 44
0.0
 45
0.0
 46
0.0
 47
0.0
 48
0.0
 49
0.0
140
0.0
141
0.0
142
1.0
143
1.0
 70
  1712
 72
     0
 73
     0
 74
     0
  7

 75
     0
147
1.0
148
0.0
149
0.0
100
AcDbLayout
  1
Model
 70
     1
 71
     0
 10
0.0
 20
0.0
 11
12.0
 21
9.0
 12
0.0
 22
0.0
 32
0.0
 14
0.0
 24
0.0
 34
0.0
 15
0.0
 25
0.0
 35
0.0
146
0.0
 13
0.0
 23
0.0
 33
0.0
 16
1.0
 26
0.0
 36
0.0
 17
0.0
 27
1.0
 37
0.0
 76
     0
330
5C6
331
5CB
  0
LAYOUT
  5
5C5
102
{ACAD_XDICTIONARY
360
631
102
}
102
{ACAD_REACTORS
330
5B8
102
}
330
5B8
100
AcDbPlotSettings
  1

  2
DocuPrint 3000-2
  4

  6

 40
0.0
 41
0.0
 42
0.0
 43
0.0
 44
0.0
 45
0.0
 46
0.0
 47
0.0
 48
0.0
 49
0.0
140
0.0
141
0.0
142
1.0
143
1.0
 70
   688
 72
     0
 73
     0
 74
     5
  7

 75
    16
147
1.0
148
0.0
149
0.0
100
AcDbLayout
  1
レイアウト1
 70
     0
 71
     1
 10
0.0
 20
0.0
 11
12.0
 21
9.0
 12
0.0
 22
0.0
 32
0.0
 14
1.000000000000000E+20
 24
1.000000000000000E+20
 34
1.000000000000000E+20
 15
-1.000000000000000E+20
 25
-1.000000000000000E+20
 35
-1.000000000000000E+20
146
0.0
 13
0.0
 23
0.0
 33
0.0
 16
1.0
 26
0.0
 36
0.0
 17
0.0
 27
1.0
 37
0.0
 76
     0
330
5C2
  0
MATERIAL
  5
570
102
{ACAD_XDICTIONARY
360
571
102
}
102
{ACAD_REACTORS
330
567
102
}
330
567
100
AcDbMaterial
  1
ByBlock
 72
     0
 43
0.0208333333333333
 43
0.0
 43
0.0
 43
0.0
 43
0.0
 43
0.0208333333333333
 43
0.0
 43
0.0
 43
0.0
 43
0.0
 43
1.0
 43
0.0
 43
0.0
 43
0.0
 43
0.0
 43
1.0
 77
     0
 47
0.0208333333333333
 47
0.0
 47
0.0
 47
0.0
 47
0.0
 47
0.0208333333333333
 47
0.0
 47
0.0
 47
0.0
 47
0.0
 47
1.0
 47
0.0
 47
0.0
 47
0.0
 47
0.0
 47
1.0
171
     0
 49
0.0208333333333333
 49
0.0
 49
0.0
 49
0.0
 49
0.0
 49
0.0208333333333333
 49
0.0
 49
0.0
 49
0.0
 49
0.0
 49
1.0
 49
0.0
 49
0.0
 49
0.0
 49
0.0
 49
1.0
175
     0
142
0.0208333333333333
142
0.0
142
0.0
142
0.0
142
0.0
142
0.0208333333333333
142
0.0
142
0.0
142
0.0
142
0.0
142
1.0
142
0.0
142
0.0
142
0.0
142
0.0
142
1.0
179
     0
144
0.0208333333333333
144
0.0
144
0.0
144
0.0
144
0.0
144
0.0208333333333333
144
0.0
144
0.0
144
0.0
144
0.0
144
1.0
144
0.0
144
0.0
144
0.0
144
0.0
144
1.0
147
0.0208333333333333
147
0.0
147
0.0
147
0.0
147
0.0
147
0.0208333333333333
147
0.0
147
0.0
147
0.0
147
0.0
147
1.0
147
0.0
147
0.0
147
0.0
147
0.0
147
1.0
  0
MATERIAL
  5
568
102
{ACAD_XDICTIONARY
360
569
102
}
102
{ACAD_REACTORS
330
567
102
}
330
567
100
AcDbMaterial
  1
ByLayer
 72
     0
 43
0.0208333333333333
 43
0.0
 43
0.0
 43
0.0
 43
0.0
 43
0.0208333333333333
 43
0.0
 43
0.0
 43
0.0
 43
0.0
 43
1.0
 43
0.0
 43
0.0
 43
0.0
 43
0.0
 43
1.0
 77
     0
 47
0.0208333333333333
 47
0.0
 47
0.0
 47
0.0
 47
0.0
 47
0.0208333333333333
 47
0.0
 47
0.0
 47
0.0
 47
0.0
 47
1.0
 47
0.0
 47
0.0
 47
0.0
 47
0.0
 47
1.0
171
     0
 49
0.0208333333333333
 49
0.0
 49
0.0
 49
0.0
 49
0.0
 49
0.0208333333333333
 49
0.0
 49
0.0
 49
0.0
 49
0.0
 49
1.0
 49
0.0
 49
0.0
 49
0.0
 49
0.0
 49
1.0
175
     0
142
0.0208333333333333
142
0.0
142
0.0
142
0.0
142
0.0
142
0.0208333333333333
142
0.0
142
0.0
142
0.0
142
0.0
142
1.0
142
0.0
142
0.0
142
0.0
142
0.0
142
1.0
179
     0
144
0.0208333333333333
144
0.0
144
0.0
144
0.0
144
0.0
144
0.0208333333333333
144
0.0
144
0.0
144
0.0
144
0.0
144
1.0
144
0.0
144
0.0
144
0.0
144
0.0
144
1.0
147
0.0208333333333333
147
0.0
147
0.0
147
0.0
147
0.0
147
0.0208333333333333
147
0.0
147
0.0
147
0.0
147
0.0
147
1.0
147
0.0
147
0.0
147
0.0
147
0.0
147
1.0
  0
MATERIAL
  5
578
102
{ACAD_XDICTIONARY
360
579
102
}
102
{ACAD_REACTORS
330
567
102
}
330
567
100
AcDbMaterial
  1
Global
 72
     0
 43
0.0208333333333333
 43
0.0
 43
0.0
 43
0.0
 43
0.0
 43
0.0208333333333333
 43
0.0
 43
0.0
 43
0.0
 43
0.0
 43
1.0
 43
0.0
 43
0.0
 43
0.0
 43
0.0
 43
1.0
 77
     0
 47
0.0208333333333333
 47
0.0
 47
0.0
 47
0.0
 47
0.0
 47
0.0208333333333333
 47
0.0
 47
0.0
 47
0.0
 47
0.0
 47
1.0
 47
0.0
 47
0.0
 47
0.0
 47
0.0
 47
1.0
171
     0
 49
0.0208333333333333
 49
0.0
 49
0.0
 49
0.0
 49
0.0
 49
0.0208333333333333
 49
0.0
 49
0.0
 49
0.0
 49
0.0
 49
1.0
 49
0.0
 49
0.0
 49
0.0
 49
0.0
 49
1.0
175
     0
142
0.0208333333333333
142
0.0
142
0.0
142
0.0
142
0.0
142
0.0208333333333333
142
0.0
142
0.0
142
0.0
142
0.0
142
1.0
142
0.0
142
0.0
142
0.0
142
0.0
142
1.0
179
     0
144
0.0208333333333333
144
0.0
144
0.0
144
0.0
144
0.0
144
0.0208333333333333
144
0.0
144
0.0
144
0.0
144
0.0
144
1.0
144
0.0
144
0.0
144
0.0
144
0.0
144
1.0
147
0.0208333333333333
147
0.0
147
0.0
147
0.0
147
0.0
147
0.0208333333333333
147
0.0
147
0.0
147
0.0
147
0.0
147
1.0
147
0.0
147
0.0
147
0.0
147
0.0
147
1.0
  0
MLEADERSTYLE
  5
5BD
102
{ACAD_REACTORS
330
5BC
102
}
330
5BC
100
AcDbMLeaderStyle
170
     2
171
     1
172
     0
 90
        2
 40
0.0
 41
0.0
173
     1
 91
-1056964608
340
5B1
 92
       -2
290
     1
 42
0.09
291
     1
 43
0.36
  3
Standard
 44
0.18
300

342
5AC
174
     1
178
     6
175
     1
176
     0
 93
-1056964608
 45
0.18
292
     0
297
     0
 46
0.18
 94
-1056964608
 47
1.0
 49
1.0
140
1.0
293
     1
141
0.0
294
     1
177
     0
142
1.0
295
     0
296
     0
143
0.125
1001
ACAD_MLEADERVER
1070
     2
  0
MLINESTYLE
  5
5B6
102
{ACAD_REACTORS
330
5B5
102
}
330
5B5
100
AcDbMlineStyle
  2
STANDARD
 70
     0
  3

 62
   256
 51
90.0
 52
90.0
 71
     2
 49
0.5
 62
   256
  6
BYLAYER
 49
-0.5
 62
   256
  6
BYLAYER
  0
ACDBPLACEHOLDER
  5
566
102
{ACAD_REACTORS
330
565
102
}
330
565
  0
SCALE
  5
59A
102
{ACAD_REACTORS
330
599
102
}
330
599
100
AcDbScale
 70
     0
300
1:1
140
1.0
141
1.0
290
     1
  0
SCALE
  5
59B
102
{ACAD_REACTORS
330
599
102
}
330
599
100
AcDbScale
 70
     0
300
1/128" = 1'-0"
140
0.0078125
141
12.0
290
     0
  0
SCALE
  5
59C
102
{ACAD_REACTORS
330
599
102
}
330
599
100
AcDbScale
 70
     0
300
1/64" = 1'-0"
140
0.015625
141
12.0
290
     0
  0
SCALE
  5
59D
102
{ACAD_REACTORS
330
599
102
}
330
599
100
AcDbScale
 70
     0
300
1/32" = 1'-0"
140
0.03125
141
12.0
290
     0
  0
SCALE
  5
59E
102
{ACAD_REACTORS
330
599
102
}
330
599
100
AcDbScale
 70
     0
300
1/16" = 1'-0"
140
0.0625
141
12.0
290
     0
  0
SCALE
  5
59F
102
{ACAD_REACTORS
330
599
102
}
330
599
100
AcDbScale
 70
     0
300
3/32" = 1'-0"
140
0.09375
141
12.0
290
     0
  0
SCALE
  5
5A0
102
{ACAD_REACTORS
330
599
102
}
330
599
100
AcDbScale
 70
     0
300
1/8" = 1'-0"
140
0.125
141
12.0
290
     0
  0
SCALE
  5
5A1
102
{ACAD_REACTORS
330
599
102
}
330
599
100
AcDbScale
 70
     0
300
3/16" = 1'-0"
140
0.1875
141
12.0
290
     0
  0
SCALE
  5
5A2
102
{ACAD_REACTORS
330
599
102
}
330
599
100
AcDbScale
 70
     0
300
1/4" = 1'-0"
140
0.25
141
12.0
290
     0
  0
SCALE
  5
5A3
102
{ACAD_REACTORS
330
599
102
}
330
599
100
AcDbScale
 70
     0
300
3/8" = 1'-0"
140
0.375
141
12.0
290
     0
  0
SCALE
  5
5A4
102
{ACAD_REACTORS
330
599
102
}
330
599
100
AcDbScale
 70
     0
300
1/2" = 1'-0"
140
0.5
141
12.0
290
     0
  0
SCALE
  5
5A5
102
{ACAD_REACTORS
330
599
102
}
330
599
100
AcDbScale
 70
     0
300
3/4" = 1'-0"
140
0.75
141
12.0
290
     0
  0
SCALE
  5
5A6
102
{ACAD_REACTORS
330
599
102
}
330
599
100
AcDbScale
 70
     0
300
1" = 1'-0"
140
1.0
141
12.0
290
     0
  0
SCALE
  5
5A7
102
{ACAD_REACTORS
330
599
102
}
330
599
100
AcDbScale
 70
     0
300
1-1/2" = 1'-0"
140
1.5
141
12.0
290
     0
  0
SCALE
  5
5A8
102
{ACAD_REACTORS
330
599
102
}
330
599
100
AcDbScale
 70
     0
300
3" = 1'-0"
140
3.0
141
12.0
290
     0
  0
SCALE
  5
5A9
102
{ACAD_REACTORS
330
599
102
}
330
599
100
AcDbScale
 70
     0
300
6" = 1'-0"
140
6.0
141
12.0
290
     0
  0
SCALE
  5
5AA
102
{ACAD_REACTORS
330
599
102
}
330
599
100
AcDbScale
 70
     0
300
1'-0" = 1'-0"
140
12.0
141
12.0
290
     0
  0
ACDBSECTIONVIEWSTYLE
  5
5BF
102
{ACAD_XDICTIONARY
360
62D
102
}
102
{ACAD_REACTORS
330
5BE
102
}
330
5BE
100
AcDbModelDocViewStyle
 70
     0
  3
Imperial24
290
     0
100
AcDbSectionViewStyle
 70
     0
 71
     0
 90
       78
 71
     1
340
5AC
 40
0.24
340
0
340
0
 40
0.24
300
I, O, Q, S, X, Z
 40
0.48
 90
        3
 40
0.18
 90
        1
 71
     2
340
5B3
 90
       25
340
5B3
 90
       50
 40
0.24
 40
0.0
 40
0.24
 71
     3
340
5AC
 40
0.24
 90
        1
 40
0.75
 90
        1
300
%<\AcVar ViewType \f "%tc1">% %<\AcVar ViewSectionStartId>%-%<\AcVar ViewSectionEndId>%\PSCALE %<\AcVar ViewScale \f "%sn">%
 71
     4
300
ANSI31
 40
1.0
 90
        0
290
     0
290
     0
 90
        6
 40
0.0
 40
1.570796326794896
 40
0.2617993877991494
 40
1.308996938995747
 40
-0.2617993877991494
 40
1.832595714594046
  0
TABLESTYLE
  5
5BB
102
{ACAD_XDICTIONARY
360
5F4
102
}
102
{ACAD_REACTORS
330
5BA
102
}
330
5BA
100
AcDbTableStyle
  3
Standard
 70
     0
 71
     0
 40
0.06
 41
0.06
280
     0
281
     0
  7
STANDARD
140
0.18
170
     2
 62
     0
 63
     7
283
     0
274
    -2
284
     1
 64
     0
275
    -2
285
     1
 65
     0
276
    -2
286
     1
 66
     0
277
    -2
287
     1
 67
     0
278
    -2
288
     1
 68
     0
279
    -2
289
     1
 69
     0
  7
STANDARD
140
0.25
170
     5
 62
     0
 63
     7
283
     0
274
    -2
284
     1
 64
     0
275
    -2
285
     1
 65
     0
276
    -2
286
     1
 66
     0
277
    -2
287
     1
 67
     0
278
    -2
288
     1
 68
     0
279
    -2
289
     1
 69
     0
  7
STANDARD
140
0.18
170
     5
 62
     0
 63
     7
283
     0
274
    -2
284
     1
 64
     0
275
    -2
285
     1
 65
     0
276
    -2
286
     1
 66
     0
277
    -2
287
     1
 67
     0
278
    -2
288
     1
 68
     0
279
    -2
289
     1
 69
     0
  0
VISUALSTYLE
  5
586
102
{ACAD_XDICTIONARY
360
605
102
}
102
{ACAD_REACTORS
330
580
102
}
330
580
100
AcDbVisualStyle
  2
2dWireframe
 70
     4
 71
     0
 72
     2
 73
     0
 90
        0
 40
-0.6
 41
-30.0
 62
     5
 63
     7
 74
     1
 91
        4
 64
     7
 65
   257
 75
     1
175
     1
 42
1.0
 92
        0
 66
   257
 43
1.0
 76
     1
 77
     6
 78
     2
 67
     7
 79
     5
170
     0
171
     0
290
     0
174
     0
 93
        1
 44
0.0
173
     0
291
     0
 45
0.0
1001
ACAD
1000
AcDbSavedByObjectVersion
1070
     0
  0
VISUALSTYLE
  5
585
102
{ACAD_XDICTIONARY
360
603
102
}
102
{ACAD_REACTORS
330
580
102
}
330
580
100
AcDbVisualStyle
  2
Basic
 70
     7
 71
     1
 72
     0
 73
     1
 90
        0
 40
-0.6
 41
-30.0
 62
     5
 63
     7
 74
     0
 91
        4
 64
     7
 65
   257
 75
     1
175
     1
 42
1.0
 92
        8
 66
     7
 43
1.0
 76
     1
 77
     6
 78
     2
 67
     7
 79
     5
170
     0
171
     0
290
     0
174
     0
 93
        1
 44
0.0
173
     0
291
     1
 45
0.0
1001
ACAD
1000
AcDbSavedByObjectVersion
1070
     0
  0
VISUALSTYLE
  5
58C
102
{ACAD_XDICTIONARY
360
611
102
}
102
{ACAD_REACTORS
330
580
102
}
330
580
100
AcDbVisualStyle
  2
Brighten
 70
    12
 71
     2
 72
     2
 73
     0
 90
        0
 40
-0.6
 41
-30.0
 62
     5
 63
     7
 74
     1
 91
        4
 64
     7
 65
   257
 75
     1
175
     1
 42
1.0
 92
        8
 66
     7
 43
1.0
 76
     1
 77
     6
 78
     2
 67
     7
 79
     5
170
     0
171
     0
290
     0
174
     0
 93
        1
 44
50.0
173
     0
291
     1
 45
0.0
1001
ACAD
1000
AcDbSavedByObjectVersion
1070
     0
  0
VISUALSTYLE
  5
590
102
{ACAD_XDICTIONARY
360
619
102
}
102
{ACAD_REACTORS
330
580
102
}
330
580
100
AcDbVisualStyle
  2
ColorChange
 70
    16
 71
     2
 72
     2
 73
     3
 90
        0
 40
-0.6
 41
-30.0
 62
     5
 63
     8
 74
     1
 91
        4
 64
     7
 65
   257
 75
     1
175
     1
 42
1.0
 92
        8
 66
     8
 43
1.0
 76
     1
 77
     6
 78
     2
 67
     7
 79
     5
170
     0
171
     0
290
     0
174
     0
 93
        1
 44
0.0
173
     0
291
     1
 45
0.0
1001
ACAD
1000
AcDbSavedByObjectVersion
1070
     0
  0
VISUALSTYLE
  5
589
102
{ACAD_XDICTIONARY
360
60B
102
}
102
{ACAD_REACTORS
330
580
102
}
330
580
100
AcDbVisualStyle
  2
Conceptual
 70
     9
 71
     3
 72
     2
 73
     0
 90
        0
 40
-0.6
 41
-30.0
 62
     5
 63
     7
 74
     2
 91
        2
 64
     7
 65
   257
 75
     1
175
     1
 42
179.0
 92
        8
 66
     7
 43
1.0
 76
     1
 77
     6
 78
     2
 67
     7
 79
     3
170
     0
171
     0
290
     0
174
     0
 93
        1
 44
0.0
173
     0
291
     0
 45
0.0
1001
ACAD
1000
AcDbSavedByObjectVersion
1070
     0
  0
VISUALSTYLE
  5
58B
102
{ACAD_XDICTIONARY
360
60F
102
}
102
{ACAD_REACTORS
330
580
102
}
330
580
100
AcDbVisualStyle
  2
Dim
 70
    11
 71
     2
 72
     2
 73
     0
 90
        0
 40
-0.6
 41
-30.0
 62
     5
 63
     7
 74
     1
 91
        4
 64
     7
 65
   257
 75
     1
175
     1
 42
1.0
 92
        8
 66
     7
 43
1.0
 76
     1
 77
     6
 78
     2
 67
     7
 79
     5
170
     0
171
     0
290
     0
174
     0
 93
        1
 44
-50.0
173
     0
291
     1
 45
0.0
1001
ACAD
1000
AcDbSavedByObjectVersion
1070
     0
  0
VISUALSTYLE
  5
598
102
{ACAD_XDICTIONARY
360
629
102
}
102
{ACAD_REACTORS
330
580
102
}
330
580
100
AcDbVisualStyle
  2
EdgeColorOff
 70
    22
 71
     2
 72
     2
 73
     0
 90
        0
 40
-0.6
 41
-30.0
 62
     5
 63
     7
 74
     1
 91
        4
 64
     7
 65
   257
 75
     1
175
     1
 42
1.0
 92
        8
 66
     7
 43
1.0
 76
     1
 77
     6
 78
     2
 67
     7
 79
     5
170
     0
171
     0
290
     0
174
     0
 93
        1
 44
0.0
173
     0
291
     1
 45
0.0
1001
ACAD
1000
AcDbSavedByObjectVersion
1070
     0
  0
VISUALSTYLE
  5
58F
102
{ACAD_XDICTIONARY
360
617
102
}
102
{ACAD_REACTORS
330
580
102
}
330
580
100
AcDbVisualStyle
  2
Facepattern
 70
    15
 71
     2
 72
     2
 73
     0
 90
        0
 40
-0.6
 41
-30.0
 62
     5
 63
     7
 74
     1
 91
        4
 64
     7
 65
   257
 75
     1
175
     1
 42
1.0
 92
        8
 66
     7
 43
1.0
 76
     1
 77
     6
 78
     2
 67
     7
 79
     5
170
     0
171
     0
290
     0
174
     0
 93
        1
 44
0.0
173
     0
291
     1
 45
0.0
1001
ACAD
1000
AcDbSavedByObjectVersion
1070
     0
  0
VISUALSTYLE
  5
581
102
{ACAD_XDICTIONARY
360
5FB
102
}
102
{ACAD_REACTORS
330
580
102
}
330
580
100
AcDbVisualStyle
  2
Flat
 70
     0
 71
     2
 72
     1
 73
     1
 90
        2
 40
-0.6
 41
30.0
 62
     5
 63
     7
 74
     0
 91
        0
 64
     7
 65
   257
 75
     1
175
     1
 42
1.0
 92
        8
 66
     7
 43
1.0
 76
     1
 77
     6
 78
     2
 67
     7
 79
     5
170
     0
171
     0
290
     0
174
     0
 93
       13
 44
0.0
173
     0
291
     1
 45
0.0
1001
ACAD
1000
AcDbSavedByObjectVersion
1070
     0
  0
VISUALSTYLE
  5
582
102
{ACAD_XDICTIONARY
360
5FD
102
}
102
{ACAD_REACTORS
330
580
102
}
330
580
100
AcDbVisualStyle
  2
FlatWithEdges
 70
     1
 71
     2
 72
     1
 73
     1
 90
        2
 40
-0.6
 41
30.0
 62
     5
 63
     7
 74
     1
 91
        0
 64
     7
 65
   257
 75
     1
175
     1
 42
1.0
 92
        0
 66
   257
 43
1.0
 76
     1
 77
     6
 78
     2
 67
     7
 79
     5
170
     0
171
     0
290
     0
174
     0
 93
       13
 44
0.0
173
     0
291
     1
 45
0.0
1001
ACAD
1000
AcDbSavedByObjectVersion
1070
     0
  0
VISUALSTYLE
  5
583
102
{ACAD_XDICTIONARY
360
5FF
102
}
102
{ACAD_REACTORS
330
580
102
}
330
580
100
AcDbVisualStyle
  2
Gouraud
 70
     2
 71
     2
 72
     2
 73
     1
 90
        2
 40
-0.6
 41
30.0
 62
     5
 63
     7
 74
     0
 91
        0
 64
     7
 65
   257
 75
     1
175
     1
 42
1.0
 92
        0
 66
     7
 43
1.0
 76
     1
 77
     6
 78
     2
 67
     7
 79
     5
170
     0
171
     0
290
     0
174
     0
 93
       13
 44
0.0
173
     0
291
     1
 45
0.0
1001
ACAD
1000
AcDbSavedByObjectVersion
1070
     0
  0
VISUALSTYLE
  5
584
102
{ACAD_XDICTIONARY
360
601
102
}
102
{ACAD_REACTORS
330
580
102
}
330
580
100
AcDbVisualStyle
  2
GouraudWithEdges
 70
     3
 71
     2
 72
     2
 73
     1
 90
        2
 40
-0.6
 41
30.0
 62
     5
 63
     7
 74
     1
 91
        0
 64
     7
 65
   257
 75
     1
175
     1
 42
1.0
 92
        0
 66
   257
 43
1.0
 76
     1
 77
     6
 78
     2
 67
     7
 79
     5
170
     0
171
     0
290
     0
174
     0
 93
       13
 44
0.0
173
     0
291
     1
 45
0.0
1001
ACAD
1000
AcDbSavedByObjectVersion
1070
     0
  0
VISUALSTYLE
  5
588
102
{ACAD_XDICTIONARY
360
609
102
}
102
{ACAD_REACTORS
330
580
102
}
330
580
100
AcDbVisualStyle
  2
Hidden
 70
     6
 71
     1
 72
     2
 73
     2
 90
        0
 40
-0.6
 41
-30.0
 62
     5
 63
     7
 74
     2
 91
        2
 64
     7
 65
   257
 75
     2
175
     1
 42
40.0
 92
        0
 66
   257
 43
1.0
 76
     1
 77
     6
 78
     2
 67
     7
 79
     3
170
     0
171
     0
290
     0
174
     0
 93
        1
 44
0.0
173
     0
291
     0
 45
0.0
1001
ACAD
1000
AcDbSavedByObjectVersion
1070
     0
  0
VISUALSTYLE
  5
596
102
{ACAD_XDICTIONARY
360
625
102
}
102
{ACAD_REACTORS
330
580
102
}
330
580
100
AcDbVisualStyle
  2
JitterOff
 70
    20
 71
     2
 72
     2
 73
     0
 90
        0
 40
-0.6
 41
-30.0
 62
     5
 63
     7
 74
     1
 91
        4
 64
     7
 65
   257
 75
     1
175
     1
 42
1.0
 92
       10
 66
     7
 43
1.0
 76
     1
 77
     6
 78
     2
 67
     7
 79
     5
170
     0
171
     0
290
     0
174
     0
 93
        1
 44
0.0
173
     0
291
     1
 45
0.0
1001
ACAD
1000
AcDbSavedByObjectVersion
1070
     0
  0
VISUALSTYLE
  5
58E
102
{ACAD_XDICTIONARY
360
615
102
}
102
{ACAD_REACTORS
330
580
102
}
330
580
100
AcDbVisualStyle
  2
Linepattern
 70
    14
 71
     2
 72
     2
 73
     0
 90
        0
 40
-0.6
 41
-30.0
 62
     5
 63
     7
 74
     1
 91
        4
 64
     7
 65
   257
 75
     7
175
     7
 42
1.0
 92
        8
 66
     7
 43
1.0
 76
     1
 77
     6
 78
     2
 67
     7
 79
     5
170
     0
171
     0
290
     0
174
     0
 93
        1
 44
0.0
173
     0
291
     1
 45
0.0
1001
ACAD
1000
AcDbSavedByObjectVersion
1070
     0
  0
VISUALSTYLE
  5
597
102
{ACAD_XDICTIONARY
360
627
102
}
102
{ACAD_REACTORS
330
580
102
}
330
580
100
AcDbVisualStyle
  2
OverhangOff
 70
    21
 71
     2
 72
     2
 73
     0
 90
        0
 40
-0.6
 41
-30.0
 62
     5
 63
     7
 74
     1
 91
        4
 64
     7
 65
   257
 75
     1
175
     1
 42
1.0
 92
        9
 66
     7
 43
1.0
 76
     1
 77
     6
 78
     2
 67
     7
 79
     5
170
     0
171
     0
290
     0
174
     0
 93
        1
 44
0.0
173
     0
291
     1
 45
0.0
1001
ACAD
1000
AcDbSavedByObjectVersion
1070
     0
  0
VISUALSTYLE
  5
58A
102
{ACAD_XDICTIONARY
360
60D
102
}
102
{ACAD_REACTORS
330
580
102
}
330
580
100
AcDbVisualStyle
  2
Realistic
 70
     8
 71
     2
 72
     3
 73
     0
 90
        2
 40
-0.6
 41
30.0
 62
     5
 63
     7
 74
     0
 91
        0
 64
     7
 65
   257
 75
     1
175
     1
 42
1.0
 92
        8
 66
   257
 43
1.0
 76
     1
 77
     6
 78
     2
 67
     7
 79
     3
170
     0
171
     0
290
     0
174
     0
 93
       13
 44
0.0
173
     0
291
     0
 45
0.0
1001
ACAD
1000
AcDbSavedByObjectVersion
1070
     0
  0
VISUALSTYLE
  5
595
102
{ACAD_XDICTIONARY
360
623
102
}
102
{ACAD_REACTORS
330
580
102
}
330
580
100
AcDbVisualStyle
  2
Shaded
 70
    27
 71
     2
 72
     2
 73
     1
 90
        2
 40
-0.6
 41
30.0
 62
     5
 63
     7
 74
     0
 91
        4
 64
     7
 65
   257
 75
     1
175
     1
 42
1.0
 92
        8
 66
   257
 43
1.0
 76
     1
 77
     6
 78
     2
 67
     8
 79
     3
170
     0
171
     0
290
     0
174
     0
 93
        5
 44
0.0
173
     0
291
     0
 45
0.0
1001
ACAD
1000
AcDbSavedByObjectVersion
1070
     0
  0
VISUALSTYLE
  5
594
102
{ACAD_XDICTIONARY
360
621
102
}
102
{ACAD_REACTORS
330
580
102
}
330
580
100
AcDbVisualStyle
  2
Shaded with edges
 70
    26
 71
     2
 72
     2
 73
     1
 90
        2
 40
-0.6
 41
30.0
 62
     5
 63
     7
 74
     1
 91
        2
 64
     7
 65
   257
 75
     2
175
     1
 42
1.0
 92
        8
 66
   257
 43
1.0
 76
     1
 77
     6
 78
     2
 67
     7
 79
     3
170
     0
171
     0
290
     0
174
     0
 93
        5
 44
0.0
173
     0
291
     0
 45
0.0
1001
ACAD
1000
AcDbSavedByObjectVersion
1070
     0
  0
VISUALSTYLE
  5
591
102
{ACAD_XDICTIONARY
360
61B
102
}
102
{ACAD_REACTORS
330
580
102
}
330
580
100
AcDbVisualStyle
  2
Shades of Gray
 70
    23
 71
     2
 72
     2
 73
     3
 90
        0
 40
-0.6
 41
-30.0
 62
     5
 63
     7
 74
     2
 91
        2
 64
     7
 65
     7
 75
     1
175
     1
 42
40.0
 92
        8
 66
     7
 43
1.0
 76
     1
 77
     6
 78
     2
 67
     7
 79
     3
170
     0
171
     0
290
     0
174
     0
 93
        1
 44
0.0
173
     0
291
     0
 45
0.0
1001
ACAD
1000
AcDbSavedByObjectVersion
1070
     0
  0
VISUALSTYLE
  5
592
102
{ACAD_XDICTIONARY
360
61D
102
}
102
{ACAD_REACTORS
330
580
102
}
330
580
100
AcDbVisualStyle
  2
Sketchy
 70
    24
 71
     1
 72
     2
 73
     2
 90
        0
 40
-0.6
 41
-30.0
 62
     5
 63
     7
 74
     2
 91
        2
 64
     7
 65
     7
 75
     1
175
     1
 42
40.0
 92
       11
 66
     7
 43
1.0
 76
     1
 77
     6
 78
     2
 67
     7
 79
     6
170
     0
171
     0
290
     0
174
     0
 93
        1
 44
0.0
173
     0
291
     0
 45
0.0
1001
ACAD
1000
AcDbSavedByObjectVersion
1070
     0
  0
VISUALSTYLE
  5
58D
102
{ACAD_XDICTIONARY
360
613
102
}
102
{ACAD_REACTORS
330
580
102
}
330
580
100
AcDbVisualStyle
  2
Thicken
 70
    13
 71
     2
 72
     2
 73
     0
 90
        0
 40
-0.6
 41
-30.0
 62
     5
 63
     7
 74
     1
 91
        4
 64
     7
 65
   257
 75
     1
175
     1
 42
1.0
 92
       12
 66
     7
 43
1.0
 76
     1
 77
     6
 78
     2
 67
     7
 79
     5
170
     0
171
     0
290
     0
174
     0
 93
        1
 44
0.0
173
     0
291
     1
 45
0.0
1001
ACAD
1000
AcDbSavedByObjectVersion
1070
     0
  0
VISUALSTYLE
  5
587
102
{ACAD_XDICTIONARY
360
607
102
}
102
{ACAD_REACTORS
330
580
102
}
330
580
100
AcDbVisualStyle
  2
Wireframe
 70
     5
 71
     0
 72
     2
 73
     0
 90
        0
 40
-0.6
 41
-30.0
 62
     5
 63
     7
 74
     1
 91
        4
 64
     7
 65
   257
 75
     1
175
     1
 42
1.0
 92
        0
 66
   257
 43
1.0
 76
     1
 77
     6
 78
     2
 67
     7
 79
     3
170
     0
171
     0
290
     0
174
     0
 93
        1
 44
0.0
173
     0
291
     0
 45
0.0
1001
ACAD
1000
AcDbSavedByObjectVersion
1070
     0
  0
VISUALSTYLE
  5
593
102
{ACAD_XDICTIONARY
360
61F
102
}
102
{ACAD_REACTORS
330
580
102
}
330
580
100
AcDbVisualStyle
  2
X-Ray
 70
    25
 71
     2
 72
     2
 73
     1
 90
        1
 40
0.5
 41
-30.0
 62
     5
 63
     7
 74
     1
 91
        0
 64
     7
 65
   257
 75
     1
175
     1
 42
1.0
 92
        8
 66
     7
 43
1.0
 76
     1
 77
     6
 78
     2
 67
     7
 79
     3
170
     0
171
     0
290
     0
174
     0
 93
       13
 44
0.0
173
     0
291
     0
 45
0.0
1001
ACAD
1000
AcDbSavedByObjectVersion
1070
     0
  0
DICTIONARYVAR
  5
5EE
102
{ACAD_REACTORS
330
5E9
102
}
330
5E9
100
DictionaryVariables
280
     0
  1
1:1
  0
DICTIONARYVAR
  5
5EB
102
{ACAD_REACTORS
330
5E9
102
}
330
5E9
100
DictionaryVariables
280
     0
  1
STANDARD
  0
DICTIONARYVAR
  5
5EA
102
{ACAD_REACTORS
330
5E9
102
}
330
5E9
100
DictionaryVariables
280
     0
  1
STANDARD
  0
DICTIONARYVAR
  5
5EC
102
{ACAD_REACTORS
330
5E9
102
}
330
5E9
100
DictionaryVariables
280
     0
  1
Imperial24
  0
DICTIONARYVAR
  5
5ED
102
{ACAD_REACTORS
330
5E9
102
}
330
5E9
100
DictionaryVariables
280
     0
  1
Imperial24
  0
DICTIONARYVAR
  5
5F1
102
{ACAD_REACTORS
330
5E9
102
}
330
5E9
100
DictionaryVariables
280
     0
  1
1
  0
DICTIONARYVAR
  5
5F0
102
{ACAD_REACTORS
330
5E9
102
}
330
5E9
100
DictionaryVariables
280
     0
  1
0
  0
DICTIONARYVAR
  5
5EF
102
{ACAD_REACTORS
330
5E9
102
}
330
5E9
100
DictionaryVariables
280
     0
  1
127
  0
DICTIONARYVAR
  5
5F2
102
{ACAD_REACTORS
330
5E9
102
}
330
5E9
100
DictionaryVariables
280
     0
  1
2
  0
DICTIONARY
  5
62F
330
5C1
100
AcDbDictionary
280
     1
281
     1
  3
ACAD_XREC_ROUNDTRIP
360
630
  0
DICTIONARY
  5
633
330
5C9
100
AcDbDictionary
280
     1
281
     1
  3
ACAD_XREC_ROUNDTRIP
360
634
  0
DICTIONARY
  5
631
330
5C5
100
AcDbDictionary
280
     1
281
     1
  3
ACAD_XREC_ROUNDTRIP
360
632
  0
DICTIONARY
  5
571
330
570
100
AcDbDictionary
280
     1
281
     1
  3
ACAD_XREC_ROUNDTRIP
360
5F9
  3
BUMPTILE
360
573
  3
DIFFUSETILE
360
572
  3
OPACITYTILE
360
576
  3
REFLECTIONTILE
360
575
  3
REFRACTIONTILE
360
577
  3
SPECULARTILE
360
574
  0
DICTIONARY
  5
569
330
568
100
AcDbDictionary
280
     1
281
     1
  3
ACAD_XREC_ROUNDTRIP
360
5F8
  3
BUMPTILE
360
56B
  3
DIFFUSETILE
360
56A
  3
OPACITYTILE
360
56E
  3
REFLECTIONTILE
360
56D
  3
REFRACTIONTILE
360
56F
  3
SPECULARTILE
360
56C
  0
DICTIONARY
  5
579
330
578
100
AcDbDictionary
280
     1
281
     1
  3
ACAD_XREC_ROUNDTRIP
360
5FA
  3
BUMPTILE
360
57B
  3
DIFFUSETILE
360
57A
  3
OPACITYTILE
360
57E
  3
REFLECTIONTILE
360
57D
  3
REFRACTIONTILE
360
57F
  3
SPECULARTILE
360
57C
  0
DICTIONARY
  5
62D
330
5BF
100
AcDbDictionary
280
     1
281
     1
  3
ACAD_XREC_ROUNDTRIP
360
62E
  0
DICTIONARY
  5
5F4
330
5BB
100
AcDbDictionary
280
     1
281
     1
  3
ACAD_ROUNDTRIP_2008_TABLESTYLE_CELLSTYLEMAP
360
5F5
  3
ACAD_XREC_ROUNDTRIP
360
62B
  0
DICTIONARY
  5
605
330
586
100
AcDbDictionary
280
     1
281
     1
  3
ACAD_XREC_ROUNDTRIP
360
606
  0
DICTIONARY
  5
603
330
585
100
AcDbDictionary
280
     1
281
     1
  3
ACAD_XREC_ROUNDTRIP
360
604
  0
DICTIONARY
  5
611
330
58C
100
AcDbDictionary
280
     1
281
     1
  3
ACAD_XREC_ROUNDTRIP
360
612
  0
DICTIONARY
  5
619
330
590
100
AcDbDictionary
280
     1
281
     1
  3
ACAD_XREC_ROUNDTRIP
360
61A
  0
DICTIONARY
  5
60B
330
589
100
AcDbDictionary
280
     1
281
     1
  3
ACAD_XREC_ROUNDTRIP
360
60C
  0
DICTIONARY
  5
60F
330
58B
100
AcDbDictionary
280
     1
281
     1
  3
ACAD_XREC_ROUNDTRIP
360
610
  0
DICTIONARY
  5
629
330
598
100
AcDbDictionary
280
     1
281
     1
  3
ACAD_XREC_ROUNDTRIP
360
62A
  0
DICTIONARY
  5
617
330
58F
100
AcDbDictionary
280
     1
281
     1
  3
ACAD_XREC_ROUNDTRIP
360
618
  0
DICTIONARY
  5
5FB
330
581
100
AcDbDictionary
280
     1
281
     1
  3
ACAD_XREC_ROUNDTRIP
360
5FC
  0
DICTIONARY
  5
5FD
330
582
100
AcDbDictionary
280
     1
281
     1
  3
ACAD_XREC_ROUNDTRIP
360
5FE
  0
DICTIONARY
  5
5FF
330
583
100
AcDbDictionary
280
     1
281
     1
  3
ACAD_XREC_ROUNDTRIP
360
600
  0
DICTIONARY
  5
601
330
584
100
AcDbDictionary
280
     1
281
     1
  3
ACAD_XREC_ROUNDTRIP
360
602
  0
DICTIONARY
  5
609
330
588
100
AcDbDictionary
280
     1
281
     1
  3
ACAD_XREC_ROUNDTRIP
360
60A
  0
DICTIONARY
  5
625
330
596
100
AcDbDictionary
280
     1
281
     1
  3
ACAD_XREC_ROUNDTRIP
360
626
  0
DICTIONARY
  5
615
330
58E
100
AcDbDictionary
280
     1
281
     1
  3
ACAD_XREC_ROUNDTRIP
360
616
  0
DICTIONARY
  5
627
330
597
100
AcDbDictionary
280
     1
281
     1
  3
ACAD_XREC_ROUNDTRIP
360
628
  0
DICTIONARY
  5
60D
330
58A
100
AcDbDictionary
280
     1
281
     1
  3
ACAD_XREC_ROUNDTRIP
360
60E
  0
DICTIONARY
  5
623
330
595
100
AcDbDictionary
280
     1
281
     1
  3
ACAD_XREC_ROUNDTRIP
360
624
  0
DICTIONARY
  5
621
330
594
100
AcDbDictionary
280
     1
281
     1
  3
ACAD_XREC_ROUNDTRIP
360
622
  0
DICTIONARY
  5
61B
330
591
100
AcDbDictionary
280
     1
281
     1
  3
ACAD_XREC_ROUNDTRIP
360
61C
  0
DICTIONARY
  5
61D
330
592
100
AcDbDictionary
280
     1
281
     1
  3
ACAD_XREC_ROUNDTRIP
360
61E
  0
DICTIONARY
  5
613
330
58D
100
AcDbDictionary
280
     1
281
     1
  3
ACAD_XREC_ROUNDTRIP
360
614
  0
DICTIONARY
  5
607
330
587
100
AcDbDictionary
280
     1
281
     1
  3
ACAD_XREC_ROUNDTRIP
360
608
  0
DICTIONARY
  5
61F
330
593
100
AcDbDictionary
280
     1
281
     1
  3
ACAD_XREC_ROUNDTRIP
360
620
  0
XRECORD
  5
630
102
{ACAD_REACTORS
330
62F
102
}
330
62F
100
AcDbXrecord
280
     1
102
DISPLAYNAME
  1
Imperial24
102
FLAGS
 90
        0
  0
XRECORD
  5
634
102
{ACAD_REACTORS
330
633
102
}
330
633
100
AcDbXrecord
280
     1
102
SHADEPLOT
 70
     0
102
SHADEPLOTRESLEVEL
 70
     2
102
SHADEPLOTCUSTOMDPI
 70
   300
  0
XRECORD
  5
632
102
{ACAD_REACTORS
330
631
102
}
330
631
100
AcDbXrecord
280
     1
102
SHADEPLOT
 70
     0
102
SHADEPLOTRESLEVEL
 70
     2
102
SHADEPLOTCUSTOMDPI
 70
   300
  0
XRECORD
  5
5F9
102
{ACAD_REACTORS
330
571
102
}
330
571
100
AcDbXrecord
280
     1
102
MATERIAL
148
0.0
149
0.0
149
0.0
 93
        0
 94
      127
282
     0
 72
     0
 77
     0
171
     0
175
     0
179
     0
273
     0
  0
XRECORD
  5
573
102
{ACAD_REACTORS
330
571
102
}
330
571
100
AcDbXrecord
280
     1
270
     1
271
     1
  0
XRECORD
  5
572
102
{ACAD_REACTORS
330
571
102
}
330
571
100
AcDbXrecord
280
     1
270
     1
271
     1
  0
XRECORD
  5
576
102
{ACAD_REACTORS
330
571
102
}
330
571
100
AcDbXrecord
280
     1
270
     1
271
     1
  0
XRECORD
  5
575
102
{ACAD_REACTORS
330
571
102
}
330
571
100
AcDbXrecord
280
     1
270
     1
271
     1
  0
XRECORD
  5
577
102
{ACAD_REACTORS
330
571
102
}
330
571
100
AcDbXrecord
280
     1
270
     1
271
     1
  0
XRECORD
  5
574
102
{ACAD_REACTORS
330
571
102
}
330
571
100
AcDbXrecord
280
     1
270
     1
271
     1
  0
XRECORD
  5
5F8
102
{ACAD_REACTORS
330
569
102
}
330
569
100
AcDbXrecord
280
     1
102
MATERIAL
148
0.0
149
0.0
149
0.0
 93
        0
 94
      127
282
     0
 72
     0
 77
     0
171
     0
175
     0
179
     0
273
     0
  0
XRECORD
  5
56B
102
{ACAD_REACTORS
330
569
102
}
330
569
100
AcDbXrecord
280
     1
270
     1
271
     1
  0
XRECORD
  5
56A
102
{ACAD_REACTORS
330
569
102
}
330
569
100
AcDbXrecord
280
     1
270
     1
271
     1
  0
XRECORD
  5
56E
102
{ACAD_REACTORS
330
569
102
}
330
569
100
AcDbXrecord
280
     1
270
     1
271
     1
  0
XRECORD
  5
56D
102
{ACAD_REACTORS
330
569
102
}
330
569
100
AcDbXrecord
280
     1
270
     1
271
     1
  0
XRECORD
  5
56F
102
{ACAD_REACTORS
330
569
102
}
330
569
100
AcDbXrecord
280
     1
270
     1
271
     1
  0
XRECORD
  5
56C
102
{ACAD_REACTORS
330
569
102
}
330
569
100
AcDbXrecord
280
     1
270
     1
271
     1
  0
XRECORD
  5
5FA
102
{ACAD_REACTORS
330
579
102
}
330
579
100
AcDbXrecord
280
     1
102
MATERIAL
148
0.0
149
0.0
149
0.0
 93
        0
 94
      127
282
     0
 72
     0
 77
     0
171
     0
175
     0
179
     0
273
     0
  0
XRECORD
  5
57B
102
{ACAD_REACTORS
330
579
102
}
330
579
100
AcDbXrecord
280
     1
270
     1
271
     1
  0
XRECORD
  5
57A
102
{ACAD_REACTORS
330
579
102
}
330
579
100
AcDbXrecord
280
     1
270
     1
271
     1
  0
XRECORD
  5
57E
102
{ACAD_REACTORS
330
579
102
}
330
579
100
AcDbXrecord
280
     1
270
     1
271
     1
  0
XRECORD
  5
57D
102
{ACAD_REACTORS
330
579
102
}
330
579
100
AcDbXrecord
280
     1
270
     1
271
     1
  0
XRECORD
  5
57F
102
{ACAD_REACTORS
330
579
102
}
330
579
100
AcDbXrecord
280
     1
270
     1
271
     1
  0
XRECORD
  5
57C
102
{ACAD_REACTORS
330
579
102
}
330
579
100
AcDbXrecord
280
     1
270
     1
271
     1
  0
XRECORD
  5
62E
102
{ACAD_REACTORS
330
62D
102
}
330
62D
100
AcDbXrecord
280
     1
102
DISPLAYNAME
  1
Imperial24
102
FLAGS
 90
        0
  0
CELLSTYLEMAP
  5
5F5
102
{ACAD_REACTORS
330
5F4
102
}
330
5F4
100
AcDbCellStyleMap
 90
        3
300
CELLSTYLE
  1
TABLEFORMAT_BEGIN
 90
        5
170
     1
 91
        0
 92
    32768
 62
   257
 93
        1
300
CONTENTFORMAT
  1
CONTENTFORMAT_BEGIN
 90
        0
 91
        0
 92
      512
 93
        0
300

 40
0.0
140
1.0
 94
        5
 62
     0
340
5AC
144
0.25
309
CONTENTFORMAT_END
171
     0
 94
        0
309
TABLEFORMAT_END
  1
CELLSTYLE_BEGIN
 90
        1
 91
        1
300
_TITLE
309
CELLSTYLE_END
300
CELLSTYLE
  1
TABLEFORMAT_BEGIN
 90
        5
170
     1
 91
        0
 92
        0
 62
   257
 93
        1
300
CONTENTFORMAT
  1
CONTENTFORMAT_BEGIN
 90
        0
 91
        0
 92
      512
 93
        0
300

 40
0.0
140
1.0
 94
        5
 62
     0
340
5AC
144
0.18
309
CONTENTFORMAT_END
171
     0
 94
        0
309
TABLEFORMAT_END
  1
CELLSTYLE_BEGIN
 90
        2
 91
        1
300
_HEADER
309
CELLSTYLE_END
300
CELLSTYLE
  1
TABLEFORMAT_BEGIN
 90
        5
170
     1
 91
        0
 92
        0
 62
   257
 93
        1
300
CONTENTFORMAT
  1
CONTENTFORMAT_BEGIN
 90
        0
 91
        0
 92
      512
 93
        0
300

 40
0.0
140
1.0
 94
        2
 62
     0
340
5AC
144
0.18
309
CONTENTFORMAT_END
171
     0
 94
        0
309
TABLEFORMAT_END
  1
CELLSTYLE_BEGIN
 90
        3
 91
        2
300
_DATA
309
CELLSTYLE_END
  0
XRECORD
  5
62B
102
{ACAD_REACTORS
330
5F4
102
}
330
5F4
100
AcDbXrecord
280
     1
102
ACAD_ROUNDTRIP_PRE2007_TABLESTYLE
 90
      512
 91
        0
  1

 92
      512
 93
        0
  2

 94
      512
 95
        0
  3

  0
XRECORD
  5
606
102
{ACAD_REACTORS
330
605
102
}
330
605
100
AcDbXrecord
280
     1
102
RTVSPost2010Prop28
280
     1
102
RTVSPost2010PropOp28
 70
     1
102
RTVSPost2010Prop29
280
     1
102
RTVSPost2010PropOp29
 70
     1
102
RTVSPost2010Prop30
280
     0
102
RTVSPost2010PropOp30
 70
     1
102
RTVSPost2010Prop31
280
     0
102
RTVSPost2010PropOp31
 70
     1
102
RTVSPost2010Prop32
280
     0
102
RTVSPost2010PropOp32
 70
     1
102
RTVSPost2010Prop33
280
     0
102
RTVSPost2010PropOp33
 70
     1
102
RTVSPost2010Prop34
280
     0
102
RTVSPost2010PropOp34
 70
     1
102
RTVSPost2010Prop35
280
     0
102
RTVSPost2010PropOp35
 70
     1
102
RTVSPost2010Prop36
280
     0
102
RTVSPost2010PropOp36
 70
     1
102
RTVSPost2010Prop37
 90
       50
102
RTVSPost2010PropOp37
 70
     1
102
RTVSPost2010Prop38
140
0.0
102
RTVSPost2010PropOp38
 70
     1
102
RTVSPost2010Prop39
140
1.0
102
RTVSPost2010PropOp39
 70
     1
102
RTVSPost2010Prop40
 90
        0
102
RTVSPost2010PropOp40
 70
     1
102
RTVSPost2010Prop41ColorIndex
 90
       18
102
RTVSPost2010Prop41ColorRGB
 90
        0
102
RTVSPost2010PropOp41
 70
     1
102
RTVSPost2010Prop42
 90
       50
102
RTVSPost2010PropOp42
 70
     1
102
RTVSPost2010Prop43
 90
        3
102
RTVSPost2010PropOp43
 70
     1
102
RTVSPost2010Prop44ColorIndex
 90
        5
102
RTVSPost2010Prop44ColorRGB
 90
      255
102
RTVSPost2010PropOp44
 70
     1
102
RTVSPost2010Prop45
280
     0
102
RTVSPost2010PropOp45
 70
     1
102
RTVSPost2010Prop46
 90
       50
102
RTVSPost2010PropOp46
 70
     1
102
RTVSPost2010Prop47
 90
       50
102
RTVSPost2010PropOp47
 70
     1
102
RTVSPost2010Prop48
 90
       50
102
RTVSPost2010PropOp48
 70
     1
102
RTVSPost2010Prop49
280
     0
102
RTVSPost2010PropOp49
 70
     1
102
RTVSPost2010Prop50
 90
       50
102
RTVSPost2010PropOp50
 70
     1
102
RTVSPost2010Prop51ColorIndex
 90
      256
102
RTVSPost2010Prop51ColorRGB
 90
-16777216
102
RTVSPost2010PropOp51
 70
     0
102
RTVSPost2010Prop52
140
1.0
102
RTVSPost2010PropOp52
 70
     0
102
RTVSPost2010Prop53
 90
        2
102
RTVSPost2010PropOp53
 70
     1
102
RTVSPost2010Prop54
  1
strokes_ogs.tif
102
RTVSPost2010PropOp54
 70
     1
102
RTVSPost2010Prop55
280
     0
102
RTVSPost2010PropOp55
 70
     1
102
RTVSPost2010Prop56
140
1.0
102
RTVSPost2010PropOp56
 70
     1
102
RTVSPost2010Prop57
140
1.0
102
RTVSPost2010PropOp57
 70
     1
102
RTVSPropertyOp0
 70
     1
102
RTVSPropertyOp1
 70
     1
102
RTVSPropertyOp2
 70
     1
102
RTVSPropertyOp3
 70
     1
102
RTVSPropertyOp4
 70
     1
102
RTVSPropertyOp5
 70
     1
102
RTVSPropertyOp6
 70
     1
102
RTVSPropertyOp7
 70
     1
102
RTVSPropertyOp8
 70
     1
102
RTVSPropertyOp9
 70
     1
102
RTVSPropertyOp10
 70
     1
102
RTVSPropertyOp11
 70
     1
102
RTVSPropertyOp12
 70
     1
102
RTVSPropertyOp13
 70
     1
102
RTVSPropertyOp14
 70
     1
102
RTVSPropertyOp15
 70
     1
102
RTVSPropertyOp16
 70
     1
102
RTVSPropertyOp17
 70
     1
102
RTVSPropertyOp18
 70
     1
102
RTVSPropertyOp19
 70
     1
102
RTVSPropertyOp20
 70
     1
102
RTVSPropertyOp21
 70
     1
102
RTVSPropertyOp22
 70
     1
102
RTVSPropertyOp23
 70
     1
102
RTVSPropertyOp24
 70
     1
102
RTVSPropertyOp25
 70
     1
102
RTVSPropertyOp26
 70
     1
102
RTVSPropertyOp27
 70
     1
102
RTVSPropertyOp28
 70
     1
102
RTVSPropertyOp29
 70
     1
102
RTVSPropertyOp30
 70
     1
102
RTVSPropertyOp31
 70
     1
102
RTVSPropertyOp32
 70
     1
102
RTVSPropertyOp33
 70
     1
102
RTVSPropertyOp34
 70
     1
102
RTVSPropertyOp35
 70
     1
102
RTVSPropertyOp36
 70
     1
102
RTVSPropertyOp37
 70
     1
102
RTVSPropertyOp38
 70
     1
102
RTVSPropertyOp39
 70
     1
102
RTVSPropertyOp40
 70
     1
102
RTVSPropertyOp41
 70
     1
102
RTVSPropertyOp42
 70
     1
102
RTVSPropertyOp43
 70
     1
102
RTVSPropertyOp44
 70
     1
102
RTVSPropertyOp45
 70
     1
102
RTVSPropertyOp46
 70
     1
102
RTVSPropertyOp47
 70
     1
102
RTVSPropertyOp48
 70
     1
102
RTVSPropertyOp49
 70
     1
102
RTVSPropertyOp50
 70
     1
102
RTVSPropertyOp51
 70
     0
102
RTVSPropertyOp52
 70
     0
102
RTVSPropertyOp53
 70
     1
102
RTVSPropertyOp54
 70
     1
102
RTVSPropertyOp55
 70
     1
102
RTVSPropertyOp56
 70
     1
102
RTVSPropertyOp57
 70
     1
102
RTVSPropertyOp58
 70
     1
102
RTVSPropertyOp59
 70
     1
102
RTVSPropertyOp60
 70
     1
102
RTVSPropertyOp61
 70
     1
102
RTVSPropertyOp62
 70
     1
  0
XRECORD
  5
604
102
{ACAD_REACTORS
330
603
102
}
330
603
100
AcDbXrecord
280
     1
102
RTVSPost2010Prop28
280
     0
102
RTVSPost2010PropOp28
 70
     1
102
RTVSPost2010Prop29
280
     1
102
RTVSPost2010PropOp29
 70
     1
102
RTVSPost2010Prop30
280
     1
102
RTVSPost2010PropOp30
 70
     1
102
RTVSPost2010Prop31
280
     0
102
RTVSPost2010PropOp31
 70
     1
102
RTVSPost2010Prop32
280
     0
102
RTVSPost2010PropOp32
 70
     1
102
RTVSPost2010Prop33
280
     0
102
RTVSPost2010PropOp33
 70
     1
102
RTVSPost2010Prop34
280
     0
102
RTVSPost2010PropOp34
 70
     1
102
RTVSPost2010Prop35
280
     0
102
RTVSPost2010PropOp35
 70
     1
102
RTVSPost2010Prop36
280
     0
102
RTVSPost2010PropOp36
 70
     1
102
RTVSPost2010Prop37
 90
       50
102
RTVSPost2010PropOp37
 70
     1
102
RTVSPost2010Prop38
140
0.0
102
RTVSPost2010PropOp38
 70
     1
102
RTVSPost2010Prop39
140
1.0
102
RTVSPost2010PropOp39
 70
     1
102
RTVSPost2010Prop40
 90
        0
102
RTVSPost2010PropOp40
 70
     1
102
RTVSPost2010Prop41ColorIndex
 90
       18
102
RTVSPost2010Prop41ColorRGB
 90
        0
102
RTVSPost2010PropOp41
 70
     1
102
RTVSPost2010Prop42
 90
       50
102
RTVSPost2010PropOp42
 70
     1
102
RTVSPost2010Prop43
 90
        3
102
RTVSPost2010PropOp43
 70
     1
102
RTVSPost2010Prop44ColorIndex
 90
        5
102
RTVSPost2010Prop44ColorRGB
 90
      255
102
RTVSPost2010PropOp44
 70
     1
102
RTVSPost2010Prop45
280
     0
102
RTVSPost2010PropOp45
 70
     1
102
RTVSPost2010Prop46
 90
       50
102
RTVSPost2010PropOp46
 70
     1
102
RTVSPost2010Prop47
 90
       50
102
RTVSPost2010PropOp47
 70
     1
102
RTVSPost2010Prop48
 90
       50
102
RTVSPost2010PropOp48
 70
     1
102
RTVSPost2010Prop49
280
     0
102
RTVSPost2010PropOp49
 70
     1
102
RTVSPost2010Prop50
 90
       50
102
RTVSPost2010PropOp50
 70
     1
102
RTVSPost2010Prop51ColorIndex
 90
      256
102
RTVSPost2010Prop51ColorRGB
 90
-16777216
102
RTVSPost2010PropOp51
 70
     0
102
RTVSPost2010Prop52
140
1.0
102
RTVSPost2010PropOp52
 70
     0
102
RTVSPost2010Prop53
 90
        2
102
RTVSPost2010PropOp53
 70
     1
102
RTVSPost2010Prop54
  1
strokes_ogs.tif
102
RTVSPost2010PropOp54
 70
     1
102
RTVSPost2010Prop55
280
     0
102
RTVSPost2010PropOp55
 70
     1
102
RTVSPost2010Prop56
140
1.0
102
RTVSPost2010PropOp56
 70
     1
102
RTVSPost2010Prop57
140
1.0
102
RTVSPost2010PropOp57
 70
     1
102
RTVSPropertyOp0
 70
     1
102
RTVSPropertyOp1
 70
     1
102
RTVSPropertyOp2
 70
     1
102
RTVSPropertyOp3
 70
     1
102
RTVSPropertyOp4
 70
     1
102
RTVSPropertyOp5
 70
     1
102
RTVSPropertyOp6
 70
     1
102
RTVSPropertyOp7
 70
     1
102
RTVSPropertyOp8
 70
     1
102
RTVSPropertyOp9
 70
     1
102
RTVSPropertyOp10
 70
     1
102
RTVSPropertyOp11
 70
     1
102
RTVSPropertyOp12
 70
     1
102
RTVSPropertyOp13
 70
     1
102
RTVSPropertyOp14
 70
     1
102
RTVSPropertyOp15
 70
     1
102
RTVSPropertyOp16
 70
     1
102
RTVSPropertyOp17
 70
     1
102
RTVSPropertyOp18
 70
     1
102
RTVSPropertyOp19
 70
     1
102
RTVSPropertyOp20
 70
     1
102
RTVSPropertyOp21
 70
     1
102
RTVSPropertyOp22
 70
     1
102
RTVSPropertyOp23
 70
     1
102
RTVSPropertyOp24
 70
     1
102
RTVSPropertyOp25
 70
     1
102
RTVSPropertyOp26
 70
     1
102
RTVSPropertyOp27
 70
     1
102
RTVSPropertyOp28
 70
     1
102
RTVSPropertyOp29
 70
     1
102
RTVSPropertyOp30
 70
     1
102
RTVSPropertyOp31
 70
     1
102
RTVSPropertyOp32
 70
     1
102
RTVSPropertyOp33
 70
     1
102
RTVSPropertyOp34
 70
     1
102
RTVSPropertyOp35
 70
     1
102
RTVSPropertyOp36
 70
     1
102
RTVSPropertyOp37
 70
     1
102
RTVSPropertyOp38
 70
     1
102
RTVSPropertyOp39
 70
     1
102
RTVSPropertyOp40
 70
     1
102
RTVSPropertyOp41
 70
     1
102
RTVSPropertyOp42
 70
     1
102
RTVSPropertyOp43
 70
     1
102
RTVSPropertyOp44
 70
     1
102
RTVSPropertyOp45
 70
     1
102
RTVSPropertyOp46
 70
     1
102
RTVSPropertyOp47
 70
     1
102
RTVSPropertyOp48
 70
     1
102
RTVSPropertyOp49
 70
     1
102
RTVSPropertyOp50
 70
     1
102
RTVSPropertyOp51
 70
     0
102
RTVSPropertyOp52
 70
     0
102
RTVSPropertyOp53
 70
     1
102
RTVSPropertyOp54
 70
     1
102
RTVSPropertyOp55
 70
     1
102
RTVSPropertyOp56
 70
     1
102
RTVSPropertyOp57
 70
     1
102
RTVSPropertyOp58
 70
     1
102
RTVSPropertyOp59
 70
     1
102
RTVSPropertyOp60
 70
     1
102
RTVSPropertyOp61
 70
     1
102
RTVSPropertyOp62
 70
     1
  0
XRECORD
  5
612
102
{ACAD_REACTORS
330
611
102
}
330
611
100
AcDbXrecord
280
     1
102
RTVSPost2010Prop28
280
     0
102
RTVSPost2010PropOp28
 70
     1
102
RTVSPost2010Prop29
280
     1
102
RTVSPost2010PropOp29
 70
     1
102
RTVSPost2010Prop30
280
     1
102
RTVSPost2010PropOp30
 70
     1
102
RTVSPost2010Prop31
280
     0
102
RTVSPost2010PropOp31
 70
     1
102
RTVSPost2010Prop32
280
     0
102
RTVSPost2010PropOp32
 70
     1
102
RTVSPost2010Prop33
280
     0
102
RTVSPost2010PropOp33
 70
     1
102
RTVSPost2010Prop34
280
     0
102
RTVSPost2010PropOp34
 70
     1
102
RTVSPost2010Prop35
280
     0
102
RTVSPost2010PropOp35
 70
     1
102
RTVSPost2010Prop36
280
     0
102
RTVSPost2010PropOp36
 70
     1
102
RTVSPost2010Prop37
 90
       50
102
RTVSPost2010PropOp37
 70
     1
102
RTVSPost2010Prop38
140
0.0
102
RTVSPost2010PropOp38
 70
     1
102
RTVSPost2010Prop39
140
1.0
102
RTVSPost2010PropOp39
 70
     1
102
RTVSPost2010Prop40
 90
        0
102
RTVSPost2010PropOp40
 70
     1
102
RTVSPost2010Prop41ColorIndex
 90
       18
102
RTVSPost2010Prop41ColorRGB
 90
        0
102
RTVSPost2010PropOp41
 70
     1
102
RTVSPost2010Prop42
 90
       50
102
RTVSPost2010PropOp42
 70
     1
102
RTVSPost2010Prop43
 90
        3
102
RTVSPost2010PropOp43
 70
     1
102
RTVSPost2010Prop44ColorIndex
 90
        5
102
RTVSPost2010Prop44ColorRGB
 90
      255
102
RTVSPost2010PropOp44
 70
     1
102
RTVSPost2010Prop45
280
     0
102
RTVSPost2010PropOp45
 70
     1
102
RTVSPost2010Prop46
 90
       50
102
RTVSPost2010PropOp46
 70
     1
102
RTVSPost2010Prop47
 90
       50
102
RTVSPost2010PropOp47
 70
     1
102
RTVSPost2010Prop48
 90
       50
102
RTVSPost2010PropOp48
 70
     1
102
RTVSPost2010Prop49
280
     0
102
RTVSPost2010PropOp49
 70
     1
102
RTVSPost2010Prop50
 90
       50
102
RTVSPost2010PropOp50
 70
     1
102
RTVSPost2010Prop51ColorIndex
 90
      256
102
RTVSPost2010Prop51ColorRGB
 90
-16777216
102
RTVSPost2010PropOp51
 70
     0
102
RTVSPost2010Prop52
140
1.0
102
RTVSPost2010PropOp52
 70
     0
102
RTVSPost2010Prop53
 90
        2
102
RTVSPost2010PropOp53
 70
     1
102
RTVSPost2010Prop54
  1
strokes_ogs.tif
102
RTVSPost2010PropOp54
 70
     1
102
RTVSPost2010Prop55
280
     0
102
RTVSPost2010PropOp55
 70
     1
102
RTVSPost2010Prop56
140
1.0
102
RTVSPost2010PropOp56
 70
     1
102
RTVSPost2010Prop57
140
1.0
102
RTVSPost2010PropOp57
 70
     1
102
RTVSPropertyOp0
 70
     1
102
RTVSPropertyOp1
 70
     1
102
RTVSPropertyOp2
 70
     1
102
RTVSPropertyOp3
 70
     1
102
RTVSPropertyOp4
 70
     1
102
RTVSPropertyOp5
 70
     1
102
RTVSPropertyOp6
 70
     1
102
RTVSPropertyOp7
 70
     1
102
RTVSPropertyOp8
 70
     1
102
RTVSPropertyOp9
 70
     1
102
RTVSPropertyOp10
 70
     1
102
RTVSPropertyOp11
 70
     1
102
RTVSPropertyOp12
 70
     1
102
RTVSPropertyOp13
 70
     1
102
RTVSPropertyOp14
 70
     1
102
RTVSPropertyOp15
 70
     1
102
RTVSPropertyOp16
 70
     1
102
RTVSPropertyOp17
 70
     1
102
RTVSPropertyOp18
 70
     1
102
RTVSPropertyOp19
 70
     1
102
RTVSPropertyOp20
 70
     1
102
RTVSPropertyOp21
 70
     1
102
RTVSPropertyOp22
 70
     1
102
RTVSPropertyOp23
 70
     1
102
RTVSPropertyOp24
 70
     1
102
RTVSPropertyOp25
 70
     1
102
RTVSPropertyOp26
 70
     1
102
RTVSPropertyOp27
 70
     1
102
RTVSPropertyOp28
 70
     1
102
RTVSPropertyOp29
 70
     1
102
RTVSPropertyOp30
 70
     1
102
RTVSPropertyOp31
 70
     1
102
RTVSPropertyOp32
 70
     1
102
RTVSPropertyOp33
 70
     1
102
RTVSPropertyOp34
 70
     1
102
RTVSPropertyOp35
 70
     1
102
RTVSPropertyOp36
 70
     1
102
RTVSPropertyOp37
 70
     1
102
RTVSPropertyOp38
 70
     1
102
RTVSPropertyOp39
 70
     1
102
RTVSPropertyOp40
 70
     1
102
RTVSPropertyOp41
 70
     1
102
RTVSPropertyOp42
 70
     1
102
RTVSPropertyOp43
 70
     1
102
RTVSPropertyOp44
 70
     1
102
RTVSPropertyOp45
 70
     1
102
RTVSPropertyOp46
 70
     1
102
RTVSPropertyOp47
 70
     1
102
RTVSPropertyOp48
 70
     1
102
RTVSPropertyOp49
 70
     1
102
RTVSPropertyOp50
 70
     1
102
RTVSPropertyOp51
 70
     0
102
RTVSPropertyOp52
 70
     0
102
RTVSPropertyOp53
 70
     1
102
RTVSPropertyOp54
 70
     1
102
RTVSPropertyOp55
 70
     1
102
RTVSPropertyOp56
 70
     1
102
RTVSPropertyOp57
 70
     1
102
RTVSPropertyOp58
 70
     1
102
RTVSPropertyOp59
 70
     1
102
RTVSPropertyOp60
 70
     1
102
RTVSPropertyOp61
 70
     1
102
RTVSPropertyOp62
 70
     1
  0
XRECORD
  5
61A
102
{ACAD_REACTORS
330
619
102
}
330
619
100
AcDbXrecord
280
     1
102
RTVSPost2010Prop28
280
     0
102
RTVSPost2010PropOp28
 70
     1
102
RTVSPost2010Prop29
280
     1
102
RTVSPost2010PropOp29
 70
     1
102
RTVSPost2010Prop30
280
     1
102
RTVSPost2010PropOp30
 70
     1
102
RTVSPost2010Prop31
280
     0
102
RTVSPost2010PropOp31
 70
     1
102
RTVSPost2010Prop32
280
     0
102
RTVSPost2010PropOp32
 70
     1
102
RTVSPost2010Prop33
280
     0
102
RTVSPost2010PropOp33
 70
     1
102
RTVSPost2010Prop34
280
     0
102
RTVSPost2010PropOp34
 70
     1
102
RTVSPost2010Prop35
280
     0
102
RTVSPost2010PropOp35
 70
     1
102
RTVSPost2010Prop36
280
     0
102
RTVSPost2010PropOp36
 70
     1
102
RTVSPost2010Prop37
 90
       50
102
RTVSPost2010PropOp37
 70
     1
102
RTVSPost2010Prop38
140
0.0
102
RTVSPost2010PropOp38
 70
     1
102
RTVSPost2010Prop39
140
1.0
102
RTVSPost2010PropOp39
 70
     1
102
RTVSPost2010Prop40
 90
        0
102
RTVSPost2010PropOp40
 70
     1
102
RTVSPost2010Prop41ColorIndex
 90
       18
102
RTVSPost2010Prop41ColorRGB
 90
        0
102
RTVSPost2010PropOp41
 70
     1
102
RTVSPost2010Prop42
 90
       50
102
RTVSPost2010PropOp42
 70
     1
102
RTVSPost2010Prop43
 90
        3
102
RTVSPost2010PropOp43
 70
     1
102
RTVSPost2010Prop44ColorIndex
 90
        5
102
RTVSPost2010Prop44ColorRGB
 90
      255
102
RTVSPost2010PropOp44
 70
     1
102
RTVSPost2010Prop45
280
     0
102
RTVSPost2010PropOp45
 70
     1
102
RTVSPost2010Prop46
 90
       50
102
RTVSPost2010PropOp46
 70
     1
102
RTVSPost2010Prop47
 90
       50
102
RTVSPost2010PropOp47
 70
     1
102
RTVSPost2010Prop48
 90
       50
102
RTVSPost2010PropOp48
 70
     1
102
RTVSPost2010Prop49
280
     0
102
RTVSPost2010PropOp49
 70
     1
102
RTVSPost2010Prop50
 90
       50
102
RTVSPost2010PropOp50
 70
     1
102
RTVSPost2010Prop51ColorIndex
 90
      256
102
RTVSPost2010Prop51ColorRGB
 90
-16777216
102
RTVSPost2010PropOp51
 70
     0
102
RTVSPost2010Prop52
140
1.0
102
RTVSPost2010PropOp52
 70
     0
102
RTVSPost2010Prop53
 90
        2
102
RTVSPost2010PropOp53
 70
     1
102
RTVSPost2010Prop54
  1
strokes_ogs.tif
102
RTVSPost2010PropOp54
 70
     1
102
RTVSPost2010Prop55
280
     0
102
RTVSPost2010PropOp55
 70
     1
102
RTVSPost2010Prop56
140
1.0
102
RTVSPost2010PropOp56
 70
     1
102
RTVSPost2010Prop57
140
1.0
102
RTVSPost2010PropOp57
 70
     1
102
RTVSPropertyOp0
 70
     1
102
RTVSPropertyOp1
 70
     1
102
RTVSPropertyOp2
 70
     1
102
RTVSPropertyOp3
 70
     1
102
RTVSPropertyOp4
 70
     1
102
RTVSPropertyOp5
 70
     1
102
RTVSPropertyOp6
 70
     1
102
RTVSPropertyOp7
 70
     1
102
RTVSPropertyOp8
 70
     1
102
RTVSPropertyOp9
 70
     1
102
RTVSPropertyOp10
 70
     1
102
RTVSPropertyOp11
 70
     1
102
RTVSPropertyOp12
 70
     1
102
RTVSPropertyOp13
 70
     1
102
RTVSPropertyOp14
 70
     1
102
RTVSPropertyOp15
 70
     1
102
RTVSPropertyOp16
 70
     1
102
RTVSPropertyOp17
 70
     1
102
RTVSPropertyOp18
 70
     1
102
RTVSPropertyOp19
 70
     1
102
RTVSPropertyOp20
 70
     1
102
RTVSPropertyOp21
 70
     1
102
RTVSPropertyOp22
 70
     1
102
RTVSPropertyOp23
 70
     1
102
RTVSPropertyOp24
 70
     1
102
RTVSPropertyOp25
 70
     1
102
RTVSPropertyOp26
 70
     1
102
RTVSPropertyOp27
 70
     1
102
RTVSPropertyOp28
 70
     1
102
RTVSPropertyOp29
 70
     1
102
RTVSPropertyOp30
 70
     1
102
RTVSPropertyOp31
 70
     1
102
RTVSPropertyOp32
 70
     1
102
RTVSPropertyOp33
 70
     1
102
RTVSPropertyOp34
 70
     1
102
RTVSPropertyOp35
 70
     1
102
RTVSPropertyOp36
 70
     1
102
RTVSPropertyOp37
 70
     1
102
RTVSPropertyOp38
 70
     1
102
RTVSPropertyOp39
 70
     1
102
RTVSPropertyOp40
 70
     1
102
RTVSPropertyOp41
 70
     1
102
RTVSPropertyOp42
 70
     1
102
RTVSPropertyOp43
 70
     1
102
RTVSPropertyOp44
 70
     1
102
RTVSPropertyOp45
 70
     1
102
RTVSPropertyOp46
 70
     1
102
RTVSPropertyOp47
 70
     1
102
RTVSPropertyOp48
 70
     1
102
RTVSPropertyOp49
 70
     1
102
RTVSPropertyOp50
 70
     1
102
RTVSPropertyOp51
 70
     0
102
RTVSPropertyOp52
 70
     0
102
RTVSPropertyOp53
 70
     1
102
RTVSPropertyOp54
 70
     1
102
RTVSPropertyOp55
 70
     1
102
RTVSPropertyOp56
 70
     1
102
RTVSPropertyOp57
 70
     1
102
RTVSPropertyOp58
 70
     1
102
RTVSPropertyOp59
 70
     1
102
RTVSPropertyOp60
 70
     1
102
RTVSPropertyOp61
 70
     1
102
RTVSPropertyOp62
 70
     1
  0
XRECORD
  5
60C
102
{ACAD_REACTORS
330
60B
102
}
330
60B
100
AcDbXrecord
280
     1
102
RTVSPost2010Prop28
280
     0
102
RTVSPost2010PropOp28
 70
     1
102
RTVSPost2010Prop29
280
     1
102
RTVSPost2010PropOp29
 70
     1
102
RTVSPost2010Prop30
280
     1
102
RTVSPost2010PropOp30
 70
     1
102
RTVSPost2010Prop31
280
     0
102
RTVSPost2010PropOp31
 70
     1
102
RTVSPost2010Prop32
280
     0
102
RTVSPost2010PropOp32
 70
     1
102
RTVSPost2010Prop33
280
     0
102
RTVSPost2010PropOp33
 70
     1
102
RTVSPost2010Prop34
280
     0
102
RTVSPost2010PropOp34
 70
     1
102
RTVSPost2010Prop35
280
     0
102
RTVSPost2010PropOp35
 70
     1
102
RTVSPost2010Prop36
280
     0
102
RTVSPost2010PropOp36
 70
     1
102
RTVSPost2010Prop37
 90
       50
102
RTVSPost2010PropOp37
 70
     1
102
RTVSPost2010Prop38
140
0.0
102
RTVSPost2010PropOp38
 70
     1
102
RTVSPost2010Prop39
140
1.0
102
RTVSPost2010PropOp39
 70
     1
102
RTVSPost2010Prop40
 90
        0
102
RTVSPost2010PropOp40
 70
     1
102
RTVSPost2010Prop41ColorIndex
 90
       18
102
RTVSPost2010Prop41ColorRGB
 90
        0
102
RTVSPost2010PropOp41
 70
     1
102
RTVSPost2010Prop42
 90
       50
102
RTVSPost2010PropOp42
 70
     1
102
RTVSPost2010Prop43
 90
        3
102
RTVSPost2010PropOp43
 70
     1
102
RTVSPost2010Prop44ColorIndex
 90
        5
102
RTVSPost2010Prop44ColorRGB
 90
      255
102
RTVSPost2010PropOp44
 70
     1
102
RTVSPost2010Prop45
280
     0
102
RTVSPost2010PropOp45
 70
     1
102
RTVSPost2010Prop46
 90
       50
102
RTVSPost2010PropOp46
 70
     1
102
RTVSPost2010Prop47
 90
       50
102
RTVSPost2010PropOp47
 70
     1
102
RTVSPost2010Prop48
 90
       50
102
RTVSPost2010PropOp48
 70
     1
102
RTVSPost2010Prop49
280
     0
102
RTVSPost2010PropOp49
 70
     1
102
RTVSPost2010Prop50
 90
       50
102
RTVSPost2010PropOp50
 70
     1
102
RTVSPost2010Prop51ColorIndex
 90
      256
102
RTVSPost2010Prop51ColorRGB
 90
-16777216
102
RTVSPost2010PropOp51
 70
     0
102
RTVSPost2010Prop52
140
1.0
102
RTVSPost2010PropOp52
 70
     0
102
RTVSPost2010Prop53
 90
        2
102
RTVSPost2010PropOp53
 70
     1
102
RTVSPost2010Prop54
  1
strokes_ogs.tif
102
RTVSPost2010PropOp54
 70
     1
102
RTVSPost2010Prop55
280
     0
102
RTVSPost2010PropOp55
 70
     1
102
RTVSPost2010Prop56
140
1.0
102
RTVSPost2010PropOp56
 70
     1
102
RTVSPost2010Prop57
140
1.0
102
RTVSPost2010PropOp57
 70
     1
102
RTVSPropertyOp0
 70
     1
102
RTVSPropertyOp1
 70
     1
102
RTVSPropertyOp2
 70
     1
102
RTVSPropertyOp3
 70
     1
102
RTVSPropertyOp4
 70
     1
102
RTVSPropertyOp5
 70
     1
102
RTVSPropertyOp6
 70
     1
102
RTVSPropertyOp7
 70
     1
102
RTVSPropertyOp8
 70
     1
102
RTVSPropertyOp9
 70
     1
102
RTVSPropertyOp10
 70
     1
102
RTVSPropertyOp11
 70
     1
102
RTVSPropertyOp12
 70
     1
102
RTVSPropertyOp13
 70
     1
102
RTVSPropertyOp14
 70
     1
102
RTVSPropertyOp15
 70
     1
102
RTVSPropertyOp16
 70
     1
102
RTVSPropertyOp17
 70
     1
102
RTVSPropertyOp18
 70
     1
102
RTVSPropertyOp19
 70
     1
102
RTVSPropertyOp20
 70
     1
102
RTVSPropertyOp21
 70
     1
102
RTVSPropertyOp22
 70
     1
102
RTVSPropertyOp23
 70
     1
102
RTVSPropertyOp24
 70
     1
102
RTVSPropertyOp25
 70
     1
102
RTVSPropertyOp26
 70
     1
102
RTVSPropertyOp27
 70
     1
102
RTVSPropertyOp28
 70
     1
102
RTVSPropertyOp29
 70
     1
102
RTVSPropertyOp30
 70
     1
102
RTVSPropertyOp31
 70
     1
102
RTVSPropertyOp32
 70
     1
102
RTVSPropertyOp33
 70
     1
102
RTVSPropertyOp34
 70
     1
102
RTVSPropertyOp35
 70
     1
102
RTVSPropertyOp36
 70
     1
102
RTVSPropertyOp37
 70
     1
102
RTVSPropertyOp38
 70
     1
102
RTVSPropertyOp39
 70
     1
102
RTVSPropertyOp40
 70
     1
102
RTVSPropertyOp41
 70
     1
102
RTVSPropertyOp42
 70
     1
102
RTVSPropertyOp43
 70
     1
102
RTVSPropertyOp44
 70
     1
102
RTVSPropertyOp45
 70
     1
102
RTVSPropertyOp46
 70
     1
102
RTVSPropertyOp47
 70
     1
102
RTVSPropertyOp48
 70
     1
102
RTVSPropertyOp49
 70
     1
102
RTVSPropertyOp50
 70
     1
102
RTVSPropertyOp51
 70
     0
102
RTVSPropertyOp52
 70
     0
102
RTVSPropertyOp53
 70
     1
102
RTVSPropertyOp54
 70
     1
102
RTVSPropertyOp55
 70
     1
102
RTVSPropertyOp56
 70
     1
102
RTVSPropertyOp57
 70
     1
102
RTVSPropertyOp58
 70
     1
102
RTVSPropertyOp59
 70
     1
102
RTVSPropertyOp60
 70
     1
102
RTVSPropertyOp61
 70
     1
102
RTVSPropertyOp62
 70
     1
  0
XRECORD
  5
610
102
{ACAD_REACTORS
330
60F
102
}
330
60F
100
AcDbXrecord
280
     1
102
RTVSPost2010Prop28
280
     0
102
RTVSPost2010PropOp28
 70
     1
102
RTVSPost2010Prop29
280
     1
102
RTVSPost2010PropOp29
 70
     1
102
RTVSPost2010Prop30
280
     1
102
RTVSPost2010PropOp30
 70
     1
102
RTVSPost2010Prop31
280
     0
102
RTVSPost2010PropOp31
 70
     1
102
RTVSPost2010Prop32
280
     0
102
RTVSPost2010PropOp32
 70
     1
102
RTVSPost2010Prop33
280
     0
102
RTVSPost2010PropOp33
 70
     1
102
RTVSPost2010Prop34
280
     0
102
RTVSPost2010PropOp34
 70
     1
102
RTVSPost2010Prop35
280
     0
102
RTVSPost2010PropOp35
 70
     1
102
RTVSPost2010Prop36
280
     0
102
RTVSPost2010PropOp36
 70
     1
102
RTVSPost2010Prop37
 90
       50
102
RTVSPost2010PropOp37
 70
     1
102
RTVSPost2010Prop38
140
0.0
102
RTVSPost2010PropOp38
 70
     1
102
RTVSPost2010Prop39
140
1.0
102
RTVSPost2010PropOp39
 70
     1
102
RTVSPost2010Prop40
 90
        0
102
RTVSPost2010PropOp40
 70
     1
102
RTVSPost2010Prop41ColorIndex
 90
       18
102
RTVSPost2010Prop41ColorRGB
 90
        0
102
RTVSPost2010PropOp41
 70
     1
102
RTVSPost2010Prop42
 90
       50
102
RTVSPost2010PropOp42
 70
     1
102
RTVSPost2010Prop43
 90
        3
102
RTVSPost2010PropOp43
 70
     1
102
RTVSPost2010Prop44ColorIndex
 90
        5
102
RTVSPost2010Prop44ColorRGB
 90
      255
102
RTVSPost2010PropOp44
 70
     1
102
RTVSPost2010Prop45
280
     0
102
RTVSPost2010PropOp45
 70
     1
102
RTVSPost2010Prop46
 90
       50
102
RTVSPost2010PropOp46
 70
     1
102
RTVSPost2010Prop47
 90
       50
102
RTVSPost2010PropOp47
 70
     1
102
RTVSPost2010Prop48
 90
       50
102
RTVSPost2010PropOp48
 70
     1
102
RTVSPost2010Prop49
280
     0
102
RTVSPost2010PropOp49
 70
     1
102
RTVSPost2010Prop50
 90
       50
102
RTVSPost2010PropOp50
 70
     1
102
RTVSPost2010Prop51ColorIndex
 90
      256
102
RTVSPost2010Prop51ColorRGB
 90
-16777216
102
RTVSPost2010PropOp51
 70
     0
102
RTVSPost2010Prop52
140
1.0
102
RTVSPost2010PropOp52
 70
     0
102
RTVSPost2010Prop53
 90
        2
102
RTVSPost2010PropOp53
 70
     1
102
RTVSPost2010Prop54
  1
strokes_ogs.tif
102
RTVSPost2010PropOp54
 70
     1
102
RTVSPost2010Prop55
280
     0
102
RTVSPost2010PropOp55
 70
     1
102
RTVSPost2010Prop56
140
1.0
102
RTVSPost2010PropOp56
 70
     1
102
RTVSPost2010Prop57
140
1.0
102
RTVSPost2010PropOp57
 70
     1
102
RTVSPropertyOp0
 70
     1
102
RTVSPropertyOp1
 70
     1
102
RTVSPropertyOp2
 70
     1
102
RTVSPropertyOp3
 70
     1
102
RTVSPropertyOp4
 70
     1
102
RTVSPropertyOp5
 70
     1
102
RTVSPropertyOp6
 70
     1
102
RTVSPropertyOp7
 70
     1
102
RTVSPropertyOp8
 70
     1
102
RTVSPropertyOp9
 70
     1
102
RTVSPropertyOp10
 70
     1
102
RTVSPropertyOp11
 70
     1
102
RTVSPropertyOp12
 70
     1
102
RTVSPropertyOp13
 70
     1
102
RTVSPropertyOp14
 70
     1
102
RTVSPropertyOp15
 70
     1
102
RTVSPropertyOp16
 70
     1
102
RTVSPropertyOp17
 70
     1
102
RTVSPropertyOp18
 70
     1
102
RTVSPropertyOp19
 70
     1
102
RTVSPropertyOp20
 70
     1
102
RTVSPropertyOp21
 70
     1
102
RTVSPropertyOp22
 70
     1
102
RTVSPropertyOp23
 70
     1
102
RTVSPropertyOp24
 70
     1
102
RTVSPropertyOp25
 70
     1
102
RTVSPropertyOp26
 70
     1
102
RTVSPropertyOp27
 70
     1
102
RTVSPropertyOp28
 70
     1
102
RTVSPropertyOp29
 70
     1
102
RTVSPropertyOp30
 70
     1
102
RTVSPropertyOp31
 70
     1
102
RTVSPropertyOp32
 70
     1
102
RTVSPropertyOp33
 70
     1
102
RTVSPropertyOp34
 70
     1
102
RTVSPropertyOp35
 70
     1
102
RTVSPropertyOp36
 70
     1
102
RTVSPropertyOp37
 70
     1
102
RTVSPropertyOp38
 70
     1
102
RTVSPropertyOp39
 70
     1
102
RTVSPropertyOp40
 70
     1
102
RTVSPropertyOp41
 70
     1
102
RTVSPropertyOp42
 70
     1
102
RTVSPropertyOp43
 70
     1
102
RTVSPropertyOp44
 70
     1
102
RTVSPropertyOp45
 70
     1
102
RTVSPropertyOp46
 70
     1
102
RTVSPropertyOp47
 70
     1
102
RTVSPropertyOp48
 70
     1
102
RTVSPropertyOp49
 70
     1
102
RTVSPropertyOp50
 70
     1
102
RTVSPropertyOp51
 70
     0
102
RTVSPropertyOp52
 70
     0
102
RTVSPropertyOp53
 70
     1
102
RTVSPropertyOp54
 70
     1
102
RTVSPropertyOp55
 70
     1
102
RTVSPropertyOp56
 70
     1
102
RTVSPropertyOp57
 70
     1
102
RTVSPropertyOp58
 70
     1
102
RTVSPropertyOp59
 70
     1
102
RTVSPropertyOp60
 70
     1
102
RTVSPropertyOp61
 70
     1
102
RTVSPropertyOp62
 70
     1
  0
XRECORD
  5
62A
102
{ACAD_REACTORS
330
629
102
}
330
629
100
AcDbXrecord
280
     1
102
RTVSPost2010Prop28
280
     0
102
RTVSPost2010PropOp28
 70
     1
102
RTVSPost2010Prop29
280
     1
102
RTVSPost2010PropOp29
 70
     1
102
RTVSPost2010Prop30
280
     1
102
RTVSPost2010PropOp30
 70
     1
102
RTVSPost2010Prop31
280
     0
102
RTVSPost2010PropOp31
 70
     1
102
RTVSPost2010Prop32
280
     0
102
RTVSPost2010PropOp32
 70
     1
102
RTVSPost2010Prop33
280
     0
102
RTVSPost2010PropOp33
 70
     1
102
RTVSPost2010Prop34
280
     0
102
RTVSPost2010PropOp34
 70
     1
102
RTVSPost2010Prop35
280
     0
102
RTVSPost2010PropOp35
 70
     1
102
RTVSPost2010Prop36
280
     0
102
RTVSPost2010PropOp36
 70
     1
102
RTVSPost2010Prop37
 90
       50
102
RTVSPost2010PropOp37
 70
     0
102
RTVSPost2010Prop38
140
0.0
102
RTVSPost2010PropOp38
 70
     0
102
RTVSPost2010Prop39
140
1.0
102
RTVSPost2010PropOp39
 70
     0
102
RTVSPost2010Prop40
 90
        0
102
RTVSPost2010PropOp40
 70
     0
102
RTVSPost2010Prop41ColorIndex
 90
       18
102
RTVSPost2010Prop41ColorRGB
 90
        0
102
RTVSPost2010PropOp41
 70
     0
102
RTVSPost2010Prop42
 90
       50
102
RTVSPost2010PropOp42
 70
     0
102
RTVSPost2010Prop43
 90
        3
102
RTVSPost2010PropOp43
 70
     0
102
RTVSPost2010Prop44ColorIndex
 90
        5
102
RTVSPost2010Prop44ColorRGB
 90
      255
102
RTVSPost2010PropOp44
 70
     0
102
RTVSPost2010Prop45
280
     0
102
RTVSPost2010PropOp45
 70
     1
102
RTVSPost2010Prop46
 90
       50
102
RTVSPost2010PropOp46
 70
     0
102
RTVSPost2010Prop47
 90
       50
102
RTVSPost2010PropOp47
 70
     0
102
RTVSPost2010Prop48
 90
       50
102
RTVSPost2010PropOp48
 70
     0
102
RTVSPost2010Prop49
280
     0
102
RTVSPost2010PropOp49
 70
     1
102
RTVSPost2010Prop50
 90
       50
102
RTVSPost2010PropOp50
 70
     0
102
RTVSPost2010Prop51ColorIndex
 90
      256
102
RTVSPost2010Prop51ColorRGB
 90
-16777216
102
RTVSPost2010PropOp51
 70
     0
102
RTVSPost2010Prop52
140
1.0
102
RTVSPost2010PropOp52
 70
     0
102
RTVSPost2010Prop53
 90
        2
102
RTVSPost2010PropOp53
 70
     0
102
RTVSPost2010Prop54
  1
strokes_ogs.tif
102
RTVSPost2010PropOp54
 70
     0
102
RTVSPost2010Prop55
280
     0
102
RTVSPost2010PropOp55
 70
     1
102
RTVSPost2010Prop56
140
1.0
102
RTVSPost2010PropOp56
 70
     0
102
RTVSPost2010Prop57
140
1.0
102
RTVSPost2010PropOp57
 70
     0
102
RTVSPropertyOp0
 70
     0
102
RTVSPropertyOp1
 70
     0
102
RTVSPropertyOp2
 70
     0
102
RTVSPropertyOp3
 70
     0
102
RTVSPropertyOp4
 70
     0
102
RTVSPropertyOp5
 70
     0
102
RTVSPropertyOp6
 70
     0
102
RTVSPropertyOp7
 70
     0
102
RTVSPropertyOp8
 70
     0
102
RTVSPropertyOp9
 70
     0
102
RTVSPropertyOp10
 70
     0
102
RTVSPropertyOp11
 70
     0
102
RTVSPropertyOp12
 70
     0
102
RTVSPropertyOp13
 70
     0
102
RTVSPropertyOp14
 70
     2
102
RTVSPropertyOp15
 70
     0
102
RTVSPropertyOp16
 70
     0
102
RTVSPropertyOp17
 70
     0
102
RTVSPropertyOp18
 70
     0
102
RTVSPropertyOp19
 70
     0
102
RTVSPropertyOp20
 70
     0
102
RTVSPropertyOp21
 70
     0
102
RTVSPropertyOp22
 70
     0
102
RTVSPropertyOp23
 70
     0
102
RTVSPropertyOp24
 70
     0
102
RTVSPropertyOp25
 70
     0
102
RTVSPropertyOp26
 70
     0
102
RTVSPropertyOp27
 70
     0
102
RTVSPropertyOp28
 70
     1
102
RTVSPropertyOp29
 70
     1
102
RTVSPropertyOp30
 70
     1
102
RTVSPropertyOp31
 70
     1
102
RTVSPropertyOp32
 70
     1
102
RTVSPropertyOp33
 70
     1
102
RTVSPropertyOp34
 70
     1
102
RTVSPropertyOp35
 70
     1
102
RTVSPropertyOp36
 70
     1
102
RTVSPropertyOp37
 70
     0
102
RTVSPropertyOp38
 70
     0
102
RTVSPropertyOp39
 70
     0
102
RTVSPropertyOp40
 70
     0
102
RTVSPropertyOp41
 70
     0
102
RTVSPropertyOp42
 70
     0
102
RTVSPropertyOp43
 70
     0
102
RTVSPropertyOp44
 70
     0
102
RTVSPropertyOp45
 70
     1
102
RTVSPropertyOp46
 70
     0
102
RTVSPropertyOp47
 70
     0
102
RTVSPropertyOp48
 70
     0
102
RTVSPropertyOp49
 70
     1
102
RTVSPropertyOp50
 70
     0
102
RTVSPropertyOp51
 70
     0
102
RTVSPropertyOp52
 70
     0
102
RTVSPropertyOp53
 70
     0
102
RTVSPropertyOp54
 70
     0
102
RTVSPropertyOp55
 70
     1
102
RTVSPropertyOp56
 70
     0
102
RTVSPropertyOp57
 70
     0
102
RTVSPropertyOp58
 70
     0
102
RTVSPropertyOp59
 70
     0
102
RTVSPropertyOp60
 70
     0
102
RTVSPropertyOp61
 70
     0
102
RTVSPropertyOp62
 70
     0
  0
XRECORD
  5
618
102
{ACAD_REACTORS
330
617
102
}
330
617
100
AcDbXrecord
280
     1
102
RTVSPost2010Prop28
280
     0
102
RTVSPost2010PropOp28
 70
     1
102
RTVSPost2010Prop29
280
     1
102
RTVSPost2010PropOp29
 70
     1
102
RTVSPost2010Prop30
280
     1
102
RTVSPost2010PropOp30
 70
     1
102
RTVSPost2010Prop31
280
     0
102
RTVSPost2010PropOp31
 70
     1
102
RTVSPost2010Prop32
280
     0
102
RTVSPost2010PropOp32
 70
     1
102
RTVSPost2010Prop33
280
     0
102
RTVSPost2010PropOp33
 70
     1
102
RTVSPost2010Prop34
280
     0
102
RTVSPost2010PropOp34
 70
     1
102
RTVSPost2010Prop35
280
     0
102
RTVSPost2010PropOp35
 70
     1
102
RTVSPost2010Prop36
280
     0
102
RTVSPost2010PropOp36
 70
     1
102
RTVSPost2010Prop37
 90
       50
102
RTVSPost2010PropOp37
 70
     1
102
RTVSPost2010Prop38
140
0.0
102
RTVSPost2010PropOp38
 70
     1
102
RTVSPost2010Prop39
140
1.0
102
RTVSPost2010PropOp39
 70
     1
102
RTVSPost2010Prop40
 90
        0
102
RTVSPost2010PropOp40
 70
     1
102
RTVSPost2010Prop41ColorIndex
 90
       18
102
RTVSPost2010Prop41ColorRGB
 90
        0
102
RTVSPost2010PropOp41
 70
     1
102
RTVSPost2010Prop42
 90
       50
102
RTVSPost2010PropOp42
 70
     1
102
RTVSPost2010Prop43
 90
        3
102
RTVSPost2010PropOp43
 70
     1
102
RTVSPost2010Prop44ColorIndex
 90
        5
102
RTVSPost2010Prop44ColorRGB
 90
      255
102
RTVSPost2010PropOp44
 70
     1
102
RTVSPost2010Prop45
280
     0
102
RTVSPost2010PropOp45
 70
     1
102
RTVSPost2010Prop46
 90
       50
102
RTVSPost2010PropOp46
 70
     1
102
RTVSPost2010Prop47
 90
       50
102
RTVSPost2010PropOp47
 70
     1
102
RTVSPost2010Prop48
 90
       50
102
RTVSPost2010PropOp48
 70
     1
102
RTVSPost2010Prop49
280
     0
102
RTVSPost2010PropOp49
 70
     1
102
RTVSPost2010Prop50
 90
       50
102
RTVSPost2010PropOp50
 70
     1
102
RTVSPost2010Prop51ColorIndex
 90
      256
102
RTVSPost2010Prop51ColorRGB
 90
-16777216
102
RTVSPost2010PropOp51
 70
     0
102
RTVSPost2010Prop52
140
1.0
102
RTVSPost2010PropOp52
 70
     0
102
RTVSPost2010Prop53
 90
        2
102
RTVSPost2010PropOp53
 70
     1
102
RTVSPost2010Prop54
  1
strokes_ogs.tif
102
RTVSPost2010PropOp54
 70
     1
102
RTVSPost2010Prop55
280
     0
102
RTVSPost2010PropOp55
 70
     1
102
RTVSPost2010Prop56
140
1.0
102
RTVSPost2010PropOp56
 70
     1
102
RTVSPost2010Prop57
140
1.0
102
RTVSPost2010PropOp57
 70
     1
102
RTVSPropertyOp0
 70
     1
102
RTVSPropertyOp1
 70
     1
102
RTVSPropertyOp2
 70
     1
102
RTVSPropertyOp3
 70
     1
102
RTVSPropertyOp4
 70
     1
102
RTVSPropertyOp5
 70
     1
102
RTVSPropertyOp6
 70
     1
102
RTVSPropertyOp7
 70
     1
102
RTVSPropertyOp8
 70
     1
102
RTVSPropertyOp9
 70
     1
102
RTVSPropertyOp10
 70
     1
102
RTVSPropertyOp11
 70
     1
102
RTVSPropertyOp12
 70
     1
102
RTVSPropertyOp13
 70
     1
102
RTVSPropertyOp14
 70
     1
102
RTVSPropertyOp15
 70
     1
102
RTVSPropertyOp16
 70
     1
102
RTVSPropertyOp17
 70
     1
102
RTVSPropertyOp18
 70
     1
102
RTVSPropertyOp19
 70
     1
102
RTVSPropertyOp20
 70
     1
102
RTVSPropertyOp21
 70
     1
102
RTVSPropertyOp22
 70
     1
102
RTVSPropertyOp23
 70
     1
102
RTVSPropertyOp24
 70
     1
102
RTVSPropertyOp25
 70
     1
102
RTVSPropertyOp26
 70
     1
102
RTVSPropertyOp27
 70
     1
102
RTVSPropertyOp28
 70
     1
102
RTVSPropertyOp29
 70
     1
102
RTVSPropertyOp30
 70
     1
102
RTVSPropertyOp31
 70
     1
102
RTVSPropertyOp32
 70
     1
102
RTVSPropertyOp33
 70
     1
102
RTVSPropertyOp34
 70
     1
102
RTVSPropertyOp35
 70
     1
102
RTVSPropertyOp36
 70
     1
102
RTVSPropertyOp37
 70
     1
102
RTVSPropertyOp38
 70
     1
102
RTVSPropertyOp39
 70
     1
102
RTVSPropertyOp40
 70
     1
102
RTVSPropertyOp41
 70
     1
102
RTVSPropertyOp42
 70
     1
102
RTVSPropertyOp43
 70
     1
102
RTVSPropertyOp44
 70
     1
102
RTVSPropertyOp45
 70
     1
102
RTVSPropertyOp46
 70
     1
102
RTVSPropertyOp47
 70
     1
102
RTVSPropertyOp48
 70
     1
102
RTVSPropertyOp49
 70
     1
102
RTVSPropertyOp50
 70
     1
102
RTVSPropertyOp51
 70
     0
102
RTVSPropertyOp52
 70
     0
102
RTVSPropertyOp53
 70
     1
102
RTVSPropertyOp54
 70
     1
102
RTVSPropertyOp55
 70
     1
102
RTVSPropertyOp56
 70
     1
102
RTVSPropertyOp57
 70
     1
102
RTVSPropertyOp58
 70
     1
102
RTVSPropertyOp59
 70
     1
102
RTVSPropertyOp60
 70
     1
102
RTVSPropertyOp61
 70
     1
102
RTVSPropertyOp62
 70
     1
  0
XRECORD
  5
5FC
102
{ACAD_REACTORS
330
5FB
102
}
330
5FB
100
AcDbXrecord
280
     1
102
RTVSPost2010Prop28
280
     0
102
RTVSPost2010PropOp28
 70
     1
102
RTVSPost2010Prop29
280
     1
102
RTVSPost2010PropOp29
 70
     1
102
RTVSPost2010Prop30
280
     1
102
RTVSPost2010PropOp30
 70
     1
102
RTVSPost2010Prop31
280
     0
102
RTVSPost2010PropOp31
 70
     1
102
RTVSPost2010Prop32
280
     0
102
RTVSPost2010PropOp32
 70
     1
102
RTVSPost2010Prop33
280
     0
102
RTVSPost2010PropOp33
 70
     1
102
RTVSPost2010Prop34
280
     0
102
RTVSPost2010PropOp34
 70
     1
102
RTVSPost2010Prop35
280
     0
102
RTVSPost2010PropOp35
 70
     1
102
RTVSPost2010Prop36
280
     0
102
RTVSPost2010PropOp36
 70
     1
102
RTVSPost2010Prop37
 90
       50
102
RTVSPost2010PropOp37
 70
     1
102
RTVSPost2010Prop38
140
0.0
102
RTVSPost2010PropOp38
 70
     1
102
RTVSPost2010Prop39
140
1.0
102
RTVSPost2010PropOp39
 70
     1
102
RTVSPost2010Prop40
 90
        0
102
RTVSPost2010PropOp40
 70
     1
102
RTVSPost2010Prop41ColorIndex
 90
       18
102
RTVSPost2010Prop41ColorRGB
 90
        0
102
RTVSPost2010PropOp41
 70
     1
102
RTVSPost2010Prop42
 90
       50
102
RTVSPost2010PropOp42
 70
     1
102
RTVSPost2010Prop43
 90
        3
102
RTVSPost2010PropOp43
 70
     1
102
RTVSPost2010Prop44ColorIndex
 90
        5
102
RTVSPost2010Prop44ColorRGB
 90
      255
102
RTVSPost2010PropOp44
 70
     1
102
RTVSPost2010Prop45
280
     0
102
RTVSPost2010PropOp45
 70
     1
102
RTVSPost2010Prop46
 90
       50
102
RTVSPost2010PropOp46
 70
     1
102
RTVSPost2010Prop47
 90
       50
102
RTVSPost2010PropOp47
 70
     1
102
RTVSPost2010Prop48
 90
       50
102
RTVSPost2010PropOp48
 70
     1
102
RTVSPost2010Prop49
280
     0
102
RTVSPost2010PropOp49
 70
     1
102
RTVSPost2010Prop50
 90
       50
102
RTVSPost2010PropOp50
 70
     1
102
RTVSPost2010Prop51ColorIndex
 90
      256
102
RTVSPost2010Prop51ColorRGB
 90
-16777216
102
RTVSPost2010PropOp51
 70
     0
102
RTVSPost2010Prop52
140
1.0
102
RTVSPost2010PropOp52
 70
     0
102
RTVSPost2010Prop53
 90
        2
102
RTVSPost2010PropOp53
 70
     1
102
RTVSPost2010Prop54
  1
strokes_ogs.tif
102
RTVSPost2010PropOp54
 70
     1
102
RTVSPost2010Prop55
280
     0
102
RTVSPost2010PropOp55
 70
     1
102
RTVSPost2010Prop56
140
1.0
102
RTVSPost2010PropOp56
 70
     1
102
RTVSPost2010Prop57
140
1.0
102
RTVSPost2010PropOp57
 70
     1
102
RTVSPropertyOp0
 70
     1
102
RTVSPropertyOp1
 70
     1
102
RTVSPropertyOp2
 70
     1
102
RTVSPropertyOp3
 70
     1
102
RTVSPropertyOp4
 70
     1
102
RTVSPropertyOp5
 70
     1
102
RTVSPropertyOp6
 70
     1
102
RTVSPropertyOp7
 70
     1
102
RTVSPropertyOp8
 70
     1
102
RTVSPropertyOp9
 70
     1
102
RTVSPropertyOp10
 70
     1
102
RTVSPropertyOp11
 70
     1
102
RTVSPropertyOp12
 70
     1
102
RTVSPropertyOp13
 70
     1
102
RTVSPropertyOp14
 70
     1
102
RTVSPropertyOp15
 70
     1
102
RTVSPropertyOp16
 70
     1
102
RTVSPropertyOp17
 70
     1
102
RTVSPropertyOp18
 70
     1
102
RTVSPropertyOp19
 70
     1
102
RTVSPropertyOp20
 70
     1
102
RTVSPropertyOp21
 70
     1
102
RTVSPropertyOp22
 70
     1
102
RTVSPropertyOp23
 70
     1
102
RTVSPropertyOp24
 70
     1
102
RTVSPropertyOp25
 70
     1
102
RTVSPropertyOp26
 70
     1
102
RTVSPropertyOp27
 70
     1
102
RTVSPropertyOp28
 70
     1
102
RTVSPropertyOp29
 70
     1
102
RTVSPropertyOp30
 70
     1
102
RTVSPropertyOp31
 70
     1
102
RTVSPropertyOp32
 70
     1
102
RTVSPropertyOp33
 70
     1
102
RTVSPropertyOp34
 70
     1
102
RTVSPropertyOp35
 70
     1
102
RTVSPropertyOp36
 70
     1
102
RTVSPropertyOp37
 70
     1
102
RTVSPropertyOp38
 70
     1
102
RTVSPropertyOp39
 70
     1
102
RTVSPropertyOp40
 70
     1
102
RTVSPropertyOp41
 70
     1
102
RTVSPropertyOp42
 70
     1
102
RTVSPropertyOp43
 70
     1
102
RTVSPropertyOp44
 70
     1
102
RTVSPropertyOp45
 70
     1
102
RTVSPropertyOp46
 70
     1
102
RTVSPropertyOp47
 70
     1
102
RTVSPropertyOp48
 70
     1
102
RTVSPropertyOp49
 70
     1
102
RTVSPropertyOp50
 70
     1
102
RTVSPropertyOp51
 70
     0
102
RTVSPropertyOp52
 70
     0
102
RTVSPropertyOp53
 70
     1
102
RTVSPropertyOp54
 70
     1
102
RTVSPropertyOp55
 70
     1
102
RTVSPropertyOp56
 70
     1
102
RTVSPropertyOp57
 70
     1
102
RTVSPropertyOp58
 70
     1
102
RTVSPropertyOp59
 70
     1
102
RTVSPropertyOp60
 70
     1
102
RTVSPropertyOp61
 70
     1
102
RTVSPropertyOp62
 70
     1
  0
XRECORD
  5
5FE
102
{ACAD_REACTORS
330
5FD
102
}
330
5FD
100
AcDbXrecord
280
     1
102
RTVSPost2010Prop28
280
     0
102
RTVSPost2010PropOp28
 70
     1
102
RTVSPost2010Prop29
280
     1
102
RTVSPost2010PropOp29
 70
     1
102
RTVSPost2010Prop30
280
     1
102
RTVSPost2010PropOp30
 70
     1
102
RTVSPost2010Prop31
280
     0
102
RTVSPost2010PropOp31
 70
     1
102
RTVSPost2010Prop32
280
     0
102
RTVSPost2010PropOp32
 70
     1
102
RTVSPost2010Prop33
280
     0
102
RTVSPost2010PropOp33
 70
     1
102
RTVSPost2010Prop34
280
     0
102
RTVSPost2010PropOp34
 70
     1
102
RTVSPost2010Prop35
280
     0
102
RTVSPost2010PropOp35
 70
     1
102
RTVSPost2010Prop36
280
     0
102
RTVSPost2010PropOp36
 70
     1
102
RTVSPost2010Prop37
 90
       50
102
RTVSPost2010PropOp37
 70
     1
102
RTVSPost2010Prop38
140
0.0
102
RTVSPost2010PropOp38
 70
     1
102
RTVSPost2010Prop39
140
1.0
102
RTVSPost2010PropOp39
 70
     1
102
RTVSPost2010Prop40
 90
        0
102
RTVSPost2010PropOp40
 70
     1
102
RTVSPost2010Prop41ColorIndex
 90
       18
102
RTVSPost2010Prop41ColorRGB
 90
        0
102
RTVSPost2010PropOp41
 70
     1
102
RTVSPost2010Prop42
 90
       50
102
RTVSPost2010PropOp42
 70
     1
102
RTVSPost2010Prop43
 90
        3
102
RTVSPost2010PropOp43
 70
     1
102
RTVSPost2010Prop44ColorIndex
 90
        5
102
RTVSPost2010Prop44ColorRGB
 90
      255
102
RTVSPost2010PropOp44
 70
     1
102
RTVSPost2010Prop45
280
     0
102
RTVSPost2010PropOp45
 70
     1
102
RTVSPost2010Prop46
 90
       50
102
RTVSPost2010PropOp46
 70
     1
102
RTVSPost2010Prop47
 90
       50
102
RTVSPost2010PropOp47
 70
     1
102
RTVSPost2010Prop48
 90
       50
102
RTVSPost2010PropOp48
 70
     1
102
RTVSPost2010Prop49
280
     0
102
RTVSPost2010PropOp49
 70
     1
102
RTVSPost2010Prop50
 90
       50
102
RTVSPost2010PropOp50
 70
     1
102
RTVSPost2010Prop51ColorIndex
 90
      256
102
RTVSPost2010Prop51ColorRGB
 90
-16777216
102
RTVSPost2010PropOp51
 70
     0
102
RTVSPost2010Prop52
140
1.0
102
RTVSPost2010PropOp52
 70
     0
102
RTVSPost2010Prop53
 90
        2
102
RTVSPost2010PropOp53
 70
     1
102
RTVSPost2010Prop54
  1
strokes_ogs.tif
102
RTVSPost2010PropOp54
 70
     1
102
RTVSPost2010Prop55
280
     0
102
RTVSPost2010PropOp55
 70
     1
102
RTVSPost2010Prop56
140
1.0
102
RTVSPost2010PropOp56
 70
     1
102
RTVSPost2010Prop57
140
1.0
102
RTVSPost2010PropOp57
 70
     1
102
RTVSPropertyOp0
 70
     1
102
RTVSPropertyOp1
 70
     1
102
RTVSPropertyOp2
 70
     1
102
RTVSPropertyOp3
 70
     1
102
RTVSPropertyOp4
 70
     1
102
RTVSPropertyOp5
 70
     1
102
RTVSPropertyOp6
 70
     1
102
RTVSPropertyOp7
 70
     1
102
RTVSPropertyOp8
 70
     1
102
RTVSPropertyOp9
 70
     1
102
RTVSPropertyOp10
 70
     1
102
RTVSPropertyOp11
 70
     1
102
RTVSPropertyOp12
 70
     1
102
RTVSPropertyOp13
 70
     1
102
RTVSPropertyOp14
 70
     1
102
RTVSPropertyOp15
 70
     1
102
RTVSPropertyOp16
 70
     1
102
RTVSPropertyOp17
 70
     1
102
RTVSPropertyOp18
 70
     1
102
RTVSPropertyOp19
 70
     1
102
RTVSPropertyOp20
 70
     1
102
RTVSPropertyOp21
 70
     1
102
RTVSPropertyOp22
 70
     1
102
RTVSPropertyOp23
 70
     1
102
RTVSPropertyOp24
 70
     1
102
RTVSPropertyOp25
 70
     1
102
RTVSPropertyOp26
 70
     1
102
RTVSPropertyOp27
 70
     1
102
RTVSPropertyOp28
 70
     1
102
RTVSPropertyOp29
 70
     1
102
RTVSPropertyOp30
 70
     1
102
RTVSPropertyOp31
 70
     1
102
RTVSPropertyOp32
 70
     1
102
RTVSPropertyOp33
 70
     1
102
RTVSPropertyOp34
 70
     1
102
RTVSPropertyOp35
 70
     1
102
RTVSPropertyOp36
 70
     1
102
RTVSPropertyOp37
 70
     1
102
RTVSPropertyOp38
 70
     1
102
RTVSPropertyOp39
 70
     1
102
RTVSPropertyOp40
 70
     1
102
RTVSPropertyOp41
 70
     1
102
RTVSPropertyOp42
 70
     1
102
RTVSPropertyOp43
 70
     1
102
RTVSPropertyOp44
 70
     1
102
RTVSPropertyOp45
 70
     1
102
RTVSPropertyOp46
 70
     1
102
RTVSPropertyOp47
 70
     1
102
RTVSPropertyOp48
 70
     1
102
RTVSPropertyOp49
 70
     1
102
RTVSPropertyOp50
 70
     1
102
RTVSPropertyOp51
 70
     0
102
RTVSPropertyOp52
 70
     0
102
RTVSPropertyOp53
 70
     1
102
RTVSPropertyOp54
 70
     1
102
RTVSPropertyOp55
 70
     1
102
RTVSPropertyOp56
 70
     1
102
RTVSPropertyOp57
 70
     1
102
RTVSPropertyOp58
 70
     1
102
RTVSPropertyOp59
 70
     1
102
RTVSPropertyOp60
 70
     1
102
RTVSPropertyOp61
 70
     1
102
RTVSPropertyOp62
 70
     1
  0
XRECORD
  5
600
102
{ACAD_REACTORS
330
5FF
102
}
330
5FF
100
AcDbXrecord
280
     1
102
RTVSPost2010Prop28
280
     0
102
RTVSPost2010PropOp28
 70
     1
102
RTVSPost2010Prop29
280
     1
102
RTVSPost2010PropOp29
 70
     1
102
RTVSPost2010Prop30
280
     1
102
RTVSPost2010PropOp30
 70
     1
102
RTVSPost2010Prop31
280
     0
102
RTVSPost2010PropOp31
 70
     1
102
RTVSPost2010Prop32
280
     0
102
RTVSPost2010PropOp32
 70
     1
102
RTVSPost2010Prop33
280
     0
102
RTVSPost2010PropOp33
 70
     1
102
RTVSPost2010Prop34
280
     0
102
RTVSPost2010PropOp34
 70
     1
102
RTVSPost2010Prop35
280
     0
102
RTVSPost2010PropOp35
 70
     1
102
RTVSPost2010Prop36
280
     0
102
RTVSPost2010PropOp36
 70
     1
102
RTVSPost2010Prop37
 90
       50
102
RTVSPost2010PropOp37
 70
     1
102
RTVSPost2010Prop38
140
0.0
102
RTVSPost2010PropOp38
 70
     1
102
RTVSPost2010Prop39
140
1.0
102
RTVSPost2010PropOp39
 70
     1
102
RTVSPost2010Prop40
 90
        0
102
RTVSPost2010PropOp40
 70
     1
102
RTVSPost2010Prop41ColorIndex
 90
       18
102
RTVSPost2010Prop41ColorRGB
 90
        0
102
RTVSPost2010PropOp41
 70
     1
102
RTVSPost2010Prop42
 90
       50
102
RTVSPost2010PropOp42
 70
     1
102
RTVSPost2010Prop43
 90
        3
102
RTVSPost2010PropOp43
 70
     1
102
RTVSPost2010Prop44ColorIndex
 90
        5
102
RTVSPost2010Prop44ColorRGB
 90
      255
102
RTVSPost2010PropOp44
 70
     1
102
RTVSPost2010Prop45
280
     0
102
RTVSPost2010PropOp45
 70
     1
102
RTVSPost2010Prop46
 90
       50
102
RTVSPost2010PropOp46
 70
     1
102
RTVSPost2010Prop47
 90
       50
102
RTVSPost2010PropOp47
 70
     1
102
RTVSPost2010Prop48
 90
       50
102
RTVSPost2010PropOp48
 70
     1
102
RTVSPost2010Prop49
280
     0
102
RTVSPost2010PropOp49
 70
     1
102
RTVSPost2010Prop50
 90
       50
102
RTVSPost2010PropOp50
 70
     1
102
RTVSPost2010Prop51ColorIndex
 90
      256
102
RTVSPost2010Prop51ColorRGB
 90
-16777216
102
RTVSPost2010PropOp51
 70
     0
102
RTVSPost2010Prop52
140
1.0
102
RTVSPost2010PropOp52
 70
     0
102
RTVSPost2010Prop53
 90
        2
102
RTVSPost2010PropOp53
 70
     1
102
RTVSPost2010Prop54
  1
strokes_ogs.tif
102
RTVSPost2010PropOp54
 70
     1
102
RTVSPost2010Prop55
280
     0
102
RTVSPost2010PropOp55
 70
     1
102
RTVSPost2010Prop56
140
1.0
102
RTVSPost2010PropOp56
 70
     1
102
RTVSPost2010Prop57
140
1.0
102
RTVSPost2010PropOp57
 70
     1
102
RTVSPropertyOp0
 70
     1
102
RTVSPropertyOp1
 70
     1
102
RTVSPropertyOp2
 70
     1
102
RTVSPropertyOp3
 70
     1
102
RTVSPropertyOp4
 70
     1
102
RTVSPropertyOp5
 70
     1
102
RTVSPropertyOp6
 70
     1
102
RTVSPropertyOp7
 70
     1
102
RTVSPropertyOp8
 70
     1
102
RTVSPropertyOp9
 70
     1
102
RTVSPropertyOp10
 70
     1
102
RTVSPropertyOp11
 70
     1
102
RTVSPropertyOp12
 70
     1
102
RTVSPropertyOp13
 70
     1
102
RTVSPropertyOp14
 70
     1
102
RTVSPropertyOp15
 70
     1
102
RTVSPropertyOp16
 70
     1
102
RTVSPropertyOp17
 70
     1
102
RTVSPropertyOp18
 70
     1
102
RTVSPropertyOp19
 70
     1
102
RTVSPropertyOp20
 70
     1
102
RTVSPropertyOp21
 70
     1
102
RTVSPropertyOp22
 70
     1
102
RTVSPropertyOp23
 70
     1
102
RTVSPropertyOp24
 70
     1
102
RTVSPropertyOp25
 70
     1
102
RTVSPropertyOp26
 70
     1
102
RTVSPropertyOp27
 70
     1
102
RTVSPropertyOp28
 70
     1
102
RTVSPropertyOp29
 70
     1
102
RTVSPropertyOp30
 70
     1
102
RTVSPropertyOp31
 70
     1
102
RTVSPropertyOp32
 70
     1
102
RTVSPropertyOp33
 70
     1
102
RTVSPropertyOp34
 70
     1
102
RTVSPropertyOp35
 70
     1
102
RTVSPropertyOp36
 70
     1
102
RTVSPropertyOp37
 70
     1
102
RTVSPropertyOp38
 70
     1
102
RTVSPropertyOp39
 70
     1
102
RTVSPropertyOp40
 70
     1
102
RTVSPropertyOp41
 70
     1
102
RTVSPropertyOp42
 70
     1
102
RTVSPropertyOp43
 70
     1
102
RTVSPropertyOp44
 70
     1
102
RTVSPropertyOp45
 70
     1
102
RTVSPropertyOp46
 70
     1
102
RTVSPropertyOp47
 70
     1
102
RTVSPropertyOp48
 70
     1
102
RTVSPropertyOp49
 70
     1
102
RTVSPropertyOp50
 70
     1
102
RTVSPropertyOp51
 70
     0
102
RTVSPropertyOp52
 70
     0
102
RTVSPropertyOp53
 70
     1
102
RTVSPropertyOp54
 70
     1
102
RTVSPropertyOp55
 70
     1
102
RTVSPropertyOp56
 70
     1
102
RTVSPropertyOp57
 70
     1
102
RTVSPropertyOp58
 70
     1
102
RTVSPropertyOp59
 70
     1
102
RTVSPropertyOp60
 70
     1
102
RTVSPropertyOp61
 70
     1
102
RTVSPropertyOp62
 70
     1
  0
XRECORD
  5
602
102
{ACAD_REACTORS
330
601
102
}
330
601
100
AcDbXrecord
280
     1
102
RTVSPost2010Prop28
280
     0
102
RTVSPost2010PropOp28
 70
     1
102
RTVSPost2010Prop29
280
     1
102
RTVSPost2010PropOp29
 70
     1
102
RTVSPost2010Prop30
280
     1
102
RTVSPost2010PropOp30
 70
     1
102
RTVSPost2010Prop31
280
     0
102
RTVSPost2010PropOp31
 70
     1
102
RTVSPost2010Prop32
280
     0
102
RTVSPost2010PropOp32
 70
     1
102
RTVSPost2010Prop33
280
     0
102
RTVSPost2010PropOp33
 70
     1
102
RTVSPost2010Prop34
280
     0
102
RTVSPost2010PropOp34
 70
     1
102
RTVSPost2010Prop35
280
     0
102
RTVSPost2010PropOp35
 70
     1
102
RTVSPost2010Prop36
280
     0
102
RTVSPost2010PropOp36
 70
     1
102
RTVSPost2010Prop37
 90
       50
102
RTVSPost2010PropOp37
 70
     1
102
RTVSPost2010Prop38
140
0.0
102
RTVSPost2010PropOp38
 70
     1
102
RTVSPost2010Prop39
140
1.0
102
RTVSPost2010PropOp39
 70
     1
102
RTVSPost2010Prop40
 90
        0
102
RTVSPost2010PropOp40
 70
     1
102
RTVSPost2010Prop41ColorIndex
 90
       18
102
RTVSPost2010Prop41ColorRGB
 90
        0
102
RTVSPost2010PropOp41
 70
     1
102
RTVSPost2010Prop42
 90
       50
102
RTVSPost2010PropOp42
 70
     1
102
RTVSPost2010Prop43
 90
        3
102
RTVSPost2010PropOp43
 70
     1
102
RTVSPost2010Prop44ColorIndex
 90
        5
102
RTVSPost2010Prop44ColorRGB
 90
      255
102
RTVSPost2010PropOp44
 70
     1
102
RTVSPost2010Prop45
280
     0
102
RTVSPost2010PropOp45
 70
     1
102
RTVSPost2010Prop46
 90
       50
102
RTVSPost2010PropOp46
 70
     1
102
RTVSPost2010Prop47
 90
       50
102
RTVSPost2010PropOp47
 70
     1
102
RTVSPost2010Prop48
 90
       50
102
RTVSPost2010PropOp48
 70
     1
102
RTVSPost2010Prop49
280
     0
102
RTVSPost2010PropOp49
 70
     1
102
RTVSPost2010Prop50
 90
       50
102
RTVSPost2010PropOp50
 70
     1
102
RTVSPost2010Prop51ColorIndex
 90
      256
102
RTVSPost2010Prop51ColorRGB
 90
-16777216
102
RTVSPost2010PropOp51
 70
     0
102
RTVSPost2010Prop52
140
1.0
102
RTVSPost2010PropOp52
 70
     0
102
RTVSPost2010Prop53
 90
        2
102
RTVSPost2010PropOp53
 70
     1
102
RTVSPost2010Prop54
  1
strokes_ogs.tif
102
RTVSPost2010PropOp54
 70
     1
102
RTVSPost2010Prop55
280
     0
102
RTVSPost2010PropOp55
 70
     1
102
RTVSPost2010Prop56
140
1.0
102
RTVSPost2010PropOp56
 70
     1
102
RTVSPost2010Prop57
140
1.0
102
RTVSPost2010PropOp57
 70
     1
102
RTVSPropertyOp0
 70
     1
102
RTVSPropertyOp1
 70
     1
102
RTVSPropertyOp2
 70
     1
102
RTVSPropertyOp3
 70
     1
102
RTVSPropertyOp4
 70
     1
102
RTVSPropertyOp5
 70
     1
102
RTVSPropertyOp6
 70
     1
102
RTVSPropertyOp7
 70
     1
102
RTVSPropertyOp8
 70
     1
102
RTVSPropertyOp9
 70
     1
102
RTVSPropertyOp10
 70
     1
102
RTVSPropertyOp11
 70
     1
102
RTVSPropertyOp12
 70
     1
102
RTVSPropertyOp13
 70
     1
102
RTVSPropertyOp14
 70
     1
102
RTVSPropertyOp15
 70
     1
102
RTVSPropertyOp16
 70
     1
102
RTVSPropertyOp17
 70
     1
102
RTVSPropertyOp18
 70
     1
102
RTVSPropertyOp19
 70
     1
102
RTVSPropertyOp20
 70
     1
102
RTVSPropertyOp21
 70
     1
102
RTVSPropertyOp22
 70
     1
102
RTVSPropertyOp23
 70
     1
102
RTVSPropertyOp24
 70
     1
102
RTVSPropertyOp25
 70
     1
102
RTVSPropertyOp26
 70
     1
102
RTVSPropertyOp27
 70
     1
102
RTVSPropertyOp28
 70
     1
102
RTVSPropertyOp29
 70
     1
102
RTVSPropertyOp30
 70
     1
102
RTVSPropertyOp31
 70
     1
102
RTVSPropertyOp32
 70
     1
102
RTVSPropertyOp33
 70
     1
102
RTVSPropertyOp34
 70
     1
102
RTVSPropertyOp35
 70
     1
102
RTVSPropertyOp36
 70
     1
102
RTVSPropertyOp37
 70
     1
102
RTVSPropertyOp38
 70
     1
102
RTVSPropertyOp39
 70
     1
102
RTVSPropertyOp40
 70
     1
102
RTVSPropertyOp41
 70
     1
102
RTVSPropertyOp42
 70
     1
102
RTVSPropertyOp43
 70
     1
102
RTVSPropertyOp44
 70
     1
102
RTVSPropertyOp45
 70
     1
102
RTVSPropertyOp46
 70
     1
102
RTVSPropertyOp47
 70
     1
102
RTVSPropertyOp48
 70
     1
102
RTVSPropertyOp49
 70
     1
102
RTVSPropertyOp50
 70
     1
102
RTVSPropertyOp51
 70
     0
102
RTVSPropertyOp52
 70
     0
102
RTVSPropertyOp53
 70
     1
102
RTVSPropertyOp54
 70
     1
102
RTVSPropertyOp55
 70
     1
102
RTVSPropertyOp56
 70
     1
102
RTVSPropertyOp57
 70
     1
102
RTVSPropertyOp58
 70
     1
102
RTVSPropertyOp59
 70
     1
102
RTVSPropertyOp60
 70
     1
102
RTVSPropertyOp61
 70
     1
102
RTVSPropertyOp62
 70
     1
  0
XRECORD
  5
60A
102
{ACAD_REACTORS
330
609
102
}
330
609
100
AcDbXrecord
280
     1
102
RTVSPost2010Prop28
280
     0
102
RTVSPost2010PropOp28
 70
     1
102
RTVSPost2010Prop29
280
     1
102
RTVSPost2010PropOp29
 70
     1
102
RTVSPost2010Prop30
280
     1
102
RTVSPost2010PropOp30
 70
     1
102
RTVSPost2010Prop31
280
     0
102
RTVSPost2010PropOp31
 70
     1
102
RTVSPost2010Prop32
280
     0
102
RTVSPost2010PropOp32
 70
     1
102
RTVSPost2010Prop33
280
     0
102
RTVSPost2010PropOp33
 70
     1
102
RTVSPost2010Prop34
280
     0
102
RTVSPost2010PropOp34
 70
     1
102
RTVSPost2010Prop35
280
     0
102
RTVSPost2010PropOp35
 70
     1
102
RTVSPost2010Prop36
280
     0
102
RTVSPost2010PropOp36
 70
     1
102
RTVSPost2010Prop37
 90
       50
102
RTVSPost2010PropOp37
 70
     1
102
RTVSPost2010Prop38
140
0.0
102
RTVSPost2010PropOp38
 70
     1
102
RTVSPost2010Prop39
140
1.0
102
RTVSPost2010PropOp39
 70
     1
102
RTVSPost2010Prop40
 90
        0
102
RTVSPost2010PropOp40
 70
     1
102
RTVSPost2010Prop41ColorIndex
 90
       18
102
RTVSPost2010Prop41ColorRGB
 90
        0
102
RTVSPost2010PropOp41
 70
     1
102
RTVSPost2010Prop42
 90
       50
102
RTVSPost2010PropOp42
 70
     1
102
RTVSPost2010Prop43
 90
        3
102
RTVSPost2010PropOp43
 70
     1
102
RTVSPost2010Prop44ColorIndex
 90
        5
102
RTVSPost2010Prop44ColorRGB
 90
      255
102
RTVSPost2010PropOp44
 70
     1
102
RTVSPost2010Prop45
280
     0
102
RTVSPost2010PropOp45
 70
     1
102
RTVSPost2010Prop46
 90
       50
102
RTVSPost2010PropOp46
 70
     1
102
RTVSPost2010Prop47
 90
       50
102
RTVSPost2010PropOp47
 70
     1
102
RTVSPost2010Prop48
 90
       50
102
RTVSPost2010PropOp48
 70
     1
102
RTVSPost2010Prop49
280
     0
102
RTVSPost2010PropOp49
 70
     1
102
RTVSPost2010Prop50
 90
       50
102
RTVSPost2010PropOp50
 70
     1
102
RTVSPost2010Prop51ColorIndex
 90
      256
102
RTVSPost2010Prop51ColorRGB
 90
-16777216
102
RTVSPost2010PropOp51
 70
     0
102
RTVSPost2010Prop52
140
1.0
102
RTVSPost2010PropOp52
 70
     0
102
RTVSPost2010Prop53
 90
        2
102
RTVSPost2010PropOp53
 70
     1
102
RTVSPost2010Prop54
  1
strokes_ogs.tif
102
RTVSPost2010PropOp54
 70
     1
102
RTVSPost2010Prop55
280
     0
102
RTVSPost2010PropOp55
 70
     1
102
RTVSPost2010Prop56
140
1.0
102
RTVSPost2010PropOp56
 70
     1
102
RTVSPost2010Prop57
140
1.0
102
RTVSPost2010PropOp57
 70
     1
102
RTVSPropertyOp0
 70
     1
102
RTVSPropertyOp1
 70
     1
102
RTVSPropertyOp2
 70
     1
102
RTVSPropertyOp3
 70
     1
102
RTVSPropertyOp4
 70
     1
102
RTVSPropertyOp5
 70
     1
102
RTVSPropertyOp6
 70
     1
102
RTVSPropertyOp7
 70
     1
102
RTVSPropertyOp8
 70
     1
102
RTVSPropertyOp9
 70
     1
102
RTVSPropertyOp10
 70
     1
102
RTVSPropertyOp11
 70
     1
102
RTVSPropertyOp12
 70
     1
102
RTVSPropertyOp13
 70
     1
102
RTVSPropertyOp14
 70
     1
102
RTVSPropertyOp15
 70
     1
102
RTVSPropertyOp16
 70
     1
102
RTVSPropertyOp17
 70
     1
102
RTVSPropertyOp18
 70
     1
102
RTVSPropertyOp19
 70
     1
102
RTVSPropertyOp20
 70
     1
102
RTVSPropertyOp21
 70
     1
102
RTVSPropertyOp22
 70
     1
102
RTVSPropertyOp23
 70
     1
102
RTVSPropertyOp24
 70
     1
102
RTVSPropertyOp25
 70
     1
102
RTVSPropertyOp26
 70
     1
102
RTVSPropertyOp27
 70
     1
102
RTVSPropertyOp28
 70
     1
102
RTVSPropertyOp29
 70
     1
102
RTVSPropertyOp30
 70
     1
102
RTVSPropertyOp31
 70
     1
102
RTVSPropertyOp32
 70
     1
102
RTVSPropertyOp33
 70
     1
102
RTVSPropertyOp34
 70
     1
102
RTVSPropertyOp35
 70
     1
102
RTVSPropertyOp36
 70
     1
102
RTVSPropertyOp37
 70
     1
102
RTVSPropertyOp38
 70
     1
102
RTVSPropertyOp39
 70
     1
102
RTVSPropertyOp40
 70
     1
102
RTVSPropertyOp41
 70
     1
102
RTVSPropertyOp42
 70
     1
102
RTVSPropertyOp43
 70
     1
102
RTVSPropertyOp44
 70
     1
102
RTVSPropertyOp45
 70
     1
102
RTVSPropertyOp46
 70
     1
102
RTVSPropertyOp47
 70
     1
102
RTVSPropertyOp48
 70
     1
102
RTVSPropertyOp49
 70
     1
102
RTVSPropertyOp50
 70
     1
102
RTVSPropertyOp51
 70
     0
102
RTVSPropertyOp52
 70
     0
102
RTVSPropertyOp53
 70
     1
102
RTVSPropertyOp54
 70
     1
102
RTVSPropertyOp55
 70
     1
102
RTVSPropertyOp56
 70
     1
102
RTVSPropertyOp57
 70
     1
102
RTVSPropertyOp58
 70
     1
102
RTVSPropertyOp59
 70
     1
102
RTVSPropertyOp60
 70
     1
102
RTVSPropertyOp61
 70
     1
102
RTVSPropertyOp62
 70
     1
  0
XRECORD
  5
626
102
{ACAD_REACTORS
330
625
102
}
330
625
100
AcDbXrecord
280
     1
102
RTVSPost2010Prop28
280
     0
102
RTVSPost2010PropOp28
 70
     1
102
RTVSPost2010Prop29
280
     1
102
RTVSPost2010PropOp29
 70
     1
102
RTVSPost2010Prop30
280
     1
102
RTVSPost2010PropOp30
 70
     1
102
RTVSPost2010Prop31
280
     0
102
RTVSPost2010PropOp31
 70
     1
102
RTVSPost2010Prop32
280
     0
102
RTVSPost2010PropOp32
 70
     1
102
RTVSPost2010Prop33
280
     0
102
RTVSPost2010PropOp33
 70
     1
102
RTVSPost2010Prop34
280
     0
102
RTVSPost2010PropOp34
 70
     1
102
RTVSPost2010Prop35
280
     0
102
RTVSPost2010PropOp35
 70
     1
102
RTVSPost2010Prop36
280
     0
102
RTVSPost2010PropOp36
 70
     1
102
RTVSPost2010Prop37
 90
       50
102
RTVSPost2010PropOp37
 70
     0
102
RTVSPost2010Prop38
140
0.0
102
RTVSPost2010PropOp38
 70
     0
102
RTVSPost2010Prop39
140
1.0
102
RTVSPost2010PropOp39
 70
     0
102
RTVSPost2010Prop40
 90
        0
102
RTVSPost2010PropOp40
 70
     0
102
RTVSPost2010Prop41ColorIndex
 90
       18
102
RTVSPost2010Prop41ColorRGB
 90
        0
102
RTVSPost2010PropOp41
 70
     0
102
RTVSPost2010Prop42
 90
       50
102
RTVSPost2010PropOp42
 70
     0
102
RTVSPost2010Prop43
 90
        3
102
RTVSPost2010PropOp43
 70
     0
102
RTVSPost2010Prop44ColorIndex
 90
        5
102
RTVSPost2010Prop44ColorRGB
 90
      255
102
RTVSPost2010PropOp44
 70
     0
102
RTVSPost2010Prop45
280
     0
102
RTVSPost2010PropOp45
 70
     1
102
RTVSPost2010Prop46
 90
       50
102
RTVSPost2010PropOp46
 70
     0
102
RTVSPost2010Prop47
 90
       50
102
RTVSPost2010PropOp47
 70
     0
102
RTVSPost2010Prop48
 90
       50
102
RTVSPost2010PropOp48
 70
     0
102
RTVSPost2010Prop49
280
     0
102
RTVSPost2010PropOp49
 70
     1
102
RTVSPost2010Prop50
 90
       50
102
RTVSPost2010PropOp50
 70
     0
102
RTVSPost2010Prop51ColorIndex
 90
      256
102
RTVSPost2010Prop51ColorRGB
 90
-16777216
102
RTVSPost2010PropOp51
 70
     0
102
RTVSPost2010Prop52
140
1.0
102
RTVSPost2010PropOp52
 70
     0
102
RTVSPost2010Prop53
 90
        2
102
RTVSPost2010PropOp53
 70
     0
102
RTVSPost2010Prop54
  1
strokes_ogs.tif
102
RTVSPost2010PropOp54
 70
     0
102
RTVSPost2010Prop55
280
     0
102
RTVSPost2010PropOp55
 70
     1
102
RTVSPost2010Prop56
140
1.0
102
RTVSPost2010PropOp56
 70
     0
102
RTVSPost2010Prop57
140
1.0
102
RTVSPost2010PropOp57
 70
     0
102
RTVSPropertyOp0
 70
     0
102
RTVSPropertyOp1
 70
     0
102
RTVSPropertyOp2
 70
     0
102
RTVSPropertyOp3
 70
     0
102
RTVSPropertyOp4
 70
     0
102
RTVSPropertyOp5
 70
     0
102
RTVSPropertyOp6
 70
     0
102
RTVSPropertyOp7
 70
     0
102
RTVSPropertyOp8
 70
     0
102
RTVSPropertyOp9
 70
     0
102
RTVSPropertyOp10
 70
     0
102
RTVSPropertyOp11
 70
     0
102
RTVSPropertyOp12
 70
     0
102
RTVSPropertyOp13
 70
     0
102
RTVSPropertyOp14
 70
     2
102
RTVSPropertyOp15
 70
     0
102
RTVSPropertyOp16
 70
     0
102
RTVSPropertyOp17
 70
     0
102
RTVSPropertyOp18
 70
     0
102
RTVSPropertyOp19
 70
     0
102
RTVSPropertyOp20
 70
     0
102
RTVSPropertyOp21
 70
     0
102
RTVSPropertyOp22
 70
     0
102
RTVSPropertyOp23
 70
     0
102
RTVSPropertyOp24
 70
     0
102
RTVSPropertyOp25
 70
     0
102
RTVSPropertyOp26
 70
     0
102
RTVSPropertyOp27
 70
     0
102
RTVSPropertyOp28
 70
     1
102
RTVSPropertyOp29
 70
     1
102
RTVSPropertyOp30
 70
     1
102
RTVSPropertyOp31
 70
     1
102
RTVSPropertyOp32
 70
     1
102
RTVSPropertyOp33
 70
     1
102
RTVSPropertyOp34
 70
     1
102
RTVSPropertyOp35
 70
     1
102
RTVSPropertyOp36
 70
     1
102
RTVSPropertyOp37
 70
     0
102
RTVSPropertyOp38
 70
     0
102
RTVSPropertyOp39
 70
     0
102
RTVSPropertyOp40
 70
     0
102
RTVSPropertyOp41
 70
     0
102
RTVSPropertyOp42
 70
     0
102
RTVSPropertyOp43
 70
     0
102
RTVSPropertyOp44
 70
     0
102
RTVSPropertyOp45
 70
     1
102
RTVSPropertyOp46
 70
     0
102
RTVSPropertyOp47
 70
     0
102
RTVSPropertyOp48
 70
     0
102
RTVSPropertyOp49
 70
     1
102
RTVSPropertyOp50
 70
     0
102
RTVSPropertyOp51
 70
     0
102
RTVSPropertyOp52
 70
     0
102
RTVSPropertyOp53
 70
     0
102
RTVSPropertyOp54
 70
     0
102
RTVSPropertyOp55
 70
     1
102
RTVSPropertyOp56
 70
     0
102
RTVSPropertyOp57
 70
     0
102
RTVSPropertyOp58
 70
     0
102
RTVSPropertyOp59
 70
     0
102
RTVSPropertyOp60
 70
     0
102
RTVSPropertyOp61
 70
     0
102
RTVSPropertyOp62
 70
     0
  0
XRECORD
  5
616
102
{ACAD_REACTORS
330
615
102
}
330
615
100
AcDbXrecord
280
     1
102
RTVSPost2010Prop28
280
     0
102
RTVSPost2010PropOp28
 70
     1
102
RTVSPost2010Prop29
280
     1
102
RTVSPost2010PropOp29
 70
     1
102
RTVSPost2010Prop30
280
     1
102
RTVSPost2010PropOp30
 70
     1
102
RTVSPost2010Prop31
280
     0
102
RTVSPost2010PropOp31
 70
     1
102
RTVSPost2010Prop32
280
     0
102
RTVSPost2010PropOp32
 70
     1
102
RTVSPost2010Prop33
280
     0
102
RTVSPost2010PropOp33
 70
     1
102
RTVSPost2010Prop34
280
     0
102
RTVSPost2010PropOp34
 70
     1
102
RTVSPost2010Prop35
280
     0
102
RTVSPost2010PropOp35
 70
     1
102
RTVSPost2010Prop36
280
     0
102
RTVSPost2010PropOp36
 70
     1
102
RTVSPost2010Prop37
 90
       50
102
RTVSPost2010PropOp37
 70
     1
102
RTVSPost2010Prop38
140
0.0
102
RTVSPost2010PropOp38
 70
     1
102
RTVSPost2010Prop39
140
1.0
102
RTVSPost2010PropOp39
 70
     1
102
RTVSPost2010Prop40
 90
        0
102
RTVSPost2010PropOp40
 70
     1
102
RTVSPost2010Prop41ColorIndex
 90
       18
102
RTVSPost2010Prop41ColorRGB
 90
        0
102
RTVSPost2010PropOp41
 70
     1
102
RTVSPost2010Prop42
 90
       50
102
RTVSPost2010PropOp42
 70
     1
102
RTVSPost2010Prop43
 90
        3
102
RTVSPost2010PropOp43
 70
     1
102
RTVSPost2010Prop44ColorIndex
 90
        5
102
RTVSPost2010Prop44ColorRGB
 90
      255
102
RTVSPost2010PropOp44
 70
     1
102
RTVSPost2010Prop45
280
     0
102
RTVSPost2010PropOp45
 70
     1
102
RTVSPost2010Prop46
 90
       50
102
RTVSPost2010PropOp46
 70
     1
102
RTVSPost2010Prop47
 90
       50
102
RTVSPost2010PropOp47
 70
     1
102
RTVSPost2010Prop48
 90
       50
102
RTVSPost2010PropOp48
 70
     1
102
RTVSPost2010Prop49
280
     0
102
RTVSPost2010PropOp49
 70
     1
102
RTVSPost2010Prop50
 90
       50
102
RTVSPost2010PropOp50
 70
     1
102
RTVSPost2010Prop51ColorIndex
 90
      256
102
RTVSPost2010Prop51ColorRGB
 90
-16777216
102
RTVSPost2010PropOp51
 70
     0
102
RTVSPost2010Prop52
140
1.0
102
RTVSPost2010PropOp52
 70
     0
102
RTVSPost2010Prop53
 90
        2
102
RTVSPost2010PropOp53
 70
     1
102
RTVSPost2010Prop54
  1
strokes_ogs.tif
102
RTVSPost2010PropOp54
 70
     1
102
RTVSPost2010Prop55
280
     0
102
RTVSPost2010PropOp55
 70
     1
102
RTVSPost2010Prop56
140
1.0
102
RTVSPost2010PropOp56
 70
     1
102
RTVSPost2010Prop57
140
1.0
102
RTVSPost2010PropOp57
 70
     1
102
RTVSPropertyOp0
 70
     1
102
RTVSPropertyOp1
 70
     1
102
RTVSPropertyOp2
 70
     1
102
RTVSPropertyOp3
 70
     1
102
RTVSPropertyOp4
 70
     1
102
RTVSPropertyOp5
 70
     1
102
RTVSPropertyOp6
 70
     1
102
RTVSPropertyOp7
 70
     1
102
RTVSPropertyOp8
 70
     1
102
RTVSPropertyOp9
 70
     1
102
RTVSPropertyOp10
 70
     1
102
RTVSPropertyOp11
 70
     1
102
RTVSPropertyOp12
 70
     1
102
RTVSPropertyOp13
 70
     1
102
RTVSPropertyOp14
 70
     1
102
RTVSPropertyOp15
 70
     1
102
RTVSPropertyOp16
 70
     1
102
RTVSPropertyOp17
 70
     1
102
RTVSPropertyOp18
 70
     1
102
RTVSPropertyOp19
 70
     1
102
RTVSPropertyOp20
 70
     1
102
RTVSPropertyOp21
 70
     1
102
RTVSPropertyOp22
 70
     1
102
RTVSPropertyOp23
 70
     1
102
RTVSPropertyOp24
 70
     1
102
RTVSPropertyOp25
 70
     1
102
RTVSPropertyOp26
 70
     1
102
RTVSPropertyOp27
 70
     1
102
RTVSPropertyOp28
 70
     1
102
RTVSPropertyOp29
 70
     1
102
RTVSPropertyOp30
 70
     1
102
RTVSPropertyOp31
 70
     1
102
RTVSPropertyOp32
 70
     1
102
RTVSPropertyOp33
 70
     1
102
RTVSPropertyOp34
 70
     1
102
RTVSPropertyOp35
 70
     1
102
RTVSPropertyOp36
 70
     1
102
RTVSPropertyOp37
 70
     1
102
RTVSPropertyOp38
 70
     1
102
RTVSPropertyOp39
 70
     1
102
RTVSPropertyOp40
 70
     1
102
RTVSPropertyOp41
 70
     1
102
RTVSPropertyOp42
 70
     1
102
RTVSPropertyOp43
 70
     1
102
RTVSPropertyOp44
 70
     1
102
RTVSPropertyOp45
 70
     1
102
RTVSPropertyOp46
 70
     1
102
RTVSPropertyOp47
 70
     1
102
RTVSPropertyOp48
 70
     1
102
RTVSPropertyOp49
 70
     1
102
RTVSPropertyOp50
 70
     1
102
RTVSPropertyOp51
 70
     0
102
RTVSPropertyOp52
 70
     0
102
RTVSPropertyOp53
 70
     1
102
RTVSPropertyOp54
 70
     1
102
RTVSPropertyOp55
 70
     1
102
RTVSPropertyOp56
 70
     1
102
RTVSPropertyOp57
 70
     1
102
RTVSPropertyOp58
 70
     1
102
RTVSPropertyOp59
 70
     1
102
RTVSPropertyOp60
 70
     1
102
RTVSPropertyOp61
 70
     1
102
RTVSPropertyOp62
 70
     1
  0
XRECORD
  5
628
102
{ACAD_REACTORS
330
627
102
}
330
627
100
AcDbXrecord
280
     1
102
RTVSPost2010Prop28
280
     0
102
RTVSPost2010PropOp28
 70
     1
102
RTVSPost2010Prop29
280
     1
102
RTVSPost2010PropOp29
 70
     1
102
RTVSPost2010Prop30
280
     1
102
RTVSPost2010PropOp30
 70
     1
102
RTVSPost2010Prop31
280
     0
102
RTVSPost2010PropOp31
 70
     1
102
RTVSPost2010Prop32
280
     0
102
RTVSPost2010PropOp32
 70
     1
102
RTVSPost2010Prop33
280
     0
102
RTVSPost2010PropOp33
 70
     1
102
RTVSPost2010Prop34
280
     0
102
RTVSPost2010PropOp34
 70
     1
102
RTVSPost2010Prop35
280
     0
102
RTVSPost2010PropOp35
 70
     1
102
RTVSPost2010Prop36
280
     0
102
RTVSPost2010PropOp36
 70
     1
102
RTVSPost2010Prop37
 90
       50
102
RTVSPost2010PropOp37
 70
     0
102
RTVSPost2010Prop38
140
0.0
102
RTVSPost2010PropOp38
 70
     0
102
RTVSPost2010Prop39
140
1.0
102
RTVSPost2010PropOp39
 70
     0
102
RTVSPost2010Prop40
 90
        0
102
RTVSPost2010PropOp40
 70
     0
102
RTVSPost2010Prop41ColorIndex
 90
       18
102
RTVSPost2010Prop41ColorRGB
 90
        0
102
RTVSPost2010PropOp41
 70
     0
102
RTVSPost2010Prop42
 90
       50
102
RTVSPost2010PropOp42
 70
     0
102
RTVSPost2010Prop43
 90
        3
102
RTVSPost2010PropOp43
 70
     0
102
RTVSPost2010Prop44ColorIndex
 90
        5
102
RTVSPost2010Prop44ColorRGB
 90
      255
102
RTVSPost2010PropOp44
 70
     0
102
RTVSPost2010Prop45
280
     0
102
RTVSPost2010PropOp45
 70
     1
102
RTVSPost2010Prop46
 90
       50
102
RTVSPost2010PropOp46
 70
     0
102
RTVSPost2010Prop47
 90
       50
102
RTVSPost2010PropOp47
 70
     0
102
RTVSPost2010Prop48
 90
       50
102
RTVSPost2010PropOp48
 70
     0
102
RTVSPost2010Prop49
280
     0
102
RTVSPost2010PropOp49
 70
     1
102
RTVSPost2010Prop50
 90
       50
102
RTVSPost2010PropOp50
 70
     0
102
RTVSPost2010Prop51ColorIndex
 90
      256
102
RTVSPost2010Prop51ColorRGB
 90
-16777216
102
RTVSPost2010PropOp51
 70
     0
102
RTVSPost2010Prop52
140
1.0
102
RTVSPost2010PropOp52
 70
     0
102
RTVSPost2010Prop53
 90
        2
102
RTVSPost2010PropOp53
 70
     0
102
RTVSPost2010Prop54
  1
strokes_ogs.tif
102
RTVSPost2010PropOp54
 70
     0
102
RTVSPost2010Prop55
280
     0
102
RTVSPost2010PropOp55
 70
     1
102
RTVSPost2010Prop56
140
1.0
102
RTVSPost2010PropOp56
 70
     0
102
RTVSPost2010Prop57
140
1.0
102
RTVSPost2010PropOp57
 70
     0
102
RTVSPropertyOp0
 70
     0
102
RTVSPropertyOp1
 70
     0
102
RTVSPropertyOp2
 70
     0
102
RTVSPropertyOp3
 70
     0
102
RTVSPropertyOp4
 70
     0
102
RTVSPropertyOp5
 70
     0
102
RTVSPropertyOp6
 70
     0
102
RTVSPropertyOp7
 70
     0
102
RTVSPropertyOp8
 70
     0
102
RTVSPropertyOp9
 70
     0
102
RTVSPropertyOp10
 70
     0
102
RTVSPropertyOp11
 70
     0
102
RTVSPropertyOp12
 70
     0
102
RTVSPropertyOp13
 70
     0
102
RTVSPropertyOp14
 70
     2
102
RTVSPropertyOp15
 70
     0
102
RTVSPropertyOp16
 70
     0
102
RTVSPropertyOp17
 70
     0
102
RTVSPropertyOp18
 70
     0
102
RTVSPropertyOp19
 70
     0
102
RTVSPropertyOp20
 70
     0
102
RTVSPropertyOp21
 70
     0
102
RTVSPropertyOp22
 70
     0
102
RTVSPropertyOp23
 70
     0
102
RTVSPropertyOp24
 70
     0
102
RTVSPropertyOp25
 70
     0
102
RTVSPropertyOp26
 70
     0
102
RTVSPropertyOp27
 70
     0
102
RTVSPropertyOp28
 70
     1
102
RTVSPropertyOp29
 70
     1
102
RTVSPropertyOp30
 70
     1
102
RTVSPropertyOp31
 70
     1
102
RTVSPropertyOp32
 70
     1
102
RTVSPropertyOp33
 70
     1
102
RTVSPropertyOp34
 70
     1
102
RTVSPropertyOp35
 70
     1
102
RTVSPropertyOp36
 70
     1
102
RTVSPropertyOp37
 70
     0
102
RTVSPropertyOp38
 70
     0
102
RTVSPropertyOp39
 70
     0
102
RTVSPropertyOp40
 70
     0
102
RTVSPropertyOp41
 70
     0
102
RTVSPropertyOp42
 70
     0
102
RTVSPropertyOp43
 70
     0
102
RTVSPropertyOp44
 70
     0
102
RTVSPropertyOp45
 70
     1
102
RTVSPropertyOp46
 70
     0
102
RTVSPropertyOp47
 70
     0
102
RTVSPropertyOp48
 70
     0
102
RTVSPropertyOp49
 70
     1
102
RTVSPropertyOp50
 70
     0
102
RTVSPropertyOp51
 70
     0
102
RTVSPropertyOp52
 70
     0
102
RTVSPropertyOp53
 70
     0
102
RTVSPropertyOp54
 70
     0
102
RTVSPropertyOp55
 70
     1
102
RTVSPropertyOp56
 70
     0
102
RTVSPropertyOp57
 70
     0
102
RTVSPropertyOp58
 70
     0
102
RTVSPropertyOp59
 70
     0
102
RTVSPropertyOp60
 70
     0
102
RTVSPropertyOp61
 70
     0
102
RTVSPropertyOp62
 70
     0
  0
XRECORD
  5
60E
102
{ACAD_REACTORS
330
60D
102
}
330
60D
100
AcDbXrecord
280
     1
102
RTVSPost2010Prop28
280
     0
102
RTVSPost2010PropOp28
 70
     1
102
RTVSPost2010Prop29
280
     1
102
RTVSPost2010PropOp29
 70
     1
102
RTVSPost2010Prop30
280
     1
102
RTVSPost2010PropOp30
 70
     1
102
RTVSPost2010Prop31
280
     0
102
RTVSPost2010PropOp31
 70
     1
102
RTVSPost2010Prop32
280
     0
102
RTVSPost2010PropOp32
 70
     1
102
RTVSPost2010Prop33
280
     0
102
RTVSPost2010PropOp33
 70
     1
102
RTVSPost2010Prop34
280
     0
102
RTVSPost2010PropOp34
 70
     1
102
RTVSPost2010Prop35
280
     0
102
RTVSPost2010PropOp35
 70
     1
102
RTVSPost2010Prop36
280
     0
102
RTVSPost2010PropOp36
 70
     1
102
RTVSPost2010Prop37
 90
       50
102
RTVSPost2010PropOp37
 70
     1
102
RTVSPost2010Prop38
140
0.0
102
RTVSPost2010PropOp38
 70
     1
102
RTVSPost2010Prop39
140
1.0
102
RTVSPost2010PropOp39
 70
     1
102
RTVSPost2010Prop40
 90
        0
102
RTVSPost2010PropOp40
 70
     1
102
RTVSPost2010Prop41ColorIndex
 90
       18
102
RTVSPost2010Prop41ColorRGB
 90
        0
102
RTVSPost2010PropOp41
 70
     1
102
RTVSPost2010Prop42
 90
       50
102
RTVSPost2010PropOp42
 70
     1
102
RTVSPost2010Prop43
 90
        3
102
RTVSPost2010PropOp43
 70
     1
102
RTVSPost2010Prop44ColorIndex
 90
        5
102
RTVSPost2010Prop44ColorRGB
 90
      255
102
RTVSPost2010PropOp44
 70
     1
102
RTVSPost2010Prop45
280
     0
102
RTVSPost2010PropOp45
 70
     1
102
RTVSPost2010Prop46
 90
       50
102
RTVSPost2010PropOp46
 70
     1
102
RTVSPost2010Prop47
 90
       50
102
RTVSPost2010PropOp47
 70
     1
102
RTVSPost2010Prop48
 90
       50
102
RTVSPost2010PropOp48
 70
     1
102
RTVSPost2010Prop49
280
     0
102
RTVSPost2010PropOp49
 70
     1
102
RTVSPost2010Prop50
 90
       50
102
RTVSPost2010PropOp50
 70
     1
102
RTVSPost2010Prop51ColorIndex
 90
      256
102
RTVSPost2010Prop51ColorRGB
 90
-16777216
102
RTVSPost2010PropOp51
 70
     0
102
RTVSPost2010Prop52
140
1.0
102
RTVSPost2010PropOp52
 70
     0
102
RTVSPost2010Prop53
 90
        2
102
RTVSPost2010PropOp53
 70
     1
102
RTVSPost2010Prop54
  1
strokes_ogs.tif
102
RTVSPost2010PropOp54
 70
     1
102
RTVSPost2010Prop55
280
     0
102
RTVSPost2010PropOp55
 70
     1
102
RTVSPost2010Prop56
140
1.0
102
RTVSPost2010PropOp56
 70
     1
102
RTVSPost2010Prop57
140
1.0
102
RTVSPost2010PropOp57
 70
     1
102
RTVSPropertyOp0
 70
     1
102
RTVSPropertyOp1
 70
     1
102
RTVSPropertyOp2
 70
     1
102
RTVSPropertyOp3
 70
     1
102
RTVSPropertyOp4
 70
     1
102
RTVSPropertyOp5
 70
     1
102
RTVSPropertyOp6
 70
     1
102
RTVSPropertyOp7
 70
     1
102
RTVSPropertyOp8
 70
     1
102
RTVSPropertyOp9
 70
     1
102
RTVSPropertyOp10
 70
     1
102
RTVSPropertyOp11
 70
     1
102
RTVSPropertyOp12
 70
     1
102
RTVSPropertyOp13
 70
     1
102
RTVSPropertyOp14
 70
     1
102
RTVSPropertyOp15
 70
     1
102
RTVSPropertyOp16
 70
     1
102
RTVSPropertyOp17
 70
     1
102
RTVSPropertyOp18
 70
     1
102
RTVSPropertyOp19
 70
     1
102
RTVSPropertyOp20
 70
     1
102
RTVSPropertyOp21
 70
     1
102
RTVSPropertyOp22
 70
     1
102
RTVSPropertyOp23
 70
     1
102
RTVSPropertyOp24
 70
     1
102
RTVSPropertyOp25
 70
     1
102
RTVSPropertyOp26
 70
     1
102
RTVSPropertyOp27
 70
     1
102
RTVSPropertyOp28
 70
     1
102
RTVSPropertyOp29
 70
     1
102
RTVSPropertyOp30
 70
     1
102
RTVSPropertyOp31
 70
     1
102
RTVSPropertyOp32
 70
     1
102
RTVSPropertyOp33
 70
     1
102
RTVSPropertyOp34
 70
     1
102
RTVSPropertyOp35
 70
     1
102
RTVSPropertyOp36
 70
     1
102
RTVSPropertyOp37
 70
     1
102
RTVSPropertyOp38
 70
     1
102
RTVSPropertyOp39
 70
     1
102
RTVSPropertyOp40
 70
     1
102
RTVSPropertyOp41
 70
     1
102
RTVSPropertyOp42
 70
     1
102
RTVSPropertyOp43
 70
     1
102
RTVSPropertyOp44
 70
     1
102
RTVSPropertyOp45
 70
     1
102
RTVSPropertyOp46
 70
     1
102
RTVSPropertyOp47
 70
     1
102
RTVSPropertyOp48
 70
     1
102
RTVSPropertyOp49
 70
     1
102
RTVSPropertyOp50
 70
     1
102
RTVSPropertyOp51
 70
     0
102
RTVSPropertyOp52
 70
     0
102
RTVSPropertyOp53
 70
     1
102
RTVSPropertyOp54
 70
     1
102
RTVSPropertyOp55
 70
     1
102
RTVSPropertyOp56
 70
     1
102
RTVSPropertyOp57
 70
     1
102
RTVSPropertyOp58
 70
     1
102
RTVSPropertyOp59
 70
     1
102
RTVSPropertyOp60
 70
     1
102
RTVSPropertyOp61
 70
     1
102
RTVSPropertyOp62
 70
     1
  0
XRECORD
  5
624
102
{ACAD_REACTORS
330
623
102
}
330
623
100
AcDbXrecord
280
     1
102
RTVSPost2010Prop28
280
     0
102
RTVSPost2010PropOp28
 70
     1
102
RTVSPost2010Prop29
280
     1
102
RTVSPost2010PropOp29
 70
     1
102
RTVSPost2010Prop30
280
     1
102
RTVSPost2010PropOp30
 70
     1
102
RTVSPost2010Prop31
280
     0
102
RTVSPost2010PropOp31
 70
     1
102
RTVSPost2010Prop32
280
     0
102
RTVSPost2010PropOp32
 70
     1
102
RTVSPost2010Prop33
280
     0
102
RTVSPost2010PropOp33
 70
     1
102
RTVSPost2010Prop34
280
     0
102
RTVSPost2010PropOp34
 70
     1
102
RTVSPost2010Prop35
280
     0
102
RTVSPost2010PropOp35
 70
     1
102
RTVSPost2010Prop36
280
     0
102
RTVSPost2010PropOp36
 70
     1
102
RTVSPost2010Prop37
 90
       50
102
RTVSPost2010PropOp37
 70
     1
102
RTVSPost2010Prop38
140
0.0
102
RTVSPost2010PropOp38
 70
     1
102
RTVSPost2010Prop39
140
1.0
102
RTVSPost2010PropOp39
 70
     1
102
RTVSPost2010Prop40
 90
        0
102
RTVSPost2010PropOp40
 70
     1
102
RTVSPost2010Prop41ColorIndex
 90
       18
102
RTVSPost2010Prop41ColorRGB
 90
        0
102
RTVSPost2010PropOp41
 70
     1
102
RTVSPost2010Prop42
 90
       50
102
RTVSPost2010PropOp42
 70
     1
102
RTVSPost2010Prop43
 90
        3
102
RTVSPost2010PropOp43
 70
     1
102
RTVSPost2010Prop44ColorIndex
 90
        5
102
RTVSPost2010Prop44ColorRGB
 90
      255
102
RTVSPost2010PropOp44
 70
     1
102
RTVSPost2010Prop45
280
     0
102
RTVSPost2010PropOp45
 70
     1
102
RTVSPost2010Prop46
 90
       50
102
RTVSPost2010PropOp46
 70
     1
102
RTVSPost2010Prop47
 90
       50
102
RTVSPost2010PropOp47
 70
     1
102
RTVSPost2010Prop48
 90
       50
102
RTVSPost2010PropOp48
 70
     1
102
RTVSPost2010Prop49
280
     0
102
RTVSPost2010PropOp49
 70
     1
102
RTVSPost2010Prop50
 90
       50
102
RTVSPost2010PropOp50
 70
     1
102
RTVSPost2010Prop51ColorIndex
 90
      256
102
RTVSPost2010Prop51ColorRGB
 90
-16777216
102
RTVSPost2010PropOp51
 70
     0
102
RTVSPost2010Prop52
140
1.0
102
RTVSPost2010PropOp52
 70
     0
102
RTVSPost2010Prop53
 90
        2
102
RTVSPost2010PropOp53
 70
     1
102
RTVSPost2010Prop54
  1
strokes_ogs.tif
102
RTVSPost2010PropOp54
 70
     1
102
RTVSPost2010Prop55
280
     0
102
RTVSPost2010PropOp55
 70
     1
102
RTVSPost2010Prop56
140
1.0
102
RTVSPost2010PropOp56
 70
     1
102
RTVSPost2010Prop57
140
1.0
102
RTVSPost2010PropOp57
 70
     1
102
RTVSPropertyOp0
 70
     1
102
RTVSPropertyOp1
 70
     1
102
RTVSPropertyOp2
 70
     1
102
RTVSPropertyOp3
 70
     1
102
RTVSPropertyOp4
 70
     1
102
RTVSPropertyOp5
 70
     1
102
RTVSPropertyOp6
 70
     1
102
RTVSPropertyOp7
 70
     1
102
RTVSPropertyOp8
 70
     1
102
RTVSPropertyOp9
 70
     1
102
RTVSPropertyOp10
 70
     1
102
RTVSPropertyOp11
 70
     1
102
RTVSPropertyOp12
 70
     1
102
RTVSPropertyOp13
 70
     1
102
RTVSPropertyOp14
 70
     1
102
RTVSPropertyOp15
 70
     1
102
RTVSPropertyOp16
 70
     1
102
RTVSPropertyOp17
 70
     1
102
RTVSPropertyOp18
 70
     1
102
RTVSPropertyOp19
 70
     1
102
RTVSPropertyOp20
 70
     1
102
RTVSPropertyOp21
 70
     1
102
RTVSPropertyOp22
 70
     1
102
RTVSPropertyOp23
 70
     1
102
RTVSPropertyOp24
 70
     1
102
RTVSPropertyOp25
 70
     1
102
RTVSPropertyOp26
 70
     1
102
RTVSPropertyOp27
 70
     1
102
RTVSPropertyOp28
 70
     1
102
RTVSPropertyOp29
 70
     1
102
RTVSPropertyOp30
 70
     1
102
RTVSPropertyOp31
 70
     1
102
RTVSPropertyOp32
 70
     1
102
RTVSPropertyOp33
 70
     1
102
RTVSPropertyOp34
 70
     1
102
RTVSPropertyOp35
 70
     1
102
RTVSPropertyOp36
 70
     1
102
RTVSPropertyOp37
 70
     1
102
RTVSPropertyOp38
 70
     1
102
RTVSPropertyOp39
 70
     1
102
RTVSPropertyOp40
 70
     1
102
RTVSPropertyOp41
 70
     1
102
RTVSPropertyOp42
 70
     1
102
RTVSPropertyOp43
 70
     1
102
RTVSPropertyOp44
 70
     1
102
RTVSPropertyOp45
 70
     1
102
RTVSPropertyOp46
 70
     1
102
RTVSPropertyOp47
 70
     1
102
RTVSPropertyOp48
 70
     1
102
RTVSPropertyOp49
 70
     1
102
RTVSPropertyOp50
 70
     1
102
RTVSPropertyOp51
 70
     0
102
RTVSPropertyOp52
 70
     0
102
RTVSPropertyOp53
 70
     1
102
RTVSPropertyOp54
 70
     1
102
RTVSPropertyOp55
 70
     1
102
RTVSPropertyOp56
 70
     1
102
RTVSPropertyOp57
 70
     1
102
RTVSPropertyOp58
 70
     1
102
RTVSPropertyOp59
 70
     1
102
RTVSPropertyOp60
 70
     1
102
RTVSPropertyOp61
 70
     1
102
RTVSPropertyOp62
 70
     1
  0
XRECORD
  5
622
102
{ACAD_REACTORS
330
621
102
}
330
621
100
AcDbXrecord
280
     1
102
RTVSPost2010Prop28
280
     0
102
RTVSPost2010PropOp28
 70
     1
102
RTVSPost2010Prop29
280
     1
102
RTVSPost2010PropOp29
 70
     1
102
RTVSPost2010Prop30
280
     1
102
RTVSPost2010PropOp30
 70
     1
102
RTVSPost2010Prop31
280
     0
102
RTVSPost2010PropOp31
 70
     1
102
RTVSPost2010Prop32
280
     0
102
RTVSPost2010PropOp32
 70
     1
102
RTVSPost2010Prop33
280
     0
102
RTVSPost2010PropOp33
 70
     1
102
RTVSPost2010Prop34
280
     0
102
RTVSPost2010PropOp34
 70
     1
102
RTVSPost2010Prop35
280
     0
102
RTVSPost2010PropOp35
 70
     1
102
RTVSPost2010Prop36
280
     0
102
RTVSPost2010PropOp36
 70
     1
102
RTVSPost2010Prop37
 90
       50
102
RTVSPost2010PropOp37
 70
     1
102
RTVSPost2010Prop38
140
0.0
102
RTVSPost2010PropOp38
 70
     1
102
RTVSPost2010Prop39
140
1.0
102
RTVSPost2010PropOp39
 70
     1
102
RTVSPost2010Prop40
 90
        0
102
RTVSPost2010PropOp40
 70
     1
102
RTVSPost2010Prop41ColorIndex
 90
       18
102
RTVSPost2010Prop41ColorRGB
 90
        0
102
RTVSPost2010PropOp41
 70
     1
102
RTVSPost2010Prop42
 90
       50
102
RTVSPost2010PropOp42
 70
     1
102
RTVSPost2010Prop43
 90
        3
102
RTVSPost2010PropOp43
 70
     1
102
RTVSPost2010Prop44ColorIndex
 90
        5
102
RTVSPost2010Prop44ColorRGB
 90
      255
102
RTVSPost2010PropOp44
 70
     1
102
RTVSPost2010Prop45
280
     0
102
RTVSPost2010PropOp45
 70
     1
102
RTVSPost2010Prop46
 90
       50
102
RTVSPost2010PropOp46
 70
     1
102
RTVSPost2010Prop47
 90
       50
102
RTVSPost2010PropOp47
 70
     1
102
RTVSPost2010Prop48
 90
       50
102
RTVSPost2010PropOp48
 70
     1
102
RTVSPost2010Prop49
280
     0
102
RTVSPost2010PropOp49
 70
     1
102
RTVSPost2010Prop50
 90
       50
102
RTVSPost2010PropOp50
 70
     1
102
RTVSPost2010Prop51ColorIndex
 90
      256
102
RTVSPost2010Prop51ColorRGB
 90
-16777216
102
RTVSPost2010PropOp51
 70
     0
102
RTVSPost2010Prop52
140
1.0
102
RTVSPost2010PropOp52
 70
     0
102
RTVSPost2010Prop53
 90
        2
102
RTVSPost2010PropOp53
 70
     1
102
RTVSPost2010Prop54
  1
strokes_ogs.tif
102
RTVSPost2010PropOp54
 70
     1
102
RTVSPost2010Prop55
280
     0
102
RTVSPost2010PropOp55
 70
     1
102
RTVSPost2010Prop56
140
1.0
102
RTVSPost2010PropOp56
 70
     1
102
RTVSPost2010Prop57
140
1.0
102
RTVSPost2010PropOp57
 70
     1
102
RTVSPropertyOp0
 70
     1
102
RTVSPropertyOp1
 70
     1
102
RTVSPropertyOp2
 70
     1
102
RTVSPropertyOp3
 70
     1
102
RTVSPropertyOp4
 70
     1
102
RTVSPropertyOp5
 70
     1
102
RTVSPropertyOp6
 70
     1
102
RTVSPropertyOp7
 70
     1
102
RTVSPropertyOp8
 70
     1
102
RTVSPropertyOp9
 70
     1
102
RTVSPropertyOp10
 70
     1
102
RTVSPropertyOp11
 70
     1
102
RTVSPropertyOp12
 70
     1
102
RTVSPropertyOp13
 70
     1
102
RTVSPropertyOp14
 70
     1
102
RTVSPropertyOp15
 70
     1
102
RTVSPropertyOp16
 70
     1
102
RTVSPropertyOp17
 70
     1
102
RTVSPropertyOp18
 70
     1
102
RTVSPropertyOp19
 70
     1
102
RTVSPropertyOp20
 70
     1
102
RTVSPropertyOp21
 70
     1
102
RTVSPropertyOp22
 70
     1
102
RTVSPropertyOp23
 70
     1
102
RTVSPropertyOp24
 70
     1
102
RTVSPropertyOp25
 70
     1
102
RTVSPropertyOp26
 70
     1
102
RTVSPropertyOp27
 70
     1
102
RTVSPropertyOp28
 70
     1
102
RTVSPropertyOp29
 70
     1
102
RTVSPropertyOp30
 70
     1
102
RTVSPropertyOp31
 70
     1
102
RTVSPropertyOp32
 70
     1
102
RTVSPropertyOp33
 70
     1
102
RTVSPropertyOp34
 70
     1
102
RTVSPropertyOp35
 70
     1
102
RTVSPropertyOp36
 70
     1
102
RTVSPropertyOp37
 70
     1
102
RTVSPropertyOp38
 70
     1
102
RTVSPropertyOp39
 70
     1
102
RTVSPropertyOp40
 70
     1
102
RTVSPropertyOp41
 70
     1
102
RTVSPropertyOp42
 70
     1
102
RTVSPropertyOp43
 70
     1
102
RTVSPropertyOp44
 70
     1
102
RTVSPropertyOp45
 70
     1
102
RTVSPropertyOp46
 70
     1
102
RTVSPropertyOp47
 70
     1
102
RTVSPropertyOp48
 70
     1
102
RTVSPropertyOp49
 70
     1
102
RTVSPropertyOp50
 70
     1
102
RTVSPropertyOp51
 70
     0
102
RTVSPropertyOp52
 70
     0
102
RTVSPropertyOp53
 70
     1
102
RTVSPropertyOp54
 70
     1
102
RTVSPropertyOp55
 70
     1
102
RTVSPropertyOp56
 70
     1
102
RTVSPropertyOp57
 70
     1
102
RTVSPropertyOp58
 70
     1
102
RTVSPropertyOp59
 70
     1
102
RTVSPropertyOp60
 70
     1
102
RTVSPropertyOp61
 70
     1
102
RTVSPropertyOp62
 70
     1
  0
XRECORD
  5
61C
102
{ACAD_REACTORS
330
61B
102
}
330
61B
100
AcDbXrecord
280
     1
102
RTVSPost2010Prop28
280
     0
102
RTVSPost2010PropOp28
 70
     1
102
RTVSPost2010Prop29
280
     1
102
RTVSPost2010PropOp29
 70
     1
102
RTVSPost2010Prop30
280
     1
102
RTVSPost2010PropOp30
 70
     1
102
RTVSPost2010Prop31
280
     0
102
RTVSPost2010PropOp31
 70
     1
102
RTVSPost2010Prop32
280
     0
102
RTVSPost2010PropOp32
 70
     1
102
RTVSPost2010Prop33
280
     0
102
RTVSPost2010PropOp33
 70
     1
102
RTVSPost2010Prop34
280
     0
102
RTVSPost2010PropOp34
 70
     1
102
RTVSPost2010Prop35
280
     0
102
RTVSPost2010PropOp35
 70
     1
102
RTVSPost2010Prop36
280
     0
102
RTVSPost2010PropOp36
 70
     1
102
RTVSPost2010Prop37
 90
       50
102
RTVSPost2010PropOp37
 70
     1
102
RTVSPost2010Prop38
140
0.0
102
RTVSPost2010PropOp38
 70
     1
102
RTVSPost2010Prop39
140
1.0
102
RTVSPost2010PropOp39
 70
     1
102
RTVSPost2010Prop40
 90
        0
102
RTVSPost2010PropOp40
 70
     1
102
RTVSPost2010Prop41ColorIndex
 90
       18
102
RTVSPost2010Prop41ColorRGB
 90
        0
102
RTVSPost2010PropOp41
 70
     1
102
RTVSPost2010Prop42
 90
       50
102
RTVSPost2010PropOp42
 70
     1
102
RTVSPost2010Prop43
 90
        3
102
RTVSPost2010PropOp43
 70
     1
102
RTVSPost2010Prop44ColorIndex
 90
        5
102
RTVSPost2010Prop44ColorRGB
 90
      255
102
RTVSPost2010PropOp44
 70
     1
102
RTVSPost2010Prop45
280
     0
102
RTVSPost2010PropOp45
 70
     1
102
RTVSPost2010Prop46
 90
       50
102
RTVSPost2010PropOp46
 70
     1
102
RTVSPost2010Prop47
 90
       50
102
RTVSPost2010PropOp47
 70
     1
102
RTVSPost2010Prop48
 90
       50
102
RTVSPost2010PropOp48
 70
     1
102
RTVSPost2010Prop49
280
     0
102
RTVSPost2010PropOp49
 70
     1
102
RTVSPost2010Prop50
 90
       50
102
RTVSPost2010PropOp50
 70
     1
102
RTVSPost2010Prop51ColorIndex
 90
      256
102
RTVSPost2010Prop51ColorRGB
 90
-16777216
102
RTVSPost2010PropOp51
 70
     0
102
RTVSPost2010Prop52
140
1.0
102
RTVSPost2010PropOp52
 70
     0
102
RTVSPost2010Prop53
 90
        2
102
RTVSPost2010PropOp53
 70
     1
102
RTVSPost2010Prop54
  1
strokes_ogs.tif
102
RTVSPost2010PropOp54
 70
     1
102
RTVSPost2010Prop55
280
     0
102
RTVSPost2010PropOp55
 70
     1
102
RTVSPost2010Prop56
140
1.0
102
RTVSPost2010PropOp56
 70
     1
102
RTVSPost2010Prop57
140
1.0
102
RTVSPost2010PropOp57
 70
     1
102
RTVSPropertyOp0
 70
     1
102
RTVSPropertyOp1
 70
     1
102
RTVSPropertyOp2
 70
     1
102
RTVSPropertyOp3
 70
     1
102
RTVSPropertyOp4
 70
     1
102
RTVSPropertyOp5
 70
     1
102
RTVSPropertyOp6
 70
     1
102
RTVSPropertyOp7
 70
     1
102
RTVSPropertyOp8
 70
     1
102
RTVSPropertyOp9
 70
     1
102
RTVSPropertyOp10
 70
     1
102
RTVSPropertyOp11
 70
     1
102
RTVSPropertyOp12
 70
     1
102
RTVSPropertyOp13
 70
     1
102
RTVSPropertyOp14
 70
     1
102
RTVSPropertyOp15
 70
     1
102
RTVSPropertyOp16
 70
     1
102
RTVSPropertyOp17
 70
     1
102
RTVSPropertyOp18
 70
     1
102
RTVSPropertyOp19
 70
     1
102
RTVSPropertyOp20
 70
     1
102
RTVSPropertyOp21
 70
     1
102
RTVSPropertyOp22
 70
     1
102
RTVSPropertyOp23
 70
     1
102
RTVSPropertyOp24
 70
     1
102
RTVSPropertyOp25
 70
     1
102
RTVSPropertyOp26
 70
     1
102
RTVSPropertyOp27
 70
     1
102
RTVSPropertyOp28
 70
     1
102
RTVSPropertyOp29
 70
     1
102
RTVSPropertyOp30
 70
     1
102
RTVSPropertyOp31
 70
     1
102
RTVSPropertyOp32
 70
     1
102
RTVSPropertyOp33
 70
     1
102
RTVSPropertyOp34
 70
     1
102
RTVSPropertyOp35
 70
     1
102
RTVSPropertyOp36
 70
     1
102
RTVSPropertyOp37
 70
     1
102
RTVSPropertyOp38
 70
     1
102
RTVSPropertyOp39
 70
     1
102
RTVSPropertyOp40
 70
     1
102
RTVSPropertyOp41
 70
     1
102
RTVSPropertyOp42
 70
     1
102
RTVSPropertyOp43
 70
     1
102
RTVSPropertyOp44
 70
     1
102
RTVSPropertyOp45
 70
     1
102
RTVSPropertyOp46
 70
     1
102
RTVSPropertyOp47
 70
     1
102
RTVSPropertyOp48
 70
     1
102
RTVSPropertyOp49
 70
     1
102
RTVSPropertyOp50
 70
     1
102
RTVSPropertyOp51
 70
     0
102
RTVSPropertyOp52
 70
     0
102
RTVSPropertyOp53
 70
     1
102
RTVSPropertyOp54
 70
     1
102
RTVSPropertyOp55
 70
     1
102
RTVSPropertyOp56
 70
     1
102
RTVSPropertyOp57
 70
     1
102
RTVSPropertyOp58
 70
     1
102
RTVSPropertyOp59
 70
     1
102
RTVSPropertyOp60
 70
     1
102
RTVSPropertyOp61
 70
     1
102
RTVSPropertyOp62
 70
     1
  0
XRECORD
  5
61E
102
{ACAD_REACTORS
330
61D
102
}
330
61D
100
AcDbXrecord
280
     1
102
RTVSPost2010Prop28
280
     0
102
RTVSPost2010PropOp28
 70
     1
102
RTVSPost2010Prop29
280
     1
102
RTVSPost2010PropOp29
 70
     1
102
RTVSPost2010Prop30
280
     1
102
RTVSPost2010PropOp30
 70
     1
102
RTVSPost2010Prop31
280
     0
102
RTVSPost2010PropOp31
 70
     1
102
RTVSPost2010Prop32
280
     0
102
RTVSPost2010PropOp32
 70
     1
102
RTVSPost2010Prop33
280
     0
102
RTVSPost2010PropOp33
 70
     1
102
RTVSPost2010Prop34
280
     0
102
RTVSPost2010PropOp34
 70
     1
102
RTVSPost2010Prop35
280
     0
102
RTVSPost2010PropOp35
 70
     1
102
RTVSPost2010Prop36
280
     0
102
RTVSPost2010PropOp36
 70
     1
102
RTVSPost2010Prop37
 90
       50
102
RTVSPost2010PropOp37
 70
     1
102
RTVSPost2010Prop38
140
0.0
102
RTVSPost2010PropOp38
 70
     1
102
RTVSPost2010Prop39
140
1.0
102
RTVSPost2010PropOp39
 70
     1
102
RTVSPost2010Prop40
 90
        0
102
RTVSPost2010PropOp40
 70
     1
102
RTVSPost2010Prop41ColorIndex
 90
       18
102
RTVSPost2010Prop41ColorRGB
 90
        0
102
RTVSPost2010PropOp41
 70
     1
102
RTVSPost2010Prop42
 90
       50
102
RTVSPost2010PropOp42
 70
     1
102
RTVSPost2010Prop43
 90
        3
102
RTVSPost2010PropOp43
 70
     1
102
RTVSPost2010Prop44ColorIndex
 90
        5
102
RTVSPost2010Prop44ColorRGB
 90
      255
102
RTVSPost2010PropOp44
 70
     1
102
RTVSPost2010Prop45
280
     0
102
RTVSPost2010PropOp45
 70
     1
102
RTVSPost2010Prop46
 90
       50
102
RTVSPost2010PropOp46
 70
     1
102
RTVSPost2010Prop47
 90
       50
102
RTVSPost2010PropOp47
 70
     1
102
RTVSPost2010Prop48
 90
       50
102
RTVSPost2010PropOp48
 70
     1
102
RTVSPost2010Prop49
280
     0
102
RTVSPost2010PropOp49
 70
     1
102
RTVSPost2010Prop50
 90
       50
102
RTVSPost2010PropOp50
 70
     1
102
RTVSPost2010Prop51ColorIndex
 90
      256
102
RTVSPost2010Prop51ColorRGB
 90
-16777216
102
RTVSPost2010PropOp51
 70
     0
102
RTVSPost2010Prop52
140
1.0
102
RTVSPost2010PropOp52
 70
     0
102
RTVSPost2010Prop53
 90
        2
102
RTVSPost2010PropOp53
 70
     1
102
RTVSPost2010Prop54
  1
strokes_ogs.tif
102
RTVSPost2010PropOp54
 70
     1
102
RTVSPost2010Prop55
280
     0
102
RTVSPost2010PropOp55
 70
     1
102
RTVSPost2010Prop56
140
1.0
102
RTVSPost2010PropOp56
 70
     1
102
RTVSPost2010Prop57
140
1.0
102
RTVSPost2010PropOp57
 70
     1
102
RTVSPropertyOp0
 70
     1
102
RTVSPropertyOp1
 70
     1
102
RTVSPropertyOp2
 70
     1
102
RTVSPropertyOp3
 70
     1
102
RTVSPropertyOp4
 70
     1
102
RTVSPropertyOp5
 70
     1
102
RTVSPropertyOp6
 70
     1
102
RTVSPropertyOp7
 70
     1
102
RTVSPropertyOp8
 70
     1
102
RTVSPropertyOp9
 70
     1
102
RTVSPropertyOp10
 70
     1
102
RTVSPropertyOp11
 70
     1
102
RTVSPropertyOp12
 70
     1
102
RTVSPropertyOp13
 70
     1
102
RTVSPropertyOp14
 70
     1
102
RTVSPropertyOp15
 70
     1
102
RTVSPropertyOp16
 70
     1
102
RTVSPropertyOp17
 70
     1
102
RTVSPropertyOp18
 70
     1
102
RTVSPropertyOp19
 70
     1
102
RTVSPropertyOp20
 70
     1
102
RTVSPropertyOp21
 70
     1
102
RTVSPropertyOp22
 70
     1
102
RTVSPropertyOp23
 70
     1
102
RTVSPropertyOp24
 70
     1
102
RTVSPropertyOp25
 70
     1
102
RTVSPropertyOp26
 70
     1
102
RTVSPropertyOp27
 70
     1
102
RTVSPropertyOp28
 70
     1
102
RTVSPropertyOp29
 70
     1
102
RTVSPropertyOp30
 70
     1
102
RTVSPropertyOp31
 70
     1
102
RTVSPropertyOp32
 70
     1
102
RTVSPropertyOp33
 70
     1
102
RTVSPropertyOp34
 70
     1
102
RTVSPropertyOp35
 70
     1
102
RTVSPropertyOp36
 70
     1
102
RTVSPropertyOp37
 70
     1
102
RTVSPropertyOp38
 70
     1
102
RTVSPropertyOp39
 70
     1
102
RTVSPropertyOp40
 70
     1
102
RTVSPropertyOp41
 70
     1
102
RTVSPropertyOp42
 70
     1
102
RTVSPropertyOp43
 70
     1
102
RTVSPropertyOp44
 70
     1
102
RTVSPropertyOp45
 70
     1
102
RTVSPropertyOp46
 70
     1
102
RTVSPropertyOp47
 70
     1
102
RTVSPropertyOp48
 70
     1
102
RTVSPropertyOp49
 70
     1
102
RTVSPropertyOp50
 70
     1
102
RTVSPropertyOp51
 70
     0
102
RTVSPropertyOp52
 70
     0
102
RTVSPropertyOp53
 70
     1
102
RTVSPropertyOp54
 70
     1
102
RTVSPropertyOp55
 70
     1
102
RTVSPropertyOp56
 70
     1
102
RTVSPropertyOp57
 70
     1
102
RTVSPropertyOp58
 70
     1
102
RTVSPropertyOp59
 70
     1
102
RTVSPropertyOp60
 70
     1
102
RTVSPropertyOp61
 70
     1
102
RTVSPropertyOp62
 70
     1
  0
XRECORD
  5
614
102
{ACAD_REACTORS
330
613
102
}
330
613
100
AcDbXrecord
280
     1
102
RTVSPost2010Prop28
280
     0
102
RTVSPost2010PropOp28
 70
     1
102
RTVSPost2010Prop29
280
     1
102
RTVSPost2010PropOp29
 70
     1
102
RTVSPost2010Prop30
280
     1
102
RTVSPost2010PropOp30
 70
     1
102
RTVSPost2010Prop31
280
     0
102
RTVSPost2010PropOp31
 70
     1
102
RTVSPost2010Prop32
280
     0
102
RTVSPost2010PropOp32
 70
     1
102
RTVSPost2010Prop33
280
     0
102
RTVSPost2010PropOp33
 70
     1
102
RTVSPost2010Prop34
280
     0
102
RTVSPost2010PropOp34
 70
     1
102
RTVSPost2010Prop35
280
     0
102
RTVSPost2010PropOp35
 70
     1
102
RTVSPost2010Prop36
280
     0
102
RTVSPost2010PropOp36
 70
     1
102
RTVSPost2010Prop37
 90
       50
102
RTVSPost2010PropOp37
 70
     1
102
RTVSPost2010Prop38
140
0.0
102
RTVSPost2010PropOp38
 70
     1
102
RTVSPost2010Prop39
140
1.0
102
RTVSPost2010PropOp39
 70
     1
102
RTVSPost2010Prop40
 90
        0
102
RTVSPost2010PropOp40
 70
     1
102
RTVSPost2010Prop41ColorIndex
 90
       18
102
RTVSPost2010Prop41ColorRGB
 90
        0
102
RTVSPost2010PropOp41
 70
     1
102
RTVSPost2010Prop42
 90
       50
102
RTVSPost2010PropOp42
 70
     1
102
RTVSPost2010Prop43
 90
        3
102
RTVSPost2010PropOp43
 70
     1
102
RTVSPost2010Prop44ColorIndex
 90
        5
102
RTVSPost2010Prop44ColorRGB
 90
      255
102
RTVSPost2010PropOp44
 70
     1
102
RTVSPost2010Prop45
280
     0
102
RTVSPost2010PropOp45
 70
     1
102
RTVSPost2010Prop46
 90
       50
102
RTVSPost2010PropOp46
 70
     1
102
RTVSPost2010Prop47
 90
       50
102
RTVSPost2010PropOp47
 70
     1
102
RTVSPost2010Prop48
 90
       50
102
RTVSPost2010PropOp48
 70
     1
102
RTVSPost2010Prop49
280
     0
102
RTVSPost2010PropOp49
 70
     1
102
RTVSPost2010Prop50
 90
       50
102
RTVSPost2010PropOp50
 70
     1
102
RTVSPost2010Prop51ColorIndex
 90
      256
102
RTVSPost2010Prop51ColorRGB
 90
-16777216
102
RTVSPost2010PropOp51
 70
     0
102
RTVSPost2010Prop52
140
1.0
102
RTVSPost2010PropOp52
 70
     0
102
RTVSPost2010Prop53
 90
        2
102
RTVSPost2010PropOp53
 70
     1
102
RTVSPost2010Prop54
  1
strokes_ogs.tif
102
RTVSPost2010PropOp54
 70
     1
102
RTVSPost2010Prop55
280
     0
102
RTVSPost2010PropOp55
 70
     1
102
RTVSPost2010Prop56
140
1.0
102
RTVSPost2010PropOp56
 70
     1
102
RTVSPost2010Prop57
140
1.0
102
RTVSPost2010PropOp57
 70
     1
102
RTVSPropertyOp0
 70
     1
102
RTVSPropertyOp1
 70
     1
102
RTVSPropertyOp2
 70
     1
102
RTVSPropertyOp3
 70
     1
102
RTVSPropertyOp4
 70
     1
102
RTVSPropertyOp5
 70
     1
102
RTVSPropertyOp6
 70
     1
102
RTVSPropertyOp7
 70
     1
102
RTVSPropertyOp8
 70
     1
102
RTVSPropertyOp9
 70
     1
102
RTVSPropertyOp10
 70
     1
102
RTVSPropertyOp11
 70
     1
102
RTVSPropertyOp12
 70
     1
102
RTVSPropertyOp13
 70
     1
102
RTVSPropertyOp14
 70
     1
102
RTVSPropertyOp15
 70
     1
102
RTVSPropertyOp16
 70
     1
102
RTVSPropertyOp17
 70
     1
102
RTVSPropertyOp18
 70
     1
102
RTVSPropertyOp19
 70
     1
102
RTVSPropertyOp20
 70
     1
102
RTVSPropertyOp21
 70
     1
102
RTVSPropertyOp22
 70
     1
102
RTVSPropertyOp23
 70
     1
102
RTVSPropertyOp24
 70
     1
102
RTVSPropertyOp25
 70
     1
102
RTVSPropertyOp26
 70
     1
102
RTVSPropertyOp27
 70
     1
102
RTVSPropertyOp28
 70
     1
102
RTVSPropertyOp29
 70
     1
102
RTVSPropertyOp30
 70
     1
102
RTVSPropertyOp31
 70
     1
102
RTVSPropertyOp32
 70
     1
102
RTVSPropertyOp33
 70
     1
102
RTVSPropertyOp34
 70
     1
102
RTVSPropertyOp35
 70
     1
102
RTVSPropertyOp36
 70
     1
102
RTVSPropertyOp37
 70
     1
102
RTVSPropertyOp38
 70
     1
102
RTVSPropertyOp39
 70
     1
102
RTVSPropertyOp40
 70
     1
102
RTVSPropertyOp41
 70
     1
102
RTVSPropertyOp42
 70
     1
102
RTVSPropertyOp43
 70
     1
102
RTVSPropertyOp44
 70
     1
102
RTVSPropertyOp45
 70
     1
102
RTVSPropertyOp46
 70
     1
102
RTVSPropertyOp47
 70
     1
102
RTVSPropertyOp48
 70
     1
102
RTVSPropertyOp49
 70
     1
102
RTVSPropertyOp50
 70
     1
102
RTVSPropertyOp51
 70
     0
102
RTVSPropertyOp52
 70
     0
102
RTVSPropertyOp53
 70
     1
102
RTVSPropertyOp54
 70
     1
102
RTVSPropertyOp55
 70
     1
102
RTVSPropertyOp56
 70
     1
102
RTVSPropertyOp57
 70
     1
102
RTVSPropertyOp58
 70
     1
102
RTVSPropertyOp59
 70
     1
102
RTVSPropertyOp60
 70
     1
102
RTVSPropertyOp61
 70
     1
102
RTVSPropertyOp62
 70
     1
  0
XRECORD
  5
608
102
{ACAD_REACTORS
330
607
102
}
330
607
100
AcDbXrecord
280
     1
102
RTVSPost2010Prop28
280
     0
102
RTVSPost2010PropOp28
 70
     1
102
RTVSPost2010Prop29
280
     1
102
RTVSPost2010PropOp29
 70
     1
102
RTVSPost2010Prop30
280
     1
102
RTVSPost2010PropOp30
 70
     1
102
RTVSPost2010Prop31
280
     0
102
RTVSPost2010PropOp31
 70
     1
102
RTVSPost2010Prop32
280
     0
102
RTVSPost2010PropOp32
 70
     1
102
RTVSPost2010Prop33
280
     0
102
RTVSPost2010PropOp33
 70
     1
102
RTVSPost2010Prop34
280
     0
102
RTVSPost2010PropOp34
 70
     1
102
RTVSPost2010Prop35
280
     0
102
RTVSPost2010PropOp35
 70
     1
102
RTVSPost2010Prop36
280
     0
102
RTVSPost2010PropOp36
 70
     1
102
RTVSPost2010Prop37
 90
       50
102
RTVSPost2010PropOp37
 70
     1
102
RTVSPost2010Prop38
140
0.0
102
RTVSPost2010PropOp38
 70
     1
102
RTVSPost2010Prop39
140
1.0
102
RTVSPost2010PropOp39
 70
     1
102
RTVSPost2010Prop40
 90
        0
102
RTVSPost2010PropOp40
 70
     1
102
RTVSPost2010Prop41ColorIndex
 90
       18
102
RTVSPost2010Prop41ColorRGB
 90
        0
102
RTVSPost2010PropOp41
 70
     1
102
RTVSPost2010Prop42
 90
       50
102
RTVSPost2010PropOp42
 70
     1
102
RTVSPost2010Prop43
 90
        3
102
RTVSPost2010PropOp43
 70
     1
102
RTVSPost2010Prop44ColorIndex
 90
        5
102
RTVSPost2010Prop44ColorRGB
 90
      255
102
RTVSPost2010PropOp44
 70
     1
102
RTVSPost2010Prop45
280
     0
102
RTVSPost2010PropOp45
 70
     1
102
RTVSPost2010Prop46
 90
       50
102
RTVSPost2010PropOp46
 70
     1
102
RTVSPost2010Prop47
 90
       50
102
RTVSPost2010PropOp47
 70
     1
102
RTVSPost2010Prop48
 90
       50
102
RTVSPost2010PropOp48
 70
     1
102
RTVSPost2010Prop49
280
     0
102
RTVSPost2010PropOp49
 70
     1
102
RTVSPost2010Prop50
 90
       50
102
RTVSPost2010PropOp50
 70
     1
102
RTVSPost2010Prop51ColorIndex
 90
      256
102
RTVSPost2010Prop51ColorRGB
 90
-16777216
102
RTVSPost2010PropOp51
 70
     0
102
RTVSPost2010Prop52
140
1.0
102
RTVSPost2010PropOp52
 70
     0
102
RTVSPost2010Prop53
 90
        2
102
RTVSPost2010PropOp53
 70
     1
102
RTVSPost2010Prop54
  1
strokes_ogs.tif
102
RTVSPost2010PropOp54
 70
     1
102
RTVSPost2010Prop55
280
     0
102
RTVSPost2010PropOp55
 70
     1
102
RTVSPost2010Prop56
140
1.0
102
RTVSPost2010PropOp56
 70
     1
102
RTVSPost2010Prop57
140
1.0
102
RTVSPost2010PropOp57
 70
     1
102
RTVSPropertyOp0
 70
     1
102
RTVSPropertyOp1
 70
     1
102
RTVSPropertyOp2
 70
     1
102
RTVSPropertyOp3
 70
     1
102
RTVSPropertyOp4
 70
     1
102
RTVSPropertyOp5
 70
     1
102
RTVSPropertyOp6
 70
     1
102
RTVSPropertyOp7
 70
     1
102
RTVSPropertyOp8
 70
     1
102
RTVSPropertyOp9
 70
     1
102
RTVSPropertyOp10
 70
     1
102
RTVSPropertyOp11
 70
     1
102
RTVSPropertyOp12
 70
     1
102
RTVSPropertyOp13
 70
     1
102
RTVSPropertyOp14
 70
     1
102
RTVSPropertyOp15
 70
     1
102
RTVSPropertyOp16
 70
     1
102
RTVSPropertyOp17
 70
     1
102
RTVSPropertyOp18
 70
     1
102
RTVSPropertyOp19
 70
     1
102
RTVSPropertyOp20
 70
     1
102
RTVSPropertyOp21
 70
     1
102
RTVSPropertyOp22
 70
     1
102
RTVSPropertyOp23
 70
     1
102
RTVSPropertyOp24
 70
     1
102
RTVSPropertyOp25
 70
     1
102
RTVSPropertyOp26
 70
     1
102
RTVSPropertyOp27
 70
     1
102
RTVSPropertyOp28
 70
     1
102
RTVSPropertyOp29
 70
     1
102
RTVSPropertyOp30
 70
     1
102
RTVSPropertyOp31
 70
     1
102
RTVSPropertyOp32
 70
     1
102
RTVSPropertyOp33
 70
     1
102
RTVSPropertyOp34
 70
     1
102
RTVSPropertyOp35
 70
     1
102
RTVSPropertyOp36
 70
     1
102
RTVSPropertyOp37
 70
     1
102
RTVSPropertyOp38
 70
     1
102
RTVSPropertyOp39
 70
     1
102
RTVSPropertyOp40
 70
     1
102
RTVSPropertyOp41
 70
     1
102
RTVSPropertyOp42
 70
     1
102
RTVSPropertyOp43
 70
     1
102
RTVSPropertyOp44
 70
     1
102
RTVSPropertyOp45
 70
     1
102
RTVSPropertyOp46
 70
     1
102
RTVSPropertyOp47
 70
     1
102
RTVSPropertyOp48
 70
     1
102
RTVSPropertyOp49
 70
     1
102
RTVSPropertyOp50
 70
     1
102
RTVSPropertyOp51
 70
     0
102
RTVSPropertyOp52
 70
     0
102
RTVSPropertyOp53
 70
     1
102
RTVSPropertyOp54
 70
     1
102
RTVSPropertyOp55
 70
     1
102
RTVSPropertyOp56
 70
     1
102
RTVSPropertyOp57
 70
     1
102
RTVSPropertyOp58
 70
     1
102
RTVSPropertyOp59
 70
     1
102
RTVSPropertyOp60
 70
     1
102
RTVSPropertyOp61
 70
     1
102
RTVSPropertyOp62
 70
     1
  0
XRECORD
  5
620
102
{ACAD_REACTORS
330
61F
102
}
330
61F
100
AcDbXrecord
280
     1
102
RTVSPost2010Prop28
280
     0
102
RTVSPost2010PropOp28
 70
     1
102
RTVSPost2010Prop29
280
     1
102
RTVSPost2010PropOp29
 70
     1
102
RTVSPost2010Prop30
280
     1
102
RTVSPost2010PropOp30
 70
     1
102
RTVSPost2010Prop31
280
     0
102
RTVSPost2010PropOp31
 70
     1
102
RTVSPost2010Prop32
280
     0
102
RTVSPost2010PropOp32
 70
     1
102
RTVSPost2010Prop33
280
     0
102
RTVSPost2010PropOp33
 70
     1
102
RTVSPost2010Prop34
280
     0
102
RTVSPost2010PropOp34
 70
     1
102
RTVSPost2010Prop35
280
     0
102
RTVSPost2010PropOp35
 70
     1
102
RTVSPost2010Prop36
280
     0
102
RTVSPost2010PropOp36
 70
     1
102
RTVSPost2010Prop37
 90
       50
102
RTVSPost2010PropOp37
 70
     1
102
RTVSPost2010Prop38
140
0.0
102
RTVSPost2010PropOp38
 70
     1
102
RTVSPost2010Prop39
140
1.0
102
RTVSPost2010PropOp39
 70
     1
102
RTVSPost2010Prop40
 90
        0
102
RTVSPost2010PropOp40
 70
     1
102
RTVSPost2010Prop41ColorIndex
 90
       18
102
RTVSPost2010Prop41ColorRGB
 90
        0
102
RTVSPost2010PropOp41
 70
     1
102
RTVSPost2010Prop42
 90
       50
102
RTVSPost2010PropOp42
 70
     1
102
RTVSPost2010Prop43
 90
        3
102
RTVSPost2010PropOp43
 70
     1
102
RTVSPost2010Prop44ColorIndex
 90
        5
102
RTVSPost2010Prop44ColorRGB
 90
      255
102
RTVSPost2010PropOp44
 70
     1
102
RTVSPost2010Prop45
280
     0
102
RTVSPost2010PropOp45
 70
     1
102
RTVSPost2010Prop46
 90
       50
102
RTVSPost2010PropOp46
 70
     1
102
RTVSPost2010Prop47
 90
       50
102
RTVSPost2010PropOp47
 70
     1
102
RTVSPost2010Prop48
 90
       50
102
RTVSPost2010PropOp48
 70
     1
102
RTVSPost2010Prop49
280
     0
102
RTVSPost2010PropOp49
 70
     1
102
RTVSPost2010Prop50
 90
       50
102
RTVSPost2010PropOp50
 70
     1
102
RTVSPost2010Prop51ColorIndex
 90
      256
102
RTVSPost2010Prop51ColorRGB
 90
-16777216
102
RTVSPost2010PropOp51
 70
     0
102
RTVSPost2010Prop52
140
1.0
102
RTVSPost2010PropOp52
 70
     0
102
RTVSPost2010Prop53
 90
        2
102
RTVSPost2010PropOp53
 70
     1
102
RTVSPost2010Prop54
  1
strokes_ogs.tif
102
RTVSPost2010PropOp54
 70
     1
102
RTVSPost2010Prop55
280
     0
102
RTVSPost2010PropOp55
 70
     1
102
RTVSPost2010Prop56
140
1.0
102
RTVSPost2010PropOp56
 70
     1
102
RTVSPost2010Prop57
140
1.0
102
RTVSPost2010PropOp57
 70
     1
102
RTVSPropertyOp0
 70
     1
102
RTVSPropertyOp1
 70
     1
102
RTVSPropertyOp2
 70
     1
102
RTVSPropertyOp3
 70
     1
102
RTVSPropertyOp4
 70
     1
102
RTVSPropertyOp5
 70
     1
102
RTVSPropertyOp6
 70
     1
102
RTVSPropertyOp7
 70
     1
102
RTVSPropertyOp8
 70
     1
102
RTVSPropertyOp9
 70
     1
102
RTVSPropertyOp10
 70
     1
102
RTVSPropertyOp11
 70
     1
102
RTVSPropertyOp12
 70
     1
102
RTVSPropertyOp13
 70
     1
102
RTVSPropertyOp14
 70
     1
102
RTVSPropertyOp15
 70
     1
102
RTVSPropertyOp16
 70
     1
102
RTVSPropertyOp17
 70
     1
102
RTVSPropertyOp18
 70
     1
102
RTVSPropertyOp19
 70
     1
102
RTVSPropertyOp20
 70
     1
102
RTVSPropertyOp21
 70
     1
102
RTVSPropertyOp22
 70
     1
102
RTVSPropertyOp23
 70
     1
102
RTVSPropertyOp24
 70
     1
102
RTVSPropertyOp25
 70
     1
102
RTVSPropertyOp26
 70
     1
102
RTVSPropertyOp27
 70
     1
102
RTVSPropertyOp28
 70
     1
102
RTVSPropertyOp29
 70
     1
102
RTVSPropertyOp30
 70
     1
102
RTVSPropertyOp31
 70
     1
102
RTVSPropertyOp32
 70
     1
102
RTVSPropertyOp33
 70
     1
102
RTVSPropertyOp34
 70
     1
102
RTVSPropertyOp35
 70
     1
102
RTVSPropertyOp36
 70
     1
102
RTVSPropertyOp37
 70
     1
102
RTVSPropertyOp38
 70
     1
102
RTVSPropertyOp39
 70
     1
102
RTVSPropertyOp40
 70
     1
102
RTVSPropertyOp41
 70
     1
102
RTVSPropertyOp42
 70
     1
102
RTVSPropertyOp43
 70
     1
102
RTVSPropertyOp44
 70
     1
102
RTVSPropertyOp45
 70
     1
102
RTVSPropertyOp46
 70
     1
102
RTVSPropertyOp47
 70
     1
102
RTVSPropertyOp48
 70
     1
102
RTVSPropertyOp49
 70
     1
102
RTVSPropertyOp50
 70
     1
102
RTVSPropertyOp51
 70
     0
102
RTVSPropertyOp52
 70
     0
102
RTVSPropertyOp53
 70
     1
102
RTVSPropertyOp54
 70
     1
102
RTVSPropertyOp55
 70
     1
102
RTVSPropertyOp56
 70
     1
102
RTVSPropertyOp57
 70
     1
102
RTVSPropertyOp58
 70
     1
102
RTVSPropertyOp59
 70
     1
102
RTVSPropertyOp60
 70
     1
102
RTVSPropertyOp61
 70
     1
102
RTVSPropertyOp62
 70
     1
  0
ENDSEC
  0
EOF
