  0
SECTION
  2
HEADER
  9
$ACADVER
  1
AC1015
  9
$ACADMAINTVER
 70
     6
  9
$DWGCODEPAGE
  3
ANSI_932
  9
$INSBASE
 10
0.0
 20
0.0
 30
0.0
  9
$EXTMIN
 10
0.0
 20
0.0
 30
0.0
  9
$EXTMAX
 10
1188.0
 20
840.0
 30
0.0
  9
$LIMMIN
 10
0.0
 20
0.0
  9
$LIMMAX
 10
1188.0
 20
840.0
  9
$ORTHOMODE
 70
     0
  9
$REGENMODE
 70
     1
  9
$FILLMODE
 70
     1
  9
$QTEXTMODE
 70
     0
  9
$MIRRTEXT
 70
     1
  9
$LTSCALE
 40
4.0
  9
$ATTMODE
 70
     1
  9
$TEXTSIZE
 40
2.5
  9
$TRACEWID
 40
1.0
  9
$TEXTSTYLE
  7
Standard
  9
$CLAYER
  8
0
  9
$CELTYPE
  6
ByLayer
  9
$CECOLOR
 62
   256
  9
$CELTSCALE
 40
1.0
  9
$DISPSILH
 70
     0
  9
$DIMSCALE
 40
1.0
  9
$DIMASZ
 40
2.5
  9
$DIMEXO
 40
0.625
  9
$DIMDLI
 40
3.75
  9
$DIMRND
 40
0.0
  9
$DIMDLE
 40
0.0
  9
$DIMEXE
 40
1.25
  9
$DIMTP
 40
0.0
  9
$DIMTM
 40
0.0
  9
$DIMTXT
 40
2.5
  9
$DIMCEN
 40
2.5
  9
$DIMTSZ
 40
0.0
  9
$DIMTOL
 70
     0
  9
$DIMLIM
 70
     0
  9
$DIMTIH
 70
     0
  9
$DIMTOH
 70
     0
  9
$DIMSE1
 70
     0
  9
$DIMSE2
 70
     0
  9
$DIMTAD
 70
     1
  9
$DIMZIN
 70
     8
  9
$DIMBLK
  1

  9
$DIMASO
 70
     1
  9
$DIMSHO
 70
     1
  9
$DIMPOST
  1

  9
$DIMAPOST
  1

  9
$DIMALT
 70
     0
  9
$DIMALTD
 70
     3
  9
$DIMALTF
 40
0.03937007874016
  9
$DIMLFAC
 40
1.0
  9
$DIMTOFL
 70
     1
  9
$DIMTVP
 40
0.0
  9
$DIMTIX
 70
     0
  9
$DIMSOXD
 70
     0
  9
$DIMSAH
 70
     0
  9
$DIMBLK1
  1

  9
$DIMBLK2
  1

  9
$DIMSTYLE
  2
ISO-25
  9
$DIMCLRD
 70
     0
  9
$DIMCLRE
 70
     0
  9
$DIMCLRT
 70
     0
  9
$DIMTFAC
 40
1.0
  9
$DIMGAP
 40
0.625
  9
$DIMJUST
 70
     0
  9
$DIMSD1
 70
     0
  9
$DIMSD2
 70
     0
  9
$DIMTOLJ
 70
     0
  9
$DIMTZIN
 70
     8
  9
$DIMALTZ
 70
     0
  9
$DIMALTTZ
 70
     0
  9
$DIMUPT
 70
     0
  9
$DIMDEC
 70
     2
  9
$DIMTDEC
 70
     2
  9
$DIMALTU
 70
     2
  9
$DIMALTTD
 70
     3
  9
$DIMTXSTY
  7
Standard
  9
$DIMAUNIT
 70
     0
  9
$DIMADEC
 70
     0
  9
$DIMALTRND
 40
0.0
  9
$DIMAZIN
 70
     0
  9
$DIMDSEP
 70
    46
  9
$DIMATFIT
 70
     3
  9
$DIMFRAC
 70
     0
  9
$DIMLDRBLK
  1

  9
$DIMLUNIT
 70
     2
  9
$DIMLWD
 70
    -2
  9
$DIMLWE
 70
    -2
  9
$DIMTMOVE
 70
     0
  9
$LUNITS
 70
     2
  9
$LUPREC
 70
     4
  9
$SKETCHINC
 40
1.0
  9
$FILLETRAD
 40
10.0
  9
$AUNITS
 70
     0
  9
$AUPREC
 70
     0
  9
$MENU
  1
.
  9
$ELEVATION
 40
0.0
  9
$PELEVATION
 40
0.0
  9
$THICKNESS
 40
0.0
  9
$LIMCHECK
 70
     0
  9
$CHAMFERA
 40
10.0
  9
$CHAMFERB
 40
10.0
  9
$CHAMFERC
 40
20.0
  9
$CHAMFERD
 40
0.0
  9
$SKPOLY
 70
     0
  9
$TDCREATE
 40
2457071.000000
  9
$TDUCREATE
 40
0.000000000
  9
$TDUPDATE
 40
2457071.000000
  9
$TDUUPDATE
 40
2457071.000000
  9
$TDINDWG
 40
0.0
  9
$TDUSRTIMER
 40
0.0
  9
$USRTIMER
 70
     1
  9
$ANGBASE
 50
0.0
  9
$ANGDIR
 70
     0
  9
$PDMODE
 70
     0
  9
$PDSIZE
 40
0.0
  9
$PLINEWID
 40
0.0
  9
$SPLFRAME
 70
     0
  9
$SPLINETYPE
 70
     6
  9
$SPLINESEGS
 70
     8
  9
$HANDSEED
  5
0369
  9
$SURFTAB1
 70
     6
  9
$SURFTAB2
 70
     6
  9
$SURFTYPE
 70
     6
  9
$SURFU
 70
     6
  9
$SURFV
 70
     6
  9
$UCSBASE
  2

  9
$UCSNAME
  2

  9
$UCSORG
 10
0.0
 20
0.0
 30
0.0
  9
$UCSXDIR
 10
1.0
 20
0.0
 30
0.0
  9
$UCSYDIR
 10
0.0
 20
1.0
 30
0.0
  9
$UCSORTHOREF
  2

  9
$UCSORTHOVIEW
 70
     0
  9
$UCSORGTOP
 10
0.0
 20
0.0
 30
0.0
  9
$UCSORGBOTTOM
 10
0.0
 20
0.0
 30
0.0
  9
$UCSORGLEFT
 10
0.0
 20
0.0
 30
0.0
  9
$UCSORGRIGHT
 10
0.0
 20
0.0
 30
0.0
  9
$UCSORGFRONT
 10
0.0
 20
0.0
 30
0.0
  9
$UCSORGBACK
 10
0.0
 20
0.0
 30
0.0
  9
$PUCSBASE
  2

  9
$PUCSNAME
  2

  9
$PUCSORG
 10
0.0
 20
0.0
 30
0.0
  9
$PUCSXDIR
 10
1.0
 20
0.0
 30
0.0
  9
$PUCSYDIR
 10
0.0
 20
1.0
 30
0.0
  9
$PUCSORTHOREF
  2

  9
$PUCSORTHOVIEW
 70
     0
  9
$PUCSORGTOP
 10
0.0
 20
0.0
 30
0.0
  9
$PUCSORGBOTTOM
 10
0.0
 20
0.0
 30
0.0
  9
$PUCSORGLEFT
 10
0.0
 20
0.0
 30
0.0
  9
$PUCSORGRIGHT
 10
0.0
 20
0.0
 30
0.0
  9
$PUCSORGFRONT
 10
0.0
 20
0.0
 30
0.0
  9
$PUCSORGBACK
 10
0.0
 20
0.0
 30
0.0
  9
$USERI1
 70
     0
  9
$USERI2
 70
     0
  9
$USERI3
 70
     0
  9
$USERI4
 70
     0
  9
$USERI5
 70
     0
  9
$USERR1
 40
0.0
  9
$USERR2
 40
0.0
  9
$USERR3
 40
0.0
  9
$USERR4
 40
0.0
  9
$USERR5
 40
0.0
  9
$WORLDVIEW
 70
     1
  9
$SHADEDGE
 70
     3
  9
$SHADEDIF
 70
    70
  9
$TILEMODE
 70
     1
  9
$MAXACTVP
 70
    64
  9
$PINSBASE
 10
0.0
 20
0.0
 30
0.0
  9
$PLIMCHECK
 70
     0
  9
$PEXTMIN
 10
1.000000E+20
 20
1.000000E+20
 30
1.000000E+20
  9
$PEXTMAX
 10
-1.000000E+20
 20
-1.000000E+20
 30
-1.000000E+20
  9
$PLIMMIN
 10
0.0
 20
0.0
  9
$PLIMMAX
 10
0.0
 20
0.0
  9
$UNITMODE
 70
     0
  9
$VISRETAIN
 70
     0
  9
$PLINEGEN
 70
     0
  9
$PSLTSCALE
 70
     1
  9
$TREEDEPTH
 70
  3020
  9
$CMLSTYLE
  2
STANDARD
  9
$CMLJUST
 70
     0
  9
$CMLSCALE
 40
20.0
  9
$PROXYGRAPHICS
 70
     1
  9
$MEASUREMENT
 70
     1
  9
$CELWEIGHT
370
    -1
  9
$ENDCAPS
280
     0
  9
$JOINSTYLE
280
     0
  9
$LWDISPLAY
290
     0
  9
$INSUNITS
 70
     4
  9
$HYPERLINKBASE
  1

  9
$STYLESHEET
  1

  9
$XEDIT
290
     1
  9
$CEPSNTYPE
380
     0
  9
$PSTYLEMODE
290
     1
  9
$FINGERPRINTGUID
  2
{711AC5C3-F934-A0F5-548E-8F6E5A704C4E}
  9
$VERSIONGUID
  2
{B1E3C3EE-7A65-E5CC-4CDF-DFE2448D505F}
  9
$EXTNAMES
290
     1
  9
$PSVPSCALE
 40
0.0
  0
ENDSEC
  0
SECTION
  2
CLASSES
  0
ENDSEC
  0
SECTION
  2
TABLES
  0
TABLE
  2
VPORT
  5
8
330
0
100
AcDbSymbolTable
 70
     3
  0
VPORT
  5
29
330
8
100
AcDbSymbolTableRecord
100
AcDbViewportTableRecord
  2
*Active
 70
     0
 10
0.0
 20
0.0
 11
1.0
 21
1.0
 12
594.0
 22
420.0
 13
0.0
 23
0.0
 14
10.0
 24
10.0
 15
0.0
 25
0.0
 16
0.0
 26
0.0
 36
1.0
 17
0.0
 27
0.0
 37
0.0
 40
840.0
 41
1.414285714
 42
50.0
 43
0.0
 44
0.0
 50
0.0
 51
0.0
 71
     0
 72
  1000
 73
     1
 74
     3
 75
     0
 76
     0
 77
     0
 78
     0
281
     0
 65
     0
110
0.0
120
0.0
130
0.0
111
1.0
121
0.0
131
0.0
112
0.0
122
1.0
132
0.0
 79
     0
146
0.0
  0
ENDTAB
  0
TABLE
  2
LTYPE
  5
5
330
0
100
AcDbSymbolTable
 70
     6
  0
LTYPE
  5
14
330
5
100
AcDbSymbolTableRecord
100
AcDbLinetypeTableRecord
  2
ByBlock
 70
     0
  3

 72
    65
 73
     0
 40
0.0
  0
LTYPE
  5
15
330
5
100
AcDbSymbolTableRecord
100
AcDbLinetypeTableRecord
  2
ByLayer
 70
     0
  3

 72
    65
 73
     0
 40
0.0
  0
LTYPE
  5
16
330
5
100
AcDbSymbolTableRecord
100
AcDbLinetypeTableRecord
  2
Continuous
 70
     0
  3
Solid line
 72
    65
 73
     0
 40
0.0
  0
LTYPE
  5
EB
330
5
100
AcDbSymbolTableRecord
100
AcDbLinetypeTableRecord
  2
LTYPE1
 70
     0
  3
HIDDEN
 72
    65
 73
     2
 40
2.0
 49
1.2
 74
     0
 49
-0.8
 74
     0
  0
LTYPE
  5
FA
330
5
100
AcDbSymbolTableRecord
100
AcDbLinetypeTableRecord
  2
LTYPE2
 70
     0
  3
PHANTOM
 72
    65
 73
     6
 40
12.0
 49
9.0
 74
     0
 49
-0.6
 74
     0
 49
0.6
 74
     0
 49
-0.6
 74
     0
 49
0.6
 74
     0
 49
-0.6
 74
     0
  0
LTYPE
  5
18A
330
5
100
AcDbSymbolTableRecord
100
AcDbLinetypeTableRecord
  2
LTYPE3
 70
     0
  3
CENTER
 72
    65
 73
     4
 40
12.0
 49
8.4
 74
     0
 49
-1.2
 74
     0
 49
1.2
 74
     0
 49
-1.2
 74
     0
  0
ENDTAB
  0
TABLE
  2
LAYER
  5
2
330
0
100
AcDbSymbolTable
 70
   128
  0
LAYER
  5
10
330
2
100
AcDbSymbolTableRecord
100
AcDbLayerTableRecord
  2
0
 70
     0
 62
     7
  6
Continuous
290
     1
370
    -3
390
F
  0
LAYER
  5
2A
330
2
100
AcDbSymbolTableRecord
100
AcDbLayerTableRecord
  2
2
 70
     0
 62
     7
  6
Continuous
290
     1
370
    -3
390
F
  0
LAYER
  5
2B
330
2
100
AcDbSymbolTableRecord
100
AcDbLayerTableRecord
  2
3
 70
     0
 62
     7
  6
Continuous
290
     1
370
    -3
390
F
  0
LAYER
  5
2C
330
2
100
AcDbSymbolTableRecord
100
AcDbLayerTableRecord
  2
4
 70
     0
 62
     7
  6
Continuous
290
     1
370
    -3
390
F
  0
LAYER
  5
2D
330
2
100
AcDbSymbolTableRecord
100
AcDbLayerTableRecord
  2
5
 70
     0
 62
     7
  6
Continuous
290
     1
370
    -3
390
F
  0
LAYER
  5
2E
330
2
100
AcDbSymbolTableRecord
100
AcDbLayerTableRecord
  2
6
 70
     0
 62
     7
  6
Continuous
290
     1
370
    -3
390
F
  0
LAYER
  5
2F
330
2
100
AcDbSymbolTableRecord
100
AcDbLayerTableRecord
  2
7
 70
     0
 62
     7
  6
Continuous
290
     1
370
    -3
390
F
  0
LAYER
  5
30
330
2
100
AcDbSymbolTableRecord
100
AcDbLayerTableRecord
  2
8
 70
     0
 62
     7
  6
Continuous
290
     1
370
    -3
390
F
  0
LAYER
  5
31
330
2
100
AcDbSymbolTableRecord
100
AcDbLayerTableRecord
  2
9
 70
     0
 62
     7
  6
Continuous
290
     1
370
    -3
390
F
  0
LAYER
  5
32
330
2
100
AcDbSymbolTableRecord
100
AcDbLayerTableRecord
  2
10
 70
     0
 62
     7
  6
Continuous
290
     1
370
    -3
390
F
  0
LAYER
  5
33
330
2
100
AcDbSymbolTableRecord
100
AcDbLayerTableRecord
  2
11
 70
     0
 62
     7
  6
Continuous
290
     1
370
    -3
390
F
  0
LAYER
  5
34
330
2
100
AcDbSymbolTableRecord
100
AcDbLayerTableRecord
  2
12
 70
     0
 62
     7
  6
Continuous
290
     1
370
    -3
390
F
  0
LAYER
  5
35
330
2
100
AcDbSymbolTableRecord
100
AcDbLayerTableRecord
  2
13
 70
     0
 62
     7
  6
Continuous
290
     1
370
    -3
390
F
  0
LAYER
  5
36
330
2
100
AcDbSymbolTableRecord
100
AcDbLayerTableRecord
  2
14
 70
     0
 62
     7
  6
Continuous
290
     1
370
    -3
390
F
  0
LAYER
  5
37
330
2
100
AcDbSymbolTableRecord
100
AcDbLayerTableRecord
  2
15
 70
     0
 62
     7
  6
Continuous
290
     1
370
    -3
390
F
  0
LAYER
  5
38
330
2
100
AcDbSymbolTableRecord
100
AcDbLayerTableRecord
  2
16
 70
     0
 62
     7
  6
Continuous
290
     1
370
    -3
390
F
  0
LAYER
  5
39
330
2
100
AcDbSymbolTableRecord
100
AcDbLayerTableRecord
  2
17
 70
     0
 62
     7
  6
Continuous
290
     1
370
    -3
390
F
  0
LAYER
  5
3A
330
2
100
AcDbSymbolTableRecord
100
AcDbLayerTableRecord
  2
18
 70
     0
 62
     7
  6
Continuous
290
     1
370
    -3
390
F
  0
LAYER
  5
3B
330
2
100
AcDbSymbolTableRecord
100
AcDbLayerTableRecord
  2
19
 70
     0
 62
     7
  6
Continuous
290
     1
370
    -3
390
F
  0
LAYER
  5
3C
330
2
100
AcDbSymbolTableRecord
100
AcDbLayerTableRecord
  2
20
 70
     0
 62
     7
  6
Continuous
290
     1
370
    -3
390
F
  0
LAYER
  5
3D
330
2
100
AcDbSymbolTableRecord
100
AcDbLayerTableRecord
  2
21
 70
     0
 62
     7
  6
Continuous
290
     1
370
    -3
390
F
  0
LAYER
  5
3E
330
2
100
AcDbSymbolTableRecord
100
AcDbLayerTableRecord
  2
22
 70
     0
 62
     7
  6
Continuous
290
     1
370
    -3
390
F
  0
LAYER
  5
3F
330
2
100
AcDbSymbolTableRecord
100
AcDbLayerTableRecord
  2
23
 70
     0
 62
     7
  6
Continuous
290
     1
370
    -3
390
F
  0
LAYER
  5
40
330
2
100
AcDbSymbolTableRecord
100
AcDbLayerTableRecord
  2
24
 70
     0
 62
     7
  6
Continuous
290
     1
370
    -3
390
F
  0
LAYER
  5
41
330
2
100
AcDbSymbolTableRecord
100
AcDbLayerTableRecord
  2
25
 70
     0
 62
     7
  6
Continuous
290
     1
370
    -3
390
F
  0
LAYER
  5
42
330
2
100
AcDbSymbolTableRecord
100
AcDbLayerTableRecord
  2
26
 70
     0
 62
     7
  6
Continuous
290
     1
370
    -3
390
F
  0
LAYER
  5
43
330
2
100
AcDbSymbolTableRecord
100
AcDbLayerTableRecord
  2
27
 70
     0
 62
     7
  6
Continuous
290
     1
370
    -3
390
F
  0
LAYER
  5
44
330
2
100
AcDbSymbolTableRecord
100
AcDbLayerTableRecord
  2
28
 70
     0
 62
     7
  6
Continuous
290
     1
370
    -3
390
F
  0
LAYER
  5
45
330
2
100
AcDbSymbolTableRecord
100
AcDbLayerTableRecord
  2
29
 70
     0
 62
     7
  6
Continuous
290
     1
370
    -3
390
F
  0
LAYER
  5
46
330
2
100
AcDbSymbolTableRecord
100
AcDbLayerTableRecord
  2
30
 70
     0
 62
     7
  6
Continuous
290
     1
370
    -3
390
F
  0
LAYER
  5
47
330
2
100
AcDbSymbolTableRecord
100
AcDbLayerTableRecord
  2
31
 70
     0
 62
     7
  6
Continuous
290
     1
370
    -3
390
F
  0
LAYER
  5
48
330
2
100
AcDbSymbolTableRecord
100
AcDbLayerTableRecord
  2
32
 70
     0
 62
     7
  6
Continuous
290
     1
370
    -3
390
F
  0
LAYER
  5
49
330
2
100
AcDbSymbolTableRecord
100
AcDbLayerTableRecord
  2
33
 70
     0
 62
     7
  6
Continuous
290
     1
370
    -3
390
F
  0
LAYER
  5
4A
330
2
100
AcDbSymbolTableRecord
100
AcDbLayerTableRecord
  2
34
 70
     0
 62
     7
  6
Continuous
290
     1
370
    -3
390
F
  0
LAYER
  5
4B
330
2
100
AcDbSymbolTableRecord
100
AcDbLayerTableRecord
  2
35
 70
     0
 62
     7
  6
Continuous
290
     1
370
    -3
390
F
  0
LAYER
  5
4C
330
2
100
AcDbSymbolTableRecord
100
AcDbLayerTableRecord
  2
36
 70
     0
 62
     7
  6
Continuous
290
     1
370
    -3
390
F
  0
LAYER
  5
4D
330
2
100
AcDbSymbolTableRecord
100
AcDbLayerTableRecord
  2
37
 70
     0
 62
     7
  6
Continuous
290
     1
370
    -3
390
F
  0
LAYER
  5
4E
330
2
100
AcDbSymbolTableRecord
100
AcDbLayerTableRecord
  2
38
 70
     0
 62
     7
  6
Continuous
290
     1
370
    -3
390
F
  0
LAYER
  5
4F
330
2
100
AcDbSymbolTableRecord
100
AcDbLayerTableRecord
  2
39
 70
     0
 62
     7
  6
Continuous
290
     1
370
    -3
390
F
  0
LAYER
  5
50
330
2
100
AcDbSymbolTableRecord
100
AcDbLayerTableRecord
  2
40
 70
     0
 62
     7
  6
Continuous
290
     1
370
    -3
390
F
  0
LAYER
  5
51
330
2
100
AcDbSymbolTableRecord
100
AcDbLayerTableRecord
  2
41
 70
     0
 62
     7
  6
Continuous
290
     1
370
    -3
390
F
  0
LAYER
  5
52
330
2
100
AcDbSymbolTableRecord
100
AcDbLayerTableRecord
  2
42
 70
     0
 62
     7
  6
Continuous
290
     1
370
    -3
390
F
  0
LAYER
  5
53
330
2
100
AcDbSymbolTableRecord
100
AcDbLayerTableRecord
  2
43
 70
     0
 62
     7
  6
Continuous
290
     1
370
    -3
390
F
  0
LAYER
  5
54
330
2
100
AcDbSymbolTableRecord
100
AcDbLayerTableRecord
  2
44
 70
     0
 62
     7
  6
Continuous
290
     1
370
    -3
390
F
  0
LAYER
  5
55
330
2
100
AcDbSymbolTableRecord
100
AcDbLayerTableRecord
  2
45
 70
     0
 62
     7
  6
Continuous
290
     1
370
    -3
390
F
  0
LAYER
  5
56
330
2
100
AcDbSymbolTableRecord
100
AcDbLayerTableRecord
  2
46
 70
     0
 62
     7
  6
Continuous
290
     1
370
    -3
390
F
  0
LAYER
  5
57
330
2
100
AcDbSymbolTableRecord
100
AcDbLayerTableRecord
  2
47
 70
     0
 62
     7
  6
Continuous
290
     1
370
    -3
390
F
  0
LAYER
  5
58
330
2
100
AcDbSymbolTableRecord
100
AcDbLayerTableRecord
  2
48
 70
     0
 62
     7
  6
Continuous
290
     1
370
    -3
390
F
  0
LAYER
  5
59
330
2
100
AcDbSymbolTableRecord
100
AcDbLayerTableRecord
  2
49
 70
     0
 62
     7
  6
Continuous
290
     1
370
    -3
390
F
  0
LAYER
  5
5A
330
2
100
AcDbSymbolTableRecord
100
AcDbLayerTableRecord
  2
50
 70
     0
 62
     7
  6
Continuous
290
     1
370
    -3
390
F
  0
LAYER
  5
5B
330
2
100
AcDbSymbolTableRecord
100
AcDbLayerTableRecord
  2
51
 70
     0
 62
     7
  6
Continuous
290
     1
370
    -3
390
F
  0
LAYER
  5
5C
330
2
100
AcDbSymbolTableRecord
100
AcDbLayerTableRecord
  2
52
 70
     0
 62
     7
  6
Continuous
290
     1
370
    -3
390
F
  0
LAYER
  5
5D
330
2
100
AcDbSymbolTableRecord
100
AcDbLayerTableRecord
  2
53
 70
     0
 62
     7
  6
Continuous
290
     1
370
    -3
390
F
  0
LAYER
  5
5E
330
2
100
AcDbSymbolTableRecord
100
AcDbLayerTableRecord
  2
54
 70
     0
 62
     7
  6
Continuous
290
     1
370
    -3
390
F
  0
LAYER
  5
5F
330
2
100
AcDbSymbolTableRecord
100
AcDbLayerTableRecord
  2
55
 70
     0
 62
     7
  6
Continuous
290
     1
370
    -3
390
F
  0
LAYER
  5
60
330
2
100
AcDbSymbolTableRecord
100
AcDbLayerTableRecord
  2
56
 70
     0
 62
     7
  6
Continuous
290
     1
370
    -3
390
F
  0
LAYER
  5
61
330
2
100
AcDbSymbolTableRecord
100
AcDbLayerTableRecord
  2
57
 70
     0
 62
     7
  6
Continuous
290
     1
370
    -3
390
F
  0
LAYER
  5
62
330
2
100
AcDbSymbolTableRecord
100
AcDbLayerTableRecord
  2
58
 70
     0
 62
     7
  6
Continuous
290
     1
370
    -3
390
F
  0
LAYER
  5
63
330
2
100
AcDbSymbolTableRecord
100
AcDbLayerTableRecord
  2
59
 70
     0
 62
     7
  6
Continuous
290
     1
370
    -3
390
F
  0
LAYER
  5
64
330
2
100
AcDbSymbolTableRecord
100
AcDbLayerTableRecord
  2
60
 70
     0
 62
     7
  6
Continuous
290
     1
370
    -3
390
F
  0
LAYER
  5
65
330
2
100
AcDbSymbolTableRecord
100
AcDbLayerTableRecord
  2
61
 70
     0
 62
     7
  6
Continuous
290
     1
370
    -3
390
F
  0
LAYER
  5
66
330
2
100
AcDbSymbolTableRecord
100
AcDbLayerTableRecord
  2
62
 70
     0
 62
     7
  6
Continuous
290
     1
370
    -3
390
F
  0
LAYER
  5
67
330
2
100
AcDbSymbolTableRecord
100
AcDbLayerTableRecord
  2
63
 70
     0
 62
     7
  6
Continuous
290
     1
370
    -3
390
F
  0
LAYER
  5
68
330
2
100
AcDbSymbolTableRecord
100
AcDbLayerTableRecord
  2
64
 70
     0
 62
     7
  6
Continuous
290
     1
370
    -3
390
F
  0
LAYER
  5
69
330
2
100
AcDbSymbolTableRecord
100
AcDbLayerTableRecord
  2
65
 70
     0
 62
     7
  6
Continuous
290
     1
370
    -3
390
F
  0
LAYER
  5
6A
330
2
100
AcDbSymbolTableRecord
100
AcDbLayerTableRecord
  2
66
 70
     0
 62
     7
  6
Continuous
290
     1
370
    -3
390
F
  0
LAYER
  5
6B
330
2
100
AcDbSymbolTableRecord
100
AcDbLayerTableRecord
  2
67
 70
     0
 62
     7
  6
Continuous
290
     1
370
    -3
390
F
  0
LAYER
  5
6C
330
2
100
AcDbSymbolTableRecord
100
AcDbLayerTableRecord
  2
68
 70
     0
 62
     7
  6
Continuous
290
     1
370
    -3
390
F
  0
LAYER
  5
6D
330
2
100
AcDbSymbolTableRecord
100
AcDbLayerTableRecord
  2
69
 70
     0
 62
     7
  6
Continuous
290
     1
370
    -3
390
F
  0
LAYER
  5
6E
330
2
100
AcDbSymbolTableRecord
100
AcDbLayerTableRecord
  2
70
 70
     0
 62
     7
  6
Continuous
290
     1
370
    -3
390
F
  0
LAYER
  5
6F
330
2
100
AcDbSymbolTableRecord
100
AcDbLayerTableRecord
  2
71
 70
     0
 62
     7
  6
Continuous
290
     1
370
    -3
390
F
  0
LAYER
  5
70
330
2
100
AcDbSymbolTableRecord
100
AcDbLayerTableRecord
  2
72
 70
     0
 62
     7
  6
Continuous
290
     1
370
    -3
390
F
  0
LAYER
  5
71
330
2
100
AcDbSymbolTableRecord
100
AcDbLayerTableRecord
  2
73
 70
     0
 62
     7
  6
Continuous
290
     1
370
    -3
390
F
  0
LAYER
  5
72
330
2
100
AcDbSymbolTableRecord
100
AcDbLayerTableRecord
  2
74
 70
     0
 62
     7
  6
Continuous
290
     1
370
    -3
390
F
  0
LAYER
  5
73
330
2
100
AcDbSymbolTableRecord
100
AcDbLayerTableRecord
  2
75
 70
     0
 62
     7
  6
Continuous
290
     1
370
    -3
390
F
  0
LAYER
  5
74
330
2
100
AcDbSymbolTableRecord
100
AcDbLayerTableRecord
  2
76
 70
     0
 62
     7
  6
Continuous
290
     1
370
    -3
390
F
  0
LAYER
  5
75
330
2
100
AcDbSymbolTableRecord
100
AcDbLayerTableRecord
  2
77
 70
     0
 62
     7
  6
Continuous
290
     1
370
    -3
390
F
  0
LAYER
  5
76
330
2
100
AcDbSymbolTableRecord
100
AcDbLayerTableRecord
  2
78
 70
     0
 62
     7
  6
Continuous
290
     1
370
    -3
390
F
  0
LAYER
  5
77
330
2
100
AcDbSymbolTableRecord
100
AcDbLayerTableRecord
  2
79
 70
     0
 62
     7
  6
Continuous
290
     1
370
    -3
390
F
  0
LAYER
  5
78
330
2
100
AcDbSymbolTableRecord
100
AcDbLayerTableRecord
  2
80
 70
     0
 62
     7
  6
Continuous
290
     1
370
    -3
390
F
  0
LAYER
  5
79
330
2
100
AcDbSymbolTableRecord
100
AcDbLayerTableRecord
  2
81
 70
     0
 62
     7
  6
Continuous
290
     1
370
    -3
390
F
  0
LAYER
  5
7A
330
2
100
AcDbSymbolTableRecord
100
AcDbLayerTableRecord
  2
82
 70
     0
 62
     7
  6
Continuous
290
     1
370
    -3
390
F
  0
LAYER
  5
7B
330
2
100
AcDbSymbolTableRecord
100
AcDbLayerTableRecord
  2
83
 70
     0
 62
     7
  6
Continuous
290
     1
370
    -3
390
F
  0
LAYER
  5
7C
330
2
100
AcDbSymbolTableRecord
100
AcDbLayerTableRecord
  2
84
 70
     0
 62
     7
  6
Continuous
290
     1
370
    -3
390
F
  0
LAYER
  5
7D
330
2
100
AcDbSymbolTableRecord
100
AcDbLayerTableRecord
  2
85
 70
     0
 62
     7
  6
Continuous
290
     1
370
    -3
390
F
  0
LAYER
  5
7E
330
2
100
AcDbSymbolTableRecord
100
AcDbLayerTableRecord
  2
86
 70
     0
 62
     7
  6
Continuous
290
     1
370
    -3
390
F
  0
LAYER
  5
7F
330
2
100
AcDbSymbolTableRecord
100
AcDbLayerTableRecord
  2
87
 70
     0
 62
     7
  6
Continuous
290
     1
370
    -3
390
F
  0
LAYER
  5
80
330
2
100
AcDbSymbolTableRecord
100
AcDbLayerTableRecord
  2
88
 70
     0
 62
     7
  6
Continuous
290
     1
370
    -3
390
F
  0
LAYER
  5
81
330
2
100
AcDbSymbolTableRecord
100
AcDbLayerTableRecord
  2
89
 70
     0
 62
     7
  6
Continuous
290
     1
370
    -3
390
F
  0
LAYER
  5
82
330
2
100
AcDbSymbolTableRecord
100
AcDbLayerTableRecord
  2
90
 70
     0
 62
     7
  6
Continuous
290
     1
370
    -3
390
F
  0
LAYER
  5
83
330
2
100
AcDbSymbolTableRecord
100
AcDbLayerTableRecord
  2
91
 70
     0
 62
     7
  6
Continuous
290
     1
370
    -3
390
F
  0
LAYER
  5
84
330
2
100
AcDbSymbolTableRecord
100
AcDbLayerTableRecord
  2
92
 70
     0
 62
     7
  6
Continuous
290
     1
370
    -3
390
F
  0
LAYER
  5
85
330
2
100
AcDbSymbolTableRecord
100
AcDbLayerTableRecord
  2
93
 70
     0
 62
     7
  6
Continuous
290
     1
370
    -3
390
F
  0
LAYER
  5
86
330
2
100
AcDbSymbolTableRecord
100
AcDbLayerTableRecord
  2
94
 70
     0
 62
     7
  6
Continuous
290
     1
370
    -3
390
F
  0
LAYER
  5
87
330
2
100
AcDbSymbolTableRecord
100
AcDbLayerTableRecord
  2
95
 70
     0
 62
     7
  6
Continuous
290
     1
370
    -3
390
F
  0
LAYER
  5
88
330
2
100
AcDbSymbolTableRecord
100
AcDbLayerTableRecord
  2
96
 70
     0
 62
     7
  6
Continuous
290
     1
370
    -3
390
F
  0
LAYER
  5
89
330
2
100
AcDbSymbolTableRecord
100
AcDbLayerTableRecord
  2
97
 70
     0
 62
     7
  6
Continuous
290
     1
370
    -3
390
F
  0
LAYER
  5
8A
330
2
100
AcDbSymbolTableRecord
100
AcDbLayerTableRecord
  2
98
 70
     0
 62
     7
  6
Continuous
290
     1
370
    -3
390
F
  0
LAYER
  5
8B
330
2
100
AcDbSymbolTableRecord
100
AcDbLayerTableRecord
  2
99
 70
     0
 62
     7
  6
Continuous
290
     1
370
    -3
390
F
  0
LAYER
  5
8C
330
2
100
AcDbSymbolTableRecord
100
AcDbLayerTableRecord
  2
100
 70
     0
 62
     7
  6
Continuous
290
     1
370
    -3
390
F
  0
LAYER
  5
8D
330
2
100
AcDbSymbolTableRecord
100
AcDbLayerTableRecord
  2
101
 70
     0
 62
     7
  6
Continuous
290
     1
370
    -3
390
F
  0
LAYER
  5
8E
330
2
100
AcDbSymbolTableRecord
100
AcDbLayerTableRecord
  2
102
 70
     0
 62
     7
  6
Continuous
290
     1
370
    -3
390
F
  0
LAYER
  5
8F
330
2
100
AcDbSymbolTableRecord
100
AcDbLayerTableRecord
  2
103
 70
     0
 62
     7
  6
Continuous
290
     1
370
    -3
390
F
  0
LAYER
  5
90
330
2
100
AcDbSymbolTableRecord
100
AcDbLayerTableRecord
  2
104
 70
     0
 62
     7
  6
Continuous
290
     1
370
    -3
390
F
  0
LAYER
  5
91
330
2
100
AcDbSymbolTableRecord
100
AcDbLayerTableRecord
  2
105
 70
     0
 62
     7
  6
Continuous
290
     1
370
    -3
390
F
  0
LAYER
  5
92
330
2
100
AcDbSymbolTableRecord
100
AcDbLayerTableRecord
  2
106
 70
     0
 62
     7
  6
Continuous
290
     1
370
    -3
390
F
  0
LAYER
  5
93
330
2
100
AcDbSymbolTableRecord
100
AcDbLayerTableRecord
  2
107
 70
     0
 62
     7
  6
Continuous
290
     1
370
    -3
390
F
  0
LAYER
  5
94
330
2
100
AcDbSymbolTableRecord
100
AcDbLayerTableRecord
  2
108
 70
     0
 62
     7
  6
Continuous
290
     1
370
    -3
390
F
  0
LAYER
  5
95
330
2
100
AcDbSymbolTableRecord
100
AcDbLayerTableRecord
  2
109
 70
     0
 62
     7
  6
Continuous
290
     1
370
    -3
390
F
  0
LAYER
  5
96
330
2
100
AcDbSymbolTableRecord
100
AcDbLayerTableRecord
  2
110
 70
     0
 62
     7
  6
Continuous
290
     1
370
    -3
390
F
  0
LAYER
  5
97
330
2
100
AcDbSymbolTableRecord
100
AcDbLayerTableRecord
  2
111
 70
     0
 62
     7
  6
Continuous
290
     1
370
    -3
390
F
  0
LAYER
  5
98
330
2
100
AcDbSymbolTableRecord
100
AcDbLayerTableRecord
  2
112
 70
     0
 62
     7
  6
Continuous
290
     1
370
    -3
390
F
  0
LAYER
  5
99
330
2
100
AcDbSymbolTableRecord
100
AcDbLayerTableRecord
  2
113
 70
     0
 62
     7
  6
Continuous
290
     1
370
    -3
390
F
  0
LAYER
  5
9A
330
2
100
AcDbSymbolTableRecord
100
AcDbLayerTableRecord
  2
114
 70
     0
 62
     7
  6
Continuous
290
     1
370
    -3
390
F
  0
LAYER
  5
9B
330
2
100
AcDbSymbolTableRecord
100
AcDbLayerTableRecord
  2
115
 70
     0
 62
     7
  6
Continuous
290
     1
370
    -3
390
F
  0
LAYER
  5
9C
330
2
100
AcDbSymbolTableRecord
100
AcDbLayerTableRecord
  2
116
 70
     0
 62
     7
  6
Continuous
290
     1
370
    -3
390
F
  0
LAYER
  5
9D
330
2
100
AcDbSymbolTableRecord
100
AcDbLayerTableRecord
  2
117
 70
     0
 62
     7
  6
Continuous
290
     1
370
    -3
390
F
  0
LAYER
  5
9E
330
2
100
AcDbSymbolTableRecord
100
AcDbLayerTableRecord
  2
118
 70
     0
 62
     7
  6
Continuous
290
     1
370
    -3
390
F
  0
LAYER
  5
9F
330
2
100
AcDbSymbolTableRecord
100
AcDbLayerTableRecord
  2
119
 70
     0
 62
     7
  6
Continuous
290
     1
370
    -3
390
F
  0
LAYER
  5
A0
330
2
100
AcDbSymbolTableRecord
100
AcDbLayerTableRecord
  2
120
 70
     0
 62
     7
  6
Continuous
290
     1
370
    -3
390
F
  0
LAYER
  5
A1
330
2
100
AcDbSymbolTableRecord
100
AcDbLayerTableRecord
  2
121
 70
     0
 62
     7
  6
Continuous
290
     1
370
    -3
390
F
  0
LAYER
  5
A2
330
2
100
AcDbSymbolTableRecord
100
AcDbLayerTableRecord
  2
122
 70
     0
 62
     7
  6
Continuous
290
     1
370
    -3
390
F
  0
LAYER
  5
A3
330
2
100
AcDbSymbolTableRecord
100
AcDbLayerTableRecord
  2
123
 70
     0
 62
     7
  6
Continuous
290
     1
370
    -3
390
F
  0
LAYER
  5
A4
330
2
100
AcDbSymbolTableRecord
100
AcDbLayerTableRecord
  2
124
 70
     0
 62
     7
  6
Continuous
290
     1
370
    -3
390
F
  0
LAYER
  5
A5
330
2
100
AcDbSymbolTableRecord
100
AcDbLayerTableRecord
  2
125
 70
     0
 62
     7
  6
Continuous
290
     1
370
    -3
390
F
  0
LAYER
  5
A6
330
2
100
AcDbSymbolTableRecord
100
AcDbLayerTableRecord
  2
126
 70
     0
 62
     7
  6
Continuous
290
     1
370
    -3
390
F
  0
LAYER
  5
A7
330
2
100
AcDbSymbolTableRecord
100
AcDbLayerTableRecord
  2
127
 70
     0
 62
     7
  6
Continuous
290
     1
370
    -3
390
F
  0
LAYER
  5
A8
330
2
100
AcDbSymbolTableRecord
100
AcDbLayerTableRecord
  2
128
 70
     0
 62
     7
  6
Continuous
290
     1
370
    -3
390
F
  0
ENDTAB
  0
TABLE
  2
STYLE
  5
3
330
0
100
AcDbSymbolTable
 70
    10
  0
STYLE
  5
11
330
3
100
AcDbSymbolTableRecord
100
AcDbTextStyleTableRecord
  2
Standard
 70
     0
 40
0.0
 41
1.0
 50
0.0
 71
     0
 42
2.5
  3
txt.shx
  4
extfont.shx
  0
STYLE
  5
AB
330
3
100
AcDbSymbolTableRecord
100
AcDbTextStyleTableRecord
  2
KANJI0
 70
     4
 40
10.0
 41
1.0
 50
0.0
 71
     0
 42
10.0
  3
txt.shx
  4
extfont.shx
  0
STYLE
  5
B1
330
3
100
AcDbSymbolTableRecord
100
AcDbTextStyleTableRecord
  2
KANJI1
 70
     4
 40
10.0
 41
1.0
 50
0.0
 71
     0
 42
10.0
  3
txt.shx
  4
extfont.shx
  0
STYLE
  5
BD
330
3
100
AcDbSymbolTableRecord
100
AcDbTextStyleTableRecord
  2
KANJI2
 70
     4
 40
6.666666667
 41
1.5
 50
0.0
 71
     0
 42
6.666666667
  3
txt.shx
  4
extfont.shx
  0
STYLE
  5
BF
330
3
100
AcDbSymbolTableRecord
100
AcDbTextStyleTableRecord
  2
KANJI3
 70
     0
 40
12.0
 41
0.9
 50
0.0
 71
     0
 42
12.0
  3
txt.shx
  4
extfont.shx
  0
STYLE
  5
C8
330
3
100
AcDbSymbolTableRecord
100
AcDbTextStyleTableRecord
  2
KANJI4
 70
     0
 40
12.0
 41
1.0
 50
0.0
 71
     0
 42
12.0
  3
txt.shx
  4
extfont.shx
  0
STYLE
  5
CD
330
3
100
AcDbSymbolTableRecord
100
AcDbTextStyleTableRecord
  2
KANJI5
 70
     0
 40
12.0
 41
0.45
 50
0.0
 71
     0
 42
12.0
  3
txt.shx
  4
extfont.shx
  0
STYLE
  5
D8
330
3
100
AcDbSymbolTableRecord
100
AcDbTextStyleTableRecord
  2
KANJI6
 70
     0
 40
16.0
 41
0.925
 50
0.0
 71
     0
 42
16.0
  3
txt.shx
  4
extfont.shx
  0
STYLE
  5
E2
330
3
100
AcDbSymbolTableRecord
100
AcDbTextStyleTableRecord
  2
KANJI7
 70
     0
 40
16.0
 41
0.4625
 50
0.0
 71
     0
 42
16.0
  3
txt.shx
  4
extfont.shx
  0
STYLE
  5
22F
330
3
100
AcDbSymbolTableRecord
100
AcDbTextStyleTableRecord
  2
KANJI8
 70
     0
 40
12.0
 41
0.6
 50
0.0
 71
     0
 42
12.0
  3
txt.shx
  4
extfont.shx
  0
ENDTAB
  0
TABLE
  2
VIEW
  5
6
330
0
100
AcDbSymbolTable
 70
     0
  0
ENDTAB
  0
TABLE
  2
UCS
  5
7
330
0
100
AcDbSymbolTable
 70
     0
  0
ENDTAB
  0
TABLE
  2
APPID
  5
9
330
0
100
AcDbSymbolTable
 70
     1
  0
APPID
  5
12
330
9
100
AcDbSymbolTableRecord
100
AcDbRegAppTableRecord
  2
ACAD
 70
     0
  0
ENDTAB
  0
TABLE
  2
DIMSTYLE
  5
A
330
0
100
AcDbSymbolTable
 70
     1
100
AcDbDimStyleTable
 71
     0
  0
DIMSTYLE
105
27
330
A
100
AcDbSymbolTableRecord
100
AcDbDimStyleTableRecord
  2
ISO-25
 70
    64
  3

  4

 40
1.0
 41
2.5
 42
0.625
 43
3.75
 44
1.25
 45
0.0
 46
0.0
 47
0.0
 48
0.0
 71
     0
 72
     0
 73
     0
 74
     0
 75
     0
 76
     0
 77
     1
 78
     8
 79
     0
140
2.5
141
2.5
142
0.0
143
0.039370079
144
1.0
145
0.0
146
1.0
147
0.625
148
0.0
170
     0
171
     3
172
     1
173
     0
174
     0
175
     0
176
     0
177
     0
178
     0
179
     0
270
     2
271
     2
272
     2
273
     2
274
     3
275
     0
276
     0
277
     2
278
    46
279
     0
280
     0
281
     0
282
     0
283
     1
284
     8
285
     0
286
     0
288
     0
289
     3
340
11
341
0
342
0
343
0
344
0
371
    -2
372
    -2
  0
ENDTAB
  0
TABLE
  2
BLOCK_RECORD
  5
1
330
0
100
AcDbSymbolTable
 70
     3
  0
BLOCK_RECORD
  5
1F
330
1
100
AcDbSymbolTableRecord
100
AcDbBlockTableRecord
  2
*Model_Space
340
22
  0
BLOCK_RECORD
  5
1B
330
1
100
AcDbSymbolTableRecord
100
AcDbBlockTableRecord
  2
*Paper_Space
340
1E
  0
BLOCK_RECORD
  5
23
330
1
100
AcDbSymbolTableRecord
100
AcDbBlockTableRecord
  2
*Paper_Space0
340
26
  0
ENDTAB
  0
ENDSEC
  0
SECTION
  2
BLOCKS
  0
BLOCK
  5
1C
330
1B
100
AcDbEntity
 67
     1
  8
0
100
AcDbBlockBegin
  2
*Paper_Space
 70
     0
 10
0.0
 20
0.0
 30
0.0
  3
*Paper_Space
  1

  0
ENDBLK
  5
1D
330
1B
100
AcDbEntity
  8
0
100
AcDbBlockEnd
  0
BLOCK
  5
20
330
1F
100
AcDbEntity
  8
0
100
AcDbBlockBegin
  2
*Model_Space
 70
     0
 10
0.0
 20
0.0
 30
0.0
  3
*Model_Space
  1

  0
ENDBLK
  5
21
330
1F
100
AcDbEntity
  8
0
100
AcDbBlockEnd
  0
BLOCK
  5
24
330
23
100
AcDbEntity
 67
     1
  8
0
100
AcDbBlockBegin
  2
*Paper_Space0
 70
     0
 10
0.0
 20
0.0
 30
0.0
  3
*Paper_Space0
  1

  0
ENDBLK
  5
25
330
23
100
AcDbEntity
  8
0
100
AcDbBlockEnd
  0
ENDSEC
  0
SECTION
  2
ENTITIES
  0
LINE
  5
A9
330
1F
100
AcDbEntity
  8
0
  6
Continuous
 62
     2
100
AcDbLine
 10
1163.0
 20
49.0
 30
0.0
 11
423.0
 21
49.0
 31
0.0
  0
MTEXT
  5
AA
330
1F
100
AcDbEntity
  8
0
  6
Continuous
 62
     2
100
AcDbMText
 10
945.0
 20
95.0
 30
0.0
 40
10.0
 41
40.0
 71
     1
 72
     3
  1
\W1.000;仕上
  7
KANJI0
 73
     1
 44
1.0
  0
LINE
  5
AC
330
1F
100
AcDbEntity
  8
0
  6
Continuous
 62
     2
100
AcDbLine
 10
943.0
 20
121.0
 30
0.0
 11
1163.0
 21
121.0
 31
0.0
  0
LINE
  5
AD
330
1F
100
AcDbEntity
  8
0
  6
Continuous
 62
     2
100
AcDbLine
 10
943.0
 20
97.0
 30
0.0
 11
1163.0
 21
97.0
 31
0.0
  0
MTEXT
  5
AE
330
1F
100
AcDbEntity
  8
0
  6
Continuous
 62
     2
100
AcDbMText
 10
945.0
 20
119.0
 30
0.0
 40
10.0
 41
40.0
 71
     1
 72
     3
  1
\W1.000;規格
  7
KANJI0
 73
     1
 44
1.0
  0
MTEXT
  5
AF
330
1F
100
AcDbEntity
  8
0
  6
Continuous
 62
     2
100
AcDbMText
 10
945.0
 20
143.0
 30
0.0
 40
10.0
 41
40.0
 71
     1
 72
     3
  1
\W1.000;材質
  7
KANJI0
 73
     1
 44
1.0
  0
MTEXT
  5
B0
330
1F
100
AcDbEntity
  8
0
  6
Continuous
 62
     2
100
AcDbMText
 10
945.0
 20
167.0
 30
0.0
 40
10.0
 41
40.0
 71
     1
 72
     3
  1
\W1.000;品番
  7
KANJI1
 73
     1
 44
1.0
  0
MTEXT
  5
B2
330
1F
100
AcDbEntity
  8
0
  6
Continuous
 62
     2
100
AcDbMText
 10
945.0
 20
191.0
 30
0.0
 40
10.0
 41
40.0
 71
     1
 72
     3
  1
\W1.000;図名
  7
KANJI0
 73
     1
 44
1.0
  0
LINE
  5
B3
330
1F
100
AcDbEntity
  8
0
  6
Continuous
 62
     2
100
AcDbLine
 10
943.0
 20
145.0
 30
0.0
 11
1163.0
 21
145.0
 31
0.0
  0
LINE
  5
B4
330
1F
100
AcDbEntity
  8
0
  6
Continuous
 62
     2
100
AcDbLine
 10
943.0
 20
169.0
 30
0.0
 11
1163.0
 21
169.0
 31
0.0
  0
LINE
  5
B5
330
1F
100
AcDbEntity
  8
0
  6
Continuous
 62
     2
100
AcDbLine
 10
943.0
 20
193.0
 30
0.0
 11
1163.0
 21
193.0
 31
0.0
  0
LINE
  5
B6
330
1F
100
AcDbEntity
  8
0
  6
Continuous
 62
     2
100
AcDbLine
 10
855.0
 20
49.0
 30
0.0
 11
855.0
 21
25.0
 31
0.0
  0
MTEXT
  5
B7
330
1F
100
AcDbEntity
  8
0
  6
Continuous
 62
     2
100
AcDbMText
 10
857.0
 20
47.0
 30
0.0
 40
10.0
 41
40.0
 71
     1
 72
     3
  1
\W1.000;日付
  7
KANJI0
 73
     1
 44
1.0
  0
LINE
  5
B8
330
1F
100
AcDbEntity
  8
0
  6
Continuous
 62
     2
100
AcDbLine
 10
943.0
 20
25.0
 30
0.0
 11
943.0
 21
193.0
 31
0.0
  0
MTEXT
  5
B9
330
1F
100
AcDbEntity
  8
0
  6
Continuous
 62
     2
100
AcDbMText
 10
857.0
 20
71.0
 30
0.0
 40
10.0
 41
40.0
 71
     1
 72
     3
  1
\W1.000;尺度
  7
KANJI0
 73
     1
 44
1.0
  0
LINE
  5
BA
330
1F
100
AcDbEntity
  8
0
  6
Continuous
 62
     2
100
AcDbLine
 10
855.0
 20
73.0
 30
0.0
 11
1163.0
 21
73.0
 31
0.0
  0
MTEXT
  5
BB
330
1F
100
AcDbEntity
  8
0
  6
Continuous
 62
     2
100
AcDbMText
 10
945.0
 20
47.0
 30
0.0
 40
10.0
 41
40.0
 71
     1
 72
     3
  1
\W1.000;品名
  7
KANJI0
 73
     1
 44
1.0
  0
MTEXT
  5
BC
330
1F
100
AcDbEntity
  8
0
  6
Continuous
 62
     2
100
AcDbMText
 10
945.0
 20
71.0
 30
0.0
 40
6.666666667
 41
40.0
 71
     1
 72
     3
  1
\W1.500;その他
  7
KANJI2
 73
     1
 44
1.0
  0
MTEXT
  5
BE
330
1F
100
AcDbEntity
  8
0
  6
Continuous
 62
     2
100
AcDbMText
 10
967.0
 20
125.8
 30
0.0
 40
12.0
 41
69.6
 71
     7
 72
     1
  1
\T1.111;\W0.900;－－－
  7
KANJI3
 73
     1
 44
1.0
  0
MTEXT
  5
C0
330
1F
100
AcDbEntity
  8
0
  6
Continuous
 62
     2
100
AcDbMText
 10
967.0
 20
101.8
 30
0.0
 40
12.0
 41
69.6
 71
     7
 72
     1
  1
\T1.111;\W0.900;－－－
  7
KANJI3
 73
     1
 44
1.0
  0
MTEXT
  5
C1
330
1F
100
AcDbEntity
  8
0
  6
Continuous
 62
     2
100
AcDbMText
 10
967.0
 20
77.8
 30
0.0
 40
12.0
 41
69.6
 71
     7
 72
     1
  1
\T1.111;\W0.900;－－－
  7
KANJI3
 73
     1
 44
1.0
  0
MTEXT
  5
C2
330
1F
100
AcDbEntity
  8
0
  6
Continuous
 62
     2
100
AcDbMText
 10
967.0
 20
53.8
 30
0.0
 40
12.0
 41
69.6
 71
     7
 72
     1
  1
\T1.111;\W0.900;－－－
  7
KANJI3
 73
     1
 44
1.0
  0
POINT
  5
C3
330
1F
100
AcDbEntity
  8
0
  6
Continuous
 62
     2
100
AcDbPoint
 10
1163.0
 20
193.0
 30
0.0
  0
LINE
  5
C4
330
1F
100
AcDbEntity
  8
0
  6
Continuous
 62
     2
100
AcDbLine
 10
855.0
 20
97.0
 30
0.0
 11
943.0
 21
97.0
 31
0.0
  0
LINE
  5
C5
330
1F
100
AcDbEntity
  8
0
  6
Continuous
 62
     2
100
AcDbLine
 10
855.0
 20
97.0
 30
0.0
 11
855.0
 21
49.0
 31
0.0
  0
MTEXT
  5
C6
330
1F
100
AcDbEntity
  8
0
  6
Continuous
 62
     2
100
AcDbMText
 10
857.0
 20
95.0
 30
0.0
 40
10.0
 41
40.0
 71
     1
 72
     3
  1
\W1.000;用紙
  7
KANJI0
 73
     1
 44
1.0
  0
MTEXT
  5
C7
330
1F
100
AcDbEntity
  8
0
  6
Continuous
 62
     2
100
AcDbMText
 10
427.0
 20
31.0
 30
0.0
 40
12.0
 41
320.0
 71
     7
 72
     1
  1
\T1.370;\W1.000;オオハシ産業株式会社
  7
KANJI4
 73
     1
 44
1.0
  0
LINE
  5
C9
330
1F
100
AcDbEntity
  8
0
  6
Continuous
 62
     2
100
AcDbLine
 10
595.0
 20
49.0
 30
0.0
 11
595.0
 21
25.0
 31
0.0
  0
MTEXT
  5
CA
330
1F
100
AcDbEntity
  8
0
  6
Continuous
 62
     2
100
AcDbMText
 10
597.0
 20
47.0
 30
0.0
 40
10.0
 41
40.0
 71
     1
 72
     3
  1
\W1.000;作図
  7
KANJI0
 73
     1
 44
1.0
  0
LINE
  5
CB
330
1F
100
AcDbEntity
  8
0
  6
Continuous
 62
     2
100
AcDbLine
 10
675.0
 20
25.0
 30
0.0
 11
675.0
 21
49.0
 31
0.0
  0
MTEXT
  5
CC
330
1F
100
AcDbEntity
  8
0
  6
Continuous
 62
     2
100
AcDbMText
 10
679.0
 20
31.0
 30
0.0
 40
12.0
 41
37.2
 71
     7
 72
     1
  1
\T1.111;\W0.900;ＦＤ＝
  7
KANJI5
 73
     1
 44
1.0
  0
LINE
  5
CE
330
1F
100
AcDbEntity
  8
0
  6
Continuous
 62
     2
100
AcDbLine
 10
755.0
 20
25.0
 30
0.0
 11
755.0
 21
49.0
 31
0.0
  0
MTEXT
  5
CF
330
1F
100
AcDbEntity
  8
0
  6
Continuous
 62
     2
100
AcDbMText
 10
759.0
 20
31.0
 30
0.0
 40
12.0
 41
37.2
 71
     7
 72
     1
  1
\T1.111;\W0.900;ＮＯ＝
  7
KANJI5
 73
     1
 44
1.0
  0
LINE
  5
D0
330
1F
100
AcDbEntity
  8
0
  6
Continuous
 62
     2
100
AcDbLine
 10
423.0
 20
25.0
 30
0.0
 11
423.0
 21
49.0
 31
0.0
  0
MTEXT
  5
D1
330
1F
100
AcDbEntity
  8
0
  6
Continuous
 62
     2
100
AcDbMText
 10
483.0
 20
59.0
 30
0.0
 40
12.0
 41
549.6
 71
     7
 72
     1
  1
\T1.111;\W0.900;特記　　寸法指示無い公差は±０．５以内とする．
  7
KANJI3
 73
     1
 44
1.0
  0
MTEXT
  5
D2
330
1F
100
AcDbEntity
  8
0
  6
Continuous
 62
     2
100
AcDbMText
 10
611.0
 20
29.8
 30
0.0
 40
12.0
 41
117.6
 71
     7
 72
     1
  1
\T1.111;\W0.900;大橋　一之
  7
KANJI3
 73
     1
 44
1.0
  0
MTEXT
  5
D3
330
1F
100
AcDbEntity
  8
0
  6
Continuous
 62
     2
100
AcDbMText
 10
871.0
 20
29.8
 30
0.0
 40
12.0
 41
129.6
 71
     7
 72
     1
  1
\T1.111;\W0.900;２０１５／０２／１７
  7
KANJI5
 73
     1
 44
1.0
  0
MTEXT
  5
D4
330
1F
100
AcDbEntity
  8
0
  6
Continuous
 62
     2
100
AcDbMText
 10
705.4
 20
29.8
 30
0.0
 40
12.0
 41
69.6
 71
     7
 72
     1
  1
\T1.111;\W0.900;ヒビノ
  7
KANJI3
 73
     1
 44
1.0
  0
MTEXT
  5
D5
330
1F
100
AcDbEntity
  8
0
  6
Continuous
 62
     2
100
AcDbMText
 10
887.0
 20
77.8
 30
0.0
 40
12.0
 41
45.6
 71
     7
 72
     1
  1
\T1.111;\W0.900;Ａ４
  7
KANJI3
 73
     1
 44
1.0
  0
MTEXT
  5
D6
330
1F
100
AcDbEntity
  8
0
  6
Continuous
 62
     2
100
AcDbMText
 10
887.0
 20
53.8
 30
0.0
 40
12.0
 41
69.6
 71
     7
 72
     1
  1
\T1.111;\W0.900;１／４
  7
KANJI3
 73
     1
 44
1.0
  0
MTEXT
  5
D7
330
1F
100
AcDbEntity
  8
0
  6
Continuous
 62
     2
100
AcDbMText
 10
967.21
 20
200.48
 30
0.0
 40
16.0
 41
356.8
 71
     7
 72
     1
  1
\T1.081;\W0.741;ブラケット重量　２．４６ｋｇ
  7
KANJI6
 73
     1
 44
1.0
  0
MTEXT
  5
D9
330
1F
100
AcDbEntity
  8
0
  6
Continuous
 62
     2
100
AcDbMText
 10
967.0
 20
173.8
 30
0.0
 40
12.0
 41
159.6
 71
     7
 72
     1
  1
\T1.111;\W0.672;ＡＣＵ１８　全体図
  7
KANJI3
 73
     1
 44
1.0
  0
MTEXT
  5
DA
330
1F
100
AcDbEntity
  8
0
  6
Continuous
 62
     2
100
AcDbMText
 10
967.0
 20
149.8
 30
0.0
 40
12.0
 41
63.6
 71
     7
 72
     1
  1
\T1.111;\W0.900;ＡＣＵ１８
  7
KANJI5
 73
     1
 44
1.0
  0
MTEXT
  5
DB
330
1F
100
AcDbEntity
  8
0
  6
Continuous
 62
     2
100
AcDbMText
 10
967.0
 20
29.8
 30
0.0
 40
12.0
 41
284.4
 71
     7
 72
     1
  1
\T1.111;\W0.671;ＡＣＵ１８　ＡＣ１８用ブラケット
  7
KANJI3
 73
     1
 44
1.0
  0
MTEXT
  5
DC
330
1F
100
AcDbEntity
  8
0
  6
Continuous
 62
     2
100
AcDbMText
 10
787.0
 20
29.8
 30
0.0
 40
12.0
 41
116.4
 71
     7
 72
     1
  1
\T1.111;\W0.900;ＡＣＵ１８－０００
  7
KANJI5
 73
     1
 44
1.0
  0
LINE
  5
DD
330
1F
100
AcDbEntity
  8
0
  6
Continuous
 62
     2
100
AcDbLine
 10
25.0
 20
815.0
 30
0.0
 11
1163.0
 21
815.0
 31
0.0
  0
LINE
  5
DE
330
1F
100
AcDbEntity
  8
0
  6
Continuous
 62
     2
100
AcDbLine
 10
1163.0
 20
25.0
 30
0.0
 11
1163.0
 21
815.0
 31
0.0
  0
LINE
  5
DF
330
1F
100
AcDbEntity
  8
0
  6
Continuous
 62
     2
100
AcDbLine
 10
25.0
 20
25.0
 30
0.0
 11
25.0
 21
815.0
 31
0.0
  0
LINE
  5
E0
330
1F
100
AcDbEntity
  8
0
  6
Continuous
 62
     2
100
AcDbLine
 10
25.0
 20
25.0
 30
0.0
 11
1163.0
 21
25.0
 31
0.0
  0
MTEXT
  5
E1
330
1F
100
AcDbEntity
  8
0
  6
Continuous
 62
     2
100
AcDbMText
 10
208.64
 20
34.76
 30
0.0
 40
16.0
 41
83.6
 71
     7
 72
     1
  1
\T1.081;\W0.925;Ｍ８－３０
  7
KANJI7
 73
     1
 44
1.0
  0
MTEXT
  5
E3
330
1F
100
AcDbEntity
  8
0
  6
Continuous
 62
     2
100
AcDbMText
 10
258.64
 20
34.76
 30
0.0
 40
16.0
 41
46.8
 71
     7
 72
     1
  1
\T1.081;\W0.703;２個
  7
KANJI6
 73
     1
 44
1.0
  0
MTEXT
  5
E4
330
1F
100
AcDbEntity
  8
0
  6
Continuous
 62
     2
100
AcDbMText
 10
38.64
 20
54.76
 30
0.0
 40
16.0
 41
125.6
 71
     7
 72
     1
  1
\T1.081;\W0.925;添付ネジ
  7
KANJI6
 73
     1
 44
1.0
  0
MTEXT
  5
E5
330
1F
100
AcDbEntity
  8
0
  6
Continuous
 62
     2
100
AcDbMText
 10
38.64
 20
34.76
 30
0.0
 40
16.0
 41
302.8
 71
     7
 72
     1
  1
\T1.081;\W0.882;六角ボルト３点セムス
  7
KANJI6
 73
     1
 44
1.0
  0
LINE
  5
E6
330
1F
100
AcDbEntity
  8
5
  6
Continuous
 62
     1
100
AcDbLine
 10
331.412829623
 20
649.143396534
 30
0.0
 11
333.412829623
 21
649.143396534
 31
0.0
  0
CIRCLE
  5
E7
330
1F
100
AcDbEntity
  8
4
  6
Continuous
 62
     1
100
AcDbCircle
 10
318.412829623
 20
409.143396534
 30
0.0
 40
3.6
  0
LINE
  5
E8
330
1F
100
AcDbEntity
  8
4
  6
Continuous
 62
     1
100
AcDbLine
 10
303.412829623
 20
549.143396534
 30
0.0
 11
328.412829623
 21
549.143396534
 31
0.0
  0
LINE
  5
E9
330
1F
100
AcDbEntity
  8
5
  6
Continuous
 62
     1
100
AcDbLine
 10
311.412829623
 20
614.143396534
 30
0.0
 11
333.412829623
 21
614.143396534
 31
0.0
  0
ARC
  5
EA
330
1F
100
AcDbEntity
  8
5
  6
Continuous
 62
     1
100
AcDbCircle
 10
311.412829623
 20
611.143396534
 30
0.0
 40
3.0
100
AcDbArc
 50
90.0
 51
180.0
  0
LINE
  5
EC
330
1F
100
AcDbEntity
  8
5
  6
LTYPE1
 62
     2
100
AcDbLine
 10
331.412829623
 20
454.143396534
 30
0.0
 11
331.412829623
 21
614.143396534
 31
0.0
  0
LINE
  5
ED
330
1F
100
AcDbEntity
  8
5
  6
Continuous
 62
     1
100
AcDbLine
 10
331.412829623
 20
614.143396534
 30
0.0
 11
331.412829623
 21
649.143396534
 31
0.0
  0
LINE
  5
EE
330
1F
100
AcDbEntity
  8
5
  6
Continuous
 62
     1
100
AcDbLine
 10
333.412829623
 20
454.143396534
 30
0.0
 11
333.412829623
 21
649.143396534
 31
0.0
  0
LINE
  5
EF
330
1F
100
AcDbEntity
  8
5
  6
Continuous
 62
     1
100
AcDbLine
 10
806.412829623
 20
649.143396534
 30
0.0
 11
804.412829623
 21
649.143396534
 31
0.0
  0
LINE
  5
F0
330
1F
100
AcDbEntity
  8
5
  6
Continuous
 62
     1
100
AcDbLine
 10
826.412829623
 20
614.143396534
 30
0.0
 11
804.412829623
 21
614.143396534
 31
0.0
  0
ARC
  5
F1
330
1F
100
AcDbEntity
  8
5
  6
Continuous
 62
     1
100
AcDbCircle
 10
826.412829623
 20
611.143396534
 30
0.0
 40
3.0
100
AcDbArc
 50
0.0
 51
90.0
  0
LINE
  5
F2
330
1F
100
AcDbEntity
  8
5
  6
LTYPE1
 62
     2
100
AcDbLine
 10
806.412829623
 20
454.143396534
 30
0.0
 11
806.412829623
 21
614.143396534
 31
0.0
  0
LINE
  5
F3
330
1F
100
AcDbEntity
  8
5
  6
Continuous
 62
     1
100
AcDbLine
 10
806.412829623
 20
614.143396534
 30
0.0
 11
806.412829623
 21
649.143396534
 31
0.0
  0
LINE
  5
F4
330
1F
100
AcDbEntity
  8
5
  6
Continuous
 62
     1
100
AcDbLine
 10
804.412829623
 20
454.143396534
 30
0.0
 11
804.412829623
 21
649.143396534
 31
0.0
  0
CIRCLE
  5
F5
330
1F
100
AcDbEntity
  8
4
  6
Continuous
 62
     1
100
AcDbCircle
 10
819.412829623
 20
529.143396534
 30
0.0
 40
3.6
  0
LINE
  5
F6
330
1F
100
AcDbEntity
  8
4
  6
Continuous
 62
     1
100
AcDbLine
 10
834.412829623
 20
609.143396534
 30
0.0
 11
809.412829623
 21
609.143396534
 31
0.0
  0
ARC
  5
F7
330
1F
100
AcDbEntity
  8
4
  6
Continuous
 62
     1
100
AcDbCircle
 10
307.412829623
 20
378.143396534
 30
0.0
 40
2.0
100
AcDbArc
 50
180.0
 51
270.0
  0
LINE
  5
F8
330
1F
100
AcDbEntity
  8
4
  6
Continuous
 62
     1
100
AcDbLine
 10
307.412829623
 20
376.143396534
 30
0.0
 11
307.412829623
 21
374.143396534
 31
0.0
  0
LINE
  5
F9
330
1F
100
AcDbEntity
  8
4
  6
LTYPE1
 62
     2
100
AcDbLine
 10
568.912829623
 20
376.143396534
 30
0.0
 11
307.412829623
 21
376.143396534
 31
0.0
  0
LINE
  5
FB
330
1F
100
AcDbEntity
  8
4
  6
LTYPE2
 62
     2
100
AcDbLine
 10
328.412829623
 20
399.143396534
 30
0.0
 11
303.412829623
 21
374.143396534
 31
0.0
  0
LINE
  5
FC
330
1F
100
AcDbEntity
  8
4
  6
Continuous
 62
     1
100
AcDbLine
 10
305.412829623
 20
378.143396534
 30
0.0
 11
303.412829623
 21
378.143396534
 31
0.0
  0
LINE
  5
FD
330
1F
100
AcDbEntity
  8
4
  6
LTYPE1
 62
     2
100
AcDbLine
 10
305.412829623
 20
378.143396534
 30
0.0
 11
305.412829623
 21
549.143396534
 31
0.0
  0
ARC
  5
FE
330
1F
100
AcDbEntity
  8
4
  6
Continuous
 62
     1
100
AcDbCircle
 10
305.412829623
 20
376.143396534
 30
0.0
 40
2.0
100
AcDbArc
 50
59.477512186
 51
90.0
  0
ARC
  5
FF
330
1F
100
AcDbEntity
  8
4
  6
Continuous
 62
     1
100
AcDbCircle
 10
305.412829623
 20
376.143396534
 30
0.0
 40
2.0
100
AcDbArc
 50
0.0
 51
30.522487814
  0
LINE
  5
100
330
1F
100
AcDbEntity
  8
4
  6
Continuous
 62
     1
100
AcDbLine
 10
303.412829623
 20
378.143396534
 30
0.0
 11
303.412829623
 21
549.143396534
 31
0.0
  0
ARC
  5
101
330
1F
100
AcDbEntity
  8
4
  6
Continuous
 62
     1
100
AcDbCircle
 10
307.412829623
 20
378.143396534
 30
0.0
 40
4.0
100
AcDbArc
 50
180.0
 51
270.00015455
  0
LINE
  5
102
330
1F
100
AcDbEntity
  8
4
  6
Continuous
 62
     1
100
AcDbLine
 10
568.912829623
 20
374.143396534
 30
0.0
 11
307.412840413
 21
374.143396534
 31
0.0
  0
LINE
  5
103
330
1F
100
AcDbEntity
  8
4
  6
Continuous
 62
     1
100
AcDbLine
 10
328.412829623
 20
399.850503315
 30
0.0
 11
328.412829623
 21
549.143396534
 31
0.0
  0
LINE
  5
104
330
1F
100
AcDbEntity
  8
4
  6
Continuous
 62
     1
100
AcDbLine
 10
328.412829623
 20
399.850503315
 30
0.0
 11
306.428582626
 21
377.866256318
 31
0.0
  0
LWPOLYLINE
  5
106
330
1F
100
AcDbEntity
  8
4
  6
Continuous
 62
     1
100
AcDbPolyline
 90
     3
 70
   128
 43
0.0
 10
568.912829623
 20
399.143396534
 10
329.119936404
 20
399.143396534
 10
307.135689407
 20
377.159149537
  0
ARC
  5
107
330
1F
100
AcDbEntity
  8
4
  6
Continuous
 62
     1
100
AcDbCircle
 10
830.412829623
 20
438.143396534
 30
0.0
 40
2.0
100
AcDbArc
 50
270.0
 51
0.0
  0
LINE
  5
108
330
1F
100
AcDbEntity
  8
4
  6
Continuous
 62
     1
100
AcDbLine
 10
830.412829623
 20
436.143396534
 30
0.0
 11
830.412829623
 21
434.143396534
 31
0.0
  0
LINE
  5
109
330
1F
100
AcDbEntity
  8
4
  6
LTYPE1
 62
     2
100
AcDbLine
 10
568.912829623
 20
436.143396534
 30
0.0
 11
830.412829623
 21
436.143396534
 31
0.0
  0
LINE
  5
10A
330
1F
100
AcDbEntity
  8
4
  6
LTYPE2
 62
     2
100
AcDbLine
 10
809.412829623
 20
459.143396534
 30
0.0
 11
834.412829623
 21
434.143396534
 31
0.0
  0
ARC
  5
10B
330
1F
100
AcDbEntity
  8
4
  6
Continuous
 62
     1
100
AcDbCircle
 10
832.412829623
 20
436.143396534
 30
0.0
 40
2.0
100
AcDbArc
 50
90.0
 51
120.522487814
  0
ARC
  5
10C
330
1F
100
AcDbEntity
  8
4
  6
Continuous
 62
     1
100
AcDbCircle
 10
832.412829623
 20
436.143396534
 30
0.0
 40
2.0
100
AcDbArc
 50
149.477512186
 51
180.0
  0
ARC
  5
10D
330
1F
100
AcDbEntity
  8
4
  6
Continuous
 62
     1
100
AcDbCircle
 10
830.412829623
 20
438.143396534
 30
0.0
 40
4.0
100
AcDbArc
 50
269.99984545
 51
0.0
  0
LINE
  5
10E
330
1F
100
AcDbEntity
  8
4
  6
Continuous
 62
     1
100
AcDbLine
 10
568.912829623
 20
434.143396534
 30
0.0
 11
830.412818834
 21
434.143396534
 31
0.0
  0
LWPOLYLINE
  5
110
330
1F
100
AcDbEntity
  8
4
  6
Continuous
 62
     1
100
AcDbPolyline
 90
     3
 70
   128
 43
0.0
 10
568.912829623
 20
459.143396534
 10
808.705722842
 20
459.143396534
 10
830.689969839
 20
437.159149537
  0
LINE
  5
111
330
1F
100
AcDbEntity
  8
4
  6
Continuous
 62
     1
100
AcDbLine
 10
809.412829623
 20
459.850503315
 30
0.0
 11
809.412829623
 21
609.143396534
 31
0.0
  0
LINE
  5
112
330
1F
100
AcDbEntity
  8
4
  6
Continuous
 62
     1
100
AcDbLine
 10
809.412829623
 20
459.850503315
 30
0.0
 11
831.39707662
 21
437.866256318
 31
0.0
  0
LINE
  5
113
330
1F
100
AcDbEntity
  8
4
  6
LTYPE1
 62
     2
100
AcDbLine
 10
832.412829623
 20
438.143396534
 30
0.0
 11
832.412829623
 21
609.143396534
 31
0.0
  0
LWPOLYLINE
  5
115
330
1F
100
AcDbEntity
  8
4
  6
Continuous
 62
     1
100
AcDbPolyline
 90
     3
 70
   128
 43
0.0
 10
832.412829623
 20
438.143396534
 10
834.412829623
 20
438.143396534
 10
834.412829623
 20
609.143396534
  0
LINE
  5
116
330
1F
100
AcDbEntity
  8
5
  6
Continuous
 62
     1
100
AcDbLine
 10
308.412829623
 20
611.143396534
 30
0.0
 11
308.412829623
 21
549.143396534
 31
0.0
  0
LINE
  5
117
330
1F
100
AcDbEntity
  8
5
  6
Continuous
 62
     1
100
AcDbLine
 10
328.412829623
 20
454.143396534
 30
0.0
 11
333.412829623
 21
454.143396534
 31
0.0
  0
ARC
  5
118
330
1F
100
AcDbEntity
  8
5
  6
LTYPE1
 62
     2
100
AcDbCircle
 10
311.412829623
 20
457.143396534
 30
0.0
 40
3.0
100
AcDbArc
 50
180.0
 51
270.0
  0
LINE
  5
119
330
1F
100
AcDbEntity
  8
5
  6
LTYPE1
 62
     2
100
AcDbLine
 10
308.412829623
 20
549.143396534
 30
0.0
 11
308.412829623
 21
457.143396534
 31
0.0
  0
LINE
  5
11A
330
1F
100
AcDbEntity
  8
5
  6
LTYPE1
 62
     2
100
AcDbLine
 10
311.412829623
 20
454.143396534
 30
0.0
 11
328.412829623
 21
454.143396534
 31
0.0
  0
LINE
  5
11B
330
1F
100
AcDbEntity
  8
5
  6
Continuous
 62
     1
100
AcDbLine
 10
829.412829623
 20
611.143396534
 30
0.0
 11
829.412829623
 21
609.143396534
 31
0.0
  0
LINE
  5
11C
330
1F
100
AcDbEntity
  8
5
  6
LTYPE1
 62
     2
100
AcDbLine
 10
829.412829623
 20
609.143396534
 30
0.0
 11
829.412829623
 21
457.143396534
 31
0.0
  0
LINE
  5
11D
330
1F
100
AcDbEntity
  8
5
  6
LTYPE1
 62
     2
100
AcDbLine
 10
826.412829623
 20
454.143396534
 30
0.0
 11
804.412829623
 21
454.143396534
 31
0.0
  0
ARC
  5
11E
330
1F
100
AcDbEntity
  8
5
  6
LTYPE1
 62
     2
100
AcDbCircle
 10
826.412829623
 20
457.143396534
 30
0.0
 40
3.0
100
AcDbArc
 50
270.0
 51
0.0
  0
CIRCLE
  5
11F
330
1F
100
AcDbEntity
  8
5
  6
LTYPE1
 62
     2
100
AcDbCircle
 10
819.412829623
 20
539.143396534
 30
0.0
 40
4.5
  0
LWPOLYLINE
  5
121
330
1F
100
AcDbEntity
  8
5
  6
LTYPE1
 62
     2
100
AcDbPolyline
 90
     4
 70
   128
 43
0.0
 10
325.918383123
 20
599.143396534
 10
322.165606373
 20
605.643396534
 10
314.660052873
 20
605.643396534
 10
310.907276124
 20
599.143396534
  0
LWPOLYLINE
  5
123
330
1F
100
AcDbEntity
  8
5
  6
LTYPE1
 62
     2
100
AcDbPolyline
 90
     4
 70
   128
 43
0.0
 10
310.907276124
 20
599.143396534
 10
314.660052873
 20
592.643396534
 10
322.165606373
 20
592.643396534
 10
325.918383123
 20
599.143396534
  0
CIRCLE
  5
124
330
1F
100
AcDbEntity
  8
5
  6
Continuous
 62
     1
100
AcDbCircle
 10
318.412829623
 20
599.143396534
 30
0.0
 40
3.0
  0
CIRCLE
  5
125
330
1F
100
AcDbEntity
  8
5
  6
Continuous
 62
     2
100
AcDbCircle
 10
318.412829623
 20
599.143396534
 30
0.0
 40
4.5
  0
ARC
  5
126
330
1F
100
AcDbEntity
  8
4
  6
Continuous
 62
     1
100
AcDbCircle
 10
307.412829623
 20
184.643396534
 30
0.0
 40
4.0
100
AcDbArc
 50
180.0
 51
270.0
  0
LINE
  5
127
330
1F
100
AcDbEntity
  8
4
  6
Continuous
 62
     1
100
AcDbLine
 10
307.412829623
 20
182.643396534
 30
0.0
 11
307.412829623
 21
180.643396534
 31
0.0
  0
LINE
  5
128
330
1F
100
AcDbEntity
  8
4
  6
Continuous
 62
     1
100
AcDbLine
 10
303.412829623
 20
184.643396534
 30
0.0
 11
305.412829623
 21
184.643396534
 31
0.0
  0
ARC
  5
129
330
1F
100
AcDbEntity
  8
4
  6
Continuous
 62
     1
100
AcDbCircle
 10
305.412829623
 20
182.643396534
 30
0.0
 40
2.0
100
AcDbArc
 50
360.0
 51
90.0
  0
ARC
  5
12A
330
1F
100
AcDbEntity
  8
4
  6
Continuous
 62
     1
100
AcDbCircle
 10
307.412829623
 20
184.643396534
 30
0.0
 40
2.0
100
AcDbArc
 50
180.0
 51
270.0
  0
ARC
  5
12B
330
1F
100
AcDbEntity
  8
4
  6
Continuous
 62
     1
100
AcDbCircle
 10
307.412829623
 20
270.643396534
 30
0.0
 40
4.0
100
AcDbArc
 50
90.0
 51
180.0
  0
LINE
  5
12C
330
1F
100
AcDbEntity
  8
4
  6
Continuous
 62
     1
100
AcDbLine
 10
307.412829623
 20
272.643396534
 30
0.0
 11
307.412829623
 21
274.643396534
 31
0.0
  0
LINE
  5
12D
330
1F
100
AcDbEntity
  8
4
  6
Continuous
 62
     1
100
AcDbLine
 10
303.412829623
 20
270.643396534
 30
0.0
 11
305.412829623
 21
270.643396534
 31
0.0
  0
ARC
  5
12E
330
1F
100
AcDbEntity
  8
4
  6
Continuous
 62
     1
100
AcDbCircle
 10
305.412829623
 20
272.643396534
 30
0.0
 40
2.0
100
AcDbArc
 50
270.0
 51
0.0
  0
ARC
  5
12F
330
1F
100
AcDbEntity
  8
4
  6
Continuous
 62
     1
100
AcDbCircle
 10
307.412829623
 20
270.643396534
 30
0.0
 40
2.0
100
AcDbArc
 50
90.0
 51
180.0
  0
LINE
  5
130
330
1F
100
AcDbEntity
  8
4
  6
LTYPE1
 62
     2
100
AcDbLine
 10
305.412829623
 20
270.643396534
 30
0.0
 11
305.412829623
 21
184.643396534
 31
0.0
  0
LINE
  5
131
330
1F
100
AcDbEntity
  8
4
  6
Continuous
 62
     1
100
AcDbLine
 10
303.412829623
 20
270.643396534
 30
0.0
 11
303.412829623
 21
184.643396534
 31
0.0
  0
LINE
  5
132
330
1F
100
AcDbEntity
  8
4
  6
LTYPE1
 62
     2
100
AcDbLine
 10
305.412829623
 20
184.643396534
 30
0.0
 11
305.412829623
 21
270.643396534
 31
0.0
  0
LINE
  5
133
330
1F
100
AcDbEntity
  8
4
  6
Continuous
 62
     1
100
AcDbLine
 10
303.412829623
 20
184.643396534
 30
0.0
 11
303.412829623
 21
270.643396534
 31
0.0
  0
LINE
  5
134
330
1F
100
AcDbEntity
  8
4
  6
LTYPE1
 62
     2
100
AcDbLine
 10
830.412829623
 20
182.643396534
 30
0.0
 11
307.412829623
 21
182.643396534
 31
0.0
  0
LINE
  5
135
330
1F
100
AcDbEntity
  8
4
  6
Continuous
 62
     1
100
AcDbLine
 10
830.412829623
 20
180.643396534
 30
0.0
 11
307.412829623
 21
180.643396534
 31
0.0
  0
LINE
  5
136
330
1F
100
AcDbEntity
  8
4
  6
LTYPE1
 62
     2
100
AcDbLine
 10
830.412829623
 20
272.643396534
 30
0.0
 11
307.412829623
 21
272.643396534
 31
0.0
  0
LINE
  5
137
330
1F
100
AcDbEntity
  8
4
  6
Continuous
 62
     1
100
AcDbLine
 10
830.412829623
 20
274.643396534
 30
0.0
 11
307.412829623
 21
274.643396534
 31
0.0
  0
LINE
  5
138
330
1F
100
AcDbEntity
  8
4
  6
LTYPE1
 62
     2
100
AcDbLine
 10
830.412829623
 20
272.643396534
 30
0.0
 11
307.412829623
 21
272.643396534
 31
0.0
  0
LINE
  5
139
330
1F
100
AcDbEntity
  8
4
  6
Continuous
 62
     1
100
AcDbLine
 10
830.412829623
 20
274.643396534
 30
0.0
 11
307.412829623
 21
274.643396534
 31
0.0
  0
CIRCLE
  5
13A
330
1F
100
AcDbEntity
  8
4
  6
Continuous
 62
     1
100
AcDbCircle
 10
568.912829623
 20
227.643396534
 30
0.0
 40
4.2
  0
CIRCLE
  5
13B
330
1F
100
AcDbEntity
  8
4
  6
Continuous
 62
     1
100
AcDbCircle
 10
688.912829623
 20
227.643396534
 30
0.0
 40
4.2
  0
CIRCLE
  5
13C
330
1F
100
AcDbEntity
  8
4
  6
Continuous
 62
     1
100
AcDbCircle
 10
508.912829623
 20
227.643396534
 30
0.0
 40
4.2
  0
CIRCLE
  5
13D
330
1F
100
AcDbEntity
  8
4
  6
Continuous
 62
     1
100
AcDbCircle
 10
628.912829623
 20
227.643396534
 30
0.0
 40
4.2
  0
CIRCLE
  5
13E
330
1F
100
AcDbEntity
  8
4
  6
Continuous
 62
     1
100
AcDbCircle
 10
448.912829623
 20
227.643396534
 30
0.0
 40
4.2
  0
CIRCLE
  5
13F
330
1F
100
AcDbEntity
  8
4
  6
Continuous
 62
     1
100
AcDbCircle
 10
328.912829623
 20
227.643396534
 30
0.0
 40
4.2
  0
ARC
  5
140
330
1F
100
AcDbEntity
  8
4
  6
Continuous
 62
     1
100
AcDbCircle
 10
830.412829623
 20
184.643396534
 30
0.0
 40
4.0
100
AcDbArc
 50
270.0
 51
0.0
  0
LINE
  5
141
330
1F
100
AcDbEntity
  8
4
  6
Continuous
 62
     1
100
AcDbLine
 10
830.412829623
 20
182.643396534
 30
0.0
 11
830.412829623
 21
180.643396534
 31
0.0
  0
LINE
  5
142
330
1F
100
AcDbEntity
  8
4
  6
Continuous
 62
     1
100
AcDbLine
 10
834.412829623
 20
184.643396534
 30
0.0
 11
832.412829623
 21
184.643396534
 31
0.0
  0
ARC
  5
143
330
1F
100
AcDbEntity
  8
4
  6
Continuous
 62
     1
100
AcDbCircle
 10
832.412829623
 20
182.643396534
 30
0.0
 40
2.0
100
AcDbArc
 50
90.0
 51
180.0
  0
ARC
  5
144
330
1F
100
AcDbEntity
  8
4
  6
Continuous
 62
     1
100
AcDbCircle
 10
830.412829623
 20
184.643396534
 30
0.0
 40
2.0
100
AcDbArc
 50
270.0
 51
0.0
  0
ARC
  5
145
330
1F
100
AcDbEntity
  8
4
  6
Continuous
 62
     1
100
AcDbCircle
 10
830.412829623
 20
270.643396534
 30
0.0
 40
4.0
100
AcDbArc
 50
0.0
 51
90.0
  0
LINE
  5
146
330
1F
100
AcDbEntity
  8
4
  6
Continuous
 62
     1
100
AcDbLine
 10
830.412829623
 20
272.643396534
 30
0.0
 11
830.412829623
 21
274.643396534
 31
0.0
  0
LINE
  5
147
330
1F
100
AcDbEntity
  8
4
  6
Continuous
 62
     1
100
AcDbLine
 10
834.412829623
 20
270.643396534
 30
0.0
 11
832.412829623
 21
270.643396534
 31
0.0
  0
ARC
  5
148
330
1F
100
AcDbEntity
  8
4
  6
Continuous
 62
     1
100
AcDbCircle
 10
832.412829623
 20
272.643396534
 30
0.0
 40
2.0
100
AcDbArc
 50
180.0
 51
270.0
  0
ARC
  5
149
330
1F
100
AcDbEntity
  8
4
  6
Continuous
 62
     1
100
AcDbCircle
 10
830.412829623
 20
270.643396534
 30
0.0
 40
2.0
100
AcDbArc
 50
0.0
 51
90.0
  0
LINE
  5
14A
330
1F
100
AcDbEntity
  8
4
  6
LTYPE1
 62
     2
100
AcDbLine
 10
832.412829623
 20
270.643396534
 30
0.0
 11
832.412829623
 21
184.643396534
 31
0.0
  0
LINE
  5
14B
330
1F
100
AcDbEntity
  8
4
  6
Continuous
 62
     1
100
AcDbLine
 10
834.412829623
 20
270.643396534
 30
0.0
 11
834.412829623
 21
184.643396534
 31
0.0
  0
LINE
  5
14C
330
1F
100
AcDbEntity
  8
4
  6
LTYPE1
 62
     2
100
AcDbLine
 10
832.412829623
 20
184.643396534
 30
0.0
 11
832.412829623
 21
270.643396534
 31
0.0
  0
LINE
  5
14D
330
1F
100
AcDbEntity
  8
4
  6
Continuous
 62
     1
100
AcDbLine
 10
834.412829623
 20
184.643396534
 30
0.0
 11
834.412829623
 21
270.643396534
 31
0.0
  0
CIRCLE
  5
14E
330
1F
100
AcDbEntity
  8
4
  6
Continuous
 62
     1
100
AcDbCircle
 10
808.912829623
 20
227.643396534
 30
0.0
 40
4.2
  0
LINE
  5
14F
330
1F
100
AcDbEntity
  8
5
  6
Continuous
 62
     1
100
AcDbLine
 10
206.162829623
 20
614.143396534
 30
0.0
 11
204.162829623
 21
614.143396534
 31
0.0
  0
ARC
  5
150
330
1F
100
AcDbEntity
  8
5
  6
Continuous
 62
     1
100
AcDbCircle
 10
204.162829623
 20
614.143396534
 30
0.0
 40
2.0
100
AcDbArc
 50
90.0
 51
270.0
  0
LINE
  5
151
330
1F
100
AcDbEntity
  8
5
  6
Continuous
 62
     1
100
AcDbLine
 10
204.162829623
 20
616.143396533
 30
0.0
 11
204.412829623
 21
616.143396533
 31
0.0
  0
ARC
  5
152
330
1F
100
AcDbEntity
  8
5
  6
Continuous
 62
     1
100
AcDbCircle
 10
204.412829623
 20
618.143396533
 30
0.0
 40
2.0
100
AcDbArc
 50
270.0
 51
0.0
  0
LINE
  5
153
330
1F
100
AcDbEntity
  8
5
  6
Continuous
 62
     1
100
AcDbLine
 10
206.412829623
 20
624.143396534
 30
0.0
 11
206.412829623
 21
618.143396533
 31
0.0
  0
ARC
  5
154
330
1F
100
AcDbEntity
  8
5
  6
Continuous
 62
     1
100
AcDbCircle
 10
181.412829623
 20
624.143396534
 30
0.0
 40
25.0
100
AcDbArc
 50
0.0
 51
90.0
  0
LINE
  5
155
330
1F
100
AcDbEntity
  8
5
  6
Continuous
 62
     1
100
AcDbLine
 10
116.662829623
 20
614.143396534
 30
0.0
 11
118.662829623
 21
614.143396534
 31
0.0
  0
ARC
  5
156
330
1F
100
AcDbEntity
  8
5
  6
Continuous
 62
     1
100
AcDbCircle
 10
118.662829623
 20
614.143396534
 30
0.0
 40
2.0
100
AcDbArc
 50
270.0
 51
90.0
  0
LINE
  5
157
330
1F
100
AcDbEntity
  8
5
  6
Continuous
 62
     1
100
AcDbLine
 10
118.662829623
 20
616.143396533
 30
0.0
 11
118.412829623
 21
616.143396533
 31
0.0
  0
ARC
  5
158
330
1F
100
AcDbEntity
  8
5
  6
Continuous
 62
     1
100
AcDbCircle
 10
118.412829623
 20
618.143396533
 30
0.0
 40
2.0
100
AcDbArc
 50
180.0
 51
270.0
  0
LINE
  5
159
330
1F
100
AcDbEntity
  8
5
  6
Continuous
 62
     1
100
AcDbLine
 10
116.412829623
 20
624.143396534
 30
0.0
 11
116.412829623
 21
618.143396533
 31
0.0
  0
ARC
  5
15A
330
1F
100
AcDbEntity
  8
5
  6
Continuous
 62
     1
100
AcDbCircle
 10
141.412829623
 20
624.143396534
 30
0.0
 40
25.0
100
AcDbArc
 50
90.0
 51
180.0
  0
LINE
  5
15B
330
1F
100
AcDbEntity
  8
5
  6
Continuous
 62
     1
100
AcDbLine
 10
181.412829623
 20
649.143396534
 30
0.0
 11
141.412829623
 21
649.143396534
 31
0.0
  0
ARC
  5
15C
330
1F
100
AcDbEntity
  8
4
  6
Continuous
 62
     1
100
AcDbCircle
 10
204.412829623
 20
378.143396534
 30
0.0
 40
4.0
100
AcDbArc
 50
270.0
 51
0.0
  0
LINE
  5
15D
330
1F
100
AcDbEntity
  8
4
  6
Continuous
 62
     1
100
AcDbLine
 10
204.412829623
 20
376.143396534
 30
0.0
 11
204.412829623
 21
374.143396534
 31
0.0
  0
LWPOLYLINE
  5
15F
330
1F
100
AcDbEntity
  8
4
  6
Continuous
 62
     1
100
AcDbPolyline
 90
     3
 70
   128
 43
0.0
 10
204.412829623
 20
376.143396534
 42
-0.414213562
 10
206.412829623
 20
378.143396534
 42
0.0
 10
208.412829623
 20
378.143396534
 42
0.0
  0
ARC
  5
160
330
1F
100
AcDbEntity
  8
4
  6
Continuous
 62
     1
100
AcDbCircle
 10
204.412829623
 20
378.143396534
 30
0.0
 40
2.0
100
AcDbArc
 50
270.0
 51
0.0
  0
ARC
  5
161
330
1F
100
AcDbEntity
  8
4
  6
Continuous
 62
     1
100
AcDbCircle
 10
118.412829623
 20
378.143396534
 30
0.0
 40
4.0
100
AcDbArc
 50
180.0
 51
270.0
  0
LINE
  5
162
330
1F
100
AcDbEntity
  8
4
  6
Continuous
 62
     1
100
AcDbLine
 10
118.412829623
 20
376.143396534
 30
0.0
 11
118.412829623
 21
374.143396534
 31
0.0
  0
LWPOLYLINE
  5
164
330
1F
100
AcDbEntity
  8
4
  6
Continuous
 62
     1
100
AcDbPolyline
 90
     3
 70
   128
 43
0.0
 10
118.412829623
 20
376.143396534
 42
0.414213562
 10
116.412829623
 20
378.143396534
 42
0.0
 10
114.412829623
 20
378.143396534
 42
0.0
  0
ARC
  5
165
330
1F
100
AcDbEntity
  8
4
  6
Continuous
 62
     1
100
AcDbCircle
 10
118.412829623
 20
378.143396534
 30
0.0
 40
2.0
100
AcDbArc
 50
180.0
 51
270.0
  0
LINE
  5
166
330
1F
100
AcDbEntity
  8
4
  6
Continuous
 62
     1
100
AcDbLine
 10
204.412829623
 20
374.143396534
 30
0.0
 11
118.412829623
 21
374.143396534
 31
0.0
  0
LINE
  5
167
330
1F
100
AcDbEntity
  8
4
  6
LTYPE1
 62
     2
100
AcDbLine
 10
204.412829623
 20
376.143396534
 30
0.0
 11
118.412829623
 21
376.143396534
 31
0.0
  0
LINE
  5
168
330
1F
100
AcDbEntity
  8
4
  6
LTYPE1
 62
     2
100
AcDbLine
 10
116.412829623
 20
399.143396534
 30
0.0
 11
114.412829623
 21
399.143396534
 31
0.0
  0
LINE
  5
169
330
1F
100
AcDbEntity
  8
4
  6
LTYPE1
 62
     2
100
AcDbLine
 10
208.412829623
 20
399.143396534
 30
0.0
 11
206.412829623
 21
399.143396534
 31
0.0
  0
LINE
  5
16A
330
1F
100
AcDbEntity
  8
4
  6
LTYPE1
 62
     2
100
AcDbLine
 10
116.412829623
 20
549.143396534
 30
0.0
 11
116.412829623
 21
378.143396534
 31
0.0
  0
LINE
  5
16B
330
1F
100
AcDbEntity
  8
4
  6
LTYPE1
 62
     2
100
AcDbLine
 10
206.412829623
 20
549.143396534
 30
0.0
 11
206.412829623
 21
378.143396534
 31
0.0
  0
LINE
  5
16C
330
1F
100
AcDbEntity
  8
4
  6
Continuous
 62
     1
100
AcDbLine
 10
208.412829623
 20
549.143396534
 30
0.0
 11
208.412829623
 21
378.143396534
 31
0.0
  0
LINE
  5
16D
330
1F
100
AcDbEntity
  8
4
  6
Continuous
 62
     1
100
AcDbLine
 10
114.412829623
 20
549.143396534
 30
0.0
 11
114.412829623
 21
378.143396534
 31
0.0
  0
LINE
  5
16E
330
1F
100
AcDbEntity
  8
4
  6
Continuous
 62
     1
100
AcDbLine
 10
208.412829623
 20
549.143396534
 30
0.0
 11
178.733337699
 21
549.143396534
 31
0.0
  0
LWPOLYLINE
  5
170
330
1F
100
AcDbEntity
  8
4
  6
Continuous
 62
     1
100
AcDbPolyline
 90
     3
 70
   128
 43
0.0
 10
178.733337699
 20
549.143396534
 42
-0.577350269
 10
144.092321547
 20
549.143396534
 42
0.0
 10
114.412829623
 20
549.143396534
 42
0.0
  0
CIRCLE
  5
171
330
1F
100
AcDbEntity
  8
4
  6
Continuous
 62
     1
100
AcDbCircle
 10
161.412829623
 20
514.143396534
 30
0.0
 40
4.2
  0
CIRCLE
  5
172
330
1F
100
AcDbEntity
  8
4
  6
Continuous
 62
     1
100
AcDbCircle
 10
161.412829623
 20
394.143396534
 30
0.0
 40
4.2
  0
ARC
  5
173
330
1F
100
AcDbEntity
  8
5
  6
Continuous
 62
     1
100
AcDbCircle
 10
161.412829623
 20
574.143396534
 30
0.0
 40
20.0
100
AcDbArc
 50
359.999912574
 51
180.0
  0
LINE
  5
174
330
1F
100
AcDbEntity
  8
5
  6
Continuous
 62
     1
100
AcDbLine
 10
181.412829623
 20
549.143396534
 30
0.0
 11
181.412829623
 21
574.143366016
 31
0.0
  0
LINE
  5
175
330
1F
100
AcDbEntity
  8
5
  6
Continuous
 62
     1
100
AcDbLine
 10
141.412829623
 20
574.143396534
 30
0.0
 11
141.412829623
 21
549.143396534
 31
0.0
  0
LINE
  5
176
330
1F
100
AcDbEntity
  8
5
  6
LTYPE1
 62
     2
100
AcDbLine
 10
141.412829623
 20
549.143396534
 30
0.0
 11
141.412829623
 21
514.143374954
 31
0.0
  0
LINE
  5
177
330
1F
100
AcDbEntity
  8
5
  6
LTYPE1
 62
     2
100
AcDbLine
 10
181.412829623
 20
514.143374954
 30
0.0
 11
181.412829623
 21
549.143396534
 31
0.0
  0
ARC
  5
178
330
1F
100
AcDbEntity
  8
5
  6
LTYPE1
 62
     2
100
AcDbCircle
 10
161.412829623
 20
514.143396534
 30
0.0
 40
20.0
100
AcDbArc
 50
180.00006182
 51
359.99993818
  0
LINE
  5
179
330
1F
100
AcDbEntity
  8
5
  6
Continuous
 62
     1
100
AcDbLine
 10
116.662829623
 20
614.143396534
 30
0.0
 11
116.662829623
 21
549.143396534
 31
0.0
  0
LINE
  5
17A
330
1F
100
AcDbEntity
  8
5
  6
Continuous
 62
     1
100
AcDbLine
 10
118.662829623
 20
614.143396534
 30
0.0
 11
118.662829623
 21
549.143396534
 31
0.0
  0
LINE
  5
17B
330
1F
100
AcDbEntity
  8
5
  6
LTYPE1
 62
     2
100
AcDbLine
 10
116.662829623
 20
549.143396534
 30
0.0
 11
116.662829623
 21
454.143396534
 31
0.0
  0
LINE
  5
17C
330
1F
100
AcDbEntity
  8
5
  6
LTYPE1
 62
     2
100
AcDbLine
 10
118.662829623
 20
549.143396534
 30
0.0
 11
118.662829623
 21
454.143396534
 31
0.0
  0
LINE
  5
17D
330
1F
100
AcDbEntity
  8
5
  6
LTYPE1
 62
     2
100
AcDbLine
 10
141.412829623
 20
454.143396534
 30
0.0
 11
116.662829623
 21
454.143396534
 31
0.0
  0
ARC
  5
17E
330
1F
100
AcDbEntity
  8
5
  6
LTYPE1
 62
     2
100
AcDbCircle
 10
161.412829623
 20
454.143396534
 30
0.0
 40
20.0
100
AcDbArc
 50
0.0
 51
180.0
  0
LINE
  5
17F
330
1F
100
AcDbEntity
  8
5
  6
LTYPE1
 62
     2
100
AcDbLine
 10
206.162829623
 20
454.143396534
 30
0.0
 11
181.412829623
 21
454.143396534
 31
0.0
  0
LINE
  5
180
330
1F
100
AcDbEntity
  8
5
  6
Continuous
 62
     1
100
AcDbLine
 10
204.162829623
 20
614.143396534
 30
0.0
 11
204.162829623
 21
549.143396534
 31
0.0
  0
LINE
  5
181
330
1F
100
AcDbEntity
  8
5
  6
Continuous
 62
     1
100
AcDbLine
 10
206.162829623
 20
614.143396534
 30
0.0
 11
206.162829623
 21
549.143396534
 31
0.0
  0
LINE
  5
182
330
1F
100
AcDbEntity
  8
5
  6
LTYPE1
 62
     2
100
AcDbLine
 10
204.162829623
 20
549.143396534
 30
0.0
 11
204.162829623
 21
454.143396534
 31
0.0
  0
LINE
  5
183
330
1F
100
AcDbEntity
  8
5
  6
LTYPE1
 62
     2
100
AcDbLine
 10
206.162829623
 20
549.143396534
 30
0.0
 11
206.162829623
 21
454.143396534
 31
0.0
  0
LINE
  5
184
330
1F
100
AcDbEntity
  8
5
  6
Continuous
 62
     2
100
AcDbLine
 10
197.662829623
 20
605.643396534
 30
0.0
 11
197.662829623
 21
592.643396534
 31
0.0
  0
LINE
  5
185
330
1F
100
AcDbEntity
  8
5
  6
Continuous
 62
     2
100
AcDbLine
 10
125.162829623
 20
605.643396534
 30
0.0
 11
125.162829623
 21
592.643396534
 31
0.0
  0
LINE
  5
186
330
1F
100
AcDbEntity
  8
5
  6
Continuous
 62
     2
100
AcDbLine
 10
125.162829623
 20
605.643396534
 30
0.0
 11
118.662829623
 21
605.643396534
 31
0.0
  0
LINE
  5
187
330
1F
100
AcDbEntity
  8
5
  6
Continuous
 62
     2
100
AcDbLine
 10
125.162829623
 20
592.643396534
 30
0.0
 11
118.662829623
 21
592.643396534
 31
0.0
  0
LINE
  5
188
330
1F
100
AcDbEntity
  8
5
  6
Continuous
 62
     2
100
AcDbLine
 10
204.162829623
 20
605.643396534
 30
0.0
 11
197.662829623
 21
605.643396534
 31
0.0
  0
LINE
  5
189
330
1F
100
AcDbEntity
  8
5
  6
Continuous
 62
     2
100
AcDbLine
 10
204.162829623
 20
592.643396534
 30
0.0
 11
197.662829623
 21
592.643396534
 31
0.0
  0
LINE
  5
18B
330
1F
100
AcDbEntity
  8
5
  6
LTYPE3
 62
     2
100
AcDbLine
 10
568.912829623
 20
281.275141647
 30
0.0
 11
568.912829623
 21
174.01165142
 31
0.0
  0
LINE
  5
18C
330
1F
100
AcDbEntity
  8
3
  6
Continuous
 62
     2
100
AcDbLine
 10
331.412829623
 20
627.643396534
 30
0.0
 11
329.812829623
 21
627.643396534
 31
0.0
  0
LINE
  5
18D
330
1F
100
AcDbEntity
  8
3
  6
Continuous
 62
     2
100
AcDbLine
 10
329.812829623
 20
626.843396534
 30
0.0
 11
327.812829623
 21
626.843396534
 31
0.0
  0
LINE
  5
18E
330
1F
100
AcDbEntity
  8
3
  6
Continuous
 62
     2
100
AcDbLine
 10
327.812829623
 20
626.643396534
 30
0.0
 11
323.212829623
 21
626.643396534
 31
0.0
  0
LINE
  5
18F
330
1F
100
AcDbEntity
  8
3
  6
Continuous
 62
     2
100
AcDbLine
 10
327.812829623
 20
622.943396534
 30
0.0
 11
323.212829623
 21
622.943396534
 31
0.0
  0
LINE
  5
190
330
1F
100
AcDbEntity
  8
3
  6
Continuous
 62
     2
100
AcDbLine
 10
327.812829623
 20
615.343396534
 30
0.0
 11
323.212829623
 21
615.343396534
 31
0.0
  0
ARC
  5
191
330
1F
100
AcDbEntity
  8
3
  6
Continuous
 62
     2
100
AcDbCircle
 10
325.312829623
 20
624.843396534
 30
0.0
 40
2.8
100
AcDbArc
 50
138.5
 51
221.5
  0
ARC
  5
192
330
1F
100
AcDbEntity
  8
3
  6
Continuous
 62
     2
100
AcDbCircle
 10
333.212829623
 20
619.143396534
 30
0.0
 40
10.7
100
AcDbArc
 50
159.1
 51
200.9
  0
LINE
  5
193
330
1F
100
AcDbEntity
  8
3
  6
Continuous
 62
     2
100
AcDbLine
 10
327.812829623
 20
619.143396534
 30
0.0
 11
329.812829623
 21
620.298097072
 31
0.0
  0
LINE
  5
194
330
1F
100
AcDbEntity
  8
3
  6
Continuous
 62
     2
100
AcDbLine
 10
329.812829623
 20
619.143396534
 30
0.0
 11
327.812829623
 21
617.988695995
 31
0.0
  0
LINE
  5
195
330
1F
100
AcDbEntity
  8
3
  6
Continuous
 62
     2
100
AcDbLine
 10
808.012829623
 20
627.643396534
 30
0.0
 11
806.412829623
 21
627.643396534
 31
0.0
  0
LINE
  5
196
330
1F
100
AcDbEntity
  8
3
  6
Continuous
 62
     2
100
AcDbLine
 10
810.012829623
 20
626.843396534
 30
0.0
 11
808.012829623
 21
626.843396534
 31
0.0
  0
LINE
  5
197
330
1F
100
AcDbEntity
  8
3
  6
Continuous
 62
     2
100
AcDbLine
 10
810.012829623
 20
626.643396534
 30
0.0
 11
814.612829623
 21
626.643396534
 31
0.0
  0
LINE
  5
198
330
1F
100
AcDbEntity
  8
3
  6
Continuous
 62
     2
100
AcDbLine
 10
810.012829623
 20
615.343396534
 30
0.0
 11
814.612829623
 21
615.343396534
 31
0.0
  0
LINE
  5
199
330
1F
100
AcDbEntity
  8
3
  6
Continuous
 62
     2
100
AcDbLine
 10
810.012829623
 20
622.943396534
 30
0.0
 11
814.612829623
 21
622.943396534
 31
0.0
  0
ARC
  5
19A
330
1F
100
AcDbEntity
  8
3
  6
Continuous
 62
     2
100
AcDbCircle
 10
804.612829623
 20
619.143396534
 30
0.0
 40
10.7
100
AcDbArc
 50
339.1
 51
20.9
  0
ARC
  5
19B
330
1F
100
AcDbEntity
  8
3
  6
Continuous
 62
     2
100
AcDbCircle
 10
812.512829623
 20
624.843396534
 30
0.0
 40
2.8
100
AcDbArc
 50
318.5
 51
41.5
  0
LINE
  5
19C
330
1F
100
AcDbEntity
  8
3
  6
Continuous
 62
     2
100
AcDbLine
 10
810.012829623
 20
619.143396534
 30
0.0
 11
808.012829623
 21
617.988695995
 31
0.0
  0
LINE
  5
19D
330
1F
100
AcDbEntity
  8
3
  6
Continuous
 62
     2
100
AcDbLine
 10
808.012829623
 20
619.143396534
 30
0.0
 11
810.012829623
 21
620.298097072
 31
0.0
  0
CIRCLE
  5
19E
330
1F
100
AcDbEntity
  8
3
  6
Continuous
 62
     2
100
AcDbCircle
 10
318.412829623
 20
539.143396534
 30
0.0
 40
5.0
  0
LWPOLYLINE
  5
1A0
330
1F
100
AcDbEntity
  8
3
  6
Continuous
 62
     2
100
AcDbPolyline
 90
     6
 70
   129
 43
0.0
 10
321.312829623
 20
544.143396534
 10
315.512829623
 20
544.143396534
 10
312.612829623
 20
539.143396534
 10
315.512829623
 20
534.143396534
 10
321.312829623
 20
534.143396534
 10
324.212829623
 20
539.143396534
  0
CIRCLE
  5
1A1
330
1F
100
AcDbEntity
  8
3
  6
Continuous
 62
     2
100
AcDbCircle
 10
318.412829623
 20
539.143396534
 30
0.0
 40
6.1
  0
CIRCLE
  5
1A2
330
1F
100
AcDbEntity
  8
3
  6
Continuous
 62
     2
100
AcDbCircle
 10
318.412829623
 20
539.143396534
 30
0.0
 40
6.3
  0
CIRCLE
  5
1A3
330
1F
100
AcDbEntity
  8
3
  6
Continuous
 62
     2
100
AcDbCircle
 10
318.412829623
 20
469.143396534
 30
0.0
 40
5.0
  0
LWPOLYLINE
  5
1A5
330
1F
100
AcDbEntity
  8
3
  6
Continuous
 62
     2
100
AcDbPolyline
 90
     6
 70
   129
 43
0.0
 10
321.312829623
 20
474.143396534
 10
315.512829623
 20
474.143396534
 10
312.612829623
 20
469.143396534
 10
315.512829623
 20
464.143396534
 10
321.312829623
 20
464.143396534
 10
324.212829623
 20
469.143396534
  0
CIRCLE
  5
1A6
330
1F
100
AcDbEntity
  8
3
  6
Continuous
 62
     2
100
AcDbCircle
 10
318.412829623
 20
469.143396534
 30
0.0
 40
6.1
  0
CIRCLE
  5
1A7
330
1F
100
AcDbEntity
  8
3
  6
Continuous
 62
     2
100
AcDbCircle
 10
318.412829623
 20
469.143396534
 30
0.0
 40
6.3
  0
CIRCLE
  5
1A8
330
1F
100
AcDbEntity
  8
3
  6
Continuous
 62
     2
100
AcDbCircle
 10
819.412829623
 20
599.143396534
 30
0.0
 40
5.0
  0
LWPOLYLINE
  5
1AA
330
1F
100
AcDbEntity
  8
3
  6
Continuous
 62
     2
100
AcDbPolyline
 90
     6
 70
   129
 43
0.0
 10
822.312829623
 20
604.143396534
 10
816.512829623
 20
604.143396534
 10
813.612829623
 20
599.143396534
 10
816.512829623
 20
594.143396534
 10
822.312829623
 20
594.143396534
 10
825.212829623
 20
599.143396534
  0
CIRCLE
  5
1AB
330
1F
100
AcDbEntity
  8
3
  6
Continuous
 62
     2
100
AcDbCircle
 10
819.412829623
 20
599.143396534
 30
0.0
 40
6.1
  0
CIRCLE
  5
1AC
330
1F
100
AcDbEntity
  8
3
  6
Continuous
 62
     2
100
AcDbCircle
 10
819.412829623
 20
599.143396534
 30
0.0
 40
6.3
  0
CIRCLE
  5
1AD
330
1F
100
AcDbEntity
  8
3
  6
Continuous
 62
     2
100
AcDbCircle
 10
819.412829623
 20
469.143396534
 30
0.0
 40
5.0
  0
LWPOLYLINE
  5
1AF
330
1F
100
AcDbEntity
  8
3
  6
Continuous
 62
     2
100
AcDbPolyline
 90
     6
 70
   129
 43
0.0
 10
822.312829623
 20
474.143396534
 10
816.512829623
 20
474.143396534
 10
813.612829623
 20
469.143396534
 10
816.512829623
 20
464.143396534
 10
822.312829623
 20
464.143396534
 10
825.212829623
 20
469.143396534
  0
CIRCLE
  5
1B0
330
1F
100
AcDbEntity
  8
3
  6
Continuous
 62
     2
100
AcDbCircle
 10
819.412829623
 20
469.143396534
 30
0.0
 40
6.1
  0
CIRCLE
  5
1B1
330
1F
100
AcDbEntity
  8
3
  6
Continuous
 62
     2
100
AcDbCircle
 10
819.412829623
 20
469.143396534
 30
0.0
 40
6.3
  0
LWPOLYLINE
  5
1B3
330
1F
100
AcDbEntity
  8
3
  6
Continuous
 62
     2
100
AcDbPolyline
 90
     4
 70
   129
 43
0.0
 10
312.112829623
 20
274.643396534
 10
324.712829623
 20
274.643396534
 10
324.712829623
 20
276.243396534
 10
312.112829623
 20
276.243396534
  0
LWPOLYLINE
  5
1B5
330
1F
100
AcDbEntity
  8
3
  6
Continuous
 62
     2
100
AcDbPolyline
 90
     4
 70
   128
 43
0.0
 10
324.512829623
 20
276.243396534
 10
324.512829623
 20
277.743396534
 10
312.312829623
 20
277.743396534
 10
312.312829623
 20
276.243396534
  0
LINE
  5
1B6
330
1F
100
AcDbEntity
  8
3
  6
Continuous
 62
     2
100
AcDbLine
 10
312.612829623
 20
281.243396534
 30
0.0
 11
312.612829623
 21
277.743396534
 31
0.0
  0
LINE
  5
1B7
330
1F
100
AcDbEntity
  8
3
  6
Continuous
 62
     2
100
AcDbLine
 10
324.212829623
 20
277.743396534
 30
0.0
 11
324.212829623
 21
281.243396534
 31
0.0
  0
LINE
  5
1B8
330
1F
100
AcDbEntity
  8
3
  6
Continuous
 62
     2
100
AcDbLine
 10
321.312829623
 20
277.743396534
 30
0.0
 11
321.312829623
 21
281.243396534
 31
0.0
  0
LINE
  5
1B9
330
1F
100
AcDbEntity
  8
3
  6
Continuous
 62
     2
100
AcDbLine
 10
315.512829623
 20
277.743396534
 30
0.0
 11
315.512829623
 21
281.243396534
 31
0.0
  0
LINE
  5
1BA
330
1F
100
AcDbEntity
  8
3
  6
Continuous
 62
     2
100
AcDbLine
 10
314.112829623
 20
281.743396534
 30
0.0
 11
322.712829623
 21
281.743396534
 31
0.0
  0
ARC
  5
1BB
330
1F
100
AcDbEntity
  8
3
  6
Continuous
 62
     2
100
AcDbCircle
 10
318.412829623
 20
273.043396534
 30
0.0
 40
8.7
100
AcDbArc
 50
70.4
 51
109.6
  0
ARC
  5
1BC
330
1F
100
AcDbEntity
  8
3
  6
Continuous
 62
     2
100
AcDbCircle
 10
322.812829623
 20
279.343396534
 30
0.0
 40
2.4
100
AcDbArc
 50
53.6
 51
128.1
  0
ARC
  5
1BD
330
1F
100
AcDbEntity
  8
3
  6
Continuous
 62
     2
100
AcDbCircle
 10
314.012829623
 20
279.343396534
 30
0.0
 40
2.4
100
AcDbArc
 50
51.9
 51
126.4
  0
LINE
  5
1BE
330
1F
100
AcDbEntity
  8
3
  6
Continuous
 62
     2
100
AcDbLine
 10
318.412829623
 20
277.743396534
 30
0.0
 11
319.278855027
 21
276.243396534
 31
0.0
  0
LINE
  5
1BF
330
1F
100
AcDbEntity
  8
3
  6
Continuous
 62
     2
100
AcDbLine
 10
318.412829623
 20
276.243396534
 30
0.0
 11
317.546804219
 21
277.743396534
 31
0.0
  0
LWPOLYLINE
  5
1C1
330
1F
100
AcDbEntity
  8
3
  6
Continuous
 62
     2
100
AcDbPolyline
 90
     4
 70
   129
 43
0.0
 10
813.112829623
 20
274.643396534
 10
825.712829623
 20
274.643396534
 10
825.712829623
 20
276.243396534
 10
813.112829623
 20
276.243396534
  0
LWPOLYLINE
  5
1C3
330
1F
100
AcDbEntity
  8
3
  6
Continuous
 62
     2
100
AcDbPolyline
 90
     4
 70
   128
 43
0.0
 10
825.512829623
 20
276.243396534
 10
825.512829623
 20
277.743396534
 10
813.312829623
 20
277.743396534
 10
813.312829623
 20
276.243396534
  0
LINE
  5
1C4
330
1F
100
AcDbEntity
  8
3
  6
Continuous
 62
     2
100
AcDbLine
 10
813.612829623
 20
281.243396534
 30
0.0
 11
813.612829623
 21
277.743396534
 31
0.0
  0
LINE
  5
1C5
330
1F
100
AcDbEntity
  8
3
  6
Continuous
 62
     2
100
AcDbLine
 10
825.212829623
 20
277.743396534
 30
0.0
 11
825.212829623
 21
281.243396534
 31
0.0
  0
LINE
  5
1C6
330
1F
100
AcDbEntity
  8
3
  6
Continuous
 62
     2
100
AcDbLine
 10
822.312829623
 20
277.743396534
 30
0.0
 11
822.312829623
 21
281.243396534
 31
0.0
  0
LINE
  5
1C7
330
1F
100
AcDbEntity
  8
3
  6
Continuous
 62
     2
100
AcDbLine
 10
816.512829623
 20
277.743396534
 30
0.0
 11
816.512829623
 21
281.243396534
 31
0.0
  0
LINE
  5
1C8
330
1F
100
AcDbEntity
  8
3
  6
Continuous
 62
     2
100
AcDbLine
 10
815.112829623
 20
281.743396534
 30
0.0
 11
823.712829623
 21
281.743396534
 31
0.0
  0
ARC
  5
1C9
330
1F
100
AcDbEntity
  8
3
  6
Continuous
 62
     2
100
AcDbCircle
 10
819.412829623
 20
273.043396534
 30
0.0
 40
8.7
100
AcDbArc
 50
70.4
 51
109.6
  0
ARC
  5
1CA
330
1F
100
AcDbEntity
  8
3
  6
Continuous
 62
     2
100
AcDbCircle
 10
823.812829623
 20
279.343396534
 30
0.0
 40
2.4
100
AcDbArc
 50
53.6
 51
128.1
  0
ARC
  5
1CB
330
1F
100
AcDbEntity
  8
3
  6
Continuous
 62
     2
100
AcDbCircle
 10
815.012829623
 20
279.343396534
 30
0.0
 40
2.4
100
AcDbArc
 50
51.9
 51
126.4
  0
LINE
  5
1CC
330
1F
100
AcDbEntity
  8
3
  6
Continuous
 62
     2
100
AcDbLine
 10
819.412829623
 20
277.743396534
 30
0.0
 11
820.278855027
 21
276.243396534
 31
0.0
  0
LINE
  5
1CD
330
1F
100
AcDbEntity
  8
3
  6
Continuous
 62
     2
100
AcDbLine
 10
819.412829623
 20
276.243396534
 30
0.0
 11
818.546804219
 21
277.743396534
 31
0.0
  0
LWPOLYLINE
  5
1CF
330
1F
100
AcDbEntity
  8
3
  6
Continuous
 62
     2
100
AcDbPolyline
 90
     4
 70
   129
 43
0.0
 10
825.712829623
 20
180.643396534
 10
813.112829623
 20
180.643396534
 10
813.112829623
 20
179.043396534
 10
825.712829623
 20
179.043396534
  0
LWPOLYLINE
  5
1D1
330
1F
100
AcDbEntity
  8
3
  6
Continuous
 62
     2
100
AcDbPolyline
 90
     4
 70
   128
 43
0.0
 10
813.312829623
 20
179.043396534
 10
813.312829623
 20
177.543396534
 10
825.512829623
 20
177.543396534
 10
825.512829623
 20
179.043396534
  0
LINE
  5
1D2
330
1F
100
AcDbEntity
  8
3
  6
Continuous
 62
     2
100
AcDbLine
 10
825.212829623
 20
174.043396534
 30
0.0
 11
825.212829623
 21
177.543396534
 31
0.0
  0
LINE
  5
1D3
330
1F
100
AcDbEntity
  8
3
  6
Continuous
 62
     2
100
AcDbLine
 10
813.612829623
 20
177.543396534
 30
0.0
 11
813.612829623
 21
174.043396534
 31
0.0
  0
LINE
  5
1D4
330
1F
100
AcDbEntity
  8
3
  6
Continuous
 62
     2
100
AcDbLine
 10
816.512829623
 20
177.543396534
 30
0.0
 11
816.512829623
 21
174.043396534
 31
0.0
  0
LINE
  5
1D5
330
1F
100
AcDbEntity
  8
3
  6
Continuous
 62
     2
100
AcDbLine
 10
822.312829623
 20
177.543396534
 30
0.0
 11
822.312829623
 21
174.043396534
 31
0.0
  0
LINE
  5
1D6
330
1F
100
AcDbEntity
  8
3
  6
Continuous
 62
     2
100
AcDbLine
 10
823.712829623
 20
173.543396534
 30
0.0
 11
815.112829623
 21
173.543396534
 31
0.0
  0
ARC
  5
1D7
330
1F
100
AcDbEntity
  8
3
  6
Continuous
 62
     2
100
AcDbCircle
 10
819.412829623
 20
182.243396534
 30
0.0
 40
8.7
100
AcDbArc
 50
250.4
 51
289.6
  0
ARC
  5
1D8
330
1F
100
AcDbEntity
  8
3
  6
Continuous
 62
     2
100
AcDbCircle
 10
815.012829623
 20
175.943396534
 30
0.0
 40
2.4
100
AcDbArc
 50
233.6
 51
308.1
  0
ARC
  5
1D9
330
1F
100
AcDbEntity
  8
3
  6
Continuous
 62
     2
100
AcDbCircle
 10
823.812829623
 20
175.943396534
 30
0.0
 40
2.4
100
AcDbArc
 50
231.9
 51
306.4
  0
LINE
  5
1DA
330
1F
100
AcDbEntity
  8
3
  6
Continuous
 62
     2
100
AcDbLine
 10
819.412829623
 20
177.543396534
 30
0.0
 11
818.546804219
 21
179.043396534
 31
0.0
  0
LINE
  5
1DB
330
1F
100
AcDbEntity
  8
3
  6
Continuous
 62
     2
100
AcDbLine
 10
819.412829623
 20
179.043396534
 30
0.0
 11
820.278855027
 21
177.543396534
 31
0.0
  0
LWPOLYLINE
  5
1DD
330
1F
100
AcDbEntity
  8
3
  6
Continuous
 62
     2
100
AcDbPolyline
 90
     4
 70
   129
 43
0.0
 10
324.712829623
 20
180.643396534
 10
312.112829623
 20
180.643396534
 10
312.112829623
 20
179.043396534
 10
324.712829623
 20
179.043396534
  0
LWPOLYLINE
  5
1DF
330
1F
100
AcDbEntity
  8
3
  6
Continuous
 62
     2
100
AcDbPolyline
 90
     4
 70
   128
 43
0.0
 10
312.312829623
 20
179.043396534
 10
312.312829623
 20
177.543396534
 10
324.512829623
 20
177.543396534
 10
324.512829623
 20
179.043396534
  0
LINE
  5
1E0
330
1F
100
AcDbEntity
  8
3
  6
Continuous
 62
     2
100
AcDbLine
 10
324.212829623
 20
174.043396534
 30
0.0
 11
324.212829623
 21
177.543396534
 31
0.0
  0
LINE
  5
1E1
330
1F
100
AcDbEntity
  8
3
  6
Continuous
 62
     2
100
AcDbLine
 10
312.612829623
 20
177.543396534
 30
0.0
 11
312.612829623
 21
174.043396534
 31
0.0
  0
LINE
  5
1E2
330
1F
100
AcDbEntity
  8
3
  6
Continuous
 62
     2
100
AcDbLine
 10
315.512829623
 20
177.543396534
 30
0.0
 11
315.512829623
 21
174.043396534
 31
0.0
  0
LINE
  5
1E3
330
1F
100
AcDbEntity
  8
3
  6
Continuous
 62
     2
100
AcDbLine
 10
321.312829623
 20
177.543396534
 30
0.0
 11
321.312829623
 21
174.043396534
 31
0.0
  0
LINE
  5
1E4
330
1F
100
AcDbEntity
  8
3
  6
Continuous
 62
     2
100
AcDbLine
 10
322.712829623
 20
173.543396534
 30
0.0
 11
314.112829623
 21
173.543396534
 31
0.0
  0
ARC
  5
1E5
330
1F
100
AcDbEntity
  8
3
  6
Continuous
 62
     2
100
AcDbCircle
 10
318.412829623
 20
182.243396534
 30
0.0
 40
8.7
100
AcDbArc
 50
250.4
 51
289.6
  0
ARC
  5
1E6
330
1F
100
AcDbEntity
  8
3
  6
Continuous
 62
     2
100
AcDbCircle
 10
314.012829623
 20
175.943396534
 30
0.0
 40
2.4
100
AcDbArc
 50
233.6
 51
308.1
  0
ARC
  5
1E7
330
1F
100
AcDbEntity
  8
3
  6
Continuous
 62
     2
100
AcDbCircle
 10
322.812829623
 20
175.943396534
 30
0.0
 40
2.4
100
AcDbArc
 50
231.9
 51
306.4
  0
LINE
  5
1E8
330
1F
100
AcDbEntity
  8
3
  6
Continuous
 62
     2
100
AcDbLine
 10
318.412829623
 20
177.543396534
 30
0.0
 11
317.546804219
 21
179.043396534
 31
0.0
  0
LINE
  5
1E9
330
1F
100
AcDbEntity
  8
3
  6
Continuous
 62
     2
100
AcDbLine
 10
318.412829623
 20
179.043396534
 30
0.0
 11
319.278855027
 21
177.543396534
 31
0.0
  0
CIRCLE
  5
1EA
330
1F
100
AcDbEntity
  8
3
  6
Continuous
 62
     2
100
AcDbCircle
 10
161.412829623
 20
619.143396534
 30
0.0
 40
6.5
  0
LWPOLYLINE
  5
1EC
330
1F
100
AcDbEntity
  8
3
  6
Continuous
 62
     2
100
AcDbPolyline
 90
     6
 70
   129
 43
0.0
 10
165.212829623
 20
625.643396534
 10
157.612829623
 20
625.643396534
 10
153.912829623
 20
619.143396534
 10
157.612829623
 20
612.643396534
 10
165.212829623
 20
612.643396534
 10
168.912829623
 20
619.143396534
  0
CIRCLE
  5
1ED
330
1F
100
AcDbEntity
  8
3
  6
Continuous
 62
     2
100
AcDbCircle
 10
161.412829623
 20
619.143396534
 30
0.0
 40
7.7
  0
CIRCLE
  5
1EE
330
1F
100
AcDbEntity
  8
3
  6
Continuous
 62
     2
100
AcDbCircle
 10
161.412829623
 20
619.143396534
 30
0.0
 40
8.5
  0
LWPOLYLINE
  5
1F0
330
1F
100
AcDbEntity
  8
3
  6
Continuous
 62
     2
100
AcDbPolyline
 90
     4
 70
   129
 43
0.0
 10
114.412829623
 20
532.843396534
 10
114.412829623
 20
545.443396534
 10
112.812829623
 20
545.443396534
 10
112.812829623
 20
532.843396534
  0
LWPOLYLINE
  5
1F2
330
1F
100
AcDbEntity
  8
3
  6
Continuous
 62
     2
100
AcDbPolyline
 90
     4
 70
   128
 43
0.0
 10
112.812829623
 20
545.243396534
 10
111.312829623
 20
545.243396534
 10
111.312829623
 20
533.043396534
 10
112.812829623
 20
533.043396534
  0
LINE
  5
1F3
330
1F
100
AcDbEntity
  8
3
  6
Continuous
 62
     2
100
AcDbLine
 10
107.812829623
 20
533.343396534
 30
0.0
 11
111.312829623
 21
533.343396534
 31
0.0
  0
LINE
  5
1F4
330
1F
100
AcDbEntity
  8
3
  6
Continuous
 62
     2
100
AcDbLine
 10
111.312829623
 20
544.943396534
 30
0.0
 11
107.812829623
 21
544.943396534
 31
0.0
  0
LINE
  5
1F5
330
1F
100
AcDbEntity
  8
3
  6
Continuous
 62
     2
100
AcDbLine
 10
111.312829623
 20
542.043396534
 30
0.0
 11
107.812829623
 21
542.043396534
 31
0.0
  0
LINE
  5
1F6
330
1F
100
AcDbEntity
  8
3
  6
Continuous
 62
     2
100
AcDbLine
 10
111.312829623
 20
536.243396534
 30
0.0
 11
107.812829623
 21
536.243396534
 31
0.0
  0
LINE
  5
1F7
330
1F
100
AcDbEntity
  8
3
  6
Continuous
 62
     2
100
AcDbLine
 10
107.312829623
 20
534.843396534
 30
0.0
 11
107.312829623
 21
543.443396534
 31
0.0
  0
ARC
  5
1F8
330
1F
100
AcDbEntity
  8
3
  6
Continuous
 62
     2
100
AcDbCircle
 10
116.012829623
 20
539.143396534
 30
0.0
 40
8.7
100
AcDbArc
 50
160.4
 51
199.6
  0
ARC
  5
1F9
330
1F
100
AcDbEntity
  8
3
  6
Continuous
 62
     2
100
AcDbCircle
 10
109.712829623
 20
543.543396534
 30
0.0
 40
2.4
100
AcDbArc
 50
143.6
 51
218.1
  0
ARC
  5
1FA
330
1F
100
AcDbEntity
  8
3
  6
Continuous
 62
     2
100
AcDbCircle
 10
109.712829623
 20
534.743396534
 30
0.0
 40
2.4
100
AcDbArc
 50
141.9
 51
216.4
  0
LINE
  5
1FB
330
1F
100
AcDbEntity
  8
3
  6
Continuous
 62
     2
100
AcDbLine
 10
111.312829623
 20
539.143396534
 30
0.0
 11
112.812829623
 21
540.009421937
 31
0.0
  0
LINE
  5
1FC
330
1F
100
AcDbEntity
  8
3
  6
Continuous
 62
     2
100
AcDbLine
 10
112.812829623
 20
539.143396534
 30
0.0
 11
111.312829623
 21
538.27737113
 31
0.0
  0
LWPOLYLINE
  5
1FE
330
1F
100
AcDbEntity
  8
3
  6
Continuous
 62
     2
100
AcDbPolyline
 90
     4
 70
   129
 43
0.0
 10
114.412829623
 20
462.843396534
 10
114.412829623
 20
475.443396534
 10
112.812829623
 20
475.443396534
 10
112.812829623
 20
462.843396534
  0
LWPOLYLINE
  5
200
330
1F
100
AcDbEntity
  8
3
  6
Continuous
 62
     2
100
AcDbPolyline
 90
     4
 70
   128
 43
0.0
 10
112.812829623
 20
475.243396534
 10
111.312829623
 20
475.243396534
 10
111.312829623
 20
463.043396534
 10
112.812829623
 20
463.043396534
  0
LINE
  5
201
330
1F
100
AcDbEntity
  8
3
  6
Continuous
 62
     2
100
AcDbLine
 10
107.812829623
 20
463.343396534
 30
0.0
 11
111.312829623
 21
463.343396534
 31
0.0
  0
LINE
  5
202
330
1F
100
AcDbEntity
  8
3
  6
Continuous
 62
     2
100
AcDbLine
 10
111.312829623
 20
474.943396534
 30
0.0
 11
107.812829623
 21
474.943396534
 31
0.0
  0
LINE
  5
203
330
1F
100
AcDbEntity
  8
3
  6
Continuous
 62
     2
100
AcDbLine
 10
111.312829623
 20
472.043396534
 30
0.0
 11
107.812829623
 21
472.043396534
 31
0.0
  0
LINE
  5
204
330
1F
100
AcDbEntity
  8
3
  6
Continuous
 62
     2
100
AcDbLine
 10
111.312829623
 20
466.243396534
 30
0.0
 11
107.812829623
 21
466.243396534
 31
0.0
  0
LINE
  5
205
330
1F
100
AcDbEntity
  8
3
  6
Continuous
 62
     2
100
AcDbLine
 10
107.312829623
 20
464.843396534
 30
0.0
 11
107.312829623
 21
473.443396534
 31
0.0
  0
ARC
  5
206
330
1F
100
AcDbEntity
  8
3
  6
Continuous
 62
     2
100
AcDbCircle
 10
116.012829623
 20
469.143396534
 30
0.0
 40
8.7
100
AcDbArc
 50
160.4
 51
199.6
  0
ARC
  5
207
330
1F
100
AcDbEntity
  8
3
  6
Continuous
 62
     2
100
AcDbCircle
 10
109.712829623
 20
473.543396534
 30
0.0
 40
2.4
100
AcDbArc
 50
143.6
 51
218.1
  0
ARC
  5
208
330
1F
100
AcDbEntity
  8
3
  6
Continuous
 62
     2
100
AcDbCircle
 10
109.712829623
 20
464.743396534
 30
0.0
 40
2.4
100
AcDbArc
 50
141.9
 51
216.4
  0
LINE
  5
209
330
1F
100
AcDbEntity
  8
3
  6
Continuous
 62
     2
100
AcDbLine
 10
111.312829623
 20
469.143396534
 30
0.0
 11
112.812829623
 21
470.009421937
 31
0.0
  0
LINE
  5
20A
330
1F
100
AcDbEntity
  8
3
  6
Continuous
 62
     2
100
AcDbLine
 10
112.812829623
 20
469.143396534
 30
0.0
 11
111.312829623
 21
468.27737113
 31
0.0
  0
LWPOLYLINE
  5
20C
330
1F
100
AcDbEntity
  8
3
  6
Continuous
 62
     2
100
AcDbPolyline
 90
     4
 70
   129
 43
0.0
 10
208.412829623
 20
545.443396534
 10
208.412829623
 20
532.843396534
 10
210.012829623
 20
532.843396534
 10
210.012829623
 20
545.443396534
  0
LWPOLYLINE
  5
20E
330
1F
100
AcDbEntity
  8
3
  6
Continuous
 62
     2
100
AcDbPolyline
 90
     4
 70
   128
 43
0.0
 10
210.012829623
 20
533.043396534
 10
211.512829623
 20
533.043396534
 10
211.512829623
 20
545.243396534
 10
210.012829623
 20
545.243396534
  0
LINE
  5
20F
330
1F
100
AcDbEntity
  8
3
  6
Continuous
 62
     2
100
AcDbLine
 10
215.012829623
 20
544.943396534
 30
0.0
 11
211.512829623
 21
544.943396534
 31
0.0
  0
LINE
  5
210
330
1F
100
AcDbEntity
  8
3
  6
Continuous
 62
     2
100
AcDbLine
 10
211.512829623
 20
533.343396534
 30
0.0
 11
215.012829623
 21
533.343396534
 31
0.0
  0
LINE
  5
211
330
1F
100
AcDbEntity
  8
3
  6
Continuous
 62
     2
100
AcDbLine
 10
211.512829623
 20
536.243396534
 30
0.0
 11
215.012829623
 21
536.243396534
 31
0.0
  0
LINE
  5
212
330
1F
100
AcDbEntity
  8
3
  6
Continuous
 62
     2
100
AcDbLine
 10
211.512829623
 20
542.043396534
 30
0.0
 11
215.012829623
 21
542.043396534
 31
0.0
  0
LINE
  5
213
330
1F
100
AcDbEntity
  8
3
  6
Continuous
 62
     2
100
AcDbLine
 10
215.512829623
 20
543.443396534
 30
0.0
 11
215.512829623
 21
534.843396534
 31
0.0
  0
ARC
  5
214
330
1F
100
AcDbEntity
  8
3
  6
Continuous
 62
     2
100
AcDbCircle
 10
206.812829623
 20
539.143396534
 30
0.0
 40
8.7
100
AcDbArc
 50
340.4
 51
19.6
  0
ARC
  5
215
330
1F
100
AcDbEntity
  8
3
  6
Continuous
 62
     2
100
AcDbCircle
 10
213.112829623
 20
534.743396534
 30
0.0
 40
2.4
100
AcDbArc
 50
323.6
 51
38.1
  0
ARC
  5
216
330
1F
100
AcDbEntity
  8
3
  6
Continuous
 62
     2
100
AcDbCircle
 10
213.112829623
 20
543.543396534
 30
0.0
 40
2.4
100
AcDbArc
 50
321.9
 51
36.4
  0
LINE
  5
217
330
1F
100
AcDbEntity
  8
3
  6
Continuous
 62
     2
100
AcDbLine
 10
211.512829623
 20
539.143396534
 30
0.0
 11
210.012829623
 21
538.27737113
 31
0.0
  0
LINE
  5
218
330
1F
100
AcDbEntity
  8
3
  6
Continuous
 62
     2
100
AcDbLine
 10
210.012829623
 20
539.143396534
 30
0.0
 11
211.512829623
 21
540.009421937
 31
0.0
  0
LWPOLYLINE
  5
21A
330
1F
100
AcDbEntity
  8
3
  6
Continuous
 62
     2
100
AcDbPolyline
 90
     4
 70
   129
 43
0.0
 10
208.412829623
 20
475.443396534
 10
208.412829623
 20
462.843396534
 10
210.012829623
 20
462.843396534
 10
210.012829623
 20
475.443396534
  0
LWPOLYLINE
  5
21C
330
1F
100
AcDbEntity
  8
3
  6
Continuous
 62
     2
100
AcDbPolyline
 90
     4
 70
   128
 43
0.0
 10
210.012829623
 20
463.043396534
 10
211.512829623
 20
463.043396534
 10
211.512829623
 20
475.243396534
 10
210.012829623
 20
475.243396534
  0
LINE
  5
21D
330
1F
100
AcDbEntity
  8
3
  6
Continuous
 62
     2
100
AcDbLine
 10
215.012829623
 20
474.943396534
 30
0.0
 11
211.512829623
 21
474.943396534
 31
0.0
  0
LINE
  5
21E
330
1F
100
AcDbEntity
  8
3
  6
Continuous
 62
     2
100
AcDbLine
 10
211.512829623
 20
463.343396534
 30
0.0
 11
215.012829623
 21
463.343396534
 31
0.0
  0
LINE
  5
21F
330
1F
100
AcDbEntity
  8
3
  6
Continuous
 62
     2
100
AcDbLine
 10
211.512829623
 20
466.243396534
 30
0.0
 11
215.012829623
 21
466.243396534
 31
0.0
  0
LINE
  5
220
330
1F
100
AcDbEntity
  8
3
  6
Continuous
 62
     2
100
AcDbLine
 10
211.512829623
 20
472.043396534
 30
0.0
 11
215.012829623
 21
472.043396534
 31
0.0
  0
LINE
  5
221
330
1F
100
AcDbEntity
  8
3
  6
Continuous
 62
     2
100
AcDbLine
 10
215.512829623
 20
473.443396534
 30
0.0
 11
215.512829623
 21
464.843396534
 31
0.0
  0
ARC
  5
222
330
1F
100
AcDbEntity
  8
3
  6
Continuous
 62
     2
100
AcDbCircle
 10
206.812829623
 20
469.143396534
 30
0.0
 40
8.7
100
AcDbArc
 50
340.4
 51
19.6
  0
ARC
  5
223
330
1F
100
AcDbEntity
  8
3
  6
Continuous
 62
     2
100
AcDbCircle
 10
213.112829623
 20
464.743396534
 30
0.0
 40
2.4
100
AcDbArc
 50
323.6
 51
38.1
  0
ARC
  5
224
330
1F
100
AcDbEntity
  8
3
  6
Continuous
 62
     2
100
AcDbCircle
 10
213.112829623
 20
473.543396534
 30
0.0
 40
2.4
100
AcDbArc
 50
321.9
 51
36.4
  0
LINE
  5
225
330
1F
100
AcDbEntity
  8
3
  6
Continuous
 62
     2
100
AcDbLine
 10
211.512829623
 20
469.143396534
 30
0.0
 11
210.012829623
 21
468.27737113
 31
0.0
  0
LINE
  5
226
330
1F
100
AcDbEntity
  8
3
  6
Continuous
 62
     2
100
AcDbLine
 10
210.012829623
 20
469.143396534
 30
0.0
 11
211.512829623
 21
470.009421937
 31
0.0
  0
LINE
  5
227
330
1F
100
AcDbEntity
  8
7
  6
Continuous
 62
     2
100
AcDbLine
 10
508.912829623
 20
223.643396534
 30
0.0
 11
508.912829623
 21
302.643396534
 31
0.0
  0
LINE
  5
228
330
1F
100
AcDbEntity
  8
7
  6
Continuous
 62
     2
100
AcDbLine
 10
508.912829623
 20
294.643396534
 30
0.0
 11
518.572087886
 21
292.055206083
 31
0.0
  0
LINE
  5
229
330
1F
100
AcDbEntity
  8
7
  6
Continuous
 62
     2
100
AcDbLine
 10
508.912829623
 20
294.643396534
 30
0.0
 11
518.572087886
 21
297.231586985
 31
0.0
  0
LWPOLYLINE
  5
22B
330
1F
100
AcDbEntity
  8
7
  6
Continuous
 62
     2
100
AcDbPolyline
 90
     3
 70
   128
 43
0.0
 10
508.912829623
 20
294.643396534
 10
628.912829623
 20
294.643396534
 10
619.25357136
 20
297.231586985
  0
LINE
  5
22C
330
1F
100
AcDbEntity
  8
7
  6
Continuous
 62
     2
100
AcDbLine
 10
628.912829623
 20
294.643396534
 30
0.0
 11
619.25357136
 21
292.055206083
 31
0.0
  0
LINE
  5
22D
330
1F
100
AcDbEntity
  8
7
  6
Continuous
 62
     2
100
AcDbLine
 10
628.912829623
 20
223.643396534
 30
0.0
 11
628.912829623
 21
302.643396534
 31
0.0
  0
MTEXT
  5
22E
330
1F
100
AcDbEntity
  8
7
  6
Continuous
 62
     2
100
AcDbMText
 10
556.912829623
 20
298.643396534
 30
0.0
 40
12.0
 41
48.0
 71
     7
 72
     1
  1
\T1.167;\W0.600;１２０
  7
KANJI8
 73
     1
 44
1.0
  0
CIRCLE
  5
230
330
1F
100
AcDbEntity
  8
4
  6
Continuous
 62
     1
100
AcDbCircle
 10
388.912829623
 20
227.643396534
 30
0.0
 40
4.2
  0
CIRCLE
  5
231
330
1F
100
AcDbEntity
  8
4
  6
Continuous
 62
     1
100
AcDbCircle
 10
748.912829623
 20
227.643396534
 30
0.0
 40
4.2
  0
LINE
  5
232
330
1F
100
AcDbEntity
  8
7
  6
Continuous
 62
     2
100
AcDbLine
 10
628.912829623
 20
294.643396534
 30
0.0
 11
638.572087886
 21
292.055206083
 31
0.0
  0
LINE
  5
233
330
1F
100
AcDbEntity
  8
7
  6
Continuous
 62
     2
100
AcDbLine
 10
628.912829623
 20
294.643396534
 30
0.0
 11
638.572087886
 21
297.231586985
 31
0.0
  0
LWPOLYLINE
  5
235
330
1F
100
AcDbEntity
  8
7
  6
Continuous
 62
     2
100
AcDbPolyline
 90
     3
 70
   128
 43
0.0
 10
628.912829623
 20
294.643396534
 10
748.912829623
 20
294.643396534
 10
739.25357136
 20
297.231586985
  0
LINE
  5
236
330
1F
100
AcDbEntity
  8
7
  6
Continuous
 62
     2
100
AcDbLine
 10
748.912829623
 20
294.643396534
 30
0.0
 11
739.25357136
 21
292.055206083
 31
0.0
  0
LINE
  5
237
330
1F
100
AcDbEntity
  8
7
  6
Continuous
 62
     2
100
AcDbLine
 10
748.912829623
 20
223.643396534
 30
0.0
 11
748.912829623
 21
302.643396534
 31
0.0
  0
MTEXT
  5
238
330
1F
100
AcDbEntity
  8
7
  6
Continuous
 62
     2
100
AcDbMText
 10
676.912829623
 20
298.643396534
 30
0.0
 40
12.0
 41
48.0
 71
     7
 72
     1
  1
\T1.167;\W0.600;１２０
  7
KANJI8
 73
     1
 44
1.0
  0
LINE
  5
239
330
1F
100
AcDbEntity
  8
7
  6
Continuous
 62
     2
100
AcDbLine
 10
508.912829623
 20
294.643396534
 30
0.0
 11
499.25357136
 21
297.231586985
 31
0.0
  0
LINE
  5
23A
330
1F
100
AcDbEntity
  8
7
  6
Continuous
 62
     2
100
AcDbLine
 10
508.912829623
 20
294.643396534
 30
0.0
 11
499.25357136
 21
292.055206083
 31
0.0
  0
LWPOLYLINE
  5
23C
330
1F
100
AcDbEntity
  8
7
  6
Continuous
 62
     2
100
AcDbPolyline
 90
     3
 70
   128
 43
0.0
 10
508.912829623
 20
294.643396534
 10
388.912829623
 20
294.643396534
 10
398.572087886
 20
292.055206083
  0
LINE
  5
23D
330
1F
100
AcDbEntity
  8
7
  6
Continuous
 62
     2
100
AcDbLine
 10
388.912829623
 20
294.643396534
 30
0.0
 11
398.572087886
 21
297.231586985
 31
0.0
  0
LINE
  5
23E
330
1F
100
AcDbEntity
  8
7
  6
Continuous
 62
     2
100
AcDbLine
 10
388.912829623
 20
223.643396534
 30
0.0
 11
388.912829623
 21
302.643396534
 31
0.0
  0
MTEXT
  5
23F
330
1F
100
AcDbEntity
  8
7
  6
Continuous
 62
     2
100
AcDbMText
 10
436.912829623
 20
298.643396534
 30
0.0
 40
12.0
 41
48.0
 71
     7
 72
     1
  1
\T1.167;\W0.600;１２０
  7
KANJI8
 73
     1
 44
1.0
  0
LINE
  5
240
330
1F
100
AcDbEntity
  8
7
  6
Continuous
 62
     2
100
AcDbLine
 10
568.912829623
 20
170.01165142
 30
0.0
 11
568.912829623
 21
147.643396534
 31
0.0
  0
LINE
  5
241
330
1F
100
AcDbEntity
  8
7
  6
Continuous
 62
     2
100
AcDbLine
 10
568.912829623
 20
155.643396534
 30
0.0
 11
559.25357136
 21
158.231586985
 31
0.0
  0
LINE
  5
242
330
1F
100
AcDbEntity
  8
7
  6
Continuous
 62
     2
100
AcDbLine
 10
568.912829623
 20
155.643396534
 30
0.0
 11
559.25357136
 21
153.055206083
 31
0.0
  0
LWPOLYLINE
  5
244
330
1F
100
AcDbEntity
  8
7
  6
Continuous
 62
     2
100
AcDbPolyline
 90
     3
 70
   128
 43
0.0
 10
568.912829623
 20
155.643396534
 10
448.912829623
 20
155.643396534
 10
458.572087886
 20
153.055206083
  0
LINE
  5
245
330
1F
100
AcDbEntity
  8
7
  6
Continuous
 62
     2
100
AcDbLine
 10
448.912829623
 20
155.643396534
 30
0.0
 11
458.572087886
 21
158.231586985
 31
0.0
  0
LINE
  5
246
330
1F
100
AcDbEntity
  8
7
  6
Continuous
 62
     2
100
AcDbLine
 10
448.912829623
 20
231.643396534
 30
0.0
 11
448.912829623
 21
147.643396534
 31
0.0
  0
MTEXT
  5
247
330
1F
100
AcDbEntity
  8
7
  6
Continuous
 62
     2
100
AcDbMText
 10
496.912829623
 20
159.643396534
 30
0.0
 40
12.0
 41
48.0
 71
     7
 72
     1
  1
\T1.167;\W0.600;１２０
  7
KANJI8
 73
     1
 44
1.0
  0
LINE
  5
248
330
1F
100
AcDbEntity
  8
7
  6
Continuous
 62
     2
100
AcDbLine
 10
448.912829623
 20
155.643396534
 30
0.0
 11
439.25357136
 21
158.231586985
 31
0.0
  0
LINE
  5
249
330
1F
100
AcDbEntity
  8
7
  6
Continuous
 62
     2
100
AcDbLine
 10
448.912829623
 20
155.643396534
 30
0.0
 11
439.25357136
 21
153.055206083
 31
0.0
  0
LWPOLYLINE
  5
24B
330
1F
100
AcDbEntity
  8
7
  6
Continuous
 62
     2
100
AcDbPolyline
 90
     3
 70
   128
 43
0.0
 10
448.912829623
 20
155.643396534
 10
328.912829623
 20
155.643396534
 10
338.572087886
 20
153.055206083
  0
LINE
  5
24C
330
1F
100
AcDbEntity
  8
7
  6
Continuous
 62
     2
100
AcDbLine
 10
328.912829623
 20
155.643396534
 30
0.0
 11
338.572087886
 21
158.231586985
 31
0.0
  0
LINE
  5
24D
330
1F
100
AcDbEntity
  8
7
  6
Continuous
 62
     2
100
AcDbLine
 10
328.912829623
 20
231.643396534
 30
0.0
 11
328.912829623
 21
147.643396534
 31
0.0
  0
MTEXT
  5
24E
330
1F
100
AcDbEntity
  8
7
  6
Continuous
 62
     2
100
AcDbMText
 10
376.912829623
 20
159.643396534
 30
0.0
 40
12.0
 41
48.0
 71
     7
 72
     1
  1
\T1.167;\W0.600;１２０
  7
KANJI8
 73
     1
 44
1.0
  0
LINE
  5
24F
330
1F
100
AcDbEntity
  8
7
  6
Continuous
 62
     2
100
AcDbLine
 10
568.912829623
 20
155.643396534
 30
0.0
 11
578.572087886
 21
153.055206083
 31
0.0
  0
LINE
  5
250
330
1F
100
AcDbEntity
  8
7
  6
Continuous
 62
     2
100
AcDbLine
 10
568.912829623
 20
155.643396534
 30
0.0
 11
578.572087886
 21
158.231586985
 31
0.0
  0
LWPOLYLINE
  5
252
330
1F
100
AcDbEntity
  8
7
  6
Continuous
 62
     2
100
AcDbPolyline
 90
     3
 70
   128
 43
0.0
 10
568.912829623
 20
155.643396534
 10
688.912829623
 20
155.643396534
 10
679.25357136
 20
158.231586985
  0
LINE
  5
253
330
1F
100
AcDbEntity
  8
7
  6
Continuous
 62
     2
100
AcDbLine
 10
688.912829623
 20
155.643396534
 30
0.0
 11
679.25357136
 21
153.055206083
 31
0.0
  0
LINE
  5
254
330
1F
100
AcDbEntity
  8
7
  6
Continuous
 62
     2
100
AcDbLine
 10
688.912829623
 20
231.643396534
 30
0.0
 11
688.912829623
 21
147.643396534
 31
0.0
  0
MTEXT
  5
255
330
1F
100
AcDbEntity
  8
7
  6
Continuous
 62
     2
100
AcDbMText
 10
616.912829623
 20
159.643396534
 30
0.0
 40
12.0
 41
48.0
 71
     7
 72
     1
  1
\T1.167;\W0.600;１２０
  7
KANJI8
 73
     1
 44
1.0
  0
LINE
  5
256
330
1F
100
AcDbEntity
  8
7
  6
Continuous
 62
     2
100
AcDbLine
 10
688.912829623
 20
155.643396534
 30
0.0
 11
698.572087886
 21
153.055206083
 31
0.0
  0
LINE
  5
257
330
1F
100
AcDbEntity
  8
7
  6
Continuous
 62
     2
100
AcDbLine
 10
688.912829623
 20
155.643396534
 30
0.0
 11
698.572087886
 21
158.231586985
 31
0.0
  0
LWPOLYLINE
  5
259
330
1F
100
AcDbEntity
  8
7
  6
Continuous
 62
     2
100
AcDbPolyline
 90
     3
 70
   128
 43
0.0
 10
688.912829623
 20
155.643396534
 10
808.912829623
 20
155.643396534
 10
799.25357136
 20
158.231586985
  0
LINE
  5
25A
330
1F
100
AcDbEntity
  8
7
  6
Continuous
 62
     2
100
AcDbLine
 10
808.912829623
 20
155.643396534
 30
0.0
 11
799.25357136
 21
153.055206083
 31
0.0
  0
LINE
  5
25B
330
1F
100
AcDbEntity
  8
7
  6
Continuous
 62
     2
100
AcDbLine
 10
808.912829623
 20
231.643396534
 30
0.0
 11
808.912829623
 21
147.643396534
 31
0.0
  0
MTEXT
  5
25C
330
1F
100
AcDbEntity
  8
7
  6
Continuous
 62
     2
100
AcDbMText
 10
736.912829623
 20
159.643396534
 30
0.0
 40
12.0
 41
48.0
 71
     7
 72
     1
  1
\T1.167;\W0.600;１２０
  7
KANJI8
 73
     1
 44
1.0
  0
LINE
  5
25D
330
1F
100
AcDbEntity
  8
7
  6
Continuous
 62
     2
100
AcDbLine
 10
303.412829623
 20
274.643396534
 30
0.0
 11
303.412829623
 21
322.643396534
 31
0.0
  0
LINE
  5
25E
330
1F
100
AcDbEntity
  8
7
  6
Continuous
 62
     2
100
AcDbLine
 10
303.412829623
 20
314.643396534
 30
0.0
 11
313.072087886
 21
312.055206083
 31
0.0
  0
LINE
  5
25F
330
1F
100
AcDbEntity
  8
7
  6
Continuous
 62
     2
100
AcDbLine
 10
303.412829623
 20
314.643396534
 30
0.0
 11
313.072087886
 21
317.231586985
 31
0.0
  0
LWPOLYLINE
  5
261
330
1F
100
AcDbEntity
  8
7
  6
Continuous
 62
     2
100
AcDbPolyline
 90
     3
 70
   128
 43
0.0
 10
303.412829623
 20
314.643396534
 10
834.412829623
 20
314.643396534
 10
824.75357136
 20
317.231586985
  0
LINE
  5
262
330
1F
100
AcDbEntity
  8
7
  6
Continuous
 62
     2
100
AcDbLine
 10
834.412829623
 20
314.643396534
 30
0.0
 11
824.75357136
 21
312.055206083
 31
0.0
  0
LINE
  5
263
330
1F
100
AcDbEntity
  8
7
  6
Continuous
 62
     2
100
AcDbLine
 10
834.412829623
 20
274.643396534
 30
0.0
 11
834.412829623
 21
322.643396534
 31
0.0
  0
MTEXT
  5
264
330
1F
100
AcDbEntity
  8
7
  6
Continuous
 62
     2
100
AcDbMText
 10
556.912829623
 20
318.643396534
 30
0.0
 40
12.0
 41
48.0
 71
     7
 72
     1
  1
\T1.167;\W0.600;５３１
  7
KANJI8
 73
     1
 44
1.0
  0
LINE
  5
265
330
1F
100
AcDbEntity
  8
7
  6
Continuous
 62
     2
100
AcDbLine
 10
834.412829623
 20
274.643396534
 30
0.0
 11
867.412829623
 21
274.643396534
 31
0.0
  0
LINE
  5
266
330
1F
100
AcDbEntity
  8
7
  6
Continuous
 62
     2
100
AcDbLine
 10
859.412829623
 20
274.643396534
 30
0.0
 11
856.824639172
 21
264.984138271
 31
0.0
  0
LINE
  5
267
330
1F
100
AcDbEntity
  8
7
  6
Continuous
 62
     2
100
AcDbLine
 10
859.412829623
 20
274.643396534
 30
0.0
 11
862.001020074
 21
264.984138271
 31
0.0
  0
LWPOLYLINE
  5
269
330
1F
100
AcDbEntity
  8
7
  6
Continuous
 62
     2
100
AcDbPolyline
 90
     3
 70
   128
 43
0.0
 10
859.412829623
 20
274.643396534
 10
859.412829623
 20
180.643396534
 10
862.001020074
 20
190.302654796
  0
LINE
  5
26A
330
1F
100
AcDbEntity
  8
7
  6
Continuous
 62
     2
100
AcDbLine
 10
859.412829623
 20
180.643396534
 30
0.0
 11
856.824639172
 21
190.302654796
 31
0.0
  0
LINE
  5
26B
330
1F
100
AcDbEntity
  8
7
  6
Continuous
 62
     2
100
AcDbLine
 10
834.412829623
 20
180.643396534
 30
0.0
 11
867.412829623
 21
180.643396534
 31
0.0
  0
MTEXT
  5
26C
330
1F
100
AcDbEntity
  8
7
  6
Continuous
 62
     2
100
AcDbMText
 10
855.412829623
 20
219.843396534
 30
0.0
 40
12.0
 41
31.2
 71
     7
 72
     1
  1
\T1.167;\W0.600;９４
  7
KANJI8
 11
0.0
 21
1.0
 31
0.0
 73
     1
 44
1.0
  0
LINE
  5
26D
330
1F
100
AcDbEntity
  8
7
  6
Continuous
 62
     2
100
AcDbLine
 10
598.912829623
 20
434.143396534
 30
0.0
 11
596.324639172
 21
424.484138271
 31
0.0
  0
LINE
  5
26E
330
1F
100
AcDbEntity
  8
7
  6
Continuous
 62
     2
100
AcDbLine
 10
598.912829623
 20
434.143396534
 30
0.0
 11
601.501020074
 21
424.484138271
 31
0.0
  0
LWPOLYLINE
  5
270
330
1F
100
AcDbEntity
  8
7
  6
Continuous
 62
     2
100
AcDbPolyline
 90
     3
 70
   128
 43
0.0
 10
598.912829623
 20
434.143396534
 10
598.912829623
 20
374.143396534
 10
601.501020074
 20
383.802654796
  0
LINE
  5
271
330
1F
100
AcDbEntity
  8
7
  6
Continuous
 62
     2
100
AcDbLine
 10
598.912829623
 20
374.143396534
 30
0.0
 11
596.324639172
 21
383.802654796
 31
0.0
  0
LINE
  5
272
330
1F
100
AcDbEntity
  8
7
  6
Continuous
 62
     2
100
AcDbLine
 10
572.912829623
 20
374.143396534
 30
0.0
 11
606.912829623
 21
374.143396534
 31
0.0
  0
MTEXT
  5
273
330
1F
100
AcDbEntity
  8
7
  6
Continuous
 62
     2
100
AcDbMText
 10
594.912829623
 20
396.343396534
 30
0.0
 40
12.0
 41
31.2
 71
     7
 72
     1
  1
\T1.167;\W0.600;６０
  7
KANJI8
 11
0.0
 21
1.0
 31
0.0
 73
     1
 44
1.0
  0
LINE
  5
274
330
1F
100
AcDbEntity
  8
7
  6
Continuous
 62
     2
100
AcDbLine
 10
208.412829623
 20
374.143396534
 30
0.0
 11
241.412829623
 21
374.143396534
 31
0.0
  0
LINE
  5
275
330
1F
100
AcDbEntity
  8
7
  6
Continuous
 62
     2
100
AcDbLine
 10
233.412829623
 20
374.143396534
 30
0.0
 11
230.824639172
 21
364.484138271
 31
0.0
  0
LINE
  5
276
330
1F
100
AcDbEntity
  8
7
  6
Continuous
 62
     2
100
AcDbLine
 10
233.412829623
 20
374.143396534
 30
0.0
 11
236.001020074
 21
364.484138271
 31
0.0
  0
LWPOLYLINE
  5
278
330
1F
100
AcDbEntity
  8
7
  6
Continuous
 62
     2
100
AcDbPolyline
 90
     3
 70
   128
 43
0.0
 10
233.412829623
 20
359.143396534
 10
233.412829623
 20
374.143396534
 10
233.412829623
 20
394.143396534
  0
LINE
  5
279
330
1F
100
AcDbEntity
  8
7
  6
Continuous
 62
     2
100
AcDbLine
 10
157.412829623
 20
394.143396534
 30
0.0
 11
241.412829623
 21
394.143396534
 31
0.0
  0
MTEXT
  5
27A
330
1F
100
AcDbEntity
  8
7
  6
Continuous
 62
     2
100
AcDbMText
 10
229.412829623
 20
376.343396534
 30
0.0
 40
12.0
 41
31.2
 71
     7
 72
     1
  1
\T1.167;\W0.600;２０
  7
KANJI8
 11
0.0
 21
1.0
 31
0.0
 73
     1
 44
1.0
  0
LINE
  5
27B
330
1F
100
AcDbEntity
  8
7
  6
Continuous
 62
     2
100
AcDbLine
 10
233.412829623
 20
394.143396534
 30
0.0
 11
236.001020074
 21
403.802654796
 31
0.0
  0
LINE
  5
27C
330
1F
100
AcDbEntity
  8
7
  6
Continuous
 62
     2
100
AcDbLine
 10
233.412829623
 20
394.143396534
 30
0.0
 11
230.824639172
 21
403.802654796
 31
0.0
  0
LWPOLYLINE
  5
27E
330
1F
100
AcDbEntity
  8
7
  6
Continuous
 62
     2
100
AcDbPolyline
 90
     3
 70
   128
 43
0.0
 10
233.412829623
 20
394.143396534
 10
233.412829623
 20
514.143396534
 10
230.824639172
 20
504.484138271
  0
LINE
  5
27F
330
1F
100
AcDbEntity
  8
7
  6
Continuous
 62
     2
100
AcDbLine
 10
233.412829623
 20
514.143396534
 30
0.0
 11
236.001020074
 21
504.484138271
 31
0.0
  0
LINE
  5
280
330
1F
100
AcDbEntity
  8
7
  6
Continuous
 62
     2
100
AcDbLine
 10
157.412829623
 20
514.143396534
 30
0.0
 11
241.412829623
 21
514.143396534
 31
0.0
  0
MTEXT
  5
281
330
1F
100
AcDbEntity
  8
7
  6
Continuous
 62
     2
100
AcDbMText
 10
229.412829623
 20
442.143396534
 30
0.0
 40
12.0
 41
48.0
 71
     7
 72
     1
  1
\T1.167;\W0.600;１２０
  7
KANJI8
 11
0.0
 21
1.0
 31
0.0
 73
     1
 44
1.0
  0
LINE
  5
282
330
1F
100
AcDbEntity
  8
7
  6
Continuous
 62
     2
100
AcDbLine
 10
237.412829623
 20
374.143396534
 30
0.0
 11
261.412829623
 21
374.143396534
 31
0.0
  0
LINE
  5
283
330
1F
100
AcDbEntity
  8
7
  6
Continuous
 62
     2
100
AcDbLine
 10
253.412829623
 20
374.143396534
 30
0.0
 11
256.001020074
 21
383.802654796
 31
0.0
  0
LINE
  5
284
330
1F
100
AcDbEntity
  8
7
  6
Continuous
 62
     2
100
AcDbLine
 10
253.412829623
 20
374.143396534
 30
0.0
 11
250.824639172
 21
383.802654796
 31
0.0
  0
LWPOLYLINE
  5
286
330
1F
100
AcDbEntity
  8
7
  6
Continuous
 62
     2
100
AcDbPolyline
 90
     3
 70
   128
 43
0.0
 10
253.412829623
 20
374.143396534
 10
253.412829623
 20
619.143396534
 10
250.824639172
 20
609.484138271
  0
LINE
  5
287
330
1F
100
AcDbEntity
  8
7
  6
Continuous
 62
     2
100
AcDbLine
 10
253.412829623
 20
619.143396534
 30
0.0
 11
256.001020074
 21
609.484138271
 31
0.0
  0
LINE
  5
288
330
1F
100
AcDbEntity
  8
7
  6
Continuous
 62
     2
100
AcDbLine
 10
157.412829623
 20
619.143396534
 30
0.0
 11
261.412829623
 21
619.143396534
 31
0.0
  0
MTEXT
  5
289
330
1F
100
AcDbEntity
  8
7
  6
Continuous
 62
     2
100
AcDbMText
 10
249.412829623
 20
484.643396534
 30
0.0
 40
12.0
 41
48.0
 71
     7
 72
     1
  1
\T1.167;\W0.600;２４５
  7
KANJI8
 11
0.0
 21
1.0
 31
0.0
 73
     1
 44
1.0
  0
LINE
  5
28A
330
1F
100
AcDbEntity
  8
7
  6
Continuous
 62
     2
100
AcDbLine
 10
257.412829623
 20
374.143396534
 30
0.0
 11
281.412829623
 21
374.143396534
 31
0.0
  0
LINE
  5
28B
330
1F
100
AcDbEntity
  8
7
  6
Continuous
 62
     2
100
AcDbLine
 10
273.412829623
 20
374.143396534
 30
0.0
 11
276.001020074
 21
383.802654796
 31
0.0
  0
LINE
  5
28C
330
1F
100
AcDbEntity
  8
7
  6
Continuous
 62
     2
100
AcDbLine
 10
273.412829623
 20
374.143396534
 30
0.0
 11
270.824639172
 21
383.802654796
 31
0.0
  0
LWPOLYLINE
  5
28E
330
1F
100
AcDbEntity
  8
7
  6
Continuous
 62
     2
100
AcDbPolyline
 90
     3
 70
   128
 43
0.0
 10
273.412829623
 20
374.143396534
 10
273.412829623
 20
649.143396534
 10
270.824639172
 20
639.484138271
  0
LINE
  5
28F
330
1F
100
AcDbEntity
  8
7
  6
Continuous
 62
     2
100
AcDbLine
 10
273.412829623
 20
649.143396534
 30
0.0
 11
276.001020074
 21
639.484138271
 31
0.0
  0
LINE
  5
290
330
1F
100
AcDbEntity
  8
7
  6
Continuous
 62
     2
100
AcDbLine
 10
185.412829623
 20
649.143396534
 30
0.0
 11
281.412829623
 21
649.143396534
 31
0.0
  0
MTEXT
  5
291
330
1F
100
AcDbEntity
  8
7
  6
Continuous
 62
     2
100
AcDbMText
 10
269.412829623
 20
499.643396534
 30
0.0
 40
12.0
 41
48.0
 71
     7
 72
     1
  1
\T1.167;\W0.600;２７５
  7
KANJI8
 11
0.0
 21
1.0
 31
0.0
 73
     1
 44
1.0
  0
LINE
  5
292
330
1F
100
AcDbEntity
  8
7
  6
Continuous
 62
     2
100
AcDbLine
 10
573.08
 20
222.45
 30
0.0
 11
576.955704428
 21
213.231599098
 31
0.0
  0
LINE
  5
293
330
1F
100
AcDbEntity
  8
7
  6
Continuous
 62
     2
100
AcDbLine
 10
573.08
 20
222.45
 30
0.0
 11
581.045658943
 21
216.404482851
 31
0.0
  0
LWPOLYLINE
  5
295
330
1F
100
AcDbEntity
  8
7
  6
Continuous
 62
     2
100
AcDbPolyline
 90
     3
 70
   128
 43
0.0
 10
573.08
 20
222.45
 10
597.61
 20
190.83
 10
629.41
 20
190.83
  0
MTEXT
  5
296
330
1F
100
AcDbEntity
  8
7
  6
Continuous
 62
     2
100
AcDbMText
 10
597.61
 20
194.83
 30
0.0
 40
12.0
 41
61.2
 71
     7
 72
     1
  1
\T1.111;\W0.588;φ８．４
  7
KANJI3
 73
     1
 44
1.0
  0
LINE
  5
297
330
1F
100
AcDbEntity
  8
2
  6
LTYPE2
 62
     2
100
AcDbLine
 10
524.412833438
 20
409.643396534
 30
0.0
 11
524.412833438
 21
429.230268028
 31
0.0
  0
ARC
  5
298
330
1F
100
AcDbEntity
  8
2
  6
LTYPE2
 62
     2
100
AcDbCircle
 10
516.412833438
 20
409.643396534
 30
0.0
 40
8.0
100
AcDbArc
 50
180.0
 51
0.0
  0
LINE
  5
299
330
1F
100
AcDbEntity
  8
2
  6
LTYPE2
 62
     2
100
AcDbLine
 10
508.412833438
 20
409.643396534
 30
0.0
 11
508.412833438
 21
429.230268028
 31
0.0
  0
LINE
  5
29A
330
1F
100
AcDbEntity
  8
2
  6
LTYPE2
 62
     2
100
AcDbLine
 10
499.309669737
 20
454.241429627
 30
0.0
 11
533.035646635
 21
454.241429627
 31
0.0
  0
ARC
  5
29B
330
1F
100
AcDbEntity
  8
2
  6
LTYPE2
 62
     2
100
AcDbCircle
 10
499.309669737
 20
453.241429627
 30
0.0
 40
1.0
100
AcDbArc
 50
90.0
 51
180.0
  0
ARC
  5
29C
330
1F
100
AcDbEntity
  8
2
  6
LTYPE2
 62
     2
100
AcDbCircle
 10
502.559585712
 20
430.230268028
 30
0.0
 40
1.0
100
AcDbArc
 50
194.992681043
 51
270.0
  0
LINE
  5
29D
330
1F
100
AcDbEntity
  8
2
  6
LTYPE2
 62
     2
100
AcDbLine
 10
498.343710857
 20
442.10662422
 30
0.0
 11
501.593626832
 21
429.971572372
 31
0.0
  0
LINE
  5
29E
330
1F
100
AcDbEntity
  8
2
  6
LTYPE2
 62
     2
100
AcDbLine
 10
498.309669737
 20
453.241429627
 30
0.0
 11
498.309669737
 21
442.365319875
 31
0.0
  0
ARC
  5
29F
330
1F
100
AcDbEntity
  8
2
  6
LTYPE2
 62
     2
100
AcDbCircle
 10
499.309669737
 20
442.365319875
 30
0.0
 40
1.0
100
AcDbArc
 50
180.0
 51
194.992681043
  0
LINE
  5
2A0
330
1F
100
AcDbEntity
  8
2
  6
LTYPE2
 62
     2
100
AcDbLine
 10
499.709049354
 20
456.736007831
 30
0.0
 11
533.115900938
 21
456.736007831
 31
0.0
  0
ARC
  5
2A1
330
1F
100
AcDbEntity
  8
2
  6
LTYPE2
 62
     2
100
AcDbCircle
 10
499.709049354
 20
457.736007831
 30
0.0
 40
1.0
100
AcDbArc
 50
180.0
 51
270.0
  0
LINE
  5
2A2
330
1F
100
AcDbEntity
  8
2
  6
LTYPE2
 62
     2
100
AcDbLine
 10
499.709073515
 20
456.736007831
 30
0.0
 11
499.709073515
 21
454.241429627
 31
0.0
  0
ARC
  5
2A3
330
1F
100
AcDbEntity
  8
2
  6
LTYPE2
 62
     2
100
AcDbCircle
 10
533.515997139
 20
453.241429627
 30
0.0
 40
1.0
100
AcDbArc
 50
0.0
 51
90.0
  0
LINE
  5
2A4
330
1F
100
AcDbEntity
  8
2
  6
LTYPE2
 62
     2
100
AcDbLine
 10
534.481956019
 20
442.10662422
 30
0.0
 11
531.232040044
 21
429.971572372
 31
0.0
  0
LINE
  5
2A5
330
1F
100
AcDbEntity
  8
2
  6
LTYPE2
 62
     2
100
AcDbLine
 10
534.515997139
 20
453.241429627
 30
0.0
 11
534.515997139
 21
442.365319875
 31
0.0
  0
ARC
  5
2A6
330
1F
100
AcDbEntity
  8
2
  6
LTYPE2
 62
     2
100
AcDbCircle
 10
533.515997139
 20
442.365319875
 30
0.0
 40
1.0
100
AcDbArc
 50
345.007318957
 51
0.0
  0
ARC
  5
2A7
330
1F
100
AcDbEntity
  8
2
  6
LTYPE2
 62
     2
100
AcDbCircle
 10
533.116617521
 20
457.736007831
 30
0.0
 40
1.0
100
AcDbArc
 50
270.0
 51
0.0
  0
LINE
  5
2A8
330
1F
100
AcDbEntity
  8
2
  6
LTYPE2
 62
     2
100
AcDbLine
 10
533.11659336
 20
456.736007831
 30
0.0
 11
533.11659336
 21
454.241429627
 31
0.0
  0
LWPOLYLINE
  5
2AB
330
1F
100
AcDbEntity
  8
2
  6
LTYPE2
 62
     2
100
AcDbPolyline
 90
     3
 70
   128
 43
0.0
 10
502.559585712
 20
429.230268028
 42
0.0
 10
530.266081164
 20
429.230268028
 42
0.339489874
 10
531.232040044
 20
429.971572372
 42
0.0
  0
LINE
  5
2AC
330
1F
100
AcDbEntity
  8
2
  6
LTYPE2
 62
     2
100
AcDbLine
 10
498.709049354
 20
457.736007831
 30
0.0
 11
498.709049354
 21
491.643396534
 31
0.0
  0
LINE
  5
2AD
330
1F
100
AcDbEntity
  8
2
  6
LTYPE2
 62
     2
100
AcDbLine
 10
534.116617521
 20
457.736007831
 30
0.0
 11
534.116617521
 21
491.643396534
 31
0.0
  0
LINE
  5
2AE
330
1F
100
AcDbEntity
  8
2
  6
LTYPE2
 62
     2
100
AcDbLine
 10
804.412829623
 20
491.643396534
 30
0.0
 11
333.412829623
 21
491.643396534
 31
0.0
  0
LINE
  5
2AF
330
1F
100
AcDbEntity
  8
2
  6
LTYPE2
 62
     2
100
AcDbLine
 10
804.412829623
 20
732.148838563
 30
0.0
 11
333.412829623
 21
732.148838563
 31
0.0
  0
LINE
  5
2B0
330
1F
100
AcDbEntity
  8
2
  6
LTYPE2
 62
     2
100
AcDbLine
 10
804.412829623
 20
746.643396534
 30
0.0
 11
333.412829623
 21
746.643396534
 31
0.0
  0
LINE
  5
2B1
330
1F
100
AcDbEntity
  8
2
  6
LTYPE2
 62
     2
100
AcDbLine
 10
333.412829623
 20
746.643396534
 30
0.0
 11
333.412829623
 21
649.143396534
 31
0.0
  0
LINE
  5
2B2
330
1F
100
AcDbEntity
  8
2
  6
LTYPE2
 62
     2
100
AcDbLine
 10
804.412829623
 20
649.143396534
 30
0.0
 11
804.412829623
 21
746.643396534
 31
0.0
  0
LINE
  5
2B3
330
1F
100
AcDbEntity
  8
2
  6
LTYPE2
 62
     2
100
AcDbLine
 10
78.862829623
 20
491.643396534
 30
0.0
 11
38.162829623
 21
732.148838563
 31
0.0
  0
LINE
  5
2B4
330
1F
100
AcDbEntity
  8
2
  6
LTYPE2
 62
     2
100
AcDbLine
 10
78.862829623
 20
491.643396534
 30
0.0
 11
114.412829623
 21
491.643396534
 31
0.0
  0
ARC
  5
2B5
330
1F
100
AcDbEntity
  8
2
  6
LTYPE2
 62
     2
100
AcDbCircle
 10
161.412829623
 20
215.386950418
 30
0.0
 40
531.256446115
100
AcDbArc
 50
76.585317057
 51
103.414682943
  0
LINE
  5
2B6
330
1F
100
AcDbEntity
  8
2
  6
LTYPE2
 62
     2
100
AcDbLine
 10
208.412829623
 20
491.643396534
 30
0.0
 11
235.522829623
 21
491.643396534
 31
0.0
  0
LINE
  5
2B7
330
1F
100
AcDbEntity
  8
2
  6
LTYPE2
 62
     2
100
AcDbLine
 10
247.530133518
 20
512.723396534
 30
0.0
 11
284.662829623
 21
732.148838563
 31
0.0
  0
LINE
  5
2B8
330
1F
100
AcDbEntity
  8
2
  6
LTYPE3
 62
     2
100
AcDbLine
 10
568.912829623
 20
351.177907135
 30
0.0
 11
568.912829623
 21
756.99
 31
0.0
  0
LINE
  5
2B9
330
1F
100
AcDbEntity
  8
5
  6
Continuous
 62
     1
100
AcDbLine
 10
941.662829623
 20
614.143396534
 30
0.0
 11
943.662829623
 21
614.143396534
 31
0.0
  0
ARC
  5
2BA
330
1F
100
AcDbEntity
  8
5
  6
Continuous
 62
     1
100
AcDbCircle
 10
943.662829623
 20
614.143396534
 30
0.0
 40
2.0
100
AcDbArc
 50
270.0
 51
90.0
  0
LINE
  5
2BB
330
1F
100
AcDbEntity
  8
5
  6
Continuous
 62
     1
100
AcDbLine
 10
943.662829623
 20
616.143396533
 30
0.0
 11
943.412829623
 21
616.143396533
 31
0.0
  0
ARC
  5
2BC
330
1F
100
AcDbEntity
  8
5
  6
Continuous
 62
     1
100
AcDbCircle
 10
943.412829623
 20
618.143396533
 30
0.0
 40
2.0
100
AcDbArc
 50
180.0
 51
270.0
  0
LINE
  5
2BD
330
1F
100
AcDbEntity
  8
5
  6
Continuous
 62
     1
100
AcDbLine
 10
941.412829623
 20
624.143396534
 30
0.0
 11
941.412829623
 21
618.143396533
 31
0.0
  0
ARC
  5
2BE
330
1F
100
AcDbEntity
  8
5
  6
Continuous
 62
     1
100
AcDbCircle
 10
966.412829623
 20
624.143396534
 30
0.0
 40
25.0
100
AcDbArc
 50
90.0
 51
180.0
  0
LINE
  5
2BF
330
1F
100
AcDbEntity
  8
5
  6
Continuous
 62
     1
100
AcDbLine
 10
1031.162829623
 20
614.143396534
 30
0.0
 11
1029.162829623
 21
614.143396534
 31
0.0
  0
ARC
  5
2C0
330
1F
100
AcDbEntity
  8
5
  6
Continuous
 62
     1
100
AcDbCircle
 10
1029.162829623
 20
614.143396534
 30
0.0
 40
2.0
100
AcDbArc
 50
90.0
 51
270.0
  0
LINE
  5
2C1
330
1F
100
AcDbEntity
  8
5
  6
Continuous
 62
     1
100
AcDbLine
 10
1029.162829623
 20
616.143396533
 30
0.0
 11
1029.412829623
 21
616.143396533
 31
0.0
  0
ARC
  5
2C2
330
1F
100
AcDbEntity
  8
5
  6
Continuous
 62
     1
100
AcDbCircle
 10
1029.412829623
 20
618.143396533
 30
0.0
 40
2.0
100
AcDbArc
 50
270.0
 51
0.0
  0
LINE
  5
2C3
330
1F
100
AcDbEntity
  8
5
  6
Continuous
 62
     1
100
AcDbLine
 10
1031.412829623
 20
624.143396534
 30
0.0
 11
1031.412829623
 21
618.143396533
 31
0.0
  0
ARC
  5
2C4
330
1F
100
AcDbEntity
  8
5
  6
Continuous
 62
     1
100
AcDbCircle
 10
1006.412829623
 20
624.143396534
 30
0.0
 40
25.0
100
AcDbArc
 50
0.0
 51
90.0
  0
LINE
  5
2C5
330
1F
100
AcDbEntity
  8
5
  6
Continuous
 62
     1
100
AcDbLine
 10
966.412829623
 20
649.143396534
 30
0.0
 11
1006.412829623
 21
649.143396534
 31
0.0
  0
ARC
  5
2C6
330
1F
100
AcDbEntity
  8
4
  6
Continuous
 62
     1
100
AcDbCircle
 10
943.412829623
 20
438.143396534
 30
0.0
 40
4.0
100
AcDbArc
 50
180.0
 51
270.0
  0
LINE
  5
2C7
330
1F
100
AcDbEntity
  8
4
  6
Continuous
 62
     1
100
AcDbLine
 10
943.412829623
 20
436.143396534
 30
0.0
 11
943.412829623
 21
434.143396534
 31
0.0
  0
LWPOLYLINE
  5
2C9
330
1F
100
AcDbEntity
  8
4
  6
Continuous
 62
     1
100
AcDbPolyline
 90
     3
 70
   128
 43
0.0
 10
943.412829623
 20
436.143396534
 42
0.414213562
 10
941.412829623
 20
438.143396534
 42
0.0
 10
939.412829623
 20
438.143396534
 42
0.0
  0
ARC
  5
2CA
330
1F
100
AcDbEntity
  8
4
  6
Continuous
 62
     1
100
AcDbCircle
 10
943.412829623
 20
438.143396534
 30
0.0
 40
2.0
100
AcDbArc
 50
180.0
 51
270.0
  0
ARC
  5
2CB
330
1F
100
AcDbEntity
  8
4
  6
Continuous
 62
     1
100
AcDbCircle
 10
1029.412829623
 20
438.143396534
 30
0.0
 40
4.0
100
AcDbArc
 50
270.0
 51
0.0
  0
LINE
  5
2CC
330
1F
100
AcDbEntity
  8
4
  6
Continuous
 62
     1
100
AcDbLine
 10
1029.412829623
 20
436.143396534
 30
0.0
 11
1029.412829623
 21
434.143396534
 31
0.0
  0
LWPOLYLINE
  5
2CE
330
1F
100
AcDbEntity
  8
4
  6
Continuous
 62
     1
100
AcDbPolyline
 90
     3
 70
   128
 43
0.0
 10
1029.412829623
 20
436.143396534
 42
-0.414213562
 10
1031.412829623
 20
438.143396534
 42
0.0
 10
1033.412829623
 20
438.143396534
 42
0.0
  0
ARC
  5
2CF
330
1F
100
AcDbEntity
  8
4
  6
Continuous
 62
     1
100
AcDbCircle
 10
1029.412829623
 20
438.143396534
 30
0.0
 40
2.0
100
AcDbArc
 50
270.0
 51
0.0
  0
LINE
  5
2D0
330
1F
100
AcDbEntity
  8
4
  6
Continuous
 62
     1
100
AcDbLine
 10
943.412829623
 20
434.143396534
 30
0.0
 11
1029.412829623
 21
434.143396534
 31
0.0
  0
LINE
  5
2D1
330
1F
100
AcDbEntity
  8
4
  6
LTYPE1
 62
     2
100
AcDbLine
 10
943.412829623
 20
436.143396534
 30
0.0
 11
1029.412829623
 21
436.143396534
 31
0.0
  0
LINE
  5
2D2
330
1F
100
AcDbEntity
  8
4
  6
LTYPE1
 62
     2
100
AcDbLine
 10
1031.412829623
 20
459.143396534
 30
0.0
 11
1033.412829623
 21
459.143396534
 31
0.0
  0
LINE
  5
2D3
330
1F
100
AcDbEntity
  8
4
  6
LTYPE1
 62
     2
100
AcDbLine
 10
939.412829623
 20
459.143396534
 30
0.0
 11
941.412829623
 21
459.143396534
 31
0.0
  0
LINE
  5
2D4
330
1F
100
AcDbEntity
  8
4
  6
LTYPE1
 62
     2
100
AcDbLine
 10
1031.412829623
 20
609.143396534
 30
0.0
 11
1031.412829623
 21
438.143396534
 31
0.0
  0
LINE
  5
2D5
330
1F
100
AcDbEntity
  8
4
  6
Continuous
 62
     1
100
AcDbLine
 10
939.412829623
 20
609.143396534
 30
0.0
 11
939.412829623
 21
438.143396534
 31
0.0
  0
LINE
  5
2D6
330
1F
100
AcDbEntity
  8
4
  6
Continuous
 62
     1
100
AcDbLine
 10
1033.412829623
 20
609.143396534
 30
0.0
 11
1033.412829623
 21
438.143396534
 31
0.0
  0
LINE
  5
2D7
330
1F
100
AcDbEntity
  8
4
  6
Continuous
 62
     1
100
AcDbLine
 10
939.412829623
 20
609.143396534
 30
0.0
 11
969.092321547
 21
609.143396534
 31
0.0
  0
LWPOLYLINE
  5
2D9
330
1F
100
AcDbEntity
  8
4
  6
Continuous
 62
     1
100
AcDbPolyline
 90
     3
 70
   128
 43
0.0
 10
969.092321547
 20
609.143396534
 42
0.577350269
 10
1003.733337699
 20
609.143396534
 42
0.0
 10
1033.412829623
 20
609.143396534
 42
0.0
  0
CIRCLE
  5
2DA
330
1F
100
AcDbEntity
  8
4
  6
Continuous
 62
     1
100
AcDbCircle
 10
986.412829623
 20
574.143396534
 30
0.0
 40
4.2
  0
CIRCLE
  5
2DB
330
1F
100
AcDbEntity
  8
4
  6
Continuous
 62
     1
100
AcDbCircle
 10
986.412829623
 20
454.143396534
 30
0.0
 40
4.2
  0
LINE
  5
2DC
330
1F
100
AcDbEntity
  8
5
  6
Continuous
 62
     1
100
AcDbLine
 10
1031.162829623
 20
614.143396534
 30
0.0
 11
1031.162829623
 21
609.143396534
 31
0.0
  0
LINE
  5
2DD
330
1F
100
AcDbEntity
  8
5
  6
Continuous
 62
     1
100
AcDbLine
 10
1029.162829623
 20
614.143396534
 30
0.0
 11
1029.162829623
 21
609.143396534
 31
0.0
  0
LINE
  5
2DE
330
1F
100
AcDbEntity
  8
5
  6
Continuous
 62
     1
100
AcDbLine
 10
943.662829623
 20
614.143396534
 30
0.0
 11
943.662829623
 21
609.143396534
 31
0.0
  0
LINE
  5
2DF
330
1F
100
AcDbEntity
  8
5
  6
Continuous
 62
     1
100
AcDbLine
 10
941.662829623
 20
614.143396534
 30
0.0
 11
941.662829623
 21
609.143396534
 31
0.0
  0
LINE
  5
2E0
330
1F
100
AcDbEntity
  8
4
  6
LTYPE1
 62
     2
100
AcDbLine
 10
941.412829623
 20
609.143396534
 30
0.0
 11
941.412829623
 21
438.143396534
 31
0.0
  0
LINE
  5
2E1
330
1F
100
AcDbEntity
  8
5
  6
LTYPE1
 62
     2
100
AcDbLine
 10
943.662829623
 20
609.143396534
 30
0.0
 11
943.662829623
 21
454.143396534
 31
0.0
  0
LINE
  5
2E2
330
1F
100
AcDbEntity
  8
5
  6
LTYPE1
 62
     2
100
AcDbLine
 10
941.662829623
 20
609.143396534
 30
0.0
 11
941.662829623
 21
454.143396534
 31
0.0
  0
LINE
  5
2E3
330
1F
100
AcDbEntity
  8
5
  6
LTYPE1
 62
     2
100
AcDbLine
 10
966.412829623
 20
574.143396534
 30
0.0
 11
966.412829623
 21
514.143359157
 31
0.0
  0
LINE
  5
2E4
330
1F
100
AcDbEntity
  8
5
  6
LTYPE1
 62
     2
100
AcDbLine
 10
1006.412829623
 20
514.143396534
 30
0.0
 11
1006.412829623
 21
574.143353375
 31
0.0
  0
ARC
  5
2E5
330
1F
100
AcDbEntity
  8
5
  6
LTYPE1
 62
     2
100
AcDbCircle
 10
986.412829623
 20
574.143396534
 30
0.0
 40
20.0
100
AcDbArc
 50
359.99987636
 51
180.0
  0
LINE
  5
2E6
330
1F
100
AcDbEntity
  8
5
  6
LTYPE1
 62
     2
100
AcDbLine
 10
1031.162829623
 20
609.143396534
 30
0.0
 11
1031.162829623
 21
454.143396534
 31
0.0
  0
LINE
  5
2E7
330
1F
100
AcDbEntity
  8
5
  6
LTYPE1
 62
     2
100
AcDbLine
 10
1029.162829623
 20
609.143396534
 30
0.0
 11
1029.162829623
 21
454.143396534
 31
0.0
  0
ARC
  5
2E8
330
1F
100
AcDbEntity
  8
5
  6
LTYPE1
 62
     2
100
AcDbCircle
 10
986.412829623
 20
454.143396534
 30
0.0
 40
20.0
100
AcDbArc
 50
0.0
 51
180.0
  0
ARC
  5
2E9
330
1F
100
AcDbEntity
  8
5
  6
LTYPE1
 62
     2
100
AcDbCircle
 10
986.412829623
 20
514.143396534
 30
0.0
 40
20.0
100
AcDbArc
 50
180.000107075
 51
0.0
  0
LINE
  5
2EA
330
1F
100
AcDbEntity
  8
5
  6
LTYPE1
 62
     2
100
AcDbLine
 10
941.662829623
 20
454.143396534
 30
0.0
 11
966.412829623
 21
454.143396534
 31
0.0
  0
LINE
  5
2EB
330
1F
100
AcDbEntity
  8
5
  6
LTYPE1
 62
     2
100
AcDbLine
 10
1006.412829623
 20
454.143396534
 30
0.0
 11
1031.162829623
 21
454.143396534
 31
0.0
  0
CIRCLE
  5
2EC
330
1F
100
AcDbEntity
  8
3
  6
Continuous
 62
     2
100
AcDbCircle
 10
986.412829623
 20
619.143396534
 30
0.0
 40
6.5
  0
LWPOLYLINE
  5
2EE
330
1F
100
AcDbEntity
  8
3
  6
Continuous
 62
     2
100
AcDbPolyline
 90
     6
 70
   129
 43
0.0
 10
990.212829623
 20
625.643396534
 10
982.612829623
 20
625.643396534
 10
978.912829623
 20
619.143396534
 10
982.612829623
 20
612.643396534
 10
990.212829623
 20
612.643396534
 10
993.912829623
 20
619.143396534
  0
CIRCLE
  5
2EF
330
1F
100
AcDbEntity
  8
3
  6
Continuous
 62
     2
100
AcDbCircle
 10
986.412829623
 20
619.143396534
 30
0.0
 40
7.7
  0
CIRCLE
  5
2F0
330
1F
100
AcDbEntity
  8
3
  6
Continuous
 62
     2
100
AcDbCircle
 10
986.412829623
 20
619.143396534
 30
0.0
 40
8.5
  0
LWPOLYLINE
  5
2F2
330
1F
100
AcDbEntity
  8
3
  6
Continuous
 62
     2
100
AcDbPolyline
 90
     4
 70
   129
 43
0.0
 10
939.412829623
 20
592.843396534
 10
939.412829623
 20
605.443396534
 10
937.812829623
 20
605.443396534
 10
937.812829623
 20
592.843396534
  0
LWPOLYLINE
  5
2F4
330
1F
100
AcDbEntity
  8
3
  6
Continuous
 62
     2
100
AcDbPolyline
 90
     4
 70
   128
 43
0.0
 10
937.812829623
 20
605.243396534
 10
936.312829623
 20
605.243396534
 10
936.312829623
 20
593.043396534
 10
937.812829623
 20
593.043396534
  0
LINE
  5
2F5
330
1F
100
AcDbEntity
  8
3
  6
Continuous
 62
     2
100
AcDbLine
 10
932.812829623
 20
593.343396534
 30
0.0
 11
936.312829623
 21
593.343396534
 31
0.0
  0
LINE
  5
2F6
330
1F
100
AcDbEntity
  8
3
  6
Continuous
 62
     2
100
AcDbLine
 10
936.312829623
 20
604.943396534
 30
0.0
 11
932.812829623
 21
604.943396534
 31
0.0
  0
LINE
  5
2F7
330
1F
100
AcDbEntity
  8
3
  6
Continuous
 62
     2
100
AcDbLine
 10
936.312829623
 20
602.043396534
 30
0.0
 11
932.812829623
 21
602.043396534
 31
0.0
  0
LINE
  5
2F8
330
1F
100
AcDbEntity
  8
3
  6
Continuous
 62
     2
100
AcDbLine
 10
936.312829623
 20
596.243396534
 30
0.0
 11
932.812829623
 21
596.243396534
 31
0.0
  0
LINE
  5
2F9
330
1F
100
AcDbEntity
  8
3
  6
Continuous
 62
     2
100
AcDbLine
 10
932.312829623
 20
594.843396534
 30
0.0
 11
932.312829623
 21
603.443396534
 31
0.0
  0
ARC
  5
2FA
330
1F
100
AcDbEntity
  8
3
  6
Continuous
 62
     2
100
AcDbCircle
 10
941.012829623
 20
599.143396534
 30
0.0
 40
8.7
100
AcDbArc
 50
160.4
 51
199.6
  0
ARC
  5
2FB
330
1F
100
AcDbEntity
  8
3
  6
Continuous
 62
     2
100
AcDbCircle
 10
934.712829623
 20
603.543396534
 30
0.0
 40
2.4
100
AcDbArc
 50
143.6
 51
218.1
  0
ARC
  5
2FC
330
1F
100
AcDbEntity
  8
3
  6
Continuous
 62
     2
100
AcDbCircle
 10
934.712829623
 20
594.743396534
 30
0.0
 40
2.4
100
AcDbArc
 50
141.9
 51
216.4
  0
LINE
  5
2FD
330
1F
100
AcDbEntity
  8
3
  6
Continuous
 62
     2
100
AcDbLine
 10
936.312829623
 20
599.143396534
 30
0.0
 11
937.812829623
 21
600.009421937
 31
0.0
  0
LINE
  5
2FE
330
1F
100
AcDbEntity
  8
3
  6
Continuous
 62
     2
100
AcDbLine
 10
937.812829623
 20
599.143396534
 30
0.0
 11
936.312829623
 21
598.27737113
 31
0.0
  0
LWPOLYLINE
  5
300
330
1F
100
AcDbEntity
  8
3
  6
Continuous
 62
     2
100
AcDbPolyline
 90
     4
 70
   129
 43
0.0
 10
939.412829623
 20
462.843396534
 10
939.412829623
 20
475.443396534
 10
937.812829623
 20
475.443396534
 10
937.812829623
 20
462.843396534
  0
LWPOLYLINE
  5
302
330
1F
100
AcDbEntity
  8
3
  6
Continuous
 62
     2
100
AcDbPolyline
 90
     4
 70
   128
 43
0.0
 10
937.812829623
 20
475.243396534
 10
936.312829623
 20
475.243396534
 10
936.312829623
 20
463.043396534
 10
937.812829623
 20
463.043396534
  0
LINE
  5
303
330
1F
100
AcDbEntity
  8
3
  6
Continuous
 62
     2
100
AcDbLine
 10
932.812829623
 20
463.343396534
 30
0.0
 11
936.312829623
 21
463.343396534
 31
0.0
  0
LINE
  5
304
330
1F
100
AcDbEntity
  8
3
  6
Continuous
 62
     2
100
AcDbLine
 10
936.312829623
 20
474.943396534
 30
0.0
 11
932.812829623
 21
474.943396534
 31
0.0
  0
LINE
  5
305
330
1F
100
AcDbEntity
  8
3
  6
Continuous
 62
     2
100
AcDbLine
 10
936.312829623
 20
472.043396534
 30
0.0
 11
932.812829623
 21
472.043396534
 31
0.0
  0
LINE
  5
306
330
1F
100
AcDbEntity
  8
3
  6
Continuous
 62
     2
100
AcDbLine
 10
936.312829623
 20
466.243396534
 30
0.0
 11
932.812829623
 21
466.243396534
 31
0.0
  0
LINE
  5
307
330
1F
100
AcDbEntity
  8
3
  6
Continuous
 62
     2
100
AcDbLine
 10
932.312829623
 20
464.843396534
 30
0.0
 11
932.312829623
 21
473.443396534
 31
0.0
  0
ARC
  5
308
330
1F
100
AcDbEntity
  8
3
  6
Continuous
 62
     2
100
AcDbCircle
 10
941.012829623
 20
469.143396534
 30
0.0
 40
8.7
100
AcDbArc
 50
160.4
 51
199.6
  0
ARC
  5
309
330
1F
100
AcDbEntity
  8
3
  6
Continuous
 62
     2
100
AcDbCircle
 10
934.712829623
 20
473.543396534
 30
0.0
 40
2.4
100
AcDbArc
 50
143.6
 51
218.1
  0
ARC
  5
30A
330
1F
100
AcDbEntity
  8
3
  6
Continuous
 62
     2
100
AcDbCircle
 10
934.712829623
 20
464.743396534
 30
0.0
 40
2.4
100
AcDbArc
 50
141.9
 51
216.4
  0
LINE
  5
30B
330
1F
100
AcDbEntity
  8
3
  6
Continuous
 62
     2
100
AcDbLine
 10
936.312829623
 20
469.143396534
 30
0.0
 11
937.812829623
 21
470.009421937
 31
0.0
  0
LINE
  5
30C
330
1F
100
AcDbEntity
  8
3
  6
Continuous
 62
     2
100
AcDbLine
 10
937.812829623
 20
469.143396534
 30
0.0
 11
936.312829623
 21
468.27737113
 31
0.0
  0
LWPOLYLINE
  5
30E
330
1F
100
AcDbEntity
  8
3
  6
Continuous
 62
     2
100
AcDbPolyline
 90
     4
 70
   129
 43
0.0
 10
1033.412829623
 20
605.443396534
 10
1033.412829623
 20
592.843396534
 10
1035.012829623
 20
592.843396534
 10
1035.012829623
 20
605.443396534
  0
LWPOLYLINE
  5
310
330
1F
100
AcDbEntity
  8
3
  6
Continuous
 62
     2
100
AcDbPolyline
 90
     4
 70
   128
 43
0.0
 10
1035.012829623
 20
593.043396534
 10
1036.512829623
 20
593.043396534
 10
1036.512829623
 20
605.243396534
 10
1035.012829623
 20
605.243396534
  0
LINE
  5
311
330
1F
100
AcDbEntity
  8
3
  6
Continuous
 62
     2
100
AcDbLine
 10
1040.012829623
 20
604.943396534
 30
0.0
 11
1036.512829623
 21
604.943396534
 31
0.0
  0
LINE
  5
312
330
1F
100
AcDbEntity
  8
3
  6
Continuous
 62
     2
100
AcDbLine
 10
1036.512829623
 20
593.343396534
 30
0.0
 11
1040.012829623
 21
593.343396534
 31
0.0
  0
LINE
  5
313
330
1F
100
AcDbEntity
  8
3
  6
Continuous
 62
     2
100
AcDbLine
 10
1036.512829623
 20
596.243396534
 30
0.0
 11
1040.012829623
 21
596.243396534
 31
0.0
  0
LINE
  5
314
330
1F
100
AcDbEntity
  8
3
  6
Continuous
 62
     2
100
AcDbLine
 10
1036.512829623
 20
602.043396534
 30
0.0
 11
1040.012829623
 21
602.043396534
 31
0.0
  0
LINE
  5
315
330
1F
100
AcDbEntity
  8
3
  6
Continuous
 62
     2
100
AcDbLine
 10
1040.512829623
 20
603.443396534
 30
0.0
 11
1040.512829623
 21
594.843396534
 31
0.0
  0
ARC
  5
316
330
1F
100
AcDbEntity
  8
3
  6
Continuous
 62
     2
100
AcDbCircle
 10
1031.812829623
 20
599.143396534
 30
0.0
 40
8.7
100
AcDbArc
 50
340.4
 51
19.6
  0
ARC
  5
317
330
1F
100
AcDbEntity
  8
3
  6
Continuous
 62
     2
100
AcDbCircle
 10
1038.112829623
 20
594.743396534
 30
0.0
 40
2.4
100
AcDbArc
 50
323.6
 51
38.1
  0
ARC
  5
318
330
1F
100
AcDbEntity
  8
3
  6
Continuous
 62
     2
100
AcDbCircle
 10
1038.112829623
 20
603.543396534
 30
0.0
 40
2.4
100
AcDbArc
 50
321.9
 51
36.4
  0
LINE
  5
319
330
1F
100
AcDbEntity
  8
3
  6
Continuous
 62
     2
100
AcDbLine
 10
1036.512829623
 20
599.143396534
 30
0.0
 11
1035.012829623
 21
598.27737113
 31
0.0
  0
LINE
  5
31A
330
1F
100
AcDbEntity
  8
3
  6
Continuous
 62
     2
100
AcDbLine
 10
1035.012829623
 20
599.143396534
 30
0.0
 11
1036.512829623
 21
600.009421937
 31
0.0
  0
LWPOLYLINE
  5
31C
330
1F
100
AcDbEntity
  8
3
  6
Continuous
 62
     2
100
AcDbPolyline
 90
     4
 70
   129
 43
0.0
 10
1033.412829623
 20
475.443396534
 10
1033.412829623
 20
462.843396534
 10
1035.012829623
 20
462.843396534
 10
1035.012829623
 20
475.443396534
  0
LWPOLYLINE
  5
31E
330
1F
100
AcDbEntity
  8
3
  6
Continuous
 62
     2
100
AcDbPolyline
 90
     4
 70
   128
 43
0.0
 10
1035.012829623
 20
463.043396534
 10
1036.512829623
 20
463.043396534
 10
1036.512829623
 20
475.243396534
 10
1035.012829623
 20
475.243396534
  0
LINE
  5
31F
330
1F
100
AcDbEntity
  8
3
  6
Continuous
 62
     2
100
AcDbLine
 10
1040.012829623
 20
474.943396534
 30
0.0
 11
1036.512829623
 21
474.943396534
 31
0.0
  0
LINE
  5
320
330
1F
100
AcDbEntity
  8
3
  6
Continuous
 62
     2
100
AcDbLine
 10
1036.512829623
 20
463.343396534
 30
0.0
 11
1040.012829623
 21
463.343396534
 31
0.0
  0
LINE
  5
321
330
1F
100
AcDbEntity
  8
3
  6
Continuous
 62
     2
100
AcDbLine
 10
1036.512829623
 20
466.243396534
 30
0.0
 11
1040.012829623
 21
466.243396534
 31
0.0
  0
LINE
  5
322
330
1F
100
AcDbEntity
  8
3
  6
Continuous
 62
     2
100
AcDbLine
 10
1036.512829623
 20
472.043396534
 30
0.0
 11
1040.012829623
 21
472.043396534
 31
0.0
  0
LINE
  5
323
330
1F
100
AcDbEntity
  8
3
  6
Continuous
 62
     2
100
AcDbLine
 10
1040.512829623
 20
473.443396534
 30
0.0
 11
1040.512829623
 21
464.843396534
 31
0.0
  0
ARC
  5
324
330
1F
100
AcDbEntity
  8
3
  6
Continuous
 62
     2
100
AcDbCircle
 10
1031.812829623
 20
469.143396534
 30
0.0
 40
8.7
100
AcDbArc
 50
340.4
 51
19.6
  0
ARC
  5
325
330
1F
100
AcDbEntity
  8
3
  6
Continuous
 62
     2
100
AcDbCircle
 10
1038.112829623
 20
464.743396534
 30
0.0
 40
2.4
100
AcDbArc
 50
323.6
 51
38.1
  0
ARC
  5
326
330
1F
100
AcDbEntity
  8
3
  6
Continuous
 62
     2
100
AcDbCircle
 10
1038.112829623
 20
473.543396534
 30
0.0
 40
2.4
100
AcDbArc
 50
321.9
 51
36.4
  0
LINE
  5
327
330
1F
100
AcDbEntity
  8
3
  6
Continuous
 62
     2
100
AcDbLine
 10
1036.512829623
 20
469.143396534
 30
0.0
 11
1035.012829623
 21
468.27737113
 31
0.0
  0
LINE
  5
328
330
1F
100
AcDbEntity
  8
3
  6
Continuous
 62
     2
100
AcDbLine
 10
1035.012829623
 20
469.143396534
 30
0.0
 11
1036.512829623
 21
470.009421937
 31
0.0
  0
LINE
  5
329
330
1F
100
AcDbEntity
  8
7
  6
Continuous
 62
     2
100
AcDbLine
 10
939.412829623
 20
434.143396534
 30
0.0
 11
911.412829623
 21
434.143396534
 31
0.0
  0
LINE
  5
32A
330
1F
100
AcDbEntity
  8
7
  6
Continuous
 62
     2
100
AcDbLine
 10
919.412829623
 20
434.143396534
 30
0.0
 11
916.824639172
 21
424.484138271
 31
0.0
  0
LINE
  5
32B
330
1F
100
AcDbEntity
  8
7
  6
Continuous
 62
     2
100
AcDbLine
 10
919.412829623
 20
434.143396534
 30
0.0
 11
922.001020074
 21
424.484138271
 31
0.0
  0
LWPOLYLINE
  5
32D
330
1F
100
AcDbEntity
  8
7
  6
Continuous
 62
     2
100
AcDbPolyline
 90
     3
 70
   128
 43
0.0
 10
919.412829623
 20
419.143396534
 10
919.412829623
 20
434.143396534
 10
919.412829623
 20
454.143396534
  0
LINE
  5
32E
330
1F
100
AcDbEntity
  8
7
  6
Continuous
 62
     2
100
AcDbLine
 10
990.412829623
 20
454.143396534
 30
0.0
 11
911.412829623
 21
454.143396534
 31
0.0
  0
MTEXT
  5
32F
330
1F
100
AcDbEntity
  8
7
  6
Continuous
 62
     2
100
AcDbMText
 10
915.412829623
 20
436.343396534
 30
0.0
 40
12.0
 41
31.2
 71
     7
 72
     1
  1
\T1.167;\W0.600;２０
  7
KANJI8
 11
0.0
 21
1.0
 31
0.0
 73
     1
 44
1.0
  0
LINE
  5
330
330
1F
100
AcDbEntity
  8
7
  6
Continuous
 62
     2
100
AcDbLine
 10
919.412829623
 20
454.143396534
 30
0.0
 11
922.001020074
 21
463.802654796
 31
0.0
  0
LINE
  5
331
330
1F
100
AcDbEntity
  8
7
  6
Continuous
 62
     2
100
AcDbLine
 10
919.412829623
 20
454.143396534
 30
0.0
 11
916.824639172
 21
463.802654796
 31
0.0
  0
LWPOLYLINE
  5
333
330
1F
100
AcDbEntity
  8
7
  6
Continuous
 62
     2
100
AcDbPolyline
 90
     3
 70
   128
 43
0.0
 10
919.412829623
 20
454.143396534
 10
919.412829623
 20
574.143396534
 10
916.824639172
 20
564.484138271
  0
LINE
  5
334
330
1F
100
AcDbEntity
  8
7
  6
Continuous
 62
     2
100
AcDbLine
 10
919.412829623
 20
574.143396534
 30
0.0
 11
922.001020074
 21
564.484138271
 31
0.0
  0
LINE
  5
335
330
1F
100
AcDbEntity
  8
7
  6
Continuous
 62
     2
100
AcDbLine
 10
990.412829623
 20
574.143396534
 30
0.0
 11
911.412829623
 21
574.143396534
 31
0.0
  0
MTEXT
  5
336
330
1F
100
AcDbEntity
  8
7
  6
Continuous
 62
     2
100
AcDbMText
 10
915.412829623
 20
502.143396534
 30
0.0
 40
12.0
 41
48.0
 71
     7
 72
     1
  1
\T1.167;\W0.600;１２０
  7
KANJI8
 11
0.0
 21
1.0
 31
0.0
 73
     1
 44
1.0
  0
LINE
  5
337
330
1F
100
AcDbEntity
  8
7
  6
Continuous
 62
     2
100
AcDbLine
 10
915.412829623
 20
434.143396534
 30
0.0
 11
891.412829623
 21
434.143396534
 31
0.0
  0
LINE
  5
338
330
1F
100
AcDbEntity
  8
7
  6
Continuous
 62
     2
100
AcDbLine
 10
899.412829623
 20
434.143396534
 30
0.0
 11
902.001020074
 21
443.802654796
 31
0.0
  0
LINE
  5
339
330
1F
100
AcDbEntity
  8
7
  6
Continuous
 62
     2
100
AcDbLine
 10
899.412829623
 20
434.143396534
 30
0.0
 11
896.824639172
 21
443.802654796
 31
0.0
  0
LWPOLYLINE
  5
33B
330
1F
100
AcDbEntity
  8
7
  6
Continuous
 62
     2
100
AcDbPolyline
 90
     3
 70
   128
 43
0.0
 10
899.412829623
 20
434.143396534
 10
899.412829623
 20
619.143396534
 10
896.824639172
 20
609.484138271
  0
LINE
  5
33C
330
1F
100
AcDbEntity
  8
7
  6
Continuous
 62
     2
100
AcDbLine
 10
899.412829623
 20
619.143396534
 30
0.0
 11
902.001020074
 21
609.484138271
 31
0.0
  0
LINE
  5
33D
330
1F
100
AcDbEntity
  8
7
  6
Continuous
 62
     2
100
AcDbLine
 10
990.412829623
 20
619.143396534
 30
0.0
 11
891.412829623
 21
619.143396534
 31
0.0
  0
MTEXT
  5
33E
330
1F
100
AcDbEntity
  8
7
  6
Continuous
 62
     2
100
AcDbMText
 10
895.412829623
 20
514.643396534
 30
0.0
 40
12.0
 41
48.0
 71
     7
 72
     1
  1
\T1.167;\W0.600;１８５
  7
KANJI8
 11
0.0
 21
1.0
 31
0.0
 73
     1
 44
1.0
  0
LINE
  5
33F
330
1F
100
AcDbEntity
  8
7
  6
Continuous
 62
     2
100
AcDbLine
 10
895.412829623
 20
434.143396534
 30
0.0
 11
871.412829623
 21
434.143396534
 31
0.0
  0
LINE
  5
340
330
1F
100
AcDbEntity
  8
7
  6
Continuous
 62
     2
100
AcDbLine
 10
879.412829623
 20
434.143396534
 30
0.0
 11
882.001020074
 21
443.802654796
 31
0.0
  0
LINE
  5
341
330
1F
100
AcDbEntity
  8
7
  6
Continuous
 62
     2
100
AcDbLine
 10
879.412829623
 20
434.143396534
 30
0.0
 11
876.824639172
 21
443.802654796
 31
0.0
  0
LWPOLYLINE
  5
343
330
1F
100
AcDbEntity
  8
7
  6
Continuous
 62
     2
100
AcDbPolyline
 90
     3
 70
   128
 43
0.0
 10
879.412829623
 20
434.143396534
 10
879.412829623
 20
649.143396534
 10
876.824639172
 20
639.484138271
  0
LINE
  5
344
330
1F
100
AcDbEntity
  8
7
  6
Continuous
 62
     2
100
AcDbLine
 10
879.412829623
 20
649.143396534
 30
0.0
 11
882.001020074
 21
639.484138271
 31
0.0
  0
LINE
  5
345
330
1F
100
AcDbEntity
  8
7
  6
Continuous
 62
     2
100
AcDbLine
 10
962.412829623
 20
649.143396534
 30
0.0
 11
871.412829623
 21
649.143396534
 31
0.0
  0
MTEXT
  5
346
330
1F
100
AcDbEntity
  8
7
  6
Continuous
 62
     2
100
AcDbMText
 10
875.412829623
 20
529.643396534
 30
0.0
 40
12.0
 41
48.0
 71
     7
 72
     1
  1
\T1.167;\W0.600;２１５
  7
KANJI8
 11
0.0
 21
1.0
 31
0.0
 73
     1
 44
1.0
  0
LINE
  5
347
330
1F
100
AcDbEntity
  8
2
  6
LTYPE2
 62
     2
100
AcDbLine
 10
903.862829623
 20
491.643396534
 30
0.0
 11
863.162829623
 21
732.148838563
 31
0.0
  0
ARC
  5
348
330
1F
100
AcDbEntity
  8
2
  6
LTYPE2
 62
     2
100
AcDbCircle
 10
986.412829623
 20
215.386950418
 30
0.0
 40
531.256446115
100
AcDbArc
 50
76.585317057
 51
103.414682943
  0
LINE
  5
349
330
1F
100
AcDbEntity
  8
2
  6
LTYPE2
 62
     2
100
AcDbLine
 10
939.412829623
 20
491.643396534
 30
0.0
 11
903.862829623
 21
491.643396534
 31
0.0
  0
LINE
  5
34A
330
1F
100
AcDbEntity
  8
2
  6
LTYPE2
 62
     2
100
AcDbLine
 10
1068.962829623
 20
491.643396534
 30
0.0
 11
1109.662829623
 21
732.148838563
 31
0.0
  0
LINE
  5
34B
330
1F
100
AcDbEntity
  8
2
  6
LTYPE2
 62
     2
100
AcDbLine
 10
1068.962829623
 20
491.643396534
 30
0.0
 11
1033.412829623
 21
491.643396534
 31
0.0
  0
ARC
  5
34C
330
1F
100
AcDbEntity
  8
4
  6
LTYPE2
 62
     2
100
AcDbCircle
 10
986.412829623
 20
619.143396534
 30
0.0
 40
160.0
100
AcDbArc
 50
222.929313975
 51
316.638640555
  0
LINE
  5
34D
330
1F
100
AcDbEntity
  8
3
  6
Continuous
 62
     2
100
AcDbLine
 10
808.012829623
 20
614.143396534
 30
0.0
 11
808.012829623
 21
627.643396534
 31
0.0
  0
LINE
  5
34E
330
1F
100
AcDbEntity
  8
3
  6
Continuous
 62
     2
100
AcDbLine
 10
810.012829623
 20
614.143396534
 30
0.0
 11
810.012829623
 21
626.843396534
 31
0.0
  0
LINE
  5
34F
330
1F
100
AcDbEntity
  8
3
  6
Continuous
 62
     2
100
AcDbLine
 10
815.312829623
 20
624.843396534
 30
0.0
 11
815.312829623
 21
614.143396534
 31
0.0
  0
ARC
  5
350
330
1F
100
AcDbEntity
  8
3
  6
Continuous
 62
     2
100
AcDbCircle
 10
812.512829623
 20
613.443396534
 30
0.0
 40
2.8
100
AcDbArc
 50
14.477512186
 51
41.5
  0
LINE
  5
351
330
1F
100
AcDbEntity
  8
3
  6
LTYPE1
 62
     2
100
AcDbLine
 10
806.412829623
 20
610.643396534
 30
0.0
 11
808.012829623
 21
610.643396534
 31
0.0
  0
LINE
  5
352
330
1F
100
AcDbEntity
  8
3
  6
LTYPE1
 62
     2
100
AcDbLine
 10
808.012829623
 20
611.443396534
 30
0.0
 11
810.012829623
 21
611.443396534
 31
0.0
  0
LINE
  5
353
330
1F
100
AcDbEntity
  8
3
  6
LTYPE1
 62
     2
100
AcDbLine
 10
808.012829623
 20
626.843396534
 30
0.0
 11
808.012829623
 21
611.443396534
 31
0.0
  0
LINE
  5
354
330
1F
100
AcDbEntity
  8
3
  6
LTYPE1
 62
     2
100
AcDbLine
 10
810.012829623
 20
611.643396534
 30
0.0
 11
814.612829623
 21
611.643396534
 31
0.0
  0
LINE
  5
355
330
1F
100
AcDbEntity
  8
3
  6
LTYPE1
 62
     2
100
AcDbLine
 10
808.012829623
 20
610.643396534
 30
0.0
 11
808.012829623
 21
614.143396534
 31
0.0
  0
LINE
  5
356
330
1F
100
AcDbEntity
  8
3
  6
LTYPE1
 62
     2
100
AcDbLine
 10
810.012829623
 20
611.443396534
 30
0.0
 11
810.012829623
 21
614.143396534
 31
0.0
  0
LINE
  5
357
330
1F
100
AcDbEntity
  8
3
  6
LTYPE1
 62
     2
100
AcDbLine
 10
815.312829623
 20
614.143396534
 30
0.0
 11
815.312829623
 21
613.443396534
 31
0.0
  0
ARC
  5
358
330
1F
100
AcDbEntity
  8
3
  6
LTYPE1
 62
     2
100
AcDbCircle
 10
812.512829623
 20
613.443396534
 30
0.0
 40
2.8
100
AcDbArc
 50
318.5
 51
0.0
  0
LINE
  5
359
330
1F
100
AcDbEntity
  8
3
  6
Continuous
 62
     2
100
AcDbLine
 10
806.412829623
 20
627.643396534
 30
0.0
 11
806.412829623
 21
614.143396534
 31
0.0
  0
LINE
  5
35A
330
1F
100
AcDbEntity
  8
3
  6
Continuous
 62
     2
100
AcDbLine
 10
322.512829623
 20
614.143396534
 30
0.0
 11
322.512829623
 21
624.843396534
 31
0.0
  0
LINE
  5
35B
330
1F
100
AcDbEntity
  8
3
  6
Continuous
 62
     2
100
AcDbLine
 10
322.512829623
 20
613.443396534
 30
0.0
 11
322.512829623
 21
614.143396534
 31
0.0
  0
ARC
  5
35C
330
1F
100
AcDbEntity
  8
3
  6
Continuous
 62
     2
100
AcDbCircle
 10
325.312829623
 20
613.443396534
 30
0.0
 40
2.8
100
AcDbArc
 50
138.5
 51
165.522487814
  0
LINE
  5
35D
330
1F
100
AcDbEntity
  8
3
  6
Continuous
 62
     2
100
AcDbLine
 10
327.812829623
 20
626.843396534
 30
0.0
 11
327.812829623
 21
614.143396534
 31
0.0
  0
LINE
  5
35E
330
1F
100
AcDbEntity
  8
3
  6
Continuous
 62
     2
100
AcDbLine
 10
329.812829623
 20
627.643396534
 30
0.0
 11
329.812829623
 21
614.143396534
 31
0.0
  0
LINE
  5
35F
330
1F
100
AcDbEntity
  8
3
  6
LTYPE1
 62
     2
100
AcDbLine
 10
327.812829623
 20
611.643396534
 30
0.0
 11
323.212829623
 21
611.643396534
 31
0.0
  0
ARC
  5
360
330
1F
100
AcDbEntity
  8
3
  6
LTYPE1
 62
     2
100
AcDbCircle
 10
325.312829623
 20
613.443396534
 30
0.0
 40
2.8
100
AcDbArc
 50
180.0
 51
221.5
  0
LINE
  5
361
330
1F
100
AcDbEntity
  8
3
  6
LTYPE1
 62
     2
100
AcDbLine
 10
329.812829623
 20
610.643396534
 30
0.0
 11
331.412829623
 21
610.643396534
 31
0.0
  0
LINE
  5
362
330
1F
100
AcDbEntity
  8
3
  6
LTYPE1
 62
     2
100
AcDbLine
 10
327.812829623
 20
614.143396534
 30
0.0
 11
327.812829623
 21
611.443396534
 31
0.0
  0
LINE
  5
363
330
1F
100
AcDbEntity
  8
3
  6
LTYPE1
 62
     2
100
AcDbLine
 10
327.812829623
 20
611.443396534
 30
0.0
 11
329.812829623
 21
611.443396534
 31
0.0
  0
LINE
  5
364
330
1F
100
AcDbEntity
  8
3
  6
Continuous
 62
     2
100
AcDbLine
 10
331.412829623
 20
614.143396534
 30
0.0
 11
331.412829623
 21
627.643396534
 31
0.0
  0
LINE
  5
365
330
1F
100
AcDbEntity
  8
3
  6
Continuous
 62
     2
100
AcDbLine
 10
329.812829623
 20
614.143396534
 30
0.0
 11
329.812829623
 21
626.843396534
 31
0.0
  0
LINE
  5
366
330
1F
100
AcDbEntity
  8
3
  6
LTYPE1
 62
     2
100
AcDbLine
 10
329.812829623
 20
614.143396534
 30
0.0
 11
329.812829623
 21
610.643396534
 31
0.0
  0
LINE
  5
367
330
1F
100
AcDbEntity
  8
3
  6
LTYPE1
 62
     2
100
AcDbLine
 10
329.812829623
 20
611.443396534
 30
0.0
 11
329.812829623
 21
614.143396534
 31
0.0
  0
LINE
  5
368
330
1F
100
AcDbEntity
  8
5
  6
LTYPE3
 62
     2
100
AcDbLine
 10
303.412829623
 20
227.643396534
 30
0.0
 11
834.412829623
 21
227.643396534
 31
0.0
  0
ENDSEC
  0
SECTION
  2
OBJECTS
  0
DICTIONARY
  5
C
330
0
100
AcDbDictionary
280
     0
281
     1
  3
ACAD_GROUP
350
D
  3
ACAD_LAYOUT
350
1A
  3
ACAD_MLINESTYLE
350
17
  3
ACAD_PLOTSETTINGS
350
19
  3
ACAD_PLOTSTYLENAME
350
E
  0
DICTIONARY
  5
D
102
{ACAD_REACTORS
330
C
102
}
330
C
100
AcDbDictionary
280
     0
281
     1
  0
DICTIONARY
  5
1A
102
{ACAD_REACTORS
330
C
102
}
330
C
100
AcDbDictionary
280
     0
281
     1
  3
Model
350
22
  3
ﾚｲｱｳﾄ1
350
1E
  3
ﾚｲｱｳﾄ2
350
26
  0
LAYOUT
  5
22
102
{ACAD_REACTORS
330
1A
102
}
330
1A
100
AcDbPlotSettings
  1

  2

  4

  6

 40
0.0
 41
0.0
 42
0.0
 43
0.0
 44
0.0
 45
0.0
 46
0.0
 47
0.0
 48
0.0
 49
0.0
140
0.0
141
0.0
142
1.0
143
1.0
 70
  1712
 72
     0
 73
     0
 74
     0
  7

 75
     0
147
1.0
148
0.0
149
0.0
100
AcDbLayout
  1
Model
 70
     1
 71
     0
 10
0.0
 20
0.0
 11
0.0
 21
0.0
 12
0.0
 22
0.0
 32
0.0
 14
0.0
 24
0.0
 34
0.0
 15
0.0
 25
0.0
 35
0.0
146
0.0
 13
0.0
 23
0.0
 33
0.0
 16
1.0
 26
0.0
 36
0.0
 17
0.0
 27
1.0
 37
0.0
 76
     0
330
1F
331
0
345
0
346
0
  0
LAYOUT
  5
1E
102
{ACAD_REACTORS
330
1A
102
}
330
1A
100
AcDbPlotSettings
  1

  2

  4

  6

 40
0.0
 41
0.0
 42
0.0
 43
0.0
 44
0.0
 45
0.0
 46
0.0
 47
0.0
 48
0.0
 49
0.0
140
0.0
141
0.0
142
1.0
143
1.0
 70
   688
 72
     0
 73
     0
 74
     5
  7

 75
    16
147
1.0
148
0.0
149
0.0
100
AcDbLayout
  1
ﾚｲｱｳﾄ1
 70
     1
 71
     1
 10
0.0
 20
0.0
 11
0.0
 21
0.0
 12
0.0
 22
0.0
 32
0.0
 14
0.0
 24
0.0
 34
0.0
 15
0.0
 25
0.0
 35
0.0
146
0.0
 13
0.0
 23
0.0
 33
0.0
 16
1.0
 26
0.0
 36
0.0
 17
0.0
 27
1.0
 37
0.0
 76
     0
330
1B
331
0
345
0
346
0
  0
LAYOUT
  5
26
102
{ACAD_REACTORS
330
1A
102
}
330
1A
100
AcDbPlotSettings
  1

  2

  4

  6

 40
0.0
 41
0.0
 42
0.0
 43
0.0
 44
0.0
 45
0.0
 46
0.0
 47
0.0
 48
0.0
 49
0.0
140
0.0
141
0.0
142
1.0
143
1.0
 70
   688
 72
     0
 73
     0
 74
     5
  7

 75
    16
147
1.0
148
0.0
149
0.0
100
AcDbLayout
  1
ﾚｲｱｳﾄ2
 70
     1
 71
     2
 10
0.0
 20
0.0
 11
0.0
 21
0.0
 12
0.0
 22
0.0
 32
0.0
 14
0.0
 24
0.0
 34
0.0
 15
0.0
 25
0.0
 35
0.0
146
0.0
 13
0.0
 23
0.0
 33
0.0
 16
1.0
 26
0.0
 36
0.0
 17
0.0
 27
1.0
 37
0.0
 76
     0
330
23
331
0
345
0
346
0
  0
DICTIONARY
  5
17
102
{ACAD_REACTORS
330
C
102
}
330
C
100
AcDbDictionary
280
     0
281
     1
  3
Standard
350
18
  0
MLINESTYLE
  5
18
102
{ACAD_REACTORS
330
17
102
}
330
17
100
AcDbMlineStyle
  2
STANDARD
 70
     0
  3

 62
   256
 51
90.0
 52
90.0
 71
     2
 49
0.5
 62
   256
  6
ByLayer
 49
-0.5
 62
   256
  6
ByLayer
  0
DICTIONARY
  5
19
102
{ACAD_REACTORS
330
C
102
}
330
C
100
AcDbDictionary
280
     0
281
     1
  0
ACDBDICTIONARYWDFLT
  5
E
330
C
100
AcDbDictionary
281
     0
  3
Normal
350
F
100
AcDbDictionaryWithDefault
340
F
  0
ACDBPLACEHOLDER
  5
F
102
{ACAD_REACTORS
330
E
102
}
330
E
  0
ENDSEC
  0
EOF
