  0
SECTION
  2
HEADER
  9
$ACADVER
  1
AC1015
  9
$ACADMAINTVER
 70
     6
  9
$DWGCODEPAGE
  3
ANSI_932
  9
$INSBASE
 10
0.0
 20
0.0
 30
0.0
  9
$EXTMIN
 10
0.0
 20
0.0
 30
0.0
  9
$EXTMAX
 10
1485.0
 20
1050.0
 30
0.0
  9
$LIMMIN
 10
0.0
 20
0.0
  9
$LIMMAX
 10
1485.0
 20
1050.0
  9
$ORTHOMODE
 70
     0
  9
$REGENMODE
 70
     1
  9
$FILLMODE
 70
     1
  9
$QTEXTMODE
 70
     0
  9
$MIRRTEXT
 70
     1
  9
$LTSCALE
 40
5.0
  9
$ATTMODE
 70
     1
  9
$TEXTSIZE
 40
2.5
  9
$TRACEWID
 40
1.0
  9
$TEXTSTYLE
  7
Standard
  9
$CLAYER
  8
0
  9
$CELTYPE
  6
ByLayer
  9
$CECOLOR
 62
   256
  9
$CELTSCALE
 40
1.0
  9
$DISPSILH
 70
     0
  9
$DIMSCALE
 40
1.0
  9
$DIMASZ
 40
2.5
  9
$DIMEXO
 40
0.625
  9
$DIMDLI
 40
3.75
  9
$DIMRND
 40
0.0
  9
$DIMDLE
 40
0.0
  9
$DIMEXE
 40
1.25
  9
$DIMTP
 40
0.0
  9
$DIMTM
 40
0.0
  9
$DIMTXT
 40
2.5
  9
$DIMCEN
 40
2.5
  9
$DIMTSZ
 40
0.0
  9
$DIMTOL
 70
     0
  9
$DIMLIM
 70
     0
  9
$DIMTIH
 70
     0
  9
$DIMTOH
 70
     0
  9
$DIMSE1
 70
     0
  9
$DIMSE2
 70
     0
  9
$DIMTAD
 70
     1
  9
$DIMZIN
 70
     8
  9
$DIMBLK
  1

  9
$DIMASO
 70
     1
  9
$DIMSHO
 70
     1
  9
$DIMPOST
  1

  9
$DIMAPOST
  1

  9
$DIMALT
 70
     0
  9
$DIMALTD
 70
     3
  9
$DIMALTF
 40
0.03937007874016
  9
$DIMLFAC
 40
1.0
  9
$DIMTOFL
 70
     1
  9
$DIMTVP
 40
0.0
  9
$DIMTIX
 70
     0
  9
$DIMSOXD
 70
     0
  9
$DIMSAH
 70
     0
  9
$DIMBLK1
  1

  9
$DIMBLK2
  1

  9
$DIMSTYLE
  2
ISO-25
  9
$DIMCLRD
 70
     0
  9
$DIMCLRE
 70
     0
  9
$DIMCLRT
 70
     0
  9
$DIMTFAC
 40
1.0
  9
$DIMGAP
 40
0.625
  9
$DIMJUST
 70
     0
  9
$DIMSD1
 70
     0
  9
$DIMSD2
 70
     0
  9
$DIMTOLJ
 70
     0
  9
$DIMTZIN
 70
     8
  9
$DIMALTZ
 70
     0
  9
$DIMALTTZ
 70
     0
  9
$DIMUPT
 70
     0
  9
$DIMDEC
 70
     2
  9
$DIMTDEC
 70
     2
  9
$DIMALTU
 70
     2
  9
$DIMALTTD
 70
     3
  9
$DIMTXSTY
  7
Standard
  9
$DIMAUNIT
 70
     0
  9
$DIMADEC
 70
     0
  9
$DIMALTRND
 40
0.0
  9
$DIMAZIN
 70
     0
  9
$DIMDSEP
 70
    46
  9
$DIMATFIT
 70
     3
  9
$DIMFRAC
 70
     0
  9
$DIMLDRBLK
  1

  9
$DIMLUNIT
 70
     2
  9
$DIMLWD
 70
    -2
  9
$DIMLWE
 70
    -2
  9
$DIMTMOVE
 70
     0
  9
$LUNITS
 70
     2
  9
$LUPREC
 70
     4
  9
$SKETCHINC
 40
1.0
  9
$FILLETRAD
 40
10.0
  9
$AUNITS
 70
     0
  9
$AUPREC
 70
     0
  9
$MENU
  1
.
  9
$ELEVATION
 40
0.0
  9
$PELEVATION
 40
0.0
  9
$THICKNESS
 40
0.0
  9
$LIMCHECK
 70
     0
  9
$CHAMFERA
 40
10.0
  9
$CHAMFERB
 40
10.0
  9
$CHAMFERC
 40
20.0
  9
$CHAMFERD
 40
0.0
  9
$SKPOLY
 70
     0
  9
$TDCREATE
 40
2457071.000000
  9
$TDUCREATE
 40
0.000000000
  9
$TDUPDATE
 40
2457071.000000
  9
$TDUUPDATE
 40
2457071.000000
  9
$TDINDWG
 40
0.0
  9
$TDUSRTIMER
 40
0.0
  9
$USRTIMER
 70
     1
  9
$ANGBASE
 50
0.0
  9
$ANGDIR
 70
     0
  9
$PDMODE
 70
     0
  9
$PDSIZE
 40
0.0
  9
$PLINEWID
 40
0.0
  9
$SPLFRAME
 70
     0
  9
$SPLINETYPE
 70
     6
  9
$SPLINESEGS
 70
     8
  9
$HANDSEED
  5
0357
  9
$SURFTAB1
 70
     6
  9
$SURFTAB2
 70
     6
  9
$SURFTYPE
 70
     6
  9
$SURFU
 70
     6
  9
$SURFV
 70
     6
  9
$UCSBASE
  2

  9
$UCSNAME
  2

  9
$UCSORG
 10
0.0
 20
0.0
 30
0.0
  9
$UCSXDIR
 10
1.0
 20
0.0
 30
0.0
  9
$UCSYDIR
 10
0.0
 20
1.0
 30
0.0
  9
$UCSORTHOREF
  2

  9
$UCSORTHOVIEW
 70
     0
  9
$UCSORGTOP
 10
0.0
 20
0.0
 30
0.0
  9
$UCSORGBOTTOM
 10
0.0
 20
0.0
 30
0.0
  9
$UCSORGLEFT
 10
0.0
 20
0.0
 30
0.0
  9
$UCSORGRIGHT
 10
0.0
 20
0.0
 30
0.0
  9
$UCSORGFRONT
 10
0.0
 20
0.0
 30
0.0
  9
$UCSORGBACK
 10
0.0
 20
0.0
 30
0.0
  9
$PUCSBASE
  2

  9
$PUCSNAME
  2

  9
$PUCSORG
 10
0.0
 20
0.0
 30
0.0
  9
$PUCSXDIR
 10
1.0
 20
0.0
 30
0.0
  9
$PUCSYDIR
 10
0.0
 20
1.0
 30
0.0
  9
$PUCSORTHOREF
  2

  9
$PUCSORTHOVIEW
 70
     0
  9
$PUCSORGTOP
 10
0.0
 20
0.0
 30
0.0
  9
$PUCSORGBOTTOM
 10
0.0
 20
0.0
 30
0.0
  9
$PUCSORGLEFT
 10
0.0
 20
0.0
 30
0.0
  9
$PUCSORGRIGHT
 10
0.0
 20
0.0
 30
0.0
  9
$PUCSORGFRONT
 10
0.0
 20
0.0
 30
0.0
  9
$PUCSORGBACK
 10
0.0
 20
0.0
 30
0.0
  9
$USERI1
 70
     0
  9
$USERI2
 70
     0
  9
$USERI3
 70
     0
  9
$USERI4
 70
     0
  9
$USERI5
 70
     0
  9
$USERR1
 40
0.0
  9
$USERR2
 40
0.0
  9
$USERR3
 40
0.0
  9
$USERR4
 40
0.0
  9
$USERR5
 40
0.0
  9
$WORLDVIEW
 70
     1
  9
$SHADEDGE
 70
     3
  9
$SHADEDIF
 70
    70
  9
$TILEMODE
 70
     1
  9
$MAXACTVP
 70
    64
  9
$PINSBASE
 10
0.0
 20
0.0
 30
0.0
  9
$PLIMCHECK
 70
     0
  9
$PEXTMIN
 10
1.000000E+20
 20
1.000000E+20
 30
1.000000E+20
  9
$PEXTMAX
 10
-1.000000E+20
 20
-1.000000E+20
 30
-1.000000E+20
  9
$PLIMMIN
 10
0.0
 20
0.0
  9
$PLIMMAX
 10
0.0
 20
0.0
  9
$UNITMODE
 70
     0
  9
$VISRETAIN
 70
     0
  9
$PLINEGEN
 70
     0
  9
$PSLTSCALE
 70
     1
  9
$TREEDEPTH
 70
  3020
  9
$CMLSTYLE
  2
STANDARD
  9
$CMLJUST
 70
     0
  9
$CMLSCALE
 40
20.0
  9
$PROXYGRAPHICS
 70
     1
  9
$MEASUREMENT
 70
     1
  9
$CELWEIGHT
370
    -1
  9
$ENDCAPS
280
     0
  9
$JOINSTYLE
280
     0
  9
$LWDISPLAY
290
     0
  9
$INSUNITS
 70
     4
  9
$HYPERLINKBASE
  1

  9
$STYLESHEET
  1

  9
$XEDIT
290
     1
  9
$CEPSNTYPE
380
     0
  9
$PSTYLEMODE
290
     1
  9
$FINGERPRINTGUID
  2
{9A74102D-B868-93CF-92D7-903C62642DD0}
  9
$VERSIONGUID
  2
{FAC15975-68E7-D674-4ED2-7E853DE00421}
  9
$EXTNAMES
290
     1
  9
$PSVPSCALE
 40
0.0
  0
ENDSEC
  0
SECTION
  2
CLASSES
  0
ENDSEC
  0
SECTION
  2
TABLES
  0
TABLE
  2
VPORT
  5
8
330
0
100
AcDbSymbolTable
 70
     3
  0
VPORT
  5
29
330
8
100
AcDbSymbolTableRecord
100
AcDbViewportTableRecord
  2
*Active
 70
     0
 10
0.0
 20
0.0
 11
1.0
 21
1.0
 12
742.5
 22
525.0
 13
0.0
 23
0.0
 14
10.0
 24
10.0
 15
0.0
 25
0.0
 16
0.0
 26
0.0
 36
1.0
 17
0.0
 27
0.0
 37
0.0
 40
1050.0
 41
1.414285714
 42
50.0
 43
0.0
 44
0.0
 50
0.0
 51
0.0
 71
     0
 72
  1000
 73
     1
 74
     3
 75
     0
 76
     0
 77
     0
 78
     0
281
     0
 65
     0
110
0.0
120
0.0
130
0.0
111
1.0
121
0.0
131
0.0
112
0.0
122
1.0
132
0.0
 79
     0
146
0.0
  0
ENDTAB
  0
TABLE
  2
LTYPE
  5
5
330
0
100
AcDbSymbolTable
 70
     6
  0
LTYPE
  5
14
330
5
100
AcDbSymbolTableRecord
100
AcDbLinetypeTableRecord
  2
ByBlock
 70
     0
  3

 72
    65
 73
     0
 40
0.0
  0
LTYPE
  5
15
330
5
100
AcDbSymbolTableRecord
100
AcDbLinetypeTableRecord
  2
ByLayer
 70
     0
  3

 72
    65
 73
     0
 40
0.0
  0
LTYPE
  5
16
330
5
100
AcDbSymbolTableRecord
100
AcDbLinetypeTableRecord
  2
Continuous
 70
     0
  3
Solid line
 72
    65
 73
     0
 40
0.0
  0
LTYPE
  5
A9
330
5
100
AcDbSymbolTableRecord
100
AcDbLinetypeTableRecord
  2
LTYPE1
 70
     0
  3
PHANTOM
 72
    65
 73
     6
 40
12.0
 49
9.0
 74
     0
 49
-0.6
 74
     0
 49
0.6
 74
     0
 49
-0.6
 74
     0
 49
0.6
 74
     0
 49
-0.6
 74
     0
  0
LTYPE
  5
F6
330
5
100
AcDbSymbolTableRecord
100
AcDbLinetypeTableRecord
  2
LTYPE2
 70
     0
  3
HIDDEN
 72
    65
 73
     2
 40
2.0
 49
1.2
 74
     0
 49
-0.8
 74
     0
  0
LTYPE
  5
160
330
5
100
AcDbSymbolTableRecord
100
AcDbLinetypeTableRecord
  2
LTYPE3
 70
     0
  3
CENTER
 72
    65
 73
     4
 40
12.0
 49
8.4
 74
     0
 49
-1.2
 74
     0
 49
1.2
 74
     0
 49
-1.2
 74
     0
  0
ENDTAB
  0
TABLE
  2
LAYER
  5
2
330
0
100
AcDbSymbolTable
 70
   128
  0
LAYER
  5
10
330
2
100
AcDbSymbolTableRecord
100
AcDbLayerTableRecord
  2
0
 70
     0
 62
     7
  6
Continuous
290
     1
370
    -3
390
F
  0
LAYER
  5
2A
330
2
100
AcDbSymbolTableRecord
100
AcDbLayerTableRecord
  2
2
 70
     0
 62
     7
  6
Continuous
290
     1
370
    -3
390
F
  0
LAYER
  5
2B
330
2
100
AcDbSymbolTableRecord
100
AcDbLayerTableRecord
  2
3
 70
     0
 62
     7
  6
Continuous
290
     1
370
    -3
390
F
  0
LAYER
  5
2C
330
2
100
AcDbSymbolTableRecord
100
AcDbLayerTableRecord
  2
4
 70
     0
 62
     7
  6
Continuous
290
     1
370
    -3
390
F
  0
LAYER
  5
2D
330
2
100
AcDbSymbolTableRecord
100
AcDbLayerTableRecord
  2
5
 70
     0
 62
     7
  6
Continuous
290
     1
370
    -3
390
F
  0
LAYER
  5
2E
330
2
100
AcDbSymbolTableRecord
100
AcDbLayerTableRecord
  2
6
 70
     0
 62
     7
  6
Continuous
290
     1
370
    -3
390
F
  0
LAYER
  5
2F
330
2
100
AcDbSymbolTableRecord
100
AcDbLayerTableRecord
  2
7
 70
     0
 62
     7
  6
Continuous
290
     1
370
    -3
390
F
  0
LAYER
  5
30
330
2
100
AcDbSymbolTableRecord
100
AcDbLayerTableRecord
  2
8
 70
     0
 62
     7
  6
Continuous
290
     1
370
    -3
390
F
  0
LAYER
  5
31
330
2
100
AcDbSymbolTableRecord
100
AcDbLayerTableRecord
  2
9
 70
     0
 62
     7
  6
Continuous
290
     1
370
    -3
390
F
  0
LAYER
  5
32
330
2
100
AcDbSymbolTableRecord
100
AcDbLayerTableRecord
  2
10
 70
     0
 62
     7
  6
Continuous
290
     1
370
    -3
390
F
  0
LAYER
  5
33
330
2
100
AcDbSymbolTableRecord
100
AcDbLayerTableRecord
  2
11
 70
     0
 62
     7
  6
Continuous
290
     1
370
    -3
390
F
  0
LAYER
  5
34
330
2
100
AcDbSymbolTableRecord
100
AcDbLayerTableRecord
  2
12
 70
     0
 62
     7
  6
Continuous
290
     1
370
    -3
390
F
  0
LAYER
  5
35
330
2
100
AcDbSymbolTableRecord
100
AcDbLayerTableRecord
  2
13
 70
     0
 62
     7
  6
Continuous
290
     1
370
    -3
390
F
  0
LAYER
  5
36
330
2
100
AcDbSymbolTableRecord
100
AcDbLayerTableRecord
  2
14
 70
     0
 62
     7
  6
Continuous
290
     1
370
    -3
390
F
  0
LAYER
  5
37
330
2
100
AcDbSymbolTableRecord
100
AcDbLayerTableRecord
  2
15
 70
     0
 62
     7
  6
Continuous
290
     1
370
    -3
390
F
  0
LAYER
  5
38
330
2
100
AcDbSymbolTableRecord
100
AcDbLayerTableRecord
  2
16
 70
     0
 62
     7
  6
Continuous
290
     1
370
    -3
390
F
  0
LAYER
  5
39
330
2
100
AcDbSymbolTableRecord
100
AcDbLayerTableRecord
  2
17
 70
     0
 62
     7
  6
Continuous
290
     1
370
    -3
390
F
  0
LAYER
  5
3A
330
2
100
AcDbSymbolTableRecord
100
AcDbLayerTableRecord
  2
18
 70
     0
 62
     7
  6
Continuous
290
     1
370
    -3
390
F
  0
LAYER
  5
3B
330
2
100
AcDbSymbolTableRecord
100
AcDbLayerTableRecord
  2
19
 70
     0
 62
     7
  6
Continuous
290
     1
370
    -3
390
F
  0
LAYER
  5
3C
330
2
100
AcDbSymbolTableRecord
100
AcDbLayerTableRecord
  2
20
 70
     0
 62
     7
  6
Continuous
290
     1
370
    -3
390
F
  0
LAYER
  5
3D
330
2
100
AcDbSymbolTableRecord
100
AcDbLayerTableRecord
  2
21
 70
     0
 62
     7
  6
Continuous
290
     1
370
    -3
390
F
  0
LAYER
  5
3E
330
2
100
AcDbSymbolTableRecord
100
AcDbLayerTableRecord
  2
22
 70
     0
 62
     7
  6
Continuous
290
     1
370
    -3
390
F
  0
LAYER
  5
3F
330
2
100
AcDbSymbolTableRecord
100
AcDbLayerTableRecord
  2
23
 70
     0
 62
     7
  6
Continuous
290
     1
370
    -3
390
F
  0
LAYER
  5
40
330
2
100
AcDbSymbolTableRecord
100
AcDbLayerTableRecord
  2
24
 70
     0
 62
     7
  6
Continuous
290
     1
370
    -3
390
F
  0
LAYER
  5
41
330
2
100
AcDbSymbolTableRecord
100
AcDbLayerTableRecord
  2
25
 70
     0
 62
     7
  6
Continuous
290
     1
370
    -3
390
F
  0
LAYER
  5
42
330
2
100
AcDbSymbolTableRecord
100
AcDbLayerTableRecord
  2
26
 70
     0
 62
     7
  6
Continuous
290
     1
370
    -3
390
F
  0
LAYER
  5
43
330
2
100
AcDbSymbolTableRecord
100
AcDbLayerTableRecord
  2
27
 70
     0
 62
     7
  6
Continuous
290
     1
370
    -3
390
F
  0
LAYER
  5
44
330
2
100
AcDbSymbolTableRecord
100
AcDbLayerTableRecord
  2
28
 70
     0
 62
     7
  6
Continuous
290
     1
370
    -3
390
F
  0
LAYER
  5
45
330
2
100
AcDbSymbolTableRecord
100
AcDbLayerTableRecord
  2
29
 70
     0
 62
     7
  6
Continuous
290
     1
370
    -3
390
F
  0
LAYER
  5
46
330
2
100
AcDbSymbolTableRecord
100
AcDbLayerTableRecord
  2
30
 70
     0
 62
     7
  6
Continuous
290
     1
370
    -3
390
F
  0
LAYER
  5
47
330
2
100
AcDbSymbolTableRecord
100
AcDbLayerTableRecord
  2
31
 70
     0
 62
     7
  6
Continuous
290
     1
370
    -3
390
F
  0
LAYER
  5
48
330
2
100
AcDbSymbolTableRecord
100
AcDbLayerTableRecord
  2
32
 70
     0
 62
     7
  6
Continuous
290
     1
370
    -3
390
F
  0
LAYER
  5
49
330
2
100
AcDbSymbolTableRecord
100
AcDbLayerTableRecord
  2
33
 70
     0
 62
     7
  6
Continuous
290
     1
370
    -3
390
F
  0
LAYER
  5
4A
330
2
100
AcDbSymbolTableRecord
100
AcDbLayerTableRecord
  2
34
 70
     0
 62
     7
  6
Continuous
290
     1
370
    -3
390
F
  0
LAYER
  5
4B
330
2
100
AcDbSymbolTableRecord
100
AcDbLayerTableRecord
  2
35
 70
     0
 62
     7
  6
Continuous
290
     1
370
    -3
390
F
  0
LAYER
  5
4C
330
2
100
AcDbSymbolTableRecord
100
AcDbLayerTableRecord
  2
36
 70
     0
 62
     7
  6
Continuous
290
     1
370
    -3
390
F
  0
LAYER
  5
4D
330
2
100
AcDbSymbolTableRecord
100
AcDbLayerTableRecord
  2
37
 70
     0
 62
     7
  6
Continuous
290
     1
370
    -3
390
F
  0
LAYER
  5
4E
330
2
100
AcDbSymbolTableRecord
100
AcDbLayerTableRecord
  2
38
 70
     0
 62
     7
  6
Continuous
290
     1
370
    -3
390
F
  0
LAYER
  5
4F
330
2
100
AcDbSymbolTableRecord
100
AcDbLayerTableRecord
  2
39
 70
     0
 62
     7
  6
Continuous
290
     1
370
    -3
390
F
  0
LAYER
  5
50
330
2
100
AcDbSymbolTableRecord
100
AcDbLayerTableRecord
  2
40
 70
     0
 62
     7
  6
Continuous
290
     1
370
    -3
390
F
  0
LAYER
  5
51
330
2
100
AcDbSymbolTableRecord
100
AcDbLayerTableRecord
  2
41
 70
     0
 62
     7
  6
Continuous
290
     1
370
    -3
390
F
  0
LAYER
  5
52
330
2
100
AcDbSymbolTableRecord
100
AcDbLayerTableRecord
  2
42
 70
     0
 62
     7
  6
Continuous
290
     1
370
    -3
390
F
  0
LAYER
  5
53
330
2
100
AcDbSymbolTableRecord
100
AcDbLayerTableRecord
  2
43
 70
     0
 62
     7
  6
Continuous
290
     1
370
    -3
390
F
  0
LAYER
  5
54
330
2
100
AcDbSymbolTableRecord
100
AcDbLayerTableRecord
  2
44
 70
     0
 62
     7
  6
Continuous
290
     1
370
    -3
390
F
  0
LAYER
  5
55
330
2
100
AcDbSymbolTableRecord
100
AcDbLayerTableRecord
  2
45
 70
     0
 62
     7
  6
Continuous
290
     1
370
    -3
390
F
  0
LAYER
  5
56
330
2
100
AcDbSymbolTableRecord
100
AcDbLayerTableRecord
  2
46
 70
     0
 62
     7
  6
Continuous
290
     1
370
    -3
390
F
  0
LAYER
  5
57
330
2
100
AcDbSymbolTableRecord
100
AcDbLayerTableRecord
  2
47
 70
     0
 62
     7
  6
Continuous
290
     1
370
    -3
390
F
  0
LAYER
  5
58
330
2
100
AcDbSymbolTableRecord
100
AcDbLayerTableRecord
  2
48
 70
     0
 62
     7
  6
Continuous
290
     1
370
    -3
390
F
  0
LAYER
  5
59
330
2
100
AcDbSymbolTableRecord
100
AcDbLayerTableRecord
  2
49
 70
     0
 62
     7
  6
Continuous
290
     1
370
    -3
390
F
  0
LAYER
  5
5A
330
2
100
AcDbSymbolTableRecord
100
AcDbLayerTableRecord
  2
50
 70
     0
 62
     7
  6
Continuous
290
     1
370
    -3
390
F
  0
LAYER
  5
5B
330
2
100
AcDbSymbolTableRecord
100
AcDbLayerTableRecord
  2
51
 70
     0
 62
     7
  6
Continuous
290
     1
370
    -3
390
F
  0
LAYER
  5
5C
330
2
100
AcDbSymbolTableRecord
100
AcDbLayerTableRecord
  2
52
 70
     0
 62
     7
  6
Continuous
290
     1
370
    -3
390
F
  0
LAYER
  5
5D
330
2
100
AcDbSymbolTableRecord
100
AcDbLayerTableRecord
  2
53
 70
     0
 62
     7
  6
Continuous
290
     1
370
    -3
390
F
  0
LAYER
  5
5E
330
2
100
AcDbSymbolTableRecord
100
AcDbLayerTableRecord
  2
54
 70
     0
 62
     7
  6
Continuous
290
     1
370
    -3
390
F
  0
LAYER
  5
5F
330
2
100
AcDbSymbolTableRecord
100
AcDbLayerTableRecord
  2
55
 70
     0
 62
     7
  6
Continuous
290
     1
370
    -3
390
F
  0
LAYER
  5
60
330
2
100
AcDbSymbolTableRecord
100
AcDbLayerTableRecord
  2
56
 70
     0
 62
     7
  6
Continuous
290
     1
370
    -3
390
F
  0
LAYER
  5
61
330
2
100
AcDbSymbolTableRecord
100
AcDbLayerTableRecord
  2
57
 70
     0
 62
     7
  6
Continuous
290
     1
370
    -3
390
F
  0
LAYER
  5
62
330
2
100
AcDbSymbolTableRecord
100
AcDbLayerTableRecord
  2
58
 70
     0
 62
     7
  6
Continuous
290
     1
370
    -3
390
F
  0
LAYER
  5
63
330
2
100
AcDbSymbolTableRecord
100
AcDbLayerTableRecord
  2
59
 70
     0
 62
     7
  6
Continuous
290
     1
370
    -3
390
F
  0
LAYER
  5
64
330
2
100
AcDbSymbolTableRecord
100
AcDbLayerTableRecord
  2
60
 70
     0
 62
     7
  6
Continuous
290
     1
370
    -3
390
F
  0
LAYER
  5
65
330
2
100
AcDbSymbolTableRecord
100
AcDbLayerTableRecord
  2
61
 70
     0
 62
     7
  6
Continuous
290
     1
370
    -3
390
F
  0
LAYER
  5
66
330
2
100
AcDbSymbolTableRecord
100
AcDbLayerTableRecord
  2
62
 70
     0
 62
     7
  6
Continuous
290
     1
370
    -3
390
F
  0
LAYER
  5
67
330
2
100
AcDbSymbolTableRecord
100
AcDbLayerTableRecord
  2
63
 70
     0
 62
     7
  6
Continuous
290
     1
370
    -3
390
F
  0
LAYER
  5
68
330
2
100
AcDbSymbolTableRecord
100
AcDbLayerTableRecord
  2
64
 70
     0
 62
     7
  6
Continuous
290
     1
370
    -3
390
F
  0
LAYER
  5
69
330
2
100
AcDbSymbolTableRecord
100
AcDbLayerTableRecord
  2
65
 70
     0
 62
     7
  6
Continuous
290
     1
370
    -3
390
F
  0
LAYER
  5
6A
330
2
100
AcDbSymbolTableRecord
100
AcDbLayerTableRecord
  2
66
 70
     0
 62
     7
  6
Continuous
290
     1
370
    -3
390
F
  0
LAYER
  5
6B
330
2
100
AcDbSymbolTableRecord
100
AcDbLayerTableRecord
  2
67
 70
     0
 62
     7
  6
Continuous
290
     1
370
    -3
390
F
  0
LAYER
  5
6C
330
2
100
AcDbSymbolTableRecord
100
AcDbLayerTableRecord
  2
68
 70
     0
 62
     7
  6
Continuous
290
     1
370
    -3
390
F
  0
LAYER
  5
6D
330
2
100
AcDbSymbolTableRecord
100
AcDbLayerTableRecord
  2
69
 70
     0
 62
     7
  6
Continuous
290
     1
370
    -3
390
F
  0
LAYER
  5
6E
330
2
100
AcDbSymbolTableRecord
100
AcDbLayerTableRecord
  2
70
 70
     0
 62
     7
  6
Continuous
290
     1
370
    -3
390
F
  0
LAYER
  5
6F
330
2
100
AcDbSymbolTableRecord
100
AcDbLayerTableRecord
  2
71
 70
     0
 62
     7
  6
Continuous
290
     1
370
    -3
390
F
  0
LAYER
  5
70
330
2
100
AcDbSymbolTableRecord
100
AcDbLayerTableRecord
  2
72
 70
     0
 62
     7
  6
Continuous
290
     1
370
    -3
390
F
  0
LAYER
  5
71
330
2
100
AcDbSymbolTableRecord
100
AcDbLayerTableRecord
  2
73
 70
     0
 62
     7
  6
Continuous
290
     1
370
    -3
390
F
  0
LAYER
  5
72
330
2
100
AcDbSymbolTableRecord
100
AcDbLayerTableRecord
  2
74
 70
     0
 62
     7
  6
Continuous
290
     1
370
    -3
390
F
  0
LAYER
  5
73
330
2
100
AcDbSymbolTableRecord
100
AcDbLayerTableRecord
  2
75
 70
     0
 62
     7
  6
Continuous
290
     1
370
    -3
390
F
  0
LAYER
  5
74
330
2
100
AcDbSymbolTableRecord
100
AcDbLayerTableRecord
  2
76
 70
     0
 62
     7
  6
Continuous
290
     1
370
    -3
390
F
  0
LAYER
  5
75
330
2
100
AcDbSymbolTableRecord
100
AcDbLayerTableRecord
  2
77
 70
     0
 62
     7
  6
Continuous
290
     1
370
    -3
390
F
  0
LAYER
  5
76
330
2
100
AcDbSymbolTableRecord
100
AcDbLayerTableRecord
  2
78
 70
     0
 62
     7
  6
Continuous
290
     1
370
    -3
390
F
  0
LAYER
  5
77
330
2
100
AcDbSymbolTableRecord
100
AcDbLayerTableRecord
  2
79
 70
     0
 62
     7
  6
Continuous
290
     1
370
    -3
390
F
  0
LAYER
  5
78
330
2
100
AcDbSymbolTableRecord
100
AcDbLayerTableRecord
  2
80
 70
     0
 62
     7
  6
Continuous
290
     1
370
    -3
390
F
  0
LAYER
  5
79
330
2
100
AcDbSymbolTableRecord
100
AcDbLayerTableRecord
  2
81
 70
     0
 62
     7
  6
Continuous
290
     1
370
    -3
390
F
  0
LAYER
  5
7A
330
2
100
AcDbSymbolTableRecord
100
AcDbLayerTableRecord
  2
82
 70
     0
 62
     7
  6
Continuous
290
     1
370
    -3
390
F
  0
LAYER
  5
7B
330
2
100
AcDbSymbolTableRecord
100
AcDbLayerTableRecord
  2
83
 70
     0
 62
     7
  6
Continuous
290
     1
370
    -3
390
F
  0
LAYER
  5
7C
330
2
100
AcDbSymbolTableRecord
100
AcDbLayerTableRecord
  2
84
 70
     0
 62
     7
  6
Continuous
290
     1
370
    -3
390
F
  0
LAYER
  5
7D
330
2
100
AcDbSymbolTableRecord
100
AcDbLayerTableRecord
  2
85
 70
     0
 62
     7
  6
Continuous
290
     1
370
    -3
390
F
  0
LAYER
  5
7E
330
2
100
AcDbSymbolTableRecord
100
AcDbLayerTableRecord
  2
86
 70
     0
 62
     7
  6
Continuous
290
     1
370
    -3
390
F
  0
LAYER
  5
7F
330
2
100
AcDbSymbolTableRecord
100
AcDbLayerTableRecord
  2
87
 70
     0
 62
     7
  6
Continuous
290
     1
370
    -3
390
F
  0
LAYER
  5
80
330
2
100
AcDbSymbolTableRecord
100
AcDbLayerTableRecord
  2
88
 70
     0
 62
     7
  6
Continuous
290
     1
370
    -3
390
F
  0
LAYER
  5
81
330
2
100
AcDbSymbolTableRecord
100
AcDbLayerTableRecord
  2
89
 70
     0
 62
     7
  6
Continuous
290
     1
370
    -3
390
F
  0
LAYER
  5
82
330
2
100
AcDbSymbolTableRecord
100
AcDbLayerTableRecord
  2
90
 70
     0
 62
     7
  6
Continuous
290
     1
370
    -3
390
F
  0
LAYER
  5
83
330
2
100
AcDbSymbolTableRecord
100
AcDbLayerTableRecord
  2
91
 70
     0
 62
     7
  6
Continuous
290
     1
370
    -3
390
F
  0
LAYER
  5
84
330
2
100
AcDbSymbolTableRecord
100
AcDbLayerTableRecord
  2
92
 70
     0
 62
     7
  6
Continuous
290
     1
370
    -3
390
F
  0
LAYER
  5
85
330
2
100
AcDbSymbolTableRecord
100
AcDbLayerTableRecord
  2
93
 70
     0
 62
     7
  6
Continuous
290
     1
370
    -3
390
F
  0
LAYER
  5
86
330
2
100
AcDbSymbolTableRecord
100
AcDbLayerTableRecord
  2
94
 70
     0
 62
     7
  6
Continuous
290
     1
370
    -3
390
F
  0
LAYER
  5
87
330
2
100
AcDbSymbolTableRecord
100
AcDbLayerTableRecord
  2
95
 70
     0
 62
     7
  6
Continuous
290
     1
370
    -3
390
F
  0
LAYER
  5
88
330
2
100
AcDbSymbolTableRecord
100
AcDbLayerTableRecord
  2
96
 70
     0
 62
     7
  6
Continuous
290
     1
370
    -3
390
F
  0
LAYER
  5
89
330
2
100
AcDbSymbolTableRecord
100
AcDbLayerTableRecord
  2
97
 70
     0
 62
     7
  6
Continuous
290
     1
370
    -3
390
F
  0
LAYER
  5
8A
330
2
100
AcDbSymbolTableRecord
100
AcDbLayerTableRecord
  2
98
 70
     0
 62
     7
  6
Continuous
290
     1
370
    -3
390
F
  0
LAYER
  5
8B
330
2
100
AcDbSymbolTableRecord
100
AcDbLayerTableRecord
  2
99
 70
     0
 62
     7
  6
Continuous
290
     1
370
    -3
390
F
  0
LAYER
  5
8C
330
2
100
AcDbSymbolTableRecord
100
AcDbLayerTableRecord
  2
100
 70
     0
 62
     7
  6
Continuous
290
     1
370
    -3
390
F
  0
LAYER
  5
8D
330
2
100
AcDbSymbolTableRecord
100
AcDbLayerTableRecord
  2
101
 70
     0
 62
     7
  6
Continuous
290
     1
370
    -3
390
F
  0
LAYER
  5
8E
330
2
100
AcDbSymbolTableRecord
100
AcDbLayerTableRecord
  2
102
 70
     0
 62
     7
  6
Continuous
290
     1
370
    -3
390
F
  0
LAYER
  5
8F
330
2
100
AcDbSymbolTableRecord
100
AcDbLayerTableRecord
  2
103
 70
     0
 62
     7
  6
Continuous
290
     1
370
    -3
390
F
  0
LAYER
  5
90
330
2
100
AcDbSymbolTableRecord
100
AcDbLayerTableRecord
  2
104
 70
     0
 62
     7
  6
Continuous
290
     1
370
    -3
390
F
  0
LAYER
  5
91
330
2
100
AcDbSymbolTableRecord
100
AcDbLayerTableRecord
  2
105
 70
     0
 62
     7
  6
Continuous
290
     1
370
    -3
390
F
  0
LAYER
  5
92
330
2
100
AcDbSymbolTableRecord
100
AcDbLayerTableRecord
  2
106
 70
     0
 62
     7
  6
Continuous
290
     1
370
    -3
390
F
  0
LAYER
  5
93
330
2
100
AcDbSymbolTableRecord
100
AcDbLayerTableRecord
  2
107
 70
     0
 62
     7
  6
Continuous
290
     1
370
    -3
390
F
  0
LAYER
  5
94
330
2
100
AcDbSymbolTableRecord
100
AcDbLayerTableRecord
  2
108
 70
     0
 62
     7
  6
Continuous
290
     1
370
    -3
390
F
  0
LAYER
  5
95
330
2
100
AcDbSymbolTableRecord
100
AcDbLayerTableRecord
  2
109
 70
     0
 62
     7
  6
Continuous
290
     1
370
    -3
390
F
  0
LAYER
  5
96
330
2
100
AcDbSymbolTableRecord
100
AcDbLayerTableRecord
  2
110
 70
     0
 62
     7
  6
Continuous
290
     1
370
    -3
390
F
  0
LAYER
  5
97
330
2
100
AcDbSymbolTableRecord
100
AcDbLayerTableRecord
  2
111
 70
     0
 62
     7
  6
Continuous
290
     1
370
    -3
390
F
  0
LAYER
  5
98
330
2
100
AcDbSymbolTableRecord
100
AcDbLayerTableRecord
  2
112
 70
     0
 62
     7
  6
Continuous
290
     1
370
    -3
390
F
  0
LAYER
  5
99
330
2
100
AcDbSymbolTableRecord
100
AcDbLayerTableRecord
  2
113
 70
     0
 62
     7
  6
Continuous
290
     1
370
    -3
390
F
  0
LAYER
  5
9A
330
2
100
AcDbSymbolTableRecord
100
AcDbLayerTableRecord
  2
114
 70
     0
 62
     7
  6
Continuous
290
     1
370
    -3
390
F
  0
LAYER
  5
9B
330
2
100
AcDbSymbolTableRecord
100
AcDbLayerTableRecord
  2
115
 70
     0
 62
     7
  6
Continuous
290
     1
370
    -3
390
F
  0
LAYER
  5
9C
330
2
100
AcDbSymbolTableRecord
100
AcDbLayerTableRecord
  2
116
 70
     0
 62
     7
  6
Continuous
290
     1
370
    -3
390
F
  0
LAYER
  5
9D
330
2
100
AcDbSymbolTableRecord
100
AcDbLayerTableRecord
  2
117
 70
     0
 62
     7
  6
Continuous
290
     1
370
    -3
390
F
  0
LAYER
  5
9E
330
2
100
AcDbSymbolTableRecord
100
AcDbLayerTableRecord
  2
118
 70
     0
 62
     7
  6
Continuous
290
     1
370
    -3
390
F
  0
LAYER
  5
9F
330
2
100
AcDbSymbolTableRecord
100
AcDbLayerTableRecord
  2
119
 70
     0
 62
     7
  6
Continuous
290
     1
370
    -3
390
F
  0
LAYER
  5
A0
330
2
100
AcDbSymbolTableRecord
100
AcDbLayerTableRecord
  2
120
 70
     0
 62
     7
  6
Continuous
290
     1
370
    -3
390
F
  0
LAYER
  5
A1
330
2
100
AcDbSymbolTableRecord
100
AcDbLayerTableRecord
  2
121
 70
     0
 62
     7
  6
Continuous
290
     1
370
    -3
390
F
  0
LAYER
  5
A2
330
2
100
AcDbSymbolTableRecord
100
AcDbLayerTableRecord
  2
122
 70
     0
 62
     7
  6
Continuous
290
     1
370
    -3
390
F
  0
LAYER
  5
A3
330
2
100
AcDbSymbolTableRecord
100
AcDbLayerTableRecord
  2
123
 70
     0
 62
     7
  6
Continuous
290
     1
370
    -3
390
F
  0
LAYER
  5
A4
330
2
100
AcDbSymbolTableRecord
100
AcDbLayerTableRecord
  2
124
 70
     0
 62
     7
  6
Continuous
290
     1
370
    -3
390
F
  0
LAYER
  5
A5
330
2
100
AcDbSymbolTableRecord
100
AcDbLayerTableRecord
  2
125
 70
     0
 62
     7
  6
Continuous
290
     1
370
    -3
390
F
  0
LAYER
  5
A6
330
2
100
AcDbSymbolTableRecord
100
AcDbLayerTableRecord
  2
126
 70
     0
 62
     7
  6
Continuous
290
     1
370
    -3
390
F
  0
LAYER
  5
A7
330
2
100
AcDbSymbolTableRecord
100
AcDbLayerTableRecord
  2
127
 70
     0
 62
     7
  6
Continuous
290
     1
370
    -3
390
F
  0
LAYER
  5
A8
330
2
100
AcDbSymbolTableRecord
100
AcDbLayerTableRecord
  2
128
 70
     0
 62
     7
  6
Continuous
290
     1
370
    -3
390
F
  0
ENDTAB
  0
TABLE
  2
STYLE
  5
3
330
0
100
AcDbSymbolTable
 70
    11
  0
STYLE
  5
11
330
3
100
AcDbSymbolTableRecord
100
AcDbTextStyleTableRecord
  2
Standard
 70
     0
 40
0.0
 41
1.0
 50
0.0
 71
     0
 42
2.5
  3
txt.shx
  4
extfont.shx
  0
STYLE
  5
B0
330
3
100
AcDbSymbolTableRecord
100
AcDbTextStyleTableRecord
  2
KANJI0
 70
     4
 40
12.5
 41
1.0
 50
0.0
 71
     0
 42
12.5
  3
txt.shx
  4
extfont.shx
  0
STYLE
  5
B6
330
3
100
AcDbSymbolTableRecord
100
AcDbTextStyleTableRecord
  2
KANJI1
 70
     4
 40
12.5
 41
1.0
 50
0.0
 71
     0
 42
12.5
  3
txt.shx
  4
extfont.shx
  0
STYLE
  5
C2
330
3
100
AcDbSymbolTableRecord
100
AcDbTextStyleTableRecord
  2
KANJI2
 70
     4
 40
8.333333333
 41
1.5
 50
0.0
 71
     0
 42
8.333333333
  3
txt.shx
  4
extfont.shx
  0
STYLE
  5
C4
330
3
100
AcDbSymbolTableRecord
100
AcDbTextStyleTableRecord
  2
KANJI3
 70
     0
 40
15.0
 41
0.9
 50
0.0
 71
     0
 42
15.0
  3
txt.shx
  4
extfont.shx
  0
STYLE
  5
CD
330
3
100
AcDbSymbolTableRecord
100
AcDbTextStyleTableRecord
  2
KANJI4
 70
     0
 40
15.0
 41
1.0
 50
0.0
 71
     0
 42
15.0
  3
txt.shx
  4
extfont.shx
  0
STYLE
  5
D2
330
3
100
AcDbSymbolTableRecord
100
AcDbTextStyleTableRecord
  2
KANJI5
 70
     0
 40
15.0
 41
0.45
 50
0.0
 71
     0
 42
15.0
  3
txt.shx
  4
extfont.shx
  0
STYLE
  5
E0
330
3
100
AcDbSymbolTableRecord
100
AcDbTextStyleTableRecord
  2
KANJI6
 70
     0
 40
20.0
 41
0.4625
 50
0.0
 71
     0
 42
20.0
  3
txt.shx
  4
extfont.shx
  0
STYLE
  5
E2
330
3
100
AcDbSymbolTableRecord
100
AcDbTextStyleTableRecord
  2
KANJI7
 70
     0
 40
20.0
 41
0.925
 50
0.0
 71
     0
 42
20.0
  3
txt.shx
  4
extfont.shx
  0
STYLE
  5
218
330
3
100
AcDbSymbolTableRecord
100
AcDbTextStyleTableRecord
  2
KANJI8
 70
     0
 40
15.0
 41
0.6
 50
0.0
 71
     0
 42
15.0
  3
txt.shx
  4
extfont.shx
  0
STYLE
  5
350
330
3
100
AcDbSymbolTableRecord
100
AcDbTextStyleTableRecord
  2
KANJI9
 70
     0
 40
15.0
 41
0.9
 50
0.0
 71
     0
 42
15.0
  3
txt.shx
  4
extfont.shx
  0
ENDTAB
  0
TABLE
  2
VIEW
  5
6
330
0
100
AcDbSymbolTable
 70
     0
  0
ENDTAB
  0
TABLE
  2
UCS
  5
7
330
0
100
AcDbSymbolTable
 70
     0
  0
ENDTAB
  0
TABLE
  2
APPID
  5
9
330
0
100
AcDbSymbolTable
 70
     1
  0
APPID
  5
12
330
9
100
AcDbSymbolTableRecord
100
AcDbRegAppTableRecord
  2
ACAD
 70
     0
  0
ENDTAB
  0
TABLE
  2
DIMSTYLE
  5
A
330
0
100
AcDbSymbolTable
 70
     1
100
AcDbDimStyleTable
 71
     0
  0
DIMSTYLE
105
27
330
A
100
AcDbSymbolTableRecord
100
AcDbDimStyleTableRecord
  2
ISO-25
 70
    64
  3

  4

 40
1.0
 41
2.5
 42
0.625
 43
3.75
 44
1.25
 45
0.0
 46
0.0
 47
0.0
 48
0.0
 71
     0
 72
     0
 73
     0
 74
     0
 75
     0
 76
     0
 77
     1
 78
     8
 79
     0
140
2.5
141
2.5
142
0.0
143
0.039370079
144
1.0
145
0.0
146
1.0
147
0.625
148
0.0
170
     0
171
     3
172
     1
173
     0
174
     0
175
     0
176
     0
177
     0
178
     0
179
     0
270
     2
271
     2
272
     2
273
     2
274
     3
275
     0
276
     0
277
     2
278
    46
279
     0
280
     0
281
     0
282
     0
283
     1
284
     8
285
     0
286
     0
288
     0
289
     3
340
11
341
0
342
0
343
0
344
0
371
    -2
372
    -2
  0
ENDTAB
  0
TABLE
  2
BLOCK_RECORD
  5
1
330
0
100
AcDbSymbolTable
 70
     3
  0
BLOCK_RECORD
  5
1F
330
1
100
AcDbSymbolTableRecord
100
AcDbBlockTableRecord
  2
*Model_Space
340
22
  0
BLOCK_RECORD
  5
1B
330
1
100
AcDbSymbolTableRecord
100
AcDbBlockTableRecord
  2
*Paper_Space
340
1E
  0
BLOCK_RECORD
  5
23
330
1
100
AcDbSymbolTableRecord
100
AcDbBlockTableRecord
  2
*Paper_Space0
340
26
  0
ENDTAB
  0
ENDSEC
  0
SECTION
  2
BLOCKS
  0
BLOCK
  5
1C
330
1B
100
AcDbEntity
 67
     1
  8
0
100
AcDbBlockBegin
  2
*Paper_Space
 70
     0
 10
0.0
 20
0.0
 30
0.0
  3
*Paper_Space
  1

  0
ENDBLK
  5
1D
330
1B
100
AcDbEntity
  8
0
100
AcDbBlockEnd
  0
BLOCK
  5
20
330
1F
100
AcDbEntity
  8
0
100
AcDbBlockBegin
  2
*Model_Space
 70
     0
 10
0.0
 20
0.0
 30
0.0
  3
*Model_Space
  1

  0
ENDBLK
  5
21
330
1F
100
AcDbEntity
  8
0
100
AcDbBlockEnd
  0
BLOCK
  5
24
330
23
100
AcDbEntity
 67
     1
  8
0
100
AcDbBlockBegin
  2
*Paper_Space0
 70
     0
 10
0.0
 20
0.0
 30
0.0
  3
*Paper_Space0
  1

  0
ENDBLK
  5
25
330
23
100
AcDbEntity
  8
0
100
AcDbBlockEnd
  0
ENDSEC
  0
SECTION
  2
ENTITIES
  0
LINE
  5
AA
330
1F
100
AcDbEntity
  8
0
  6
LTYPE1
 62
     2
100
AcDbLine
 10
1406.8925
 20
1385.900558126
 30
0.0
 11
1406.8925
 21
1385.900558126
 31
0.0
  0
LINE
  5
AB
330
1F
100
AcDbEntity
  8
0
  6
LTYPE1
 62
     2
100
AcDbLine
 10
1406.8925
 20
1385.9
 30
0.0
 11
1406.8925
 21
1385.9
 31
0.0
  0
LINE
  5
AC
330
1F
100
AcDbEntity
  8
0
  6
LTYPE1
 62
     2
100
AcDbLine
 10
1406.8925
 20
1385.9
 30
0.0
 11
1406.8925
 21
1385.9
 31
0.0
  0
LINE
  5
AD
330
1F
100
AcDbEntity
  8
0
  6
LTYPE1
 62
     2
100
AcDbLine
 10
1406.8925
 20
1385.9
 30
0.0
 11
1406.8925
 21
1385.9
 31
0.0
  0
LINE
  5
AE
330
1F
100
AcDbEntity
  8
0
  6
Continuous
 62
     2
100
AcDbLine
 10
1451.666666667
 20
63.333333333
 30
0.0
 11
526.666666667
 21
63.333333333
 31
0.0
  0
MTEXT
  5
AF
330
1F
100
AcDbEntity
  8
0
  6
Continuous
 62
     2
100
AcDbMText
 10
1179.166666667
 20
120.833333333
 30
0.0
 40
12.5
 41
50.0
 71
     1
 72
     3
  1
\W1.000;仕上
  7
KANJI0
 73
     1
 44
1.0
  0
LINE
  5
B1
330
1F
100
AcDbEntity
  8
0
  6
Continuous
 62
     2
100
AcDbLine
 10
1176.666666667
 20
153.333333333
 30
0.0
 11
1451.666666667
 21
153.333333333
 31
0.0
  0
LINE
  5
B2
330
1F
100
AcDbEntity
  8
0
  6
Continuous
 62
     2
100
AcDbLine
 10
1176.666666667
 20
123.333333333
 30
0.0
 11
1451.666666667
 21
123.333333333
 31
0.0
  0
MTEXT
  5
B3
330
1F
100
AcDbEntity
  8
0
  6
Continuous
 62
     2
100
AcDbMText
 10
1179.166666667
 20
150.833333333
 30
0.0
 40
12.5
 41
50.0
 71
     1
 72
     3
  1
\W1.000;規格
  7
KANJI0
 73
     1
 44
1.0
  0
MTEXT
  5
B4
330
1F
100
AcDbEntity
  8
0
  6
Continuous
 62
     2
100
AcDbMText
 10
1179.166666667
 20
180.833333333
 30
0.0
 40
12.5
 41
50.0
 71
     1
 72
     3
  1
\W1.000;材質
  7
KANJI0
 73
     1
 44
1.0
  0
MTEXT
  5
B5
330
1F
100
AcDbEntity
  8
0
  6
Continuous
 62
     2
100
AcDbMText
 10
1179.166666667
 20
210.833333333
 30
0.0
 40
12.5
 41
50.0
 71
     1
 72
     3
  1
\W1.000;品番
  7
KANJI1
 73
     1
 44
1.0
  0
MTEXT
  5
B7
330
1F
100
AcDbEntity
  8
0
  6
Continuous
 62
     2
100
AcDbMText
 10
1179.166666667
 20
240.833333333
 30
0.0
 40
12.5
 41
50.0
 71
     1
 72
     3
  1
\W1.000;図名
  7
KANJI0
 73
     1
 44
1.0
  0
LINE
  5
B8
330
1F
100
AcDbEntity
  8
0
  6
Continuous
 62
     2
100
AcDbLine
 10
1176.666666667
 20
183.333333333
 30
0.0
 11
1451.666666667
 21
183.333333333
 31
0.0
  0
LINE
  5
B9
330
1F
100
AcDbEntity
  8
0
  6
Continuous
 62
     2
100
AcDbLine
 10
1176.666666667
 20
213.333333333
 30
0.0
 11
1451.666666667
 21
213.333333333
 31
0.0
  0
LINE
  5
BA
330
1F
100
AcDbEntity
  8
0
  6
Continuous
 62
     2
100
AcDbLine
 10
1176.666666667
 20
243.333333333
 30
0.0
 11
1451.666666667
 21
243.333333333
 31
0.0
  0
LINE
  5
BB
330
1F
100
AcDbEntity
  8
0
  6
Continuous
 62
     2
100
AcDbLine
 10
1066.666666667
 20
63.333333333
 30
0.0
 11
1066.666666667
 21
33.333333333
 31
0.0
  0
MTEXT
  5
BC
330
1F
100
AcDbEntity
  8
0
  6
Continuous
 62
     2
100
AcDbMText
 10
1069.166666667
 20
60.833333333
 30
0.0
 40
12.5
 41
50.0
 71
     1
 72
     3
  1
\W1.000;日付
  7
KANJI0
 73
     1
 44
1.0
  0
LINE
  5
BD
330
1F
100
AcDbEntity
  8
0
  6
Continuous
 62
     2
100
AcDbLine
 10
1176.666666667
 20
33.333333333
 30
0.0
 11
1176.666666667
 21
243.333333333
 31
0.0
  0
MTEXT
  5
BE
330
1F
100
AcDbEntity
  8
0
  6
Continuous
 62
     2
100
AcDbMText
 10
1069.166666667
 20
90.833333333
 30
0.0
 40
12.5
 41
50.0
 71
     1
 72
     3
  1
\W1.000;尺度
  7
KANJI0
 73
     1
 44
1.0
  0
LINE
  5
BF
330
1F
100
AcDbEntity
  8
0
  6
Continuous
 62
     2
100
AcDbLine
 10
1066.666666667
 20
93.333333333
 30
0.0
 11
1451.666666667
 21
93.333333333
 31
0.0
  0
MTEXT
  5
C0
330
1F
100
AcDbEntity
  8
0
  6
Continuous
 62
     2
100
AcDbMText
 10
1179.166666667
 20
60.833333333
 30
0.0
 40
12.5
 41
50.0
 71
     1
 72
     3
  1
\W1.000;品名
  7
KANJI0
 73
     1
 44
1.0
  0
MTEXT
  5
C1
330
1F
100
AcDbEntity
  8
0
  6
Continuous
 62
     2
100
AcDbMText
 10
1179.166666667
 20
90.833333333
 30
0.0
 40
8.333333333
 41
50.0
 71
     1
 72
     3
  1
\W1.500;その他
  7
KANJI2
 73
     1
 44
1.0
  0
MTEXT
  5
C3
330
1F
100
AcDbEntity
  8
0
  6
Continuous
 62
     2
100
AcDbMText
 10
1206.666666667
 20
159.333333333
 30
0.0
 40
15.0
 41
87.0
 71
     7
 72
     1
  1
\T1.111;\W0.900;－－－
  7
KANJI3
 73
     1
 44
1.0
  0
MTEXT
  5
C5
330
1F
100
AcDbEntity
  8
0
  6
Continuous
 62
     2
100
AcDbMText
 10
1206.666666667
 20
129.333333333
 30
0.0
 40
15.0
 41
87.0
 71
     7
 72
     1
  1
\T1.111;\W0.900;－－－
  7
KANJI3
 73
     1
 44
1.0
  0
MTEXT
  5
C6
330
1F
100
AcDbEntity
  8
0
  6
Continuous
 62
     2
100
AcDbMText
 10
1206.666666667
 20
99.333333333
 30
0.0
 40
15.0
 41
87.0
 71
     7
 72
     1
  1
\T1.111;\W0.900;－－－
  7
KANJI3
 73
     1
 44
1.0
  0
MTEXT
  5
C7
330
1F
100
AcDbEntity
  8
0
  6
Continuous
 62
     2
100
AcDbMText
 10
1206.666666667
 20
69.333333333
 30
0.0
 40
15.0
 41
87.0
 71
     7
 72
     1
  1
\T1.111;\W0.900;－－－
  7
KANJI3
 73
     1
 44
1.0
  0
POINT
  5
C8
330
1F
100
AcDbEntity
  8
0
  6
Continuous
 62
     2
100
AcDbPoint
 10
1451.666666667
 20
243.333333333
 30
0.0
  0
LINE
  5
C9
330
1F
100
AcDbEntity
  8
0
  6
Continuous
 62
     2
100
AcDbLine
 10
1066.666666667
 20
123.333333333
 30
0.0
 11
1176.666666667
 21
123.333333333
 31
0.0
  0
LINE
  5
CA
330
1F
100
AcDbEntity
  8
0
  6
Continuous
 62
     2
100
AcDbLine
 10
1066.666666667
 20
123.333333333
 30
0.0
 11
1066.666666667
 21
63.333333333
 31
0.0
  0
MTEXT
  5
CB
330
1F
100
AcDbEntity
  8
0
  6
Continuous
 62
     2
100
AcDbMText
 10
1069.166666667
 20
120.833333333
 30
0.0
 40
12.5
 41
50.0
 71
     1
 72
     3
  1
\W1.000;用紙
  7
KANJI0
 73
     1
 44
1.0
  0
MTEXT
  5
CC
330
1F
100
AcDbEntity
  8
0
  6
Continuous
 62
     2
100
AcDbMText
 10
531.666666667
 20
40.833333333
 30
0.0
 40
15.0
 41
400.0
 71
     7
 72
     1
  1
\T1.370;\W1.000;オオハシ産業株式会社
  7
KANJI4
 73
     1
 44
1.0
  0
LINE
  5
CE
330
1F
100
AcDbEntity
  8
0
  6
Continuous
 62
     2
100
AcDbLine
 10
741.666666667
 20
63.333333333
 30
0.0
 11
741.666666667
 21
33.333333333
 31
0.0
  0
MTEXT
  5
CF
330
1F
100
AcDbEntity
  8
0
  6
Continuous
 62
     2
100
AcDbMText
 10
744.166666667
 20
60.833333333
 30
0.0
 40
12.5
 41
50.0
 71
     1
 72
     3
  1
\W1.000;作図
  7
KANJI0
 73
     1
 44
1.0
  0
LINE
  5
D0
330
1F
100
AcDbEntity
  8
0
  6
Continuous
 62
     2
100
AcDbLine
 10
841.666666667
 20
33.333333333
 30
0.0
 11
841.666666667
 21
63.333333333
 31
0.0
  0
MTEXT
  5
D1
330
1F
100
AcDbEntity
  8
0
  6
Continuous
 62
     2
100
AcDbMText
 10
846.666666667
 20
40.833333333
 30
0.0
 40
15.0
 41
46.5
 71
     7
 72
     1
  1
\T1.111;\W0.900;ＦＤ＝
  7
KANJI5
 73
     1
 44
1.0
  0
LINE
  5
D3
330
1F
100
AcDbEntity
  8
0
  6
Continuous
 62
     2
100
AcDbLine
 10
941.666666667
 20
33.333333333
 30
0.0
 11
941.666666667
 21
63.333333333
 31
0.0
  0
MTEXT
  5
D4
330
1F
100
AcDbEntity
  8
0
  6
Continuous
 62
     2
100
AcDbMText
 10
946.666666667
 20
40.833333333
 30
0.0
 40
15.0
 41
46.5
 71
     7
 72
     1
  1
\T1.111;\W0.900;ＮＯ＝
  7
KANJI5
 73
     1
 44
1.0
  0
LINE
  5
D5
330
1F
100
AcDbEntity
  8
0
  6
Continuous
 62
     2
100
AcDbLine
 10
526.666666667
 20
33.333333333
 30
0.0
 11
526.666666667
 21
63.333333333
 31
0.0
  0
MTEXT
  5
D6
330
1F
100
AcDbEntity
  8
0
  6
Continuous
 62
     2
100
AcDbMText
 10
601.666666667
 20
75.833333333
 30
0.0
 40
15.0
 41
687.0
 71
     7
 72
     1
  1
\T1.111;\W0.900;特記　　寸法指示無い公差は±０．５以内とする．
  7
KANJI3
 73
     1
 44
1.0
  0
MTEXT
  5
D7
330
1F
100
AcDbEntity
  8
0
  6
Continuous
 62
     2
100
AcDbMText
 10
761.666666667
 20
39.333333333
 30
0.0
 40
15.0
 41
147.0
 71
     7
 72
     1
  1
\T1.111;\W0.900;大橋　一之
  7
KANJI3
 73
     1
 44
1.0
  0
MTEXT
  5
D8
330
1F
100
AcDbEntity
  8
0
  6
Continuous
 62
     2
100
AcDbMText
 10
1086.666666667
 20
39.333333333
 30
0.0
 40
15.0
 41
162.0
 71
     7
 72
     1
  1
\T1.111;\W0.900;２０１５／０２／１７
  7
KANJI5
 73
     1
 44
1.0
  0
MTEXT
  5
D9
330
1F
100
AcDbEntity
  8
0
  6
Continuous
 62
     2
100
AcDbMText
 10
879.666666667
 20
39.333333333
 30
0.0
 40
15.0
 41
87.0
 71
     7
 72
     1
  1
\T1.111;\W0.900;ヒビノ
  7
KANJI3
 73
     1
 44
1.0
  0
MTEXT
  5
DA
330
1F
100
AcDbEntity
  8
0
  6
Continuous
 62
     2
100
AcDbMText
 10
1106.666666667
 20
99.333333333
 30
0.0
 40
15.0
 41
57.0
 71
     7
 72
     1
  1
\T1.111;\W0.900;Ａ４
  7
KANJI3
 73
     1
 44
1.0
  0
LINE
  5
DB
330
1F
100
AcDbEntity
  8
0
  6
Continuous
 62
     2
100
AcDbLine
 10
33.333333333
 20
33.333333333
 30
0.0
 11
33.333333333
 21
1016.666666667
 31
0.0
  0
LINE
  5
DC
330
1F
100
AcDbEntity
  8
0
  6
Continuous
 62
     2
100
AcDbLine
 10
33.333333333
 20
33.333333333
 30
0.0
 11
1451.666666667
 21
33.333333333
 31
0.0
  0
LINE
  5
DD
330
1F
100
AcDbEntity
  8
0
  6
Continuous
 62
     2
100
AcDbLine
 10
1451.666666667
 20
33.333333333
 30
0.0
 11
1451.666666667
 21
1016.666666667
 31
0.0
  0
LINE
  5
DE
330
1F
100
AcDbEntity
  8
0
  6
Continuous
 62
     2
100
AcDbLine
 10
33.333333333
 20
1016.666666667
 30
0.0
 11
1451.666666667
 21
1016.666666667
 31
0.0
  0
MTEXT
  5
DF
330
1F
100
AcDbEntity
  8
0
  6
Continuous
 62
     2
100
AcDbMText
 10
258.754166667
 20
50.408333333
 30
0.0
 40
20.0
 41
104.5
 71
     7
 72
     1
  1
\T1.081;\W0.925;Ｍ８－３０
  7
KANJI6
 73
     1
 44
1.0
  0
MTEXT
  5
E1
330
1F
100
AcDbEntity
  8
0
  6
Continuous
 62
     2
100
AcDbMText
 10
321.254166667
 20
50.408333333
 30
0.0
 40
20.0
 41
58.5
 71
     7
 72
     1
  1
\T1.081;\W0.703;２個
  7
KANJI7
 73
     1
 44
1.0
  0
MTEXT
  5
E3
330
1F
100
AcDbEntity
  8
0
  6
Continuous
 62
     2
100
AcDbMText
 10
46.254166667
 20
75.408333333
 30
0.0
 40
20.0
 41
157.0
 71
     7
 72
     1
  1
\T1.081;\W0.925;添付ネジ
  7
KANJI7
 73
     1
 44
1.0
  0
MTEXT
  5
E4
330
1F
100
AcDbEntity
  8
0
  6
Continuous
 62
     2
100
AcDbMText
 10
46.254166667
 20
50.408333333
 30
0.0
 40
20.0
 41
397.0
 71
     7
 72
     1
  1
\T1.081;\W0.925;六角ボルト３点セムス
  7
KANJI7
 73
     1
 44
1.0
  0
MTEXT
  5
E5
330
1F
100
AcDbEntity
  8
0
  6
Continuous
 62
     2
100
AcDbMText
 10
1206.929166667
 20
252.683333333
 30
0.0
 40
20.0
 41
446.0
 71
     7
 72
     1
  1
\T1.081;\W0.741;ブラケット重量　３．５５ｋｇ
  7
KANJI7
 73
     1
 44
1.0
  0
MTEXT
  5
E6
330
1F
100
AcDbEntity
  8
0
  6
Continuous
 62
     2
100
AcDbMText
 10
1206.666666667
 20
219.333333333
 30
0.0
 40
15.0
 41
199.5
 71
     7
 72
     1
  1
\T1.111;\W0.672;ＡＣＵ２８　全体図
  7
KANJI3
 73
     1
 44
1.0
  0
MTEXT
  5
E7
330
1F
100
AcDbEntity
  8
0
  6
Continuous
 62
     2
100
AcDbMText
 10
1206.666666667
 20
189.333333333
 30
0.0
 40
15.0
 41
79.5
 71
     7
 72
     1
  1
\T1.111;\W0.900;ＡＣＵ２８
  7
KANJI5
 73
     1
 44
1.0
  0
MTEXT
  5
E8
330
1F
100
AcDbEntity
  8
0
  6
Continuous
 62
     2
100
AcDbMText
 10
1106.666666667
 20
69.333333333
 30
0.0
 40
15.0
 41
87.0
 71
     7
 72
     1
  1
\T1.111;\W0.900;１／５
  7
KANJI3
 73
     1
 44
1.0
  0
MTEXT
  5
E9
330
1F
100
AcDbEntity
  8
0
  6
Continuous
 62
     2
100
AcDbMText
 10
1206.666666667
 20
39.333333333
 30
0.0
 40
15.0
 41
355.5
 71
     7
 72
     1
  1
\T1.111;\W0.671;ＡＣＵ２８　ＡＣ２８用ブラケット
  7
KANJI3
 73
     1
 44
1.0
  0
MTEXT
  5
EA
330
1F
100
AcDbEntity
  8
0
  6
Continuous
 62
     2
100
AcDbMText
 10
981.666666667
 20
39.333333333
 30
0.0
 40
15.0
 41
145.5
 71
     7
 72
     1
  1
\T1.111;\W0.900;ＡＣＵ２８－０００
  7
KANJI5
 73
     1
 44
1.0
  0
CIRCLE
  5
EB
330
1F
100
AcDbEntity
  8
4
  6
Continuous
 62
     1
100
AcDbCircle
 10
752.13
 20
313.46
 30
0.0
 40
4.2
  0
ARC
  5
EC
330
1F
100
AcDbEntity
  8
4
  6
Continuous
 62
     1
100
AcDbCircle
 10
1116.93
 20
350.26
 30
0.0
 40
5.2
100
AcDbArc
 50
0.0
 51
90.0
  0
LINE
  5
ED
330
1F
100
AcDbEntity
  8
4
  6
Continuous
 62
     1
100
AcDbLine
 10
1116.93
 20
355.46
 30
0.0
 11
1116.93
 21
352.86
 31
0.0
  0
LWPOLYLINE
  5
EF
330
1F
100
AcDbEntity
  8
4
  6
Continuous
 62
     1
100
AcDbPolyline
 90
     3
 70
   128
 43
0.0
 10
1116.93
 20
352.86
 42
0.414215281
 10
1119.530015259
 20
350.26
 42
0.0
 10
1122.13
 20
350.26
 42
0.0
  0
ARC
  5
F0
330
1F
100
AcDbEntity
  8
4
  6
Continuous
 62
     1
100
AcDbCircle
 10
1116.93
 20
350.26
 30
0.0
 40
2.6
100
AcDbArc
 50
0.0
 51
90.0
  0
ARC
  5
F1
330
1F
100
AcDbEntity
  8
4
  6
Continuous
 62
     1
100
AcDbCircle
 10
1116.93
 20
276.66
 30
0.0
 40
5.2
100
AcDbArc
 50
270.0
 51
360.0
  0
LINE
  5
F2
330
1F
100
AcDbEntity
  8
4
  6
Continuous
 62
     1
100
AcDbLine
 10
1116.93
 20
271.46
 30
0.0
 11
1116.93
 21
274.06
 31
0.0
  0
LWPOLYLINE
  5
F4
330
1F
100
AcDbEntity
  8
4
  6
Continuous
 62
     1
100
AcDbPolyline
 90
     3
 70
   128
 43
0.0
 10
1116.93
 20
274.06
 42
-0.414215281
 10
1119.530015259
 20
276.66
 42
0.0
 10
1122.13
 20
276.66
 42
0.0
  0
ARC
  5
F5
330
1F
100
AcDbEntity
  8
4
  6
Continuous
 62
     1
100
AcDbCircle
 10
1116.93
 20
276.66
 30
0.0
 40
2.6
100
AcDbArc
 50
270.0
 51
0.0
  0
LINE
  5
F7
330
1F
100
AcDbEntity
  8
4
  6
LTYPE2
 62
     2
100
AcDbLine
 10
1119.53
 20
350.26
 30
0.0
 11
1119.53
 21
276.66
 31
0.0
  0
LINE
  5
F8
330
1F
100
AcDbEntity
  8
4
  6
Continuous
 62
     1
100
AcDbLine
 10
1122.13
 20
350.26
 30
0.0
 11
1122.13
 21
276.66
 31
0.0
  0
ARC
  5
F9
330
1F
100
AcDbEntity
  8
4
  6
Continuous
 62
     1
100
AcDbCircle
 10
387.33
 20
350.26
 30
0.0
 40
5.2
100
AcDbArc
 50
90.0
 51
180.0
  0
LINE
  5
FA
330
1F
100
AcDbEntity
  8
4
  6
Continuous
 62
     1
100
AcDbLine
 10
387.33
 20
355.46
 30
0.0
 11
387.33
 21
352.86
 31
0.0
  0
LWPOLYLINE
  5
FC
330
1F
100
AcDbEntity
  8
4
  6
Continuous
 62
     1
100
AcDbPolyline
 90
     3
 70
   128
 43
0.0
 10
387.33
 20
352.86
 42
-0.414215281
 10
384.729984741
 20
350.26
 42
0.0
 10
382.13
 20
350.26
 42
0.0
  0
ARC
  5
FD
330
1F
100
AcDbEntity
  8
4
  6
Continuous
 62
     1
100
AcDbCircle
 10
387.33
 20
350.26
 30
0.0
 40
2.6
100
AcDbArc
 50
90.0
 51
180.0
  0
ARC
  5
FE
330
1F
100
AcDbEntity
  8
4
  6
Continuous
 62
     1
100
AcDbCircle
 10
387.33
 20
276.66
 30
0.0
 40
5.2
100
AcDbArc
 50
180.0
 51
270.0
  0
LINE
  5
FF
330
1F
100
AcDbEntity
  8
4
  6
Continuous
 62
     1
100
AcDbLine
 10
387.33
 20
271.46
 30
0.0
 11
387.33
 21
274.06
 31
0.0
  0
LWPOLYLINE
  5
101
330
1F
100
AcDbEntity
  8
4
  6
Continuous
 62
     1
100
AcDbPolyline
 90
     3
 70
   128
 43
0.0
 10
387.33
 20
274.06
 42
0.414215281
 10
384.729984741
 20
276.66
 42
0.0
 10
382.13
 20
276.66
 42
0.0
  0
ARC
  5
102
330
1F
100
AcDbEntity
  8
4
  6
Continuous
 62
     1
100
AcDbCircle
 10
387.33
 20
276.66
 30
0.0
 40
2.6
100
AcDbArc
 50
180.0
 51
270.0
  0
LINE
  5
103
330
1F
100
AcDbEntity
  8
4
  6
LTYPE2
 62
     2
100
AcDbLine
 10
384.73
 20
350.26
 30
0.0
 11
384.73
 21
276.66
 31
0.0
  0
LINE
  5
104
330
1F
100
AcDbEntity
  8
4
  6
Continuous
 62
     1
100
AcDbLine
 10
382.13
 20
350.26
 30
0.0
 11
382.13
 21
276.66
 31
0.0
  0
LINE
  5
105
330
1F
100
AcDbEntity
  8
4
  6
Continuous
 62
     1
100
AcDbLine
 10
1116.93
 20
271.46
 30
0.0
 11
387.33
 21
271.46
 31
0.0
  0
LINE
  5
106
330
1F
100
AcDbEntity
  8
4
  6
LTYPE2
 62
     2
100
AcDbLine
 10
1116.93
 20
274.06
 30
0.0
 11
387.33
 21
274.06
 31
0.0
  0
LINE
  5
107
330
1F
100
AcDbEntity
  8
4
  6
LTYPE2
 62
     2
100
AcDbLine
 10
1116.93
 20
352.86
 30
0.0
 11
387.33
 21
352.86
 31
0.0
  0
LINE
  5
108
330
1F
100
AcDbEntity
  8
4
  6
Continuous
 62
     1
100
AcDbLine
 10
1116.93
 20
355.46
 30
0.0
 11
387.33
 21
355.46
 31
0.0
  0
CIRCLE
  5
109
330
1F
100
AcDbEntity
  8
4
  6
Continuous
 62
     1
100
AcDbCircle
 10
1092.13
 20
313.46
 30
0.0
 40
4.2
  0
CIRCLE
  5
10A
330
1F
100
AcDbEntity
  8
4
  6
Continuous
 62
     1
100
AcDbCircle
 10
902.13
 20
313.46
 30
0.0
 40
4.2
  0
CIRCLE
  5
10B
330
1F
100
AcDbEntity
  8
4
  6
Continuous
 62
     1
100
AcDbCircle
 10
1022.13
 20
313.46
 30
0.0
 40
4.2
  0
CIRCLE
  5
10C
330
1F
100
AcDbEntity
  8
4
  6
Continuous
 62
     1
100
AcDbCircle
 10
972.13
 20
313.46
 30
0.0
 40
4.2
  0
CIRCLE
  5
10D
330
1F
100
AcDbEntity
  8
4
  6
Continuous
 62
     1
100
AcDbCircle
 10
822.13
 20
313.46
 30
0.0
 40
4.2
  0
CIRCLE
  5
10E
330
1F
100
AcDbEntity
  8
4
  6
Continuous
 62
     1
100
AcDbCircle
 10
412.13
 20
313.46
 30
0.0
 40
4.2
  0
CIRCLE
  5
10F
330
1F
100
AcDbEntity
  8
4
  6
Continuous
 62
     1
100
AcDbCircle
 10
602.13
 20
313.46
 30
0.0
 40
4.2
  0
CIRCLE
  5
110
330
1F
100
AcDbEntity
  8
4
  6
Continuous
 62
     1
100
AcDbCircle
 10
482.13
 20
313.46
 30
0.0
 40
4.2
  0
CIRCLE
  5
111
330
1F
100
AcDbEntity
  8
4
  6
Continuous
 62
     1
100
AcDbCircle
 10
532.13
 20
313.46
 30
0.0
 40
4.2
  0
CIRCLE
  5
112
330
1F
100
AcDbEntity
  8
4
  6
Continuous
 62
     1
100
AcDbCircle
 10
682.13
 20
313.46
 30
0.0
 40
4.2
  0
ARC
  5
113
330
1F
100
AcDbEntity
  8
5
  6
Continuous
 62
     1
100
AcDbCircle
 10
1114.13
 20
722.11
 30
0.0
 40
3.0
100
AcDbArc
 50
0.0
 51
90.0
  0
LWPOLYLINE
  5
115
330
1F
100
AcDbEntity
  8
5
  6
LTYPE2
 62
     2
100
AcDbPolyline
 90
     6
 70
   129
 43
0.0
 10
1107.13
 20
642.604446501
 10
1113.63
 20
646.35722325
 10
1113.63
 20
653.86277675
 10
1107.13
 20
657.615553499
 10
1100.63
 20
653.86277675
 10
1100.63
 20
646.35722325
  0
CIRCLE
  5
116
330
1F
100
AcDbEntity
  8
4
  6
Continuous
 62
     1
100
AcDbCircle
 10
1107.13
 20
655.11
 30
0.0
 40
3.6
  0
LWPOLYLINE
  5
119
330
1F
100
AcDbEntity
  8
4
  6
Continuous
 62
     1
100
AcDbPolyline
 90
     3
 70
   128
 43
0.0
 10
1122.13
 20
720.11
 42
0.0
 10
1102.13
 20
720.11
 42
0.414213562
 10
1097.13
 20
715.11
 42
0.0
  0
LWPOLYLINE
  5
11C
330
1F
100
AcDbEntity
  8
4
  6
Continuous
 62
     1
100
AcDbPolyline
 90
     3
 70
   128
 43
0.0
 10
382.13
 20
660.11
 42
0.0
 10
402.13
 20
660.11
 42
-0.414213562
 10
407.13
 20
655.11
 42
0.0
  0
LINE
  5
11D
330
1F
100
AcDbEntity
  8
5
  6
Continuous
 62
     1
100
AcDbLine
 10
412.13
 20
580.11
 30
0.0
 11
412.13
 21
760.61
 31
0.0
  0
ARC
  5
11E
330
1F
100
AcDbEntity
  8
5
  6
Continuous
 62
     1
100
AcDbCircle
 10
390.13
 20
722.11
 30
0.0
 40
3.0
100
AcDbArc
 50
90.0
 51
180.0
  0
LWPOLYLINE
  5
120
330
1F
100
AcDbEntity
  8
5
  6
LTYPE2
 62
     2
100
AcDbPolyline
 90
     6
 70
   129
 43
0.0
 10
397.13
 20
702.604446501
 10
390.63
 20
706.35722325
 10
390.63
 20
713.86277675
 10
397.13
 20
717.615553499
 10
403.63
 20
713.86277675
 10
403.63
 20
706.35722325
  0
LINE
  5
121
330
1F
100
AcDbEntity
  8
5
  6
Continuous
 62
     1
100
AcDbLine
 10
409.53
 20
760.61
 30
0.0
 11
412.13
 21
760.61
 31
0.0
  0
LINE
  5
122
330
1F
100
AcDbEntity
  8
2
  6
LTYPE1
 62
     2
100
AcDbLine
 10
628.731513414
 20
569.394799709
 30
0.0
 11
628.731513414
 21
601.904510602
 31
0.0
  0
LINE
  5
123
330
1F
100
AcDbEntity
  8
2
  6
LTYPE1
 62
     2
100
AcDbLine
 10
649.481402208
 20
540.696871495
 30
0.0
 11
635.630525039
 21
540.696871495
 31
0.0
  0
LINE
  5
124
330
1F
100
AcDbEntity
  8
2
  6
LTYPE1
 62
     2
100
AcDbLine
 10
652.333763737
 20
568.202611297
 30
0.0
 11
618.926936315
 21
568.202611297
 31
0.0
  0
LINE
  5
125
330
1F
100
AcDbEntity
  8
2
  6
LTYPE1
 62
     2
100
AcDbLine
 10
647.689269305
 20
551.198350275
 30
0.0
 11
635.630525039
 21
551.198350275
 31
0.0
  0
LWPOLYLINE
  5
127
330
1F
100
AcDbEntity
  8
2
  6
LTYPE1
 62
     2
100
AcDbPolyline
 90
     3
 70
   128
 43
0.0
 10
629.732937679
 20
541.173606849
 10
623.570030643
 20
551.198350275
 10
635.630525039
 20
551.198350275
  0
LINE
  5
128
330
1F
100
AcDbEntity
  8
2
  6
LTYPE1
 62
     2
100
AcDbLine
 10
653.733167516
 20
553.700335821
 30
0.0
 11
650.449223981
 21
541.438226473
 31
0.0
  0
LWPOLYLINE
  5
12A
330
1F
100
AcDbEntity
  8
2
  6
LTYPE1
 62
     2
100
AcDbPolyline
 90
    36
 70
   128
 43
0.0
 10
620.812526149
 20
541.438226473
 10
620.823144144
 20
541.401111737
 10
620.835115203
 20
541.364669149
 10
620.848407144
 20
541.328922808
 10
620.862987785
 20
541.293896814
 10
620.878824943
 20
541.259615268
 10
620.895886437
 20
541.226102268
 10
620.914140084
 20
541.193381915
 10
620.933553703
 20
541.161478309
 10
620.954095112
 20
541.130415548
 10
620.975732129
 20
541.100217733
 10
620.998432572
 20
541.070908964
 10
621.022164258
 20
541.042513339
 10
621.046895007
 20
541.01505496
 10
621.072592635
 20
540.988557926
 10
621.099224961
 20
540.963046336
 10
621.126759803
 20
540.93854429
 10
621.155164979
 20
540.915075889
 10
621.184408307
 20
540.892665231
 10
621.214457604
 20
540.871336416
 10
621.24528069
 20
540.851113545
 10
621.276845382
 20
540.832020717
 10
621.309119498
 20
540.814082032
 10
621.342070856
 20
540.797321589
 10
621.375667274
 20
540.781763488
 10
621.40987657
 20
540.767431829
 10
621.444666562
 20
540.754350712
 10
621.480005069
 20
540.742544237
 10
621.515859907
 20
540.732036502
 10
621.552198896
 20
540.722851609
 10
621.588989853
 20
540.715013656
 10
621.626200596
 20
540.708546744
 10
621.663798944
 20
540.703474972
 10
621.701752713
 20
540.69982244
 10
621.740029723
 20
540.697613248
 10
621.778597792
 20
540.696871495
  0
LINE
  5
12B
330
1F
100
AcDbEntity
  8
2
  6
LTYPE1
 62
     2
100
AcDbLine
 10
621.767396961
 20
540.696871495
 30
0.0
 11
635.630525039
 21
540.696871495
 31
0.0
  0
LINE
  5
12C
330
1F
100
AcDbEntity
  8
2
  6
LTYPE1
 62
     2
100
AcDbLine
 10
617.526482458
 20
553.700335821
 30
0.0
 11
620.812526149
 21
541.435426265
 31
0.0
  0
LINE
  5
12D
330
1F
100
AcDbEntity
  8
2
  6
LTYPE1
 62
     2
100
AcDbLine
 10
642.528836612
 20
569.394799709
 30
0.0
 11
642.528836612
 21
601.904510602
 31
0.0
  0
LWPOLYLINE
  5
12F
330
1F
100
AcDbEntity
  8
2
  6
LTYPE1
 62
     2
100
AcDbPolyline
 90
   172
 70
   128
 43
0.0
 10
652.333763737
 20
568.202611297
 10
652.333763737
 20
568.19660406
 10
652.333763737
 20
568.179048929
 10
652.333763737
 20
568.150645778
 10
652.333763737
 20
568.112094478
 10
652.333763737
 20
568.064094903
 10
652.333763737
 20
568.007346923
 10
652.333763737
 20
567.942550411
 10
652.333763737
 20
567.870405241
 10
652.333763737
 20
567.791611283
 10
652.333763737
 20
567.706868411
 10
652.333763737
 20
567.616876496
 10
652.333763737
 20
567.522335412
 10
652.333763737
 20
567.42394503
 10
652.333763737
 20
567.322405222
 10
652.333763737
 20
567.218415861
 10
652.333763737
 20
567.11267682
 10
652.333763737
 20
567.00588797
 10
652.333763737
 20
566.898749184
 10
652.333763737
 20
566.791960334
 10
652.333763737
 20
566.686221292
 10
652.333763737
 20
566.582231931
 10
652.333763737
 20
566.480692124
 10
652.333763737
 20
566.382301741
 10
652.333763737
 20
566.287760657
 10
652.333763737
 20
566.197768742
 10
652.333763737
 20
566.11302587
 10
652.333763737
 20
566.034231912
 10
652.333763737
 20
565.962086742
 10
652.333763737
 20
565.89729023
 10
652.333763737
 20
565.840542251
 10
652.333763737
 20
565.792542675
 10
652.333763737
 20
565.753991375
 10
652.333763737
 20
565.725588224
 10
652.333763737
 20
565.708033093
 10
652.333763737
 20
565.702025856
 10
652.253509435
 20
565.702025856
 10
652.018979871
 20
565.702025856
 10
651.639525061
 20
565.702025856
 10
651.124495022
 20
565.702025856
 10
650.483239769
 20
565.702025856
 10
649.725109318
 20
565.702025856
 10
648.859453685
 20
565.702025856
 10
647.895622886
 20
565.702025856
 10
646.842966936
 20
565.702025856
 10
645.710835852
 20
565.702025856
 10
644.508579648
 20
565.702025856
 10
643.245548342
 20
565.702025856
 10
641.931091949
 20
565.702025856
 10
640.574560484
 20
565.702025856
 10
639.185303964
 20
565.702025856
 10
637.772672405
 20
565.702025856
 10
636.346015822
 20
565.702025856
 10
634.91468423
 20
565.702025856
 10
633.488027647
 20
565.702025856
 10
632.075396087
 20
565.702025856
 10
630.686139567
 20
565.702025856
 10
629.329608103
 20
565.702025856
 10
628.01515171
 20
565.702025856
 10
626.752120403
 20
565.702025856
 10
625.5498642
 20
565.702025856
 10
624.417733116
 20
565.702025856
 10
623.365077166
 20
565.702025856
 10
622.401246367
 20
565.702025856
 10
621.535590734
 20
565.702025856
 10
620.777460283
 20
565.702025856
 10
620.13620503
 20
565.702025856
 10
619.621174991
 20
565.702025856
 10
619.241720181
 20
565.702025856
 10
619.007190617
 20
565.702025856
 10
618.926936315
 20
565.702025856
 10
618.926936315
 20
565.708033093
 10
618.926936315
 20
565.725588224
 10
618.926936315
 20
565.753991375
 10
618.926936315
 20
565.792542675
 10
618.926936315
 20
565.840542251
 10
618.926936315
 20
565.89729023
 10
618.926936315
 20
565.962086742
 10
618.926936315
 20
566.034231912
 10
618.926936315
 20
566.11302587
 10
618.926936315
 20
566.197768742
 10
618.926936315
 20
566.287760657
 10
618.926936315
 20
566.382301741
 10
618.926936315
 20
566.480692124
 10
618.926936315
 20
566.582231931
 10
618.926936315
 20
566.686221292
 10
618.926936315
 20
566.791960334
 10
618.926936315
 20
566.898749184
 10
618.926936315
 20
567.00588797
 10
618.926936315
 20
567.11267682
 10
618.926936315
 20
567.218415861
 10
618.926936315
 20
567.322405222
 10
618.926936315
 20
567.42394503
 10
618.926936315
 20
567.522335412
 10
618.926936315
 20
567.616876496
 10
618.926936315
 20
567.706868411
 10
618.926936315
 20
567.791611283
 10
618.926936315
 20
567.870405241
 10
618.926936315
 20
567.942550411
 10
618.926936315
 20
568.007346923
 10
618.926936315
 20
568.064094903
 10
618.926936315
 20
568.112094478
 10
618.926936315
 20
568.150645778
 10
618.926936315
 20
568.179048929
 10
618.926936315
 20
568.19660406
 10
618.926936315
 20
568.202611297
 10
618.879827115
 20
568.203700505
 10
618.833278577
 20
568.206936059
 10
618.787338754
 20
568.212269858
 10
618.742055698
 20
568.219653802
 10
618.697477462
 20
568.229039788
 10
618.653652097
 20
568.240379714
 10
618.610627658
 20
568.25362548
 10
618.568452195
 20
568.268728984
 10
618.527173763
 20
568.285642124
 10
618.486840412
 20
568.304316799
 10
618.447500197
 20
568.324704907
 10
618.409201169
 20
568.346758346
 10
618.371991381
 20
568.370429016
 10
618.335918885
 20
568.395668814
 10
618.301031735
 20
568.42242964
 10
618.267377982
 20
568.450663391
 10
618.235005679
 20
568.480321966
 10
618.203962879
 20
568.511357263
 10
618.174297634
 20
568.543721181
 10
618.146057997
 20
568.577365619
 10
618.119292021
 20
568.612242475
 10
618.094047757
 20
568.648303647
 10
618.070373258
 20
568.685501034
 10
618.048316577
 20
568.723786535
 10
618.027925767
 20
568.763112047
 10
618.00924888
 20
568.80342947
 10
617.992333969
 20
568.844690701
 10
617.977229085
 20
568.88684764
 10
617.963982283
 20
568.929852184
 10
617.952641613
 20
568.973656232
 10
617.943255129
 20
569.018211684
 10
617.935870883
 20
569.063470436
 10
617.930536929
 20
569.109384388
 10
617.927301317
 20
569.155905438
 10
617.926212102
 20
569.202985484
 10
617.926212102
 20
569.283240628
 10
617.926212102
 20
569.517772649
 10
617.926212102
 20
569.897231434
 10
617.926212102
 20
570.41226687
 10
617.926212102
 20
571.053528841
 10
617.926212102
 20
571.811667236
 10
617.926212102
 20
572.677331939
 10
617.926212102
 20
573.641172837
 10
617.926212102
 20
574.693839816
 10
617.926212102
 20
575.825982763
 10
617.926212102
 20
577.028251563
 10
617.926212102
 20
578.291296102
 10
617.926212102
 20
579.605766268
 10
617.926212102
 20
580.962311946
 10
617.926212102
 20
582.351583022
 10
617.926212102
 20
583.764229383
 10
617.926212102
 20
585.190900914
 10
617.926212102
 20
586.622247502
 10
617.926212102
 20
588.048919034
 10
617.926212102
 20
589.461565395
 10
617.926212102
 20
590.850836471
 10
617.926212102
 20
592.207382149
 10
617.926212102
 20
593.521852314
 10
617.926212102
 20
594.784896854
 10
617.926212102
 20
595.987165654
 10
617.926212102
 20
597.119308601
 10
617.926212102
 20
598.17197558
 10
617.926212102
 20
599.135816478
 10
617.926212102
 20
600.001481181
 10
617.926212102
 20
600.759619575
 10
617.926212102
 20
601.400881547
  0
LWPOLYLINE
  5
131
330
1F
100
AcDbEntity
  8
2
  6
LTYPE1
 62
     2
100
AcDbPolyline
 90
    85
 70
   128
 43
0.0
 10
653.237359947
 20
602.905260017
 10
653.249970099
 20
602.887240754
 10
653.26179549
 20
602.868654461
 10
653.272812217
 20
602.849525239
 10
653.282996376
 20
602.829877186
 10
653.292324064
 20
602.809734402
 10
653.300771376
 20
602.789120988
 10
653.308314409
 20
602.768061042
 10
653.314929259
 20
602.746578665
 10
653.320592022
 20
602.724697957
 10
653.325278794
 20
602.702443017
 10
653.328965671
 20
602.679837944
 10
653.33162875
 20
602.65690684
 10
653.333244127
 20
602.633673803
 10
653.333787898
 20
602.610162933
 10
653.333787898
 20
602.529907789
 10
653.333787898
 20
602.295375768
 10
653.333787898
 20
601.915916982
 10
653.333787898
 20
601.400881547
 10
653.333787898
 20
600.759619575
 10
653.333787898
 20
600.001481181
 10
653.333787898
 20
599.135816478
 10
653.333787898
 20
598.17197558
 10
653.333787898
 20
597.119308601
 10
653.333787898
 20
595.987165654
 10
653.333787898
 20
594.784896854
 10
653.333787898
 20
593.521852314
 10
653.333787898
 20
592.207382149
 10
653.333787898
 20
590.850836471
 10
653.333787898
 20
589.461565395
 10
653.333787898
 20
588.048919034
 10
653.333787898
 20
586.622247502
 10
653.333787898
 20
585.190900914
 10
653.333787898
 20
583.764229383
 10
653.333787898
 20
582.351583022
 10
653.333787898
 20
580.962311946
 10
653.333787898
 20
579.605766268
 10
653.333787898
 20
578.291296102
 10
653.333787898
 20
577.028251563
 10
653.333787898
 20
575.825982763
 10
653.333787898
 20
574.693839816
 10
653.333787898
 20
573.641172837
 10
653.333787898
 20
572.677331939
 10
653.333787898
 20
571.811667236
 10
653.333787898
 20
571.053528841
 10
653.333787898
 20
570.41226687
 10
653.333787898
 20
569.897231434
 10
653.333787898
 20
569.517772649
 10
653.333787898
 20
569.283240628
 10
653.333787898
 20
569.202985484
 10
653.332698699
 20
569.155905438
 10
653.329463202
 20
569.109384388
 10
653.324129557
 20
569.063470436
 10
653.316745916
 20
569.018211684
 10
653.307360428
 20
568.973656232
 10
653.296021244
 20
568.929852184
 10
653.282776515
 20
568.88684764
 10
653.267674391
 20
568.844690701
 10
653.250763023
 20
568.80342947
 10
653.23209056
 20
568.763112047
 10
653.211705155
 20
568.723786535
 10
653.189654956
 20
568.685501034
 10
653.165988115
 20
568.648303647
 10
653.140752783
 20
568.612242475
 10
653.113997109
 20
568.577365619
 10
653.085769244
 20
568.543721181
 10
653.056117339
 20
568.511357263
 10
653.025089544
 20
568.480321966
 10
652.99273401
 20
568.450663391
 10
652.959098887
 20
568.42242964
 10
652.924232326
 20
568.395668814
 10
652.888182477
 20
568.370429016
 10
652.850997491
 20
568.346758346
 10
652.812725518
 20
568.324704907
 10
652.773414709
 20
568.304316799
 10
652.733113214
 20
568.285642124
 10
652.691869184
 20
568.268728984
 10
652.649730769
 20
568.25362548
 10
652.60674612
 20
568.240379714
 10
652.562963387
 20
568.229039788
 10
652.518430722
 20
568.219653802
 10
652.473196273
 20
568.212269858
 10
652.427308193
 20
568.206936059
 10
652.38081463
 20
568.203700505
 10
652.333763737
 20
568.202611297
  0
LINE
  5
132
330
1F
100
AcDbEntity
  8
2
  6
LTYPE1
 62
     2
100
AcDbLine
 10
653.733167516
 20
564.702351721
 30
0.0
 11
653.733167516
 21
553.700335821
 31
0.0
  0
LWPOLYLINE
  5
134
330
1F
100
AcDbEntity
  8
2
  6
LTYPE1
 62
     2
100
AcDbPolyline
 90
   146
 70
   128
 43
0.0
 10
653.730821423
 20
564.092910607
 10
653.731634406
 20
564.304097991
 10
653.732287361
 20
564.473715076
 10
653.732768433
 20
564.59868258
 10
653.733065769
 20
564.675921222
 10
653.733167516
 20
564.702351721
 10
653.732079982
 20
564.749430086
 10
653.728849285
 20
564.795946221
 10
653.723523282
 20
564.841852221
 10
653.716149829
 20
564.887100181
 10
653.706776783
 20
564.931642194
 10
653.695452
 20
564.975430356
 10
653.682223338
 20
565.01841676
 10
653.667138652
 20
565.060553501
 10
653.650245799
 20
565.101792674
 10
653.631592636
 20
565.142086372
 10
653.61122702
 20
565.181386691
 10
653.589196806
 20
565.219645724
 10
653.565549853
 20
565.256815566
 10
653.540334015
 20
565.292848312
 10
653.513597151
 20
565.327696055
 10
653.485387116
 20
565.361310891
 10
653.455751767
 20
565.393644913
 10
653.424738961
 20
565.424650217
 10
653.392396555
 20
565.454278895
 10
653.358772404
 20
565.482483044
 10
653.323914366
 20
565.509214757
 10
653.287870297
 20
565.534426129
 10
653.250688054
 20
565.558069254
 10
653.212415493
 20
565.580096226
 10
653.173100471
 20
565.60045914
 10
653.132790845
 20
565.619110091
 10
653.091534472
 20
565.636001172
 10
653.049379207
 20
565.651084478
 10
653.006372907
 20
565.664312104
 10
652.96256343
 20
565.675636144
 10
652.917998631
 20
565.685008692
 10
652.872726367
 20
565.692381843
 10
652.826794496
 20
565.697707691
 10
652.780250873
 20
565.70093833
 10
652.733143355
 20
565.702025856
 10
652.650969326
 20
565.702025856
 10
652.410829689
 20
565.702025856
 10
652.022298117
 20
565.702025856
 10
651.494948282
 20
565.702025856
 10
650.838353859
 20
565.702025856
 10
650.062088521
 20
565.702025856
 10
649.17572594
 20
565.702025856
 10
648.18883979
 20
565.702025856
 10
647.111003744
 20
565.702025856
 10
645.951791476
 20
565.702025856
 10
644.720776658
 20
565.702025856
 10
643.427532965
 20
565.702025856
 10
642.081634068
 20
565.702025856
 10
640.692653642
 20
565.702025856
 10
639.27016536
 20
565.702025856
 10
637.823742894
 20
565.702025856
 10
636.362959919
 20
565.702025856
 10
634.897390107
 20
565.702025856
 10
633.436607132
 20
565.702025856
 10
631.990184666
 20
565.702025856
 10
630.567696384
 20
565.702025856
 10
629.178715958
 20
565.702025856
 10
627.832817061
 20
565.702025856
 10
626.539573368
 20
565.702025856
 10
625.30855855
 20
565.702025856
 10
624.149346282
 20
565.702025856
 10
623.071510236
 20
565.702025856
 10
622.084624086
 20
565.702025856
 10
621.198261505
 20
565.702025856
 10
620.421996167
 20
565.702025856
 10
619.765401744
 20
565.702025856
 10
619.238051909
 20
565.702025856
 10
618.849520337
 20
565.702025856
 10
618.6093807
 20
565.702025856
 10
618.527206671
 20
565.702025856
 10
618.480154096
 20
565.70093833
 10
618.433655619
 20
565.697707691
 10
618.387759587
 20
565.692381843
 10
618.342514346
 20
565.685008692
 10
618.297968242
 20
565.675636144
 10
618.254169623
 20
565.664312104
 10
618.211166834
 20
565.651084478
 10
618.169008222
 20
565.636001172
 10
618.127742133
 20
565.619110091
 10
618.087416914
 20
565.60045914
 10
618.048080911
 20
565.580096226
 10
618.009782471
 20
565.558069254
 10
617.97256994
 20
565.534426129
 10
617.936491664
 20
565.509214757
 10
617.901595991
 20
565.482483044
 10
617.867931266
 20
565.454278895
 10
617.835545835
 20
565.424650217
 10
617.804488046
 20
565.393644913
 10
617.774806245
 20
565.361310891
 10
617.746548778
 20
565.327696055
 10
617.719763992
 20
565.292848312
 10
617.694500233
 20
565.256815566
 10
617.670805847
 20
565.219645724
 10
617.648729181
 20
565.181386691
 10
617.628318582
 20
565.142086372
 10
617.609622395
 20
565.101792674
 10
617.592688968
 20
565.060553501
 10
617.577566647
 20
565.01841676
 10
617.564303777
 20
564.975430356
 10
617.552948707
 20
564.931642194
 10
617.543549781
 20
564.887100181
 10
617.536155347
 20
564.841852221
 10
617.530813751
 20
564.795946221
 10
617.527573339
 20
564.749430086
 10
617.526482458
 20
564.702351721
 10
617.526482458
 20
564.675921222
 10
617.526482458
 20
564.59868258
 10
617.526482458
 20
564.473715076
 10
617.526482458
 20
564.304097991
 10
617.526482458
 20
564.092910607
 10
617.526482458
 20
563.843232205
 10
617.526482458
 20
563.558142067
 10
617.526482458
 20
563.240719474
 10
617.526482458
 20
562.894043708
 10
617.526482458
 20
562.52119405
 10
617.526482458
 20
562.125249781
 10
617.526482458
 20
561.709290182
 10
617.526482458
 20
561.276394536
 10
617.526482458
 20
560.829642124
 10
617.526482458
 20
560.372112227
 10
617.526482458
 20
559.906884126
 10
617.526482458
 20
559.437037103
 10
617.526482458
 20
558.965650439
 10
617.526482458
 20
558.495803416
 10
617.526482458
 20
558.030575315
 10
617.526482458
 20
557.573045418
 10
617.526482458
 20
557.126293005
 10
617.526482458
 20
556.693397359
 10
617.526482458
 20
556.277437761
 10
617.526482458
 20
555.881493492
 10
617.526482458
 20
555.508643833
 10
617.526482458
 20
555.161968067
 10
617.526482458
 20
554.844545474
 10
617.526482458
 20
554.559455336
 10
617.526482458
 20
554.309776935
 10
617.526482458
 20
554.098589551
 10
617.526482458
 20
553.928972466
 10
617.526482458
 20
553.804004962
 10
617.526482458
 20
553.726766319
 10
617.526482458
 20
553.700335821
  0
LINE
  5
135
330
1F
100
AcDbEntity
  8
2
  6
LTYPE1
 62
     2
100
AcDbLine
 10
641.527412347
 20
541.173606849
 30
0.0
 11
647.689269305
 21
551.198350275
 31
0.0
  0
LWPOLYLINE
  5
137
330
1F
100
AcDbEntity
  8
2
  6
LTYPE1
 62
     2
100
AcDbPolyline
 90
    36
 70
   128
 43
0.0
 10
649.481402208
 20
540.696871495
 10
649.520111879
 20
540.697613248
 10
649.558514327
 20
540.69982244
 10
649.59657835
 20
540.703474972
 10
649.634272745
 20
540.708546744
 10
649.671566311
 20
540.715013656
 10
649.708427844
 20
540.722851609
 10
649.744826144
 20
540.732036502
 10
649.780730006
 20
540.742544237
 10
649.81610823
 20
540.754350712
 10
649.850929612
 20
540.767431829
 10
649.885162951
 20
540.781763488
 10
649.918777044
 20
540.797321589
 10
649.951740688
 20
540.814082032
 10
649.984022682
 20
540.832020717
 10
650.015591823
 20
540.851113545
 10
650.046416909
 20
540.871336416
 10
650.076466738
 20
540.892665231
 10
650.105710107
 20
540.915075889
 10
650.134115813
 20
540.93854429
 10
650.161652655
 20
540.963046336
 10
650.188289431
 20
540.988557926
 10
650.213994937
 20
541.01505496
 10
650.238737972
 20
541.042513339
 10
650.262487333
 20
541.070908964
 10
650.285211818
 20
541.100217733
 10
650.306880225
 20
541.130415548
 10
650.327461351
 20
541.161478309
 10
650.346923995
 20
541.193381915
 10
650.365236953
 20
541.226102268
 10
650.382369023
 20
541.259615268
 10
650.398289004
 20
541.293896814
 10
650.412965692
 20
541.328922808
 10
650.426367886
 20
541.364669149
 10
650.438464383
 20
541.401111737
 10
650.449223981
 20
541.438226473
  0
LWPOLYLINE
  5
139
330
1F
100
AcDbEntity
  8
2
  6
LTYPE1
 62
     2
100
AcDbPolyline
 90
    19
 70
   128
 43
0.0
 10
618.022640053
 20
602.905260017
 10
618.010029901
 20
602.887240754
 10
617.99820451
 20
602.868654461
 10
617.987187783
 20
602.849525239
 10
617.977003624
 20
602.829877186
 10
617.967675936
 20
602.809734402
 10
617.959228624
 20
602.789120988
 10
617.951685591
 20
602.768061042
 10
617.945070741
 20
602.746578665
 10
617.939407978
 20
602.724697957
 10
617.934721206
 20
602.702443017
 10
617.931034329
 20
602.679837944
 10
617.92837125
 20
602.65690684
 10
617.926755873
 20
602.633673803
 10
617.926212102
 20
602.610162933
 10
617.926212102
 20
602.529907789
 10
617.926212102
 20
602.295375768
 10
617.926212102
 20
601.915916982
 10
617.926212102
 20
601.400881547
  0
LWPOLYLINE
  5
13B
330
1F
100
AcDbEntity
  8
2
  6
LTYPE1
 62
     2
100
AcDbPolyline
 90
    36
 70
   128
 43
0.0
 10
629.732937679
 20
541.173606849
 10
629.748880731
 20
541.148622612
 10
629.765496763
 20
541.124200116
 10
629.782769562
 20
541.100349057
 10
629.800682915
 20
541.077079135
 10
629.819220608
 20
541.054400049
 10
629.838366428
 20
541.032321498
 10
629.858104161
 20
541.010853179
 10
629.878417594
 20
540.990004792
 10
629.899290513
 20
540.969786036
 10
629.920706706
 20
540.950206608
 10
629.942649957
 20
540.931276208
 10
629.965104055
 20
540.913004535
 10
629.988052786
 20
540.895401287
 10
630.011479935
 20
540.878476162
 10
630.035369291
 20
540.86223886
 10
630.059704638
 20
540.846699079
 10
630.084469764
 20
540.831866518
 10
630.109648456
 20
540.817750875
 10
630.1352245
 20
540.80436185
 10
630.161181682
 20
540.79170914
 10
630.187503789
 20
540.779802445
 10
630.214174608
 20
540.768651463
 10
630.241177925
 20
540.758265892
 10
630.268497526
 20
540.748655433
 10
630.296117199
 20
540.739829782
 10
630.324020729
 20
540.73179864
 10
630.352191904
 20
540.724571704
 10
630.38061451
 20
540.718158673
 10
630.409272333
 20
540.712569247
 10
630.43814916
 20
540.707813122
 10
630.467228778
 20
540.7039
 10
630.496494973
 20
540.700839577
 10
630.525931531
 20
540.698641552
 10
630.55552224
 20
540.697315626
 10
630.585250886
 20
540.696871495
  0
LWPOLYLINE
  5
13D
330
1F
100
AcDbEntity
  8
2
  6
LTYPE1
 62
     2
100
AcDbPolyline
 90
    36
 70
   128
 43
0.0
 10
640.67509914
 20
540.696871495
 10
640.704829451
 20
540.697315626
 10
640.73442496
 20
540.698641552
 10
640.76386916
 20
540.700839577
 10
640.793145544
 20
540.7039
 10
640.822237603
 20
540.707813122
 10
640.851128831
 20
540.712569247
 10
640.879802721
 20
540.718158673
 10
640.908242765
 20
540.724571704
 10
640.936432455
 20
540.73179864
 10
640.964355285
 20
540.739829782
 10
640.991994747
 20
540.748655433
 10
641.019334334
 20
540.758265892
 10
641.046357538
 20
540.768651463
 10
641.073047852
 20
540.779802445
 10
641.099388769
 20
540.79170914
 10
641.125363781
 20
540.80436185
 10
641.150956381
 20
540.817750875
 10
641.176150061
 20
540.831866518
 10
641.200928315
 20
540.846699079
 10
641.225274635
 20
540.86223886
 10
641.249172513
 20
540.878476162
 10
641.272605443
 20
540.895401287
 10
641.295556916
 20
540.913004535
 10
641.318010426
 20
540.931276208
 10
641.339949465
 20
540.950206608
 10
641.361357527
 20
540.969786036
 10
641.382218102
 20
540.990004792
 10
641.402514685
 20
541.010853179
 10
641.422230767
 20
541.032321498
 10
641.441349842
 20
541.054400049
 10
641.459855403
 20
541.077079135
 10
641.47773094
 20
541.100349057
 10
641.494959949
 20
541.124200116
 10
641.51152592
 20
541.148622612
 10
641.527412347
 20
541.173606849
  0
ARC
  5
13E
330
1F
100
AcDbEntity
  8
2
  6
LTYPE1
 62
     2
100
AcDbCircle
 10
635.630003815
 20
518.11
 30
0.0
 40
5.0
100
AcDbArc
 50
180.0
 51
0.0
  0
LINE
  5
13F
330
1F
100
AcDbEntity
  8
2
  6
LTYPE1
 62
     2
100
AcDbLine
 10
640.630003815
 20
518.11
 30
0.0
 11
640.630003815
 21
540.696871495
 31
0.0
  0
LINE
  5
140
330
1F
100
AcDbEntity
  8
2
  6
LTYPE1
 62
     2
100
AcDbLine
 10
630.630003815
 20
518.11
 30
0.0
 11
630.630003815
 21
540.696871495
 31
0.0
  0
ARC
  5
141
330
1F
100
AcDbEntity
  8
5
  6
Continuous
 62
     1
100
AcDbCircle
 10
217.97
 20
695.11
 30
0.0
 40
20.0
100
AcDbArc
 50
359.999902254
 51
180.00006182
  0
LINE
  5
142
330
1F
100
AcDbEntity
  8
5
  6
Continuous
 62
     1
100
AcDbLine
 10
175.82
 20
725.61
 30
0.0
 11
178.42
 21
725.61
 31
0.0
  0
ARC
  5
143
330
1F
100
AcDbEntity
  8
5
  6
Continuous
 62
     1
100
AcDbCircle
 10
200.47
 20
735.61
 30
0.0
 40
25.0
100
AcDbArc
 50
90.000049453
 51
180.0
  0
LINE
  5
144
330
1F
100
AcDbEntity
  8
5
  6
Continuous
 62
     1
100
AcDbLine
 10
235.469984741
 20
760.61
 30
0.0
 11
200.469978421
 21
760.61
 31
0.0
  0
ARC
  5
145
330
1F
100
AcDbEntity
  8
5
  6
Continuous
 62
     1
100
AcDbCircle
 10
235.47
 20
735.61
 30
0.0
 40
25.0
100
AcDbArc
 50
0.0
 51
90.000034973
  0
LINE
  5
146
330
1F
100
AcDbEntity
  8
5
  6
Continuous
 62
     1
100
AcDbLine
 10
175.47
 20
735.61
 30
0.0
 11
175.47
 21
730.209973571
 31
0.0
  0
ARC
  5
147
330
1F
100
AcDbEntity
  8
5
  6
Continuous
 62
     1
100
AcDbCircle
 10
177.47
 20
730.21
 30
0.0
 40
2.0
100
AcDbArc
 50
180.000757135
 51
270.0
  0
LINE
  5
148
330
1F
100
AcDbEntity
  8
5
  6
Continuous
 62
     1
100
AcDbLine
 10
178.419969482
 20
728.21
 30
0.0
 11
177.47
 21
728.21
 31
0.0
  0
ARC
  5
149
330
1F
100
AcDbEntity
  8
5
  6
Continuous
 62
     1
100
AcDbCircle
 10
178.42
 20
725.61
 30
0.0
 40
2.6
100
AcDbArc
 50
270.0
 51
90.00067251
  0
LINE
  5
14A
330
1F
100
AcDbEntity
  8
5
  6
Continuous
 62
     1
100
AcDbLine
 10
260.12
 20
725.61
 30
0.0
 11
257.52
 21
725.61
 31
0.0
  0
LINE
  5
14B
330
1F
100
AcDbEntity
  8
5
  6
Continuous
 62
     1
100
AcDbLine
 10
257.520030518
 20
728.21
 30
0.0
 11
258.47
 21
728.21
 31
0.0
  0
ARC
  5
14C
330
1F
100
AcDbEntity
  8
5
  6
Continuous
 62
     1
100
AcDbCircle
 10
257.52
 20
725.61
 30
0.0
 40
2.6
100
AcDbArc
 50
89.99932749
 51
270.0
  0
LWPOLYLINE
  5
14F
330
1F
100
AcDbEntity
  8
5
  6
Continuous
 62
     1
100
AcDbPolyline
 90
     3
 70
   128
 43
0.0
 10
260.47
 20
735.61
 42
0.0
 10
260.47
 20
730.21
 42
-0.414213562
 10
258.47
 20
728.21
 42
0.0
  0
CIRCLE
  5
150
330
1F
100
AcDbEntity
  8
4
  6
Continuous
 62
     1
100
AcDbCircle
 10
217.97
 20
630.11
 30
0.0
 40
4.2
  0
CIRCLE
  5
151
330
1F
100
AcDbEntity
  8
4
  6
Continuous
 62
     1
100
AcDbCircle
 10
217.97
 20
510.11
 30
0.0
 40
4.2
  0
LINE
  5
152
330
1F
100
AcDbEntity
  8
4
  6
LTYPE2
 62
     2
100
AcDbLine
 10
262.97
 20
505.11
 30
0.0
 11
260.37
 21
505.11
 31
0.0
  0
LINE
  5
153
330
1F
100
AcDbEntity
  8
4
  6
LTYPE2
 62
     2
100
AcDbLine
 10
175.57
 20
505.11
 30
0.0
 11
172.97
 21
505.11
 31
0.0
  0
ARC
  5
154
330
1F
100
AcDbEntity
  8
4
  6
Continuous
 62
     1
100
AcDbCircle
 10
178.17
 20
485.31
 30
0.0
 40
5.2
100
AcDbArc
 50
180.0
 51
270.0
  0
LINE
  5
155
330
1F
100
AcDbEntity
  8
4
  6
Continuous
 62
     1
100
AcDbLine
 10
172.97
 20
485.31
 30
0.0
 11
175.57
 21
485.31
 31
0.0
  0
LINE
  5
156
330
1F
100
AcDbEntity
  8
4
  6
Continuous
 62
     1
100
AcDbLine
 10
178.17
 20
482.709984741
 30
0.0
 11
178.17
 21
480.11
 31
0.0
  0
ARC
  5
157
330
1F
100
AcDbEntity
  8
4
  6
Continuous
 62
     1
100
AcDbCircle
 10
178.17
 20
485.31
 30
0.0
 40
2.6
100
AcDbArc
 50
180.0
 51
270.0
  0
ARC
  5
158
330
1F
100
AcDbEntity
  8
4
  6
Continuous
 62
     1
100
AcDbCircle
 10
175.57
 20
482.71
 30
0.0
 40
2.6
100
AcDbArc
 50
359.999663745
 51
90.0
  0
ARC
  5
159
330
1F
100
AcDbEntity
  8
4
  6
Continuous
 62
     1
100
AcDbCircle
 10
257.77
 20
485.31
 30
0.0
 40
5.2
100
AcDbArc
 50
270.0
 51
0.0
  0
LINE
  5
15A
330
1F
100
AcDbEntity
  8
4
  6
Continuous
 62
     1
100
AcDbLine
 10
262.97
 20
485.31
 30
0.0
 11
260.37
 21
485.31
 31
0.0
  0
LINE
  5
15B
330
1F
100
AcDbEntity
  8
4
  6
Continuous
 62
     1
100
AcDbLine
 10
257.77
 20
482.709984741
 30
0.0
 11
257.77
 21
480.11
 31
0.0
  0
ARC
  5
15C
330
1F
100
AcDbEntity
  8
4
  6
Continuous
 62
     1
100
AcDbCircle
 10
257.77
 20
485.31
 30
0.0
 40
2.6
100
AcDbArc
 50
270.0
 51
0.0
  0
ARC
  5
15D
330
1F
100
AcDbEntity
  8
4
  6
Continuous
 62
     1
100
AcDbCircle
 10
260.37
 20
482.71
 30
0.0
 40
2.6
100
AcDbArc
 50
90.0
 51
180.000336255
  0
LINE
  5
15E
330
1F
100
AcDbEntity
  8
4
  6
LTYPE2
 62
     2
100
AcDbLine
 10
257.77
 20
482.71
 30
0.0
 11
178.17
 21
482.71
 31
0.0
  0
LINE
  5
15F
330
1F
100
AcDbEntity
  8
4
  6
Continuous
 62
     1
100
AcDbLine
 10
257.77
 20
480.11
 30
0.0
 11
178.17
 21
480.11
 31
0.0
  0
LINE
  5
161
330
1F
100
AcDbEntity
  8
3
  6
LTYPE3
 62
     2
100
AcDbLine
 10
752.13
 20
359.84
 30
0.0
 11
752.13
 21
267.08
 31
0.0
  0
LINE
  5
162
330
1F
100
AcDbEntity
  8
5
  6
Continuous
 62
     1
100
AcDbLine
 10
178.42
 20
725.61
 30
0.0
 11
178.42
 21
660.11
 31
0.0
  0
LINE
  5
163
330
1F
100
AcDbEntity
  8
5
  6
Continuous
 62
     1
100
AcDbLine
 10
175.82
 20
725.61
 30
0.0
 11
175.82
 21
660.11
 31
0.0
  0
LINE
  5
164
330
1F
100
AcDbEntity
  8
4
  6
LTYPE2
 62
     2
100
AcDbLine
 10
175.57
 20
660.11
 30
0.0
 11
175.57
 21
485.31
 31
0.0
  0
LINE
  5
165
330
1F
100
AcDbEntity
  8
5
  6
Continuous
 62
     1
100
AcDbLine
 10
197.97
 20
660.11
 30
0.0
 11
197.97
 21
695.109978421
 31
0.0
  0
LINE
  5
166
330
1F
100
AcDbEntity
  8
5
  6
Continuous
 62
     1
100
AcDbLine
 10
257.52
 20
725.61
 30
0.0
 11
257.52
 21
660.11
 31
0.0
  0
LINE
  5
167
330
1F
100
AcDbEntity
  8
5
  6
Continuous
 62
     1
100
AcDbLine
 10
260.12
 20
725.61
 30
0.0
 11
260.12
 21
660.11
 31
0.0
  0
LINE
  5
168
330
1F
100
AcDbEntity
  8
4
  6
LTYPE2
 62
     2
100
AcDbLine
 10
260.37
 20
660.11
 30
0.0
 11
260.37
 21
485.31
 31
0.0
  0
LINE
  5
169
330
1F
100
AcDbEntity
  8
5
  6
Continuous
 62
     1
100
AcDbLine
 10
237.97
 20
695.10996588
 30
0.0
 11
237.97
 21
660.11
 31
0.0
  0
LINE
  5
16A
330
1F
100
AcDbEntity
  8
5
  6
LTYPE2
 62
     2
100
AcDbLine
 10
178.42
 20
660.11
 30
0.0
 11
178.42
 21
580.11
 31
0.0
  0
LINE
  5
16B
330
1F
100
AcDbEntity
  8
5
  6
LTYPE2
 62
     2
100
AcDbLine
 10
175.82
 20
660.11
 30
0.0
 11
175.82
 21
580.11
 31
0.0
  0
ARC
  5
16C
330
1F
100
AcDbEntity
  8
5
  6
LTYPE2
 62
     2
100
AcDbCircle
 10
217.97
 20
630.11
 30
0.0
 40
20.0
100
AcDbArc
 50
180.00006182
 51
359.999892925
  0
LINE
  5
16D
330
1F
100
AcDbEntity
  8
5
  6
LTYPE2
 62
     2
100
AcDbLine
 10
197.97
 20
630.109978421
 30
0.0
 11
197.97
 21
660.11
 31
0.0
  0
LINE
  5
16E
330
1F
100
AcDbEntity
  8
5
  6
LTYPE2
 62
     2
100
AcDbLine
 10
237.97
 20
660.11
 30
0.0
 11
237.97
 21
630.109962624
 31
0.0
  0
LINE
  5
16F
330
1F
100
AcDbEntity
  8
5
  6
LTYPE2
 62
     2
100
AcDbLine
 10
257.52
 20
660.11
 30
0.0
 11
257.52
 21
580.11
 31
0.0
  0
LINE
  5
170
330
1F
100
AcDbEntity
  8
5
  6
LTYPE2
 62
     2
100
AcDbLine
 10
260.12
 20
660.11
 30
0.0
 11
260.12
 21
580.11
 31
0.0
  0
LINE
  5
171
330
1F
100
AcDbEntity
  8
4
  6
Continuous
 62
     1
100
AcDbLine
 10
172.97
 20
660.11
 30
0.0
 11
172.97
 21
485.31
 31
0.0
  0
LINE
  5
172
330
1F
100
AcDbEntity
  8
4
  6
Continuous
 62
     1
100
AcDbLine
 10
200.947955469
 20
660.11
 30
0.0
 11
172.97
 21
660.11
 31
0.0
  0
ARC
  5
173
330
1F
100
AcDbEntity
  8
4
  6
Continuous
 62
     1
100
AcDbCircle
 10
217.97
 20
670.61
 30
0.0
 40
20.0
100
AcDbArc
 50
211.668243254
 51
328.331756746
  0
LINE
  5
174
330
1F
100
AcDbEntity
  8
4
  6
Continuous
 62
     1
100
AcDbLine
 10
262.97
 20
660.11
 30
0.0
 11
234.992044531
 21
660.11
 31
0.0
  0
LINE
  5
175
330
1F
100
AcDbEntity
  8
4
  6
Continuous
 62
     1
100
AcDbLine
 10
262.97
 20
660.11
 30
0.0
 11
262.97
 21
485.31
 31
0.0
  0
LINE
  5
176
330
1F
100
AcDbEntity
  8
5
  6
LTYPE2
 62
     2
100
AcDbLine
 10
260.12
 20
580.11
 30
0.0
 11
235.290508076
 21
580.11
 31
0.0
  0
LWPOLYLINE
  5
178
330
1F
100
AcDbEntity
  8
5
  6
LTYPE2
 62
     2
100
AcDbPolyline
 90
     3
 70
   128
 43
0.0
 10
235.290508076
 20
580.11
 42
0.577350269
 10
200.649491924
 20
580.11
 42
0.0
 10
175.82
 20
580.11
 42
0.0
  0
LINE
  5
179
330
1F
100
AcDbEntity
  8
5
  6
Continuous
 62
     1
100
AcDbLine
 10
1117.13
 20
722.11
 30
0.0
 11
1117.13
 21
720.11
 31
0.0
  0
LINE
  5
17A
330
1F
100
AcDbEntity
  8
5
  6
LTYPE2
 62
     2
100
AcDbLine
 10
1114.13
 20
580.11
 30
0.0
 11
1092.13
 21
580.11
 31
0.0
  0
LINE
  5
17B
330
1F
100
AcDbEntity
  8
5
  6
LTYPE2
 62
     2
100
AcDbLine
 10
1092.13
 20
580.11
 30
0.0
 11
1092.13
 21
585.11
 31
0.0
  0
ARC
  5
17C
330
1F
100
AcDbEntity
  8
5
  6
LTYPE2
 62
     2
100
AcDbCircle
 10
1114.13
 20
583.11
 30
0.0
 40
3.0
100
AcDbArc
 50
270.0
 51
0.0
  0
LINE
  5
17D
330
1F
100
AcDbEntity
  8
5
  6
LTYPE2
 62
     2
100
AcDbLine
 10
1117.13
 20
720.11
 30
0.0
 11
1117.13
 21
583.11
 31
0.0
  0
LINE
  5
17E
330
1F
100
AcDbEntity
  8
5
  6
Continuous
 62
     1
100
AcDbLine
 10
387.13
 20
722.11
 30
0.0
 11
387.13
 21
660.11
 31
0.0
  0
LINE
  5
17F
330
1F
100
AcDbEntity
  8
5
  6
Continuous
 62
     1
100
AcDbLine
 10
407.13
 20
580.11
 30
0.0
 11
412.13
 21
580.11
 31
0.0
  0
ARC
  5
180
330
1F
100
AcDbEntity
  8
5
  6
LTYPE2
 62
     2
100
AcDbCircle
 10
390.13
 20
583.11
 30
0.0
 40
3.0
100
AcDbArc
 50
180.0
 51
270.0
  0
LINE
  5
181
330
1F
100
AcDbEntity
  8
5
  6
LTYPE2
 62
     2
100
AcDbLine
 10
387.13
 20
660.11
 30
0.0
 11
387.13
 21
583.11
 31
0.0
  0
LINE
  5
182
330
1F
100
AcDbEntity
  8
5
  6
LTYPE2
 62
     2
100
AcDbLine
 10
390.13
 20
580.11
 30
0.0
 11
407.13
 21
580.11
 31
0.0
  0
LINE
  5
183
330
1F
100
AcDbEntity
  8
5
  6
Continuous
 62
     2
100
AcDbLine
 10
257.52
 20
716.61
 30
0.0
 11
251.02
 21
716.61
 31
0.0
  0
LINE
  5
184
330
1F
100
AcDbEntity
  8
5
  6
Continuous
 62
     2
100
AcDbLine
 10
257.52
 20
703.61
 30
0.0
 11
251.02
 21
703.61
 31
0.0
  0
LINE
  5
185
330
1F
100
AcDbEntity
  8
5
  6
Continuous
 62
     2
100
AcDbLine
 10
251.02
 20
716.61
 30
0.0
 11
251.02
 21
703.61
 31
0.0
  0
LINE
  5
186
330
1F
100
AcDbEntity
  8
5
  6
Continuous
 62
     2
100
AcDbLine
 10
178.42
 20
716.61
 30
0.0
 11
184.92
 21
716.61
 31
0.0
  0
LINE
  5
187
330
1F
100
AcDbEntity
  8
5
  6
Continuous
 62
     2
100
AcDbLine
 10
178.42
 20
703.61
 30
0.0
 11
184.92
 21
703.61
 31
0.0
  0
LINE
  5
188
330
1F
100
AcDbEntity
  8
5
  6
Continuous
 62
     2
100
AcDbLine
 10
184.92
 20
716.61
 30
0.0
 11
184.92
 21
703.61
 31
0.0
  0
CIRCLE
  5
189
330
1F
100
AcDbEntity
  8
5
  6
Continuous
 62
     2
100
AcDbCircle
 10
397.13
 20
710.11
 30
0.0
 40
4.5
  0
CIRCLE
  5
18A
330
1F
100
AcDbEntity
  8
5
  6
Continuous
 62
     1
100
AcDbCircle
 10
397.13
 20
710.11
 30
0.0
 40
3.0
  0
LINE
  5
18B
330
1F
100
AcDbEntity
  8
5
  6
LTYPE2
 62
     2
100
AcDbLine
 10
409.53
 20
580.11
 30
0.0
 11
409.53
 21
725.11
 31
0.0
  0
LINE
  5
18C
330
1F
100
AcDbEntity
  8
5
  6
Continuous
 62
     1
100
AcDbLine
 10
409.53
 20
725.11
 30
0.0
 11
409.53
 21
760.61
 31
0.0
  0
LINE
  5
18D
330
1F
100
AcDbEntity
  8
3
  6
LTYPE2
 62
     2
100
AcDbLine
 10
407.93
 20
722.11
 30
0.0
 11
409.53
 21
722.11
 31
0.0
  0
LINE
  5
18E
330
1F
100
AcDbEntity
  8
3
  6
LTYPE2
 62
     2
100
AcDbLine
 10
405.93
 20
722.91
 30
0.0
 11
407.93
 21
722.91
 31
0.0
  0
LINE
  5
18F
330
1F
100
AcDbEntity
  8
3
  6
LTYPE2
 62
     2
100
AcDbLine
 10
405.93
 20
723.11
 30
0.0
 11
401.33
 21
723.11
 31
0.0
  0
LINE
  5
190
330
1F
100
AcDbEntity
  8
3
  6
LTYPE2
 62
     2
100
AcDbLine
 10
407.93
 20
725.11
 30
0.0
 11
407.93
 21
722.11
 31
0.0
  0
LINE
  5
191
330
1F
100
AcDbEntity
  8
3
  6
LTYPE2
 62
     2
100
AcDbLine
 10
405.93
 20
725.11
 30
0.0
 11
405.93
 21
722.91
 31
0.0
  0
LINE
  5
192
330
1F
100
AcDbEntity
  8
3
  6
LTYPE2
 62
     2
100
AcDbLine
 10
407.93
 20
722.91
 30
0.0
 11
407.93
 21
725.11
 31
0.0
  0
ARC
  5
193
330
1F
100
AcDbEntity
  8
3
  6
LTYPE2
 62
     2
100
AcDbCircle
 10
403.43
 20
724.91
 30
0.0
 40
2.8
100
AcDbArc
 50
179.999843881
 51
221.5
  0
LINE
  5
194
330
1F
100
AcDbEntity
  8
5
  6
Continuous
 62
     1
100
AcDbLine
 10
390.13
 20
725.11
 30
0.0
 11
412.13
 21
725.11
 31
0.0
  0
LINE
  5
195
330
1F
100
AcDbEntity
  8
5
  6
Continuous
 62
     1
100
AcDbLine
 10
1094.73
 20
725.11
 30
0.0
 11
1094.73
 21
760.61
 31
0.0
  0
LINE
  5
196
330
1F
100
AcDbEntity
  8
5
  6
LTYPE2
 62
     2
100
AcDbLine
 10
1094.73
 20
585.11
 30
0.0
 11
1094.73
 21
725.11
 31
0.0
  0
LINE
  5
197
330
1F
100
AcDbEntity
  8
3
  6
LTYPE2
 62
     2
100
AcDbLine
 10
1094.73
 20
722.11
 30
0.0
 11
1096.33
 21
722.11
 31
0.0
  0
LINE
  5
198
330
1F
100
AcDbEntity
  8
3
  6
LTYPE2
 62
     2
100
AcDbLine
 10
1096.33
 20
722.91
 30
0.0
 11
1098.33
 21
722.91
 31
0.0
  0
LINE
  5
199
330
1F
100
AcDbEntity
  8
3
  6
LTYPE2
 62
     2
100
AcDbLine
 10
1098.33
 20
723.11
 30
0.0
 11
1102.93
 21
723.11
 31
0.0
  0
LINE
  5
19A
330
1F
100
AcDbEntity
  8
3
  6
LTYPE2
 62
     2
100
AcDbLine
 10
1096.33
 20
722.11
 30
0.0
 11
1096.33
 21
725.11
 31
0.0
  0
LINE
  5
19B
330
1F
100
AcDbEntity
  8
3
  6
LTYPE2
 62
     2
100
AcDbLine
 10
1098.33
 20
722.91
 30
0.0
 11
1098.33
 21
725.11
 31
0.0
  0
LINE
  5
19C
330
1F
100
AcDbEntity
  8
3
  6
LTYPE2
 62
     2
100
AcDbLine
 10
1096.33
 20
725.11
 30
0.0
 11
1096.33
 21
722.91
 31
0.0
  0
ARC
  5
19D
330
1F
100
AcDbEntity
  8
3
  6
LTYPE2
 62
     2
100
AcDbCircle
 10
1100.83
 20
724.91
 30
0.0
 40
2.8
100
AcDbArc
 50
318.5
 51
0.000156119
  0
LINE
  5
19E
330
1F
100
AcDbEntity
  8
5
  6
Continuous
 62
     1
100
AcDbLine
 10
1114.13
 20
725.11
 30
0.0
 11
1092.13
 21
725.11
 31
0.0
  0
LINE
  5
19F
330
1F
100
AcDbEntity
  8
5
  6
Continuous
 62
     1
100
AcDbLine
 10
1092.13
 20
585.11
 30
0.0
 11
1092.13
 21
760.61
 31
0.0
  0
LINE
  5
1A0
330
1F
100
AcDbEntity
  8
5
  6
Continuous
 62
     1
100
AcDbLine
 10
1094.73
 20
760.61
 30
0.0
 11
1092.13
 21
760.61
 31
0.0
  0
LINE
  5
1A1
330
1F
100
AcDbEntity
  8
3
  6
Continuous
 62
     2
100
AcDbLine
 10
409.53
 20
739.11
 30
0.0
 11
407.93
 21
739.11
 31
0.0
  0
LINE
  5
1A2
330
1F
100
AcDbEntity
  8
3
  6
Continuous
 62
     2
100
AcDbLine
 10
407.93
 20
738.31
 30
0.0
 11
405.93
 21
738.31
 31
0.0
  0
LINE
  5
1A3
330
1F
100
AcDbEntity
  8
3
  6
Continuous
 62
     2
100
AcDbLine
 10
405.93
 20
738.11
 30
0.0
 11
401.33
 21
738.11
 31
0.0
  0
LINE
  5
1A4
330
1F
100
AcDbEntity
  8
3
  6
Continuous
 62
     2
100
AcDbLine
 10
405.93
 20
734.41
 30
0.0
 11
401.33
 21
734.41
 31
0.0
  0
LINE
  5
1A5
330
1F
100
AcDbEntity
  8
3
  6
Continuous
 62
     2
100
AcDbLine
 10
405.93
 20
726.81
 30
0.0
 11
401.33
 21
726.81
 31
0.0
  0
ARC
  5
1A6
330
1F
100
AcDbEntity
  8
3
  6
Continuous
 62
     2
100
AcDbCircle
 10
403.43
 20
736.31
 30
0.0
 40
2.8
100
AcDbArc
 50
138.5
 51
221.5
  0
ARC
  5
1A7
330
1F
100
AcDbEntity
  8
3
  6
Continuous
 62
     2
100
AcDbCircle
 10
411.33
 20
730.61
 30
0.0
 40
10.7
100
AcDbArc
 50
159.1
 51
200.9
  0
LINE
  5
1A8
330
1F
100
AcDbEntity
  8
3
  6
Continuous
 62
     2
100
AcDbLine
 10
405.93
 20
730.61
 30
0.0
 11
407.93
 21
731.764700538
 31
0.0
  0
LINE
  5
1A9
330
1F
100
AcDbEntity
  8
3
  6
Continuous
 62
     2
100
AcDbLine
 10
407.93
 20
730.61
 30
0.0
 11
405.93
 21
729.455299462
 31
0.0
  0
LINE
  5
1AA
330
1F
100
AcDbEntity
  8
3
  6
Continuous
 62
     2
100
AcDbLine
 10
1096.33
 20
739.11
 30
0.0
 11
1094.73
 21
739.11
 31
0.0
  0
LINE
  5
1AB
330
1F
100
AcDbEntity
  8
3
  6
Continuous
 62
     2
100
AcDbLine
 10
1098.33
 20
738.31
 30
0.0
 11
1096.33
 21
738.31
 31
0.0
  0
LINE
  5
1AC
330
1F
100
AcDbEntity
  8
3
  6
Continuous
 62
     2
100
AcDbLine
 10
1098.33
 20
738.11
 30
0.0
 11
1102.93
 21
738.11
 31
0.0
  0
LINE
  5
1AD
330
1F
100
AcDbEntity
  8
3
  6
Continuous
 62
     2
100
AcDbLine
 10
1098.33
 20
726.81
 30
0.0
 11
1102.93
 21
726.81
 31
0.0
  0
LINE
  5
1AE
330
1F
100
AcDbEntity
  8
3
  6
Continuous
 62
     2
100
AcDbLine
 10
1098.33
 20
734.41
 30
0.0
 11
1102.93
 21
734.41
 31
0.0
  0
ARC
  5
1AF
330
1F
100
AcDbEntity
  8
3
  6
Continuous
 62
     2
100
AcDbCircle
 10
1092.93
 20
730.61
 30
0.0
 40
10.7
100
AcDbArc
 50
339.1
 51
20.9
  0
ARC
  5
1B0
330
1F
100
AcDbEntity
  8
3
  6
Continuous
 62
     2
100
AcDbCircle
 10
1100.83
 20
736.31
 30
0.0
 40
2.8
100
AcDbArc
 50
318.5
 51
41.5
  0
LINE
  5
1B1
330
1F
100
AcDbEntity
  8
3
  6
Continuous
 62
     2
100
AcDbLine
 10
1098.33
 20
730.61
 30
0.0
 11
1096.33
 21
729.455299462
 31
0.0
  0
LINE
  5
1B2
330
1F
100
AcDbEntity
  8
3
  6
Continuous
 62
     2
100
AcDbLine
 10
1096.33
 20
730.61
 30
0.0
 11
1098.33
 21
731.764700538
 31
0.0
  0
CIRCLE
  5
1B3
330
1F
100
AcDbEntity
  8
3
  6
Continuous
 62
     2
100
AcDbCircle
 10
217.97
 20
730.61
 30
0.0
 40
6.5
  0
LWPOLYLINE
  5
1B5
330
1F
100
AcDbEntity
  8
3
  6
Continuous
 62
     2
100
AcDbPolyline
 90
     6
 70
   129
 43
0.0
 10
221.77
 20
737.11
 10
214.17
 20
737.11
 10
210.47
 20
730.61
 10
214.17
 20
724.11
 10
221.77
 20
724.11
 10
225.47
 20
730.61
  0
CIRCLE
  5
1B6
330
1F
100
AcDbEntity
  8
3
  6
Continuous
 62
     2
100
AcDbCircle
 10
217.97
 20
730.61
 30
0.0
 40
7.7
  0
CIRCLE
  5
1B7
330
1F
100
AcDbEntity
  8
3
  6
Continuous
 62
     2
100
AcDbCircle
 10
217.97
 20
730.61
 30
0.0
 40
8.5
  0
CIRCLE
  5
1B8
330
1F
100
AcDbEntity
  8
3
  6
Continuous
 62
     2
100
AcDbCircle
 10
397.13
 20
650.11
 30
0.0
 40
5.0
  0
LWPOLYLINE
  5
1BA
330
1F
100
AcDbEntity
  8
3
  6
Continuous
 62
     2
100
AcDbPolyline
 90
     6
 70
   129
 43
0.0
 10
400.03
 20
655.11
 10
394.23
 20
655.11
 10
391.33
 20
650.11
 10
394.23
 20
645.11
 10
400.03
 20
645.11
 10
402.93
 20
650.11
  0
CIRCLE
  5
1BB
330
1F
100
AcDbEntity
  8
3
  6
Continuous
 62
     2
100
AcDbCircle
 10
397.13
 20
650.11
 30
0.0
 40
6.1
  0
CIRCLE
  5
1BC
330
1F
100
AcDbEntity
  8
3
  6
Continuous
 62
     2
100
AcDbCircle
 10
397.13
 20
650.11
 30
0.0
 40
6.3
  0
CIRCLE
  5
1BD
330
1F
100
AcDbEntity
  8
3
  6
Continuous
 62
     2
100
AcDbCircle
 10
397.13
 20
595.11
 30
0.0
 40
5.0
  0
LWPOLYLINE
  5
1BF
330
1F
100
AcDbEntity
  8
3
  6
Continuous
 62
     2
100
AcDbPolyline
 90
     6
 70
   129
 43
0.0
 10
400.03
 20
600.11
 10
394.23
 20
600.11
 10
391.33
 20
595.11
 10
394.23
 20
590.11
 10
400.03
 20
590.11
 10
402.93
 20
595.11
  0
CIRCLE
  5
1C0
330
1F
100
AcDbEntity
  8
3
  6
Continuous
 62
     2
100
AcDbCircle
 10
397.13
 20
595.11
 30
0.0
 40
6.1
  0
CIRCLE
  5
1C1
330
1F
100
AcDbEntity
  8
3
  6
Continuous
 62
     2
100
AcDbCircle
 10
397.13
 20
595.11
 30
0.0
 40
6.3
  0
CIRCLE
  5
1C2
330
1F
100
AcDbEntity
  8
3
  6
Continuous
 62
     2
100
AcDbCircle
 10
1107.13
 20
710.11
 30
0.0
 40
5.0
  0
LWPOLYLINE
  5
1C4
330
1F
100
AcDbEntity
  8
3
  6
Continuous
 62
     2
100
AcDbPolyline
 90
     6
 70
   129
 43
0.0
 10
1110.03
 20
715.11
 10
1104.23
 20
715.11
 10
1101.33
 20
710.11
 10
1104.23
 20
705.11
 10
1110.03
 20
705.11
 10
1112.93
 20
710.11
  0
CIRCLE
  5
1C5
330
1F
100
AcDbEntity
  8
3
  6
Continuous
 62
     2
100
AcDbCircle
 10
1107.13
 20
710.11
 30
0.0
 40
6.1
  0
CIRCLE
  5
1C6
330
1F
100
AcDbEntity
  8
3
  6
Continuous
 62
     2
100
AcDbCircle
 10
1107.13
 20
710.11
 30
0.0
 40
6.3
  0
CIRCLE
  5
1C7
330
1F
100
AcDbEntity
  8
3
  6
Continuous
 62
     2
100
AcDbCircle
 10
1107.13
 20
595.11
 30
0.0
 40
5.0
  0
LWPOLYLINE
  5
1C9
330
1F
100
AcDbEntity
  8
3
  6
Continuous
 62
     2
100
AcDbPolyline
 90
     6
 70
   129
 43
0.0
 10
1110.03
 20
600.11
 10
1104.23
 20
600.11
 10
1101.33
 20
595.11
 10
1104.23
 20
590.11
 10
1110.03
 20
590.11
 10
1112.93
 20
595.11
  0
CIRCLE
  5
1CA
330
1F
100
AcDbEntity
  8
3
  6
Continuous
 62
     2
100
AcDbCircle
 10
1107.13
 20
595.11
 30
0.0
 40
6.1
  0
CIRCLE
  5
1CB
330
1F
100
AcDbEntity
  8
3
  6
Continuous
 62
     2
100
AcDbCircle
 10
1107.13
 20
595.11
 30
0.0
 40
6.3
  0
LWPOLYLINE
  5
1CD
330
1F
100
AcDbEntity
  8
3
  6
Continuous
 62
     2
100
AcDbPolyline
 90
     4
 70
   129
 43
0.0
 10
172.97
 20
643.81
 10
172.97
 20
656.41
 10
171.37
 20
656.41
 10
171.37
 20
643.81
  0
LWPOLYLINE
  5
1CF
330
1F
100
AcDbEntity
  8
3
  6
Continuous
 62
     2
100
AcDbPolyline
 90
     4
 70
   128
 43
0.0
 10
171.37
 20
656.21
 10
169.87
 20
656.21
 10
169.87
 20
644.01
 10
171.37
 20
644.01
  0
LINE
  5
1D0
330
1F
100
AcDbEntity
  8
3
  6
Continuous
 62
     2
100
AcDbLine
 10
166.37
 20
644.31
 30
0.0
 11
169.87
 21
644.31
 31
0.0
  0
LINE
  5
1D1
330
1F
100
AcDbEntity
  8
3
  6
Continuous
 62
     2
100
AcDbLine
 10
169.87
 20
655.91
 30
0.0
 11
166.37
 21
655.91
 31
0.0
  0
LINE
  5
1D2
330
1F
100
AcDbEntity
  8
3
  6
Continuous
 62
     2
100
AcDbLine
 10
169.87
 20
653.01
 30
0.0
 11
166.37
 21
653.01
 31
0.0
  0
LINE
  5
1D3
330
1F
100
AcDbEntity
  8
3
  6
Continuous
 62
     2
100
AcDbLine
 10
169.87
 20
647.21
 30
0.0
 11
166.37
 21
647.21
 31
0.0
  0
LINE
  5
1D4
330
1F
100
AcDbEntity
  8
3
  6
Continuous
 62
     2
100
AcDbLine
 10
165.87
 20
645.81
 30
0.0
 11
165.87
 21
654.41
 31
0.0
  0
ARC
  5
1D5
330
1F
100
AcDbEntity
  8
3
  6
Continuous
 62
     2
100
AcDbCircle
 10
174.57
 20
650.11
 30
0.0
 40
8.7
100
AcDbArc
 50
160.4
 51
199.6
  0
ARC
  5
1D6
330
1F
100
AcDbEntity
  8
3
  6
Continuous
 62
     2
100
AcDbCircle
 10
168.27
 20
654.51
 30
0.0
 40
2.4
100
AcDbArc
 50
143.6
 51
218.1
  0
ARC
  5
1D7
330
1F
100
AcDbEntity
  8
3
  6
Continuous
 62
     2
100
AcDbCircle
 10
168.27
 20
645.71
 30
0.0
 40
2.4
100
AcDbArc
 50
141.9
 51
216.4
  0
LINE
  5
1D8
330
1F
100
AcDbEntity
  8
3
  6
Continuous
 62
     2
100
AcDbLine
 10
169.87
 20
650.11
 30
0.0
 11
171.37
 21
650.976025404
 31
0.0
  0
LINE
  5
1D9
330
1F
100
AcDbEntity
  8
3
  6
Continuous
 62
     2
100
AcDbLine
 10
171.37
 20
650.11
 30
0.0
 11
169.87
 21
649.243974596
 31
0.0
  0
LWPOLYLINE
  5
1DB
330
1F
100
AcDbEntity
  8
3
  6
Continuous
 62
     2
100
AcDbPolyline
 90
     4
 70
   129
 43
0.0
 10
172.97
 20
588.81
 10
172.97
 20
601.41
 10
171.37
 20
601.41
 10
171.37
 20
588.81
  0
LWPOLYLINE
  5
1DD
330
1F
100
AcDbEntity
  8
3
  6
Continuous
 62
     2
100
AcDbPolyline
 90
     4
 70
   128
 43
0.0
 10
171.37
 20
601.21
 10
169.87
 20
601.21
 10
169.87
 20
589.01
 10
171.37
 20
589.01
  0
LINE
  5
1DE
330
1F
100
AcDbEntity
  8
3
  6
Continuous
 62
     2
100
AcDbLine
 10
166.37
 20
589.31
 30
0.0
 11
169.87
 21
589.31
 31
0.0
  0
LINE
  5
1DF
330
1F
100
AcDbEntity
  8
3
  6
Continuous
 62
     2
100
AcDbLine
 10
169.87
 20
600.91
 30
0.0
 11
166.37
 21
600.91
 31
0.0
  0
LINE
  5
1E0
330
1F
100
AcDbEntity
  8
3
  6
Continuous
 62
     2
100
AcDbLine
 10
169.87
 20
598.01
 30
0.0
 11
166.37
 21
598.01
 31
0.0
  0
LINE
  5
1E1
330
1F
100
AcDbEntity
  8
3
  6
Continuous
 62
     2
100
AcDbLine
 10
169.87
 20
592.21
 30
0.0
 11
166.37
 21
592.21
 31
0.0
  0
LINE
  5
1E2
330
1F
100
AcDbEntity
  8
3
  6
Continuous
 62
     2
100
AcDbLine
 10
165.87
 20
590.81
 30
0.0
 11
165.87
 21
599.41
 31
0.0
  0
ARC
  5
1E3
330
1F
100
AcDbEntity
  8
3
  6
Continuous
 62
     2
100
AcDbCircle
 10
174.57
 20
595.11
 30
0.0
 40
8.7
100
AcDbArc
 50
160.4
 51
199.6
  0
ARC
  5
1E4
330
1F
100
AcDbEntity
  8
3
  6
Continuous
 62
     2
100
AcDbCircle
 10
168.27
 20
599.51
 30
0.0
 40
2.4
100
AcDbArc
 50
143.6
 51
218.1
  0
ARC
  5
1E5
330
1F
100
AcDbEntity
  8
3
  6
Continuous
 62
     2
100
AcDbCircle
 10
168.27
 20
590.71
 30
0.0
 40
2.4
100
AcDbArc
 50
141.9
 51
216.4
  0
LINE
  5
1E6
330
1F
100
AcDbEntity
  8
3
  6
Continuous
 62
     2
100
AcDbLine
 10
169.87
 20
595.11
 30
0.0
 11
171.37
 21
595.976025404
 31
0.0
  0
LINE
  5
1E7
330
1F
100
AcDbEntity
  8
3
  6
Continuous
 62
     2
100
AcDbLine
 10
171.37
 20
595.11
 30
0.0
 11
169.87
 21
594.243974596
 31
0.0
  0
LWPOLYLINE
  5
1E9
330
1F
100
AcDbEntity
  8
3
  6
Continuous
 62
     2
100
AcDbPolyline
 90
     4
 70
   129
 43
0.0
 10
262.97
 20
656.41
 10
262.97
 20
643.81
 10
264.57
 20
643.81
 10
264.57
 20
656.41
  0
LWPOLYLINE
  5
1EB
330
1F
100
AcDbEntity
  8
3
  6
Continuous
 62
     2
100
AcDbPolyline
 90
     4
 70
   128
 43
0.0
 10
264.57
 20
644.01
 10
266.07
 20
644.01
 10
266.07
 20
656.21
 10
264.57
 20
656.21
  0
LINE
  5
1EC
330
1F
100
AcDbEntity
  8
3
  6
Continuous
 62
     2
100
AcDbLine
 10
269.57
 20
655.91
 30
0.0
 11
266.07
 21
655.91
 31
0.0
  0
LINE
  5
1ED
330
1F
100
AcDbEntity
  8
3
  6
Continuous
 62
     2
100
AcDbLine
 10
266.07
 20
644.31
 30
0.0
 11
269.57
 21
644.31
 31
0.0
  0
LINE
  5
1EE
330
1F
100
AcDbEntity
  8
3
  6
Continuous
 62
     2
100
AcDbLine
 10
266.07
 20
647.21
 30
0.0
 11
269.57
 21
647.21
 31
0.0
  0
LINE
  5
1EF
330
1F
100
AcDbEntity
  8
3
  6
Continuous
 62
     2
100
AcDbLine
 10
266.07
 20
653.01
 30
0.0
 11
269.57
 21
653.01
 31
0.0
  0
LINE
  5
1F0
330
1F
100
AcDbEntity
  8
3
  6
Continuous
 62
     2
100
AcDbLine
 10
270.07
 20
654.41
 30
0.0
 11
270.07
 21
645.81
 31
0.0
  0
ARC
  5
1F1
330
1F
100
AcDbEntity
  8
3
  6
Continuous
 62
     2
100
AcDbCircle
 10
261.37
 20
650.11
 30
0.0
 40
8.7
100
AcDbArc
 50
340.4
 51
19.6
  0
ARC
  5
1F2
330
1F
100
AcDbEntity
  8
3
  6
Continuous
 62
     2
100
AcDbCircle
 10
267.67
 20
645.71
 30
0.0
 40
2.4
100
AcDbArc
 50
323.6
 51
38.1
  0
ARC
  5
1F3
330
1F
100
AcDbEntity
  8
3
  6
Continuous
 62
     2
100
AcDbCircle
 10
267.67
 20
654.51
 30
0.0
 40
2.4
100
AcDbArc
 50
321.9
 51
36.4
  0
LINE
  5
1F4
330
1F
100
AcDbEntity
  8
3
  6
Continuous
 62
     2
100
AcDbLine
 10
266.07
 20
650.11
 30
0.0
 11
264.57
 21
649.243974596
 31
0.0
  0
LINE
  5
1F5
330
1F
100
AcDbEntity
  8
3
  6
Continuous
 62
     2
100
AcDbLine
 10
264.57
 20
650.11
 30
0.0
 11
266.07
 21
650.976025404
 31
0.0
  0
LWPOLYLINE
  5
1F7
330
1F
100
AcDbEntity
  8
3
  6
Continuous
 62
     2
100
AcDbPolyline
 90
     4
 70
   129
 43
0.0
 10
262.97
 20
601.41
 10
262.97
 20
588.81
 10
264.57
 20
588.81
 10
264.57
 20
601.41
  0
LWPOLYLINE
  5
1F9
330
1F
100
AcDbEntity
  8
3
  6
Continuous
 62
     2
100
AcDbPolyline
 90
     4
 70
   128
 43
0.0
 10
264.57
 20
589.01
 10
266.07
 20
589.01
 10
266.07
 20
601.21
 10
264.57
 20
601.21
  0
LINE
  5
1FA
330
1F
100
AcDbEntity
  8
3
  6
Continuous
 62
     2
100
AcDbLine
 10
269.57
 20
600.91
 30
0.0
 11
266.07
 21
600.91
 31
0.0
  0
LINE
  5
1FB
330
1F
100
AcDbEntity
  8
3
  6
Continuous
 62
     2
100
AcDbLine
 10
266.07
 20
589.31
 30
0.0
 11
269.57
 21
589.31
 31
0.0
  0
LINE
  5
1FC
330
1F
100
AcDbEntity
  8
3
  6
Continuous
 62
     2
100
AcDbLine
 10
266.07
 20
592.21
 30
0.0
 11
269.57
 21
592.21
 31
0.0
  0
LINE
  5
1FD
330
1F
100
AcDbEntity
  8
3
  6
Continuous
 62
     2
100
AcDbLine
 10
266.07
 20
598.01
 30
0.0
 11
269.57
 21
598.01
 31
0.0
  0
LINE
  5
1FE
330
1F
100
AcDbEntity
  8
3
  6
Continuous
 62
     2
100
AcDbLine
 10
270.07
 20
599.41
 30
0.0
 11
270.07
 21
590.81
 31
0.0
  0
ARC
  5
1FF
330
1F
100
AcDbEntity
  8
3
  6
Continuous
 62
     2
100
AcDbCircle
 10
261.37
 20
595.11
 30
0.0
 40
8.7
100
AcDbArc
 50
340.4
 51
19.6
  0
ARC
  5
200
330
1F
100
AcDbEntity
  8
3
  6
Continuous
 62
     2
100
AcDbCircle
 10
267.67
 20
590.71
 30
0.0
 40
2.4
100
AcDbArc
 50
323.6
 51
38.1
  0
ARC
  5
201
330
1F
100
AcDbEntity
  8
3
  6
Continuous
 62
     2
100
AcDbCircle
 10
267.67
 20
599.51
 30
0.0
 40
2.4
100
AcDbArc
 50
321.9
 51
36.4
  0
LINE
  5
202
330
1F
100
AcDbEntity
  8
3
  6
Continuous
 62
     2
100
AcDbLine
 10
266.07
 20
595.11
 30
0.0
 11
264.57
 21
594.243974596
 31
0.0
  0
LINE
  5
203
330
1F
100
AcDbEntity
  8
3
  6
Continuous
 62
     2
100
AcDbLine
 10
264.57
 20
595.11
 30
0.0
 11
266.07
 21
595.976025404
 31
0.0
  0
LINE
  5
204
330
1F
100
AcDbEntity
  8
3
  6
Continuous
 62
     2
100
AcDbLine
 10
407.93
 20
739.11
 30
0.0
 11
407.93
 21
725.11
 31
0.0
  0
LINE
  5
205
330
1F
100
AcDbEntity
  8
3
  6
Continuous
 62
     2
100
AcDbLine
 10
405.93
 20
738.31
 30
0.0
 11
405.93
 21
725.11
 31
0.0
  0
LINE
  5
206
330
1F
100
AcDbEntity
  8
3
  6
Continuous
 62
     2
100
AcDbLine
 10
407.93
 20
725.11
 30
0.0
 11
407.93
 21
738.31
 31
0.0
  0
LINE
  5
207
330
1F
100
AcDbEntity
  8
3
  6
Continuous
 62
     2
100
AcDbLine
 10
400.63
 20
725.11
 30
0.0
 11
400.63
 21
736.31
 31
0.0
  0
ARC
  5
208
330
1F
100
AcDbEntity
  8
3
  6
Continuous
 62
     2
100
AcDbCircle
 10
403.43
 20
724.91
 30
0.0
 40
2.8
100
AcDbArc
 50
138.5
 51
175.903956242
  0
LINE
  5
209
330
1F
100
AcDbEntity
  8
3
  6
Continuous
 62
     2
100
AcDbLine
 10
1096.33
 20
725.11
 30
0.0
 11
1096.33
 21
739.11
 31
0.0
  0
LINE
  5
20A
330
1F
100
AcDbEntity
  8
3
  6
Continuous
 62
     2
100
AcDbLine
 10
1098.33
 20
725.11
 30
0.0
 11
1098.33
 21
738.31
 31
0.0
  0
LINE
  5
20B
330
1F
100
AcDbEntity
  8
3
  6
Continuous
 62
     2
100
AcDbLine
 10
1096.33
 20
738.31
 30
0.0
 11
1096.33
 21
725.11
 31
0.0
  0
LINE
  5
20C
330
1F
100
AcDbEntity
  8
3
  6
Continuous
 62
     2
100
AcDbLine
 10
1103.63
 20
736.31
 30
0.0
 11
1103.63
 21
725.11
 31
0.0
  0
ARC
  5
20D
330
1F
100
AcDbEntity
  8
3
  6
Continuous
 62
     2
100
AcDbCircle
 10
1100.83
 20
724.91
 30
0.0
 40
2.8
100
AcDbArc
 50
4.096043758
 51
41.5
  0
ARC
  5
20E
330
1F
100
AcDbEntity
  8
5
  6
LTYPE2
 62
     2
100
AcDbCircle
 10
1107.13
 20
650.11
 30
0.0
 40
4.5
100
AcDbArc
 50
134.146970393
 51
45.853029608
  0
ARC
  5
20F
330
1F
100
AcDbEntity
  8
5
  6
Continuous
 62
     1
100
AcDbCircle
 10
1107.13
 20
650.11
 30
0.0
 40
4.5
100
AcDbArc
 50
45.853029607
 51
134.146970393
  0
LINE
  5
210
330
1F
100
AcDbEntity
  8
7
  6
Continuous
 62
     2
100
AcDbLine
 10
682.13
 20
310.46
 30
0.0
 11
682.13
 21
385.46
 31
0.0
  0
LINE
  5
211
330
1F
100
AcDbEntity
  8
7
  6
Continuous
 62
     2
100
AcDbLine
 10
682.13
 20
375.46
 30
0.0
 11
694.204072829
 21
372.224761936
 31
0.0
  0
LINE
  5
212
330
1F
100
AcDbEntity
  8
7
  6
Continuous
 62
     2
100
AcDbLine
 10
682.13
 20
375.46
 30
0.0
 11
694.204072829
 21
378.695238064
 31
0.0
  0
LWPOLYLINE
  5
214
330
1F
100
AcDbEntity
  8
7
  6
Continuous
 62
     2
100
AcDbPolyline
 90
     3
 70
   128
 43
0.0
 10
682.13
 20
375.46
 10
822.13
 20
375.46
 10
810.055927171
 20
378.695238064
  0
LINE
  5
215
330
1F
100
AcDbEntity
  8
7
  6
Continuous
 62
     2
100
AcDbLine
 10
822.13
 20
375.46
 30
0.0
 11
810.055927171
 21
372.224761936
 31
0.0
  0
LINE
  5
216
330
1F
100
AcDbEntity
  8
7
  6
Continuous
 62
     2
100
AcDbLine
 10
822.13
 20
310.46
 30
0.0
 11
822.13
 21
385.46
 31
0.0
  0
MTEXT
  5
217
330
1F
100
AcDbEntity
  8
7
  6
Continuous
 62
     2
100
AcDbMText
 10
737.13
 20
380.46
 30
0.0
 40
15.0
 41
60.0
 71
     7
 72
     1
  1
\T1.167;\W0.600;１４０
  7
KANJI8
 73
     1
 44
1.0
  0
LINE
  5
219
330
1F
100
AcDbEntity
  8
7
  6
Continuous
 62
     2
100
AcDbLine
 10
822.13
 20
375.46
 30
0.0
 11
834.204072829
 21
372.224761936
 31
0.0
  0
LINE
  5
21A
330
1F
100
AcDbEntity
  8
7
  6
Continuous
 62
     2
100
AcDbLine
 10
822.13
 20
375.46
 30
0.0
 11
834.204072829
 21
378.695238064
 31
0.0
  0
LWPOLYLINE
  5
21C
330
1F
100
AcDbEntity
  8
7
  6
Continuous
 62
     2
100
AcDbPolyline
 90
     3
 70
   128
 43
0.0
 10
822.13
 20
375.46
 10
972.13
 20
375.46
 10
960.055927171
 20
378.695238064
  0
LINE
  5
21D
330
1F
100
AcDbEntity
  8
7
  6
Continuous
 62
     2
100
AcDbLine
 10
972.13
 20
375.46
 30
0.0
 11
960.055927171
 21
372.224761936
 31
0.0
  0
LINE
  5
21E
330
1F
100
AcDbEntity
  8
7
  6
Continuous
 62
     2
100
AcDbLine
 10
972.13
 20
310.46
 30
0.0
 11
972.13
 21
385.46
 31
0.0
  0
MTEXT
  5
21F
330
1F
100
AcDbEntity
  8
7
  6
Continuous
 62
     2
100
AcDbMText
 10
882.13
 20
380.46
 30
0.0
 40
15.0
 41
60.0
 71
     7
 72
     1
  1
\T1.167;\W0.600;１５０
  7
KANJI8
 73
     1
 44
1.0
  0
LINE
  5
220
330
1F
100
AcDbEntity
  8
7
  6
Continuous
 62
     2
100
AcDbLine
 10
972.13
 20
375.46
 30
0.0
 11
984.204072829
 21
372.224761936
 31
0.0
  0
LINE
  5
221
330
1F
100
AcDbEntity
  8
7
  6
Continuous
 62
     2
100
AcDbLine
 10
972.13
 20
375.46
 30
0.0
 11
984.204072829
 21
378.695238064
 31
0.0
  0
LWPOLYLINE
  5
223
330
1F
100
AcDbEntity
  8
7
  6
Continuous
 62
     2
100
AcDbPolyline
 90
     3
 70
   128
 43
0.0
 10
972.13
 20
375.46
 10
1092.13
 20
375.46
 10
1080.055927171
 20
378.695238064
  0
LINE
  5
224
330
1F
100
AcDbEntity
  8
7
  6
Continuous
 62
     2
100
AcDbLine
 10
1092.13
 20
375.46
 30
0.0
 11
1080.055927171
 21
372.224761936
 31
0.0
  0
LINE
  5
225
330
1F
100
AcDbEntity
  8
7
  6
Continuous
 62
     2
100
AcDbLine
 10
1092.13
 20
310.46
 30
0.0
 11
1092.13
 21
385.46
 31
0.0
  0
MTEXT
  5
226
330
1F
100
AcDbEntity
  8
7
  6
Continuous
 62
     2
100
AcDbMText
 10
1017.13
 20
380.46
 30
0.0
 40
15.0
 41
60.0
 71
     7
 72
     1
  1
\T1.167;\W0.600;１２０
  7
KANJI8
 73
     1
 44
1.0
  0
LINE
  5
227
330
1F
100
AcDbEntity
  8
7
  6
Continuous
 62
     2
100
AcDbLine
 10
682.13
 20
375.46
 30
0.0
 11
670.055927171
 21
378.695238064
 31
0.0
  0
LINE
  5
228
330
1F
100
AcDbEntity
  8
7
  6
Continuous
 62
     2
100
AcDbLine
 10
682.13
 20
375.46
 30
0.0
 11
670.055927171
 21
372.224761936
 31
0.0
  0
LWPOLYLINE
  5
22A
330
1F
100
AcDbEntity
  8
7
  6
Continuous
 62
     2
100
AcDbPolyline
 90
     3
 70
   128
 43
0.0
 10
682.13
 20
375.46
 10
532.13
 20
375.46
 10
544.204072829
 20
372.224761936
  0
LINE
  5
22B
330
1F
100
AcDbEntity
  8
7
  6
Continuous
 62
     2
100
AcDbLine
 10
532.13
 20
375.46
 30
0.0
 11
544.204072829
 21
378.695238064
 31
0.0
  0
LINE
  5
22C
330
1F
100
AcDbEntity
  8
7
  6
Continuous
 62
     2
100
AcDbLine
 10
532.13
 20
310.46
 30
0.0
 11
532.13
 21
385.46
 31
0.0
  0
MTEXT
  5
22D
330
1F
100
AcDbEntity
  8
7
  6
Continuous
 62
     2
100
AcDbMText
 10
592.13
 20
380.46
 30
0.0
 40
15.0
 41
60.0
 71
     7
 72
     1
  1
\T1.167;\W0.600;１５０
  7
KANJI8
 73
     1
 44
1.0
  0
LINE
  5
22E
330
1F
100
AcDbEntity
  8
7
  6
Continuous
 62
     2
100
AcDbLine
 10
532.13
 20
375.46
 30
0.0
 11
520.055927171
 21
378.695238064
 31
0.0
  0
LINE
  5
22F
330
1F
100
AcDbEntity
  8
7
  6
Continuous
 62
     2
100
AcDbLine
 10
532.13
 20
375.46
 30
0.0
 11
520.055927171
 21
372.224761936
 31
0.0
  0
LWPOLYLINE
  5
231
330
1F
100
AcDbEntity
  8
7
  6
Continuous
 62
     2
100
AcDbPolyline
 90
     3
 70
   128
 43
0.0
 10
532.13
 20
375.46
 10
412.13
 20
375.46
 10
424.204072829
 20
372.224761936
  0
LINE
  5
232
330
1F
100
AcDbEntity
  8
7
  6
Continuous
 62
     2
100
AcDbLine
 10
412.13
 20
375.46
 30
0.0
 11
424.204072829
 21
378.695238064
 31
0.0
  0
LINE
  5
233
330
1F
100
AcDbEntity
  8
7
  6
Continuous
 62
     2
100
AcDbLine
 10
412.13
 20
310.46
 30
0.0
 11
412.13
 21
385.46
 31
0.0
  0
MTEXT
  5
234
330
1F
100
AcDbEntity
  8
7
  6
Continuous
 62
     2
100
AcDbMText
 10
457.13
 20
380.46
 30
0.0
 40
15.0
 41
60.0
 71
     7
 72
     1
  1
\T1.167;\W0.600;１２０
  7
KANJI8
 73
     1
 44
1.0
  0
LINE
  5
235
330
1F
100
AcDbEntity
  8
7
  6
Continuous
 62
     2
100
AcDbLine
 10
752.13
 20
262.08
 30
0.0
 11
752.13
 21
236.46
 31
0.0
  0
LINE
  5
236
330
1F
100
AcDbEntity
  8
7
  6
Continuous
 62
     2
100
AcDbLine
 10
752.13
 20
246.46
 30
0.0
 11
740.055927171
 21
249.695238064
 31
0.0
  0
LINE
  5
237
330
1F
100
AcDbEntity
  8
7
  6
Continuous
 62
     2
100
AcDbLine
 10
752.13
 20
246.46
 30
0.0
 11
740.055927171
 21
243.224761936
 31
0.0
  0
LWPOLYLINE
  5
239
330
1F
100
AcDbEntity
  8
7
  6
Continuous
 62
     2
100
AcDbPolyline
 90
     3
 70
   128
 43
0.0
 10
752.13
 20
246.46
 10
602.13
 20
246.46
 10
614.204072829
 20
243.224761936
  0
LINE
  5
23A
330
1F
100
AcDbEntity
  8
7
  6
Continuous
 62
     2
100
AcDbLine
 10
602.13
 20
246.46
 30
0.0
 11
614.204072829
 21
249.695238064
 31
0.0
  0
LINE
  5
23B
330
1F
100
AcDbEntity
  8
7
  6
Continuous
 62
     2
100
AcDbLine
 10
602.13
 20
316.46
 30
0.0
 11
602.13
 21
236.46
 31
0.0
  0
MTEXT
  5
23C
330
1F
100
AcDbEntity
  8
7
  6
Continuous
 62
     2
100
AcDbMText
 10
662.13
 20
251.46
 30
0.0
 40
15.0
 41
60.0
 71
     7
 72
     1
  1
\T1.167;\W0.600;１５０
  7
KANJI8
 73
     1
 44
1.0
  0
LINE
  5
23D
330
1F
100
AcDbEntity
  8
7
  6
Continuous
 62
     2
100
AcDbLine
 10
602.13
 20
246.46
 30
0.0
 11
590.055927171
 21
249.695238064
 31
0.0
  0
LINE
  5
23E
330
1F
100
AcDbEntity
  8
7
  6
Continuous
 62
     2
100
AcDbLine
 10
602.13
 20
246.46
 30
0.0
 11
590.055927171
 21
243.224761936
 31
0.0
  0
LWPOLYLINE
  5
240
330
1F
100
AcDbEntity
  8
7
  6
Continuous
 62
     2
100
AcDbPolyline
 90
     3
 70
   128
 43
0.0
 10
602.13
 20
246.46
 10
482.13
 20
246.46
 10
494.204072829
 20
243.224761936
  0
LINE
  5
241
330
1F
100
AcDbEntity
  8
7
  6
Continuous
 62
     2
100
AcDbLine
 10
482.13
 20
246.46
 30
0.0
 11
494.204072829
 21
249.695238064
 31
0.0
  0
LINE
  5
242
330
1F
100
AcDbEntity
  8
7
  6
Continuous
 62
     2
100
AcDbLine
 10
482.13
 20
316.46
 30
0.0
 11
482.13
 21
236.46
 31
0.0
  0
MTEXT
  5
243
330
1F
100
AcDbEntity
  8
7
  6
Continuous
 62
     2
100
AcDbMText
 10
527.13
 20
251.46
 30
0.0
 40
15.0
 41
60.0
 71
     7
 72
     1
  1
\T1.167;\W0.600;１２０
  7
KANJI8
 73
     1
 44
1.0
  0
LINE
  5
244
330
1F
100
AcDbEntity
  8
7
  6
Continuous
 62
     2
100
AcDbLine
 10
752.13
 20
246.46
 30
0.0
 11
764.204072829
 21
243.224761936
 31
0.0
  0
LINE
  5
245
330
1F
100
AcDbEntity
  8
7
  6
Continuous
 62
     2
100
AcDbLine
 10
752.13
 20
246.46
 30
0.0
 11
764.204072829
 21
249.695238064
 31
0.0
  0
LWPOLYLINE
  5
247
330
1F
100
AcDbEntity
  8
7
  6
Continuous
 62
     2
100
AcDbPolyline
 90
     3
 70
   128
 43
0.0
 10
752.13
 20
246.46
 10
902.13
 20
246.46
 10
890.055927171
 20
249.695238064
  0
LINE
  5
248
330
1F
100
AcDbEntity
  8
7
  6
Continuous
 62
     2
100
AcDbLine
 10
902.13
 20
246.46
 30
0.0
 11
890.055927171
 21
243.224761936
 31
0.0
  0
LINE
  5
249
330
1F
100
AcDbEntity
  8
7
  6
Continuous
 62
     2
100
AcDbLine
 10
902.13
 20
316.46
 30
0.0
 11
902.13
 21
236.46
 31
0.0
  0
MTEXT
  5
24A
330
1F
100
AcDbEntity
  8
7
  6
Continuous
 62
     2
100
AcDbMText
 10
812.13
 20
251.46
 30
0.0
 40
15.0
 41
60.0
 71
     7
 72
     1
  1
\T1.167;\W0.600;１５０
  7
KANJI8
 73
     1
 44
1.0
  0
LINE
  5
24B
330
1F
100
AcDbEntity
  8
7
  6
Continuous
 62
     2
100
AcDbLine
 10
902.13
 20
246.46
 30
0.0
 11
914.204072829
 21
243.224761936
 31
0.0
  0
LINE
  5
24C
330
1F
100
AcDbEntity
  8
7
  6
Continuous
 62
     2
100
AcDbLine
 10
902.13
 20
246.46
 30
0.0
 11
914.204072829
 21
249.695238064
 31
0.0
  0
LWPOLYLINE
  5
24E
330
1F
100
AcDbEntity
  8
7
  6
Continuous
 62
     2
100
AcDbPolyline
 90
     3
 70
   128
 43
0.0
 10
902.13
 20
246.46
 10
1022.13
 20
246.46
 10
1010.055927171
 20
249.695238064
  0
LINE
  5
24F
330
1F
100
AcDbEntity
  8
7
  6
Continuous
 62
     2
100
AcDbLine
 10
1022.13
 20
246.46
 30
0.0
 11
1010.055927171
 21
243.224761936
 31
0.0
  0
LINE
  5
250
330
1F
100
AcDbEntity
  8
7
  6
Continuous
 62
     2
100
AcDbLine
 10
1022.13
 20
316.46
 30
0.0
 11
1022.13
 21
236.46
 31
0.0
  0
MTEXT
  5
251
330
1F
100
AcDbEntity
  8
7
  6
Continuous
 62
     2
100
AcDbMText
 10
947.13
 20
251.46
 30
0.0
 40
15.0
 41
60.0
 71
     7
 72
     1
  1
\T1.167;\W0.600;１２０
  7
KANJI8
 73
     1
 44
1.0
  0
LINE
  5
252
330
1F
100
AcDbEntity
  8
7
  6
Continuous
 62
     2
100
AcDbLine
 10
382.13
 20
355.26
 30
0.0
 11
382.13
 21
410.46
 31
0.0
  0
LINE
  5
253
330
1F
100
AcDbEntity
  8
7
  6
Continuous
 62
     2
100
AcDbLine
 10
382.13
 20
400.46
 30
0.0
 11
394.204072829
 21
397.224761936
 31
0.0
  0
LINE
  5
254
330
1F
100
AcDbEntity
  8
7
  6
Continuous
 62
     2
100
AcDbLine
 10
382.13
 20
400.46
 30
0.0
 11
394.204072829
 21
403.695238064
 31
0.0
  0
LWPOLYLINE
  5
256
330
1F
100
AcDbEntity
  8
7
  6
Continuous
 62
     2
100
AcDbPolyline
 90
     3
 70
   128
 43
0.0
 10
382.13
 20
400.46
 10
1122.13
 20
400.46
 10
1110.055927171
 20
403.695238064
  0
LINE
  5
257
330
1F
100
AcDbEntity
  8
7
  6
Continuous
 62
     2
100
AcDbLine
 10
1122.13
 20
400.46
 30
0.0
 11
1110.055927171
 21
397.224761936
 31
0.0
  0
LINE
  5
258
330
1F
100
AcDbEntity
  8
7
  6
Continuous
 62
     2
100
AcDbLine
 10
1122.13
 20
355.26
 30
0.0
 11
1122.13
 21
410.46
 31
0.0
  0
MTEXT
  5
259
330
1F
100
AcDbEntity
  8
7
  6
Continuous
 62
     2
100
AcDbMText
 10
737.13
 20
405.46
 30
0.0
 40
15.0
 41
60.0
 71
     7
 72
     1
  1
\T1.167;\W0.600;７４０
  7
KANJI8
 73
     1
 44
1.0
  0
LINE
  5
25A
330
1F
100
AcDbEntity
  8
7
  6
Continuous
 62
     2
100
AcDbLine
 10
1121.93
 20
355.46
 30
0.0
 11
1162.13
 21
355.46
 31
0.0
  0
LINE
  5
25B
330
1F
100
AcDbEntity
  8
7
  6
Continuous
 62
     2
100
AcDbLine
 10
1152.13
 20
355.46
 30
0.0
 11
1148.894761936
 21
343.385927171
 31
0.0
  0
LINE
  5
25C
330
1F
100
AcDbEntity
  8
7
  6
Continuous
 62
     2
100
AcDbLine
 10
1152.13
 20
355.46
 30
0.0
 11
1155.365238064
 21
343.385927171
 31
0.0
  0
LWPOLYLINE
  5
25E
330
1F
100
AcDbEntity
  8
7
  6
Continuous
 62
     2
100
AcDbPolyline
 90
     3
 70
   128
 43
0.0
 10
1152.13
 20
355.46
 10
1152.13
 20
271.46
 10
1155.365238064
 20
283.534072829
  0
LINE
  5
25F
330
1F
100
AcDbEntity
  8
7
  6
Continuous
 62
     2
100
AcDbLine
 10
1152.13
 20
271.46
 30
0.0
 11
1148.894761936
 21
283.534072829
 31
0.0
  0
LINE
  5
260
330
1F
100
AcDbEntity
  8
7
  6
Continuous
 62
     2
100
AcDbLine
 10
1121.93
 20
271.46
 30
0.0
 11
1162.13
 21
271.46
 31
0.0
  0
MTEXT
  5
261
330
1F
100
AcDbEntity
  8
7
  6
Continuous
 62
     2
100
AcDbMText
 10
1147.13
 20
303.71
 30
0.0
 40
15.0
 41
39.0
 71
     7
 72
     1
  1
\T1.167;\W0.600;８４
  7
KANJI8
 11
0.0
 21
1.0
 31
0.0
 73
     1
 44
1.0
  0
LINE
  5
262
330
1F
100
AcDbEntity
  8
7
  6
Continuous
 62
     2
100
AcDbLine
 10
173.17
 20
480.11
 30
0.0
 11
137.97
 21
480.11
 31
0.0
  0
LINE
  5
263
330
1F
100
AcDbEntity
  8
7
  6
Continuous
 62
     2
100
AcDbLine
 10
147.97
 20
480.11
 30
0.0
 11
151.205238064
 21
492.184072829
 31
0.0
  0
LINE
  5
264
330
1F
100
AcDbEntity
  8
7
  6
Continuous
 62
     2
100
AcDbLine
 10
147.97
 20
480.11
 30
0.0
 11
144.734761936
 21
492.184072829
 31
0.0
  0
LWPOLYLINE
  5
266
330
1F
100
AcDbEntity
  8
7
  6
Continuous
 62
     2
100
AcDbPolyline
 90
     3
 70
   128
 43
0.0
 10
147.97
 20
480.11
 10
147.97
 20
510.11
 10
144.734761936
 20
498.035927171
  0
LINE
  5
267
330
1F
100
AcDbEntity
  8
7
  6
Continuous
 62
     2
100
AcDbLine
 10
147.97
 20
510.11
 30
0.0
 11
151.205238064
 21
498.035927171
 31
0.0
  0
LINE
  5
268
330
1F
100
AcDbEntity
  8
7
  6
Continuous
 62
     2
100
AcDbLine
 10
222.97
 20
510.11
 30
0.0
 11
137.97
 21
510.11
 31
0.0
  0
MTEXT
  5
269
330
1F
100
AcDbEntity
  8
7
  6
Continuous
 62
     2
100
AcDbMText
 10
142.97
 20
485.36
 30
0.0
 40
15.0
 41
39.0
 71
     7
 72
     1
  1
\T1.167;\W0.600;３０
  7
KANJI8
 11
0.0
 21
1.0
 31
0.0
 73
     1
 44
1.0
  0
LINE
  5
26A
330
1F
100
AcDbEntity
  8
7
  6
Continuous
 62
     2
100
AcDbLine
 10
147.97
 20
510.11
 30
0.0
 11
151.205238064
 21
522.184072829
 31
0.0
  0
LINE
  5
26B
330
1F
100
AcDbEntity
  8
7
  6
Continuous
 62
     2
100
AcDbLine
 10
147.97
 20
510.11
 30
0.0
 11
144.734761936
 21
522.184072829
 31
0.0
  0
LWPOLYLINE
  5
26D
330
1F
100
AcDbEntity
  8
7
  6
Continuous
 62
     2
100
AcDbPolyline
 90
     3
 70
   128
 43
0.0
 10
147.97
 20
510.11
 10
147.97
 20
630.11
 10
144.734761936
 20
618.035927171
  0
LINE
  5
26E
330
1F
100
AcDbEntity
  8
7
  6
Continuous
 62
     2
100
AcDbLine
 10
147.97
 20
630.11
 30
0.0
 11
151.205238064
 21
618.035927171
 31
0.0
  0
LINE
  5
26F
330
1F
100
AcDbEntity
  8
7
  6
Continuous
 62
     2
100
AcDbLine
 10
220.97
 20
630.11
 30
0.0
 11
137.97
 21
630.11
 31
0.0
  0
MTEXT
  5
270
330
1F
100
AcDbEntity
  8
7
  6
Continuous
 62
     2
100
AcDbMText
 10
142.97
 20
555.11
 30
0.0
 40
15.0
 41
60.0
 71
     7
 72
     1
  1
\T1.167;\W0.600;１２０
  7
KANJI8
 11
0.0
 21
1.0
 31
0.0
 73
     1
 44
1.0
  0
LINE
  5
271
330
1F
100
AcDbEntity
  8
7
  6
Continuous
 62
     2
100
AcDbLine
 10
262.77
 20
480.11
 30
0.0
 11
302.97
 21
480.11
 31
0.0
  0
LINE
  5
272
330
1F
100
AcDbEntity
  8
7
  6
Continuous
 62
     2
100
AcDbLine
 10
292.97
 20
480.11
 30
0.0
 11
296.205238064
 21
492.184072829
 31
0.0
  0
LINE
  5
273
330
1F
100
AcDbEntity
  8
7
  6
Continuous
 62
     2
100
AcDbLine
 10
292.97
 20
480.11
 30
0.0
 11
289.734761936
 21
492.184072829
 31
0.0
  0
LWPOLYLINE
  5
275
330
1F
100
AcDbEntity
  8
7
  6
Continuous
 62
     2
100
AcDbPolyline
 90
     3
 70
   128
 43
0.0
 10
292.97
 20
480.11
 10
292.97
 20
730.61
 10
289.734761936
 20
718.535927171
  0
LINE
  5
276
330
1F
100
AcDbEntity
  8
7
  6
Continuous
 62
     2
100
AcDbLine
 10
292.97
 20
730.61
 30
0.0
 11
296.205238064
 21
718.535927171
 31
0.0
  0
LINE
  5
277
330
1F
100
AcDbEntity
  8
7
  6
Continuous
 62
     2
100
AcDbLine
 10
214.97
 20
730.61
 30
0.0
 11
302.97
 21
730.61
 31
0.0
  0
MTEXT
  5
278
330
1F
100
AcDbEntity
  8
7
  6
Continuous
 62
     2
100
AcDbMText
 10
287.97
 20
579.86
 30
0.0
 40
15.0
 41
102.0
 71
     7
 72
     1
  1
\T1.167;\W0.600;２５０．５
  7
KANJI8
 11
0.0
 21
1.0
 31
0.0
 73
     1
 44
1.0
  0
LINE
  5
279
330
1F
100
AcDbEntity
  8
7
  6
Continuous
 62
     2
100
AcDbLine
 10
297.97
 20
480.11
 30
0.0
 11
332.97
 21
480.11
 31
0.0
  0
LINE
  5
27A
330
1F
100
AcDbEntity
  8
7
  6
Continuous
 62
     2
100
AcDbLine
 10
322.97
 20
480.11
 30
0.0
 11
326.205238064
 21
492.184072829
 31
0.0
  0
LINE
  5
27B
330
1F
100
AcDbEntity
  8
7
  6
Continuous
 62
     2
100
AcDbLine
 10
322.97
 20
480.11
 30
0.0
 11
319.734761936
 21
492.184072829
 31
0.0
  0
LWPOLYLINE
  5
27D
330
1F
100
AcDbEntity
  8
7
  6
Continuous
 62
     2
100
AcDbPolyline
 90
     3
 70
   128
 43
0.0
 10
322.97
 20
480.11
 10
322.97
 20
760.61
 10
319.734761936
 20
748.535927171
  0
LINE
  5
27E
330
1F
100
AcDbEntity
  8
7
  6
Continuous
 62
     2
100
AcDbLine
 10
322.97
 20
760.61
 30
0.0
 11
326.205238064
 21
748.535927171
 31
0.0
  0
LINE
  5
27F
330
1F
100
AcDbEntity
  8
7
  6
Continuous
 62
     2
100
AcDbLine
 10
240.469984741
 20
760.61
 30
0.0
 11
332.97
 21
760.61
 31
0.0
  0
MTEXT
  5
280
330
1F
100
AcDbEntity
  8
7
  6
Continuous
 62
     2
100
AcDbMText
 10
317.97
 20
594.86
 30
0.0
 40
15.0
 41
102.0
 71
     7
 72
     1
  1
\T1.167;\W0.600;２８０．５
  7
KANJI8
 11
0.0
 21
1.0
 31
0.0
 73
     1
 44
1.0
  0
LINE
  5
281
330
1F
100
AcDbEntity
  8
4
  6
Continuous
 62
     1
100
AcDbLine
 10
1097.13
 20
565.817106781
 30
0.0
 11
1097.13
 21
715.11
 31
0.0
  0
LINE
  5
282
330
1F
100
AcDbEntity
  8
4
  6
Continuous
 62
     1
100
AcDbLine
 10
1122.13
 20
545.31
 30
0.0
 11
1122.13
 21
720.11
 31
0.0
  0
ARC
  5
283
330
1F
100
AcDbEntity
  8
4
  6
Continuous
 62
     1
100
AcDbCircle
 10
1116.93
 20
545.31
 30
0.0
 40
5.2
100
AcDbArc
 50
270.0
 51
0.0
  0
LINE
  5
284
330
1F
100
AcDbEntity
  8
4
  6
LTYPE2
 62
     2
100
AcDbLine
 10
1119.53
 20
545.31
 30
0.0
 11
1119.53
 21
720.11
 31
0.0
  0
ARC
  5
285
330
1F
100
AcDbEntity
  8
4
  6
Continuous
 62
     1
100
AcDbCircle
 10
1116.93
 20
545.31
 30
0.0
 40
2.6
100
AcDbArc
 50
270.0
 51
0.0
  0
LINE
  5
286
330
1F
100
AcDbEntity
  8
4
  6
Continuous
 62
     1
100
AcDbLine
 10
1122.13
 20
545.31
 30
0.0
 11
1119.53
 21
545.31
 31
0.0
  0
LINE
  5
287
330
1F
100
AcDbEntity
  8
4
  6
Continuous
 62
     1
100
AcDbLine
 10
1116.93
 20
542.71
 30
0.0
 11
1116.93
 21
540.11
 31
0.0
  0
LINE
  5
288
330
1F
100
AcDbEntity
  8
4
  6
Continuous
 62
     1
100
AcDbLine
 10
1097.13
 20
565.817106781
 30
0.0
 11
1118.079391535
 21
544.867715246
 31
0.0
  0
ARC
  5
289
330
1F
100
AcDbEntity
  8
4
  6
Continuous
 62
     1
100
AcDbCircle
 10
1119.53
 20
542.71
 30
0.0
 40
2.6
100
AcDbArc
 50
90.0
 51
123.912510789
  0
LWPOLYLINE
  5
28C
330
1F
100
AcDbEntity
  8
4
  6
Continuous
 62
     1
100
AcDbPolyline
 90
     3
 70
   128
 43
0.0
 10
1096.422893219
 20
565.11
 42
0.0
 10
1117.372284754
 20
544.160608465
 42
0.149060753
 10
1116.93
 20
542.71
 42
0.0
  0
LINE
  5
28D
330
1F
100
AcDbEntity
  8
4
  6
Continuous
 62
     1
100
AcDbLine
 10
407.13
 20
505.817106781
 30
0.0
 11
407.13
 21
655.11
 31
0.0
  0
LINE
  5
28E
330
1F
100
AcDbEntity
  8
4
  6
Continuous
 62
     1
100
AcDbLine
 10
382.13
 20
485.31
 30
0.0
 11
382.13
 21
660.11
 31
0.0
  0
ARC
  5
28F
330
1F
100
AcDbEntity
  8
4
  6
Continuous
 62
     1
100
AcDbCircle
 10
387.33
 20
485.31
 30
0.0
 40
5.2
100
AcDbArc
 50
180.0
 51
270.0
  0
LINE
  5
290
330
1F
100
AcDbEntity
  8
4
  6
LTYPE2
 62
     2
100
AcDbLine
 10
384.73
 20
485.31
 30
0.0
 11
384.73
 21
660.11
 31
0.0
  0
ARC
  5
291
330
1F
100
AcDbEntity
  8
4
  6
Continuous
 62
     1
100
AcDbCircle
 10
387.33
 20
485.31
 30
0.0
 40
2.6
100
AcDbArc
 50
180.0
 51
270.0
  0
LINE
  5
292
330
1F
100
AcDbEntity
  8
4
  6
Continuous
 62
     1
100
AcDbLine
 10
382.13
 20
485.31
 30
0.0
 11
384.73
 21
485.31
 31
0.0
  0
LINE
  5
293
330
1F
100
AcDbEntity
  8
4
  6
Continuous
 62
     1
100
AcDbLine
 10
387.33
 20
482.71
 30
0.0
 11
387.33
 21
480.11
 31
0.0
  0
LINE
  5
294
330
1F
100
AcDbEntity
  8
4
  6
Continuous
 62
     1
100
AcDbLine
 10
407.13
 20
505.817106781
 30
0.0
 11
386.180608465
 21
484.867715246
 31
0.0
  0
ARC
  5
295
330
1F
100
AcDbEntity
  8
4
  6
Continuous
 62
     1
100
AcDbCircle
 10
384.73
 20
482.71
 30
0.0
 40
2.6
100
AcDbArc
 50
56.087489211
 51
90.0
  0
LWPOLYLINE
  5
298
330
1F
100
AcDbEntity
  8
4
  6
Continuous
 62
     1
100
AcDbPolyline
 90
     3
 70
   128
 43
0.0
 10
407.837106781
 20
505.11
 42
0.0
 10
386.887715246
 20
484.160608465
 42
-0.149060753
 10
387.33
 20
482.71
 42
0.0
  0
LINE
  5
299
330
1F
100
AcDbEntity
  8
4
  6
Continuous
 62
     1
100
AcDbLine
 10
752.13
 20
565.11
 30
0.0
 11
1096.422893219
 21
565.11
 31
0.0
  0
LINE
  5
29A
330
1F
100
AcDbEntity
  8
4
  6
Continuous
 62
     1
100
AcDbLine
 10
752.13
 20
540.11
 30
0.0
 11
1116.93
 21
540.11
 31
0.0
  0
LINE
  5
29B
330
1F
100
AcDbEntity
  8
4
  6
LTYPE2
 62
     2
100
AcDbLine
 10
752.13
 20
542.71
 30
0.0
 11
1116.93
 21
542.71
 31
0.0
  0
LINE
  5
29C
330
1F
100
AcDbEntity
  8
4
  6
Continuous
 62
     1
100
AcDbLine
 10
752.13
 20
505.11
 30
0.0
 11
407.837106781
 21
505.11
 31
0.0
  0
LINE
  5
29D
330
1F
100
AcDbEntity
  8
4
  6
Continuous
 62
     1
100
AcDbLine
 10
752.13
 20
480.11
 30
0.0
 11
387.33
 21
480.11
 31
0.0
  0
LINE
  5
29E
330
1F
100
AcDbEntity
  8
4
  6
LTYPE2
 62
     2
100
AcDbLine
 10
752.13
 20
482.71
 30
0.0
 11
387.33
 21
482.71
 31
0.0
  0
LINE
  5
29F
330
1F
100
AcDbEntity
  8
7
  6
Continuous
 62
     2
100
AcDbLine
 10
782.13
 20
540.11
 30
0.0
 11
778.894761936
 21
528.035927171
 31
0.0
  0
LINE
  5
2A0
330
1F
100
AcDbEntity
  8
7
  6
Continuous
 62
     2
100
AcDbLine
 10
782.13
 20
540.11
 30
0.0
 11
785.365238064
 21
528.035927171
 31
0.0
  0
LWPOLYLINE
  5
2A2
330
1F
100
AcDbEntity
  8
7
  6
Continuous
 62
     2
100
AcDbPolyline
 90
     3
 70
   128
 43
0.0
 10
782.13
 20
540.11
 10
782.13
 20
480.11
 10
785.365238064
 20
492.184072829
  0
LINE
  5
2A3
330
1F
100
AcDbEntity
  8
7
  6
Continuous
 62
     2
100
AcDbLine
 10
782.13
 20
480.11
 30
0.0
 11
778.894761936
 21
492.184072829
 31
0.0
  0
LINE
  5
2A4
330
1F
100
AcDbEntity
  8
7
  6
Continuous
 62
     2
100
AcDbLine
 10
757.13
 20
480.11
 30
0.0
 11
792.13
 21
480.11
 31
0.0
  0
MTEXT
  5
2A5
330
1F
100
AcDbEntity
  8
7
  6
Continuous
 62
     2
100
AcDbMText
 10
777.13
 20
500.36
 30
0.0
 40
15.0
 41
39.0
 71
     7
 72
     1
  1
\T1.167;\W0.600;６０
  7
KANJI8
 11
0.0
 21
1.0
 31
0.0
 73
     1
 44
1.0
  0
CIRCLE
  5
2A6
330
1F
100
AcDbEntity
  8
4
  6
Continuous
 62
     1
100
AcDbCircle
 10
397.13
 20
535.11
 30
0.0
 40
3.6
  0
LINE
  5
2A7
330
1F
100
AcDbEntity
  8
3
  6
LTYPE3
 62
     2
100
AcDbLine
 10
752.13
 20
702.09
 30
0.0
 11
752.13
 21
449.55
 31
0.0
  0
LINE
  5
2A8
330
1F
100
AcDbEntity
  8
2
  6
LTYPE1
 62
     2
100
AcDbLine
 10
1092.13
 20
857.61
 30
0.0
 11
412.13
 21
857.61
 31
0.0
  0
LINE
  5
2A9
330
1F
100
AcDbEntity
  8
2
  6
LTYPE1
 62
     2
100
AcDbLine
 10
1092.13
 20
845.664413639
 30
0.0
 11
412.13
 21
845.664413639
 31
0.0
  0
LINE
  5
2AA
330
1F
100
AcDbEntity
  8
2
  6
LTYPE1
 62
     2
100
AcDbLine
 10
412.13
 20
857.61
 30
0.0
 11
412.13
 21
603.11
 31
0.0
  0
LINE
  5
2AB
330
1F
100
AcDbEntity
  8
2
  6
LTYPE1
 62
     2
100
AcDbLine
 10
1092.13
 20
857.61
 30
0.0
 11
1092.13
 21
603.11
 31
0.0
  0
LINE
  5
2AC
330
1F
100
AcDbEntity
  8
2
  6
LTYPE1
 62
     2
100
AcDbLine
 10
1092.13
 20
603.11
 30
0.0
 11
412.13
 21
603.11
 31
0.0
  0
LINE
  5
2AD
330
1F
100
AcDbEntity
  8
2
  6
LTYPE1
 62
     2
100
AcDbLine
 10
98.97
 20
845.664413639
 30
0.0
 11
135.22
 21
603.11
 31
0.0
  0
ARC
  5
2AE
330
1F
100
AcDbEntity
  8
2
  6
LTYPE1
 62
     2
100
AcDbCircle
 10
217.97
 20
258.90782661
 30
0.0
 40
598.70217339
100
AcDbArc
 50
78.535352424
 51
101.464647576
  0
LINE
  5
2AF
330
1F
100
AcDbEntity
  8
2
  6
LTYPE1
 62
     2
100
AcDbLine
 10
135.22
 20
603.11
 30
0.0
 11
269.37
 21
603.11
 31
0.0
  0
LINE
  5
2B0
330
1F
100
AcDbEntity
  8
2
  6
LTYPE1
 62
     2
100
AcDbLine
 10
336.97
 20
845.664413639
 30
0.0
 11
307.36010799
 21
647.54
 31
0.0
  0
ARC
  5
2B1
330
1F
100
AcDbEntity
  8
4
  6
LTYPE1
 62
     2
100
AcDbCircle
 10
1301.29
 20
730.61
 30
0.0
 40
170.0
100
AcDbArc
 50
152.756437308
 51
152.832308487
  0
CIRCLE
  5
2B2
330
1F
100
AcDbEntity
  8
4
  6
Continuous
 62
     1
100
AcDbCircle
 10
1261.29
 20
690.11
 30
0.0
 40
4.2
  0
CIRCLE
  5
2B3
330
1F
100
AcDbEntity
  8
4
  6
Continuous
 62
     1
100
AcDbCircle
 10
1261.29
 20
570.11
 30
0.0
 40
4.2
  0
LINE
  5
2B4
330
1F
100
AcDbEntity
  8
4
  6
LTYPE2
 62
     2
100
AcDbLine
 10
1216.29
 20
565.11
 30
0.0
 11
1218.89
 21
565.11
 31
0.0
  0
LINE
  5
2B5
330
1F
100
AcDbEntity
  8
4
  6
LTYPE2
 62
     2
100
AcDbLine
 10
1303.69
 20
565.11
 30
0.0
 11
1306.29
 21
565.11
 31
0.0
  0
ARC
  5
2B6
330
1F
100
AcDbEntity
  8
4
  6
Continuous
 62
     1
100
AcDbCircle
 10
1301.09
 20
545.31
 30
0.0
 40
5.2
100
AcDbArc
 50
270.0
 51
0.0
  0
LINE
  5
2B7
330
1F
100
AcDbEntity
  8
4
  6
Continuous
 62
     1
100
AcDbLine
 10
1306.29
 20
545.31
 30
0.0
 11
1303.69
 21
545.31
 31
0.0
  0
LINE
  5
2B8
330
1F
100
AcDbEntity
  8
4
  6
Continuous
 62
     1
100
AcDbLine
 10
1301.09
 20
542.709984741
 30
0.0
 11
1301.09
 21
540.11
 31
0.0
  0
ARC
  5
2B9
330
1F
100
AcDbEntity
  8
4
  6
Continuous
 62
     1
100
AcDbCircle
 10
1301.09
 20
545.31
 30
0.0
 40
2.6
100
AcDbArc
 50
270.0
 51
0.0
  0
ARC
  5
2BA
330
1F
100
AcDbEntity
  8
4
  6
Continuous
 62
     1
100
AcDbCircle
 10
1303.69
 20
542.71
 30
0.0
 40
2.6
100
AcDbArc
 50
90.0
 51
180.000336255
  0
ARC
  5
2BB
330
1F
100
AcDbEntity
  8
4
  6
Continuous
 62
     1
100
AcDbCircle
 10
1221.49
 20
545.31
 30
0.0
 40
5.2
100
AcDbArc
 50
180.0
 51
270.0
  0
LINE
  5
2BC
330
1F
100
AcDbEntity
  8
4
  6
Continuous
 62
     1
100
AcDbLine
 10
1216.29
 20
545.31
 30
0.0
 11
1218.89
 21
545.31
 31
0.0
  0
LINE
  5
2BD
330
1F
100
AcDbEntity
  8
4
  6
Continuous
 62
     1
100
AcDbLine
 10
1221.49
 20
542.709984741
 30
0.0
 11
1221.49
 21
540.11
 31
0.0
  0
ARC
  5
2BE
330
1F
100
AcDbEntity
  8
4
  6
Continuous
 62
     1
100
AcDbCircle
 10
1221.49
 20
545.31
 30
0.0
 40
2.6
100
AcDbArc
 50
180.0
 51
270.0
  0
ARC
  5
2BF
330
1F
100
AcDbEntity
  8
4
  6
Continuous
 62
     1
100
AcDbCircle
 10
1218.89
 20
542.71
 30
0.0
 40
2.6
100
AcDbArc
 50
359.999663745
 51
90.0
  0
LINE
  5
2C0
330
1F
100
AcDbEntity
  8
4
  6
LTYPE2
 62
     2
100
AcDbLine
 10
1221.49
 20
542.71
 30
0.0
 11
1301.09
 21
542.71
 31
0.0
  0
LINE
  5
2C1
330
1F
100
AcDbEntity
  8
4
  6
Continuous
 62
     1
100
AcDbLine
 10
1221.49
 20
540.11
 30
0.0
 11
1301.09
 21
540.11
 31
0.0
  0
LINE
  5
2C2
330
1F
100
AcDbEntity
  8
5
  6
Continuous
 62
     1
100
AcDbLine
 10
1303.44
 20
725.61
 30
0.0
 11
1300.84
 21
725.61
 31
0.0
  0
ARC
  5
2C3
330
1F
100
AcDbEntity
  8
5
  6
Continuous
 62
     1
100
AcDbCircle
 10
1278.79
 20
735.61
 30
0.0
 40
25.0
100
AcDbArc
 50
0.0
 51
89.999950547
  0
LINE
  5
2C4
330
1F
100
AcDbEntity
  8
5
  6
Continuous
 62
     1
100
AcDbLine
 10
1243.790015259
 20
760.61
 30
0.0
 11
1278.790021579
 21
760.61
 31
0.0
  0
ARC
  5
2C5
330
1F
100
AcDbEntity
  8
5
  6
Continuous
 62
     1
100
AcDbCircle
 10
1243.79
 20
735.61
 30
0.0
 40
25.0
100
AcDbArc
 50
89.999965027
 51
180.0
  0
LINE
  5
2C6
330
1F
100
AcDbEntity
  8
5
  6
Continuous
 62
     1
100
AcDbLine
 10
1303.79
 20
735.61
 30
0.0
 11
1303.79
 21
730.209973571
 31
0.0
  0
ARC
  5
2C7
330
1F
100
AcDbEntity
  8
5
  6
Continuous
 62
     1
100
AcDbCircle
 10
1301.79
 20
730.21
 30
0.0
 40
2.0
100
AcDbArc
 50
270.0
 51
359.999242865
  0
LINE
  5
2C8
330
1F
100
AcDbEntity
  8
5
  6
Continuous
 62
     1
100
AcDbLine
 10
1300.840030518
 20
728.21
 30
0.0
 11
1301.79
 21
728.21
 31
0.0
  0
ARC
  5
2C9
330
1F
100
AcDbEntity
  8
5
  6
Continuous
 62
     1
100
AcDbCircle
 10
1300.84
 20
725.61
 30
0.0
 40
2.6
100
AcDbArc
 50
89.99932749
 51
270.0
  0
LINE
  5
2CA
330
1F
100
AcDbEntity
  8
5
  6
Continuous
 62
     1
100
AcDbLine
 10
1219.14
 20
725.61
 30
0.0
 11
1221.74
 21
725.61
 31
0.0
  0
LINE
  5
2CB
330
1F
100
AcDbEntity
  8
5
  6
Continuous
 62
     1
100
AcDbLine
 10
1221.739969482
 20
728.21
 30
0.0
 11
1220.79
 21
728.21
 31
0.0
  0
ARC
  5
2CC
330
1F
100
AcDbEntity
  8
5
  6
Continuous
 62
     1
100
AcDbCircle
 10
1221.74
 20
725.61
 30
0.0
 40
2.6
100
AcDbArc
 50
270.0
 51
90.00067251
  0
LWPOLYLINE
  5
2CF
330
1F
100
AcDbEntity
  8
5
  6
Continuous
 62
     1
100
AcDbPolyline
 90
     3
 70
   128
 43
0.0
 10
1218.79
 20
735.61
 42
0.0
 10
1218.79
 20
730.21
 42
0.414213562
 10
1220.79
 20
728.21
 42
0.0
  0
LINE
  5
2D0
330
1F
100
AcDbEntity
  8
4
  6
LTYPE2
 62
     2
100
AcDbLine
 10
1218.89
 20
720.11
 30
0.0
 11
1218.89
 21
545.31
 31
0.0
  0
LINE
  5
2D1
330
1F
100
AcDbEntity
  8
5
  6
Continuous
 62
     1
100
AcDbLine
 10
1221.74
 20
725.61
 30
0.0
 11
1221.74
 21
720.11
 31
0.0
  0
LINE
  5
2D2
330
1F
100
AcDbEntity
  8
5
  6
Continuous
 62
     1
100
AcDbLine
 10
1219.14
 20
725.61
 30
0.0
 11
1219.14
 21
720.11
 31
0.0
  0
LINE
  5
2D3
330
1F
100
AcDbEntity
  8
4
  6
LTYPE2
 62
     2
100
AcDbLine
 10
1303.69
 20
720.11
 30
0.0
 11
1303.69
 21
545.31
 31
0.0
  0
LINE
  5
2D4
330
1F
100
AcDbEntity
  8
5
  6
Continuous
 62
     1
100
AcDbLine
 10
1300.84
 20
725.61
 30
0.0
 11
1300.84
 21
720.11
 31
0.0
  0
LINE
  5
2D5
330
1F
100
AcDbEntity
  8
5
  6
Continuous
 62
     1
100
AcDbLine
 10
1303.44
 20
725.61
 30
0.0
 11
1303.44
 21
720.11
 31
0.0
  0
ARC
  5
2D6
330
1F
100
AcDbEntity
  8
5
  6
Continuous
 62
     1
100
AcDbCircle
 10
1261.29
 20
695.11
 30
0.0
 40
20.0
100
AcDbArc
 50
62.560759849
 51
117.439240151
  0
LINE
  5
2D7
330
1F
100
AcDbEntity
  8
5
  6
LTYPE2
 62
     2
100
AcDbLine
 10
1221.74
 20
720.11
 30
0.0
 11
1221.74
 21
580.11
 31
0.0
  0
LINE
  5
2D8
330
1F
100
AcDbEntity
  8
5
  6
LTYPE2
 62
     2
100
AcDbLine
 10
1219.14
 20
720.11
 30
0.0
 11
1219.14
 21
580.11
 31
0.0
  0
LINE
  5
2D9
330
1F
100
AcDbEntity
  8
5
  6
LTYPE2
 62
     2
100
AcDbLine
 10
1300.84
 20
720.11
 30
0.0
 11
1300.84
 21
580.11
 31
0.0
  0
LINE
  5
2DA
330
1F
100
AcDbEntity
  8
5
  6
LTYPE2
 62
     2
100
AcDbLine
 10
1303.44
 20
720.11
 30
0.0
 11
1303.44
 21
580.11
 31
0.0
  0
ARC
  5
2DB
330
1F
100
AcDbEntity
  8
5
  6
LTYPE2
 62
     2
100
AcDbCircle
 10
1261.29
 20
695.11
 30
0.0
 40
20.0
100
AcDbArc
 50
359.99993818
 51
62.560759849
  0
ARC
  5
2DC
330
1F
100
AcDbEntity
  8
5
  6
LTYPE2
 62
     2
100
AcDbCircle
 10
1261.29
 20
695.11
 30
0.0
 40
20.0
100
AcDbArc
 50
117.439240151
 51
180.000097746
  0
LINE
  5
2DD
330
1F
100
AcDbEntity
  8
4
  6
Continuous
 62
     1
100
AcDbLine
 10
1216.29
 20
720.11
 30
0.0
 11
1216.29
 21
545.31
 31
0.0
  0
LINE
  5
2DE
330
1F
100
AcDbEntity
  8
4
  6
Continuous
 62
     1
100
AcDbLine
 10
1216.29
 20
720.11
 30
0.0
 11
1244.267955469
 21
720.11
 31
0.0
  0
ARC
  5
2DF
330
1F
100
AcDbEntity
  8
4
  6
Continuous
 62
     1
100
AcDbCircle
 10
1261.29
 20
730.61
 30
0.0
 40
20.0
100
AcDbArc
 50
211.668243254
 51
328.331756746
  0
LWPOLYLINE
  5
2E1
330
1F
100
AcDbEntity
  8
4
  6
Continuous
 62
     1
100
AcDbPolyline
 90
     3
 70
   128
 43
0.0
 10
1278.312044531
 20
720.11
 10
1306.29
 20
720.11
 10
1306.29
 20
545.31
  0
LINE
  5
2E2
330
1F
100
AcDbEntity
  8
5
  6
LTYPE2
 62
     2
100
AcDbLine
 10
1281.29
 20
630.109969482
 30
0.0
 11
1281.29
 21
695.109978421
 31
0.0
  0
ARC
  5
2E3
330
1F
100
AcDbEntity
  8
5
  6
LTYPE2
 62
     2
100
AcDbCircle
 10
1261.29
 20
630.11
 30
0.0
 40
20.0
100
AcDbArc
 50
180.00012364
 51
359.999912574
  0
LINE
  5
2E4
330
1F
100
AcDbEntity
  8
5
  6
LTYPE2
 62
     2
100
AcDbLine
 10
1241.29
 20
695.10996588
 30
0.0
 11
1241.29
 21
630.109956842
 31
0.0
  0
LINE
  5
2E5
330
1F
100
AcDbEntity
  8
5
  6
LTYPE2
 62
     2
100
AcDbLine
 10
1278.610508076
 20
580.11
 30
0.0
 11
1303.44
 21
580.11
 31
0.0
  0
ARC
  5
2E6
330
1F
100
AcDbEntity
  8
5
  6
LTYPE2
 62
     2
100
AcDbCircle
 10
1261.29
 20
570.11
 30
0.0
 40
20.0
100
AcDbArc
 50
30.0
 51
150.0
  0
LINE
  5
2E7
330
1F
100
AcDbEntity
  8
5
  6
LTYPE2
 62
     2
100
AcDbLine
 10
1219.14
 20
580.11
 30
0.0
 11
1243.969491924
 21
580.11
 31
0.0
  0
CIRCLE
  5
2E8
330
1F
100
AcDbEntity
  8
3
  6
Continuous
 62
     2
100
AcDbCircle
 10
1261.29
 20
730.61
 30
0.0
 40
6.5
  0
LWPOLYLINE
  5
2EA
330
1F
100
AcDbEntity
  8
3
  6
Continuous
 62
     2
100
AcDbPolyline
 90
     6
 70
   129
 43
0.0
 10
1265.09
 20
737.11
 10
1257.49
 20
737.11
 10
1253.79
 20
730.61
 10
1257.49
 20
724.11
 10
1265.09
 20
724.11
 10
1268.79
 20
730.61
  0
CIRCLE
  5
2EB
330
1F
100
AcDbEntity
  8
3
  6
Continuous
 62
     2
100
AcDbCircle
 10
1261.29
 20
730.61
 30
0.0
 40
7.7
  0
CIRCLE
  5
2EC
330
1F
100
AcDbEntity
  8
3
  6
Continuous
 62
     2
100
AcDbCircle
 10
1261.29
 20
730.61
 30
0.0
 40
8.5
  0
LWPOLYLINE
  5
2EE
330
1F
100
AcDbEntity
  8
3
  6
Continuous
 62
     2
100
AcDbPolyline
 90
     4
 70
   129
 43
0.0
 10
1216.29
 20
703.81
 10
1216.29
 20
716.41
 10
1214.69
 20
716.41
 10
1214.69
 20
703.81
  0
LWPOLYLINE
  5
2F0
330
1F
100
AcDbEntity
  8
3
  6
Continuous
 62
     2
100
AcDbPolyline
 90
     4
 70
   128
 43
0.0
 10
1214.69
 20
716.21
 10
1213.19
 20
716.21
 10
1213.19
 20
704.01
 10
1214.69
 20
704.01
  0
LINE
  5
2F1
330
1F
100
AcDbEntity
  8
3
  6
Continuous
 62
     2
100
AcDbLine
 10
1209.69
 20
704.31
 30
0.0
 11
1213.19
 21
704.31
 31
0.0
  0
LINE
  5
2F2
330
1F
100
AcDbEntity
  8
3
  6
Continuous
 62
     2
100
AcDbLine
 10
1213.19
 20
715.91
 30
0.0
 11
1209.69
 21
715.91
 31
0.0
  0
LINE
  5
2F3
330
1F
100
AcDbEntity
  8
3
  6
Continuous
 62
     2
100
AcDbLine
 10
1213.19
 20
713.01
 30
0.0
 11
1209.69
 21
713.01
 31
0.0
  0
LINE
  5
2F4
330
1F
100
AcDbEntity
  8
3
  6
Continuous
 62
     2
100
AcDbLine
 10
1213.19
 20
707.21
 30
0.0
 11
1209.69
 21
707.21
 31
0.0
  0
LINE
  5
2F5
330
1F
100
AcDbEntity
  8
3
  6
Continuous
 62
     2
100
AcDbLine
 10
1209.19
 20
705.81
 30
0.0
 11
1209.19
 21
714.41
 31
0.0
  0
ARC
  5
2F6
330
1F
100
AcDbEntity
  8
3
  6
Continuous
 62
     2
100
AcDbCircle
 10
1217.89
 20
710.11
 30
0.0
 40
8.7
100
AcDbArc
 50
160.4
 51
199.6
  0
ARC
  5
2F7
330
1F
100
AcDbEntity
  8
3
  6
Continuous
 62
     2
100
AcDbCircle
 10
1211.59
 20
714.51
 30
0.0
 40
2.4
100
AcDbArc
 50
143.6
 51
218.1
  0
ARC
  5
2F8
330
1F
100
AcDbEntity
  8
3
  6
Continuous
 62
     2
100
AcDbCircle
 10
1211.59
 20
705.71
 30
0.0
 40
2.4
100
AcDbArc
 50
141.9
 51
216.4
  0
LINE
  5
2F9
330
1F
100
AcDbEntity
  8
3
  6
Continuous
 62
     2
100
AcDbLine
 10
1213.19
 20
710.11
 30
0.0
 11
1214.69
 21
710.976025404
 31
0.0
  0
LINE
  5
2FA
330
1F
100
AcDbEntity
  8
3
  6
Continuous
 62
     2
100
AcDbLine
 10
1214.69
 20
710.11
 30
0.0
 11
1213.19
 21
709.243974596
 31
0.0
  0
LWPOLYLINE
  5
2FC
330
1F
100
AcDbEntity
  8
3
  6
Continuous
 62
     2
100
AcDbPolyline
 90
     4
 70
   129
 43
0.0
 10
1216.29
 20
588.81
 10
1216.29
 20
601.41
 10
1214.69
 20
601.41
 10
1214.69
 20
588.81
  0
LWPOLYLINE
  5
2FE
330
1F
100
AcDbEntity
  8
3
  6
Continuous
 62
     2
100
AcDbPolyline
 90
     4
 70
   128
 43
0.0
 10
1214.69
 20
601.21
 10
1213.19
 20
601.21
 10
1213.19
 20
589.01
 10
1214.69
 20
589.01
  0
LINE
  5
2FF
330
1F
100
AcDbEntity
  8
3
  6
Continuous
 62
     2
100
AcDbLine
 10
1209.69
 20
589.31
 30
0.0
 11
1213.19
 21
589.31
 31
0.0
  0
LINE
  5
300
330
1F
100
AcDbEntity
  8
3
  6
Continuous
 62
     2
100
AcDbLine
 10
1213.19
 20
600.91
 30
0.0
 11
1209.69
 21
600.91
 31
0.0
  0
LINE
  5
301
330
1F
100
AcDbEntity
  8
3
  6
Continuous
 62
     2
100
AcDbLine
 10
1213.19
 20
598.01
 30
0.0
 11
1209.69
 21
598.01
 31
0.0
  0
LINE
  5
302
330
1F
100
AcDbEntity
  8
3
  6
Continuous
 62
     2
100
AcDbLine
 10
1213.19
 20
592.21
 30
0.0
 11
1209.69
 21
592.21
 31
0.0
  0
LINE
  5
303
330
1F
100
AcDbEntity
  8
3
  6
Continuous
 62
     2
100
AcDbLine
 10
1209.19
 20
590.81
 30
0.0
 11
1209.19
 21
599.41
 31
0.0
  0
ARC
  5
304
330
1F
100
AcDbEntity
  8
3
  6
Continuous
 62
     2
100
AcDbCircle
 10
1217.89
 20
595.11
 30
0.0
 40
8.7
100
AcDbArc
 50
160.4
 51
199.6
  0
ARC
  5
305
330
1F
100
AcDbEntity
  8
3
  6
Continuous
 62
     2
100
AcDbCircle
 10
1211.59
 20
599.51
 30
0.0
 40
2.4
100
AcDbArc
 50
143.6
 51
218.1
  0
ARC
  5
306
330
1F
100
AcDbEntity
  8
3
  6
Continuous
 62
     2
100
AcDbCircle
 10
1211.59
 20
590.71
 30
0.0
 40
2.4
100
AcDbArc
 50
141.9
 51
216.4
  0
LINE
  5
307
330
1F
100
AcDbEntity
  8
3
  6
Continuous
 62
     2
100
AcDbLine
 10
1213.19
 20
595.11
 30
0.0
 11
1214.69
 21
595.976025404
 31
0.0
  0
LINE
  5
308
330
1F
100
AcDbEntity
  8
3
  6
Continuous
 62
     2
100
AcDbLine
 10
1214.69
 20
595.11
 30
0.0
 11
1213.19
 21
594.243974596
 31
0.0
  0
LWPOLYLINE
  5
30A
330
1F
100
AcDbEntity
  8
3
  6
Continuous
 62
     2
100
AcDbPolyline
 90
     4
 70
   129
 43
0.0
 10
1306.29
 20
601.41
 10
1306.29
 20
588.81
 10
1307.89
 20
588.81
 10
1307.89
 20
601.41
  0
LWPOLYLINE
  5
30C
330
1F
100
AcDbEntity
  8
3
  6
Continuous
 62
     2
100
AcDbPolyline
 90
     4
 70
   128
 43
0.0
 10
1307.89
 20
589.01
 10
1309.39
 20
589.01
 10
1309.39
 20
601.21
 10
1307.89
 20
601.21
  0
LINE
  5
30D
330
1F
100
AcDbEntity
  8
3
  6
Continuous
 62
     2
100
AcDbLine
 10
1312.89
 20
600.91
 30
0.0
 11
1309.39
 21
600.91
 31
0.0
  0
LINE
  5
30E
330
1F
100
AcDbEntity
  8
3
  6
Continuous
 62
     2
100
AcDbLine
 10
1309.39
 20
589.31
 30
0.0
 11
1312.89
 21
589.31
 31
0.0
  0
LINE
  5
30F
330
1F
100
AcDbEntity
  8
3
  6
Continuous
 62
     2
100
AcDbLine
 10
1309.39
 20
592.21
 30
0.0
 11
1312.89
 21
592.21
 31
0.0
  0
LINE
  5
310
330
1F
100
AcDbEntity
  8
3
  6
Continuous
 62
     2
100
AcDbLine
 10
1309.39
 20
598.01
 30
0.0
 11
1312.89
 21
598.01
 31
0.0
  0
LINE
  5
311
330
1F
100
AcDbEntity
  8
3
  6
Continuous
 62
     2
100
AcDbLine
 10
1313.39
 20
599.41
 30
0.0
 11
1313.39
 21
590.81
 31
0.0
  0
ARC
  5
312
330
1F
100
AcDbEntity
  8
3
  6
Continuous
 62
     2
100
AcDbCircle
 10
1304.69
 20
595.11
 30
0.0
 40
8.7
100
AcDbArc
 50
340.4
 51
19.6
  0
ARC
  5
313
330
1F
100
AcDbEntity
  8
3
  6
Continuous
 62
     2
100
AcDbCircle
 10
1310.99
 20
590.71
 30
0.0
 40
2.4
100
AcDbArc
 50
323.6
 51
38.1
  0
ARC
  5
314
330
1F
100
AcDbEntity
  8
3
  6
Continuous
 62
     2
100
AcDbCircle
 10
1310.99
 20
599.51
 30
0.0
 40
2.4
100
AcDbArc
 50
321.9
 51
36.4
  0
LINE
  5
315
330
1F
100
AcDbEntity
  8
3
  6
Continuous
 62
     2
100
AcDbLine
 10
1309.39
 20
595.11
 30
0.0
 11
1307.89
 21
594.243974596
 31
0.0
  0
LINE
  5
316
330
1F
100
AcDbEntity
  8
3
  6
Continuous
 62
     2
100
AcDbLine
 10
1307.89
 20
595.11
 30
0.0
 11
1309.39
 21
595.976025404
 31
0.0
  0
LWPOLYLINE
  5
318
330
1F
100
AcDbEntity
  8
3
  6
Continuous
 62
     2
100
AcDbPolyline
 90
     4
 70
   129
 43
0.0
 10
1306.29
 20
716.41
 10
1306.29
 20
703.81
 10
1307.89
 20
703.81
 10
1307.89
 20
716.41
  0
LWPOLYLINE
  5
31A
330
1F
100
AcDbEntity
  8
3
  6
Continuous
 62
     2
100
AcDbPolyline
 90
     4
 70
   128
 43
0.0
 10
1307.89
 20
704.01
 10
1309.39
 20
704.01
 10
1309.39
 20
716.21
 10
1307.89
 20
716.21
  0
LINE
  5
31B
330
1F
100
AcDbEntity
  8
3
  6
Continuous
 62
     2
100
AcDbLine
 10
1312.89
 20
715.91
 30
0.0
 11
1309.39
 21
715.91
 31
0.0
  0
LINE
  5
31C
330
1F
100
AcDbEntity
  8
3
  6
Continuous
 62
     2
100
AcDbLine
 10
1309.39
 20
704.31
 30
0.0
 11
1312.89
 21
704.31
 31
0.0
  0
LINE
  5
31D
330
1F
100
AcDbEntity
  8
3
  6
Continuous
 62
     2
100
AcDbLine
 10
1309.39
 20
707.21
 30
0.0
 11
1312.89
 21
707.21
 31
0.0
  0
LINE
  5
31E
330
1F
100
AcDbEntity
  8
3
  6
Continuous
 62
     2
100
AcDbLine
 10
1309.39
 20
713.01
 30
0.0
 11
1312.89
 21
713.01
 31
0.0
  0
LINE
  5
31F
330
1F
100
AcDbEntity
  8
3
  6
Continuous
 62
     2
100
AcDbLine
 10
1313.39
 20
714.41
 30
0.0
 11
1313.39
 21
705.81
 31
0.0
  0
ARC
  5
320
330
1F
100
AcDbEntity
  8
3
  6
Continuous
 62
     2
100
AcDbCircle
 10
1304.69
 20
710.11
 30
0.0
 40
8.7
100
AcDbArc
 50
340.4
 51
19.6
  0
ARC
  5
321
330
1F
100
AcDbEntity
  8
3
  6
Continuous
 62
     2
100
AcDbCircle
 10
1310.99
 20
705.71
 30
0.0
 40
2.4
100
AcDbArc
 50
323.6
 51
38.1
  0
ARC
  5
322
330
1F
100
AcDbEntity
  8
3
  6
Continuous
 62
     2
100
AcDbCircle
 10
1310.99
 20
714.51
 30
0.0
 40
2.4
100
AcDbArc
 50
321.9
 51
36.4
  0
LINE
  5
323
330
1F
100
AcDbEntity
  8
3
  6
Continuous
 62
     2
100
AcDbLine
 10
1309.39
 20
710.11
 30
0.0
 11
1307.89
 21
709.243974596
 31
0.0
  0
LINE
  5
324
330
1F
100
AcDbEntity
  8
3
  6
Continuous
 62
     2
100
AcDbLine
 10
1307.89
 20
710.11
 30
0.0
 11
1309.39
 21
710.976025404
 31
0.0
  0
LINE
  5
325
330
1F
100
AcDbEntity
  8
7
  6
Continuous
 62
     2
100
AcDbLine
 10
1216.49
 20
540.11
 30
0.0
 11
1181.29
 21
540.11
 31
0.0
  0
LINE
  5
326
330
1F
100
AcDbEntity
  8
7
  6
Continuous
 62
     2
100
AcDbLine
 10
1191.29
 20
540.11
 30
0.0
 11
1194.525238064
 21
552.184072829
 31
0.0
  0
LINE
  5
327
330
1F
100
AcDbEntity
  8
7
  6
Continuous
 62
     2
100
AcDbLine
 10
1191.29
 20
540.11
 30
0.0
 11
1188.054761936
 21
552.184072829
 31
0.0
  0
LWPOLYLINE
  5
329
330
1F
100
AcDbEntity
  8
7
  6
Continuous
 62
     2
100
AcDbPolyline
 90
     3
 70
   128
 43
0.0
 10
1191.29
 20
540.11
 10
1191.29
 20
570.11
 10
1188.054761936
 20
558.035927171
  0
LINE
  5
32A
330
1F
100
AcDbEntity
  8
7
  6
Continuous
 62
     2
100
AcDbLine
 10
1191.29
 20
570.11
 30
0.0
 11
1194.525238064
 21
558.035927171
 31
0.0
  0
LINE
  5
32B
330
1F
100
AcDbEntity
  8
7
  6
Continuous
 62
     2
100
AcDbLine
 10
1266.29
 20
570.11
 30
0.0
 11
1181.29
 21
570.11
 31
0.0
  0
MTEXT
  5
32C
330
1F
100
AcDbEntity
  8
7
  6
Continuous
 62
     2
100
AcDbMText
 10
1186.29
 20
545.36
 30
0.0
 40
15.0
 41
39.0
 71
     7
 72
     1
  1
\T1.167;\W0.600;３０
  7
KANJI8
 11
0.0
 21
1.0
 31
0.0
 73
     1
 44
1.0
  0
LINE
  5
32D
330
1F
100
AcDbEntity
  8
7
  6
Continuous
 62
     2
100
AcDbLine
 10
1191.29
 20
570.11
 30
0.0
 11
1194.525238064
 21
582.184072829
 31
0.0
  0
LINE
  5
32E
330
1F
100
AcDbEntity
  8
7
  6
Continuous
 62
     2
100
AcDbLine
 10
1191.29
 20
570.11
 30
0.0
 11
1188.054761936
 21
582.184072829
 31
0.0
  0
LWPOLYLINE
  5
330
330
1F
100
AcDbEntity
  8
7
  6
Continuous
 62
     2
100
AcDbPolyline
 90
     3
 70
   128
 43
0.0
 10
1191.29
 20
570.11
 10
1191.29
 20
690.11
 10
1188.054761936
 20
678.035927171
  0
LINE
  5
331
330
1F
100
AcDbEntity
  8
7
  6
Continuous
 62
     2
100
AcDbLine
 10
1191.29
 20
690.11
 30
0.0
 11
1194.525238064
 21
678.035927171
 31
0.0
  0
LINE
  5
332
330
1F
100
AcDbEntity
  8
7
  6
Continuous
 62
     2
100
AcDbLine
 10
1264.29
 20
690.11
 30
0.0
 11
1181.29
 21
690.11
 31
0.0
  0
MTEXT
  5
333
330
1F
100
AcDbEntity
  8
7
  6
Continuous
 62
     2
100
AcDbMText
 10
1186.29
 20
615.11
 30
0.0
 40
15.0
 41
60.0
 71
     7
 72
     1
  1
\T1.167;\W0.600;１２０
  7
KANJI8
 11
0.0
 21
1.0
 31
0.0
 73
     1
 44
1.0
  0
LINE
  5
334
330
1F
100
AcDbEntity
  8
7
  6
Continuous
 62
     2
100
AcDbLine
 10
1258.29
 20
730.61
 30
0.0
 11
1343.79
 21
730.61
 31
0.0
  0
LINE
  5
335
330
1F
100
AcDbEntity
  8
7
  6
Continuous
 62
     2
100
AcDbLine
 10
1333.79
 20
730.61
 30
0.0
 11
1330.554761936
 21
718.535927171
 31
0.0
  0
LINE
  5
336
330
1F
100
AcDbEntity
  8
7
  6
Continuous
 62
     2
100
AcDbLine
 10
1333.79
 20
730.61
 30
0.0
 11
1337.025238064
 21
718.535927171
 31
0.0
  0
LWPOLYLINE
  5
338
330
1F
100
AcDbEntity
  8
7
  6
Continuous
 62
     2
100
AcDbPolyline
 90
     3
 70
   128
 43
0.0
 10
1333.79
 20
730.61
 10
1333.79
 20
540.11
 10
1337.025238064
 20
552.184072829
  0
LINE
  5
339
330
1F
100
AcDbEntity
  8
7
  6
Continuous
 62
     2
100
AcDbLine
 10
1333.79
 20
540.11
 30
0.0
 11
1330.554761936
 21
552.184072829
 31
0.0
  0
LINE
  5
33A
330
1F
100
AcDbEntity
  8
7
  6
Continuous
 62
     2
100
AcDbLine
 10
1306.09
 20
540.11
 30
0.0
 11
1343.79
 21
540.11
 31
0.0
  0
MTEXT
  5
33B
330
1F
100
AcDbEntity
  8
7
  6
Continuous
 62
     2
100
AcDbMText
 10
1328.79
 20
609.86
 30
0.0
 40
15.0
 41
102.0
 71
     7
 72
     1
  1
\T1.167;\W0.600;１９０．５
  7
KANJI8
 11
0.0
 21
1.0
 31
0.0
 73
     1
 44
1.0
  0
LINE
  5
33C
330
1F
100
AcDbEntity
  8
7
  6
Continuous
 62
     2
100
AcDbLine
 10
1283.790021578
 20
760.61
 30
0.0
 11
1373.79
 21
760.61
 31
0.0
  0
LINE
  5
33D
330
1F
100
AcDbEntity
  8
7
  6
Continuous
 62
     2
100
AcDbLine
 10
1363.79
 20
760.61
 30
0.0
 11
1360.554761936
 21
748.535927171
 31
0.0
  0
LINE
  5
33E
330
1F
100
AcDbEntity
  8
7
  6
Continuous
 62
     2
100
AcDbLine
 10
1363.79
 20
760.61
 30
0.0
 11
1367.025238064
 21
748.535927171
 31
0.0
  0
LWPOLYLINE
  5
340
330
1F
100
AcDbEntity
  8
7
  6
Continuous
 62
     2
100
AcDbPolyline
 90
     3
 70
   128
 43
0.0
 10
1363.79
 20
760.61
 10
1363.79
 20
540.11
 10
1367.025238064
 20
552.184072829
  0
LINE
  5
341
330
1F
100
AcDbEntity
  8
7
  6
Continuous
 62
     2
100
AcDbLine
 10
1363.79
 20
540.11
 30
0.0
 11
1360.554761936
 21
552.184072829
 31
0.0
  0
LINE
  5
342
330
1F
100
AcDbEntity
  8
7
  6
Continuous
 62
     2
100
AcDbLine
 10
1338.79
 20
540.11
 30
0.0
 11
1373.79
 21
540.11
 31
0.0
  0
MTEXT
  5
343
330
1F
100
AcDbEntity
  8
7
  6
Continuous
 62
     2
100
AcDbMText
 10
1358.79
 20
624.86
 30
0.0
 40
15.0
 41
102.0
 71
     7
 72
     1
  1
\T1.167;\W0.600;２２０．５
  7
KANJI8
 11
0.0
 21
1.0
 31
0.0
 73
     1
 44
1.0
  0
ARC
  5
344
330
1F
100
AcDbEntity
  8
2
  6
LTYPE1
 62
     2
100
AcDbCircle
 10
1261.29
 20
258.90782661
 30
0.0
 40
598.70217339
100
AcDbArc
 50
78.535352424
 51
101.464647576
  0
LINE
  5
345
330
1F
100
AcDbEntity
  8
2
  6
LTYPE1
 62
     2
100
AcDbLine
 10
1344.04
 20
603.11
 30
0.0
 11
1178.54
 21
603.11
 31
0.0
  0
LINE
  5
346
330
1F
100
AcDbEntity
  8
2
  6
LTYPE1
 62
     2
100
AcDbLine
 10
1177.254721388
 20
611.71
 30
0.0
 11
1178.54
 21
603.11
 31
0.0
  0
LINE
  5
347
330
1F
100
AcDbEntity
  8
2
  6
LTYPE1
 62
     2
100
AcDbLine
 10
1142.29
 20
845.664413639
 30
0.0
 11
1171.228857014
 21
652.03
 31
0.0
  0
LINE
  5
348
330
1F
100
AcDbEntity
  8
2
  6
LTYPE1
 62
     2
100
AcDbLine
 10
1346.559743883
 20
619.97
 30
0.0
 11
1344.04
 21
603.11
 31
0.0
  0
LINE
  5
349
330
1F
100
AcDbEntity
  8
2
  6
LTYPE1
 62
     2
100
AcDbLine
 10
1380.29
 20
845.664413639
 30
0.0
 11
1355.698672615
 21
681.12
 31
0.0
  0
ARC
  5
34A
330
1F
100
AcDbEntity
  8
4
  6
LTYPE1
 62
     2
100
AcDbCircle
 10
1261.29
 20
730.61
 30
0.0
 40
170.0
100
AcDbArc
 50
232.543603016
 51
138.964609198
  0
LINE
  5
34B
330
1F
100
AcDbEntity
  8
7
  6
Continuous
 62
     2
100
AcDbLine
 10
474.83
 20
305.924413639
 30
0.0
 11
466.817030174
 21
296.330545046
 31
0.0
  0
LINE
  5
34C
330
1F
100
AcDbEntity
  8
7
  6
Continuous
 62
     2
100
AcDbLine
 10
474.83
 20
305.924413639
 30
0.0
 11
472.687498867
 21
293.609394804
 31
0.0
  0
LWPOLYLINE
  5
34E
330
1F
100
AcDbEntity
  8
7
  6
Continuous
 62
     2
100
AcDbPolyline
 90
     3
 70
   128
 43
0.0
 10
474.83
 20
305.924413639
 10
437.27
 20
224.894413639
 10
374.27
 20
224.894413639
  0
MTEXT
  5
34F
330
1F
100
AcDbEntity
  8
7
  6
Continuous
 62
     2
100
AcDbMText
 10
374.27
 20
229.894413639
 30
0.0
 40
15.0
 41
126.0
 71
     7
 72
     1
  1
\T1.111;\W0.548;１１－φ８．４
  7
KANJI9
 73
     1
 44
1.0
  0
LINE
  5
351
330
1F
100
AcDbEntity
  8
7
  6
Continuous
 62
     2
100
AcDbLine
 10
1257.89
 20
564.564413639
 30
0.0
 11
1249.641964995
 21
555.171867735
 31
0.0
  0
LINE
  5
352
330
1F
100
AcDbEntity
  8
7
  6
Continuous
 62
     2
100
AcDbLine
 10
1257.89
 20
564.564413639
 30
0.0
 11
1255.443265107
 21
552.306212777
 31
0.0
  0
LWPOLYLINE
  5
354
330
1F
100
AcDbEntity
  8
7
  6
Continuous
 62
     2
100
AcDbPolyline
 90
     3
 70
   128
 43
0.0
 10
1257.89
 20
564.564413639
 10
1228.82
 20
505.714413639
 10
1174.07
 20
505.714413639
  0
MTEXT
  5
355
330
1F
100
AcDbEntity
  8
7
  6
Continuous
 62
     2
100
AcDbMText
 10
1174.07
 20
510.714413639
 30
0.0
 40
15.0
 41
109.5
 71
     7
 72
     1
  1
\T1.111;\W0.557;２－φ８．４
  7
KANJI9
 73
     1
 44
1.0
  0
LINE
  5
356
330
1F
100
AcDbEntity
  8
3
  6
LTYPE3
 62
     2
100
AcDbLine
 10
382.13
 20
313.46
 30
0.0
 11
1122.13
 21
313.46
 31
0.0
  0
ENDSEC
  0
SECTION
  2
OBJECTS
  0
DICTIONARY
  5
C
330
0
100
AcDbDictionary
280
     0
281
     1
  3
ACAD_GROUP
350
D
  3
ACAD_LAYOUT
350
1A
  3
ACAD_MLINESTYLE
350
17
  3
ACAD_PLOTSETTINGS
350
19
  3
ACAD_PLOTSTYLENAME
350
E
  0
DICTIONARY
  5
D
102
{ACAD_REACTORS
330
C
102
}
330
C
100
AcDbDictionary
280
     0
281
     1
  0
DICTIONARY
  5
1A
102
{ACAD_REACTORS
330
C
102
}
330
C
100
AcDbDictionary
280
     0
281
     1
  3
Model
350
22
  3
ﾚｲｱｳﾄ1
350
1E
  3
ﾚｲｱｳﾄ2
350
26
  0
LAYOUT
  5
22
102
{ACAD_REACTORS
330
1A
102
}
330
1A
100
AcDbPlotSettings
  1

  2

  4

  6

 40
0.0
 41
0.0
 42
0.0
 43
0.0
 44
0.0
 45
0.0
 46
0.0
 47
0.0
 48
0.0
 49
0.0
140
0.0
141
0.0
142
1.0
143
1.0
 70
  1712
 72
     0
 73
     0
 74
     0
  7

 75
     0
147
1.0
148
0.0
149
0.0
100
AcDbLayout
  1
Model
 70
     1
 71
     0
 10
0.0
 20
0.0
 11
0.0
 21
0.0
 12
0.0
 22
0.0
 32
0.0
 14
0.0
 24
0.0
 34
0.0
 15
0.0
 25
0.0
 35
0.0
146
0.0
 13
0.0
 23
0.0
 33
0.0
 16
1.0
 26
0.0
 36
0.0
 17
0.0
 27
1.0
 37
0.0
 76
     0
330
1F
331
0
345
0
346
0
  0
LAYOUT
  5
1E
102
{ACAD_REACTORS
330
1A
102
}
330
1A
100
AcDbPlotSettings
  1

  2

  4

  6

 40
0.0
 41
0.0
 42
0.0
 43
0.0
 44
0.0
 45
0.0
 46
0.0
 47
0.0
 48
0.0
 49
0.0
140
0.0
141
0.0
142
1.0
143
1.0
 70
   688
 72
     0
 73
     0
 74
     5
  7

 75
    16
147
1.0
148
0.0
149
0.0
100
AcDbLayout
  1
ﾚｲｱｳﾄ1
 70
     1
 71
     1
 10
0.0
 20
0.0
 11
0.0
 21
0.0
 12
0.0
 22
0.0
 32
0.0
 14
0.0
 24
0.0
 34
0.0
 15
0.0
 25
0.0
 35
0.0
146
0.0
 13
0.0
 23
0.0
 33
0.0
 16
1.0
 26
0.0
 36
0.0
 17
0.0
 27
1.0
 37
0.0
 76
     0
330
1B
331
0
345
0
346
0
  0
LAYOUT
  5
26
102
{ACAD_REACTORS
330
1A
102
}
330
1A
100
AcDbPlotSettings
  1

  2

  4

  6

 40
0.0
 41
0.0
 42
0.0
 43
0.0
 44
0.0
 45
0.0
 46
0.0
 47
0.0
 48
0.0
 49
0.0
140
0.0
141
0.0
142
1.0
143
1.0
 70
   688
 72
     0
 73
     0
 74
     5
  7

 75
    16
147
1.0
148
0.0
149
0.0
100
AcDbLayout
  1
ﾚｲｱｳﾄ2
 70
     1
 71
     2
 10
0.0
 20
0.0
 11
0.0
 21
0.0
 12
0.0
 22
0.0
 32
0.0
 14
0.0
 24
0.0
 34
0.0
 15
0.0
 25
0.0
 35
0.0
146
0.0
 13
0.0
 23
0.0
 33
0.0
 16
1.0
 26
0.0
 36
0.0
 17
0.0
 27
1.0
 37
0.0
 76
     0
330
23
331
0
345
0
346
0
  0
DICTIONARY
  5
17
102
{ACAD_REACTORS
330
C
102
}
330
C
100
AcDbDictionary
280
     0
281
     1
  3
Standard
350
18
  0
MLINESTYLE
  5
18
102
{ACAD_REACTORS
330
17
102
}
330
17
100
AcDbMlineStyle
  2
STANDARD
 70
     0
  3

 62
   256
 51
90.0
 52
90.0
 71
     2
 49
0.5
 62
   256
  6
ByLayer
 49
-0.5
 62
   256
  6
ByLayer
  0
DICTIONARY
  5
19
102
{ACAD_REACTORS
330
C
102
}
330
C
100
AcDbDictionary
280
     0
281
     1
  0
ACDBDICTIONARYWDFLT
  5
E
330
C
100
AcDbDictionary
281
     0
  3
Normal
350
F
100
AcDbDictionaryWithDefault
340
F
  0
ACDBPLACEHOLDER
  5
F
102
{ACAD_REACTORS
330
E
102
}
330
E
  0
ENDSEC
  0
EOF
