  0
SECTION
  2
HEADER
  9
$ACADVER
  1
AC1009
  9
$DWGCODEPAGE
  3
ansi_932
  9
$INSBASE
 10
0.0
 20
0.0
 30
0.0
  9
$EXTMIN
 10
-1800.0
 20
-2698.168409531249
 30
0.0
  9
$EXTMAX
 10
1800.0
 20
2667.104485
 30
0.0
  9
$LIMMIN
 10
0.0
 20
0.0
  9
$LIMMAX
 10
0.0
 20
0.0
  9
$ORTHOMODE
 70
     0
  9
$REGENMODE
 70
     1
  9
$FILLMODE
 70
     1
  9
$QTEXTMODE
 70
     0
  9
$MIRRTEXT
 70
     1
  9
$DRAGMODE
 70
     2
  9
$LTSCALE
 40
101.6
  9
$OSMODE
 70
    37
  9
$ATTMODE
 70
     1
  9
$TEXTSIZE
 40
0.0
  9
$TRACEWID
 40
1.0
  9
$TEXTSTYLE
  7
STANDARD
  9
$CLAYER
  8
DATA
  9
$CELTYPE
  6
BYLAYER
  9
$CECOLOR
 62
   256
  9
$DIMSCALE
 40
1.0
  9
$DIMASZ
 40
0.18
  9
$DIMEXO
 40
0.0625
  9
$DIMDLI
 40
0.38
  9
$DIMRND
 40
0.0
  9
$DIMDLE
 40
0.0
  9
$DIMEXE
 40
0.18
  9
$DIMTP
 40
0.0
  9
$DIMTM
 40
0.0
  9
$DIMTXT
 40
0.18
  9
$DIMCEN
 40
0.09
  9
$DIMTSZ
 40
0.0
  9
$DIMTOL
 70
     0
  9
$DIMLIM
 70
     0
  9
$DIMTIH
 70
     1
  9
$DIMTOH
 70
     1
  9
$DIMSE1
 70
     0
  9
$DIMSE2
 70
     0
  9
$DIMTAD
 70
     0
  9
$DIMZIN
 70
     0
  9
$DIMBLK
  1

  9
$DIMASO
 70
     1
  9
$DIMSHO
 70
     1
  9
$DIMPOST
  1

  9
$DIMAPOST
  1

  9
$DIMALT
 70
     0
  9
$DIMALTD
 70
     2
  9
$DIMALTF
 40
25.4
  9
$DIMLFAC
 40
1.0
  9
$DIMTOFL
 70
     0
  9
$DIMTVP
 40
0.0
  9
$DIMTIX
 70
     0
  9
$DIMSOXD
 70
     0
  9
$DIMSAH
 70
     0
  9
$DIMBLK1
  1

  9
$DIMBLK2
  1

  9
$DIMSTYLE
  2
STANDARD
  9
$DIMCLRD
 70
     0
  9
$DIMCLRE
 70
     0
  9
$DIMCLRT
 70
     0
  9
$DIMTFAC
 40
1.0
  9
$DIMGAP
 40
0.09
  9
$LUNITS
 70
     2
  9
$LUPREC
 70
     2
  9
$SKETCHINC
 40
0.1
  9
$FILLETRAD
 40
0.0
  9
$AUNITS
 70
     0
  9
$AUPREC
 70
     0
  9
$MENU
  1
acad
  9
$ELEVATION
 40
0.0
  9
$PELEVATION
 40
0.0
  9
$THICKNESS
 40
0.0
  9
$LIMCHECK
 70
     0
  9
$CHAMFERA
 40
0.0
  9
$CHAMFERB
 40
0.0
  9
$SKPOLY
 70
     0
  9
$TDCREATE
 40
2459415.41454309
  9
$TDUPDATE
 40
2459415.415203368
  9
$TDINDWG
 40
2459415.04020397
  9
$TDUSRTIMER
 40
0.0006608681
  9
$USRTIMER
 70
     1
  9
$ANGBASE
 50
0.0
  9
$ANGDIR
 70
     0
  9
$PDMODE
 70
     1
  9
$PDSIZE
 40
-2.0
  9
$PLINEWID
 40
0.0
  9
$COORDS
 70
     1
  9
$SPLFRAME
 70
     0
  9
$SPLINETYPE
 70
     6
  9
$SPLINESEGS
 70
     8
  9
$ATTDIA
 70
     1
  9
$ATTREQ
 70
     1
  9
$HANDLING
 70
     1
  9
$HANDSEED
  5
258
  9
$SURFTAB1
 70
     6
  9
$SURFTAB2
 70
     6
  9
$SURFTYPE
 70
     6
  9
$SURFU
 70
     6
  9
$SURFV
 70
     6
  9
$UCSNAME
  2

  9
$UCSORG
 10
0.0
 20
0.0
 30
0.0
  9
$UCSXDIR
 10
1.0
 20
0.0
 30
0.0
  9
$UCSYDIR
 10
0.0
 20
1.0
 30
0.0
  9
$PUCSNAME
  2

  9
$PUCSORG
 10
0.0
 20
0.0
 30
0.0
  9
$PUCSXDIR
 10
1.0
 20
0.0
 30
0.0
  9
$PUCSYDIR
 10
0.0
 20
1.0
 30
0.0
  9
$USERI1
 70
     0
  9
$USERI2
 70
     0
  9
$USERI3
 70
     0
  9
$USERI4
 70
     0
  9
$USERI5
 70
     0
  9
$USERR1
 40
0.0
  9
$USERR2
 40
0.0
  9
$USERR3
 40
0.0
  9
$USERR4
 40
0.0
  9
$USERR5
 40
0.0
  9
$WORLDVIEW
 70
     1
  9
$SHADEDGE
 70
     3
  9
$SHADEDIF
 70
    70
  9
$TILEMODE
 70
     1
  9
$MAXACTVP
 70
    64
  9
$PLIMCHECK
 70
     0
  9
$PEXTMIN
 10
1.000000000000000E+20
 20
1.000000000000000E+20
 30
1.000000000000000E+20
  9
$PEXTMAX
 10
-1.000000000000000E+20
 20
-1.000000000000000E+20
 30
-1.000000000000000E+20
  9
$PLIMMIN
 10
0.0
 20
0.0
  9
$PLIMMAX
 10
12.0
 20
9.0
  9
$UNITMODE
 70
     0
  9
$VISRETAIN
 70
     0
  9
$PLINEGEN
 70
     1
  9
$PSLTSCALE
 70
     0
  0
ENDSEC
  0
SECTION
  2
TABLES
  0
TABLE
  2
VPORT
 70
     1
  0
VPORT
  2
*ACTIVE
 70
     0
 10
0.0
 20
0.0
 11
1.0
 21
1.0
 12
0.0
 22
-3.531814999999369
 13
0.0
 23
0.0
 14
1.0
 24
1.0
 15
0.0
 25
0.0
 16
0.0
 26
0.0
 36
1.0
 17
0.0
 27
0.0
 37
0.0
 40
5341.272600000001
 41
2.794721407624633
 42
50.0
 43
0.0
 44
0.0
 50
0.0
 51
0.0
 71
     0
 72
  2000
 73
     1
 74
     1
 75
     0
 76
     0
 77
     0
 78
     0
  0
ENDTAB
  0
TABLE
  2
LTYPE
 70
    11
  0
LTYPE
  2
CONTINUOUS
 70
     0
  3
Solid line
 72
    65
 73
     0
 40
0.0
  0
ENDTAB
  0
TABLE
  2
LAYER
 70
     5
  0
LAYER
  2
0
 70
     0
 62
     7
  6
CONTINUOUS
  0
LAYER
  2
HIBINO-BASE
 70
     0
 62
     7
  6
CONTINUOUS
  0
LAYER
  2
SPEC
 70
     0
 62
     7
  6
CONTINUOUS
  0
LAYER
  2
DIMNSIONS
 70
     0
 62
     7
  6
CONTINUOUS
  0
LAYER
  2
DATA
 70
     0
 62
     7
  6
CONTINUOUS
  0
ENDTAB
  0
TABLE
  2
STYLE
 70
     2
  0
STYLE
  2
STANDARD
 70
     0
 40
0.0
 41
1.0
 50
0.0
 71
     0
 42
0.0
  3
txt
  4
BIGFONT.SHX
  0
ENDTAB
  0
TABLE
  2
VIEW
 70
     0
  0
ENDTAB
  0
TABLE
  2
UCS
 70
     0
  0
ENDTAB
  0
TABLE
  2
APPID
 70
     3
  0
APPID
  2
ACAD
 70
     0
  0
APPID
  2
ACAD_MLEADERVER
 70
     0
  0
APPID
  2
ACADANNOPO
 70
     0
  0
ENDTAB
  0
TABLE
  2
DIMSTYLE
 70
     1
  0
DIMSTYLE
  2
STANDARD
 70
     0
  3

  4

  5

  6

  7

 40
1.0
 41
0.18
 42
0.0625
 43
0.38
 44
0.18
 45
0.0
 46
0.0
 47
0.0
 48
0.0
140
0.18
141
0.09
142
0.0
143
25.4
144
1.0
145
0.0
146
1.0
147
0.09
 71
     0
 72
     0
 73
     1
 74
     1
 75
     0
 76
     0
 77
     0
 78
     0
170
     0
171
     2
172
     0
173
     0
174
     0
175
     0
176
     0
177
     0
178
     0
  0
ENDTAB
  0
ENDSEC
  0
SECTION
  2
BLOCKS
  0
BLOCK
  8
DATA
  2
$MODEL_SPACE
 70
     0
 10
0.0
 20
0.0
 30
0.0
  3
$MODEL_SPACE
  1

  0
ENDBLK
  5
20A
  8
DATA
  0
BLOCK
 67
     1
  8
DATA
  2
$PAPER_SPACE
 70
     0
 10
0.0
 20
0.0
 30
0.0
  3
$PAPER_SPACE
  1

  0
ENDBLK
  5
208
 67
     1
  8
DATA
  0
ENDSEC
  0
SECTION
  2
ENTITIES
  0
LINE
  5
2C
  8
HIBINO-BASE
  6
CONTINUOUS
 62
     7
 10
-1800.0
 20
2667.104485
 30
0.0
 11
1800.0
 21
2667.104485
 31
0.0
  0
LINE
  5
2D
  8
HIBINO-BASE
  6
CONTINUOUS
 62
     7
 10
1800.0
 20
-2532.895514999999
 30
0.0
 11
-1800.0
 21
-2532.895514999999
 31
0.0
  0
LINE
  5
2E
  8
HIBINO-BASE
  6
CONTINUOUS
 62
     7
 10
-1800.0
 20
-2532.895514999999
 30
0.0
 11
-1800.0
 21
2667.104485
 31
0.0
  0
LINE
  5
2F
  8
HIBINO-BASE
  6
CONTINUOUS
 62
     7
 10
1800.0
 20
2667.104485
 30
0.0
 11
1800.0
 21
-2532.895514999999
 31
0.0
  0
LINE
  5
30
  8
HIBINO-BASE
  6
CONTINUOUS
 62
     7
 10
0.0000000000002842
 20
-2082.895514999999
 30
0.0
 11
1800.0
 21
-2082.895514999999
 31
0.0
  0
LINE
  5
31
  8
HIBINO-BASE
  6
CONTINUOUS
 62
     7
 10
0.0000000000002842
 20
-2532.895514999999
 30
0.0
 11
0.0000000000002842
 21
-2082.895514999999
 31
0.0
  0
TEXT
  5
32
  8
HIBINO-BASE
 62
     7
 10
18.0000000000004
 20
-2133.069381666665
 30
0.0
 40
32.57682291666666
  1
NOTE
 41
0.7
 11
18.0000000000004
 21
-2100.492558749999
 31
0.0
 73
     3
  0
LINE
  5
33
  8
HIBINO-BASE
  6
CONTINUOUS
 62
     7
 10
700.0000000000002
 20
-2532.895514999999
 30
0.0
 11
700.0000000000002
 21
-2082.895514999999
 31
0.0
  0
TEXT
  5
34
  8
HIBINO-BASE
 62
     7
 10
717.9999999999998
 20
-2133.069381666665
 30
0.0
 40
32.57682291666666
  1
TITLE
 41
0.7
 11
717.9999999999998
 21
-2100.492558749999
 31
0.0
 73
     3
  0
LINE
  5
35
  8
HIBINO-BASE
  6
CONTINUOUS
 62
     7
 10
0.0000000000002842
 20
-2332.895514999999
 30
0.0
 11
1800.0
 21
-2332.895514999999
 31
0.0
  0
TEXT
  5
36
  8
HIBINO-BASE
 62
     7
 10
967.9999999999998
 20
-2381.942981666666
 30
0.0
 40
32.57682291666666
  1
DRAWN
 41
0.7
 11
967.9999999999998
 21
-2349.36615875
 31
0.0
 73
     3
  0
TEXT
  5
37
  8
HIBINO-BASE
 62
     7
 10
467.9999999999998
 20
-2381.942981666666
 30
0.0
 40
32.57682291666666
  1
DATE
 41
0.7
 11
467.9999999999998
 21
-2349.36615875
 31
0.0
 73
     3
  0
TEXT
  5
38
  8
HIBINO-BASE
 62
     7
 10
267.9999999999998
 20
-2381.942981666666
 30
0.0
 40
32.57682291666666
  1
SCALE
 41
0.7
 11
267.9999999999998
 21
-2349.36615875
 31
0.0
 73
     3
  0
TEXT
  5
39
  8
HIBINO-BASE
 62
     7
 10
717.9999999999998
 20
-2381.942981666666
 30
0.0
 40
32.57682291666666
  1
DESIGN
 41
0.7
 11
717.9999999999998
 21
-2349.36615875
 31
0.0
 73
     3
  0
TEXT
  5
3A
  8
HIBINO-BASE
 62
     7
 10
1468.0
 20
-2381.942981666666
 30
0.0
 40
32.57682291666666
  1
DRAWING NO.
 41
0.7
 11
1468.0
 21
-2349.36615875
 31
0.0
 73
     3
  0
TEXT
  5
3B
  8
HIBINO-BASE
 62
     7
 10
1218.0
 20
-2381.942981666666
 30
0.0
 40
32.57682291666666
  1
CHECK
 41
0.7
 11
1218.0
 21
-2349.36615875
 31
0.0
 73
     3
  0
LINE
  5
3C
  8
HIBINO-BASE
  6
CONTINUOUS
 62
     7
 10
287.5000000000003
 20
-2507.895514999999
 30
0.0
 11
362.5000000000003
 21
-2432.895514999999
 31
0.0
  0
TEXT
  5
3D
  8
HIBINO-BASE
 62
     7
 10
275.0000000000003
 20
-2455.074381666666
 30
0.0
 40
32.57682291666666
  1
1
 41
0.7
 11
275.0000000000003
 21
-2422.497558749999
 31
0.0
 73
     3
  0
LINE
  5
3E
  8
HIBINO-BASE
  6
CONTINUOUS
 62
     7
 10
250.0000000000003
 20
-2532.895514999999
 30
0.0
 11
250.0000000000003
 21
-2332.895514999999
 31
0.0
  0
LINE
  5
3F
  8
HIBINO-BASE
  6
CONTINUOUS
 62
     7
 10
449.9999999999997
 20
-2532.895514999999
 30
0.0
 11
449.9999999999997
 21
-2332.895514999999
 31
0.0
  0
LINE
  5
40
  8
HIBINO-BASE
  6
CONTINUOUS
 62
     7
 10
949.9999999999998
 20
-2332.895514999999
 30
0.0
 11
949.9999999999998
 21
-2532.895514999999
 31
0.0
  0
LINE
  5
41
  8
HIBINO-BASE
  6
CONTINUOUS
 62
     7
 10
1450.0
 20
-2332.895514999999
 30
0.0
 11
1450.0
 21
-2532.895514999999
 31
0.0
  0
LINE
  5
42
  8
HIBINO-BASE
  6
CONTINUOUS
 62
     7
 10
1200.0
 20
-2532.895514999999
 30
0.0
 11
1200.0
 21
-2332.895514999999
 31
0.0
  0
TEXT
  5
43
  8
HIBINO-BASE
 62
     7
 10
467.1308000000002
 20
-2475.622581666665
 30
0.0
 40
32.57682291666666
  1
'21.07.
 41
0.7
 11
467.1308000000002
 21
-2443.045758749999
 31
0.0
 73
     3
  0
TEXT
  5
44
  8
HIBINO-BASE
 62
     7
 10
350.0000000000003
 20
-2492.574381666666
 30
0.0
 40
32.57682291666666
  1
20
 41
0.7
 11
350.0000000000003
 21
-2459.997558749999
 31
0.0
 73
     3
  0
TEXT
  5
45
  8
HIBINO-BASE
 62
     7
 10
980.1162002206925
 20
-2475.622581666665
 30
0.0
 40
32.57682291666666
  1
N.Sasaki
 41
0.7
 11
980.1162002206925
 21
-2443.045758749999
 31
0.0
 73
     3
  0
TEXT
  5
46
  8
HIBINO-BASE
 62
     7
 10
77.66666666666737
 20
-2493.375514999999
 30
0.0
 40
65.15364583333333
  1
A4
 41
0.7
 11
77.66666666666737
 21
-2428.221869166666
 31
0.0
 73
     3
  0
TEXT
  5
47
  8
HIBINO-BASE
 62
     7
 10
19.16666666666657
 20
-2385.284614999999
 30
0.0
 40
32.57682291666666
  1
PAPER SIZE
 41
0.7
 11
19.16666666666657
 21
-2352.707792083333
 31
0.0
 73
     3
  0
TEXT
  5
48
  8
HIBINO-BASE
 62
     7
 10
-1656.319999999999
 20
-2661.069070999999
 30
0.0
 40
72.00088359374999
  1
Hibino Corporation
 41
0.7
 11
-1656.319999999999
 21
-2589.068187406249
 31
0.0
 73
     3
  0
TEXT
  5
49
  8
HIBINO-BASE
 62
     7
 10
1001.3678
 20
-2661.069070999999
 30
0.0
 40
72.00088359374999
  1
ヒビノ株式会社
 41
0.7
 11
1001.3678
 21
-2589.068187406249
 31
0.0
 73
     3
  0
LINE
  5
4A
  8
SPEC
  6
CONTINUOUS
 62
     7
 10
-1650.0
 20
2400.0
 30
0.0
 11
1300.0
 21
2400.0
 31
0.0
  0
LINE
  5
4B
  8
SPEC
  6
CONTINUOUS
 62
     7
 10
-1650.0
 20
2400.0
 30
0.0
 11
-1650.0
 21
2250.0
 31
0.0
  0
TEXT
  5
4C
  8
SPEC
 62
     7
 10
-1625.0
 20
2494.969885
 30
0.0
 40
48.86523437500001
  1
仕様
 41
0.7
 11
-1625.0
 21
2543.835119375
 31
0.0
 73
     3
  0
LINE
  5
4D
  8
SPEC
  6
CONTINUOUS
 62
     7
 10
-1000.0
 20
2400.0
 30
0.0
 11
-1000.0
 21
2250.0
 31
0.0
  0
LINE
  5
4E
  8
SPEC
  6
CONTINUOUS
 62
     7
 10
1300.0
 20
2400.0
 30
0.0
 11
1300.0
 21
2250.0
 31
0.0
  0
LINE
  5
4F
  8
SPEC
  6
CONTINUOUS
 62
     7
 10
-1650.0
 20
2250.0
 30
0.0
 11
1300.0
 21
2250.0
 31
0.0
  0
TEXT
  5
50
  8
SPEC
 62
     7
 10
-981.9999999999998
 20
2265.758355555555
 30
0.0
 40
38.00629340277779
  1
3.5kg
 41
0.7
 11
-981.9999999999998
 21
2303.764648958333
 31
0.0
 73
     3
  0
TEXT
  5
51
  8
SPEC
 62
     7
 10
-1632.0
 20
2340.758355555555
 30
0.0
 40
38.00629340277779
  1
寸法(W×H×D)
 41
0.7
 11
-1632.0
 21
2378.764648958333
 31
0.0
 73
     3
  0
TEXT
  5
52
  8
SPEC
 62
     7
 10
-1632.0
 20
2265.758355555555
 30
0.0
 40
38.00629340277779
  1
質量
 41
0.7
 11
-1632.0
 21
2303.764648958333
 31
0.0
 73
     3
  0
TEXT
  5
53
  8
SPEC
 62
     7
 10
-981.9999999999998
 20
2340.758355555555
 30
0.0
 40
38.00629340277779
  1
648×145×385mm
 41
0.7
 11
-981.9999999999998
 21
2378.764648958333
 31
0.0
 73
     3
  0
LINE
  5
54
  8
SPEC
  6
CONTINUOUS
 62
     7
 10
-1650.0
 20
2325.0
 30
0.0
 11
1300.0
 21
2325.0
 31
0.0
  0
LINE
  5
55
  8
SPEC
  6
CONTINUOUS
 62
     7
 10
-1650.0
 20
2150.0
 30
0.0
 11
1300.0
 21
2150.0
 31
0.0
  0
LINE
  5
56
  8
SPEC
  6
CONTINUOUS
 62
     7
 10
-1650.0
 20
2150.0
 30
0.0
 11
-1650.0
 21
2000.0
 31
0.0
  0
LINE
  5
57
  8
SPEC
  6
CONTINUOUS
 62
     7
 10
-1000.0
 20
2150.0
 30
0.0
 11
-1000.0
 21
2000.0
 31
0.0
  0
LINE
  5
58
  8
SPEC
  6
CONTINUOUS
 62
     7
 10
1300.0
 20
2150.0
 30
0.0
 11
1300.0
 21
2000.0
 31
0.0
  0
LINE
  5
59
  8
SPEC
  6
CONTINUOUS
 62
     7
 10
-1650.0
 20
2000.0
 30
0.0
 11
1300.0
 21
2000.0
 31
0.0
  0
TEXT
  5
5A
  8
SPEC
 62
     7
 10
-981.9999999999998
 20
2015.758355555555
 30
0.0
 40
38.00629340277779
  1
0.9kg
 41
0.7
 11
-981.9999999999998
 21
2053.764648958333
 31
0.0
 73
     3
  0
TEXT
  5
5B
  8
SPEC
 62
     7
 10
-981.9999999999998
 20
2090.758355555555
 30
0.0
 40
38.00629340277779
  1
35×669mm(除突起部)
 41
0.7
 11
-981.9999999999998
 21
2128.764648958333
 31
0.0
 73
     3
  0
LINE
  5
5C
  8
SPEC
  6
CONTINUOUS
 62
     7
 10
-1650.0
 20
2075.0
 30
0.0
 11
1300.0
 21
2075.0
 31
0.0
  0
TEXT
  5
5D
  8
SPEC
 62
     7
 10
-1632.0
 20
2090.758355555555
 30
0.0
 40
38.00629340277779
  1
寸法(φ×D)
 41
0.7
 11
-1632.0
 21
2128.764648958333
 31
0.0
 73
     3
  0
TEXT
  5
5E
  8
SPEC
 62
     7
 10
-1632.0
 20
2015.758355555555
 30
0.0
 40
38.00629340277779
  1
質量
 41
0.7
 11
-1632.0
 21
2053.764648958333
 31
0.0
 73
     3
  0
TEXT
  5
5F
  8
SPEC
 62
     7
 10
-1632.0
 20
2165.758355555554
 30
0.0
 40
38.00629340277779
  1
ポール
 41
0.7
 11
-1632.0
 21
2203.764648958332
 31
0.0
 73
     3
  0
TEXT
  5
60
  8
SPEC
 62
     7
 10
-1632.0
 20
2415.758355555554
 30
0.0
 40
38.00629340277779
  1
スピーカー固定金具
 41
0.7
 11
-1632.0
 21
2453.764648958332
 31
0.0
 73
     3
  0
TEXT
  5
61
  8
DIMNSIONS
 62
     7
 10
-399.9999999999999
 20
-2287.505714999999
 30
0.0
 40
48.86523437500001
  1
(単位：mm)
 41
0.7
 11
-399.9999999999999
 21
-2238.640480624999
 31
0.0
 73
     3
  0
LINE
  5
62
  8
DIMNSIONS
  6
CONTINUOUS
 62
     7
 10
658.3
 20
-1100.0
 30
0.0
 11
605.0
 21
-1100.0
 31
0.0
  0
LINE
  5
63
  8
DIMNSIONS
  6
CONTINUOUS
 62
     7
 10
658.3
 20
-431.0
 30
0.0
 11
605.0
 21
-431.0
 31
0.0
  0
LINE
  5
64
  8
DIMNSIONS
  6
CONTINUOUS
 62
     7
 10
625.0
 20
-1100.0
 30
0.0
 11
625.0
 21
-431.0
 31
0.0
  0
LINE
  5
65
  8
DIMNSIONS
  6
CONTINUOUS
 62
     7
 10
625.0
 20
-1100.0
 30
0.0
 11
614.2826864755882
 21
-1060.00244140625
 31
0.0
  0
LINE
  5
66
  8
DIMNSIONS
  6
CONTINUOUS
 62
     7
 10
625.0
 20
-1100.0
 30
0.0
 11
635.7173135244118
 21
-1060.00244140625
 31
0.0
  0
LINE
  5
67
  8
DIMNSIONS
  6
CONTINUOUS
 62
     7
 10
625.0
 20
-431.0
 30
0.0
 11
635.7173135244118
 21
-470.99755859375
 31
0.0
  0
LINE
  5
68
  8
DIMNSIONS
  6
CONTINUOUS
 62
     7
 10
625.0
 20
-431.0
 30
0.0
 11
614.2826864755882
 21
-470.99755859375
 31
0.0
  0
TEXT
  5
69
  8
DIMNSIONS
 62
     7
 10
605.1222222222223
 20
-818.4166666666667
 30
0.0
 40
54.29470486111116
  1
669
 50
90.0
 41
0.7
 11
550.8275173611111
 21
-818.4166666666667
 31
0.0
 73
     3
  0
LINE
  5
6A
  8
DIMNSIONS
  6
CONTINUOUS
 62
     7
 10
658.3
 20
-1100.0
 30
0.0
 11
605.0
 21
-1100.0
 31
0.0
  0
LINE
  5
6B
  8
DIMNSIONS
  6
CONTINUOUS
 62
     7
 10
668.5
 20
-1118.4
 30
0.0
 11
605.0
 21
-1118.4
 31
0.0
  0
LINE
  5
6C
  8
DIMNSIONS
  6
CONTINUOUS
 62
     7
 10
625.0
 20
-1118.4
 30
0.0
 11
625.0
 21
-1100.0
 31
0.0
  0
LINE
  5
6D
  8
DIMNSIONS
  6
CONTINUOUS
 62
     7
 10
625.0
 20
-1100.0
 30
0.0
 11
625.0
 21
-1030.0
 31
0.0
  0
LINE
  5
6E
  8
DIMNSIONS
  6
CONTINUOUS
 62
     7
 10
625.0
 20
-1100.0
 30
0.0
 11
614.2826864755882
 21
-1060.00244140625
 31
0.0
  0
LINE
  5
6F
  8
DIMNSIONS
  6
CONTINUOUS
 62
     7
 10
625.0
 20
-1100.0
 30
0.0
 11
635.7173135244118
 21
-1060.00244140625
 31
0.0
  0
LINE
  5
70
  8
DIMNSIONS
  6
CONTINUOUS
 62
     7
 10
625.0
 20
-1118.4
 30
0.0
 11
625.0
 21
-1188.4
 31
0.0
  0
LINE
  5
71
  8
DIMNSIONS
  6
CONTINUOUS
 62
     7
 10
625.0
 20
-1118.4
 30
0.0
 11
635.7173135244118
 21
-1158.39755859375
 31
0.0
  0
LINE
  5
72
  8
DIMNSIONS
  6
CONTINUOUS
 62
     7
 10
625.0
 20
-1118.4
 30
0.0
 11
614.2826864755882
 21
-1158.39755859375
 31
0.0
  0
TEXT
  5
73
  8
DIMNSIONS
 62
     7
 10
595.1222222222223
 20
-1179.755555555556
 30
0.0
 40
54.29470486111116
  1
18.4
 50
90.0
 41
0.7
 11
540.8275173611111
 21
-1179.755555555556
 31
0.0
 73
     3
  0
LINE
  5
74
  8
DIMNSIONS
  6
CONTINUOUS
 62
     7
 10
715.3286496469846
 20
-383.85
 30
0.0
 11
743.301270189222
 21
-400.0
 31
0.0
  0
LINE
  5
75
  8
DIMNSIONS
  6
CONTINUOUS
 62
     7
 10
715.3286496469846
 20
-383.85
 30
0.0
 11
755.507159330372
 21
-393.8676275765744
 31
0.0
  0
LINE
  5
76
  8
DIMNSIONS
  6
CONTINUOUS
 62
     7
 10
715.3286496469846
 20
-383.85
 30
0.0
 11
745.1154459307099
 21
-412.6147748086587
 31
0.0
  0
LINE
  5
77
  8
DIMNSIONS
  6
CONTINUOUS
 62
     7
 10
743.301270189222
 20
-400.0
 30
0.0
 11
783.301270189222
 21
-400.0
 31
0.0
  0
TEXT
  5
78
  8
DIMNSIONS
 62
     7
 10
783.301270189222
 20
-425.4
 30
0.0
 40
54.29470486111116
  1
φ35.4
 41
0.7
 11
783.301270189222
 21
-371.1052951388888
 31
0.0
 73
     3
  0
LINE
  5
79
  8
DIMNSIONS
  6
CONTINUOUS
 62
     7
 10
-545.1000000000001
 20
-650.0
 30
0.0
 11
-919.9999999999998
 21
-650.0
 31
0.0
  0
LINE
  5
7A
  8
DIMNSIONS
  6
CONTINUOUS
 62
     7
 10
-848.0
 20
-505.1999999999999
 30
0.0
 11
-919.9999999999998
 21
-505.1999999999999
 31
0.0
  0
LINE
  5
7B
  8
DIMNSIONS
  6
CONTINUOUS
 62
     7
 10
-899.9999999999998
 20
-650.0
 30
0.0
 11
-899.9999999999998
 21
-505.1999999999999
 31
0.0
  0
LINE
  5
7C
  8
DIMNSIONS
  6
CONTINUOUS
 62
     7
 10
-899.9999999999998
 20
-650.0
 30
0.0
 11
-910.7173135244116
 21
-610.00244140625
 31
0.0
  0
LINE
  5
7D
  8
DIMNSIONS
  6
CONTINUOUS
 62
     7
 10
-899.9999999999998
 20
-650.0
 30
0.0
 11
-889.282686475588
 21
-610.00244140625
 31
0.0
  0
LINE
  5
7E
  8
DIMNSIONS
  6
CONTINUOUS
 62
     7
 10
-899.9999999999998
 20
-505.1999999999999
 30
0.0
 11
-889.282686475588
 21
-545.1975585937499
 31
0.0
  0
LINE
  5
7F
  8
DIMNSIONS
  6
CONTINUOUS
 62
     7
 10
-899.9999999999998
 20
-505.1999999999999
 30
0.0
 11
-910.7173135244116
 21
-545.1975585937499
 31
0.0
  0
TEXT
  5
80
  8
DIMNSIONS
 62
     7
 10
-919.8777777777775
 20
-630.5166666666667
 30
0.0
 40
54.29470486111116
  1
145
 50
90.0
 41
0.7
 11
-974.1724826388887
 21
-630.5166666666667
 31
0.0
 73
     3
  0
LINE
  5
81
  8
DIMNSIONS
  6
CONTINUOUS
 62
     7
 10
-839.0000000000002
 20
-800.0
 30
0.0
 11
-920.0
 21
-800.0
 31
0.0
  0
LINE
  5
82
  8
DIMNSIONS
  6
CONTINUOUS
 62
     7
 10
-524.0000000000002
 20
-942.0
 30
0.0
 11
-920.0
 21
-942.0
 31
0.0
  0
LINE
  5
83
  8
DIMNSIONS
  6
CONTINUOUS
 62
     7
 10
-900.0
 20
-800.0
 30
0.0
 11
-900.0
 21
-942.0
 31
0.0
  0
LINE
  5
84
  8
DIMNSIONS
  6
CONTINUOUS
 62
     7
 10
-900.0
 20
-800.0
 30
0.0
 11
-889.2826864755882
 21
-839.99755859375
 31
0.0
  0
LINE
  5
85
  8
DIMNSIONS
  6
CONTINUOUS
 62
     7
 10
-900.0
 20
-800.0
 30
0.0
 11
-910.7173135244118
 21
-839.99755859375
 31
0.0
  0
LINE
  5
86
  8
DIMNSIONS
  6
CONTINUOUS
 62
     7
 10
-900.0
 20
-942.0
 30
0.0
 11
-910.7173135244118
 21
-902.00244140625
 31
0.0
  0
LINE
  5
87
  8
DIMNSIONS
  6
CONTINUOUS
 62
     7
 10
-900.0
 20
-942.0
 30
0.0
 11
-889.2826864755882
 21
-902.00244140625
 31
0.0
  0
TEXT
  5
88
  8
DIMNSIONS
 62
     7
 10
-919.8777777777777
 20
-923.9166666666667
 30
0.0
 40
54.29470486111116
  1
142
 50
90.0
 41
0.7
 11
-974.1724826388889
 21
-923.9166666666667
 31
0.0
 73
     3
  0
LINE
  5
89
  8
DIMNSIONS
  6
CONTINUOUS
 62
     7
 10
-839.0
 20
-450.0
 30
0.0
 11
-919.9999999999998
 21
-450.0
 31
0.0
  0
LINE
  5
8A
  8
DIMNSIONS
  6
CONTINUOUS
 62
     7
 10
-550.3500000000001
 20
-65.0
 30
0.0
 11
-919.9999999999998
 21
-65.0
 31
0.0
  0
LINE
  5
8B
  8
DIMNSIONS
  6
CONTINUOUS
 62
     7
 10
-899.9999999999998
 20
-450.0
 30
0.0
 11
-899.9999999999998
 21
-65.0
 31
0.0
  0
LINE
  5
8C
  8
DIMNSIONS
  6
CONTINUOUS
 62
     7
 10
-899.9999999999998
 20
-450.0
 30
0.0
 11
-910.7173135244116
 21
-410.00244140625
 31
0.0
  0
LINE
  5
8D
  8
DIMNSIONS
  6
CONTINUOUS
 62
     7
 10
-899.9999999999998
 20
-450.0
 30
0.0
 11
-889.282686475588
 21
-410.00244140625
 31
0.0
  0
LINE
  5
8E
  8
DIMNSIONS
  6
CONTINUOUS
 62
     7
 10
-899.9999999999998
 20
-65.0
 30
0.0
 11
-889.282686475588
 21
-104.99755859375
 31
0.0
  0
LINE
  5
8F
  8
DIMNSIONS
  6
CONTINUOUS
 62
     7
 10
-899.9999999999998
 20
-65.0
 30
0.0
 11
-910.7173135244116
 21
-104.99755859375
 31
0.0
  0
TEXT
  5
90
  8
DIMNSIONS
 62
     7
 10
-919.8777777777775
 20
-310.4166666666667
 30
0.0
 40
54.29470486111116
  1
385
 50
90.0
 41
0.7
 11
-974.1724826388887
 21
-310.4166666666667
 31
0.0
 73
     3
  0
LINE
  5
91
  8
DIMNSIONS
  6
CONTINUOUS
 62
     7
 10
-824.0
 20
-585.5999999999999
 30
0.0
 11
-824.0
 21
-780.5999999999997
 31
0.0
  0
LINE
  5
92
  8
DIMNSIONS
  6
CONTINUOUS
 62
     7
 10
-176.0
 20
-585.5999999999999
 30
0.0
 11
-176.0
 21
-780.5999999999997
 31
0.0
  0
LINE
  5
93
  8
DIMNSIONS
  6
CONTINUOUS
 62
     7
 10
-824.0
 20
-760.5999999999997
 30
0.0
 11
-176.0
 21
-760.5999999999997
 31
0.0
  0
LINE
  5
94
  8
DIMNSIONS
  6
CONTINUOUS
 62
     7
 10
-824.0
 20
-760.5999999999997
 30
0.0
 11
-784.00244140625
 21
-749.8826864755879
 31
0.0
  0
LINE
  5
95
  8
DIMNSIONS
  6
CONTINUOUS
 62
     7
 10
-824.0
 20
-760.5999999999997
 30
0.0
 11
-784.00244140625
 21
-771.3173135244115
 31
0.0
  0
LINE
  5
96
  8
DIMNSIONS
  6
CONTINUOUS
 62
     7
 10
-176.0
 20
-760.5999999999997
 30
0.0
 11
-215.99755859375
 21
-771.3173135244115
 31
0.0
  0
LINE
  5
97
  8
DIMNSIONS
  6
CONTINUOUS
 62
     7
 10
-176.0
 20
-760.5999999999997
 30
0.0
 11
-215.99755859375
 21
-749.8826864755879
 31
0.0
  0
TEXT
  5
98
  8
DIMNSIONS
 62
     7
 10
-552.9166666666666
 20
-740.722222222222
 30
0.0
 40
54.29470486111116
  1
648
 41
0.7
 11
-552.9166666666666
 21
-686.4275173611107
 31
0.0
 73
     3
  0
TEXT
  5
99
  8
DATA
 62
     7
 10
-1760.0
 20
-2375.369959444444
 30
0.0
 40
38.00629340277779
  1
※仕様及び外観は予告なく変更されることがあります。
 41
0.7
 11
-1760.0
 21
-2337.363666041666
 31
0.0
 73
     3
  0
TEXT
  5
9A
  8
DATA
 62
     7
 10
-1760.0
 20
-2424.758848333333
 30
0.0
 40
38.00629340277779
  1
　また、同一商品でも若干の個体差があることがあります。ご了承ください。
 41
0.7
 11
-1760.0
 21
-2386.752554930555
 31
0.0
 73
     3
  0
TEXT
  5
9B
  8
DATA
 62
     7
 10
1000.0
 20
-2165.277714999999
 30
0.0
 40
48.86523437500001
  1
JBL PROFESSIONAL
 41
0.7
 11
1000.0
 21
-2116.412480624999
 31
0.0
 73
     3
  0
TEXT
  5
9C
  8
DATA
 62
     7
 10
1000.0
 20
-2310.277714999999
 30
0.0
 40
48.86523437500001
  1
BRX308-PM
 41
0.7
 11
1000.0
 21
-2261.412480624999
 31
0.0
 73
     3
  0
CIRCLE
  5
9D
  8
DATA
  6
CONTINUOUS
 62
     7
 10
700.0
 20
-375.0
 30
0.0
 40
17.70000000000005
  0
LINE
  5
9E
  8
DATA
  6
CONTINUOUS
 62
     7
 10
-825.0
 20
-1300.0
 30
0.0
 11
-175.0
 21
-1300.0
 31
0.0
  0
TEXT
  5
9F
  8
DATA
 62
     7
 10
949.9999999999998
 20
-2237.356815
 30
0.0
 40
38.00629340277779
  1
ポールマウントキット
 41
0.7
 11
949.9999999999998
 21
-2199.350521597222
 31
0.0
 73
     3
  0
POLYLINE
  5
A0
  8
DATA
  6
CONTINUOUS
 62
     7
 66
     1
 10
0.0
 20
0.0
 30
0.0
 70
     1
  0
VERTEX
  5
247
  8
DATA
  6
CONTINUOUS
 62
     7
 10
682.3
 20
-431.0
 30
0.0
  0
VERTEX
  5
248
  8
DATA
  6
CONTINUOUS
 62
     7
 10
717.7
 20
-431.0
 30
0.0
  0
VERTEX
  5
249
  8
DATA
  6
CONTINUOUS
 62
     7
 10
717.7
 20
-1097.5
 30
0.0
  0
VERTEX
  5
24A
  8
DATA
  6
CONTINUOUS
 62
     7
 10
682.3
 20
-1097.5
 30
0.0
  0
SEQEND
  5
255
  8
DATA
  6
CONTINUOUS
 62
     7
  0
LINE
  5
A7
  8
DATA
  6
CONTINUOUS
 62
     7
 10
682.3
 20
-435.5
 30
0.0
 11
717.7
 21
-435.5
 31
0.0
  0
POLYLINE
  5
A8
  8
DATA
  6
CONTINUOUS
 62
     7
 66
     1
 10
0.0
 20
0.0
 30
0.0
 70
     1
  0
VERTEX
  5
24B
  8
DATA
  6
CONTINUOUS
 62
     7
 10
682.3
 20
-1098.0
 30
0.0
  0
VERTEX
  5
24C
  8
DATA
  6
CONTINUOUS
 62
     7
 10
717.7
 20
-1098.0
 30
0.0
  0
VERTEX
  5
24D
  8
DATA
  6
CONTINUOUS
 62
     7
 10
717.7
 20
-1100.0
 30
0.0
  0
VERTEX
  5
24E
  8
DATA
  6
CONTINUOUS
 62
     7
 10
682.3
 20
-1100.0
 30
0.0
  0
SEQEND
  5
256
  8
DATA
  6
CONTINUOUS
 62
     7
  0
LINE
  5
AF
  8
DATA
  6
CONTINUOUS
 62
     7
 10
683.3
 20
-1098.0
 30
0.0
 11
683.3
 21
-1097.5
 31
0.0
  0
LINE
  5
B0
  8
DATA
  6
CONTINUOUS
 62
     7
 10
716.6999999999999
 20
-1097.5
 30
0.0
 11
716.6999999999999
 21
-1098.0
 31
0.0
  0
CIRCLE
  5
B1
  8
DATA
  6
CONTINUOUS
 62
     7
 10
700.0
 20
-1007.0
 30
0.0
 40
4.200000000000045
  0
POLYLINE
  5
B2
  8
DATA
  6
CONTINUOUS
 62
     7
 66
     1
 10
0.0
 20
0.0
 30
0.0
 70
     1
  0
VERTEX
  5
24F
  8
DATA
  6
CONTINUOUS
 62
     7
 10
692.5
 20
-1100.0
 30
0.0
  0
VERTEX
  5
250
  8
DATA
  6
CONTINUOUS
 62
     7
 10
707.5
 20
-1100.0
 30
0.0
  0
VERTEX
  5
251
  8
DATA
  6
CONTINUOUS
 62
     7
 10
707.5
 20
-1118.4
 30
0.0
  0
VERTEX
  5
252
  8
DATA
  6
CONTINUOUS
 62
     7
 10
692.5
 20
-1118.4
 30
0.0
  0
SEQEND
  5
257
  8
DATA
  6
CONTINUOUS
 62
     7
  0
LINE
  5
B9
  8
DATA
  6
CONTINUOUS
 62
     7
 10
692.5
 20
-1118.4
 30
0.0
 11
707.5
 21
-1116.4
 31
0.0
  0
LINE
  5
BA
  8
DATA
  6
CONTINUOUS
 62
     7
 10
692.5
 20
-1116.4
 30
0.0
 11
707.5
 21
-1114.4
 31
0.0
  0
LINE
  5
BB
  8
DATA
  6
CONTINUOUS
 62
     7
 10
692.5
 20
-1114.4
 30
0.0
 11
707.5
 21
-1112.4
 31
0.0
  0
LINE
  5
BC
  8
DATA
  6
CONTINUOUS
 62
     7
 10
692.5
 20
-1112.4
 30
0.0
 11
707.5
 21
-1110.4
 31
0.0
  0
LINE
  5
BD
  8
DATA
  6
CONTINUOUS
 62
     7
 10
692.5
 20
-1110.4
 30
0.0
 11
707.5
 21
-1108.4
 31
0.0
  0
LINE
  5
BE
  8
DATA
  6
CONTINUOUS
 62
     7
 10
692.5
 20
-1108.4
 30
0.0
 11
707.5
 21
-1106.4
 31
0.0
  0
LINE
  5
BF
  8
DATA
  6
CONTINUOUS
 62
     7
 10
692.5
 20
-1106.4
 30
0.0
 11
707.5
 21
-1104.4
 31
0.0
  0
LINE
  5
C0
  8
DATA
  6
CONTINUOUS
 62
     7
 10
692.5
 20
-1104.4
 30
0.0
 11
707.5
 21
-1102.4
 31
0.0
  0
LINE
  5
C1
  8
DATA
  6
CONTINUOUS
 62
     7
 10
575.0
 20
-1300.0
 30
0.0
 11
825.0
 21
-1300.0
 31
0.0
  0
TEXT
  5
C2
  8
DATA
 62
     7
 10
635.3893012152778
 20
-1277.147352430556
 30
0.0
 40
54.29470486111111
  1
ポール
 41
0.7
 72
     1
 11
700.0
 21
-1250.0
 31
0.0
 73
     2
  0
LINE
  5
C3
  8
DATA
  6
CONTINUOUS
 62
     7
 10
-815.0
 20
-404.0
 30
0.0
 11
-815.0
 21
-412.0
 31
0.0
  0
LINE
  5
C4
  8
DATA
  6
CONTINUOUS
 62
     7
 10
-815.0
 20
-442.0
 30
0.0
 11
-815.0
 21
-450.0
 31
0.0
  0
LINE
  5
C5
  8
DATA
  6
CONTINUOUS
 62
     7
 10
-185.0
 20
-404.0
 30
0.0
 11
-815.0
 21
-404.0
 31
0.0
  0
LINE
  5
C6
  8
DATA
  6
CONTINUOUS
 62
     7
 10
-185.0
 20
-450.0
 30
0.0
 11
-185.0
 21
-442.0
 31
0.0
  0
LINE
  5
C7
  8
DATA
  6
CONTINUOUS
 62
     7
 10
-185.0
 20
-412.0
 30
0.0
 11
-185.0
 21
-404.0
 31
0.0
  0
LINE
  5
C8
  8
DATA
  6
CONTINUOUS
 62
     7
 10
-815.0
 20
-450.0
 30
0.0
 11
-185.0
 21
-450.0
 31
0.0
  0
LINE
  5
C9
  8
DATA
  6
CONTINUOUS
 62
     7
 10
-824.0
 20
-412.0
 30
0.0
 11
-824.0
 21
-442.0
 31
0.0
  0
LINE
  5
CA
  8
DATA
  6
CONTINUOUS
 62
     7
 10
-815.0
 20
-412.0
 30
0.0
 11
-824.0
 21
-412.0
 31
0.0
  0
LINE
  5
CB
  8
DATA
  6
CONTINUOUS
 62
     7
 10
-176.0
 20
-442.0
 30
0.0
 11
-176.0
 21
-412.0
 31
0.0
  0
LINE
  5
CC
  8
DATA
  6
CONTINUOUS
 62
     7
 10
-824.0
 20
-442.0
 30
0.0
 11
-815.0
 21
-442.0
 31
0.0
  0
CIRCLE
  5
CD
  8
DATA
  6
CONTINUOUS
 62
     7
 10
-784.0
 20
-427.0
 30
0.0
 40
2.0
  0
CIRCLE
  5
CE
  8
DATA
  6
CONTINUOUS
 62
     7
 10
-216.0
 20
-427.0
 30
0.0
 40
2.0
  0
CIRCLE
  5
CF
  8
DATA
  6
CONTINUOUS
 62
     7
 10
-754.0
 20
-427.0
 30
0.0
 40
4.099999999999909
  0
CIRCLE
  5
D0
  8
DATA
  6
CONTINUOUS
 62
     7
 10
-246.0
 20
-427.0
 30
0.0
 40
4.100000000000023
  0
CIRCLE
  5
D1
  8
DATA
  6
CONTINUOUS
 62
     7
 10
-519.75
 20
-427.0
 30
0.0
 40
2.100000000000023
  0
CIRCLE
  5
D2
  8
DATA
  6
CONTINUOUS
 62
     7
 10
-480.25
 20
-427.0
 30
0.0
 40
2.100000000000023
  0
LINE
  5
D3
  8
DATA
  6
CONTINUOUS
 62
     7
 10
-526.3500000000001
 20
-65.0
 30
0.0
 11
-473.6500000000002
 21
-65.0
 31
0.0
  0
LINE
  5
D4
  8
DATA
  6
CONTINUOUS
 62
     7
 10
-526.35
 20
-404.0
 30
0.0
 11
-526.35
 21
-65.0
 31
0.0
  0
LINE
  5
D5
  8
DATA
  6
CONTINUOUS
 62
     7
 10
-473.65
 20
-404.0
 30
0.0
 11
-473.65
 21
-65.0
 31
0.0
  0
LINE
  5
D6
  8
DATA
  6
CONTINUOUS
 62
     7
 10
-531.35
 20
-96.40000000000009
 30
0.0
 11
-528.7500000000001
 21
-96.40000000000009
 31
0.0
  0
LINE
  5
D7
  8
DATA
  6
CONTINUOUS
 62
     7
 10
-531.35
 20
-103.5999999999999
 30
0.0
 11
-528.7500000000001
 21
-103.5999999999999
 31
0.0
  0
LINE
  5
D8
  8
DATA
  6
CONTINUOUS
 62
     7
 10
-531.35
 20
-96.40000000000009
 30
0.0
 11
-531.35
 21
-103.5999999999999
 31
0.0
  0
LINE
  5
D9
  8
DATA
  6
CONTINUOUS
 62
     7
 10
-527.9499999999999
 20
-95.0
 30
0.0
 11
-527.9499999999999
 21
-113.0
 31
0.0
  0
LINE
  5
DA
  8
DATA
  6
CONTINUOUS
 62
     7
 10
-526.35
 20
-95.0
 30
0.0
 11
-527.9499999999999
 21
-95.0
 31
0.0
  0
LINE
  5
DB
  8
DATA
  6
CONTINUOUS
 62
     7
 10
-527.9499999999999
 20
-113.0
 30
0.0
 11
-532.8226114649684
 21
-129.5668789808919
 31
0.0
  0
LINE
  5
DC
  8
DATA
  6
CONTINUOUS
 62
     7
 10
-526.35
 20
-113.0
 30
0.0
 11
-531.35
 21
-130.0
 31
0.0
  0
LINE
  5
DD
  8
DATA
  6
CONTINUOUS
 62
     7
 10
-531.35
 20
-130.0
 30
0.0
 11
-532.8226114649684
 21
-129.5668789808919
 31
0.0
  0
LINE
  5
DE
  8
DATA
  6
CONTINUOUS
 62
     7
 10
-527.9499999999999
 20
-95.20000000000027
 30
0.0
 11
-528.7500000000001
 21
-95.20000000000027
 31
0.0
  0
LINE
  5
DF
  8
DATA
  6
CONTINUOUS
 62
     7
 10
-528.7500000000001
 20
-95.20000000000027
 30
0.0
 11
-528.7500000000001
 21
-104.8000000000002
 31
0.0
  0
LINE
  5
E0
  8
DATA
  6
CONTINUOUS
 62
     7
 10
-527.9499999999999
 20
-104.8000000000002
 30
0.0
 11
-528.7500000000001
 21
-104.8000000000002
 31
0.0
  0
LINE
  5
E1
  8
DATA
  6
CONTINUOUS
 62
     7
 10
-219.5999999999999
 20
-573.5999999999999
 30
0.0
 11
-219.5999999999999
 21
-571.0
 31
0.0
  0
LINE
  5
E2
  8
DATA
  6
CONTINUOUS
 62
     7
 10
-212.4000000000001
 20
-573.5999999999999
 30
0.0
 11
-212.4000000000001
 21
-571.0
 31
0.0
  0
LINE
  5
E3
  8
DATA
  6
CONTINUOUS
 62
     7
 10
-219.5999999999999
 20
-573.5999999999999
 30
0.0
 11
-212.4000000000001
 21
-573.5999999999999
 31
0.0
  0
LINE
  5
E4
  8
DATA
  6
CONTINUOUS
 62
     7
 10
-221.0
 20
-570.2
 30
0.0
 11
-203.0
 21
-570.2
 31
0.0
  0
LINE
  5
E5
  8
DATA
  6
CONTINUOUS
 62
     7
 10
-221.0
 20
-568.5999999999999
 30
0.0
 11
-221.0
 21
-570.2
 31
0.0
  0
LINE
  5
E6
  8
DATA
  6
CONTINUOUS
 62
     7
 10
-203.0
 20
-570.2
 30
0.0
 11
-186.4331210191081
 21
-575.0726114649681
 31
0.0
  0
LINE
  5
E7
  8
DATA
  6
CONTINUOUS
 62
     7
 10
-203.0
 20
-568.5999999999999
 30
0.0
 11
-186.0
 21
-573.5999999999999
 31
0.0
  0
LINE
  5
E8
  8
DATA
  6
CONTINUOUS
 62
     7
 10
-186.0
 20
-573.5999999999999
 30
0.0
 11
-186.4331210191081
 21
-575.0726114649681
 31
0.0
  0
LINE
  5
E9
  8
DATA
  6
CONTINUOUS
 62
     7
 10
-220.7999999999997
 20
-570.2
 30
0.0
 11
-220.7999999999997
 21
-571.0
 31
0.0
  0
LINE
  5
EA
  8
DATA
  6
CONTINUOUS
 62
     7
 10
-220.7999999999997
 20
-571.0
 30
0.0
 11
-211.1999999999998
 21
-571.0
 31
0.0
  0
LINE
  5
EB
  8
DATA
  6
CONTINUOUS
 62
     7
 10
-211.1999999999998
 20
-570.2
 30
0.0
 11
-211.1999999999998
 21
-571.0
 31
0.0
  0
LINE
  5
EC
  8
DATA
  6
CONTINUOUS
 62
     7
 10
-817.0
 20
-568.5999999999999
 30
0.0
 11
-183.0
 21
-568.5999999999999
 31
0.0
  0
LINE
  5
ED
  8
DATA
  6
CONTINUOUS
 62
     7
 10
-815.0
 20
-548.7
 30
0.0
 11
-815.0
 21
-568.5999999999999
 31
0.0
  0
LINE
  5
EE
  8
DATA
  6
CONTINUOUS
 62
     7
 10
-824.0
 20
-505.1999999999999
 30
0.0
 11
-824.0
 21
-561.5999999999999
 31
0.0
  0
LINE
  5
EF
  8
DATA
  6
CONTINUOUS
 62
     7
 10
-818.75
 20
-505.1999999999999
 30
0.0
 11
-818.75
 21
-561.5999999999999
 31
0.0
  0
LINE
  5
F0
  8
DATA
  6
CONTINUOUS
 62
     7
 10
-818.75
 20
-505.1999999999999
 30
0.0
 11
-824.0
 21
-505.1999999999999
 31
0.0
  0
LINE
  5
F1
  8
DATA
  6
CONTINUOUS
 62
     7
 10
-815.0
 20
-563.3499999999999
 30
0.0
 11
-817.0
 21
-563.3499999999999
 31
0.0
  0
ARC
  5
F2
  8
DATA
  6
CONTINUOUS
 62
     7
 10
-817.0
 20
-561.5999999999999
 30
0.0
 40
7.0
 50
180.0
 51
270.0
  0
ARC
  5
F3
  8
DATA
  6
CONTINUOUS
 62
     7
 10
-817.0
 20
-561.5999999999999
 30
0.0
 40
1.75
 50
180.0
 51
270.0
  0
LINE
  5
F4
  8
DATA
  6
CONTINUOUS
 62
     7
 10
-185.0
 20
-548.7
 30
0.0
 11
-185.0
 21
-568.5999999999999
 31
0.0
  0
LINE
  5
F5
  8
DATA
  6
CONTINUOUS
 62
     7
 10
-176.0
 20
-505.1999999999999
 30
0.0
 11
-176.0
 21
-561.5999999999999
 31
0.0
  0
LINE
  5
F6
  8
DATA
  6
CONTINUOUS
 62
     7
 10
-181.25
 20
-505.1999999999999
 30
0.0
 11
-181.25
 21
-561.5999999999999
 31
0.0
  0
LINE
  5
F7
  8
DATA
  6
CONTINUOUS
 62
     7
 10
-181.25
 20
-505.1999999999999
 30
0.0
 11
-176.0
 21
-505.1999999999999
 31
0.0
  0
LINE
  5
F8
  8
DATA
  6
CONTINUOUS
 62
     7
 10
-185.0
 20
-563.3499999999999
 30
0.0
 11
-183.0
 21
-563.3499999999999
 31
0.0
  0
ARC
  5
F9
  8
DATA
  6
CONTINUOUS
 62
     7
 10
-183.0
 20
-561.5999999999999
 30
0.0
 40
7.0
 50
270.0
 51
0.0
  0
ARC
  5
FA
  8
DATA
  6
CONTINUOUS
 62
     7
 10
-183.0
 20
-561.5999999999999
 30
0.0
 40
1.75
 50
270.0
 51
0.0
  0
LINE
  5
FB
  8
DATA
  6
CONTINUOUS
 62
     7
 10
-469.75
 20
-574.0
 30
0.0
 11
-530.25
 21
-574.0
 31
0.0
  0
LINE
  5
FC
  8
DATA
  6
CONTINUOUS
 62
     7
 10
-469.75
 20
-574.0
 30
0.0
 11
-469.75
 21
-568.5999999999999
 31
0.0
  0
LINE
  5
FD
  8
DATA
  6
CONTINUOUS
 62
     7
 10
-530.2500000000001
 20
-574.0
 30
0.0
 11
-530.2500000000001
 21
-568.5999999999999
 31
0.0
  0
LINE
  5
FE
  8
DATA
  6
CONTINUOUS
 62
     7
 10
-478.9
 20
-650.0
 30
0.0
 11
-478.9
 21
-576.0
 31
0.0
  0
LINE
  5
FF
  8
DATA
  6
CONTINUOUS
 62
     7
 10
-521.1
 20
-650.0
 30
0.0
 11
-521.1
 21
-576.0
 31
0.0
  0
LINE
  5
100
  8
DATA
  6
CONTINUOUS
 62
     7
 10
-478.9
 20
-650.0
 30
0.0
 11
-521.1000000000001
 21
-650.0
 31
0.0
  0
LINE
  5
101
  8
DATA
  6
CONTINUOUS
 62
     7
 10
-476.9
 20
-574.0
 30
0.0
 11
-478.8999999999999
 21
-576.0
 31
0.0
  0
LINE
  5
102
  8
DATA
  6
CONTINUOUS
 62
     7
 10
-523.1
 20
-574.0
 30
0.0
 11
-521.1000000000001
 21
-576.0
 31
0.0
  0
LINE
  5
103
  8
DATA
  6
CONTINUOUS
 62
     7
 10
-478.9
 20
-576.0
 30
0.0
 11
-521.1
 21
-576.0
 31
0.0
  0
LINE
  5
104
  8
DATA
  6
CONTINUOUS
 62
     7
 10
-780.4000000000001
 20
-573.5999999999999
 30
0.0
 11
-780.4000000000001
 21
-571.0
 31
0.0
  0
LINE
  5
105
  8
DATA
  6
CONTINUOUS
 62
     7
 10
-787.5999999999999
 20
-573.5999999999999
 30
0.0
 11
-787.5999999999999
 21
-571.0
 31
0.0
  0
LINE
  5
106
  8
DATA
  6
CONTINUOUS
 62
     7
 10
-780.4000000000001
 20
-573.5999999999999
 30
0.0
 11
-787.5999999999999
 21
-573.5999999999999
 31
0.0
  0
LINE
  5
107
  8
DATA
  6
CONTINUOUS
 62
     7
 10
-779.0
 20
-570.2
 30
0.0
 11
-797.0
 21
-570.2
 31
0.0
  0
LINE
  5
108
  8
DATA
  6
CONTINUOUS
 62
     7
 10
-779.0
 20
-568.5999999999999
 30
0.0
 11
-779.0
 21
-570.2
 31
0.0
  0
LINE
  5
109
  8
DATA
  6
CONTINUOUS
 62
     7
 10
-797.0
 20
-570.2
 30
0.0
 11
-813.5668789808919
 21
-575.0726114649681
 31
0.0
  0
LINE
  5
10A
  8
DATA
  6
CONTINUOUS
 62
     7
 10
-797.0
 20
-568.5999999999999
 30
0.0
 11
-814.0
 21
-573.5999999999999
 31
0.0
  0
LINE
  5
10B
  8
DATA
  6
CONTINUOUS
 62
     7
 10
-814.0
 20
-573.5999999999999
 30
0.0
 11
-813.5668789808919
 21
-575.0726114649681
 31
0.0
  0
LINE
  5
10C
  8
DATA
  6
CONTINUOUS
 62
     7
 10
-779.2000000000003
 20
-570.2
 30
0.0
 11
-779.2000000000003
 21
-571.0
 31
0.0
  0
LINE
  5
10D
  8
DATA
  6
CONTINUOUS
 62
     7
 10
-779.2000000000003
 20
-571.0
 30
0.0
 11
-788.8000000000002
 21
-571.0
 31
0.0
  0
LINE
  5
10E
  8
DATA
  6
CONTINUOUS
 62
     7
 10
-788.8000000000002
 20
-570.2
 30
0.0
 11
-788.8000000000002
 21
-571.0
 31
0.0
  0
CIRCLE
  5
10F
  8
DATA
  6
CONTINUOUS
 62
     7
 10
-102.0
 20
-519.3499999999999
 30
0.0
 40
4.150000000000091
  0
LINE
  5
110
  8
DATA
  6
CONTINUOUS
 62
     7
 10
-117.0
 20
-568.5999999999999
 30
0.0
 11
-117.0
 21
-519.9690471564659
 31
0.0
  0
LINE
  5
111
  8
DATA
  6
CONTINUOUS
 62
     7
 10
-87.0
 20
-568.5999999999999
 30
0.0
 11
-87.0
 21
-519.9690471564659
 31
0.0
  0
ARC
  5
112
  8
DATA
  6
CONTINUOUS
 62
     7
 10
-102.0
 20
-520.2018057771556
 30
0.0
 40
15.00180577715581
 50
359.1109989073426
 51
180.8890010926574
  0
LINE
  5
113
  8
DATA
  6
CONTINUOUS
 62
     7
 10
-125.0
 20
-561.5999999999999
 30
0.0
 11
-125.0
 21
-548.6999999999998
 31
0.0
  0
LINE
  5
114
  8
DATA
  6
CONTINUOUS
 62
     7
 10
-79.0
 20
-561.5999999999999
 30
0.0
 11
-79.0
 21
-548.6999999999998
 31
0.0
  0
LINE
  5
115
  8
DATA
  6
CONTINUOUS
 62
     7
 10
-125.0
 20
-548.6999999999998
 30
0.0
 11
-119.75
 21
-548.6999999999998
 31
0.0
  0
LINE
  5
116
  8
DATA
  6
CONTINUOUS
 62
     7
 10
233.2309728524402
 20
-548.6999999999998
 30
0.0
 11
-84.25
 21
-548.6999999999998
 31
0.0
  0
LINE
  5
117
  8
DATA
  6
CONTINUOUS
 62
     7
 10
-118.0
 20
-563.3499999999999
 30
0.0
 11
-117.0
 21
-563.3499999999999
 31
0.0
  0
LINE
  5
118
  8
DATA
  6
CONTINUOUS
 62
     7
 10
-87.0
 20
-563.3499999999999
 30
0.0
 11
-86.0
 21
-563.3499999999999
 31
0.0
  0
LINE
  5
119
  8
DATA
  6
CONTINUOUS
 62
     7
 10
-119.75
 20
-548.6999999999998
 30
0.0
 11
-119.75
 21
-561.5999999999999
 31
0.0
  0
LINE
  5
11A
  8
DATA
  6
CONTINUOUS
 62
     7
 10
-84.25
 20
-548.6999999999998
 30
0.0
 11
-84.25
 21
-561.5999999999999
 31
0.0
  0
ARC
  5
11B
  8
DATA
  6
CONTINUOUS
 62
     7
 10
-86.0
 20
-561.5999999999999
 30
0.0
 40
7.0
 50
270.0
 51
0.0
  0
ARC
  5
11C
  8
DATA
  6
CONTINUOUS
 62
     7
 10
-118.0
 20
-561.5999999999999
 30
0.0
 40
7.0
 50
180.0
 51
270.0
  0
ARC
  5
11D
  8
DATA
  6
CONTINUOUS
 62
     7
 10
-118.0
 20
-561.5999999999999
 30
0.0
 40
1.75
 50
180.0
 51
270.0
  0
ARC
  5
11E
  8
DATA
  6
CONTINUOUS
 62
     7
 10
-86.0
 20
-561.5999999999999
 30
0.0
 40
1.75
 50
270.0
 51
0.0
  0
LINE
  5
11F
  8
DATA
  6
CONTINUOUS
 62
     7
 10
-120.0
 20
-568.3082039324995
 30
0.0
 11
-120.0
 21
-574.0
 31
0.0
  0
LINE
  5
120
  8
DATA
  6
CONTINUOUS
 62
     7
 10
260.0
 20
-574.0
 30
0.0
 11
260.0
 21
-558.0
 31
0.0
  0
LINE
  5
121
  8
DATA
  6
CONTINUOUS
 62
     7
 10
-108.5
 20
-575.0726114649683
 30
0.0
 11
-108.5
 21
-568.5999999999999
 31
0.0
  0
LINE
  5
122
  8
DATA
  6
CONTINUOUS
 62
     7
 10
-95.5
 20
-575.0726114649683
 30
0.0
 11
-95.5
 21
-568.5999999999999
 31
0.0
  0
LINE
  5
123
  8
DATA
  6
CONTINUOUS
 62
     7
 10
-95.5
 20
-575.0726114649683
 30
0.0
 11
-108.5
 21
-575.0726114649683
 31
0.0
  0
LINE
  5
124
  8
DATA
  6
CONTINUOUS
 62
     7
 10
-95.5
 20
-573.5999999999999
 30
0.0
 11
-108.5
 21
-573.5999999999999
 31
0.0
  0
LINE
  5
125
  8
DATA
  6
CONTINUOUS
 62
     7
 10
-4.100000000000136
 20
-650.0
 30
0.0
 11
-4.100000000000136
 21
-576.0
 31
0.0
  0
LINE
  5
126
  8
DATA
  6
CONTINUOUS
 62
     7
 10
38.09999999999991
 20
-650.0
 30
0.0
 11
38.09999999999991
 21
-576.0
 31
0.0
  0
LINE
  5
127
  8
DATA
  6
CONTINUOUS
 62
     7
 10
-4.100000000000136
 20
-650.0
 30
0.0
 11
38.10000000000014
 21
-650.0
 31
0.0
  0
LINE
  5
128
  8
DATA
  6
CONTINUOUS
 62
     7
 10
-6.100000000000136
 20
-574.0
 30
0.0
 11
-4.100000000000136
 21
-576.0
 31
0.0
  0
LINE
  5
129
  8
DATA
  6
CONTINUOUS
 62
     7
 10
40.09999999999991
 20
-574.0
 30
0.0
 11
38.10000000000014
 21
-576.0
 31
0.0
  0
LINE
  5
12A
  8
DATA
  6
CONTINUOUS
 62
     7
 10
260.0
 20
-574.0
 30
0.0
 11
-95.5
 21
-574.0
 31
0.0
  0
LINE
  5
12B
  8
DATA
  6
CONTINUOUS
 62
     7
 10
-108.5
 20
-574.0
 30
0.0
 11
-120.0
 21
-574.0
 31
0.0
  0
LINE
  5
12C
  8
DATA
  6
CONTINUOUS
 62
     7
 10
-4.100000000000136
 20
-576.0
 30
0.0
 11
38.09999999999991
 21
-576.0
 31
0.0
  0
LINE
  5
12D
  8
DATA
  6
CONTINUOUS
 62
     7
 10
-118.0
 20
-568.5999999999999
 30
0.0
 11
-86.0
 21
-568.5999999999999
 31
0.0
  0
ARC
  5
12E
  8
DATA
  6
CONTINUOUS
 62
     7
 10
245.0
 20
-558.0
 30
0.0
 40
15.0
 50
0.0
 51
141.6838655263336
  0
CIRCLE
  5
12F
  8
DATA
  6
CONTINUOUS
 62
     7
 10
245.0
 20
-558.0
 30
0.0
 40
6.450000000000045
  0
LINE
  5
130
  8
DATA
  6
CONTINUOUS
 62
     7
 10
195.0
 20
-543.6999999999998
 30
0.0
 11
195.0
 21
-536.0999999999999
 31
0.0
  0
LINE
  5
131
  8
DATA
  6
CONTINUOUS
 62
     7
 10
178.0
 20
-543.6999999999998
 30
0.0
 11
178.0
 21
-536.0999999999999
 31
0.0
  0
LINE
  5
132
  8
DATA
  6
CONTINUOUS
 62
     7
 10
192.0
 20
-533.0999999999999
 30
0.0
 11
181.0
 21
-533.0999999999999
 31
0.0
  0
ARC
  5
133
  8
DATA
  6
CONTINUOUS
 62
     7
 10
181.0
 20
-536.0999999999999
 30
0.0
 40
3.0
 50
90.0
 51
180.0
  0
ARC
  5
134
  8
DATA
  6
CONTINUOUS
 62
     7
 10
192.0
 20
-536.0999999999999
 30
0.0
 40
3.0
 50
0.0
 51
90.0
  0
ARC
  5
135
  8
DATA
  6
CONTINUOUS
 62
     7
 10
173.0
 20
-543.6999999999998
 30
0.0
 40
5.0
 50
270.0
 51
0.0
  0
ARC
  5
136
  8
DATA
  6
CONTINUOUS
 62
     7
 10
200.0
 20
-543.6999999999998
 30
0.0
 40
5.0
 50
180.0
 51
270.0
  0
CIRCLE
  5
137
  8
DATA
  6
CONTINUOUS
 62
     7
 10
-1023.0
 20
-519.3499999999999
 30
0.0
 40
4.149999999999864
  0
LINE
  5
138
  8
DATA
  6
CONTINUOUS
 62
     7
 10
-1008.0
 20
-568.6000000000001
 30
0.0
 11
-1008.0
 21
-519.9690471564661
 31
0.0
  0
LINE
  5
139
  8
DATA
  6
CONTINUOUS
 62
     7
 10
-1038.0
 20
-568.6000000000001
 30
0.0
 11
-1038.0
 21
-519.9690471564661
 31
0.0
  0
ARC
  5
13A
  8
DATA
  6
CONTINUOUS
 62
     7
 10
-1023.0
 20
-520.2018057771559
 30
0.0
 40
15.00180577715581
 50
359.1109989073426
 51
180.8890010926574
  0
LINE
  5
13B
  8
DATA
  6
CONTINUOUS
 62
     7
 10
-1000.0
 20
-561.6000000000001
 30
0.0
 11
-1000.0
 21
-548.7
 31
0.0
  0
LINE
  5
13C
  8
DATA
  6
CONTINUOUS
 62
     7
 10
-1046.0
 20
-561.6000000000001
 30
0.0
 11
-1046.0
 21
-548.7
 31
0.0
  0
LINE
  5
13D
  8
DATA
  6
CONTINUOUS
 62
     7
 10
-1000.0
 20
-548.7
 30
0.0
 11
-1005.25
 21
-548.7
 31
0.0
  0
LINE
  5
13E
  8
DATA
  6
CONTINUOUS
 62
     7
 10
-1358.23097285244
 20
-548.7
 30
0.0
 11
-1040.75
 21
-548.7
 31
0.0
  0
LINE
  5
13F
  8
DATA
  6
CONTINUOUS
 62
     7
 10
-1007.0
 20
-563.3500000000001
 30
0.0
 11
-1008.0
 21
-563.3500000000001
 31
0.0
  0
LINE
  5
140
  8
DATA
  6
CONTINUOUS
 62
     7
 10
-1038.0
 20
-563.3500000000001
 30
0.0
 11
-1039.0
 21
-563.3500000000001
 31
0.0
  0
LINE
  5
141
  8
DATA
  6
CONTINUOUS
 62
     7
 10
-1005.25
 20
-548.7
 30
0.0
 11
-1005.25
 21
-561.6000000000001
 31
0.0
  0
LINE
  5
142
  8
DATA
  6
CONTINUOUS
 62
     7
 10
-1040.75
 20
-548.7
 30
0.0
 11
-1040.75
 21
-561.6000000000001
 31
0.0
  0
ARC
  5
143
  8
DATA
  6
CONTINUOUS
 62
     7
 10
-1039.0
 20
-561.6000000000001
 30
0.0
 40
7.0
 50
180.0
 51
270.0
  0
ARC
  5
144
  8
DATA
  6
CONTINUOUS
 62
     7
 10
-1007.0
 20
-561.6000000000001
 30
0.0
 40
7.0
 50
270.0
 51
0.0
  0
ARC
  5
145
  8
DATA
  6
CONTINUOUS
 62
     7
 10
-1007.0
 20
-561.6000000000001
 30
0.0
 40
1.75
 50
270.0
 51
0.0
  0
ARC
  5
146
  8
DATA
  6
CONTINUOUS
 62
     7
 10
-1039.0
 20
-561.6000000000001
 30
0.0
 40
1.75
 50
180.0
 51
270.0
  0
LINE
  5
147
  8
DATA
  6
CONTINUOUS
 62
     7
 10
-1005.0
 20
-568.3082039324993
 30
0.0
 11
-1005.0
 21
-574.0
 31
0.0
  0
LINE
  5
148
  8
DATA
  6
CONTINUOUS
 62
     7
 10
-1385.0
 20
-574.0
 30
0.0
 11
-1385.0
 21
-558.0
 31
0.0
  0
LINE
  5
149
  8
DATA
  6
CONTINUOUS
 62
     7
 10
-1016.5
 20
-575.0726114649681
 30
0.0
 11
-1016.5
 21
-568.6000000000001
 31
0.0
  0
LINE
  5
14A
  8
DATA
  6
CONTINUOUS
 62
     7
 10
-1029.5
 20
-575.0726114649681
 30
0.0
 11
-1029.5
 21
-568.6000000000001
 31
0.0
  0
LINE
  5
14B
  8
DATA
  6
CONTINUOUS
 62
     7
 10
-1029.5
 20
-575.0726114649681
 30
0.0
 11
-1016.5
 21
-575.0726114649681
 31
0.0
  0
LINE
  5
14C
  8
DATA
  6
CONTINUOUS
 62
     7
 10
-1029.5
 20
-573.6000000000001
 30
0.0
 11
-1016.5
 21
-573.6000000000001
 31
0.0
  0
LINE
  5
14D
  8
DATA
  6
CONTINUOUS
 62
     7
 10
-1120.899999999999
 20
-650.0000000000002
 30
0.0
 11
-1120.899999999999
 21
-575.9999999999998
 31
0.0
  0
LINE
  5
14E
  8
DATA
  6
CONTINUOUS
 62
     7
 10
-1163.1
 20
-650.0000000000002
 30
0.0
 11
-1163.1
 21
-575.9999999999998
 31
0.0
  0
LINE
  5
14F
  8
DATA
  6
CONTINUOUS
 62
     7
 10
-1120.899999999999
 20
-650.0
 30
0.0
 11
-1163.1
 21
-650.0
 31
0.0
  0
LINE
  5
150
  8
DATA
  6
CONTINUOUS
 62
     7
 10
-1118.899999999999
 20
-574.0
 30
0.0
 11
-1120.899999999999
 21
-575.9999999999998
 31
0.0
  0
LINE
  5
151
  8
DATA
  6
CONTINUOUS
 62
     7
 10
-1165.1
 20
-574.0
 30
0.0
 11
-1163.1
 21
-575.9999999999998
 31
0.0
  0
LINE
  5
152
  8
DATA
  6
CONTINUOUS
 62
     7
 10
-1385.0
 20
-574.0
 30
0.0
 11
-1029.5
 21
-574.0
 31
0.0
  0
LINE
  5
153
  8
DATA
  6
CONTINUOUS
 62
     7
 10
-1016.5
 20
-574.0
 30
0.0
 11
-1005.0
 21
-574.0
 31
0.0
  0
LINE
  5
154
  8
DATA
  6
CONTINUOUS
 62
     7
 10
-1120.899999999999
 20
-575.9999999999998
 30
0.0
 11
-1163.1
 21
-575.9999999999998
 31
0.0
  0
LINE
  5
155
  8
DATA
  6
CONTINUOUS
 62
     7
 10
-1007.0
 20
-568.6000000000001
 30
0.0
 11
-1039.0
 21
-568.6000000000001
 31
0.0
  0
ARC
  5
156
  8
DATA
  6
CONTINUOUS
 62
     7
 10
-1370.0
 20
-558.0
 30
0.0
 40
15.00000000000002
 50
38.31613447366546
 51
180.0
  0
CIRCLE
  5
157
  8
DATA
  6
CONTINUOUS
 62
     7
 10
-1370.0
 20
-558.0
 30
0.0
 40
6.450000000000045
  0
LINE
  5
158
  8
DATA
  6
CONTINUOUS
 62
     7
 10
-1325.0
 20
-570.0
 30
0.0
 11
-1350.0
 21
-570.0
 31
0.0
  0
LINE
  5
159
  8
DATA
  6
CONTINUOUS
 62
     7
 10
-1350.0
 20
-557.0
 30
0.0
 11
-1325.0
 21
-557.0
 31
0.0
  0
ARC
  5
15A
  8
DATA
  6
CONTINUOUS
 62
     7
 10
-1348.275
 20
-563.5
 30
0.0
 40
6.724999999999977
 50
104.8628159423443
 51
255.1371840576558
  0
ARC
  5
15B
  8
DATA
  6
CONTINUOUS
 62
     7
 10
-1326.725
 20
-563.5
 30
0.0
 40
6.724999999999977
 50
284.8628159423442
 51
75.13718405765573
  0
CIRCLE
  5
15C
  8
DATA
  6
CONTINUOUS
 62
     7
 10
-1325.0
 20
-563.5
 30
0.0
 40
1.599999999999909
  0
CIRCLE
  5
15D
  8
DATA
  6
CONTINUOUS
 62
     7
 10
-1350.0
 20
-563.5
 30
0.0
 40
4.800000000000182
  0
CIRCLE
  5
15E
  8
DATA
  6
CONTINUOUS
 62
     7
 10
-1350.0
 20
-563.5
 30
0.0
 40
3.599999999999909
  0
LINE
  5
15F
  8
DATA
  6
CONTINUOUS
 62
     7
 10
-1350.0
 20
-565.2320508075691
 30
0.0
 11
-1348.5
 21
-564.3660254037845
 31
0.0
  0
LINE
  5
160
  8
DATA
  6
CONTINUOUS
 62
     7
 10
-1351.5
 20
-564.3660254037845
 30
0.0
 11
-1350.0
 21
-565.2320508075691
 31
0.0
  0
LINE
  5
161
  8
DATA
  6
CONTINUOUS
 62
     7
 10
-1351.5
 20
-562.6339745962155
 30
0.0
 11
-1351.5
 21
-564.3660254037845
 31
0.0
  0
LINE
  5
162
  8
DATA
  6
CONTINUOUS
 62
     7
 10
-1348.5
 20
-562.6339745962155
 30
0.0
 11
-1348.5
 21
-564.3660254037845
 31
0.0
  0
LINE
  5
163
  8
DATA
  6
CONTINUOUS
 62
     7
 10
-1350.0
 20
-561.7679491924309
 30
0.0
 11
-1348.5
 21
-562.6339745962155
 31
0.0
  0
LINE
  5
164
  8
DATA
  6
CONTINUOUS
 62
     7
 10
-1351.5
 20
-562.6339745962155
 30
0.0
 11
-1350.0
 21
-561.7679491924309
 31
0.0
  0
LINE
  5
165
  8
DATA
  6
CONTINUOUS
 62
     7
 10
-1337.0
 20
-570.0
 30
0.0
 11
-1337.0
 21
-557.0
 31
0.0
  0
ARC
  5
166
  8
DATA
  6
CONTINUOUS
 62
     7
 10
-1235.5
 20
-563.5
 30
0.0
 40
4.0
 50
270.0
 51
90.0
  0
ARC
  5
167
  8
DATA
  6
CONTINUOUS
 62
     7
 10
-1237.5
 20
-563.5
 30
0.0
 40
4.0
 50
90.0
 51
270.0
  0
LINE
  5
168
  8
DATA
  6
CONTINUOUS
 62
     7
 10
-1235.5
 20
-559.5
 30
0.0
 11
-1237.5
 21
-559.5
 31
0.0
  0
LINE
  5
169
  8
DATA
  6
CONTINUOUS
 62
     7
 10
-1235.5
 20
-567.5
 30
0.0
 11
-1237.5
 21
-567.5
 31
0.0
  0
LINE
  5
16A
  8
DATA
  6
CONTINUOUS
 62
     7
 10
-815.0
 20
-444.75
 30
0.0
 11
-185.0
 21
-444.75
 31
0.0
  0
LINE
  5
16B
  8
DATA
  6
CONTINUOUS
 62
     7
 10
-815.0
 20
-409.25
 30
0.0
 11
-185.0
 21
-409.25
 31
0.0
  0
LINE
  5
16C
  8
DATA
  6
CONTINUOUS
 62
     7
 10
-176.0
 20
-412.0
 30
0.0
 11
-185.0
 21
-412.0
 31
0.0
  0
LINE
  5
16D
  8
DATA
  6
CONTINUOUS
 62
     7
 10
-185.0000000000001
 20
-442.0
 30
0.0
 11
-176.0
 21
-442.0
 31
0.0
  0
LINE
  5
16E
  8
DATA
  6
CONTINUOUS
 62
     7
 10
-181.25
 20
-412.0
 30
0.0
 11
-181.25
 21
-442.0
 31
0.0
  0
LINE
  5
16F
  8
DATA
  6
CONTINUOUS
 62
     7
 10
-818.75
 20
-412.0
 30
0.0
 11
-818.75
 21
-442.0
 31
0.0
  0
LINE
  5
170
  8
DATA
  6
CONTINUOUS
 62
     7
 10
-490.7500000000002
 20
-92.5
 30
0.0
 11
-490.7500000000002
 21
-65.0
 31
0.0
  0
LINE
  5
171
  8
DATA
  6
CONTINUOUS
 62
     7
 10
-509.2500000000002
 20
-92.5
 30
0.0
 11
-509.2500000000002
 21
-65.0
 31
0.0
  0
LINE
  5
172
  8
DATA
  6
CONTINUOUS
 62
     7
 10
-496.8500000000003
 20
-223.5
 30
0.0
 11
-496.8500000000003
 21
-65.0
 31
0.0
  0
LINE
  5
173
  8
DATA
  6
CONTINUOUS
 62
     7
 10
-503.1500000000002
 20
-223.5
 30
0.0
 11
-503.1500000000002
 21
-65.0
 31
0.0
  0
LINE
  5
174
  8
DATA
  6
CONTINUOUS
 62
     7
 10
-490.7500000000002
 20
-92.5
 30
0.0
 11
-496.8500000000003
 21
-92.5
 31
0.0
  0
LINE
  5
175
  8
DATA
  6
CONTINUOUS
 62
     7
 10
-503.1500000000002
 20
-92.5
 30
0.0
 11
-509.2500000000002
 21
-92.5
 31
0.0
  0
LINE
  5
176
  8
DATA
  6
CONTINUOUS
 62
     7
 10
-503.1500000000002
 20
-223.5
 30
0.0
 11
-496.8500000000003
 21
-223.5
 31
0.0
  0
LINE
  5
177
  8
DATA
  6
CONTINUOUS
 62
     7
 10
-478.8999999999997
 20
-404.0
 30
0.0
 11
-478.8999999999997
 21
-65.0
 31
0.0
  0
LINE
  5
178
  8
DATA
  6
CONTINUOUS
 62
     7
 10
-521.1000000000003
 20
-404.0
 30
0.0
 11
-521.1000000000003
 21
-65.0
 31
0.0
  0
LINE
  5
179
  8
DATA
  6
CONTINUOUS
 62
     7
 10
-503.1500000000002
 20
-67.60000000000002
 30
0.0
 11
-496.8500000000003
 21
-67.60000000000002
 31
0.0
  0
LINE
  5
17A
  8
DATA
  6
CONTINUOUS
 62
     7
 10
-1320.0
 20
-543.7
 30
0.0
 11
-1320.0
 21
-536.1000000000001
 31
0.0
  0
LINE
  5
17B
  8
DATA
  6
CONTINUOUS
 62
     7
 10
-1303.0
 20
-543.7
 30
0.0
 11
-1303.0
 21
-536.1000000000001
 31
0.0
  0
LINE
  5
17C
  8
DATA
  6
CONTINUOUS
 62
     7
 10
-1317.0
 20
-533.1000000000001
 30
0.0
 11
-1306.0
 21
-533.1000000000001
 31
0.0
  0
ARC
  5
17D
  8
DATA
  6
CONTINUOUS
 62
     7
 10
-1306.0
 20
-536.1000000000001
 30
0.0
 40
3.0
 50
0.0
 51
90.0
  0
ARC
  5
17E
  8
DATA
  6
CONTINUOUS
 62
     7
 10
-1317.0
 20
-536.1000000000001
 30
0.0
 40
3.0
 50
90.0
 51
180.0
  0
ARC
  5
17F
  8
DATA
  6
CONTINUOUS
 62
     7
 10
-1298.0
 20
-543.7
 30
0.0
 40
5.0
 50
180.0
 51
270.0
  0
ARC
  5
180
  8
DATA
  6
CONTINUOUS
 62
     7
 10
-1325.0
 20
-543.7
 30
0.0
 40
5.0
 50
270.0
 51
0.0
  0
LINE
  5
181
  8
DATA
  6
CONTINUOUS
 62
     7
 10
-503.15
 20
-130.0
 30
0.0
 11
-496.8500000000003
 21
-130.0
 31
0.0
  0
LINE
  5
182
  8
DATA
  6
CONTINUOUS
 62
     7
 10
-503.15
 20
-147.0
 30
0.0
 11
-496.8500000000003
 21
-147.0
 31
0.0
  0
LINE
  5
183
  8
DATA
  6
CONTINUOUS
 62
     7
 10
-486.7500000000002
 20
-86.0
 30
0.0
 11
-490.7500000000002
 21
-86.0
 31
0.0
  0
LINE
  5
184
  8
DATA
  6
CONTINUOUS
 62
     7
 10
-486.7500000000002
 20
-74.0
 30
0.0
 11
-490.7500000000002
 21
-74.0
 31
0.0
  0
LINE
  5
185
  8
DATA
  6
CONTINUOUS
 62
     7
 10
-486.7500000000002
 20
-86.0
 30
0.0
 11
-486.7500000000002
 21
-74.0
 31
0.0
  0
LINE
  5
186
  8
DATA
  6
CONTINUOUS
 62
     7
 10
-512.25
 20
-84.0
 30
0.0
 11
-512.25
 21
-76.0
 31
0.0
  0
LINE
  5
187
  8
DATA
  6
CONTINUOUS
 62
     7
 10
-509.7500000000002
 20
-86.0
 30
0.0
 11
-509.7500000000002
 21
-74.0
 31
0.0
  0
LINE
  5
188
  8
DATA
  6
CONTINUOUS
 62
     7
 10
-509.7500000000002
 20
-86.0
 30
0.0
 11
-509.2500000000002
 21
-86.0
 31
0.0
  0
LINE
  5
189
  8
DATA
  6
CONTINUOUS
 62
     7
 10
-509.7500000000002
 20
-74.0
 30
0.0
 11
-509.2500000000002
 21
-74.0
 31
0.0
  0
LINE
  5
18A
  8
DATA
  6
CONTINUOUS
 62
     7
 10
-512.25
 20
-76.0
 30
0.0
 11
-509.7500000000002
 21
-76.0
 31
0.0
  0
LINE
  5
18B
  8
DATA
  6
CONTINUOUS
 62
     7
 10
-512.25
 20
-84.0
 30
0.0
 11
-509.7500000000002
 21
-84.0
 31
0.0
  0
LINE
  5
18C
  8
DATA
  6
CONTINUOUS
 62
     7
 10
-815.0
 20
-846.0
 30
0.0
 11
-815.0
 21
-838.0
 31
0.0
  0
LINE
  5
18D
  8
DATA
  6
CONTINUOUS
 62
     7
 10
-815.0
 20
-808.0
 30
0.0
 11
-815.0
 21
-800.0
 31
0.0
  0
LINE
  5
18E
  8
DATA
  6
CONTINUOUS
 62
     7
 10
-185.0
 20
-846.0
 30
0.0
 11
-473.6500000000001
 21
-846.0
 31
0.0
  0
LINE
  5
18F
  8
DATA
  6
CONTINUOUS
 62
     7
 10
-526.3499999999999
 20
-846.0
 30
0.0
 11
-815.0
 21
-846.0
 31
0.0
  0
LINE
  5
190
  8
DATA
  6
CONTINUOUS
 62
     7
 10
-185.0
 20
-800.0
 30
0.0
 11
-185.0
 21
-808.0
 31
0.0
  0
LINE
  5
191
  8
DATA
  6
CONTINUOUS
 62
     7
 10
-185.0
 20
-838.0
 30
0.0
 11
-185.0
 21
-846.0
 31
0.0
  0
LINE
  5
192
  8
DATA
  6
CONTINUOUS
 62
     7
 10
-815.0
 20
-800.0
 30
0.0
 11
-185.0
 21
-800.0
 31
0.0
  0
LINE
  5
193
  8
DATA
  6
CONTINUOUS
 62
     7
 10
-824.0
 20
-838.0
 30
0.0
 11
-824.0
 21
-808.0
 31
0.0
  0
LINE
  5
194
  8
DATA
  6
CONTINUOUS
 62
     7
 10
-176.0
 20
-838.0
 30
0.0
 11
-185.0
 21
-838.0
 31
0.0
  0
LINE
  5
195
  8
DATA
  6
CONTINUOUS
 62
     7
 10
-815.0
 20
-838.0
 30
0.0
 11
-824.0
 21
-838.0
 31
0.0
  0
LINE
  5
196
  8
DATA
  6
CONTINUOUS
 62
     7
 10
-176.0
 20
-808.0
 30
0.0
 11
-176.0
 21
-838.0
 31
0.0
  0
LINE
  5
197
  8
DATA
  6
CONTINUOUS
 62
     7
 10
-824.0
 20
-808.0
 30
0.0
 11
-815.0
 21
-808.0
 31
0.0
  0
LINE
  5
198
  8
DATA
  6
CONTINUOUS
 62
     7
 10
-185.0
 20
-808.0
 30
0.0
 11
-176.0
 21
-808.0
 31
0.0
  0
LINE
  5
199
  8
DATA
  6
CONTINUOUS
 62
     7
 10
-809.0
 20
-816.5
 30
0.0
 11
-784.0
 21
-816.5
 31
0.0
  0
LINE
  5
19A
  8
DATA
  6
CONTINUOUS
 62
     7
 10
-784.0
 20
-829.5
 30
0.0
 11
-809.0
 21
-829.5
 31
0.0
  0
ARC
  5
19B
  8
DATA
  6
CONTINUOUS
 62
     7
 10
-785.7249999999999
 20
-823.0
 30
0.0
 40
6.724999999999977
 50
284.8628159423442
 51
75.13718405765573
  0
ARC
  5
19C
  8
DATA
  6
CONTINUOUS
 62
     7
 10
-807.2750000000001
 20
-823.0
 30
0.0
 40
6.724999999999977
 50
104.8628159423443
 51
255.1371840576558
  0
CIRCLE
  5
19D
  8
DATA
  6
CONTINUOUS
 62
     7
 10
-809.0
 20
-823.0
 30
0.0
 40
1.600000000000023
  0
CIRCLE
  5
19E
  8
DATA
  6
CONTINUOUS
 62
     7
 10
-784.0
 20
-823.0
 30
0.0
 40
4.800000000000068
  0
CIRCLE
  5
19F
  8
DATA
  6
CONTINUOUS
 62
     7
 10
-784.0
 20
-823.0
 30
0.0
 40
3.600000000000023
  0
LINE
  5
1A0
  8
DATA
  6
CONTINUOUS
 62
     7
 10
-784.0
 20
-821.267949192431
 30
0.0
 11
-785.5
 21
-822.1339745962156
 31
0.0
  0
LINE
  5
1A1
  8
DATA
  6
CONTINUOUS
 62
     7
 10
-782.5
 20
-822.1339745962156
 30
0.0
 11
-784.0
 21
-821.267949192431
 31
0.0
  0
LINE
  5
1A2
  8
DATA
  6
CONTINUOUS
 62
     7
 10
-782.5
 20
-823.8660254037844
 30
0.0
 11
-782.5
 21
-822.1339745962156
 31
0.0
  0
LINE
  5
1A3
  8
DATA
  6
CONTINUOUS
 62
     7
 10
-785.5
 20
-823.8660254037844
 30
0.0
 11
-785.5
 21
-822.1339745962156
 31
0.0
  0
LINE
  5
1A4
  8
DATA
  6
CONTINUOUS
 62
     7
 10
-784.0
 20
-824.732050807569
 30
0.0
 11
-785.5
 21
-823.8660254037844
 31
0.0
  0
LINE
  5
1A5
  8
DATA
  6
CONTINUOUS
 62
     7
 10
-782.5
 20
-823.8660254037844
 30
0.0
 11
-784.0
 21
-824.732050807569
 31
0.0
  0
LINE
  5
1A6
  8
DATA
  6
CONTINUOUS
 62
     7
 10
-797.0
 20
-816.5
 30
0.0
 11
-797.0
 21
-829.5
 31
0.0
  0
LINE
  5
1A7
  8
DATA
  6
CONTINUOUS
 62
     7
 10
-191.0
 20
-816.5
 30
0.0
 11
-216.0
 21
-816.5
 31
0.0
  0
LINE
  5
1A8
  8
DATA
  6
CONTINUOUS
 62
     7
 10
-216.0
 20
-829.5
 30
0.0
 11
-191.0
 21
-829.5
 31
0.0
  0
ARC
  5
1A9
  8
DATA
  6
CONTINUOUS
 62
     7
 10
-214.2750000000001
 20
-823.0
 30
0.0
 40
6.724999999999977
 50
104.8628159423443
 51
255.1371840576558
  0
ARC
  5
1AA
  8
DATA
  6
CONTINUOUS
 62
     7
 10
-192.7249999999999
 20
-823.0
 30
0.0
 40
6.724999999999977
 50
284.8628159423442
 51
75.13718405765573
  0
CIRCLE
  5
1AB
  8
DATA
  6
CONTINUOUS
 62
     7
 10
-191.0
 20
-823.0
 30
0.0
 40
1.600000000000023
  0
CIRCLE
  5
1AC
  8
DATA
  6
CONTINUOUS
 62
     7
 10
-216.0
 20
-823.0
 30
0.0
 40
4.800000000000068
  0
CIRCLE
  5
1AD
  8
DATA
  6
CONTINUOUS
 62
     7
 10
-216.0
 20
-823.0
 30
0.0
 40
3.600000000000023
  0
LINE
  5
1AE
  8
DATA
  6
CONTINUOUS
 62
     7
 10
-216.0
 20
-821.267949192431
 30
0.0
 11
-214.5
 21
-822.1339745962156
 31
0.0
  0
LINE
  5
1AF
  8
DATA
  6
CONTINUOUS
 62
     7
 10
-217.5
 20
-822.1339745962156
 30
0.0
 11
-216.0
 21
-821.267949192431
 31
0.0
  0
LINE
  5
1B0
  8
DATA
  6
CONTINUOUS
 62
     7
 10
-217.5
 20
-823.8660254037844
 30
0.0
 11
-217.5
 21
-822.1339745962156
 31
0.0
  0
LINE
  5
1B1
  8
DATA
  6
CONTINUOUS
 62
     7
 10
-214.5
 20
-823.8660254037844
 30
0.0
 11
-214.5
 21
-822.1339745962156
 31
0.0
  0
LINE
  5
1B2
  8
DATA
  6
CONTINUOUS
 62
     7
 10
-216.0
 20
-824.732050807569
 30
0.0
 11
-214.5
 21
-823.8660254037844
 31
0.0
  0
LINE
  5
1B3
  8
DATA
  6
CONTINUOUS
 62
     7
 10
-217.5
 20
-823.8660254037844
 30
0.0
 11
-216.0
 21
-824.732050807569
 31
0.0
  0
LINE
  5
1B4
  8
DATA
  6
CONTINUOUS
 62
     7
 10
-203.0
 20
-816.5
 30
0.0
 11
-203.0
 21
-829.5
 31
0.0
  0
CIRCLE
  5
1B5
  8
DATA
  6
CONTINUOUS
 62
     7
 10
-754.0
 20
-823.0
 30
0.0
 40
4.099999999999909
  0
CIRCLE
  5
1B6
  8
DATA
  6
CONTINUOUS
 62
     7
 10
-246.0
 20
-823.0
 30
0.0
 40
4.099999999999909
  0
ARC
  5
1B7
  8
DATA
  6
CONTINUOUS
 62
     7
 10
-525.25
 20
-810.0000000000001
 30
0.0
 40
5.000000000000114
 50
90.0
 51
179.9999999999987
  0
LINE
  5
1B8
  8
DATA
  6
CONTINUOUS
 62
     7
 10
-530.25
 20
-838.0
 30
0.0
 11
-530.25
 21
-810.0
 31
0.0
  0
ARC
  5
1B9
  8
DATA
  6
CONTINUOUS
 62
     7
 10
-525.2499999999995
 20
-837.9999999999997
 30
0.0
 40
5.000000000000455
 50
180.0000000000039
 51
257.290967005601
  0
ARC
  5
1BA
  8
DATA
  6
CONTINUOUS
 62
     7
 10
-474.75
 20
-837.9999999999998
 30
0.0
 40
5.000000000000307
 50
282.7090329943936
 51
359.9999999999974
  0
LINE
  5
1BB
  8
DATA
  6
CONTINUOUS
 62
     7
 10
-469.75
 20
-810.0
 30
0.0
 11
-469.75
 21
-838.0
 31
0.0
  0
ARC
  5
1BC
  8
DATA
  6
CONTINUOUS
 62
     7
 10
-474.75
 20
-809.9999999999999
 30
0.0
 40
5.0
 50
359.9999999999987
 51
90.0
  0
LINE
  5
1BD
  8
DATA
  6
CONTINUOUS
 62
     7
 10
-525.25
 20
-805.0
 30
0.0
 11
-474.75
 21
-805.0
 31
0.0
  0
CIRCLE
  5
1BE
  8
DATA
  6
CONTINUOUS
 62
     7
 10
-519.75
 20
-823.0
 30
0.0
 40
2.099999999999909
  0
CIRCLE
  5
1BF
  8
DATA
  6
CONTINUOUS
 62
     7
 10
-480.25
 20
-823.0
 30
0.0
 40
2.099999999999909
  0
LINE
  5
1C0
  8
DATA
  6
CONTINUOUS
 62
     7
 10
-526.3500000000004
 20
-1185.0
 30
0.0
 11
-473.6500000000001
 21
-1185.0
 31
0.0
  0
LINE
  5
1C1
  8
DATA
  6
CONTINUOUS
 62
     7
 10
-526.3499999999999
 20
-842.8774993593028
 30
0.0
 11
-526.3499999999999
 21
-1185.0
 31
0.0
  0
LINE
  5
1C2
  8
DATA
  6
CONTINUOUS
 62
     7
 10
-473.6500000000001
 20
-842.877499359303
 30
0.0
 11
-473.6500000000001
 21
-1185.0
 31
0.0
  0
CIRCLE
  5
1C3
  8
DATA
  6
CONTINUOUS
 62
     7
 10
-500.0
 20
-942.0
 30
0.0
 40
21.09999999999991
  0
CIRCLE
  5
1C4
  8
DATA
  6
CONTINUOUS
 62
     7
 10
-500.0
 20
-942.0
 30
0.0
 40
17.84999999999991
  0
CIRCLE
  5
1C5
  8
DATA
  6
CONTINUOUS
 62
     7
 10
-500.0
 20
-942.0
 30
0.0
 40
23.09999999999991
  0
LINE
  5
1C6
  8
DATA
  6
CONTINUOUS
 62
     7
 10
-531.3499999999999
 20
-1153.6
 30
0.0
 11
-528.75
 21
-1153.6
 31
0.0
  0
LINE
  5
1C7
  8
DATA
  6
CONTINUOUS
 62
     7
 10
-531.3499999999999
 20
-1146.4
 30
0.0
 11
-528.75
 21
-1146.4
 31
0.0
  0
LINE
  5
1C8
  8
DATA
  6
CONTINUOUS
 62
     7
 10
-531.3499999999999
 20
-1153.6
 30
0.0
 11
-531.3499999999999
 21
-1146.4
 31
0.0
  0
LINE
  5
1C9
  8
DATA
  6
CONTINUOUS
 62
     7
 10
-527.9499999999998
 20
-1155.0
 30
0.0
 11
-527.9499999999998
 21
-1137.0
 31
0.0
  0
LINE
  5
1CA
  8
DATA
  6
CONTINUOUS
 62
     7
 10
-526.3499999999999
 20
-1155.0
 30
0.0
 11
-527.9499999999998
 21
-1155.0
 31
0.0
  0
LINE
  5
1CB
  8
DATA
  6
CONTINUOUS
 62
     7
 10
-527.9499999999998
 20
-1137.0
 30
0.0
 11
-532.8226114649683
 21
-1120.433121019108
 31
0.0
  0
LINE
  5
1CC
  8
DATA
  6
CONTINUOUS
 62
     7
 10
-526.3499999999999
 20
-1137.0
 30
0.0
 11
-531.3499999999999
 21
-1120.0
 31
0.0
  0
LINE
  5
1CD
  8
DATA
  6
CONTINUOUS
 62
     7
 10
-531.3499999999999
 20
-1120.0
 30
0.0
 11
-532.8226114649683
 21
-1120.433121019108
 31
0.0
  0
LINE
  5
1CE
  8
DATA
  6
CONTINUOUS
 62
     7
 10
-527.9499999999998
 20
-1154.8
 30
0.0
 11
-528.75
 21
-1154.8
 31
0.0
  0
LINE
  5
1CF
  8
DATA
  6
CONTINUOUS
 62
     7
 10
-528.75
 20
-1154.8
 30
0.0
 11
-528.75
 21
-1145.2
 31
0.0
  0
LINE
  5
1D0
  8
DATA
  6
CONTINUOUS
 62
     7
 10
-527.9499999999998
 20
-1145.2
 30
0.0
 11
-528.75
 21
-1145.2
 31
0.0
  0
TEXT
  5
1D1
  8
DATA
 62
     7
 10
-701.4333550347224
 20
-1277.147352430556
 30
0.0
 40
54.29470486111116
  1
スピーカー固定金具
 41
0.7
 72
     1
 11
-500.0
 21
-1250.0
 31
0.0
 73
     2
  0
LINE
  5
1D2
  8
DATA
  6
CONTINUOUS
 62
     7
 10
-185.0
 20
-548.7
 30
0.0
 11
-815.0
 21
-548.7
 31
0.0
  0
LINE
  5
1D3
  8
DATA
  6
CONTINUOUS
 62
     7
 10
-496.8500000000003
 20
-548.7
 30
0.0
 11
-496.8500000000003
 21
-533.0999999999999
 31
0.0
  0
LINE
  5
1D4
  8
DATA
  6
CONTINUOUS
 62
     7
 10
-503.1500000000002
 20
-548.7
 30
0.0
 11
-503.1500000000002
 21
-533.0999999999999
 31
0.0
  0
LINE
  5
1D5
  8
DATA
  6
CONTINUOUS
 62
     7
 10
-496.8500000000003
 20
-533.0999999999999
 30
0.0
 11
-503.1500000000001
 21
-533.0999999999999
 31
0.0
  0
ENDSEC
  0
EOF
