  0
SECTION
  2
HEADER
  9
$ACADVER
  1
AC1015
  9
$ACADMAINTVER
 70
     6
  9
$DWGCODEPAGE
  3
ANSI_932
  9
$INSBASE
 10
0.0
 20
0.0
 30
0.0
  9
$EXTMIN
 10
0.0
 20
0.0
 30
0.0
  9
$EXTMAX
 10
594.0
 20
420.0
 30
0.0
  9
$LIMMIN
 10
0.0
 20
0.0
  9
$LIMMAX
 10
594.0
 20
420.0
  9
$ORTHOMODE
 70
     0
  9
$REGENMODE
 70
     1
  9
$FILLMODE
 70
     1
  9
$QTEXTMODE
 70
     0
  9
$MIRRTEXT
 70
     1
  9
$LTSCALE
 40
2.0
  9
$ATTMODE
 70
     1
  9
$TEXTSIZE
 40
2.5
  9
$TRACEWID
 40
1.0
  9
$TEXTSTYLE
  7
Standard
  9
$CLAYER
  8
0
  9
$CELTYPE
  6
ByLayer
  9
$CECOLOR
 62
   256
  9
$CELTSCALE
 40
1.0
  9
$DISPSILH
 70
     0
  9
$DIMSCALE
 40
1.0
  9
$DIMASZ
 40
2.5
  9
$DIMEXO
 40
0.625
  9
$DIMDLI
 40
3.75
  9
$DIMRND
 40
0.0
  9
$DIMDLE
 40
0.0
  9
$DIMEXE
 40
1.25
  9
$DIMTP
 40
0.0
  9
$DIMTM
 40
0.0
  9
$DIMTXT
 40
2.5
  9
$DIMCEN
 40
2.5
  9
$DIMTSZ
 40
0.0
  9
$DIMTOL
 70
     0
  9
$DIMLIM
 70
     0
  9
$DIMTIH
 70
     0
  9
$DIMTOH
 70
     0
  9
$DIMSE1
 70
     0
  9
$DIMSE2
 70
     0
  9
$DIMTAD
 70
     1
  9
$DIMZIN
 70
     8
  9
$DIMBLK
  1

  9
$DIMASO
 70
     1
  9
$DIMSHO
 70
     1
  9
$DIMPOST
  1

  9
$DIMAPOST
  1

  9
$DIMALT
 70
     0
  9
$DIMALTD
 70
     3
  9
$DIMALTF
 40
0.03937007874016
  9
$DIMLFAC
 40
1.0
  9
$DIMTOFL
 70
     1
  9
$DIMTVP
 40
0.0
  9
$DIMTIX
 70
     0
  9
$DIMSOXD
 70
     0
  9
$DIMSAH
 70
     0
  9
$DIMBLK1
  1

  9
$DIMBLK2
  1

  9
$DIMSTYLE
  2
ISO-25
  9
$DIMCLRD
 70
     0
  9
$DIMCLRE
 70
     0
  9
$DIMCLRT
 70
     0
  9
$DIMTFAC
 40
1.0
  9
$DIMGAP
 40
0.625
  9
$DIMJUST
 70
     0
  9
$DIMSD1
 70
     0
  9
$DIMSD2
 70
     0
  9
$DIMTOLJ
 70
     0
  9
$DIMTZIN
 70
     8
  9
$DIMALTZ
 70
     0
  9
$DIMALTTZ
 70
     0
  9
$DIMUPT
 70
     0
  9
$DIMDEC
 70
     2
  9
$DIMTDEC
 70
     2
  9
$DIMALTU
 70
     2
  9
$DIMALTTD
 70
     3
  9
$DIMTXSTY
  7
Standard
  9
$DIMAUNIT
 70
     0
  9
$DIMADEC
 70
     0
  9
$DIMALTRND
 40
0.0
  9
$DIMAZIN
 70
     0
  9
$DIMDSEP
 70
    46
  9
$DIMATFIT
 70
     3
  9
$DIMFRAC
 70
     0
  9
$DIMLDRBLK
  1

  9
$DIMLUNIT
 70
     2
  9
$DIMLWD
 70
    -2
  9
$DIMLWE
 70
    -2
  9
$DIMTMOVE
 70
     0
  9
$LUNITS
 70
     2
  9
$LUPREC
 70
     4
  9
$SKETCHINC
 40
1.0
  9
$FILLETRAD
 40
10.0
  9
$AUNITS
 70
     0
  9
$AUPREC
 70
     0
  9
$MENU
  1
.
  9
$ELEVATION
 40
0.0
  9
$PELEVATION
 40
0.0
  9
$THICKNESS
 40
0.0
  9
$LIMCHECK
 70
     0
  9
$CHAMFERA
 40
10.0
  9
$CHAMFERB
 40
10.0
  9
$CHAMFERC
 40
20.0
  9
$CHAMFERD
 40
0.0
  9
$SKPOLY
 70
     0
  9
$TDCREATE
 40
2457074.000000
  9
$TDUCREATE
 40
0.000000000
  9
$TDUPDATE
 40
2457074.000000
  9
$TDUUPDATE
 40
2457074.000000
  9
$TDINDWG
 40
0.0
  9
$TDUSRTIMER
 40
0.0
  9
$USRTIMER
 70
     1
  9
$ANGBASE
 50
0.0
  9
$ANGDIR
 70
     0
  9
$PDMODE
 70
     0
  9
$PDSIZE
 40
0.0
  9
$PLINEWID
 40
0.0
  9
$SPLFRAME
 70
     0
  9
$SPLINETYPE
 70
     6
  9
$SPLINESEGS
 70
     8
  9
$HANDSEED
  5
036F
  9
$SURFTAB1
 70
     6
  9
$SURFTAB2
 70
     6
  9
$SURFTYPE
 70
     6
  9
$SURFU
 70
     6
  9
$SURFV
 70
     6
  9
$UCSBASE
  2

  9
$UCSNAME
  2

  9
$UCSORG
 10
0.0
 20
0.0
 30
0.0
  9
$UCSXDIR
 10
1.0
 20
0.0
 30
0.0
  9
$UCSYDIR
 10
0.0
 20
1.0
 30
0.0
  9
$UCSORTHOREF
  2

  9
$UCSORTHOVIEW
 70
     0
  9
$UCSORGTOP
 10
0.0
 20
0.0
 30
0.0
  9
$UCSORGBOTTOM
 10
0.0
 20
0.0
 30
0.0
  9
$UCSORGLEFT
 10
0.0
 20
0.0
 30
0.0
  9
$UCSORGRIGHT
 10
0.0
 20
0.0
 30
0.0
  9
$UCSORGFRONT
 10
0.0
 20
0.0
 30
0.0
  9
$UCSORGBACK
 10
0.0
 20
0.0
 30
0.0
  9
$PUCSBASE
  2

  9
$PUCSNAME
  2

  9
$PUCSORG
 10
0.0
 20
0.0
 30
0.0
  9
$PUCSXDIR
 10
1.0
 20
0.0
 30
0.0
  9
$PUCSYDIR
 10
0.0
 20
1.0
 30
0.0
  9
$PUCSORTHOREF
  2

  9
$PUCSORTHOVIEW
 70
     0
  9
$PUCSORGTOP
 10
0.0
 20
0.0
 30
0.0
  9
$PUCSORGBOTTOM
 10
0.0
 20
0.0
 30
0.0
  9
$PUCSORGLEFT
 10
0.0
 20
0.0
 30
0.0
  9
$PUCSORGRIGHT
 10
0.0
 20
0.0
 30
0.0
  9
$PUCSORGFRONT
 10
0.0
 20
0.0
 30
0.0
  9
$PUCSORGBACK
 10
0.0
 20
0.0
 30
0.0
  9
$USERI1
 70
     0
  9
$USERI2
 70
     0
  9
$USERI3
 70
     0
  9
$USERI4
 70
     0
  9
$USERI5
 70
     0
  9
$USERR1
 40
0.0
  9
$USERR2
 40
0.0
  9
$USERR3
 40
0.0
  9
$USERR4
 40
0.0
  9
$USERR5
 40
0.0
  9
$WORLDVIEW
 70
     1
  9
$SHADEDGE
 70
     3
  9
$SHADEDIF
 70
    70
  9
$TILEMODE
 70
     1
  9
$MAXACTVP
 70
    64
  9
$PINSBASE
 10
0.0
 20
0.0
 30
0.0
  9
$PLIMCHECK
 70
     0
  9
$PEXTMIN
 10
1.000000E+20
 20
1.000000E+20
 30
1.000000E+20
  9
$PEXTMAX
 10
-1.000000E+20
 20
-1.000000E+20
 30
-1.000000E+20
  9
$PLIMMIN
 10
0.0
 20
0.0
  9
$PLIMMAX
 10
0.0
 20
0.0
  9
$UNITMODE
 70
     0
  9
$VISRETAIN
 70
     0
  9
$PLINEGEN
 70
     0
  9
$PSLTSCALE
 70
     1
  9
$TREEDEPTH
 70
  3020
  9
$CMLSTYLE
  2
STANDARD
  9
$CMLJUST
 70
     0
  9
$CMLSCALE
 40
20.0
  9
$PROXYGRAPHICS
 70
     1
  9
$MEASUREMENT
 70
     1
  9
$CELWEIGHT
370
    -1
  9
$ENDCAPS
280
     0
  9
$JOINSTYLE
280
     0
  9
$LWDISPLAY
290
     0
  9
$INSUNITS
 70
     4
  9
$HYPERLINKBASE
  1

  9
$STYLESHEET
  1

  9
$XEDIT
290
     1
  9
$CEPSNTYPE
380
     0
  9
$PSTYLEMODE
290
     1
  9
$FINGERPRINTGUID
  2
{90911134-5311-73AB-5FDC-855CD61D17EA}
  9
$VERSIONGUID
  2
{2CE646E7-7180-8358-EDE3-0FD45A378655}
  9
$EXTNAMES
290
     1
  9
$PSVPSCALE
 40
0.0
  0
ENDSEC
  0
SECTION
  2
CLASSES
  0
ENDSEC
  0
SECTION
  2
TABLES
  0
TABLE
  2
VPORT
  5
8
330
0
100
AcDbSymbolTable
 70
     3
  0
VPORT
  5
29
330
8
100
AcDbSymbolTableRecord
100
AcDbViewportTableRecord
  2
*Active
 70
     0
 10
0.0
 20
0.0
 11
1.0
 21
1.0
 12
297.0
 22
210.0
 13
0.0
 23
0.0
 14
10.0
 24
10.0
 15
0.0
 25
0.0
 16
0.0
 26
0.0
 36
1.0
 17
0.0
 27
0.0
 37
0.0
 40
420.0
 41
1.414285714
 42
50.0
 43
0.0
 44
0.0
 50
0.0
 51
0.0
 71
     0
 72
  1000
 73
     1
 74
     3
 75
     0
 76
     0
 77
     0
 78
     0
281
     0
 65
     0
110
0.0
120
0.0
130
0.0
111
1.0
121
0.0
131
0.0
112
0.0
122
1.0
132
0.0
 79
     0
146
0.0
  0
ENDTAB
  0
TABLE
  2
LTYPE
  5
5
330
0
100
AcDbSymbolTable
 70
     5
  0
LTYPE
  5
14
330
5
100
AcDbSymbolTableRecord
100
AcDbLinetypeTableRecord
  2
ByBlock
 70
     0
  3

 72
    65
 73
     0
 40
0.0
  0
LTYPE
  5
15
330
5
100
AcDbSymbolTableRecord
100
AcDbLinetypeTableRecord
  2
ByLayer
 70
     0
  3

 72
    65
 73
     0
 40
0.0
  0
LTYPE
  5
16
330
5
100
AcDbSymbolTableRecord
100
AcDbLinetypeTableRecord
  2
Continuous
 70
     0
  3
Solid line
 72
    65
 73
     0
 40
0.0
  0
LTYPE
  5
DA
330
5
100
AcDbSymbolTableRecord
100
AcDbLinetypeTableRecord
  2
LTYPE1
 70
     0
  3
CENTER
 72
    65
 73
     4
 40
12.0
 49
8.4
 74
     0
 49
-1.2
 74
     0
 49
1.2
 74
     0
 49
-1.2
 74
     0
  0
LTYPE
  5
DF
330
5
100
AcDbSymbolTableRecord
100
AcDbLinetypeTableRecord
  2
LTYPE2
 70
     0
  3
HIDDEN
 72
    65
 73
     2
 40
2.0
 49
1.2
 74
     0
 49
-0.8
 74
     0
  0
ENDTAB
  0
TABLE
  2
LAYER
  5
2
330
0
100
AcDbSymbolTable
 70
   128
  0
LAYER
  5
10
330
2
100
AcDbSymbolTableRecord
100
AcDbLayerTableRecord
  2
0
 70
     0
 62
     7
  6
Continuous
290
     1
370
    -3
390
F
  0
LAYER
  5
2A
330
2
100
AcDbSymbolTableRecord
100
AcDbLayerTableRecord
  2
2
 70
     0
 62
     7
  6
Continuous
290
     1
370
    -3
390
F
  0
LAYER
  5
2B
330
2
100
AcDbSymbolTableRecord
100
AcDbLayerTableRecord
  2
3
 70
     0
 62
     7
  6
Continuous
290
     1
370
    -3
390
F
  0
LAYER
  5
2C
330
2
100
AcDbSymbolTableRecord
100
AcDbLayerTableRecord
  2
4
 70
     0
 62
     7
  6
Continuous
290
     1
370
    -3
390
F
  0
LAYER
  5
2D
330
2
100
AcDbSymbolTableRecord
100
AcDbLayerTableRecord
  2
5
 70
     0
 62
     7
  6
Continuous
290
     1
370
    -3
390
F
  0
LAYER
  5
2E
330
2
100
AcDbSymbolTableRecord
100
AcDbLayerTableRecord
  2
6
 70
     0
 62
     7
  6
Continuous
290
     1
370
    -3
390
F
  0
LAYER
  5
2F
330
2
100
AcDbSymbolTableRecord
100
AcDbLayerTableRecord
  2
7
 70
     0
 62
     7
  6
Continuous
290
     1
370
    -3
390
F
  0
LAYER
  5
30
330
2
100
AcDbSymbolTableRecord
100
AcDbLayerTableRecord
  2
8
 70
     0
 62
     7
  6
Continuous
290
     1
370
    -3
390
F
  0
LAYER
  5
31
330
2
100
AcDbSymbolTableRecord
100
AcDbLayerTableRecord
  2
9
 70
     0
 62
     7
  6
Continuous
290
     1
370
    -3
390
F
  0
LAYER
  5
32
330
2
100
AcDbSymbolTableRecord
100
AcDbLayerTableRecord
  2
10
 70
     0
 62
     7
  6
Continuous
290
     1
370
    -3
390
F
  0
LAYER
  5
33
330
2
100
AcDbSymbolTableRecord
100
AcDbLayerTableRecord
  2
11
 70
     0
 62
     7
  6
Continuous
290
     1
370
    -3
390
F
  0
LAYER
  5
34
330
2
100
AcDbSymbolTableRecord
100
AcDbLayerTableRecord
  2
12
 70
     0
 62
     7
  6
Continuous
290
     1
370
    -3
390
F
  0
LAYER
  5
35
330
2
100
AcDbSymbolTableRecord
100
AcDbLayerTableRecord
  2
13
 70
     0
 62
     7
  6
Continuous
290
     1
370
    -3
390
F
  0
LAYER
  5
36
330
2
100
AcDbSymbolTableRecord
100
AcDbLayerTableRecord
  2
14
 70
     0
 62
     7
  6
Continuous
290
     1
370
    -3
390
F
  0
LAYER
  5
37
330
2
100
AcDbSymbolTableRecord
100
AcDbLayerTableRecord
  2
15
 70
     0
 62
     7
  6
Continuous
290
     1
370
    -3
390
F
  0
LAYER
  5
38
330
2
100
AcDbSymbolTableRecord
100
AcDbLayerTableRecord
  2
16
 70
     0
 62
     7
  6
Continuous
290
     1
370
    -3
390
F
  0
LAYER
  5
39
330
2
100
AcDbSymbolTableRecord
100
AcDbLayerTableRecord
  2
17
 70
     0
 62
     7
  6
Continuous
290
     1
370
    -3
390
F
  0
LAYER
  5
3A
330
2
100
AcDbSymbolTableRecord
100
AcDbLayerTableRecord
  2
18
 70
     0
 62
     7
  6
Continuous
290
     1
370
    -3
390
F
  0
LAYER
  5
3B
330
2
100
AcDbSymbolTableRecord
100
AcDbLayerTableRecord
  2
19
 70
     0
 62
     7
  6
Continuous
290
     1
370
    -3
390
F
  0
LAYER
  5
3C
330
2
100
AcDbSymbolTableRecord
100
AcDbLayerTableRecord
  2
20
 70
     0
 62
     7
  6
Continuous
290
     1
370
    -3
390
F
  0
LAYER
  5
3D
330
2
100
AcDbSymbolTableRecord
100
AcDbLayerTableRecord
  2
21
 70
     0
 62
     7
  6
Continuous
290
     1
370
    -3
390
F
  0
LAYER
  5
3E
330
2
100
AcDbSymbolTableRecord
100
AcDbLayerTableRecord
  2
22
 70
     0
 62
     7
  6
Continuous
290
     1
370
    -3
390
F
  0
LAYER
  5
3F
330
2
100
AcDbSymbolTableRecord
100
AcDbLayerTableRecord
  2
23
 70
     0
 62
     7
  6
Continuous
290
     1
370
    -3
390
F
  0
LAYER
  5
40
330
2
100
AcDbSymbolTableRecord
100
AcDbLayerTableRecord
  2
24
 70
     0
 62
     7
  6
Continuous
290
     1
370
    -3
390
F
  0
LAYER
  5
41
330
2
100
AcDbSymbolTableRecord
100
AcDbLayerTableRecord
  2
25
 70
     0
 62
     7
  6
Continuous
290
     1
370
    -3
390
F
  0
LAYER
  5
42
330
2
100
AcDbSymbolTableRecord
100
AcDbLayerTableRecord
  2
26
 70
     0
 62
     7
  6
Continuous
290
     1
370
    -3
390
F
  0
LAYER
  5
43
330
2
100
AcDbSymbolTableRecord
100
AcDbLayerTableRecord
  2
27
 70
     0
 62
     7
  6
Continuous
290
     1
370
    -3
390
F
  0
LAYER
  5
44
330
2
100
AcDbSymbolTableRecord
100
AcDbLayerTableRecord
  2
28
 70
     0
 62
     7
  6
Continuous
290
     1
370
    -3
390
F
  0
LAYER
  5
45
330
2
100
AcDbSymbolTableRecord
100
AcDbLayerTableRecord
  2
29
 70
     0
 62
     7
  6
Continuous
290
     1
370
    -3
390
F
  0
LAYER
  5
46
330
2
100
AcDbSymbolTableRecord
100
AcDbLayerTableRecord
  2
30
 70
     0
 62
     7
  6
Continuous
290
     1
370
    -3
390
F
  0
LAYER
  5
47
330
2
100
AcDbSymbolTableRecord
100
AcDbLayerTableRecord
  2
31
 70
     0
 62
     7
  6
Continuous
290
     1
370
    -3
390
F
  0
LAYER
  5
48
330
2
100
AcDbSymbolTableRecord
100
AcDbLayerTableRecord
  2
32
 70
     0
 62
     7
  6
Continuous
290
     1
370
    -3
390
F
  0
LAYER
  5
49
330
2
100
AcDbSymbolTableRecord
100
AcDbLayerTableRecord
  2
33
 70
     0
 62
     7
  6
Continuous
290
     1
370
    -3
390
F
  0
LAYER
  5
4A
330
2
100
AcDbSymbolTableRecord
100
AcDbLayerTableRecord
  2
34
 70
     0
 62
     7
  6
Continuous
290
     1
370
    -3
390
F
  0
LAYER
  5
4B
330
2
100
AcDbSymbolTableRecord
100
AcDbLayerTableRecord
  2
35
 70
     0
 62
     7
  6
Continuous
290
     1
370
    -3
390
F
  0
LAYER
  5
4C
330
2
100
AcDbSymbolTableRecord
100
AcDbLayerTableRecord
  2
36
 70
     0
 62
     7
  6
Continuous
290
     1
370
    -3
390
F
  0
LAYER
  5
4D
330
2
100
AcDbSymbolTableRecord
100
AcDbLayerTableRecord
  2
37
 70
     0
 62
     7
  6
Continuous
290
     1
370
    -3
390
F
  0
LAYER
  5
4E
330
2
100
AcDbSymbolTableRecord
100
AcDbLayerTableRecord
  2
38
 70
     0
 62
     7
  6
Continuous
290
     1
370
    -3
390
F
  0
LAYER
  5
4F
330
2
100
AcDbSymbolTableRecord
100
AcDbLayerTableRecord
  2
39
 70
     0
 62
     7
  6
Continuous
290
     1
370
    -3
390
F
  0
LAYER
  5
50
330
2
100
AcDbSymbolTableRecord
100
AcDbLayerTableRecord
  2
40
 70
     0
 62
     7
  6
Continuous
290
     1
370
    -3
390
F
  0
LAYER
  5
51
330
2
100
AcDbSymbolTableRecord
100
AcDbLayerTableRecord
  2
41
 70
     0
 62
     7
  6
Continuous
290
     1
370
    -3
390
F
  0
LAYER
  5
52
330
2
100
AcDbSymbolTableRecord
100
AcDbLayerTableRecord
  2
42
 70
     0
 62
     7
  6
Continuous
290
     1
370
    -3
390
F
  0
LAYER
  5
53
330
2
100
AcDbSymbolTableRecord
100
AcDbLayerTableRecord
  2
43
 70
     0
 62
     7
  6
Continuous
290
     1
370
    -3
390
F
  0
LAYER
  5
54
330
2
100
AcDbSymbolTableRecord
100
AcDbLayerTableRecord
  2
44
 70
     0
 62
     7
  6
Continuous
290
     1
370
    -3
390
F
  0
LAYER
  5
55
330
2
100
AcDbSymbolTableRecord
100
AcDbLayerTableRecord
  2
45
 70
     0
 62
     7
  6
Continuous
290
     1
370
    -3
390
F
  0
LAYER
  5
56
330
2
100
AcDbSymbolTableRecord
100
AcDbLayerTableRecord
  2
46
 70
     0
 62
     7
  6
Continuous
290
     1
370
    -3
390
F
  0
LAYER
  5
57
330
2
100
AcDbSymbolTableRecord
100
AcDbLayerTableRecord
  2
47
 70
     0
 62
     7
  6
Continuous
290
     1
370
    -3
390
F
  0
LAYER
  5
58
330
2
100
AcDbSymbolTableRecord
100
AcDbLayerTableRecord
  2
48
 70
     0
 62
     7
  6
Continuous
290
     1
370
    -3
390
F
  0
LAYER
  5
59
330
2
100
AcDbSymbolTableRecord
100
AcDbLayerTableRecord
  2
49
 70
     0
 62
     7
  6
Continuous
290
     1
370
    -3
390
F
  0
LAYER
  5
5A
330
2
100
AcDbSymbolTableRecord
100
AcDbLayerTableRecord
  2
50
 70
     0
 62
     7
  6
Continuous
290
     1
370
    -3
390
F
  0
LAYER
  5
5B
330
2
100
AcDbSymbolTableRecord
100
AcDbLayerTableRecord
  2
51
 70
     0
 62
     7
  6
Continuous
290
     1
370
    -3
390
F
  0
LAYER
  5
5C
330
2
100
AcDbSymbolTableRecord
100
AcDbLayerTableRecord
  2
52
 70
     0
 62
     7
  6
Continuous
290
     1
370
    -3
390
F
  0
LAYER
  5
5D
330
2
100
AcDbSymbolTableRecord
100
AcDbLayerTableRecord
  2
53
 70
     0
 62
     7
  6
Continuous
290
     1
370
    -3
390
F
  0
LAYER
  5
5E
330
2
100
AcDbSymbolTableRecord
100
AcDbLayerTableRecord
  2
54
 70
     0
 62
     7
  6
Continuous
290
     1
370
    -3
390
F
  0
LAYER
  5
5F
330
2
100
AcDbSymbolTableRecord
100
AcDbLayerTableRecord
  2
55
 70
     0
 62
     7
  6
Continuous
290
     1
370
    -3
390
F
  0
LAYER
  5
60
330
2
100
AcDbSymbolTableRecord
100
AcDbLayerTableRecord
  2
56
 70
     0
 62
     7
  6
Continuous
290
     1
370
    -3
390
F
  0
LAYER
  5
61
330
2
100
AcDbSymbolTableRecord
100
AcDbLayerTableRecord
  2
57
 70
     0
 62
     7
  6
Continuous
290
     1
370
    -3
390
F
  0
LAYER
  5
62
330
2
100
AcDbSymbolTableRecord
100
AcDbLayerTableRecord
  2
58
 70
     0
 62
     7
  6
Continuous
290
     1
370
    -3
390
F
  0
LAYER
  5
63
330
2
100
AcDbSymbolTableRecord
100
AcDbLayerTableRecord
  2
59
 70
     0
 62
     7
  6
Continuous
290
     1
370
    -3
390
F
  0
LAYER
  5
64
330
2
100
AcDbSymbolTableRecord
100
AcDbLayerTableRecord
  2
60
 70
     0
 62
     7
  6
Continuous
290
     1
370
    -3
390
F
  0
LAYER
  5
65
330
2
100
AcDbSymbolTableRecord
100
AcDbLayerTableRecord
  2
61
 70
     0
 62
     7
  6
Continuous
290
     1
370
    -3
390
F
  0
LAYER
  5
66
330
2
100
AcDbSymbolTableRecord
100
AcDbLayerTableRecord
  2
62
 70
     0
 62
     7
  6
Continuous
290
     1
370
    -3
390
F
  0
LAYER
  5
67
330
2
100
AcDbSymbolTableRecord
100
AcDbLayerTableRecord
  2
63
 70
     0
 62
     7
  6
Continuous
290
     1
370
    -3
390
F
  0
LAYER
  5
68
330
2
100
AcDbSymbolTableRecord
100
AcDbLayerTableRecord
  2
64
 70
     0
 62
     7
  6
Continuous
290
     1
370
    -3
390
F
  0
LAYER
  5
69
330
2
100
AcDbSymbolTableRecord
100
AcDbLayerTableRecord
  2
65
 70
     0
 62
     7
  6
Continuous
290
     1
370
    -3
390
F
  0
LAYER
  5
6A
330
2
100
AcDbSymbolTableRecord
100
AcDbLayerTableRecord
  2
66
 70
     0
 62
     7
  6
Continuous
290
     1
370
    -3
390
F
  0
LAYER
  5
6B
330
2
100
AcDbSymbolTableRecord
100
AcDbLayerTableRecord
  2
67
 70
     0
 62
     7
  6
Continuous
290
     1
370
    -3
390
F
  0
LAYER
  5
6C
330
2
100
AcDbSymbolTableRecord
100
AcDbLayerTableRecord
  2
68
 70
     0
 62
     7
  6
Continuous
290
     1
370
    -3
390
F
  0
LAYER
  5
6D
330
2
100
AcDbSymbolTableRecord
100
AcDbLayerTableRecord
  2
69
 70
     0
 62
     7
  6
Continuous
290
     1
370
    -3
390
F
  0
LAYER
  5
6E
330
2
100
AcDbSymbolTableRecord
100
AcDbLayerTableRecord
  2
70
 70
     0
 62
     7
  6
Continuous
290
     1
370
    -3
390
F
  0
LAYER
  5
6F
330
2
100
AcDbSymbolTableRecord
100
AcDbLayerTableRecord
  2
71
 70
     0
 62
     7
  6
Continuous
290
     1
370
    -3
390
F
  0
LAYER
  5
70
330
2
100
AcDbSymbolTableRecord
100
AcDbLayerTableRecord
  2
72
 70
     0
 62
     7
  6
Continuous
290
     1
370
    -3
390
F
  0
LAYER
  5
71
330
2
100
AcDbSymbolTableRecord
100
AcDbLayerTableRecord
  2
73
 70
     0
 62
     7
  6
Continuous
290
     1
370
    -3
390
F
  0
LAYER
  5
72
330
2
100
AcDbSymbolTableRecord
100
AcDbLayerTableRecord
  2
74
 70
     0
 62
     7
  6
Continuous
290
     1
370
    -3
390
F
  0
LAYER
  5
73
330
2
100
AcDbSymbolTableRecord
100
AcDbLayerTableRecord
  2
75
 70
     0
 62
     7
  6
Continuous
290
     1
370
    -3
390
F
  0
LAYER
  5
74
330
2
100
AcDbSymbolTableRecord
100
AcDbLayerTableRecord
  2
76
 70
     0
 62
     7
  6
Continuous
290
     1
370
    -3
390
F
  0
LAYER
  5
75
330
2
100
AcDbSymbolTableRecord
100
AcDbLayerTableRecord
  2
77
 70
     0
 62
     7
  6
Continuous
290
     1
370
    -3
390
F
  0
LAYER
  5
76
330
2
100
AcDbSymbolTableRecord
100
AcDbLayerTableRecord
  2
78
 70
     0
 62
     7
  6
Continuous
290
     1
370
    -3
390
F
  0
LAYER
  5
77
330
2
100
AcDbSymbolTableRecord
100
AcDbLayerTableRecord
  2
79
 70
     0
 62
     7
  6
Continuous
290
     1
370
    -3
390
F
  0
LAYER
  5
78
330
2
100
AcDbSymbolTableRecord
100
AcDbLayerTableRecord
  2
80
 70
     0
 62
     7
  6
Continuous
290
     1
370
    -3
390
F
  0
LAYER
  5
79
330
2
100
AcDbSymbolTableRecord
100
AcDbLayerTableRecord
  2
81
 70
     0
 62
     7
  6
Continuous
290
     1
370
    -3
390
F
  0
LAYER
  5
7A
330
2
100
AcDbSymbolTableRecord
100
AcDbLayerTableRecord
  2
82
 70
     0
 62
     7
  6
Continuous
290
     1
370
    -3
390
F
  0
LAYER
  5
7B
330
2
100
AcDbSymbolTableRecord
100
AcDbLayerTableRecord
  2
83
 70
     0
 62
     7
  6
Continuous
290
     1
370
    -3
390
F
  0
LAYER
  5
7C
330
2
100
AcDbSymbolTableRecord
100
AcDbLayerTableRecord
  2
84
 70
     0
 62
     7
  6
Continuous
290
     1
370
    -3
390
F
  0
LAYER
  5
7D
330
2
100
AcDbSymbolTableRecord
100
AcDbLayerTableRecord
  2
85
 70
     0
 62
     7
  6
Continuous
290
     1
370
    -3
390
F
  0
LAYER
  5
7E
330
2
100
AcDbSymbolTableRecord
100
AcDbLayerTableRecord
  2
86
 70
     0
 62
     7
  6
Continuous
290
     1
370
    -3
390
F
  0
LAYER
  5
7F
330
2
100
AcDbSymbolTableRecord
100
AcDbLayerTableRecord
  2
87
 70
     0
 62
     7
  6
Continuous
290
     1
370
    -3
390
F
  0
LAYER
  5
80
330
2
100
AcDbSymbolTableRecord
100
AcDbLayerTableRecord
  2
88
 70
     0
 62
     7
  6
Continuous
290
     1
370
    -3
390
F
  0
LAYER
  5
81
330
2
100
AcDbSymbolTableRecord
100
AcDbLayerTableRecord
  2
89
 70
     0
 62
     7
  6
Continuous
290
     1
370
    -3
390
F
  0
LAYER
  5
82
330
2
100
AcDbSymbolTableRecord
100
AcDbLayerTableRecord
  2
90
 70
     0
 62
     7
  6
Continuous
290
     1
370
    -3
390
F
  0
LAYER
  5
83
330
2
100
AcDbSymbolTableRecord
100
AcDbLayerTableRecord
  2
91
 70
     0
 62
     7
  6
Continuous
290
     1
370
    -3
390
F
  0
LAYER
  5
84
330
2
100
AcDbSymbolTableRecord
100
AcDbLayerTableRecord
  2
92
 70
     0
 62
     7
  6
Continuous
290
     1
370
    -3
390
F
  0
LAYER
  5
85
330
2
100
AcDbSymbolTableRecord
100
AcDbLayerTableRecord
  2
93
 70
     0
 62
     7
  6
Continuous
290
     1
370
    -3
390
F
  0
LAYER
  5
86
330
2
100
AcDbSymbolTableRecord
100
AcDbLayerTableRecord
  2
94
 70
     0
 62
     7
  6
Continuous
290
     1
370
    -3
390
F
  0
LAYER
  5
87
330
2
100
AcDbSymbolTableRecord
100
AcDbLayerTableRecord
  2
95
 70
     0
 62
     7
  6
Continuous
290
     1
370
    -3
390
F
  0
LAYER
  5
88
330
2
100
AcDbSymbolTableRecord
100
AcDbLayerTableRecord
  2
96
 70
     0
 62
     7
  6
Continuous
290
     1
370
    -3
390
F
  0
LAYER
  5
89
330
2
100
AcDbSymbolTableRecord
100
AcDbLayerTableRecord
  2
97
 70
     0
 62
     7
  6
Continuous
290
     1
370
    -3
390
F
  0
LAYER
  5
8A
330
2
100
AcDbSymbolTableRecord
100
AcDbLayerTableRecord
  2
98
 70
     0
 62
     7
  6
Continuous
290
     1
370
    -3
390
F
  0
LAYER
  5
8B
330
2
100
AcDbSymbolTableRecord
100
AcDbLayerTableRecord
  2
99
 70
     0
 62
     7
  6
Continuous
290
     1
370
    -3
390
F
  0
LAYER
  5
8C
330
2
100
AcDbSymbolTableRecord
100
AcDbLayerTableRecord
  2
100
 70
     0
 62
     7
  6
Continuous
290
     1
370
    -3
390
F
  0
LAYER
  5
8D
330
2
100
AcDbSymbolTableRecord
100
AcDbLayerTableRecord
  2
101
 70
     0
 62
     7
  6
Continuous
290
     1
370
    -3
390
F
  0
LAYER
  5
8E
330
2
100
AcDbSymbolTableRecord
100
AcDbLayerTableRecord
  2
102
 70
     0
 62
     7
  6
Continuous
290
     1
370
    -3
390
F
  0
LAYER
  5
8F
330
2
100
AcDbSymbolTableRecord
100
AcDbLayerTableRecord
  2
103
 70
     0
 62
     7
  6
Continuous
290
     1
370
    -3
390
F
  0
LAYER
  5
90
330
2
100
AcDbSymbolTableRecord
100
AcDbLayerTableRecord
  2
104
 70
     0
 62
     7
  6
Continuous
290
     1
370
    -3
390
F
  0
LAYER
  5
91
330
2
100
AcDbSymbolTableRecord
100
AcDbLayerTableRecord
  2
105
 70
     0
 62
     7
  6
Continuous
290
     1
370
    -3
390
F
  0
LAYER
  5
92
330
2
100
AcDbSymbolTableRecord
100
AcDbLayerTableRecord
  2
106
 70
     0
 62
     7
  6
Continuous
290
     1
370
    -3
390
F
  0
LAYER
  5
93
330
2
100
AcDbSymbolTableRecord
100
AcDbLayerTableRecord
  2
107
 70
     0
 62
     7
  6
Continuous
290
     1
370
    -3
390
F
  0
LAYER
  5
94
330
2
100
AcDbSymbolTableRecord
100
AcDbLayerTableRecord
  2
108
 70
     0
 62
     7
  6
Continuous
290
     1
370
    -3
390
F
  0
LAYER
  5
95
330
2
100
AcDbSymbolTableRecord
100
AcDbLayerTableRecord
  2
109
 70
     0
 62
     7
  6
Continuous
290
     1
370
    -3
390
F
  0
LAYER
  5
96
330
2
100
AcDbSymbolTableRecord
100
AcDbLayerTableRecord
  2
110
 70
     0
 62
     7
  6
Continuous
290
     1
370
    -3
390
F
  0
LAYER
  5
97
330
2
100
AcDbSymbolTableRecord
100
AcDbLayerTableRecord
  2
111
 70
     0
 62
     7
  6
Continuous
290
     1
370
    -3
390
F
  0
LAYER
  5
98
330
2
100
AcDbSymbolTableRecord
100
AcDbLayerTableRecord
  2
112
 70
     0
 62
     7
  6
Continuous
290
     1
370
    -3
390
F
  0
LAYER
  5
99
330
2
100
AcDbSymbolTableRecord
100
AcDbLayerTableRecord
  2
113
 70
     0
 62
     7
  6
Continuous
290
     1
370
    -3
390
F
  0
LAYER
  5
9A
330
2
100
AcDbSymbolTableRecord
100
AcDbLayerTableRecord
  2
114
 70
     0
 62
     7
  6
Continuous
290
     1
370
    -3
390
F
  0
LAYER
  5
9B
330
2
100
AcDbSymbolTableRecord
100
AcDbLayerTableRecord
  2
115
 70
     0
 62
     7
  6
Continuous
290
     1
370
    -3
390
F
  0
LAYER
  5
9C
330
2
100
AcDbSymbolTableRecord
100
AcDbLayerTableRecord
  2
116
 70
     0
 62
     7
  6
Continuous
290
     1
370
    -3
390
F
  0
LAYER
  5
9D
330
2
100
AcDbSymbolTableRecord
100
AcDbLayerTableRecord
  2
117
 70
     0
 62
     7
  6
Continuous
290
     1
370
    -3
390
F
  0
LAYER
  5
9E
330
2
100
AcDbSymbolTableRecord
100
AcDbLayerTableRecord
  2
118
 70
     0
 62
     7
  6
Continuous
290
     1
370
    -3
390
F
  0
LAYER
  5
9F
330
2
100
AcDbSymbolTableRecord
100
AcDbLayerTableRecord
  2
119
 70
     0
 62
     7
  6
Continuous
290
     1
370
    -3
390
F
  0
LAYER
  5
A0
330
2
100
AcDbSymbolTableRecord
100
AcDbLayerTableRecord
  2
120
 70
     0
 62
     7
  6
Continuous
290
     1
370
    -3
390
F
  0
LAYER
  5
A1
330
2
100
AcDbSymbolTableRecord
100
AcDbLayerTableRecord
  2
121
 70
     0
 62
     7
  6
Continuous
290
     1
370
    -3
390
F
  0
LAYER
  5
A2
330
2
100
AcDbSymbolTableRecord
100
AcDbLayerTableRecord
  2
122
 70
     0
 62
     7
  6
Continuous
290
     1
370
    -3
390
F
  0
LAYER
  5
A3
330
2
100
AcDbSymbolTableRecord
100
AcDbLayerTableRecord
  2
123
 70
     0
 62
     7
  6
Continuous
290
     1
370
    -3
390
F
  0
LAYER
  5
A4
330
2
100
AcDbSymbolTableRecord
100
AcDbLayerTableRecord
  2
124
 70
     0
 62
     7
  6
Continuous
290
     1
370
    -3
390
F
  0
LAYER
  5
A5
330
2
100
AcDbSymbolTableRecord
100
AcDbLayerTableRecord
  2
125
 70
     0
 62
     7
  6
Continuous
290
     1
370
    -3
390
F
  0
LAYER
  5
A6
330
2
100
AcDbSymbolTableRecord
100
AcDbLayerTableRecord
  2
126
 70
     0
 62
     7
  6
Continuous
290
     1
370
    -3
390
F
  0
LAYER
  5
A7
330
2
100
AcDbSymbolTableRecord
100
AcDbLayerTableRecord
  2
127
 70
     0
 62
     7
  6
Continuous
290
     1
370
    -3
390
F
  0
LAYER
  5
A8
330
2
100
AcDbSymbolTableRecord
100
AcDbLayerTableRecord
  2
128
 70
     0
 62
     7
  6
Continuous
290
     1
370
    -3
390
F
  0
ENDTAB
  0
TABLE
  2
STYLE
  5
3
330
0
100
AcDbSymbolTable
 70
     8
  0
STYLE
  5
11
330
3
100
AcDbSymbolTableRecord
100
AcDbTextStyleTableRecord
  2
Standard
 70
     0
 40
0.0
 41
1.0
 50
0.0
 71
     0
 42
2.5
  3
txt.shx
  4
extfont.shx
  0
STYLE
  5
AA
330
3
100
AcDbSymbolTableRecord
100
AcDbTextStyleTableRecord
  2
KANJI0
 70
     0
 40
6.0
 41
1.0
 50
0.0
 71
     0
 42
6.0
  3
txt.shx
  4
extfont.shx
  0
STYLE
  5
AD
330
3
100
AcDbSymbolTableRecord
100
AcDbTextStyleTableRecord
  2
KANJI1
 70
     4
 40
5.0
 41
1.0
 50
0.0
 71
     0
 42
5.0
  3
txt.shx
  4
extfont.shx
  0
STYLE
  5
B3
330
3
100
AcDbSymbolTableRecord
100
AcDbTextStyleTableRecord
  2
KANJI2
 70
     4
 40
5.0
 41
1.0
 50
0.0
 71
     0
 42
5.0
  3
txt.shx
  4
extfont.shx
  0
STYLE
  5
BC
330
3
100
AcDbSymbolTableRecord
100
AcDbTextStyleTableRecord
  2
KANJI3
 70
     0
 40
6.0
 41
0.45
 50
0.0
 71
     0
 42
6.0
  3
txt.shx
  4
extfont.shx
  0
STYLE
  5
C6
330
3
100
AcDbSymbolTableRecord
100
AcDbTextStyleTableRecord
  2
KANJI4
 70
     4
 40
3.333333333
 41
1.5
 50
0.0
 71
     0
 42
3.333333333
  3
txt.shx
  4
extfont.shx
  0
STYLE
  5
C9
330
3
100
AcDbSymbolTableRecord
100
AcDbTextStyleTableRecord
  2
KANJI5
 70
     0
 40
6.0
 41
0.9
 50
0.0
 71
     0
 42
6.0
  3
txt.shx
  4
extfont.shx
  0
STYLE
  5
14C
330
3
100
AcDbSymbolTableRecord
100
AcDbTextStyleTableRecord
  2
KANJI6
 70
     0
 40
6.0
 41
0.6
 50
0.0
 71
     0
 42
6.0
  3
txt.shx
  4
extfont.shx
  0
ENDTAB
  0
TABLE
  2
VIEW
  5
6
330
0
100
AcDbSymbolTable
 70
     0
  0
ENDTAB
  0
TABLE
  2
UCS
  5
7
330
0
100
AcDbSymbolTable
 70
     0
  0
ENDTAB
  0
TABLE
  2
APPID
  5
9
330
0
100
AcDbSymbolTable
 70
     1
  0
APPID
  5
12
330
9
100
AcDbSymbolTableRecord
100
AcDbRegAppTableRecord
  2
ACAD
 70
     0
  0
ENDTAB
  0
TABLE
  2
DIMSTYLE
  5
A
330
0
100
AcDbSymbolTable
 70
     1
100
AcDbDimStyleTable
 71
     0
  0
DIMSTYLE
105
27
330
A
100
AcDbSymbolTableRecord
100
AcDbDimStyleTableRecord
  2
ISO-25
 70
    64
  3

  4

 40
1.0
 41
2.5
 42
0.625
 43
3.75
 44
1.25
 45
0.0
 46
0.0
 47
0.0
 48
0.0
 71
     0
 72
     0
 73
     0
 74
     0
 75
     0
 76
     0
 77
     1
 78
     8
 79
     0
140
2.5
141
2.5
142
0.0
143
0.039370079
144
1.0
145
0.0
146
1.0
147
0.625
148
0.0
170
     0
171
     3
172
     1
173
     0
174
     0
175
     0
176
     0
177
     0
178
     0
179
     0
270
     2
271
     2
272
     2
273
     2
274
     3
275
     0
276
     0
277
     2
278
    46
279
     0
280
     0
281
     0
282
     0
283
     1
284
     8
285
     0
286
     0
288
     0
289
     3
340
11
341
0
342
0
343
0
344
0
371
    -2
372
    -2
  0
ENDTAB
  0
TABLE
  2
BLOCK_RECORD
  5
1
330
0
100
AcDbSymbolTable
 70
     3
  0
BLOCK_RECORD
  5
1F
330
1
100
AcDbSymbolTableRecord
100
AcDbBlockTableRecord
  2
*Model_Space
340
22
  0
BLOCK_RECORD
  5
1B
330
1
100
AcDbSymbolTableRecord
100
AcDbBlockTableRecord
  2
*Paper_Space
340
1E
  0
BLOCK_RECORD
  5
23
330
1
100
AcDbSymbolTableRecord
100
AcDbBlockTableRecord
  2
*Paper_Space0
340
26
  0
ENDTAB
  0
ENDSEC
  0
SECTION
  2
BLOCKS
  0
BLOCK
  5
1C
330
1B
100
AcDbEntity
 67
     1
  8
0
100
AcDbBlockBegin
  2
*Paper_Space
 70
     0
 10
0.0
 20
0.0
 30
0.0
  3
*Paper_Space
  1

  0
ENDBLK
  5
1D
330
1B
100
AcDbEntity
  8
0
100
AcDbBlockEnd
  0
BLOCK
  5
20
330
1F
100
AcDbEntity
  8
0
100
AcDbBlockBegin
  2
*Model_Space
 70
     0
 10
0.0
 20
0.0
 30
0.0
  3
*Model_Space
  1

  0
ENDBLK
  5
21
330
1F
100
AcDbEntity
  8
0
100
AcDbBlockEnd
  0
BLOCK
  5
24
330
23
100
AcDbEntity
 67
     1
  8
0
100
AcDbBlockBegin
  2
*Paper_Space0
 70
     0
 10
0.0
 20
0.0
 30
0.0
  3
*Paper_Space0
  1

  0
ENDBLK
  5
25
330
23
100
AcDbEntity
  8
0
100
AcDbBlockEnd
  0
ENDSEC
  0
SECTION
  2
ENTITIES
  0
MTEXT
  5
A9
330
1F
100
AcDbEntity
  8
4
  6
Continuous
 62
     2
100
AcDbMText
 10
206.0
 20
23.0
 30
0.0
 40
6.0
 41
160.0
 71
     7
 72
     1
  1
\T1.370;\W1.000;オオハシ産業株式会社
  7
KANJI0
 73
     1
 44
1.0
  0
LINE
  5
AB
330
1F
100
AcDbEntity
  8
4
  6
Continuous
 62
     2
100
AcDbLine
 10
574.0
 20
32.0
 30
0.0
 11
204.0
 21
32.0
 31
0.0
  0
MTEXT
  5
AC
330
1F
100
AcDbEntity
  8
4
  6
Continuous
 62
     2
100
AcDbMText
 10
465.0
 20
55.0
 30
0.0
 40
5.0
 41
20.0
 71
     1
 72
     3
  1
\W1.000;仕上
  7
KANJI1
 73
     1
 44
1.0
  0
LINE
  5
AE
330
1F
100
AcDbEntity
  8
4
  6
Continuous
 62
     2
100
AcDbLine
 10
464.0
 20
68.0
 30
0.0
 11
574.0
 21
68.0
 31
0.0
  0
LINE
  5
AF
330
1F
100
AcDbEntity
  8
4
  6
Continuous
 62
     2
100
AcDbLine
 10
464.0
 20
56.0
 30
0.0
 11
574.0
 21
56.0
 31
0.0
  0
MTEXT
  5
B0
330
1F
100
AcDbEntity
  8
4
  6
Continuous
 62
     2
100
AcDbMText
 10
465.0
 20
67.0
 30
0.0
 40
5.0
 41
20.0
 71
     1
 72
     3
  1
\W1.000;規格
  7
KANJI1
 73
     1
 44
1.0
  0
MTEXT
  5
B1
330
1F
100
AcDbEntity
  8
4
  6
Continuous
 62
     2
100
AcDbMText
 10
465.0
 20
79.0
 30
0.0
 40
5.0
 41
20.0
 71
     1
 72
     3
  1
\W1.000;材質
  7
KANJI1
 73
     1
 44
1.0
  0
MTEXT
  5
B2
330
1F
100
AcDbEntity
  8
4
  6
Continuous
 62
     2
100
AcDbMText
 10
465.0
 20
91.0
 30
0.0
 40
5.0
 41
20.0
 71
     1
 72
     3
  1
\W1.000;品番
  7
KANJI2
 73
     1
 44
1.0
  0
MTEXT
  5
B4
330
1F
100
AcDbEntity
  8
4
  6
Continuous
 62
     2
100
AcDbMText
 10
465.0
 20
103.0
 30
0.0
 40
5.0
 41
20.0
 71
     1
 72
     3
  1
\W1.000;図名
  7
KANJI1
 73
     1
 44
1.0
  0
LINE
  5
B5
330
1F
100
AcDbEntity
  8
4
  6
Continuous
 62
     2
100
AcDbLine
 10
464.0
 20
80.0
 30
0.0
 11
574.0
 21
80.0
 31
0.0
  0
LINE
  5
B6
330
1F
100
AcDbEntity
  8
4
  6
Continuous
 62
     2
100
AcDbLine
 10
464.0
 20
92.0
 30
0.0
 11
574.0
 21
92.0
 31
0.0
  0
LINE
  5
B7
330
1F
100
AcDbEntity
  8
4
  6
Continuous
 62
     2
100
AcDbLine
 10
464.0
 20
104.0
 30
0.0
 11
574.0
 21
104.0
 31
0.0
  0
LINE
  5
B8
330
1F
100
AcDbEntity
  8
4
  6
Continuous
 62
     2
100
AcDbLine
 10
290.0
 20
32.0
 30
0.0
 11
290.0
 21
20.0
 31
0.0
  0
MTEXT
  5
B9
330
1F
100
AcDbEntity
  8
4
  6
Continuous
 62
     2
100
AcDbMText
 10
291.0
 20
31.0
 30
0.0
 40
5.0
 41
20.0
 71
     1
 72
     3
  1
\W1.000;作図
  7
KANJI1
 73
     1
 44
1.0
  0
LINE
  5
BA
330
1F
100
AcDbEntity
  8
4
  6
Continuous
 62
     2
100
AcDbLine
 10
330.0
 20
20.0
 30
0.0
 11
330.0
 21
32.0
 31
0.0
  0
MTEXT
  5
BB
330
1F
100
AcDbEntity
  8
4
  6
Continuous
 62
     2
100
AcDbMText
 10
332.0
 20
23.0
 30
0.0
 40
6.0
 41
18.6
 71
     7
 72
     1
  1
\T1.111;\W0.900;FD=
  7
KANJI3
 73
     1
 44
1.0
  0
LINE
  5
BD
330
1F
100
AcDbEntity
  8
4
  6
Continuous
 62
     2
100
AcDbLine
 10
370.0
 20
20.0
 30
0.0
 11
370.0
 21
32.0
 31
0.0
  0
MTEXT
  5
BE
330
1F
100
AcDbEntity
  8
4
  6
Continuous
 62
     2
100
AcDbMText
 10
372.0
 20
23.0
 30
0.0
 40
6.0
 41
18.6
 71
     7
 72
     1
  1
\T1.111;\W0.900;NO=
  7
KANJI3
 73
     1
 44
1.0
  0
LINE
  5
BF
330
1F
100
AcDbEntity
  8
4
  6
Continuous
 62
     2
100
AcDbLine
 10
420.0
 20
32.0
 30
0.0
 11
420.0
 21
20.0
 31
0.0
  0
MTEXT
  5
C0
330
1F
100
AcDbEntity
  8
4
  6
Continuous
 62
     2
100
AcDbMText
 10
421.0
 20
31.0
 30
0.0
 40
5.0
 41
20.0
 71
     1
 72
     3
  1
\W1.000;日付
  7
KANJI1
 73
     1
 44
1.0
  0
LINE
  5
C1
330
1F
100
AcDbEntity
  8
4
  6
Continuous
 62
     2
100
AcDbLine
 10
464.0
 20
20.0
 30
0.0
 11
464.0
 21
104.0
 31
0.0
  0
MTEXT
  5
C2
330
1F
100
AcDbEntity
  8
4
  6
Continuous
 62
     2
100
AcDbMText
 10
421.0
 20
43.0
 30
0.0
 40
5.0
 41
20.0
 71
     1
 72
     3
  1
\W1.000;尺度
  7
KANJI1
 73
     1
 44
1.0
  0
LINE
  5
C3
330
1F
100
AcDbEntity
  8
4
  6
Continuous
 62
     2
100
AcDbLine
 10
420.0
 20
44.0
 30
0.0
 11
574.0
 21
44.0
 31
0.0
  0
MTEXT
  5
C4
330
1F
100
AcDbEntity
  8
4
  6
Continuous
 62
     2
100
AcDbMText
 10
465.0
 20
31.0
 30
0.0
 40
5.0
 41
20.0
 71
     1
 72
     3
  1
\W1.000;品名
  7
KANJI1
 73
     1
 44
1.0
  0
MTEXT
  5
C5
330
1F
100
AcDbEntity
  8
4
  6
Continuous
 62
     2
100
AcDbMText
 10
465.0
 20
43.0
 30
0.0
 40
3.333333333
 41
20.0
 71
     1
 72
     3
  1
\W1.500;その他
  7
KANJI4
 73
     1
 44
1.0
  0
LINE
  5
C7
330
1F
100
AcDbEntity
  8
4
  6
Continuous
 62
     2
100
AcDbLine
 10
204.0
 20
20.0
 30
0.0
 11
204.0
 21
32.0
 31
0.0
  0
MTEXT
  5
C8
330
1F
100
AcDbEntity
  8
4
  6
Continuous
 62
     2
100
AcDbMText
 10
476.0
 20
70.4
 30
0.0
 40
6.0
 41
34.8
 71
     7
 72
     1
  1
\T1.111;\W0.900;－－－
  7
KANJI5
 73
     1
 44
1.0
  0
MTEXT
  5
CA
330
1F
100
AcDbEntity
  8
4
  6
Continuous
 62
     2
100
AcDbMText
 10
476.0
 20
58.4
 30
0.0
 40
6.0
 41
34.8
 71
     7
 72
     1
  1
\T1.111;\W0.900;－－－
  7
KANJI5
 73
     1
 44
1.0
  0
MTEXT
  5
CB
330
1F
100
AcDbEntity
  8
4
  6
Continuous
 62
     2
100
AcDbMText
 10
476.0
 20
46.4
 30
0.0
 40
6.0
 41
34.8
 71
     7
 72
     1
  1
\T1.111;\W0.900;－－－
  7
KANJI5
 73
     1
 44
1.0
  0
MTEXT
  5
CC
330
1F
100
AcDbEntity
  8
4
  6
Continuous
 62
     2
100
AcDbMText
 10
476.0
 20
34.4
 30
0.0
 40
6.0
 41
34.8
 71
     7
 72
     1
  1
\T1.111;\W0.900;－－－
  7
KANJI5
 73
     1
 44
1.0
  0
MTEXT
  5
CD
330
1F
100
AcDbEntity
  8
4
  6
Continuous
 62
     2
100
AcDbMText
 10
234.0
 20
37.0
 30
0.0
 40
6.0
 41
274.8
 71
     7
 72
     1
  1
\T1.111;\W0.900;特記　　寸法指示無い公差は±０．５以内とする．
  7
KANJI5
 73
     1
 44
1.0
  0
POINT
  5
CE
330
1F
100
AcDbEntity
  8
4
  6
Continuous
 62
     2
100
AcDbPoint
 10
574.0
 20
104.0
 30
0.0
  0
LINE
  5
CF
330
1F
100
AcDbEntity
  8
4
  6
Continuous
 62
     2
100
AcDbLine
 10
20.0
 20
20.0
 30
0.0
 11
574.0
 21
20.0
 31
0.0
  0
LWPOLYLINE
  5
D1
330
1F
100
AcDbEntity
  8
4
  6
Continuous
 62
     2
100
AcDbPolyline
 90
     3
 70
   128
 43
0.0
 10
20.0
 20
20.0
 10
20.0
 20
400.0
 10
574.0
 20
400.0
  0
LINE
  5
D2
330
1F
100
AcDbEntity
  8
4
  6
Continuous
 62
     2
100
AcDbLine
 10
574.0
 20
20.0
 30
0.0
 11
574.0
 21
400.0
 31
0.0
  0
MTEXT
  5
D3
330
1F
100
AcDbEntity
  8
4
  6
Continuous
 62
     2
100
AcDbMText
 10
298.0
 20
22.4
 30
0.0
 40
6.0
 41
58.8
 71
     7
 72
     1
  1
\T1.111;\W0.900;大橋　一之
  7
KANJI5
 73
     1
 44
1.0
  0
LINE
  5
D4
330
1F
100
AcDbEntity
  8
4
  6
Continuous
 62
     2
100
AcDbLine
 10
420.0
 20
56.0
 30
0.0
 11
464.0
 21
56.0
 31
0.0
  0
LINE
  5
D5
330
1F
100
AcDbEntity
  8
4
  6
Continuous
 62
     2
100
AcDbLine
 10
420.0
 20
56.0
 30
0.0
 11
420.0
 21
32.0
 31
0.0
  0
MTEXT
  5
D6
330
1F
100
AcDbEntity
  8
4
  6
Continuous
 62
     2
100
AcDbMText
 10
421.0
 20
55.0
 30
0.0
 40
5.0
 41
20.0
 71
     1
 72
     3
  1
\W1.000;用紙
  7
KANJI1
 73
     1
 44
1.0
  0
MTEXT
  5
D7
330
1F
100
AcDbEntity
  8
4
  6
Continuous
 62
     2
100
AcDbMText
 10
345.2
 20
22.4
 30
0.0
 40
6.0
 41
25.2
 71
     7
 72
     1
  1
\T1.111;\W0.900;ﾋﾋﾞﾉ
  7
KANJI3
 73
     1
 44
1.0
  0
MTEXT
  5
D8
330
1F
100
AcDbEntity
  8
4
  6
Continuous
 62
     2
100
AcDbMText
 10
436.0
 20
34.4
 30
0.0
 40
6.0
 41
34.8
 71
     7
 72
     1
  1
\T1.111;\W0.900;１／２
  7
KANJI5
 73
     1
 44
1.0
  0
MTEXT
  5
D9
330
1F
100
AcDbEntity
  8
4
  6
Continuous
 62
     2
100
AcDbMText
 10
436.0
 20
46.4
 30
0.0
 40
6.0
 41
22.8
 71
     7
 72
     1
  1
\T1.111;\W0.900;Ａ４
  7
KANJI5
 73
     1
 44
1.0
  0
LINE
  5
DB
330
1F
100
AcDbEntity
  8
2
  6
LTYPE1
 62
     2
100
AcDbLine
 10
264.34043575
 20
238.651478418
 30
0.0
 11
229.423833247
 21
203.734875916
 31
0.0
  0
LINE
  5
DC
330
1F
100
AcDbEntity
  8
2
  6
LTYPE1
 62
     2
100
AcDbLine
 10
264.34043575
 20
238.651478418
 30
0.0
 11
229.423833247
 21
203.734875916
 31
0.0
  0
LINE
  5
DD
330
1F
100
AcDbEntity
  8
2
  6
Continuous
 62
     1
100
AcDbLine
 10
225.668931063
 20
208.465255106
 30
0.0
 11
259.61005656
 21
242.406380603
 31
0.0
  0
LINE
  5
DE
330
1F
100
AcDbEntity
  8
2
  6
Continuous
 62
     1
100
AcDbLine
 10
225.668931063
 20
208.465255106
 30
0.0
 11
259.61005656
 21
242.406380603
 31
0.0
  0
LINE
  5
E0
330
1F
100
AcDbEntity
  8
2
  6
LTYPE2
 62
     2
100
AcDbLine
 10
233.729948369
 20
191.918956426
 30
0.0
 11
276.15635524
 21
234.345363297
 31
0.0
  0
LINE
  5
E1
330
1F
100
AcDbEntity
  8
2
  6
Continuous
 62
     1
100
AcDbLine
 10
225.668931063
 20
185.837838108
 30
0.0
 11
228.497358188
 21
183.009410983
 31
0.0
  0
LINE
  5
E2
330
1F
100
AcDbEntity
  8
2
  6
Continuous
 62
     1
100
AcDbLine
 10
225.668931063
 20
208.465255106
 30
0.0
 11
225.668931063
 21
185.837838108
 31
0.0
  0
LINE
  5
E3
330
1F
100
AcDbEntity
  8
2
  6
Continuous
 62
     1
100
AcDbLine
 10
228.497358188
 20
183.009410983
 30
0.0
 11
285.065900683
 21
239.577953478
 31
0.0
  0
LINE
  5
E4
330
1F
100
AcDbEntity
  8
2
  6
Continuous
 62
     1
100
AcDbLine
 10
282.237473558
 20
242.406380603
 30
0.0
 11
285.065900683
 21
239.577953478
 31
0.0
  0
LINE
  5
E5
330
1F
100
AcDbEntity
  8
2
  6
Continuous
 62
     1
100
AcDbLine
 10
259.61005656
 20
242.406380603
 30
0.0
 11
282.237473558
 21
242.406380603
 31
0.0
  0
LINE
  5
E6
330
1F
100
AcDbEntity
  8
2
  6
LTYPE2
 62
     2
100
AcDbLine
 10
233.729948369
 20
191.918956426
 30
0.0
 11
235.568426
 21
190.080478795
 31
0.0
  0
LINE
  5
E7
330
1F
100
AcDbEntity
  8
2
  6
LTYPE2
 62
     2
100
AcDbLine
 10
276.15635524
 20
234.345363297
 30
0.0
 11
277.994832871
 21
232.506885666
 31
0.0
  0
LINE
  5
E8
330
1F
100
AcDbEntity
  8
2
  6
Continuous
 62
     1
100
AcDbLine
 10
286.606575326
 20
124.900193845
 30
0.0
 11
343.175117821
 21
181.46873634
 31
0.0
  0
LINE
  5
E9
330
1F
100
AcDbEntity
  8
2
  6
Continuous
 62
     1
100
AcDbLine
 10
288.445052957
 20
123.061716214
 30
0.0
 11
286.606575326
 21
124.900193845
 31
0.0
  0
LINE
  5
EA
330
1F
100
AcDbEntity
  8
2
  6
Continuous
 62
     1
100
AcDbLine
 10
345.013595452
 20
179.630258708
 30
0.0
 11
343.175117821
 21
181.46873634
 31
0.0
  0
LINE
  5
EB
330
1F
100
AcDbEntity
  8
0
  6
LTYPE1
 62
     2
100
AcDbLine
 10
264.34043575
 20
238.651478418
 30
0.0
 11
229.423833247
 21
203.734875916
 31
0.0
  0
LINE
  5
EC
330
1F
100
AcDbEntity
  8
0
  6
LTYPE1
 62
     2
100
AcDbLine
 10
264.34043575
 20
238.651478418
 30
0.0
 11
229.423833247
 21
203.734875916
 31
0.0
  0
LINE
  5
ED
330
1F
100
AcDbEntity
  8
0
  6
Continuous
 62
     1
100
AcDbLine
 10
406.705111048
 20
244.894119105
 30
0.0
 11
406.705111048
 21
242.894119105
 31
0.0
  0
LINE
  5
EE
330
1F
100
AcDbEntity
  8
0
  6
Continuous
 62
     1
100
AcDbLine
 10
286.705111048
 20
244.894119105
 30
0.0
 11
406.705111048
 21
244.894119105
 31
0.0
  0
LWPOLYLINE
  5
F0
330
1F
100
AcDbEntity
  8
0
  6
Continuous
 62
     1
100
AcDbPolyline
 90
     3
 70
   128
 43
0.0
 10
286.705111048
 20
244.894119105
 10
286.705111048
 20
242.894119105
 10
406.705111048
 20
242.894119105
  0
LINE
  5
F1
330
1F
100
AcDbEntity
  8
0
  6
Continuous
 62
     1
100
AcDbLine
 10
304.705111048
 20
242.894119105
 30
0.0
 11
304.705111048
 21
240.294119105
 31
0.0
  0
LINE
  5
F2
330
1F
100
AcDbEntity
  8
0
  6
Continuous
 62
     1
100
AcDbLine
 10
225.668931063
 20
185.837838108
 30
0.0
 11
228.497358188
 21
183.009410983
 31
0.0
  0
LINE
  5
F3
330
1F
100
AcDbEntity
  8
0
  6
Continuous
 62
     1
100
AcDbLine
 10
225.668931063
 20
208.465255106
 30
0.0
 11
259.61005656
 21
242.406380603
 31
0.0
  0
LINE
  5
F4
330
1F
100
AcDbEntity
  8
0
  6
Continuous
 62
     1
100
AcDbLine
 10
282.237473558
 20
242.406380603
 30
0.0
 11
285.065900683
 21
239.577953478
 31
0.0
  0
LINE
  5
F5
330
1F
100
AcDbEntity
  8
0
  6
Continuous
 62
     1
100
AcDbLine
 10
282.237473558
 20
242.406380603
 30
0.0
 11
285.065900683
 21
239.577953478
 31
0.0
  0
LINE
  5
F6
330
1F
100
AcDbEntity
  8
0
  6
Continuous
 62
     1
100
AcDbLine
 10
259.61005656
 20
242.406380603
 30
0.0
 11
282.237473558
 21
242.406380603
 31
0.0
  0
LINE
  5
F7
330
1F
100
AcDbEntity
  8
0
  6
Continuous
 62
     1
100
AcDbLine
 10
225.668931063
 20
208.465255106
 30
0.0
 11
259.61005656
 21
242.406380603
 31
0.0
  0
LINE
  5
F8
330
1F
100
AcDbEntity
  8
0
  6
Continuous
 62
     1
100
AcDbLine
 10
225.668931063
 20
208.465255106
 30
0.0
 11
225.668931063
 21
185.837838108
 31
0.0
  0
LINE
  5
F9
330
1F
100
AcDbEntity
  8
0
  6
Continuous
 62
     1
100
AcDbLine
 10
225.668931063
 20
185.837838108
 30
0.0
 11
228.497358188
 21
183.009410983
 31
0.0
  0
LINE
  5
FA
330
1F
100
AcDbEntity
  8
0
  6
Continuous
 62
     1
100
AcDbLine
 10
291.705111048
 20
238.294119105
 30
0.0
 11
299.705111048
 21
238.294119105
 31
0.0
  0
LINE
  5
FB
330
1F
100
AcDbEntity
  8
0
  6
Continuous
 62
     1
100
AcDbLine
 10
291.705111048
 20
240.294119105
 30
0.0
 11
291.705111048
 21
238.294119105
 31
0.0
  0
LINE
  5
FC
330
1F
100
AcDbEntity
  8
0
  6
Continuous
 62
     1
100
AcDbLine
 10
299.705111048
 20
240.294119105
 30
0.0
 11
299.705111048
 21
238.294119105
 31
0.0
  0
LINE
  5
FD
330
1F
100
AcDbEntity
  8
0
  6
Continuous
 62
     1
100
AcDbLine
 10
229.78119256
 20
176.370200618
 30
0.0
 11
229.78119256
 21
168.370200618
 31
0.0
  0
LINE
  5
FE
330
1F
100
AcDbEntity
  8
0
  6
Continuous
 62
     1
100
AcDbLine
 10
227.78119256
 20
176.370200618
 30
0.0
 11
229.78119256
 21
176.370200618
 31
0.0
  0
LINE
  5
FF
330
1F
100
AcDbEntity
  8
0
  6
Continuous
 62
     1
100
AcDbLine
 10
227.78119256
 20
168.370200618
 30
0.0
 11
229.78119256
 21
168.370200618
 31
0.0
  0
LINE
  5
100
330
1F
100
AcDbEntity
  8
0
  6
LTYPE2
 62
     2
100
AcDbLine
 10
276.863462021
 20
235.052470078
 30
0.0
 11
283.227423052
 21
241.416431109
 31
0.0
  0
LINE
  5
101
330
1F
100
AcDbEntity
  8
0
  6
LTYPE2
 62
     2
100
AcDbLine
 10
226.658880557
 20
184.847888614
 30
0.0
 11
233.022841587
 21
191.211849645
 31
0.0
  0
LINE
  5
102
330
1F
100
AcDbEntity
  8
0
  6
Continuous
 62
     1
100
AcDbLine
 10
294.101907207
 20
117.404861964
 30
0.0
 11
288.445052957
 21
123.061716214
 31
0.0
  0
LINE
  5
103
330
1F
100
AcDbEntity
  8
0
  6
Continuous
 62
     1
100
AcDbLine
 10
345.013595452
 20
179.630258708
 30
0.0
 11
350.670449702
 21
173.973404459
 31
0.0
  0
ARC
  5
104
330
1F
100
AcDbEntity
  8
0
  6
Continuous
 62
     1
100
AcDbCircle
 10
350.325251252
 20
86.637362041
 30
0.0
 40
5.0
100
AcDbArc
 50
225.0
 51
315.0
  0
LINE
  5
105
330
1F
100
AcDbEntity
  8
0
  6
Continuous
 62
     1
100
AcDbLine
 10
384.97348353
 20
114.214526508
 30
0.0
 11
353.860785158
 21
83.101828135
 31
0.0
  0
ARC
  5
106
330
1F
100
AcDbEntity
  8
0
  6
Continuous
 62
     1
100
AcDbCircle
 10
381.437949624
 20
117.750060414
 30
0.0
 40
5.0
100
AcDbArc
 50
315.0
 51
45.0
  0
LINE
  5
107
330
1F
100
AcDbEntity
  8
0
  6
LTYPE2
 62
     2
100
AcDbLine
 10
349.954284074
 20
60.120153842
 30
0.0
 11
293.385741579
 21
116.688696337
 31
0.0
  0
LINE
  5
108
330
1F
100
AcDbEntity
  8
0
  6
Continuous
 62
     1
100
AcDbLine
 10
349.192761705
 20
59.358631473
 30
0.0
 11
292.62421921
 21
115.927173968
 31
0.0
  0
LINE
  5
109
330
1F
100
AcDbEntity
  8
0
  6
LTYPE2
 62
     2
100
AcDbLine
 10
407.955157824
 20
118.121027591
 30
0.0
 11
351.386615329
 21
174.689570086
 31
0.0
  0
LINE
  5
10A
330
1F
100
AcDbEntity
  8
0
  6
Continuous
 62
     1
100
AcDbLine
 10
408.716680193
 20
118.88254996
 30
0.0
 11
352.148137698
 21
175.451092455
 31
0.0
  0
LINE
  5
10B
330
1F
100
AcDbEntity
  8
0
  6
Continuous
 62
     1
100
AcDbLine
 10
346.789717346
 20
83.101828135
 30
0.0
 11
323.093285235
 21
106.798260246
 31
0.0
  0
LINE
  5
10C
330
1F
100
AcDbEntity
  8
0
  6
Continuous
 62
     1
100
AcDbLine
 10
323.093285235
 20
106.798260246
 30
0.0
 11
310.011809783
 21
114.222881449
 31
0.0
  0
LINE
  5
10D
330
1F
100
AcDbEntity
  8
0
  6
Continuous
 62
     1
100
AcDbLine
 10
361.277051419
 20
144.98202643
 30
0.0
 11
384.97348353
 21
121.285594319
 31
0.0
  0
LINE
  5
10E
330
1F
100
AcDbEntity
  8
0
  6
Continuous
 62
     1
100
AcDbLine
 10
361.277051419
 20
144.98202643
 30
0.0
 11
353.852430217
 21
158.063501882
 31
0.0
  0
LINE
  5
10F
330
1F
100
AcDbEntity
  8
0
  6
Continuous
 62
     1
100
AcDbLine
 10
362.148137698
 20
185.451092455
 30
0.0
 11
418.716680193
 21
128.88254996
 31
0.0
  0
LINE
  5
110
330
1F
100
AcDbEntity
  8
0
  6
Continuous
 62
     2
100
AcDbLine
 10
360.848137698
 20
184.151092455
 30
0.0
 11
417.416680193
 21
127.58254996
 31
0.0
  0
LINE
  5
111
330
1F
100
AcDbEntity
  8
0
  6
Continuous
 62
     1
100
AcDbLine
 10
350.670449702
 20
173.973404459
 30
0.0
 11
409.152829
 21
232.455783757
 31
0.0
  0
ELLIPSE
  5
112
330
1F
100
AcDbEntity
  8
0
  6
Continuous
 62
     2
100
AcDbEllipse
 10
362.41920551
 20
171.580024643
 30
0.0
 11
2.828427125
 21
-2.828427125
 31
0.0
 40
0.707106781
 41
0.0
 42
6.283185307
  0
LINE
  5
113
330
1F
100
AcDbEntity
  8
0
  6
Continuous
 62
     2
100
AcDbLine
 10
359.590778385
 20
174.408451768
 30
0.0
 11
360.590778385
 21
175.408451768
 31
0.0
  0
LINE
  5
114
330
1F
100
AcDbEntity
  8
0
  6
Continuous
 62
     2
100
AcDbLine
 10
365.247632635
 20
168.751597519
 30
0.0
 11
366.247632635
 21
169.751597519
 31
0.0
  0
ELLIPSE
  5
115
330
1F
100
AcDbEntity
  8
0
  6
Continuous
 62
     2
100
AcDbEllipse
 10
363.41920551
 20
172.580024643
 30
0.0
 11
2.828427125
 21
-2.828427125
 31
0.0
 40
0.707106781
 41
0.0
 42
3.141592654
  0
ELLIPSE
  5
116
330
1F
100
AcDbEntity
  8
0
  6
Continuous
 62
     2
100
AcDbEllipse
 10
404.845612381
 20
129.153617772
 30
0.0
 11
2.828427125
 21
-2.828427125
 31
0.0
 40
0.707106781
 41
0.0
 42
6.283185307
  0
LINE
  5
117
330
1F
100
AcDbEntity
  8
0
  6
Continuous
 62
     2
100
AcDbLine
 10
407.674039506
 20
126.325190648
 30
0.0
 11
408.674039506
 21
127.325190648
 31
0.0
  0
LINE
  5
118
330
1F
100
AcDbEntity
  8
0
  6
Continuous
 62
     2
100
AcDbLine
 10
402.017185256
 20
131.982044897
 30
0.0
 11
403.017185256
 21
132.982044897
 31
0.0
  0
ELLIPSE
  5
119
330
1F
100
AcDbEntity
  8
0
  6
Continuous
 62
     2
100
AcDbEllipse
 10
405.845612381
 20
130.153617772
 30
0.0
 11
2.828427125
 21
-2.828427125
 31
0.0
 40
0.707106781
 41
0.0
 42
3.141592654
  0
ELLIPSE
  5
11A
330
1F
100
AcDbEntity
  8
0
  6
Continuous
 62
     2
100
AcDbEllipse
 10
383.632408945
 20
150.366821208
 30
0.0
 11
2.828427125
 21
-2.828427125
 31
0.0
 40
0.707106781
 41
0.0
 42
6.283185307
  0
LINE
  5
11B
330
1F
100
AcDbEntity
  8
0
  6
Continuous
 62
     2
100
AcDbLine
 10
380.803981821
 20
153.195248333
 30
0.0
 11
381.803981821
 21
154.195248333
 31
0.0
  0
LINE
  5
11C
330
1F
100
AcDbEntity
  8
0
  6
Continuous
 62
     2
100
AcDbLine
 10
386.46083607
 20
147.538394083
 30
0.0
 11
387.46083607
 21
148.538394083
 31
0.0
  0
ELLIPSE
  5
11D
330
1F
100
AcDbEntity
  8
0
  6
Continuous
 62
     2
100
AcDbEllipse
 10
384.632408945
 20
151.366821208
 30
0.0
 11
2.828427125
 21
-2.828427125
 31
0.0
 40
0.707106781
 41
0.0
 42
3.141592654
  0
LINE
  5
11E
330
1F
100
AcDbEntity
  8
0
  6
Continuous
 62
     2
100
AcDbLine
 10
283.92421921
 20
107.227173968
 30
0.0
 11
340.492761705
 21
50.658631473
 31
0.0
  0
ELLIPSE
  5
11F
330
1F
100
AcDbEntity
  8
0
  6
Continuous
 62
     2
100
AcDbEllipse
 10
296.495287022
 20
105.656106156
 30
0.0
 11
2.828427125
 21
-2.828427125
 31
0.0
 40
0.707106781
 41
0.0
 42
6.283185307
  0
LINE
  5
120
330
1F
100
AcDbEntity
  8
0
  6
Continuous
 62
     2
100
AcDbLine
 10
293.666859897
 20
108.484533281
 30
0.0
 11
292.666859897
 21
107.484533281
 31
0.0
  0
LINE
  5
121
330
1F
100
AcDbEntity
  8
0
  6
Continuous
 62
     2
100
AcDbLine
 10
299.323714147
 20
102.827679031
 30
0.0
 11
298.323714147
 21
101.827679031
 31
0.0
  0
ELLIPSE
  5
122
330
1F
100
AcDbEntity
  8
0
  6
Continuous
 62
     2
100
AcDbEllipse
 10
295.495287022
 20
104.656106156
 30
0.0
 11
2.828427125
 21
-2.828427125
 31
0.0
 40
0.707106781
 41
3.141592654
 42
0.0
  0
ELLIPSE
  5
123
330
1F
100
AcDbEntity
  8
0
  6
Continuous
 62
     2
100
AcDbEllipse
 10
338.921693893
 20
63.229699285
 30
0.0
 11
2.828427125
 21
-2.828427125
 31
0.0
 40
0.707106781
 41
0.0
 42
6.283185307
  0
LINE
  5
124
330
1F
100
AcDbEntity
  8
0
  6
Continuous
 62
     2
100
AcDbLine
 10
341.750121018
 20
60.40127216
 30
0.0
 11
340.750121018
 21
59.40127216
 31
0.0
  0
LINE
  5
125
330
1F
100
AcDbEntity
  8
0
  6
Continuous
 62
     2
100
AcDbLine
 10
336.093266769
 20
66.058126409
 30
0.0
 11
335.093266769
 21
65.058126409
 31
0.0
  0
ELLIPSE
  5
126
330
1F
100
AcDbEntity
  8
0
  6
Continuous
 62
     2
100
AcDbEllipse
 10
337.921693893
 20
62.229699285
 30
0.0
 11
2.828427125
 21
-2.828427125
 31
0.0
 40
0.707106781
 41
3.141592654
 42
0.0
  0
ELLIPSE
  5
127
330
1F
100
AcDbEntity
  8
0
  6
Continuous
 62
     2
100
AcDbEllipse
 10
317.708490458
 20
84.44290272
 30
0.0
 11
2.828427125
 21
-2.828427125
 31
0.0
 40
0.707106781
 41
0.0
 42
6.283185307
  0
LINE
  5
128
330
1F
100
AcDbEntity
  8
0
  6
Continuous
 62
     2
100
AcDbLine
 10
314.880063333
 20
87.271329845
 30
0.0
 11
313.880063333
 21
86.271329845
 31
0.0
  0
LINE
  5
129
330
1F
100
AcDbEntity
  8
0
  6
Continuous
 62
     2
100
AcDbLine
 10
320.536917582
 20
81.614475595
 30
0.0
 11
319.536917582
 21
80.614475595
 31
0.0
  0
ELLIPSE
  5
12A
330
1F
100
AcDbEntity
  8
0
  6
Continuous
 62
     2
100
AcDbEllipse
 10
316.708490458
 20
83.44290272
 30
0.0
 11
2.828427125
 21
-2.828427125
 31
0.0
 40
0.707106781
 41
3.141592654
 42
0.0
  0
LINE
  5
12B
330
1F
100
AcDbEntity
  8
0
  6
LTYPE1
 62
     2
100
AcDbLine
 10
377.413228166
 20
144.147640428
 30
0.0
 11
444.871215091
 21
211.605627354
 31
0.0
  0
LINE
  5
12C
330
1F
100
AcDbEntity
  8
0
  6
LTYPE1
 62
     2
100
AcDbLine
 10
313.200861366
 20
154.874450299
 30
0.0
 11
382.609179134
 21
85.466132531
 31
0.0
  0
LINE
  5
12D
330
1F
100
AcDbEntity
  8
0
  6
LTYPE2
 62
     2
100
AcDbLine
 10
290.283530588
 20
121.223238582
 30
0.0
 11
296.647491619
 21
127.587199613
 31
0.0
  0
LINE
  5
12E
330
1F
100
AcDbEntity
  8
0
  6
LTYPE2
 62
     2
100
AcDbLine
 10
340.488112052
 20
171.427820047
 30
0.0
 11
346.852073083
 21
177.791781077
 31
0.0
  0
LINE
  5
12F
330
1F
100
AcDbEntity
  8
0
  6
Continuous
 62
     1
100
AcDbLine
 10
338.649634421
 20
173.266297678
 30
0.0
 11
353.852430217
 21
158.063501882
 31
0.0
  0
LINE
  5
130
330
1F
100
AcDbEntity
  8
0
  6
Continuous
 62
     1
100
AcDbLine
 10
310.011809783
 20
114.222881449
 30
0.0
 11
294.809013988
 21
129.425677244
 31
0.0
  0
LINE
  5
131
330
1F
100
AcDbEntity
  8
2
  6
Continuous
 62
     1
100
AcDbLine
 10
337.94252764
 20
172.559190897
 30
0.0
 11
345.013595452
 21
179.630258708
 31
0.0
  0
LINE
  5
132
330
1F
100
AcDbEntity
  8
2
  6
Continuous
 62
     1
100
AcDbLine
 10
288.445052957
 20
123.061716214
 30
0.0
 11
295.516120769
 21
130.132784025
 31
0.0
  0
LINE
  5
133
330
1F
100
AcDbEntity
  8
2
  6
LTYPE2
 62
     2
100
AcDbLine
 10
295.516120769
 20
130.132784025
 30
0.0
 11
337.94252764
 21
172.559190897
 31
0.0
  0
LINE
  5
134
330
1F
100
AcDbEntity
  8
0
  6
Continuous
 62
     1
100
AcDbLine
 10
286.859021572
 20
240.294119105
 30
0.0
 11
304.705111048
 21
240.294119105
 31
0.0
  0
ARC
  5
135
330
1F
100
AcDbEntity
  8
0
  6
Continuous
 62
     1
100
AcDbCircle
 10
286.859021572
 20
237.694119105
 30
0.0
 40
2.6
100
AcDbArc
 50
90.0
 51
135.0
  0
ARC
  5
136
330
1F
100
AcDbEntity
  8
0
  6
Continuous
 62
     1
100
AcDbCircle
 10
286.859021572
 20
237.694119105
 30
0.0
 40
5.2
100
AcDbArc
 50
90.0
 51
135.0
  0
LINE
  5
137
330
1F
100
AcDbEntity
  8
0
  6
Continuous
 62
     1
100
AcDbLine
 10
227.78119256
 20
181.216292001
 30
0.0
 11
227.78119256
 21
163.370200618
 31
0.0
  0
LINE
  5
138
330
1F
100
AcDbEntity
  8
0
  6
Continuous
 62
     1
100
AcDbLine
 10
228.542716581
 20
183.054769376
 30
0.0
 11
285.020543941
 21
239.532596736
 31
0.0
  0
ARC
  5
139
330
1F
100
AcDbEntity
  8
0
  6
Continuous
 62
     1
100
AcDbCircle
 10
230.38119256
 20
181.216290093
 30
0.0
 40
2.6
100
AcDbArc
 50
134.999948522
 51
179.999957968
  0
LINE
  5
13A
330
1F
100
AcDbEntity
  8
0
  6
Continuous
 62
     1
100
AcDbLine
 10
296.647491619
 20
127.587199613
 30
0.0
 11
297.3545984
 21
128.294306394
 31
0.0
  0
LINE
  5
13B
330
1F
100
AcDbEntity
  8
0
  6
Continuous
 62
     1
100
AcDbLine
 10
339.781005271
 20
170.720713265
 30
0.0
 11
340.488112052
 21
171.427820047
 31
0.0
  0
LINE
  5
13C
330
1F
100
AcDbEntity
  8
0
  6
LTYPE2
 62
     2
100
AcDbLine
 10
297.3545984
 20
128.294306394
 30
0.0
 11
339.781005271
 21
170.720713265
 31
0.0
  0
LINE
  5
13D
330
1F
100
AcDbEntity
  8
0
  6
Continuous
 62
     1
100
AcDbLine
 10
337.94252764
 20
172.559190897
 30
0.0
 11
345.013595452
 21
179.630258708
 31
0.0
  0
LINE
  5
13E
330
1F
100
AcDbEntity
  8
0
  6
Continuous
 62
     1
100
AcDbLine
 10
288.445052957
 20
123.061716214
 30
0.0
 11
295.516120769
 21
130.132784025
 31
0.0
  0
LINE
  5
13F
330
1F
100
AcDbEntity
  8
7
  6
Continuous
 62
     2
100
AcDbLine
 10
388.147109104
 20
98.312978872
 30
0.0
 11
385.647109104
 21
102.643105891
 31
0.0
  0
LINE
  5
140
330
1F
100
AcDbEntity
  8
7
  6
Continuous
 62
     2
100
AcDbLine
 10
388.147109104
 20
98.312978872
 30
0.0
 11
383.816982085
 21
100.812978872
 31
0.0
  0
LWPOLYLINE
  5
142
330
1F
100
AcDbEntity
  8
7
  6
Continuous
 62
     2
100
AcDbPolyline
 90
     3
 70
   128
 43
0.0
 10
403.137772866
 20
83.322315111
 10
378.6095225
 20
107.850565477
 10
381.1095225
 20
103.520438458
  0
LINE
  5
143
330
1F
100
AcDbEntity
  8
7
  6
Continuous
 62
     2
100
AcDbLine
 10
378.6095225
 20
107.850565477
 30
0.0
 11
382.939649518
 21
105.350565477
 31
0.0
  0
LINE
  5
144
330
1F
100
AcDbEntity
  8
7
  6
Continuous
 62
     2
100
AcDbLine
 10
321.679071673
 20
108.212473809
 30
0.0
 11
282.363934639
 21
147.527610843
 31
0.0
  0
LINE
  5
145
330
1F
100
AcDbEntity
  8
7
  6
Continuous
 62
     2
100
AcDbLine
 10
285.192361764
 20
144.699183718
 30
0.0
 11
289.522488783
 21
147.199183718
 31
0.0
  0
LINE
  5
146
330
1F
100
AcDbEntity
  8
7
  6
Continuous
 62
     2
100
AcDbLine
 10
285.192361764
 20
144.699183718
 30
0.0
 11
287.692361764
 21
149.029310737
 31
0.0
  0
LWPOLYLINE
  5
148
330
1F
100
AcDbEntity
  8
7
  6
Continuous
 62
     2
100
AcDbPolyline
 90
     3
 70
   128
 43
0.0
 10
285.192361764
 20
144.699183718
 10
323.376127948
 20
182.882949902
 10
319.046000929
 20
180.382949902
  0
LINE
  5
149
330
1F
100
AcDbEntity
  8
7
  6
Continuous
 62
     2
100
AcDbLine
 10
323.376127948
 20
182.882949902
 30
0.0
 11
320.876127948
 21
178.552822883
 31
0.0
  0
LINE
  5
14A
330
1F
100
AcDbEntity
  8
7
  6
Continuous
 62
     2
100
AcDbLine
 10
359.862837857
 20
146.396239993
 30
0.0
 11
320.547700823
 21
185.711377027
 31
0.0
  0
MTEXT
  5
14B
330
1F
100
AcDbEntity
  8
7
  6
Continuous
 62
     2
100
AcDbMText
 10
300.112314847
 20
162.447563926
 30
0.0
 40
6.0
 41
15.6
 71
     7
 72
     1
  1
\T1.167;\W0.600;５４
  7
KANJI6
 11
0.707106781
 21
0.707106781
 31
0.0
 73
     1
 44
1.0
  0
LINE
  5
14D
330
1F
100
AcDbEntity
  8
7
  6
Continuous
 62
     2
100
AcDbLine
 10
337.235420859
 20
174.68051124
 30
0.0
 11
312.76952623
 21
199.146405869
 31
0.0
  0
LINE
  5
14E
330
1F
100
AcDbEntity
  8
7
  6
Continuous
 62
     2
100
AcDbLine
 10
315.597953355
 20
196.317978744
 30
0.0
 11
311.267826336
 21
193.817978744
 31
0.0
  0
LINE
  5
14F
330
1F
100
AcDbEntity
  8
7
  6
Continuous
 62
     2
100
AcDbLine
 10
315.597953355
 20
196.317978744
 30
0.0
 11
313.097953355
 21
191.987851726
 31
0.0
  0
LWPOLYLINE
  5
151
330
1F
100
AcDbEntity
  8
7
  6
Continuous
 62
     2
100
AcDbPolyline
 90
     3
 70
   128
 43
0.0
 10
315.597953355
 20
196.317978744
 10
271.757332921
 20
152.477358311
 10
276.08745994
 20
154.977358311
  0
LINE
  5
152
330
1F
100
AcDbEntity
  8
7
  6
Continuous
 62
     2
100
AcDbLine
 10
271.757332921
 20
152.477358311
 30
0.0
 11
274.257332921
 21
156.80748533
 31
0.0
  0
LINE
  5
153
330
1F
100
AcDbEntity
  8
7
  6
Continuous
 62
     2
100
AcDbLine
 10
293.394800425
 20
130.839890807
 30
0.0
 11
268.928905796
 21
155.305785436
 31
0.0
  0
MTEXT
  5
154
330
1F
100
AcDbEntity
  8
7
  6
Continuous
 62
     2
100
AcDbMText
 10
289.505713129
 20
173.054165643
 30
0.0
 40
6.0
 41
15.6
 71
     7
 72
     1
  1
\T1.167;\W0.600;６２
  7
KANJI6
 11
0.707106781
 21
0.707106781
 31
0.0
 73
     1
 44
1.0
  0
LINE
  5
155
330
1F
100
AcDbEntity
  8
7
  6
Continuous
 62
     2
100
AcDbLine
 10
341.760904259
 20
182.882949902
 30
0.0
 11
308.526885543
 21
216.116968618
 31
0.0
  0
LINE
  5
156
330
1F
100
AcDbEntity
  8
7
  6
Continuous
 62
     2
100
AcDbLine
 10
311.355312668
 20
213.288541493
 30
0.0
 11
307.025185649
 21
210.788541493
 31
0.0
  0
LINE
  5
157
330
1F
100
AcDbEntity
  8
7
  6
Continuous
 62
     2
100
AcDbLine
 10
311.355312668
 20
213.288541493
 30
0.0
 11
308.855312668
 21
208.958414474
 31
0.0
  0
LWPOLYLINE
  5
159
330
1F
100
AcDbEntity
  8
7
  6
Continuous
 62
     2
100
AcDbPolyline
 90
     3
 70
   128
 43
0.0
 10
311.355312668
 20
213.288541493
 10
254.786770173
 20
156.719998998
 10
259.116897192
 20
159.219998998
  0
LINE
  5
15A
330
1F
100
AcDbEntity
  8
7
  6
Continuous
 62
     2
100
AcDbLine
 10
254.786770173
 20
156.719998998
 30
0.0
 11
257.286770173
 21
161.050126017
 31
0.0
  0
LINE
  5
15B
330
1F
100
AcDbEntity
  8
7
  6
Continuous
 62
     2
100
AcDbLine
 10
285.192361764
 20
126.314407407
 30
0.0
 11
251.958343048
 21
159.548426123
 31
0.0
  0
MTEXT
  5
15C
330
1F
100
AcDbEntity
  8
7
  6
Continuous
 62
     2
100
AcDbMText
 10
278.899111411
 20
183.660767361
 30
0.0
 40
6.0
 41
15.6
 71
     7
 72
     1
  1
\T1.167;\W0.600;８０
  7
KANJI6
 11
0.707106781
 21
0.707106781
 31
0.0
 73
     1
 44
1.0
  0
LINE
  5
15D
330
1F
100
AcDbEntity
  8
0
  6
LTYPE2
 62
     2
100
AcDbLine
 10
230.618678531
 20
193.616012701
 30
0.0
 11
234.861319218
 21
189.373372014
 31
0.0
  0
ARC
  5
15E
330
1F
100
AcDbEntity
  8
0
  6
LTYPE2
 62
     2
100
AcDbCircle
 10
232.032892094
 20
195.030226263
 30
0.0
 40
2.0
100
AcDbArc
 50
135.0
 51
225.0
  0
LINE
  5
15F
330
1F
100
AcDbEntity
  8
0
  6
LTYPE2
 62
     2
100
AcDbLine
 10
274.459298965
 20
237.456633134
 30
0.0
 11
278.701939652
 21
233.213992447
 31
0.0
  0
ARC
  5
160
330
1F
100
AcDbEntity
  8
0
  6
LTYPE2
 62
     2
100
AcDbCircle
 10
273.045085403
 20
236.042419572
 30
0.0
 40
2.0
100
AcDbArc
 50
45.0
 51
134.99984545
  0
LINE
  5
161
330
1F
100
AcDbEntity
  8
0
  6
LTYPE2
 62
     2
100
AcDbLine
 10
271.630875655
 20
237.456636949
 30
0.0
 11
230.618678531
 21
196.444439825
 31
0.0
  0
ELLIPSE
  5
162
330
1F
100
AcDbEntity
  8
0
  6
Continuous
 62
     1
100
AcDbEllipse
 10
415.223894114
 20
224.384713248
 30
0.0
 11
7.071067812
 21
-7.071067812
 31
0.0
 40
0.707106781
 41
1.570796596
 42
3.141592654
  0
ELLIPSE
  5
163
330
1F
100
AcDbEntity
  8
0
  6
Continuous
 62
     1
100
AcDbEllipse
 10
416.223894114
 20
225.384713248
 30
0.0
 11
7.071067812
 21
-7.071067812
 31
0.0
 40
0.707106781
 41
1.570796596
 42
3.141592114
  0
ELLIPSE
  5
164
330
1F
100
AcDbEntity
  8
0
  6
Continuous
 62
     1
100
AcDbEllipse
 10
457.650300985
 20
181.958306377
 30
0.0
 11
7.071067812
 21
-7.071067812
 31
0.0
 40
0.707106781
 41
0.0
 42
1.57079654
  0
ELLIPSE
  5
165
330
1F
100
AcDbEntity
  8
0
  6
Continuous
 62
     1
100
AcDbEllipse
 10
458.650300985
 20
182.958306377
 30
0.0
 11
7.071067812
 21
-7.071067812
 31
0.0
 40
0.707106781
 41
0.000000539
 42
1.570796907
  0
LINE
  5
166
330
1F
100
AcDbEntity
  8
0
  6
Continuous
 62
     1
100
AcDbLine
 10
420.223892207
 20
229.384715155
 30
0.0
 11
462.650299477
 21
186.958307885
 31
0.0
  0
LINE
  5
167
330
1F
100
AcDbEntity
  8
0
  6
Continuous
 62
     1
100
AcDbLine
 10
421.223892207
 20
230.384715155
 30
0.0
 11
463.650296883
 21
187.958310479
 31
0.0
  0
LINE
  5
168
330
1F
100
AcDbEntity
  8
0
  6
Continuous
 62
     1
100
AcDbLine
 10
414.539010663
 20
160.06021949
 30
0.0
 11
440.04294412
 21
185.564152947
 31
0.0
  0
LINE
  5
169
330
1F
100
AcDbEntity
  8
0
  6
Continuous
 62
     1
100
AcDbLine
 10
418.829743382
 20
206.77735908
 30
0.0
 11
393.325809135
 21
181.273424833
 31
0.0
  0
ELLIPSE
  5
16A
330
1F
100
AcDbEntity
  8
0
  6
Continuous
 62
     1
100
AcDbEllipse
 10
403.932408945
 20
170.666821208
 30
0.0
 11
10.606601718
 21
-10.606601718
 31
0.0
 40
0.707106781
 41
3.141592654
 42
0.0
  0
ELLIPSE
  5
16B
330
1F
100
AcDbEntity
  8
0
  6
Continuous
 62
     1
100
AcDbEllipse
 10
429.436342403
 20
196.170754665
 30
0.0
 11
10.606601718
 21
-10.606601718
 31
0.0
 40
0.707106781
 41
0.0
 42
3.141592294
  0
ELLIPSE
  5
16C
330
1F
100
AcDbEntity
  8
0
  6
Continuous
 62
     1
100
AcDbEllipse
 10
404.932408945
 20
171.666821208
 30
0.0
 11
10.606601718
 21
-10.606601718
 31
0.0
 40
0.707106781
 41
3.141592654
 42
0.0
  0
ELLIPSE
  5
16D
330
1F
100
AcDbEntity
  8
0
  6
Continuous
 62
     1
100
AcDbEllipse
 10
457.650300985
 20
181.958306377
 30
0.0
 11
2.474873734
 21
-2.474873734
 31
0.0
 40
0.707106781
 41
0.0
 42
6.283185307
  0
ELLIPSE
  5
16E
330
1F
100
AcDbEntity
  8
0
  6
Continuous
 62
     1
100
AcDbEllipse
 10
458.650300985
 20
182.958306377
 30
0.0
 11
2.474873734
 21
-2.474873734
 31
0.0
 40
0.707106781
 41
3.431344355
 42
5.993433606
  0
ELLIPSE
  5
16F
330
1F
100
AcDbEntity
  8
0
  6
Continuous
 62
     1
100
AcDbEllipse
 10
437.645612381
 20
161.953617772
 30
0.0
 11
2.474873734
 21
-2.474873734
 31
0.0
 40
0.707106781
 41
0.0
 42
6.283185307
  0
ELLIPSE
  5
170
330
1F
100
AcDbEntity
  8
0
  6
Continuous
 62
     1
100
AcDbEllipse
 10
438.645612381
 20
162.953617772
 30
0.0
 11
2.474873734
 21
-2.474873734
 31
0.0
 40
0.707106781
 41
3.431344355
 42
5.993433606
  0
ELLIPSE
  5
171
330
1F
100
AcDbEntity
  8
0
  6
Continuous
 62
     1
100
AcDbEllipse
 10
417.645612381
 20
141.953617772
 30
0.0
 11
2.474873734
 21
-2.474873734
 31
0.0
 40
0.707106781
 41
0.0
 42
6.283185307
  0
ELLIPSE
  5
172
330
1F
100
AcDbEntity
  8
0
  6
Continuous
 62
     1
100
AcDbEllipse
 10
418.645612381
 20
142.953617772
 30
0.0
 11
2.474873734
 21
-2.474873734
 31
0.0
 40
0.707106781
 41
3.431344355
 42
5.993433606
  0
ELLIPSE
  5
173
330
1F
100
AcDbEntity
  8
0
  6
Continuous
 62
     1
100
AcDbEllipse
 10
395.21920551
 20
204.380024643
 30
0.0
 11
2.474873734
 21
-2.474873734
 31
0.0
 40
0.707106781
 41
0.0
 42
6.283185307
  0
ELLIPSE
  5
174
330
1F
100
AcDbEntity
  8
0
  6
Continuous
 62
     1
100
AcDbEllipse
 10
396.21920551
 20
205.380024643
 30
0.0
 11
2.474873734
 21
-2.474873734
 31
0.0
 40
0.707106781
 41
3.431344355
 42
5.993433606
  0
ELLIPSE
  5
175
330
1F
100
AcDbEntity
  8
0
  6
Continuous
 62
     1
100
AcDbEllipse
 10
415.223894114
 20
224.384713248
 30
0.0
 11
2.474873734
 21
-2.474873734
 31
0.0
 40
0.707106781
 41
0.0
 42
6.283185307
  0
ELLIPSE
  5
176
330
1F
100
AcDbEntity
  8
0
  6
Continuous
 62
     1
100
AcDbEllipse
 10
416.223894114
 20
225.384713248
 30
0.0
 11
2.474873734
 21
-2.474873734
 31
0.0
 40
0.707106781
 41
3.431344355
 42
5.993433606
  0
ELLIPSE
  5
177
330
1F
100
AcDbEntity
  8
0
  6
Continuous
 62
     1
100
AcDbEllipse
 10
376.21920551
 20
185.380024643
 30
0.0
 11
2.474873734
 21
-2.474873734
 31
0.0
 40
0.707106781
 41
3.431344355
 42
5.993433606
  0
ELLIPSE
  5
178
330
1F
100
AcDbEntity
  8
0
  6
Continuous
 62
     1
100
AcDbEllipse
 10
375.21920551
 20
184.380024643
 30
0.0
 11
2.474873734
 21
-2.474873734
 31
0.0
 40
0.707106781
 41
0.0
 42
6.283185307
  0
LINE
  5
179
330
1F
100
AcDbEntity
  8
0
  6
LTYPE1
 62
     2
100
AcDbLine
 10
236.896473935
 20
231.178837731
 30
0.0
 11
261.978864277
 21
206.096447389
 31
0.0
  0
LINE
  5
17A
330
1F
100
AcDbEntity
  8
3
  6
Continuous
 62
     2
100
AcDbLine
 10
297.566730434
 20
135.860348953
 30
0.0
 11
296.576780941
 21
136.991719803
 31
0.0
  0
LINE
  5
17B
330
1F
100
AcDbEntity
  8
3
  6
Continuous
 62
     2
100
AcDbLine
 10
303.930691465
 20
142.224309984
 30
0.0
 11
302.799320615
 21
143.214259477
 31
0.0
  0
ARC
  5
17C
330
1F
100
AcDbEntity
  8
3
  6
Continuous
 62
     2
100
AcDbCircle
 10
301.809371122
 20
141.517203202
 30
0.0
 40
2.0
100
AcDbArc
 50
59.3
 51
116.4
  0
ARC
  5
17D
330
1F
100
AcDbEntity
  8
3
  6
Continuous
 62
     2
100
AcDbCircle
 10
298.273837216
 20
137.981669297
 30
0.0
 40
2.0
100
AcDbArc
 50
153.6
 51
210.7
  0
ARC
  5
17E
330
1F
100
AcDbEntity
  8
3
  6
Continuous
 62
     2
100
AcDbCircle
 10
307.041961302
 20
132.749079116
 30
0.0
 40
12.2
100
AcDbArc
 50
120.3
 51
149.7
  0
LINE
  5
17F
330
1F
100
AcDbEntity
  8
3
  6
Continuous
 62
     2
100
AcDbLine
 10
325.851001682
 20
164.1446202
 30
0.0
 11
324.861052188
 21
165.27599105
 31
0.0
  0
LINE
  5
180
330
1F
100
AcDbEntity
  8
3
  6
Continuous
 62
     2
100
AcDbLine
 10
332.214962713
 20
170.508581231
 30
0.0
 11
331.083591863
 21
171.498530725
 31
0.0
  0
ARC
  5
181
330
1F
100
AcDbEntity
  8
3
  6
Continuous
 62
     2
100
AcDbCircle
 10
330.093642369
 20
169.80147445
 30
0.0
 40
2.0
100
AcDbArc
 50
59.3
 51
116.4
  0
ARC
  5
182
330
1F
100
AcDbEntity
  8
3
  6
Continuous
 62
     2
100
AcDbCircle
 10
326.558108463
 20
166.265940544
 30
0.0
 40
2.0
100
AcDbArc
 50
153.6
 51
210.7
  0
ARC
  5
183
330
1F
100
AcDbEntity
  8
3
  6
Continuous
 62
     2
100
AcDbCircle
 10
335.32623255
 20
161.033350363
 30
0.0
 40
12.2
100
AcDbArc
 50
120.3
 51
149.7
  0
CIRCLE
  5
184
330
1F
100
AcDbEntity
  8
3
  6
Continuous
 62
     2
100
AcDbCircle
 10
232.739998875
 20
207.051041543
 30
0.0
 40
4.5
  0
LWPOLYLINE
  5
186
330
1F
100
AcDbEntity
  8
3
  6
Continuous
 62
     2
100
AcDbPolyline
 90
     3
 70
   128
 43
0.0
 10
234.224923115
 20
205.000431878
 10
234.79060854
 20
205.566117303
 10
234.083501759
 20
206.273224084
  0
LINE
  5
187
330
1F
100
AcDbEntity
  8
3
  6
Continuous
 62
     2
100
AcDbLine
 10
234.224923115
 20
205.000431878
 30
0.0
 11
233.517816334
 21
205.707538659
 31
0.0
  0
LWPOLYLINE
  5
189
330
1F
100
AcDbEntity
  8
3
  6
Continuous
 62
     2
100
AcDbPolyline
 90
     3
 70
   128
 43
0.0
 10
234.79060854
 20
208.535965784
 10
234.224923115
 20
209.101651209
 10
233.517816334
 20
208.394544427
  0
LINE
  5
18A
330
1F
100
AcDbEntity
  8
3
  6
Continuous
 62
     2
100
AcDbLine
 10
234.79060854
 20
208.535965784
 30
0.0
 11
234.083501759
 21
207.828859002
 31
0.0
  0
LWPOLYLINE
  5
18C
330
1F
100
AcDbEntity
  8
3
  6
Continuous
 62
     2
100
AcDbPolyline
 90
     3
 70
   128
 43
0.0
 10
231.255074634
 20
209.101651209
 10
230.689389209
 20
208.535965784
 10
231.396495991
 20
207.828859002
  0
LINE
  5
18D
330
1F
100
AcDbEntity
  8
3
  6
Continuous
 62
     2
100
AcDbLine
 10
231.255074634
 20
209.101651209
 30
0.0
 11
231.962181416
 21
208.394544427
 31
0.0
  0
LWPOLYLINE
  5
18F
330
1F
100
AcDbEntity
  8
3
  6
Continuous
 62
     2
100
AcDbPolyline
 90
     3
 70
   128
 43
0.0
 10
230.689389209
 20
205.566117303
 10
231.255074634
 20
205.000431878
 10
231.962181416
 20
205.707538659
  0
LINE
  5
190
330
1F
100
AcDbEntity
  8
3
  6
Continuous
 62
     2
100
AcDbLine
 10
230.689389209
 20
205.566117303
 30
0.0
 11
231.396495991
 21
206.273224084
 31
0.0
  0
ARC
  5
191
330
1F
100
AcDbEntity
  8
3
  6
Continuous
 62
     2
100
AcDbCircle
 10
234.719897862
 20
207.051041543
 30
0.0
 40
1.0
100
AcDbArc
 50
128.9
 51
231.1
  0
ARC
  5
192
330
1F
100
AcDbEntity
  8
3
  6
Continuous
 62
     2
100
AcDbCircle
 10
232.739998875
 20
209.030940531
 30
0.0
 40
1.0
100
AcDbArc
 50
218.9
 51
321.1
  0
ARC
  5
193
330
1F
100
AcDbEntity
  8
3
  6
Continuous
 62
     2
100
AcDbCircle
 10
230.760099888
 20
207.051041543
 30
0.0
 40
1.0
100
AcDbArc
 50
308.9
 51
51.1
  0
ARC
  5
194
330
1F
100
AcDbEntity
  8
3
  6
Continuous
 62
     2
100
AcDbCircle
 10
232.739998875
 20
205.071142556
 30
0.0
 40
1.0
100
AcDbArc
 50
38.9
 51
141.1
  0
CIRCLE
  5
195
330
1F
100
AcDbEntity
  8
3
  6
Continuous
 62
     2
100
AcDbCircle
 10
261.024270122
 20
235.335312791
 30
0.0
 40
4.5
  0
LWPOLYLINE
  5
197
330
1F
100
AcDbEntity
  8
3
  6
Continuous
 62
     2
100
AcDbPolyline
 90
     3
 70
   128
 43
0.0
 10
262.509194363
 20
233.284703125
 10
263.074879788
 20
233.85038855
 10
262.367773007
 20
234.557495331
  0
LINE
  5
198
330
1F
100
AcDbEntity
  8
3
  6
Continuous
 62
     2
100
AcDbLine
 10
262.509194363
 20
233.284703125
 30
0.0
 11
261.802087582
 21
233.991809906
 31
0.0
  0
LWPOLYLINE
  5
19A
330
1F
100
AcDbEntity
  8
3
  6
Continuous
 62
     2
100
AcDbPolyline
 90
     3
 70
   128
 43
0.0
 10
263.074879788
 20
236.820237031
 10
262.509194363
 20
237.385922456
 10
261.802087582
 20
236.678815675
  0
LINE
  5
19B
330
1F
100
AcDbEntity
  8
3
  6
Continuous
 62
     2
100
AcDbLine
 10
263.074879788
 20
236.820237031
 30
0.0
 11
262.367773007
 21
236.11313025
 31
0.0
  0
LWPOLYLINE
  5
19D
330
1F
100
AcDbEntity
  8
3
  6
Continuous
 62
     2
100
AcDbPolyline
 90
     3
 70
   128
 43
0.0
 10
259.539345882
 20
237.385922456
 10
258.973660457
 20
236.820237031
 10
259.680767238
 20
236.11313025
  0
LINE
  5
19E
330
1F
100
AcDbEntity
  8
3
  6
Continuous
 62
     2
100
AcDbLine
 10
259.539345882
 20
237.385922456
 30
0.0
 11
260.246452663
 21
236.678815675
 31
0.0
  0
LWPOLYLINE
  5
1A0
330
1F
100
AcDbEntity
  8
3
  6
Continuous
 62
     2
100
AcDbPolyline
 90
     3
 70
   128
 43
0.0
 10
258.973660457
 20
233.85038855
 10
259.539345882
 20
233.284703125
 10
260.246452663
 20
233.991809906
  0
LINE
  5
1A1
330
1F
100
AcDbEntity
  8
3
  6
Continuous
 62
     2
100
AcDbLine
 10
258.973660457
 20
233.85038855
 30
0.0
 11
259.680767238
 21
234.557495331
 31
0.0
  0
ARC
  5
1A2
330
1F
100
AcDbEntity
  8
3
  6
Continuous
 62
     2
100
AcDbCircle
 10
263.00416911
 20
235.335312791
 30
0.0
 40
1.0
100
AcDbArc
 50
128.9
 51
231.1
  0
ARC
  5
1A3
330
1F
100
AcDbEntity
  8
3
  6
Continuous
 62
     2
100
AcDbCircle
 10
261.024270122
 20
237.315211778
 30
0.0
 40
1.0
100
AcDbArc
 50
218.9
 51
321.1
  0
ARC
  5
1A4
330
1F
100
AcDbEntity
  8
3
  6
Continuous
 62
     2
100
AcDbCircle
 10
259.044371135
 20
235.335312791
 30
0.0
 40
1.0
100
AcDbArc
 50
308.9
 51
51.1
  0
ARC
  5
1A5
330
1F
100
AcDbEntity
  8
3
  6
Continuous
 62
     2
100
AcDbCircle
 10
261.024270122
 20
233.355413803
 30
0.0
 40
1.0
100
AcDbArc
 50
38.9
 51
141.1
  0
LINE
  5
1A6
330
1F
100
AcDbEntity
  8
0
  6
Continuous
 62
     1
100
AcDbLine
 10
225.18119256
 20
163.370200618
 30
0.0
 11
227.78119256
 21
163.370200618
 31
0.0
  0
LINE
  5
1A7
330
1F
100
AcDbEntity
  8
0
  6
Continuous
 62
     1
100
AcDbLine
 10
225.18119256
 20
181.216293908
 30
0.0
 11
225.18119256
 21
163.370200618
 31
0.0
  0
ARC
  5
1A8
330
1F
100
AcDbEntity
  8
0
  6
Continuous
 62
     1
100
AcDbCircle
 10
230.38119256
 20
181.216290093
 30
0.0
 40
5.2
100
AcDbArc
 50
135.0
 51
179.999957974
  0
LINE
  5
1A9
330
1F
100
AcDbEntity
  8
0
  6
Continuous
 62
     1
100
AcDbLine
 10
282.62421921
 20
105.927173968
 30
0.0
 11
294.101907207
 21
117.404861964
 31
0.0
  0
LWPOLYLINE
  5
1AB
330
1F
100
AcDbEntity
  8
0
  6
Continuous
 62
     1
100
AcDbPolyline
 90
     3
 70
   128
 43
0.0
 10
282.62421921
 20
105.927173968
 10
339.192761705
 20
49.358631473
 10
465.721371495
 20
175.887241262
  0
LINE
  5
1AC
330
1F
100
AcDbEntity
  8
2
  6
LTYPE1
 62
     2
100
AcDbLine
 10
186.021949371
 20
238.651478418
 30
0.0
 11
220.938551873
 21
203.734875916
 31
0.0
  0
LINE
  5
1AD
330
1F
100
AcDbEntity
  8
2
  6
LTYPE1
 62
     2
100
AcDbLine
 10
186.021949371
 20
238.651478418
 30
0.0
 11
220.938551873
 21
203.734875916
 31
0.0
  0
LINE
  5
1AE
330
1F
100
AcDbEntity
  8
2
  6
Continuous
 62
     1
100
AcDbLine
 10
224.693454058
 20
208.465255106
 30
0.0
 11
190.752328561
 21
242.406380603
 31
0.0
  0
LINE
  5
1AF
330
1F
100
AcDbEntity
  8
2
  6
Continuous
 62
     1
100
AcDbLine
 10
224.693454058
 20
208.465255106
 30
0.0
 11
190.752328561
 21
242.406380603
 31
0.0
  0
LINE
  5
1B0
330
1F
100
AcDbEntity
  8
2
  6
LTYPE2
 62
     2
100
AcDbLine
 10
216.632436752
 20
191.918956426
 30
0.0
 11
174.206029881
 21
234.345363297
 31
0.0
  0
LINE
  5
1B1
330
1F
100
AcDbEntity
  8
2
  6
Continuous
 62
     1
100
AcDbLine
 10
224.693454058
 20
185.837838108
 30
0.0
 11
221.865026933
 21
183.009410983
 31
0.0
  0
LINE
  5
1B2
330
1F
100
AcDbEntity
  8
2
  6
Continuous
 62
     1
100
AcDbLine
 10
224.693454058
 20
208.465255106
 30
0.0
 11
224.693454058
 21
185.837838108
 31
0.0
  0
LINE
  5
1B3
330
1F
100
AcDbEntity
  8
2
  6
Continuous
 62
     1
100
AcDbLine
 10
221.865026933
 20
183.009410983
 30
0.0
 11
165.296484438
 21
239.577953478
 31
0.0
  0
LINE
  5
1B4
330
1F
100
AcDbEntity
  8
2
  6
Continuous
 62
     1
100
AcDbLine
 10
168.124911563
 20
242.406380603
 30
0.0
 11
165.296484438
 21
239.577953478
 31
0.0
  0
LINE
  5
1B5
330
1F
100
AcDbEntity
  8
2
  6
Continuous
 62
     1
100
AcDbLine
 10
190.752328561
 20
242.406380603
 30
0.0
 11
168.124911563
 21
242.406380603
 31
0.0
  0
LINE
  5
1B6
330
1F
100
AcDbEntity
  8
2
  6
LTYPE2
 62
     2
100
AcDbLine
 10
216.632436752
 20
191.918956426
 30
0.0
 11
214.793959121
 21
190.080478795
 31
0.0
  0
LINE
  5
1B7
330
1F
100
AcDbEntity
  8
2
  6
LTYPE2
 62
     2
100
AcDbLine
 10
174.206029881
 20
234.345363297
 30
0.0
 11
172.36755225
 21
232.506885666
 31
0.0
  0
LINE
  5
1B8
330
1F
100
AcDbEntity
  8
0
  6
LTYPE1
 62
     2
100
AcDbLine
 10
186.021949371
 20
238.651478418
 30
0.0
 11
220.938551873
 21
203.734875916
 31
0.0
  0
LINE
  5
1B9
330
1F
100
AcDbEntity
  8
0
  6
LTYPE1
 62
     2
100
AcDbLine
 10
186.021949371
 20
238.651478418
 30
0.0
 11
220.938551873
 21
203.734875916
 31
0.0
  0
LINE
  5
1BA
330
1F
100
AcDbEntity
  8
0
  6
Continuous
 62
     1
100
AcDbLine
 10
163.657274073
 20
244.894119105
 30
0.0
 11
43.657274073
 21
244.894119105
 31
0.0
  0
LWPOLYLINE
  5
1BC
330
1F
100
AcDbEntity
  8
0
  6
Continuous
 62
     1
100
AcDbPolyline
 90
     3
 70
   128
 43
0.0
 10
163.657274073
 20
244.894119105
 10
163.657274073
 20
242.894119105
 10
43.657274073
 20
242.894119105
  0
LINE
  5
1BD
330
1F
100
AcDbEntity
  8
0
  6
Continuous
 62
     1
100
AcDbLine
 10
145.657274073
 20
242.894119105
 30
0.0
 11
145.657274073
 21
240.294119105
 31
0.0
  0
LINE
  5
1BE
330
1F
100
AcDbEntity
  8
0
  6
Continuous
 62
     1
100
AcDbLine
 10
224.693454058
 20
185.837838108
 30
0.0
 11
221.865026933
 21
183.009410983
 31
0.0
  0
LINE
  5
1BF
330
1F
100
AcDbEntity
  8
0
  6
Continuous
 62
     1
100
AcDbLine
 10
224.693454058
 20
208.465255106
 30
0.0
 11
190.752328561
 21
242.406380603
 31
0.0
  0
LINE
  5
1C0
330
1F
100
AcDbEntity
  8
0
  6
Continuous
 62
     1
100
AcDbLine
 10
168.124911563
 20
242.406380603
 30
0.0
 11
165.296484438
 21
239.577953478
 31
0.0
  0
LINE
  5
1C1
330
1F
100
AcDbEntity
  8
0
  6
Continuous
 62
     1
100
AcDbLine
 10
168.124911563
 20
242.406380603
 30
0.0
 11
165.296484438
 21
239.577953478
 31
0.0
  0
LINE
  5
1C2
330
1F
100
AcDbEntity
  8
0
  6
Continuous
 62
     1
100
AcDbLine
 10
190.752328561
 20
242.406380603
 30
0.0
 11
168.124911563
 21
242.406380603
 31
0.0
  0
LINE
  5
1C3
330
1F
100
AcDbEntity
  8
0
  6
Continuous
 62
     1
100
AcDbLine
 10
224.693454058
 20
208.465255106
 30
0.0
 11
190.752328561
 21
242.406380603
 31
0.0
  0
LINE
  5
1C4
330
1F
100
AcDbEntity
  8
0
  6
Continuous
 62
     1
100
AcDbLine
 10
224.693454058
 20
208.465255106
 30
0.0
 11
224.693454058
 21
185.837838108
 31
0.0
  0
LINE
  5
1C5
330
1F
100
AcDbEntity
  8
0
  6
Continuous
 62
     1
100
AcDbLine
 10
224.693454058
 20
185.837838108
 30
0.0
 11
221.865026933
 21
183.009410983
 31
0.0
  0
LINE
  5
1C6
330
1F
100
AcDbEntity
  8
0
  6
Continuous
 62
     1
100
AcDbLine
 10
158.657274073
 20
238.294119105
 30
0.0
 11
150.657274073
 21
238.294119105
 31
0.0
  0
LINE
  5
1C7
330
1F
100
AcDbEntity
  8
0
  6
Continuous
 62
     1
100
AcDbLine
 10
158.657274073
 20
240.294119105
 30
0.0
 11
158.657274073
 21
238.294119105
 31
0.0
  0
LINE
  5
1C8
330
1F
100
AcDbEntity
  8
0
  6
Continuous
 62
     1
100
AcDbLine
 10
150.657274073
 20
240.294119105
 30
0.0
 11
150.657274073
 21
238.294119105
 31
0.0
  0
LINE
  5
1C9
330
1F
100
AcDbEntity
  8
0
  6
Continuous
 62
     1
100
AcDbLine
 10
220.58119256
 20
176.370200618
 30
0.0
 11
220.58119256
 21
168.370200618
 31
0.0
  0
LINE
  5
1CA
330
1F
100
AcDbEntity
  8
0
  6
Continuous
 62
     1
100
AcDbLine
 10
222.58119256
 20
176.370200618
 30
0.0
 11
220.58119256
 21
176.370200618
 31
0.0
  0
LINE
  5
1CB
330
1F
100
AcDbEntity
  8
0
  6
Continuous
 62
     1
100
AcDbLine
 10
222.58119256
 20
168.370200618
 30
0.0
 11
220.58119256
 21
168.370200618
 31
0.0
  0
LINE
  5
1CC
330
1F
100
AcDbEntity
  8
0
  6
LTYPE2
 62
     2
100
AcDbLine
 10
173.4989231
 20
235.052470078
 30
0.0
 11
167.134962069
 21
241.416431109
 31
0.0
  0
LINE
  5
1CD
330
1F
100
AcDbEntity
  8
0
  6
LTYPE2
 62
     2
100
AcDbLine
 10
223.703504564
 20
184.847888614
 30
0.0
 11
217.339543533
 21
191.211849645
 31
0.0
  0
LINE
  5
1CE
330
1F
100
AcDbEntity
  8
0
  6
Continuous
 62
     1
100
AcDbLine
 10
163.503363548
 20
240.294119105
 30
0.0
 11
145.657274073
 21
240.294119105
 31
0.0
  0
ARC
  5
1CF
330
1F
100
AcDbEntity
  8
0
  6
Continuous
 62
     1
100
AcDbCircle
 10
163.503363548
 20
237.694119105
 30
0.0
 40
2.6
100
AcDbArc
 50
45.0
 51
90.0
  0
ARC
  5
1D0
330
1F
100
AcDbEntity
  8
0
  6
Continuous
 62
     1
100
AcDbCircle
 10
163.503363548
 20
237.694119105
 30
0.0
 40
5.2
100
AcDbArc
 50
45.0
 51
90.0
  0
LINE
  5
1D1
330
1F
100
AcDbEntity
  8
0
  6
Continuous
 62
     1
100
AcDbLine
 10
222.58119256
 20
181.216292001
 30
0.0
 11
222.58119256
 21
163.370200618
 31
0.0
  0
LINE
  5
1D2
330
1F
100
AcDbEntity
  8
0
  6
Continuous
 62
     1
100
AcDbLine
 10
221.81966854
 20
183.054769376
 30
0.0
 11
165.341841179
 21
239.532596736
 31
0.0
  0
ARC
  5
1D3
330
1F
100
AcDbEntity
  8
0
  6
Continuous
 62
     1
100
AcDbCircle
 10
219.98119256
 20
181.216290093
 30
0.0
 40
2.6
100
AcDbArc
 50
0.000042032
 51
45.000051478
  0
LINE
  5
1D4
330
1F
100
AcDbEntity
  8
0
  6
LTYPE2
 62
     2
100
AcDbLine
 10
219.743706589
 20
193.616012701
 30
0.0
 11
215.501065902
 21
189.373372014
 31
0.0
  0
ARC
  5
1D5
330
1F
100
AcDbEntity
  8
0
  6
LTYPE2
 62
     2
100
AcDbCircle
 10
218.329493027
 20
195.030226263
 30
0.0
 40
2.0
100
AcDbArc
 50
315.0
 51
45.0
  0
LINE
  5
1D6
330
1F
100
AcDbEntity
  8
0
  6
LTYPE2
 62
     2
100
AcDbLine
 10
175.903086156
 20
237.456633134
 30
0.0
 11
171.660445469
 21
233.213992447
 31
0.0
  0
ARC
  5
1D7
330
1F
100
AcDbEntity
  8
0
  6
LTYPE2
 62
     2
100
AcDbCircle
 10
177.317299718
 20
236.042419572
 30
0.0
 40
2.0
100
AcDbArc
 50
45.00015455
 51
135.0
  0
LINE
  5
1D8
330
1F
100
AcDbEntity
  8
0
  6
LTYPE2
 62
     2
100
AcDbLine
 10
178.731509466
 20
237.456636949
 30
0.0
 11
219.743706589
 21
196.444439825
 31
0.0
  0
LINE
  5
1D9
330
1F
100
AcDbEntity
  8
0
  6
LTYPE1
 62
     2
100
AcDbLine
 10
213.465911186
 20
231.178837731
 30
0.0
 11
188.383520844
 21
206.096447389
 31
0.0
  0
CIRCLE
  5
1DA
330
1F
100
AcDbEntity
  8
3
  6
Continuous
 62
     2
100
AcDbCircle
 10
217.622386246
 20
207.051041543
 30
0.0
 40
4.5
  0
LWPOLYLINE
  5
1DC
330
1F
100
AcDbEntity
  8
3
  6
Continuous
 62
     2
100
AcDbPolyline
 90
     3
 70
   128
 43
0.0
 10
216.137462005
 20
205.000431878
 10
215.57177658
 20
205.566117303
 10
216.278883361
 20
206.273224084
  0
LINE
  5
1DD
330
1F
100
AcDbEntity
  8
3
  6
Continuous
 62
     2
100
AcDbLine
 10
216.137462005
 20
205.000431878
 30
0.0
 11
216.844568786
 21
205.707538659
 31
0.0
  0
LWPOLYLINE
  5
1DF
330
1F
100
AcDbEntity
  8
3
  6
Continuous
 62
     2
100
AcDbPolyline
 90
     3
 70
   128
 43
0.0
 10
215.57177658
 20
208.535965784
 10
216.137462005
 20
209.101651209
 10
216.844568786
 20
208.394544427
  0
LINE
  5
1E0
330
1F
100
AcDbEntity
  8
3
  6
Continuous
 62
     2
100
AcDbLine
 10
215.57177658
 20
208.535965784
 30
0.0
 11
216.278883361
 21
207.828859002
 31
0.0
  0
LWPOLYLINE
  5
1E2
330
1F
100
AcDbEntity
  8
3
  6
Continuous
 62
     2
100
AcDbPolyline
 90
     3
 70
   128
 43
0.0
 10
219.107310486
 20
209.101651209
 10
219.672995911
 20
208.535965784
 10
218.96588913
 20
207.828859002
  0
LINE
  5
1E3
330
1F
100
AcDbEntity
  8
3
  6
Continuous
 62
     2
100
AcDbLine
 10
219.107310486
 20
209.101651209
 30
0.0
 11
218.400203705
 21
208.394544427
 31
0.0
  0
LWPOLYLINE
  5
1E5
330
1F
100
AcDbEntity
  8
3
  6
Continuous
 62
     2
100
AcDbPolyline
 90
     3
 70
   128
 43
0.0
 10
219.672995911
 20
205.566117303
 10
219.107310486
 20
205.000431878
 10
218.400203705
 20
205.707538659
  0
LINE
  5
1E6
330
1F
100
AcDbEntity
  8
3
  6
Continuous
 62
     2
100
AcDbLine
 10
219.672995911
 20
205.566117303
 30
0.0
 11
218.96588913
 21
206.273224084
 31
0.0
  0
ARC
  5
1E7
330
1F
100
AcDbEntity
  8
3
  6
Continuous
 62
     2
100
AcDbCircle
 10
215.642487258
 20
207.051041543
 30
0.0
 40
1.0
100
AcDbArc
 50
308.9
 51
51.1
  0
ARC
  5
1E8
330
1F
100
AcDbEntity
  8
3
  6
Continuous
 62
     2
100
AcDbCircle
 10
217.622386246
 20
209.030940531
 30
0.0
 40
1.0
100
AcDbArc
 50
218.9
 51
321.1
  0
ARC
  5
1E9
330
1F
100
AcDbEntity
  8
3
  6
Continuous
 62
     2
100
AcDbCircle
 10
219.602285233
 20
207.051041543
 30
0.0
 40
1.0
100
AcDbArc
 50
128.9
 51
231.1
  0
ARC
  5
1EA
330
1F
100
AcDbEntity
  8
3
  6
Continuous
 62
     2
100
AcDbCircle
 10
217.622386246
 20
205.071142556
 30
0.0
 40
1.0
100
AcDbArc
 50
38.9
 51
141.1
  0
CIRCLE
  5
1EB
330
1F
100
AcDbEntity
  8
3
  6
Continuous
 62
     2
100
AcDbCircle
 10
189.338114998
 20
235.335312791
 30
0.0
 40
4.5
  0
LWPOLYLINE
  5
1ED
330
1F
100
AcDbEntity
  8
3
  6
Continuous
 62
     2
100
AcDbPolyline
 90
     3
 70
   128
 43
0.0
 10
187.853190758
 20
233.284703125
 10
187.287505333
 20
233.85038855
 10
187.994612114
 20
234.557495331
  0
LINE
  5
1EE
330
1F
100
AcDbEntity
  8
3
  6
Continuous
 62
     2
100
AcDbLine
 10
187.853190758
 20
233.284703125
 30
0.0
 11
188.560297539
 21
233.991809906
 31
0.0
  0
LWPOLYLINE
  5
1F0
330
1F
100
AcDbEntity
  8
3
  6
Continuous
 62
     2
100
AcDbPolyline
 90
     3
 70
   128
 43
0.0
 10
187.287505333
 20
236.820237031
 10
187.853190758
 20
237.385922456
 10
188.560297539
 20
236.678815675
  0
LINE
  5
1F1
330
1F
100
AcDbEntity
  8
3
  6
Continuous
 62
     2
100
AcDbLine
 10
187.287505333
 20
236.820237031
 30
0.0
 11
187.994612114
 21
236.11313025
 31
0.0
  0
LWPOLYLINE
  5
1F3
330
1F
100
AcDbEntity
  8
3
  6
Continuous
 62
     2
100
AcDbPolyline
 90
     3
 70
   128
 43
0.0
 10
190.823039239
 20
237.385922456
 10
191.388724664
 20
236.820237031
 10
190.681617883
 20
236.11313025
  0
LINE
  5
1F4
330
1F
100
AcDbEntity
  8
3
  6
Continuous
 62
     2
100
AcDbLine
 10
190.823039239
 20
237.385922456
 30
0.0
 11
190.115932458
 21
236.678815675
 31
0.0
  0
LWPOLYLINE
  5
1F6
330
1F
100
AcDbEntity
  8
3
  6
Continuous
 62
     2
100
AcDbPolyline
 90
     3
 70
   128
 43
0.0
 10
191.388724664
 20
233.85038855
 10
190.823039239
 20
233.284703125
 10
190.115932458
 20
233.991809906
  0
LINE
  5
1F7
330
1F
100
AcDbEntity
  8
3
  6
Continuous
 62
     2
100
AcDbLine
 10
191.388724664
 20
233.85038855
 30
0.0
 11
190.681617883
 21
234.557495331
 31
0.0
  0
ARC
  5
1F8
330
1F
100
AcDbEntity
  8
3
  6
Continuous
 62
     2
100
AcDbCircle
 10
187.358216011
 20
235.335312791
 30
0.0
 40
1.0
100
AcDbArc
 50
308.9
 51
51.1
  0
ARC
  5
1F9
330
1F
100
AcDbEntity
  8
3
  6
Continuous
 62
     2
100
AcDbCircle
 10
189.338114998
 20
237.315211778
 30
0.0
 40
1.0
100
AcDbArc
 50
218.9
 51
321.1
  0
ARC
  5
1FA
330
1F
100
AcDbEntity
  8
3
  6
Continuous
 62
     2
100
AcDbCircle
 10
191.318013986
 20
235.335312791
 30
0.0
 40
1.0
100
AcDbArc
 50
128.9
 51
231.1
  0
ARC
  5
1FB
330
1F
100
AcDbEntity
  8
3
  6
Continuous
 62
     2
100
AcDbCircle
 10
189.338114998
 20
233.355413803
 30
0.0
 40
1.0
100
AcDbArc
 50
38.9
 51
141.1
  0
LINE
  5
1FC
330
1F
100
AcDbEntity
  8
0
  6
Continuous
 62
     1
100
AcDbLine
 10
225.18119256
 20
163.370200618
 30
0.0
 11
222.58119256
 21
163.370200618
 31
0.0
  0
ARC
  5
1FD
330
1F
100
AcDbEntity
  8
0
  6
Continuous
 62
     1
100
AcDbCircle
 10
219.98119256
 20
181.216290093
 30
0.0
 40
5.2
100
AcDbArc
 50
0.000042026
 51
45.0
  0
LINE
  5
1FE
330
1F
100
AcDbEntity
  8
0
  6
Continuous
 62
     1
100
AcDbLine
 10
43.657274073
 20
244.894119105
 30
0.0
 11
43.657274073
 21
242.894119105
 31
0.0
  0
LINE
  5
1FF
330
1F
100
AcDbEntity
  8
0
  6
LTYPE2
 62
     2
100
AcDbLine
 10
182.754785689
 20
137.266838484
 30
0.0
 11
126.186243194
 21
80.698295989
 31
0.0
  0
LINE
  5
200
330
1F
100
AcDbEntity
  8
0
  6
Continuous
 62
     1
100
AcDbLine
 10
182.89621244
 20
141.085220497
 30
0.0
 11
124.347765563
 21
82.53677362
 31
0.0
  0
LINE
  5
201
330
1F
100
AcDbEntity
  8
0
  6
Continuous
 62
     1
100
AcDbLine
 10
184.734684676
 20
139.246737472
 30
0.0
 11
182.754785689
 21
137.266838484
 31
0.0
  0
LINE
  5
202
330
1F
100
AcDbEntity
  8
0
  6
Continuous
 62
     1
100
AcDbLine
 10
174.269504315
 20
157.065828357
 30
0.0
 11
172.431026684
 21
155.227350726
 31
0.0
  0
LINE
  5
203
330
1F
100
AcDbEntity
  8
0
  6
Continuous
 62
     1
100
AcDbLine
 10
182.896207045
 20
144.762170365
 30
0.0
 11
172.431026684
 21
155.227350726
 31
0.0
  0
LINE
  5
204
330
1F
100
AcDbEntity
  8
0
  6
Continuous
 62
     1
100
AcDbLine
 10
184.734684676
 20
146.600647996
 30
0.0
 11
174.269504315
 21
157.065828357
 31
0.0
  0
ARC
  5
205
330
1F
100
AcDbEntity
  8
0
  6
Continuous
 62
     1
100
AcDbCircle
 10
181.057729414
 20
142.923692734
 30
0.0
 40
5.2
100
AcDbArc
 50
315.000084065
 51
45.0
  0
ARC
  5
206
330
1F
100
AcDbEntity
  8
0
  6
Continuous
 62
     1
100
AcDbCircle
 10
181.057729414
 20
142.923692734
 30
0.0
 40
2.6
100
AcDbArc
 50
315.0
 51
45.0
  0
LINE
  5
207
330
1F
100
AcDbEntity
  8
0
  6
Continuous
 62
     2
100
AcDbLine
 10
176.673667371
 20
143.206535446
 30
0.0
 11
168.895492778
 21
150.984710039
 31
0.0
  0
LINE
  5
208
330
1F
100
AcDbEntity
  8
0
  6
Continuous
 62
     2
100
AcDbLine
 10
180.562754667
 20
147.095622743
 30
0.0
 11
176.673667371
 21
143.206535446
 31
0.0
  0
LINE
  5
209
330
1F
100
AcDbEntity
  8
0
  6
Continuous
 62
     2
100
AcDbLine
 10
172.784580074
 20
154.873797336
 30
0.0
 11
168.895492778
 21
150.984710039
 31
0.0
  0
LINE
  5
20A
330
1F
100
AcDbEntity
  8
0
  6
Continuous
 62
     1
100
AcDbLine
 10
233.845240246
 20
72.034248303
 30
0.0
 11
191.41882798
 21
29.607836037
 31
0.0
  0
LINE
  5
20B
330
1F
100
AcDbEntity
  8
0
  6
Continuous
 62
     1
100
AcDbLine
 10
210.738636192
 20
73.927648922
 30
0.0
 11
185.738636621
 21
98.927648493
 31
0.0
  0
ELLIPSE
  5
20C
330
1F
100
AcDbEntity
  8
0
  6
Continuous
 62
     1
100
AcDbEllipse
 10
200.132036811
 20
63.321044868
 30
0.0
 11
-10.606601718
 21
-10.606601718
 31
0.0
 40
0.707106781
 41
6.283184995
 42
3.141592965
  0
LINE
  5
20D
330
1F
100
AcDbEntity
  8
0
  6
Continuous
 62
     1
100
AcDbLine
 10
189.525432757
 20
52.714445486
 30
0.0
 11
164.525433185
 21
77.714445057
 31
0.0
  0
ELLIPSE
  5
20E
330
1F
100
AcDbEntity
  8
0
  6
Continuous
 62
     1
100
AcDbEllipse
 10
175.132036811
 20
88.321044868
 30
0.0
 11
-10.606601718
 21
-10.606601718
 31
0.0
 40
0.707106781
 41
3.141592908
 42
6.283185053
  0
ELLIPSE
  5
20F
330
1F
100
AcDbEntity
  8
0
  6
Continuous
 62
     1
100
AcDbEllipse
 10
228.845240246
 20
77.034248303
 30
0.0
 11
-2.474873734
 21
-2.474873734
 31
0.0
 40
0.707106781
 41
0.0
 42
6.283185307
  0
ELLIPSE
  5
210
330
1F
100
AcDbEntity
  8
0
  6
Continuous
 62
     1
100
AcDbEllipse
 10
186.418833375
 20
34.607841432
 30
0.0
 11
-2.474873734
 21
-2.474873734
 31
0.0
 40
0.707106781
 41
0.0
 42
6.283185307
  0
ELLIPSE
  5
211
330
1F
100
AcDbEntity
  8
0
  6
Continuous
 62
     1
100
AcDbEllipse
 10
166.418833375
 20
54.607841432
 30
0.0
 11
-2.474873734
 21
-2.474873734
 31
0.0
 40
0.707106781
 41
0.0
 42
6.283185307
  0
ELLIPSE
  5
212
330
1F
100
AcDbEntity
  8
0
  6
Continuous
 62
     1
100
AcDbEllipse
 10
208.845240246
 20
97.034248303
 30
0.0
 11
-2.474873734
 21
-2.474873734
 31
0.0
 40
0.707106781
 41
0.0
 42
6.283185307
  0
ELLIPSE
  5
213
330
1F
100
AcDbEntity
  8
0
  6
Continuous
 62
     1
100
AcDbEllipse
 10
188.845240246
 20
117.034248303
 30
0.0
 11
-2.474873734
 21
-2.474873734
 31
0.0
 40
0.707106781
 41
0.0
 42
6.283185307
  0
ELLIPSE
  5
214
330
1F
100
AcDbEntity
  8
0
  6
Continuous
 62
     1
100
AcDbEllipse
 10
146.418833375
 20
74.607841432
 30
0.0
 11
-2.474873734
 21
-2.474873734
 31
0.0
 40
0.707106781
 41
0.0
 42
6.283185307
  0
LINE
  5
215
330
1F
100
AcDbEntity
  8
0
  6
LTYPE1
 62
     2
100
AcDbLine
 10
217.264397483
 20
46.188684196
 30
0.0
 11
148.512405148
 21
114.94067653
 31
0.0
  0
LINE
  5
216
330
1F
100
AcDbEntity
  8
2
  6
Continuous
 62
     1
100
AcDbLine
 10
190.25011757
 20
144.762170365
 30
0.0
 11
176.107981946
 21
158.904305988
 31
0.0
  0
LINE
  5
217
330
1F
100
AcDbEntity
  8
2
  6
Continuous
 62
     1
100
AcDbLine
 10
176.107981946
 20
158.904305988
 30
0.0
 11
174.269504315
 21
157.065828357
 31
0.0
  0
LINE
  5
218
330
1F
100
AcDbEntity
  8
2
  6
Continuous
 62
     1
100
AcDbLine
 10
188.411639939
 20
142.923692734
 30
0.0
 11
174.269504315
 21
157.065828357
 31
0.0
  0
LINE
  5
219
330
1F
100
AcDbEntity
  8
2
  6
Continuous
 62
     1
100
AcDbLine
 10
190.25011757
 20
144.762170365
 30
0.0
 11
188.411639939
 21
142.923692734
 31
0.0
  0
ARC
  5
21A
330
1F
100
AcDbEntity
  8
2
  6
Continuous
 62
     1
100
AcDbCircle
 10
182.896207045
 20
144.762170365
 30
0.0
 40
5.2
100
AcDbArc
 50
315.0
 51
345.0
  0
ARC
  5
21B
330
1F
100
AcDbEntity
  8
2
  6
LTYPE2
 62
     2
100
AcDbCircle
 10
182.896207045
 20
144.762170365
 30
0.0
 40
5.2
100
AcDbArc
 50
345.0
 51
45.0
  0
ARC
  5
21C
330
1F
100
AcDbEntity
  8
2
  6
LTYPE2
 62
     2
100
AcDbCircle
 10
182.896207045
 20
144.762170365
 30
0.0
 40
2.6
100
AcDbArc
 50
315.0
 51
45.0
  0
LINE
  5
21D
330
1F
100
AcDbEntity
  8
2
  6
LTYPE2
 62
     2
100
AcDbLine
 10
184.734684676
 20
142.923692734
 30
0.0
 11
182.89621244
 21
141.085220497
 31
0.0
  0
LINE
  5
21E
330
1F
100
AcDbEntity
  8
2
  6
Continuous
 62
     1
100
AcDbLine
 10
186.573162308
 20
141.085215103
 30
0.0
 11
184.734684676
 21
139.246737472
 31
0.0
  0
LINE
  5
21F
330
1F
100
AcDbEntity
  8
2
  6
LTYPE2
 62
     2
100
AcDbLine
 10
172.289605328
 20
126.801658123
 30
0.0
 11
170.451127696
 21
128.640135754
 31
0.0
  0
LINE
  5
220
330
1F
100
AcDbEntity
  8
0
  6
LTYPE1
 62
     2
100
AcDbLine
 10
183.188908307
 20
157.499950975
 30
0.0
 11
170.998387399
 21
145.309430067
 31
0.0
  0
LINE
  5
221
330
1F
100
AcDbEntity
  8
7
  6
Continuous
 62
     2
100
AcDbLine
 10
177.522195508
 20
160.318519551
 30
0.0
 11
189.543010789
 21
172.339334831
 31
0.0
  0
LINE
  5
222
330
1F
100
AcDbEntity
  8
7
  6
Continuous
 62
     2
100
AcDbLine
 10
186.714583664
 20
169.510907706
 30
0.0
 11
182.384456645
 21
172.010907706
 31
0.0
  0
LINE
  5
223
330
1F
100
AcDbEntity
  8
7
  6
Continuous
 62
     2
100
AcDbLine
 10
186.714583664
 20
169.510907706
 30
0.0
 11
184.214583664
 21
173.841034725
 31
0.0
  0
LWPOLYLINE
  5
225
330
1F
100
AcDbEntity
  8
7
  6
Continuous
 62
     2
100
AcDbPolyline
 90
     4
 70
   128
 43
0.0
 10
181.411282805
 20
174.814208565
 10
186.714583664
 20
169.510907706
 10
190.957224351
 20
165.268267019
 10
196.26052521
 20
159.96496616
  0
LINE
  5
226
330
1F
100
AcDbEntity
  8
7
  6
Continuous
 62
     2
100
AcDbLine
 10
190.957224351
 20
165.268267019
 30
0.0
 11
195.28735137
 21
162.768267019
 31
0.0
  0
LINE
  5
227
330
1F
100
AcDbEntity
  8
7
  6
Continuous
 62
     2
100
AcDbLine
 10
190.957224351
 20
165.268267019
 30
0.0
 11
193.457224351
 21
160.93814
 31
0.0
  0
LINE
  5
228
330
1F
100
AcDbEntity
  8
7
  6
Continuous
 62
     2
100
AcDbLine
 10
184.603121869
 20
158.914164537
 30
0.0
 11
193.785651476
 21
168.096694144
 31
0.0
  0
MTEXT
  5
229
330
1F
100
AcDbEntity
  8
7
  6
Continuous
 62
     2
100
AcDbMText
 10
188.977325364
 20
170.076593131
 30
0.0
 40
6.0
 41
7.2
 71
     7
 72
     1
  1
\T1.167;\W0.600;６
  7
KANJI6
 11
0.707106781
 21
-0.707106781
 31
0.0
 73
     1
 44
1.0
  0
LINE
  5
22A
330
1F
100
AcDbEntity
  8
7
  6
Continuous
 62
     2
100
AcDbLine
 10
188.128797226
 20
170.925121269
 30
0.0
 11
200.149612506
 21
182.945936549
 31
0.0
  0
LINE
  5
22B
330
1F
100
AcDbEntity
  8
7
  6
Continuous
 62
     2
100
AcDbLine
 10
197.321185382
 20
180.117509424
 30
0.0
 11
201.6513124
 21
177.617509424
 31
0.0
  0
LINE
  5
22C
330
1F
100
AcDbEntity
  8
7
  6
Continuous
 62
     2
100
AcDbLine
 10
197.321185382
 20
180.117509424
 30
0.0
 11
199.821185382
 21
175.787382405
 31
0.0
  0
LWPOLYLINE
  5
22E
330
1F
100
AcDbEntity
  8
7
  6
Continuous
 62
     2
100
AcDbPolyline
 90
     3
 70
   128
 43
0.0
 10
197.321185382
 20
180.117509424
 10
211.463321005
 20
165.9753738
 10
207.133193986
 20
168.4753738
  0
LINE
  5
22F
330
1F
100
AcDbEntity
  8
7
  6
Continuous
 62
     2
100
AcDbLine
 10
211.463321005
 20
165.9753738
 30
0.0
 11
208.963321005
 21
170.305500819
 31
0.0
  0
LINE
  5
230
330
1F
100
AcDbEntity
  8
7
  6
Continuous
 62
     2
100
AcDbLine
 10
191.664331132
 20
146.176383927
 30
0.0
 11
214.29174813
 21
168.803800925
 31
0.0
  0
MTEXT
  5
231
330
1F
100
AcDbEntity
  8
7
  6
Continuous
 62
     2
100
AcDbMText
 10
203.048750309
 20
177.218371621
 30
0.0
 40
6.0
 41
15.6
 71
     7
 72
     1
  1
\T1.167;\W0.600;２０
  7
KANJI6
 11
0.707106781
 21
-0.707106781
 31
0.0
 73
     1
 44
1.0
  0
LINE
  5
232
330
1F
100
AcDbEntity
  8
3
  6
Continuous
 62
     2
100
AcDbLine
 10
183.532603148
 20
151.479684786
 30
0.0
 11
184.522552642
 21
152.611055636
 31
0.0
  0
LINE
  5
233
330
1F
100
AcDbEntity
  8
3
  6
Continuous
 62
     2
100
AcDbLine
 10
177.168642118
 20
157.843645817
 30
0.0
 11
178.300012968
 21
158.83359531
 31
0.0
  0
ARC
  5
234
330
1F
100
AcDbEntity
  8
3
  6
Continuous
 62
     2
100
AcDbCircle
 10
179.289962461
 20
157.136539036
 30
0.0
 40
2.0
100
AcDbArc
 50
63.6
 51
120.7
  0
ARC
  5
235
330
1F
100
AcDbEntity
  8
3
  6
Continuous
 62
     2
100
AcDbCircle
 10
182.825496367
 20
153.60100513
 30
0.0
 40
2.0
100
AcDbArc
 50
329.3
 51
26.4
  0
ARC
  5
236
330
1F
100
AcDbEntity
  8
3
  6
Continuous
 62
     2
100
AcDbCircle
 10
174.057372281
 20
148.368414949
 30
0.0
 40
12.2
100
AcDbArc
 50
30.3
 51
59.7
  0
MTEXT
  5
237
330
1F
100
AcDbEntity
  8
7
  6
Continuous
 62
     2
100
AcDbMText
 10
393.096856573
 20
96.191658528
 30
0.0
 40
6.0
 41
32.4
 71
     7
 72
     1
  1
\T1.167;\W0.600;１３．５
  7
KANJI6
 11
0.707106781
 21
-0.707106781
 31
0.0
 73
     1
 44
1.0
  0
ELLIPSE
  5
238
330
1F
100
AcDbEntity
  8
0
  6
Continuous
 62
     1
100
AcDbEllipse
 10
199.132036811
 20
64.321044868
 30
0.0
 11
-10.606601718
 21
-10.606601718
 31
0.0
 40
0.707106781
 41
6.283184995
 42
3.141592965
  0
ELLIPSE
  5
239
330
1F
100
AcDbEntity
  8
0
  6
Continuous
 62
     1
100
AcDbEllipse
 10
187.940143566
 20
117.840350034
 30
0.0
 11
2.474873734
 21
2.474873734
 31
0.0
 40
0.707106781
 41
3.429647291
 42
6.076899088
  0
ELLIPSE
  5
23A
330
1F
100
AcDbEntity
  8
0
  6
Continuous
 62
     1
100
AcDbEllipse
 10
207.940143566
 20
97.840350034
 30
0.0
 11
2.474873734
 21
2.474873734
 31
0.0
 40
0.707106781
 41
3.429647291
 42
6.076899088
  0
ELLIPSE
  5
23B
330
1F
100
AcDbEntity
  8
0
  6
Continuous
 62
     1
100
AcDbEllipse
 10
227.940143566
 20
77.840350034
 30
0.0
 11
2.474873734
 21
2.474873734
 31
0.0
 40
0.707106781
 41
3.429647291
 42
6.076899088
  0
ELLIPSE
  5
23C
330
1F
100
AcDbEntity
  8
0
  6
Continuous
 62
     1
100
AcDbEllipse
 10
185.513736695
 20
35.413943163
 30
0.0
 11
2.474873734
 21
2.474873734
 31
0.0
 40
0.707106781
 41
3.429647291
 42
6.076899088
  0
ELLIPSE
  5
23D
330
1F
100
AcDbEntity
  8
0
  6
Continuous
 62
     1
100
AcDbEllipse
 10
165.513736695
 20
55.413943163
 30
0.0
 11
2.474873734
 21
2.474873734
 31
0.0
 40
0.707106781
 41
3.429647291
 42
6.076899088
  0
ELLIPSE
  5
23E
330
1F
100
AcDbEntity
  8
0
  6
Continuous
 62
     1
100
AcDbEllipse
 10
145.513736695
 20
75.413943163
 30
0.0
 11
2.474873734
 21
2.474873734
 31
0.0
 40
0.707106781
 41
3.429647291
 42
6.076899088
  0
LINE
  5
23F
330
1F
100
AcDbEntity
  8
0
  6
Continuous
 62
     1
100
AcDbLine
 10
179.347768424
 20
27.536770759
 30
0.0
 11
124.347765563
 21
82.53677362
 31
0.0
  0
ELLIPSE
  5
240
330
1F
100
AcDbEntity
  8
0
  6
Continuous
 62
     1
100
AcDbEllipse
 10
186.418833375
 20
34.607841432
 30
0.0
 11
-7.071067812
 21
-7.071067812
 31
0.0
 40
0.707106781
 41
0.000000572
 42
1.570795564
  0
LINE
  5
241
330
1F
100
AcDbEntity
  8
0
  6
Continuous
 62
     1
100
AcDbLine
 10
235.916310919
 20
84.105313254
 30
0.0
 11
180.916308058
 21
139.105316115
 31
0.0
  0
ELLIPSE
  5
242
330
1F
100
AcDbEntity
  8
0
  6
Continuous
 62
     1
100
AcDbEllipse
 10
228.845240246
 20
77.034248303
 30
0.0
 11
-7.071067812
 21
-7.071067812
 31
0.0
 40
0.707106781
 41
1.570796327
 42
3.141592081
  0
ELLIPSE
  5
243
330
1F
100
AcDbEntity
  8
0
  6
Continuous
 62
     2
100
AcDbEllipse
 10
158.132036811
 20
105.321044868
 30
0.0
 11
-2.828427125
 21
-2.828427125
 31
0.0
 40
0.707106781
 41
0.0
 42
6.283185307
  0
ELLIPSE
  5
244
330
1F
100
AcDbEntity
  8
0
  6
Continuous
 62
     2
100
AcDbEllipse
 10
136.918833375
 20
84.107841432
 30
0.0
 11
-2.828427125
 21
-2.828427125
 31
0.0
 40
0.707106781
 41
0.0
 42
6.283185307
  0
ELLIPSE
  5
245
330
1F
100
AcDbEntity
  8
0
  6
Continuous
 62
     2
100
AcDbEllipse
 10
179.345240246
 20
126.534248303
 30
0.0
 11
-2.828427125
 21
-2.828427125
 31
0.0
 40
0.707106781
 41
0.0
 42
6.283185307
  0
LINE
  5
246
330
1F
100
AcDbEntity
  8
2
  6
Continuous
 62
     1
100
AcDbLine
 10
259.61005656
 20
257.662942364
 30
0.0
 11
259.61005656
 21
260.262942364
 31
0.0
  0
LINE
  5
247
330
1F
100
AcDbEntity
  8
2
  6
Continuous
 62
     1
100
AcDbLine
 10
225.668931063
 20
257.662942364
 30
0.0
 11
225.668931063
 21
260.262942364
 31
0.0
  0
LINE
  5
248
330
1F
100
AcDbEntity
  8
2
  6
Continuous
 62
     1
100
AcDbLine
 10
225.668931063
 20
257.662942364
 30
0.0
 11
285.065900683
 21
257.662942364
 31
0.0
  0
LINE
  5
249
330
1F
100
AcDbEntity
  8
2
  6
Continuous
 62
     1
100
AcDbLine
 10
225.668931063
 20
260.262942364
 30
0.0
 11
285.065900683
 21
260.262942364
 31
0.0
  0
LINE
  5
24A
330
1F
100
AcDbEntity
  8
2
  6
Continuous
 62
     1
100
AcDbLine
 10
282.237473558
 20
257.662942364
 30
0.0
 11
282.237473558
 21
260.262942364
 31
0.0
  0
LINE
  5
24B
330
1F
100
AcDbEntity
  8
2
  6
Continuous
 62
     1
100
AcDbLine
 10
285.065900683
 20
257.662942364
 30
0.0
 11
285.065900683
 21
260.262942364
 31
0.0
  0
LINE
  5
24C
330
1F
100
AcDbEntity
  8
7
  6
Continuous
 62
     2
100
AcDbLine
 10
396.705111048
 20
332.262942364
 30
0.0
 11
396.705111048
 21
367.262942364
 31
0.0
  0
LINE
  5
24D
330
1F
100
AcDbEntity
  8
7
  6
Continuous
 62
     2
100
AcDbLine
 10
396.705111048
 20
363.262942364
 30
0.0
 11
391.875481917
 21
364.557037589
 31
0.0
  0
LINE
  5
24E
330
1F
100
AcDbEntity
  8
7
  6
Continuous
 62
     2
100
AcDbLine
 10
396.705111048
 20
363.262942364
 30
0.0
 11
391.875481917
 21
361.968847138
 31
0.0
  0
LWPOLYLINE
  5
250
330
1F
100
AcDbEntity
  8
7
  6
Continuous
 62
     2
100
AcDbPolyline
 90
     3
 70
   128
 43
0.0
 10
396.705111048
 20
363.262942364
 10
356.705111048
 20
363.262942364
 10
361.534740179
 20
361.968847138
  0
LINE
  5
251
330
1F
100
AcDbEntity
  8
7
  6
Continuous
 62
     2
100
AcDbLine
 10
356.705111048
 20
363.262942364
 30
0.0
 11
361.534740179
 21
364.557037589
 31
0.0
  0
LINE
  5
252
330
1F
100
AcDbEntity
  8
7
  6
Continuous
 62
     2
100
AcDbLine
 10
356.705111048
 20
332.262942364
 30
0.0
 11
356.705111048
 21
367.262942364
 31
0.0
  0
MTEXT
  5
253
330
1F
100
AcDbEntity
  8
7
  6
Continuous
 62
     2
100
AcDbMText
 10
372.805111048
 20
365.262942364
 30
0.0
 40
6.0
 41
15.6
 71
     7
 72
     1
  1
\T1.167;\W0.600;４０
  7
KANJI6
 73
     1
 44
1.0
  0
LINE
  5
254
330
1F
100
AcDbEntity
  8
7
  6
Continuous
 62
     2
100
AcDbLine
 10
356.705111048
 20
363.262942364
 30
0.0
 11
351.875481917
 21
364.557037589
 31
0.0
  0
LINE
  5
255
330
1F
100
AcDbEntity
  8
7
  6
Continuous
 62
     2
100
AcDbLine
 10
356.705111048
 20
363.262942364
 30
0.0
 11
351.875481917
 21
361.968847138
 31
0.0
  0
LWPOLYLINE
  5
257
330
1F
100
AcDbEntity
  8
7
  6
Continuous
 62
     2
100
AcDbPolyline
 90
     3
 70
   128
 43
0.0
 10
356.705111048
 20
363.262942364
 10
316.705111048
 20
363.262942364
 10
321.534740179
 20
361.968847138
  0
LINE
  5
258
330
1F
100
AcDbEntity
  8
7
  6
Continuous
 62
     2
100
AcDbLine
 10
316.705111048
 20
363.262942364
 30
0.0
 11
321.534740179
 21
364.557037589
 31
0.0
  0
LINE
  5
259
330
1F
100
AcDbEntity
  8
7
  6
Continuous
 62
     2
100
AcDbLine
 10
316.705111048
 20
332.262942364
 30
0.0
 11
316.705111048
 21
367.262942364
 31
0.0
  0
MTEXT
  5
25A
330
1F
100
AcDbEntity
  8
7
  6
Continuous
 62
     2
100
AcDbMText
 10
332.805111048
 20
365.262942364
 30
0.0
 40
6.0
 41
15.6
 71
     7
 72
     1
  1
\T1.167;\W0.600;４０
  7
KANJI6
 73
     1
 44
1.0
  0
LINE
  5
25B
330
1F
100
AcDbEntity
  8
7
  6
Continuous
 62
     2
100
AcDbLine
 10
396.705111048
 20
363.262942364
 30
0.0
 11
391.875481917
 21
364.557037589
 31
0.0
  0
LINE
  5
25C
330
1F
100
AcDbEntity
  8
7
  6
Continuous
 62
     2
100
AcDbLine
 10
396.705111048
 20
363.262942364
 30
0.0
 11
391.875481917
 21
361.968847138
 31
0.0
  0
LWPOLYLINE
  5
25E
330
1F
100
AcDbEntity
  8
7
  6
Continuous
 62
     2
100
AcDbPolyline
 90
     4
 70
   128
 43
0.0
 10
389.205111048
 20
363.262942364
 10
396.705111048
 20
363.262942364
 10
406.705111048
 20
363.262942364
 10
414.205111048
 20
363.262942364
  0
LINE
  5
25F
330
1F
100
AcDbEntity
  8
7
  6
Continuous
 62
     2
100
AcDbLine
 10
406.705111048
 20
363.262942364
 30
0.0
 11
411.534740179
 21
361.968847138
 31
0.0
  0
LINE
  5
260
330
1F
100
AcDbEntity
  8
7
  6
Continuous
 62
     2
100
AcDbLine
 10
406.705111048
 20
363.262942364
 30
0.0
 11
411.534740179
 21
364.557037589
 31
0.0
  0
LINE
  5
261
330
1F
100
AcDbEntity
  8
7
  6
Continuous
 62
     2
100
AcDbLine
 10
406.705111048
 20
340.262942364
 30
0.0
 11
406.705111048
 21
367.262942364
 31
0.0
  0
MTEXT
  5
262
330
1F
100
AcDbEntity
  8
7
  6
Continuous
 62
     2
100
AcDbMText
 10
397.805111048
 20
365.262942364
 30
0.0
 40
6.0
 41
15.6
 71
     7
 72
     1
  1
\T1.167;\W0.600;１０
  7
KANJI6
 73
     1
 44
1.0
  0
LINE
  5
263
330
1F
100
AcDbEntity
  8
7
  6
Continuous
 62
     2
100
AcDbLine
 10
390.705111048
 20
338.262942364
 30
0.0
 11
425.705111048
 21
338.262942364
 31
0.0
  0
LINE
  5
264
330
1F
100
AcDbEntity
  8
7
  6
Continuous
 62
     2
100
AcDbLine
 10
421.705111048
 20
338.262942364
 30
0.0
 11
420.411015822
 21
333.433313233
 31
0.0
  0
LINE
  5
265
330
1F
100
AcDbEntity
  8
7
  6
Continuous
 62
     2
100
AcDbLine
 10
421.705111048
 20
338.262942364
 30
0.0
 11
422.999206274
 21
333.433313233
 31
0.0
  0
LWPOLYLINE
  5
267
330
1F
100
AcDbEntity
  8
7
  6
Continuous
 62
     2
100
AcDbPolyline
 90
     3
 70
   128
 43
0.0
 10
421.705111048
 20
338.262942364
 10
421.705111048
 20
278.262942364
 10
422.999206274
 20
283.092571495
  0
LINE
  5
268
330
1F
100
AcDbEntity
  8
7
  6
Continuous
 62
     2
100
AcDbLine
 10
421.705111048
 20
278.262942364
 30
0.0
 11
420.411015822
 21
283.092571495
 31
0.0
  0
LINE
  5
269
330
1F
100
AcDbEntity
  8
7
  6
Continuous
 62
     2
100
AcDbLine
 10
390.705111048
 20
278.262942364
 30
0.0
 11
425.705111048
 21
278.262942364
 31
0.0
  0
MTEXT
  5
26A
330
1F
100
AcDbEntity
  8
7
  6
Continuous
 62
     2
100
AcDbMText
 10
419.705111048
 20
304.362942364
 30
0.0
 40
6.0
 41
15.6
 71
     7
 72
     1
  1
\T1.167;\W0.600;６０
  7
KANJI6
 11
0.0
 21
1.0
 31
0.0
 73
     1
 44
1.0
  0
LINE
  5
26B
330
1F
100
AcDbEntity
  8
7
  6
Continuous
 62
     2
100
AcDbLine
 10
398.705111048
 20
348.262942364
 30
0.0
 11
440.705111048
 21
348.262942364
 31
0.0
  0
LINE
  5
26C
330
1F
100
AcDbEntity
  8
7
  6
Continuous
 62
     2
100
AcDbLine
 10
436.705111048
 20
348.262942364
 30
0.0
 11
435.411015822
 21
343.433313233
 31
0.0
  0
LINE
  5
26D
330
1F
100
AcDbEntity
  8
7
  6
Continuous
 62
     2
100
AcDbLine
 10
436.705111048
 20
348.262942364
 30
0.0
 11
437.999206274
 21
343.433313233
 31
0.0
  0
LWPOLYLINE
  5
26F
330
1F
100
AcDbEntity
  8
7
  6
Continuous
 62
     2
100
AcDbPolyline
 90
     3
 70
   128
 43
0.0
 10
436.705111048
 20
348.262942364
 10
436.705111048
 20
268.262942364
 10
437.999206274
 20
273.092571495
  0
LINE
  5
270
330
1F
100
AcDbEntity
  8
7
  6
Continuous
 62
     2
100
AcDbLine
 10
436.705111048
 20
268.262942364
 30
0.0
 11
435.411015822
 21
273.092571495
 31
0.0
  0
LINE
  5
271
330
1F
100
AcDbEntity
  8
7
  6
Continuous
 62
     2
100
AcDbLine
 10
398.705111048
 20
268.262942364
 30
0.0
 11
440.705111048
 21
268.262942364
 31
0.0
  0
MTEXT
  5
272
330
1F
100
AcDbEntity
  8
7
  6
Continuous
 62
     2
100
AcDbMText
 10
434.705111048
 20
304.362942364
 30
0.0
 40
6.0
 41
15.6
 71
     7
 72
     1
  1
\T1.167;\W0.600;８０
  7
KANJI6
 11
0.0
 21
1.0
 31
0.0
 73
     1
 44
1.0
  0
LINE
  5
273
330
1F
100
AcDbEntity
  8
7
  6
Continuous
 62
     2
100
AcDbLine
 10
436.705111048
 20
268.262942364
 30
0.0
 11
435.411015822
 21
263.433313233
 31
0.0
  0
LINE
  5
274
330
1F
100
AcDbEntity
  8
7
  6
Continuous
 62
     2
100
AcDbLine
 10
436.705111048
 20
268.262942364
 30
0.0
 11
437.999206274
 21
263.433313233
 31
0.0
  0
LINE
  5
275
330
1F
100
AcDbEntity
  8
7
  6
Continuous
 62
     2
100
AcDbLine
 10
436.705111048
 20
268.262942364
 30
0.0
 11
436.705111048
 21
236.462942364
 31
0.0
  0
LINE
  5
276
330
1F
100
AcDbEntity
  8
7
  6
Continuous
 62
     2
100
AcDbLine
 10
436.705111048
 20
257.662942364
 30
0.0
 11
437.999206274
 21
262.492571495
 31
0.0
  0
LINE
  5
277
330
1F
100
AcDbEntity
  8
7
  6
Continuous
 62
     2
100
AcDbLine
 10
436.705111048
 20
257.662942364
 30
0.0
 11
435.411015822
 21
262.492571495
 31
0.0
  0
LINE
  5
278
330
1F
100
AcDbEntity
  8
7
  6
Continuous
 62
     2
100
AcDbLine
 10
287.065900683
 20
257.662942364
 30
0.0
 11
440.705111048
 21
257.662942364
 31
0.0
  0
MTEXT
  5
279
330
1F
100
AcDbEntity
  8
7
  6
Continuous
 62
     2
100
AcDbMText
 10
434.705111048
 20
236.462942364
 30
0.0
 40
6.0
 41
32.4
 71
     7
 72
     1
  1
\T1.167;\W0.600;１０．６
  7
KANJI6
 11
0.0
 21
1.0
 31
0.0
 73
     1
 44
1.0
  0
LINE
  5
27A
330
1F
100
AcDbEntity
  8
0
  6
Continuous
 62
     1
100
AcDbLine
 10
286.705111048
 20
268.262942364
 30
0.0
 11
286.705111048
 21
348.262942364
 31
0.0
  0
CIRCLE
  5
27B
330
1F
100
AcDbEntity
  8
0
  6
Continuous
 62
     1
100
AcDbCircle
 10
316.705111048
 20
278.262942364
 30
0.0
 40
3.5
  0
CIRCLE
  5
27C
330
1F
100
AcDbEntity
  8
0
  6
Continuous
 62
     1
100
AcDbCircle
 10
356.705111048
 20
278.262942364
 30
0.0
 40
3.5
  0
CIRCLE
  5
27D
330
1F
100
AcDbEntity
  8
0
  6
Continuous
 62
     1
100
AcDbCircle
 10
396.705111048
 20
278.262942364
 30
0.0
 40
3.5
  0
CIRCLE
  5
27E
330
1F
100
AcDbEntity
  8
0
  6
Continuous
 62
     1
100
AcDbCircle
 10
316.705111048
 20
338.262942364
 30
0.0
 40
3.5
  0
CIRCLE
  5
27F
330
1F
100
AcDbEntity
  8
0
  6
Continuous
 62
     1
100
AcDbCircle
 10
356.705111048
 20
338.262942364
 30
0.0
 40
3.5
  0
CIRCLE
  5
280
330
1F
100
AcDbEntity
  8
0
  6
Continuous
 62
     1
100
AcDbCircle
 10
396.705111048
 20
338.262942364
 30
0.0
 40
3.5
  0
LINE
  5
281
330
1F
100
AcDbEntity
  8
0
  6
Continuous
 62
     1
100
AcDbLine
 10
331.705126307
 20
293.262942364
 30
0.0
 11
381.705111048
 21
293.262942364
 31
0.0
  0
ARC
  5
282
330
1F
100
AcDbEntity
  8
0
  6
Continuous
 62
     1
100
AcDbCircle
 10
381.705111048
 20
308.262942364
 30
0.0
 40
15.0
100
AcDbArc
 50
270.0
 51
90.000082426
  0
LWPOLYLINE
  5
285
330
1F
100
AcDbEntity
  8
0
  6
Continuous
 62
     1
100
AcDbPolyline
 90
     3
 70
   128
 43
0.0
 10
381.705089469
 20
323.262942364
 42
0.0
 10
331.705089469
 20
323.262942364
 42
0.999999789
 10
331.705126307
 20
293.262942364
 42
0.0
  0
LINE
  5
286
330
1F
100
AcDbEntity
  8
0
  6
LTYPE2
 62
     2
100
AcDbLine
 10
285.78206631
 20
268.262942364
 30
0.0
 11
285.78206631
 21
348.262942364
 31
0.0
  0
ARC
  5
287
330
1F
100
AcDbEntity
  8
0
  6
Continuous
 62
     1
100
AcDbCircle
 10
396.705111048
 20
338.262942364
 30
0.0
 40
10.0
100
AcDbArc
 50
0.0
 51
90.0
  0
LINE
  5
288
330
1F
100
AcDbEntity
  8
0
  6
Continuous
 62
     1
100
AcDbLine
 10
406.705111048
 20
278.262942364
 30
0.0
 11
406.705111048
 21
338.262942364
 31
0.0
  0
ARC
  5
289
330
1F
100
AcDbEntity
  8
0
  6
Continuous
 62
     1
100
AcDbCircle
 10
396.705111048
 20
278.262942364
 30
0.0
 40
10.0
100
AcDbArc
 50
270.0
 51
0.0
  0
LINE
  5
28A
330
1F
100
AcDbEntity
  8
0
  6
LTYPE2
 62
     2
100
AcDbLine
 10
304.705111048
 20
348.262942364
 30
0.0
 11
304.705111048
 21
268.262942364
 31
0.0
  0
CIRCLE
  5
28B
330
1F
100
AcDbEntity
  8
0
  6
LTYPE2
 62
     2
100
AcDbCircle
 10
295.705111048
 20
278.262942364
 30
0.0
 40
2.2
  0
CIRCLE
  5
28C
330
1F
100
AcDbEntity
  8
0
  6
LTYPE2
 62
     2
100
AcDbCircle
 10
295.705111048
 20
278.262942364
 30
0.0
 40
2.2
  0
CIRCLE
  5
28D
330
1F
100
AcDbEntity
  8
0
  6
LTYPE2
 62
     2
100
AcDbCircle
 10
295.705111048
 20
308.262942364
 30
0.0
 40
2.2
  0
CIRCLE
  5
28E
330
1F
100
AcDbEntity
  8
0
  6
LTYPE2
 62
     2
100
AcDbCircle
 10
295.705111048
 20
308.262942364
 30
0.0
 40
2.2
  0
CIRCLE
  5
28F
330
1F
100
AcDbEntity
  8
0
  6
LTYPE2
 62
     2
100
AcDbCircle
 10
295.705111048
 20
338.262942364
 30
0.0
 40
2.2
  0
CIRCLE
  5
290
330
1F
100
AcDbEntity
  8
0
  6
LTYPE2
 62
     2
100
AcDbCircle
 10
295.705111048
 20
338.262942364
 30
0.0
 40
2.2
  0
CIRCLE
  5
291
330
1F
100
AcDbEntity
  8
0
  6
Continuous
 62
     2
100
AcDbCircle
 10
295.705111048
 20
278.262942364
 30
0.0
 40
4.0
  0
CIRCLE
  5
292
330
1F
100
AcDbEntity
  8
0
  6
Continuous
 62
     2
100
AcDbCircle
 10
295.705111048
 20
308.262942364
 30
0.0
 40
4.0
  0
CIRCLE
  5
293
330
1F
100
AcDbEntity
  8
0
  6
Continuous
 62
     2
100
AcDbCircle
 10
295.705111048
 20
338.262942364
 30
0.0
 40
4.0
  0
LINE
  5
294
330
1F
100
AcDbEntity
  8
0
  6
Continuous
 62
     1
100
AcDbLine
 10
396.705111048
 20
268.262942364
 30
0.0
 11
283.227423052
 21
268.262942364
 31
0.0
  0
LINE
  5
295
330
1F
100
AcDbEntity
  8
0
  6
LTYPE2
 62
     2
100
AcDbLine
 10
227.78119256
 20
268.262942364
 30
0.0
 11
226.658880557
 21
268.262942364
 31
0.0
  0
LINE
  5
296
330
1F
100
AcDbEntity
  8
0
  6
LTYPE2
 62
     2
100
AcDbLine
 10
227.78119256
 20
348.262942364
 30
0.0
 11
227.78119256
 21
268.262942364
 31
0.0
  0
ARC
  5
297
330
1F
100
AcDbEntity
  8
0
  6
Continuous
 62
     2
100
AcDbCircle
 10
237.239998875
 20
265.237946341
 30
0.0
 40
1.624996023
100
AcDbArc
 50
22.619870236
 51
157.380129764
  0
ARC
  5
298
330
1F
100
AcDbEntity
  8
0
  6
Continuous
 62
     2
100
AcDbCircle
 10
232.73999865
 20
261.860809018
 30
0.0
 40
5.002133346
100
AcDbArc
 50
53.130196301
 51
126.869853087
  0
ARC
  5
299
330
1F
100
AcDbEntity
  8
0
  6
Continuous
 62
     2
100
AcDbCircle
 10
228.239272056
 20
265.239032485
 30
0.0
 40
1.623909879
100
AcDbArc
 50
22.578019525
 51
157.405765162
  0
LINE
  5
29A
330
1F
100
AcDbEntity
  8
0
  6
Continuous
 62
     2
100
AcDbLine
 10
228.239266661
 20
266.862942364
 30
0.0
 11
237.239998875
 21
266.862942364
 31
0.0
  0
LINE
  5
29B
330
1F
100
AcDbEntity
  8
0
  6
Continuous
 62
     2
100
AcDbLine
 10
238.739998875
 20
262.862942364
 30
0.0
 11
238.739998875
 21
265.862942364
 31
0.0
  0
LINE
  5
29C
330
1F
100
AcDbEntity
  8
0
  6
Continuous
 62
     2
100
AcDbLine
 10
226.739998875
 20
262.862942364
 30
0.0
 11
226.739998875
 21
265.862942364
 31
0.0
  0
LINE
  5
29D
330
1F
100
AcDbEntity
  8
0
  6
Continuous
 62
     2
100
AcDbLine
 10
229.739998875
 20
262.862942364
 30
0.0
 11
229.739998875
 21
265.862942364
 31
0.0
  0
LINE
  5
29E
330
1F
100
AcDbEntity
  8
0
  6
Continuous
 62
     2
100
AcDbLine
 10
235.739998875
 20
262.862942364
 30
0.0
 11
235.739998875
 21
265.862942364
 31
0.0
  0
ARC
  5
29F
330
1F
100
AcDbEntity
  8
0
  6
Continuous
 62
     2
100
AcDbCircle
 10
265.524270122
 20
265.237946341
 30
0.0
 40
1.624996023
100
AcDbArc
 50
22.619870236
 51
157.380129764
  0
ARC
  5
2A0
330
1F
100
AcDbEntity
  8
0
  6
Continuous
 62
     2
100
AcDbCircle
 10
261.024269897
 20
261.860809018
 30
0.0
 40
5.002133346
100
AcDbArc
 50
53.130196301
 51
126.869853087
  0
ARC
  5
2A1
330
1F
100
AcDbEntity
  8
0
  6
Continuous
 62
     2
100
AcDbCircle
 10
256.523543303
 20
265.239032485
 30
0.0
 40
1.623909879
100
AcDbArc
 50
22.578019525
 51
157.405765162
  0
LINE
  5
2A2
330
1F
100
AcDbEntity
  8
0
  6
Continuous
 62
     2
100
AcDbLine
 10
256.523537909
 20
266.862942364
 30
0.0
 11
265.524270122
 21
266.862942364
 31
0.0
  0
LINE
  5
2A3
330
1F
100
AcDbEntity
  8
0
  6
Continuous
 62
     2
100
AcDbLine
 10
267.024270122
 20
262.862942364
 30
0.0
 11
267.024270122
 21
265.862942364
 31
0.0
  0
LINE
  5
2A4
330
1F
100
AcDbEntity
  8
0
  6
Continuous
 62
     2
100
AcDbLine
 10
255.024270122
 20
262.862942364
 30
0.0
 11
255.024270122
 21
265.862942364
 31
0.0
  0
LINE
  5
2A5
330
1F
100
AcDbEntity
  8
0
  6
Continuous
 62
     2
100
AcDbLine
 10
258.024270122
 20
262.862942364
 30
0.0
 11
258.024270122
 21
265.862942364
 31
0.0
  0
LINE
  5
2A6
330
1F
100
AcDbEntity
  8
0
  6
Continuous
 62
     2
100
AcDbLine
 10
264.024270122
 20
262.862942364
 30
0.0
 11
264.024270122
 21
265.862942364
 31
0.0
  0
LINE
  5
2A7
330
1F
100
AcDbEntity
  8
0
  6
Continuous
 62
     2
100
AcDbLine
 10
259.61005656
 20
260.262942364
 30
0.0
 11
259.61005656
 21
262.862942364
 31
0.0
  0
LINE
  5
2A8
330
1F
100
AcDbEntity
  8
0
  6
LTYPE1
 62
     2
100
AcDbLine
 10
412.105111048
 20
308.262942364
 30
0.0
 11
279.165111048
 21
308.262942364
 31
0.0
  0
LINE
  5
2A9
330
1F
100
AcDbEntity
  8
0
  6
Continuous
 62
     2
100
AcDbLine
 10
284.705111048
 20
268.262942364
 30
0.0
 11
284.705111048
 21
348.262942364
 31
0.0
  0
LINE
  5
2AA
330
1F
100
AcDbEntity
  8
0
  6
Continuous
 62
     1
100
AcDbLine
 10
233.022841587
 20
281.762942364
 30
0.0
 11
235.851268712
 21
296.262942364
 31
0.0
  0
LINE
  5
2AB
330
1F
100
AcDbEntity
  8
0
  6
Continuous
 62
     1
100
AcDbLine
 10
233.022841587
 20
266.862942364
 30
0.0
 11
233.022841587
 21
281.762942364
 31
0.0
  0
ELLIPSE
  5
2AC
330
1F
100
AcDbEntity
  8
0
  6
Continuous
 62
     1
100
AcDbEllipse
 10
239.386802618
 20
329.774758035
 30
0.0
 11
0.0
 21
5.0
 31
0.0
 40
0.707106781
 41
0.0
 42
1.570794801
  0
LINE
  5
2AD
330
1F
100
AcDbEntity
  8
0
  6
Continuous
 62
     1
100
AcDbLine
 10
235.851268712
 20
296.262942364
 30
0.0
 11
235.851268712
 21
329.774765664
 31
0.0
  0
ELLIPSE
  5
2AE
330
1F
100
AcDbEntity
  8
0
  6
Continuous
 62
     1
100
AcDbEllipse
 10
241.225280249
 20
329.774758035
 30
0.0
 11
0.0
 21
5.0
 31
0.0
 40
0.707106781
 41
0.0
 42
1.570794801
  0
LINE
  5
2AF
330
1F
100
AcDbEntity
  8
0
  6
Continuous
 62
     1
100
AcDbLine
 10
237.689746343
 20
296.262942364
 30
0.0
 11
237.689746343
 21
329.774765664
 31
0.0
  0
LINE
  5
2B0
330
1F
100
AcDbEntity
  8
0
  6
Continuous
 62
     1
100
AcDbLine
 10
274.035034896
 20
296.262942364
 30
0.0
 11
274.035034896
 21
329.774765664
 31
0.0
  0
ELLIPSE
  5
2B1
330
1F
100
AcDbEntity
  8
0
  6
Continuous
 62
     1
100
AcDbEllipse
 10
270.49950099
 20
329.774758035
 30
0.0
 11
0.0
 21
5.0
 31
0.0
 40
0.707106781
 41
4.712390506
 42
0.000001079
  0
LINE
  5
2B2
330
1F
100
AcDbEntity
  8
0
  6
Continuous
 62
     1
100
AcDbLine
 10
270.499497176
 20
334.774758035
 30
0.0
 11
239.386802618
 21
334.774758035
 31
0.0
  0
LINE
  5
2B3
330
1F
100
AcDbEntity
  8
0
  6
Continuous
 62
     1
100
AcDbLine
 10
276.863462021
 20
281.762942364
 30
0.0
 11
274.035034896
 21
296.262942364
 31
0.0
  0
LINE
  5
2B4
330
1F
100
AcDbEntity
  8
0
  6
Continuous
 62
     1
100
AcDbLine
 10
276.863462021
 20
262.862942364
 30
0.0
 11
276.863462021
 21
281.762942364
 31
0.0
  0
LINE
  5
2B5
330
1F
100
AcDbEntity
  8
0
  6
Continuous
 62
     1
100
AcDbLine
 10
225.668931063
 20
260.262942364
 30
0.0
 11
281.388941606
 21
260.262942364
 31
0.0
  0
ELLIPSE
  5
2B6
330
1F
100
AcDbEntity
  8
0
  6
Continuous
 62
     1
100
AcDbEllipse
 10
281.388945421
 20
265.462942364
 30
0.0
 11
0.0
 21
5.2
 31
0.0
 40
0.707106781
 41
3.141591616
 42
4.712390018
  0
LINE
  5
2B7
330
1F
100
AcDbEntity
  8
0
  6
Continuous
 62
     1
100
AcDbLine
 10
225.668931063
 20
262.862942364
 30
0.0
 11
281.388941606
 21
262.862942364
 31
0.0
  0
ELLIPSE
  5
2B8
330
1F
100
AcDbEntity
  8
0
  6
Continuous
 62
     1
100
AcDbEllipse
 10
281.388945421
 20
265.462942364
 30
0.0
 11
0.0
 21
2.6
 31
0.0
 40
0.707106781
 41
3.141590579
 42
4.712390448
  0
LINE
  5
2B9
330
1F
100
AcDbEntity
  8
0
  6
Continuous
 62
     1
100
AcDbLine
 10
283.227423052
 20
265.462946179
 30
0.0
 11
283.227423052
 21
268.262942364
 31
0.0
  0
LINE
  5
2BA
330
1F
100
AcDbEntity
  8
0
  6
Continuous
 62
     1
100
AcDbLine
 10
285.065900683
 20
265.462947759
 30
0.0
 11
285.065900683
 21
268.262942364
 31
0.0
  0
LINE
  5
2BB
330
1F
100
AcDbEntity
  8
0
  6
Continuous
 62
     1
100
AcDbLine
 10
225.668931063
 20
260.262942364
 30
0.0
 11
225.668931063
 21
262.862942364
 31
0.0
  0
LINE
  5
2BC
330
1F
100
AcDbEntity
  8
0
  6
Continuous
 62
     1
100
AcDbLine
 10
226.658880557
 20
262.862942364
 30
0.0
 11
226.658880557
 21
268.262942364
 31
0.0
  0
LINE
  5
2BD
330
1F
100
AcDbEntity
  8
3
  6
Continuous
 62
     2
100
AcDbLine
 10
265.524270122
 20
257.662942364
 30
0.0
 11
265.424270122
 21
256.162942364
 31
0.0
  0
LINE
  5
2BE
330
1F
100
AcDbEntity
  8
3
  6
Continuous
 62
     2
100
AcDbLine
 10
256.524270122
 20
257.662942364
 30
0.0
 11
256.624270122
 21
256.162942364
 31
0.0
  0
ARC
  5
2BF
330
1F
100
AcDbEntity
  8
3
  6
Continuous
 62
     2
100
AcDbCircle
 10
258.524270122
 20
256.662942364
 30
0.0
 40
2.0
100
AcDbArc
 50
194.3
 51
251.4
  0
ARC
  5
2C0
330
1F
100
AcDbEntity
  8
3
  6
Continuous
 62
     2
100
AcDbCircle
 10
263.524270122
 20
256.662942364
 30
0.0
 40
2.0
100
AcDbArc
 50
288.6
 51
345.7
  0
ARC
  5
2C1
330
1F
100
AcDbEntity
  8
3
  6
Continuous
 62
     2
100
AcDbCircle
 10
261.024270122
 20
266.562942364
 30
0.0
 40
12.2
100
AcDbArc
 50
255.3
 51
284.7
  0
LINE
  5
2C2
330
1F
100
AcDbEntity
  8
3
  6
Continuous
 62
     2
100
AcDbLine
 10
237.239998875
 20
257.662942364
 30
0.0
 11
237.139998875
 21
256.162942364
 31
0.0
  0
LINE
  5
2C3
330
1F
100
AcDbEntity
  8
3
  6
Continuous
 62
     2
100
AcDbLine
 10
228.239998875
 20
257.662942364
 30
0.0
 11
228.339998875
 21
256.162942364
 31
0.0
  0
ARC
  5
2C4
330
1F
100
AcDbEntity
  8
3
  6
Continuous
 62
     2
100
AcDbCircle
 10
230.239998875
 20
256.662942364
 30
0.0
 40
2.0
100
AcDbArc
 50
194.3
 51
251.4
  0
ARC
  5
2C5
330
1F
100
AcDbEntity
  8
3
  6
Continuous
 62
     2
100
AcDbCircle
 10
235.239998875
 20
256.662942364
 30
0.0
 40
2.0
100
AcDbArc
 50
288.6
 51
345.7
  0
ARC
  5
2C6
330
1F
100
AcDbEntity
  8
3
  6
Continuous
 62
     2
100
AcDbCircle
 10
232.739998875
 20
266.562942364
 30
0.0
 40
12.2
100
AcDbArc
 50
255.3
 51
284.7
  0
LINE
  5
2C7
330
1F
100
AcDbEntity
  8
0
  6
Continuous
 62
     1
100
AcDbLine
 10
226.658880557
 20
268.262942364
 30
0.0
 11
225.18119256
 21
268.262942364
 31
0.0
  0
LWPOLYLINE
  5
2C9
330
1F
100
AcDbEntity
  8
0
  6
Continuous
 62
     1
100
AcDbPolyline
 90
     3
 70
   128
 43
0.0
 10
396.705111048
 20
348.262942364
 10
225.18119256
 20
348.262942364
 10
225.18119256
 20
268.262942364
  0
LINE
  5
2CA
330
1F
100
AcDbEntity
  8
2
  6
Continuous
 62
     1
100
AcDbLine
 10
190.752328561
 20
257.662942364
 30
0.0
 11
190.752328561
 21
260.262942364
 31
0.0
  0
LINE
  5
2CB
330
1F
100
AcDbEntity
  8
2
  6
Continuous
 62
     1
100
AcDbLine
 10
224.693454058
 20
257.662942364
 30
0.0
 11
224.693454058
 21
260.262942364
 31
0.0
  0
LINE
  5
2CC
330
1F
100
AcDbEntity
  8
2
  6
Continuous
 62
     1
100
AcDbLine
 10
224.693454058
 20
257.662942364
 30
0.0
 11
165.296484438
 21
257.662942364
 31
0.0
  0
LINE
  5
2CD
330
1F
100
AcDbEntity
  8
2
  6
Continuous
 62
     1
100
AcDbLine
 10
224.693454058
 20
260.262942364
 30
0.0
 11
165.296484438
 21
260.262942364
 31
0.0
  0
LINE
  5
2CE
330
1F
100
AcDbEntity
  8
2
  6
Continuous
 62
     1
100
AcDbLine
 10
168.124911563
 20
257.662942364
 30
0.0
 11
168.124911563
 21
260.262942364
 31
0.0
  0
LINE
  5
2CF
330
1F
100
AcDbEntity
  8
2
  6
Continuous
 62
     1
100
AcDbLine
 10
165.296484438
 20
257.662942364
 30
0.0
 11
165.296484438
 21
260.262942364
 31
0.0
  0
LINE
  5
2D0
330
1F
100
AcDbEntity
  8
0
  6
Continuous
 62
     1
100
AcDbLine
 10
163.657274073
 20
268.262942364
 30
0.0
 11
163.657274073
 21
348.262942364
 31
0.0
  0
CIRCLE
  5
2D1
330
1F
100
AcDbEntity
  8
0
  6
Continuous
 62
     1
100
AcDbCircle
 10
133.657274073
 20
278.262942364
 30
0.0
 40
3.5
  0
CIRCLE
  5
2D2
330
1F
100
AcDbEntity
  8
0
  6
Continuous
 62
     1
100
AcDbCircle
 10
93.657274073
 20
278.262942364
 30
0.0
 40
3.5
  0
CIRCLE
  5
2D3
330
1F
100
AcDbEntity
  8
0
  6
Continuous
 62
     1
100
AcDbCircle
 10
53.657274073
 20
278.262942364
 30
0.0
 40
3.5
  0
CIRCLE
  5
2D4
330
1F
100
AcDbEntity
  8
0
  6
Continuous
 62
     1
100
AcDbCircle
 10
133.657274073
 20
338.262942364
 30
0.0
 40
3.5
  0
CIRCLE
  5
2D5
330
1F
100
AcDbEntity
  8
0
  6
Continuous
 62
     1
100
AcDbCircle
 10
93.657274073
 20
338.262942364
 30
0.0
 40
3.5
  0
CIRCLE
  5
2D6
330
1F
100
AcDbEntity
  8
0
  6
Continuous
 62
     1
100
AcDbCircle
 10
53.657274073
 20
338.262942364
 30
0.0
 40
3.5
  0
LINE
  5
2D7
330
1F
100
AcDbEntity
  8
0
  6
Continuous
 62
     1
100
AcDbLine
 10
118.657258814
 20
293.262942364
 30
0.0
 11
68.657274073
 21
293.262942364
 31
0.0
  0
ARC
  5
2D8
330
1F
100
AcDbEntity
  8
0
  6
Continuous
 62
     1
100
AcDbCircle
 10
68.657274073
 20
308.262942364
 30
0.0
 40
15.0
100
AcDbArc
 50
89.999917574
 51
270.0
  0
LWPOLYLINE
  5
2DB
330
1F
100
AcDbEntity
  8
0
  6
Continuous
 62
     1
100
AcDbPolyline
 90
     3
 70
   128
 43
0.0
 10
68.657295652
 20
323.262942364
 42
0.0
 10
118.657295652
 20
323.262942364
 42
-0.999999789
 10
118.657258814
 20
293.262942364
 42
0.0
  0
LINE
  5
2DC
330
1F
100
AcDbEntity
  8
0
  6
LTYPE2
 62
     2
100
AcDbLine
 10
164.58031881
 20
268.262942364
 30
0.0
 11
164.58031881
 21
348.262942364
 31
0.0
  0
ARC
  5
2DD
330
1F
100
AcDbEntity
  8
0
  6
Continuous
 62
     1
100
AcDbCircle
 10
53.657274073
 20
338.262942364
 30
0.0
 40
10.0
100
AcDbArc
 50
90.0
 51
180.0
  0
LINE
  5
2DE
330
1F
100
AcDbEntity
  8
0
  6
Continuous
 62
     1
100
AcDbLine
 10
43.657274073
 20
278.262942364
 30
0.0
 11
43.657274073
 21
338.262942364
 31
0.0
  0
ARC
  5
2DF
330
1F
100
AcDbEntity
  8
0
  6
Continuous
 62
     1
100
AcDbCircle
 10
53.657274073
 20
278.262942364
 30
0.0
 40
10.0
100
AcDbArc
 50
180.0
 51
270.0
  0
LINE
  5
2E0
330
1F
100
AcDbEntity
  8
0
  6
LTYPE2
 62
     2
100
AcDbLine
 10
145.657274073
 20
348.262942364
 30
0.0
 11
145.657274073
 21
268.262942364
 31
0.0
  0
CIRCLE
  5
2E1
330
1F
100
AcDbEntity
  8
0
  6
LTYPE2
 62
     2
100
AcDbCircle
 10
154.657274073
 20
278.262942364
 30
0.0
 40
2.2
  0
CIRCLE
  5
2E2
330
1F
100
AcDbEntity
  8
0
  6
LTYPE2
 62
     2
100
AcDbCircle
 10
154.657274073
 20
278.262942364
 30
0.0
 40
2.2
  0
CIRCLE
  5
2E3
330
1F
100
AcDbEntity
  8
0
  6
LTYPE2
 62
     2
100
AcDbCircle
 10
154.657274073
 20
308.262942364
 30
0.0
 40
2.2
  0
CIRCLE
  5
2E4
330
1F
100
AcDbEntity
  8
0
  6
LTYPE2
 62
     2
100
AcDbCircle
 10
154.657274073
 20
308.262942364
 30
0.0
 40
2.2
  0
CIRCLE
  5
2E5
330
1F
100
AcDbEntity
  8
0
  6
LTYPE2
 62
     2
100
AcDbCircle
 10
154.657274073
 20
338.262942364
 30
0.0
 40
2.2
  0
CIRCLE
  5
2E6
330
1F
100
AcDbEntity
  8
0
  6
LTYPE2
 62
     2
100
AcDbCircle
 10
154.657274073
 20
338.262942364
 30
0.0
 40
2.2
  0
CIRCLE
  5
2E7
330
1F
100
AcDbEntity
  8
0
  6
Continuous
 62
     2
100
AcDbCircle
 10
154.657274073
 20
278.262942364
 30
0.0
 40
4.0
  0
CIRCLE
  5
2E8
330
1F
100
AcDbEntity
  8
0
  6
Continuous
 62
     2
100
AcDbCircle
 10
154.657274073
 20
308.262942364
 30
0.0
 40
4.0
  0
CIRCLE
  5
2E9
330
1F
100
AcDbEntity
  8
0
  6
Continuous
 62
     2
100
AcDbCircle
 10
154.657274073
 20
338.262942364
 30
0.0
 40
4.0
  0
LINE
  5
2EA
330
1F
100
AcDbEntity
  8
0
  6
Continuous
 62
     1
100
AcDbLine
 10
53.657274073
 20
268.262942364
 30
0.0
 11
167.134962069
 21
268.262942364
 31
0.0
  0
LINE
  5
2EB
330
1F
100
AcDbEntity
  8
0
  6
LTYPE2
 62
     2
100
AcDbLine
 10
222.58119256
 20
268.262942364
 30
0.0
 11
223.703504564
 21
268.262942364
 31
0.0
  0
LINE
  5
2EC
330
1F
100
AcDbEntity
  8
0
  6
LTYPE2
 62
     2
100
AcDbLine
 10
222.58119256
 20
348.262942364
 30
0.0
 11
222.58119256
 21
268.262942364
 31
0.0
  0
ARC
  5
2ED
330
1F
100
AcDbEntity
  8
0
  6
Continuous
 62
     2
100
AcDbCircle
 10
213.122386246
 20
265.237946341
 30
0.0
 40
1.624996023
100
AcDbArc
 50
22.619870236
 51
157.380129764
  0
ARC
  5
2EE
330
1F
100
AcDbEntity
  8
0
  6
Continuous
 62
     2
100
AcDbCircle
 10
217.622386471
 20
261.860809018
 30
0.0
 40
5.002133346
100
AcDbArc
 50
53.130146913
 51
126.869803699
  0
ARC
  5
2EF
330
1F
100
AcDbEntity
  8
0
  6
Continuous
 62
     2
100
AcDbCircle
 10
222.123113065
 20
265.239032485
 30
0.0
 40
1.623909879
100
AcDbArc
 50
22.594234838
 51
157.421980475
  0
LINE
  5
2F0
330
1F
100
AcDbEntity
  8
0
  6
Continuous
 62
     2
100
AcDbLine
 10
222.123118459
 20
266.862942364
 30
0.0
 11
213.122386246
 21
266.862942364
 31
0.0
  0
LINE
  5
2F1
330
1F
100
AcDbEntity
  8
0
  6
Continuous
 62
     2
100
AcDbLine
 10
211.622386246
 20
262.862942364
 30
0.0
 11
211.622386246
 21
265.862942364
 31
0.0
  0
LINE
  5
2F2
330
1F
100
AcDbEntity
  8
0
  6
Continuous
 62
     2
100
AcDbLine
 10
223.622386246
 20
262.862942364
 30
0.0
 11
223.622386246
 21
265.862942364
 31
0.0
  0
LINE
  5
2F3
330
1F
100
AcDbEntity
  8
0
  6
Continuous
 62
     2
100
AcDbLine
 10
220.622386246
 20
262.862942364
 30
0.0
 11
220.622386246
 21
265.862942364
 31
0.0
  0
LINE
  5
2F4
330
1F
100
AcDbEntity
  8
0
  6
Continuous
 62
     2
100
AcDbLine
 10
214.622386246
 20
262.862942364
 30
0.0
 11
214.622386246
 21
265.862942364
 31
0.0
  0
ARC
  5
2F5
330
1F
100
AcDbEntity
  8
0
  6
Continuous
 62
     2
100
AcDbCircle
 10
184.838114998
 20
265.237946341
 30
0.0
 40
1.624996023
100
AcDbArc
 50
22.619870236
 51
157.380129764
  0
ARC
  5
2F6
330
1F
100
AcDbEntity
  8
0
  6
Continuous
 62
     2
100
AcDbCircle
 10
189.338115224
 20
261.860809018
 30
0.0
 40
5.002133346
100
AcDbArc
 50
53.130146913
 51
126.869803699
  0
ARC
  5
2F7
330
1F
100
AcDbEntity
  8
0
  6
Continuous
 62
     2
100
AcDbCircle
 10
193.838841817
 20
265.239032485
 30
0.0
 40
1.623909879
100
AcDbArc
 50
22.594234838
 51
157.421980475
  0
LINE
  5
2F8
330
1F
100
AcDbEntity
  8
0
  6
Continuous
 62
     2
100
AcDbLine
 10
193.838847212
 20
266.862942364
 30
0.0
 11
184.838114998
 21
266.862942364
 31
0.0
  0
LINE
  5
2F9
330
1F
100
AcDbEntity
  8
0
  6
Continuous
 62
     2
100
AcDbLine
 10
183.338114998
 20
262.862942364
 30
0.0
 11
183.338114998
 21
265.862942364
 31
0.0
  0
LINE
  5
2FA
330
1F
100
AcDbEntity
  8
0
  6
Continuous
 62
     2
100
AcDbLine
 10
195.338114998
 20
262.862942364
 30
0.0
 11
195.338114998
 21
265.862942364
 31
0.0
  0
LINE
  5
2FB
330
1F
100
AcDbEntity
  8
0
  6
Continuous
 62
     2
100
AcDbLine
 10
192.338114998
 20
262.862942364
 30
0.0
 11
192.338114998
 21
265.862942364
 31
0.0
  0
LINE
  5
2FC
330
1F
100
AcDbEntity
  8
0
  6
Continuous
 62
     2
100
AcDbLine
 10
186.338114998
 20
262.862942364
 30
0.0
 11
186.338114998
 21
265.862942364
 31
0.0
  0
LINE
  5
2FD
330
1F
100
AcDbEntity
  8
0
  6
Continuous
 62
     2
100
AcDbLine
 10
190.752328561
 20
260.262942364
 30
0.0
 11
190.752328561
 21
262.862942364
 31
0.0
  0
LINE
  5
2FE
330
1F
100
AcDbEntity
  8
0
  6
LTYPE1
 62
     2
100
AcDbLine
 10
38.257274073
 20
308.262942364
 30
0.0
 11
171.197274073
 21
308.262942364
 31
0.0
  0
LINE
  5
2FF
330
1F
100
AcDbEntity
  8
0
  6
Continuous
 62
     2
100
AcDbLine
 10
165.657274073
 20
268.262942364
 30
0.0
 11
165.657274073
 21
348.262942364
 31
0.0
  0
LINE
  5
300
330
1F
100
AcDbEntity
  8
0
  6
Continuous
 62
     1
100
AcDbLine
 10
217.339543533
 20
281.762942364
 30
0.0
 11
214.511116409
 21
296.262942364
 31
0.0
  0
LINE
  5
301
330
1F
100
AcDbEntity
  8
0
  6
Continuous
 62
     1
100
AcDbLine
 10
217.339543533
 20
266.862942364
 30
0.0
 11
217.339543533
 21
281.762942364
 31
0.0
  0
ELLIPSE
  5
302
330
1F
100
AcDbEntity
  8
0
  6
Continuous
 62
     1
100
AcDbEllipse
 10
210.975582503
 20
329.774758035
 30
0.0
 11
0.0
 21
-5.0
 31
0.0
 40
0.707106781
 41
1.570797853
 42
3.141592654
  0
LINE
  5
303
330
1F
100
AcDbEntity
  8
0
  6
Continuous
 62
     1
100
AcDbLine
 10
214.511116409
 20
296.262942364
 30
0.0
 11
214.511116409
 21
329.774765664
 31
0.0
  0
ELLIPSE
  5
304
330
1F
100
AcDbEntity
  8
0
  6
Continuous
 62
     1
100
AcDbEllipse
 10
209.137104871
 20
329.774758035
 30
0.0
 11
0.0
 21
-5.0
 31
0.0
 40
0.707106781
 41
1.570797853
 42
3.141592654
  0
LINE
  5
305
330
1F
100
AcDbEntity
  8
0
  6
Continuous
 62
     1
100
AcDbLine
 10
212.672638777
 20
296.262942364
 30
0.0
 11
212.672638777
 21
329.774765664
 31
0.0
  0
LINE
  5
306
330
1F
100
AcDbEntity
  8
0
  6
Continuous
 62
     1
100
AcDbLine
 10
176.327350224
 20
296.262942364
 30
0.0
 11
176.327350224
 21
329.774765664
 31
0.0
  0
ELLIPSE
  5
307
330
1F
100
AcDbEntity
  8
0
  6
Continuous
 62
     1
100
AcDbEllipse
 10
179.86288413
 20
329.774758035
 30
0.0
 11
0.0
 21
-5.0
 31
0.0
 40
0.707106781
 41
3.141591575
 42
4.712387455
  0
LINE
  5
308
330
1F
100
AcDbEntity
  8
0
  6
Continuous
 62
     1
100
AcDbLine
 10
179.862887945
 20
334.774758035
 30
0.0
 11
210.975582503
 21
334.774758035
 31
0.0
  0
LINE
  5
309
330
1F
100
AcDbEntity
  8
0
  6
Continuous
 62
     1
100
AcDbLine
 10
173.4989231
 20
281.762942364
 30
0.0
 11
176.327350224
 21
296.262942364
 31
0.0
  0
LINE
  5
30A
330
1F
100
AcDbEntity
  8
0
  6
Continuous
 62
     1
100
AcDbLine
 10
173.4989231
 20
262.862942364
 30
0.0
 11
173.4989231
 21
281.762942364
 31
0.0
  0
LINE
  5
30B
330
1F
100
AcDbEntity
  8
0
  6
Continuous
 62
     1
100
AcDbLine
 10
224.693454058
 20
260.262942364
 30
0.0
 11
168.973443515
 21
260.262942364
 31
0.0
  0
ELLIPSE
  5
30C
330
1F
100
AcDbEntity
  8
0
  6
Continuous
 62
     1
100
AcDbEllipse
 10
168.9734397
 20
265.462942364
 30
0.0
 11
0.0
 21
-5.2
 31
0.0
 40
0.707106781
 41
4.712387943
 42
0.000001038
  0
LINE
  5
30D
330
1F
100
AcDbEntity
  8
0
  6
Continuous
 62
     1
100
AcDbLine
 10
224.693454058
 20
262.862942364
 30
0.0
 11
168.973443515
 21
262.862942364
 31
0.0
  0
ELLIPSE
  5
30E
330
1F
100
AcDbEntity
  8
0
  6
Continuous
 62
     1
100
AcDbEllipse
 10
168.9734397
 20
265.462942364
 30
0.0
 11
0.0
 21
-2.6
 31
0.0
 40
0.707106781
 41
4.712387513
 42
0.000002075
  0
LINE
  5
30F
330
1F
100
AcDbEntity
  8
0
  6
Continuous
 62
     1
100
AcDbLine
 10
167.134962069
 20
265.462946179
 30
0.0
 11
167.134962069
 21
268.262942364
 31
0.0
  0
LINE
  5
310
330
1F
100
AcDbEntity
  8
0
  6
Continuous
 62
     1
100
AcDbLine
 10
165.296484438
 20
265.462947759
 30
0.0
 11
165.296484438
 21
268.262942364
 31
0.0
  0
LINE
  5
311
330
1F
100
AcDbEntity
  8
0
  6
Continuous
 62
     1
100
AcDbLine
 10
224.693454058
 20
260.262942364
 30
0.0
 11
224.693454058
 21
262.862942364
 31
0.0
  0
LINE
  5
312
330
1F
100
AcDbEntity
  8
0
  6
Continuous
 62
     1
100
AcDbLine
 10
223.703504564
 20
262.862942364
 30
0.0
 11
223.703504564
 21
268.262942364
 31
0.0
  0
LINE
  5
313
330
1F
100
AcDbEntity
  8
3
  6
Continuous
 62
     2
100
AcDbLine
 10
184.838114998
 20
257.662942364
 30
0.0
 11
184.938114998
 21
256.162942364
 31
0.0
  0
LINE
  5
314
330
1F
100
AcDbEntity
  8
3
  6
Continuous
 62
     2
100
AcDbLine
 10
193.838114998
 20
257.662942364
 30
0.0
 11
193.738114998
 21
256.162942364
 31
0.0
  0
ARC
  5
315
330
1F
100
AcDbEntity
  8
3
  6
Continuous
 62
     2
100
AcDbCircle
 10
191.838114998
 20
256.662942364
 30
0.0
 40
2.0
100
AcDbArc
 50
288.6
 51
345.7
  0
ARC
  5
316
330
1F
100
AcDbEntity
  8
3
  6
Continuous
 62
     2
100
AcDbCircle
 10
186.838114998
 20
256.662942364
 30
0.0
 40
2.0
100
AcDbArc
 50
194.3
 51
251.4
  0
ARC
  5
317
330
1F
100
AcDbEntity
  8
3
  6
Continuous
 62
     2
100
AcDbCircle
 10
189.338114998
 20
266.562942364
 30
0.0
 40
12.2
100
AcDbArc
 50
255.3
 51
284.7
  0
LINE
  5
318
330
1F
100
AcDbEntity
  8
3
  6
Continuous
 62
     2
100
AcDbLine
 10
213.122386246
 20
257.662942364
 30
0.0
 11
213.222386246
 21
256.162942364
 31
0.0
  0
LINE
  5
319
330
1F
100
AcDbEntity
  8
3
  6
Continuous
 62
     2
100
AcDbLine
 10
222.122386246
 20
257.662942364
 30
0.0
 11
222.022386246
 21
256.162942364
 31
0.0
  0
ARC
  5
31A
330
1F
100
AcDbEntity
  8
3
  6
Continuous
 62
     2
100
AcDbCircle
 10
220.122386246
 20
256.662942364
 30
0.0
 40
2.0
100
AcDbArc
 50
288.6
 51
345.7
  0
ARC
  5
31B
330
1F
100
AcDbEntity
  8
3
  6
Continuous
 62
     2
100
AcDbCircle
 10
215.122386246
 20
256.662942364
 30
0.0
 40
2.0
100
AcDbArc
 50
194.3
 51
251.4
  0
ARC
  5
31C
330
1F
100
AcDbEntity
  8
3
  6
Continuous
 62
     2
100
AcDbCircle
 10
217.622386246
 20
266.562942364
 30
0.0
 40
12.2
100
AcDbArc
 50
255.3
 51
284.7
  0
LINE
  5
31D
330
1F
100
AcDbEntity
  8
0
  6
Continuous
 62
     1
100
AcDbLine
 10
223.703504564
 20
268.262942364
 30
0.0
 11
225.18119256
 21
268.262942364
 31
0.0
  0
LINE
  5
31E
330
1F
100
AcDbEntity
  8
0
  6
Continuous
 62
     1
100
AcDbLine
 10
53.657274073
 20
348.262942364
 30
0.0
 11
225.18119256
 21
348.262942364
 31
0.0
  0
LINE
  5
31F
330
1F
100
AcDbEntity
  8
7
  6
Continuous
 62
     2
100
AcDbLine
 10
320.437772866
 20
281.002315111
 30
0.0
 11
324.419444992
 21
284.026598014
 31
0.0
  0
LINE
  5
320
330
1F
100
AcDbEntity
  8
7
  6
Continuous
 62
     2
100
AcDbLine
 10
320.437772866
 20
281.002315111
 30
0.0
 11
322.373860625
 21
285.612256996
 31
0.0
  0
LWPOLYLINE
  5
322
330
1F
100
AcDbEntity
  8
7
  6
Continuous
 62
     2
100
AcDbPolyline
 90
     3
 70
   128
 43
0.0
 10
320.437772866
 20
281.002315111
 10
333.607772866
 20
297.992315111
 10
349.507772866
 20
297.992315111
  0
MTEXT
  5
323
330
1F
100
AcDbEntity
  8
7
  6
Continuous
 62
     2
100
AcDbMText
 10
333.607772866
 20
299.992315111
 30
0.0
 40
6.0
 41
30.6
 71
     7
 72
     1
  1
\T1.111;\W0.900;φ7.0
  7
KANJI5
 73
     1
 44
1.0
  0
LINE
  5
324
330
1F
100
AcDbEntity
  8
7
  6
Continuous
 62
     2
100
AcDbLine
 10
53.657274073
 20
332.262942364
 30
0.0
 11
53.657274073
 21
367.262942364
 31
0.0
  0
LINE
  5
325
330
1F
100
AcDbEntity
  8
7
  6
Continuous
 62
     2
100
AcDbLine
 10
53.657274073
 20
363.262942364
 30
0.0
 11
58.486903204
 21
364.557037589
 31
0.0
  0
LINE
  5
326
330
1F
100
AcDbEntity
  8
7
  6
Continuous
 62
     2
100
AcDbLine
 10
53.657274073
 20
363.262942364
 30
0.0
 11
58.486903204
 21
361.968847138
 31
0.0
  0
LWPOLYLINE
  5
328
330
1F
100
AcDbEntity
  8
7
  6
Continuous
 62
     2
100
AcDbPolyline
 90
     3
 70
   128
 43
0.0
 10
53.657274073
 20
363.262942364
 10
93.657274073
 20
363.262942364
 10
88.827644941
 20
361.968847138
  0
LINE
  5
329
330
1F
100
AcDbEntity
  8
7
  6
Continuous
 62
     2
100
AcDbLine
 10
93.657274073
 20
363.262942364
 30
0.0
 11
88.827644941
 21
364.557037589
 31
0.0
  0
LINE
  5
32A
330
1F
100
AcDbEntity
  8
7
  6
Continuous
 62
     2
100
AcDbLine
 10
93.657274073
 20
332.262942364
 30
0.0
 11
93.657274073
 21
367.262942364
 31
0.0
  0
MTEXT
  5
32B
330
1F
100
AcDbEntity
  8
7
  6
Continuous
 62
     2
100
AcDbMText
 10
69.757274073
 20
365.262942364
 30
0.0
 40
6.0
 41
15.6
 71
     7
 72
     1
  1
\T1.167;\W0.600;４０
  7
KANJI6
 73
     1
 44
1.0
  0
LINE
  5
32C
330
1F
100
AcDbEntity
  8
7
  6
Continuous
 62
     2
100
AcDbLine
 10
93.657274073
 20
363.262942364
 30
0.0
 11
98.486903204
 21
364.557037589
 31
0.0
  0
LINE
  5
32D
330
1F
100
AcDbEntity
  8
7
  6
Continuous
 62
     2
100
AcDbLine
 10
93.657274073
 20
363.262942364
 30
0.0
 11
98.486903204
 21
361.968847138
 31
0.0
  0
LWPOLYLINE
  5
32F
330
1F
100
AcDbEntity
  8
7
  6
Continuous
 62
     2
100
AcDbPolyline
 90
     3
 70
   128
 43
0.0
 10
93.657274073
 20
363.262942364
 10
133.657274073
 20
363.262942364
 10
128.827644941
 20
361.968847138
  0
LINE
  5
330
330
1F
100
AcDbEntity
  8
7
  6
Continuous
 62
     2
100
AcDbLine
 10
133.657274073
 20
363.262942364
 30
0.0
 11
128.827644941
 21
364.557037589
 31
0.0
  0
LINE
  5
331
330
1F
100
AcDbEntity
  8
7
  6
Continuous
 62
     2
100
AcDbLine
 10
133.657274073
 20
332.262942364
 30
0.0
 11
133.657274073
 21
367.262942364
 31
0.0
  0
MTEXT
  5
332
330
1F
100
AcDbEntity
  8
7
  6
Continuous
 62
     2
100
AcDbMText
 10
109.757274073
 20
365.262942364
 30
0.0
 40
6.0
 41
15.6
 71
     7
 72
     1
  1
\T1.167;\W0.600;４０
  7
KANJI6
 73
     1
 44
1.0
  0
LINE
  5
333
330
1F
100
AcDbEntity
  8
7
  6
Continuous
 62
     2
100
AcDbLine
 10
53.657274073
 20
363.262942364
 30
0.0
 11
58.486903204
 21
364.557037589
 31
0.0
  0
LINE
  5
334
330
1F
100
AcDbEntity
  8
7
  6
Continuous
 62
     2
100
AcDbLine
 10
53.657274073
 20
363.262942364
 30
0.0
 11
58.486903204
 21
361.968847138
 31
0.0
  0
LWPOLYLINE
  5
336
330
1F
100
AcDbEntity
  8
7
  6
Continuous
 62
     2
100
AcDbPolyline
 90
     4
 70
   128
 43
0.0
 10
61.157274073
 20
363.262942364
 10
53.657274073
 20
363.262942364
 10
43.657274073
 20
363.262942364
 10
36.157274073
 20
363.262942364
  0
LINE
  5
337
330
1F
100
AcDbEntity
  8
7
  6
Continuous
 62
     2
100
AcDbLine
 10
43.657274073
 20
363.262942364
 30
0.0
 11
38.827644941
 21
361.968847138
 31
0.0
  0
LINE
  5
338
330
1F
100
AcDbEntity
  8
7
  6
Continuous
 62
     2
100
AcDbLine
 10
43.657274073
 20
363.262942364
 30
0.0
 11
38.827644941
 21
364.557037589
 31
0.0
  0
LINE
  5
339
330
1F
100
AcDbEntity
  8
7
  6
Continuous
 62
     2
100
AcDbLine
 10
43.657274073
 20
340.262942364
 30
0.0
 11
43.657274073
 21
367.262942364
 31
0.0
  0
MTEXT
  5
33A
330
1F
100
AcDbEntity
  8
7
  6
Continuous
 62
     2
100
AcDbMText
 10
44.757274073
 20
365.262942364
 30
0.0
 40
6.0
 41
15.6
 71
     7
 72
     1
  1
\T1.167;\W0.600;１０
  7
KANJI6
 73
     1
 44
1.0
  0
LINE
  5
33B
330
1F
100
AcDbEntity
  8
7
  6
Continuous
 62
     2
100
AcDbLine
 10
133.657274073
 20
363.262942364
 30
0.0
 11
138.486903204
 21
361.968847138
 31
0.0
  0
LINE
  5
33C
330
1F
100
AcDbEntity
  8
7
  6
Continuous
 62
     2
100
AcDbLine
 10
133.657274073
 20
363.262942364
 30
0.0
 11
138.486903204
 21
364.557037589
 31
0.0
  0
LWPOLYLINE
  5
33E
330
1F
100
AcDbEntity
  8
7
  6
Continuous
 62
     2
100
AcDbPolyline
 90
     3
 70
   128
 43
0.0
 10
133.657274073
 20
363.262942364
 10
316.705111048
 20
363.262942364
 10
311.875481917
 20
364.557037589
  0
LINE
  5
33F
330
1F
100
AcDbEntity
  8
7
  6
Continuous
 62
     2
100
AcDbLine
 10
316.705111048
 20
363.262942364
 30
0.0
 11
311.875481917
 21
361.968847138
 31
0.0
  0
MTEXT
  5
340
330
1F
100
AcDbEntity
  8
7
  6
Continuous
 62
     2
100
AcDbMText
 10
206.58119256
 20
365.262942364
 30
0.0
 40
6.0
 41
74.4
 71
     7
 72
     1
  1
\T1.167;\W0.600;（１８３．０４８）
  7
KANJI6
 73
     1
 44
1.0
  0
LINE
  5
341
330
1F
100
AcDbEntity
  8
7
  6
Continuous
 62
     2
100
AcDbLine
 10
43.657274073
 20
365.262942364
 30
0.0
 11
43.657274073
 21
382.262942364
 31
0.0
  0
LINE
  5
342
330
1F
100
AcDbEntity
  8
7
  6
Continuous
 62
     2
100
AcDbLine
 10
43.657274073
 20
378.262942364
 30
0.0
 11
48.486903204
 21
376.968847138
 31
0.0
  0
LINE
  5
343
330
1F
100
AcDbEntity
  8
7
  6
Continuous
 62
     2
100
AcDbLine
 10
43.657274073
 20
378.262942364
 30
0.0
 11
48.486903204
 21
379.557037589
 31
0.0
  0
LWPOLYLINE
  5
345
330
1F
100
AcDbEntity
  8
7
  6
Continuous
 62
     2
100
AcDbPolyline
 90
     3
 70
   128
 43
0.0
 10
43.657274073
 20
378.262942364
 10
406.705111048
 20
378.262942364
 10
401.875481917
 20
379.557037589
  0
LINE
  5
346
330
1F
100
AcDbEntity
  8
7
  6
Continuous
 62
     2
100
AcDbLine
 10
406.705111048
 20
378.262942364
 30
0.0
 11
401.875481917
 21
376.968847138
 31
0.0
  0
LINE
  5
347
330
1F
100
AcDbEntity
  8
7
  6
Continuous
 62
     2
100
AcDbLine
 10
406.705111048
 20
365.262942364
 30
0.0
 11
406.705111048
 21
382.262942364
 31
0.0
  0
MTEXT
  5
348
330
1F
100
AcDbEntity
  8
7
  6
Continuous
 62
     2
100
AcDbMText
 10
206.58119256
 20
380.262942364
 30
0.0
 40
6.0
 41
74.4
 71
     7
 72
     1
  1
\T1.167;\W0.600;（３６３．０４８）
  7
KANJI6
 73
     1
 44
1.0
  0
LINE
  5
349
330
1F
100
AcDbEntity
  8
0
  6
Continuous
 62
     2
100
AcDbLine
 10
190.916308058
 20
129.105316115
 30
0.0
 11
134.347765563
 21
72.53677362
 31
0.0
  0
LINE
  5
34A
330
1F
100
AcDbEntity
  8
0
  6
Continuous
 62
     2
100
AcDbLine
 10
192.216308058
 20
127.805316115
 30
0.0
 11
135.647765563
 21
71.23677362
 31
0.0
  0
LINE
  5
34B
330
1F
100
AcDbEntity
  8
2
  6
Continuous
 62
     1
100
AcDbLine
 10
235.851263317
 20
282.162942364
 30
0.0
 11
275.873508713
 21
282.162942364
 31
0.0
  0
ELLIPSE
  5
34C
330
1F
100
AcDbEntity
  8
2
  6
Continuous
 62
     1
100
AcDbEllipse
 10
214.511116408
 20
279.162942364
 30
0.0
 11
0.0
 21
-3.0
 31
0.0
 40
0.707106781
 41
1.57079887
 42
3.14159011
  0
ELLIPSE
  5
34D
330
1F
100
AcDbEntity
  8
2
  6
Continuous
 62
     1
100
AcDbEllipse
 10
176.327350224
 20
279.162942364
 30
0.0
 11
0.0
 21
-3.0
 31
0.0
 40
0.707106781
 41
3.141592654
 42
4.712387182
  0
LINE
  5
34E
330
1F
100
AcDbEntity
  8
2
  6
Continuous
 62
     1
100
AcDbLine
 10
214.511121803
 20
282.162942364
 30
0.0
 11
174.488876408
 21
282.162942364
 31
0.0
  0
ELLIPSE
  5
34F
330
1F
100
AcDbEntity
  8
2
  6
Continuous
 62
     1
100
AcDbEllipse
 10
235.851268712
 20
279.162942364
 30
0.0
 11
0.0
 21
3.0
 31
0.0
 40
0.707106781
 41
0.000002543
 42
1.570796327
  0
LINE
  5
350
330
1F
100
AcDbEntity
  8
2
  6
Continuous
 62
     1
100
AcDbLine
 10
233.729948369
 20
266.862942364
 30
0.0
 11
233.729948369
 21
279.162942364
 31
0.0
  0
ELLIPSE
  5
351
330
1F
100
AcDbEntity
  8
2
  6
Continuous
 62
     1
100
AcDbEllipse
 10
274.035034896
 20
279.162942364
 30
0.0
 11
0.0
 21
3.0
 31
0.0
 40
0.707106781
 41
4.712390779
 42
0.0
  0
LINE
  5
352
330
1F
100
AcDbEntity
  8
2
  6
Continuous
 62
     1
100
AcDbLine
 10
276.15635524
 20
262.862948971
 30
0.0
 11
276.15635524
 21
279.162947759
 31
0.0
  0
LINE
  5
353
330
1F
100
AcDbEntity
  8
0
  6
Continuous
 62
     1
100
AcDbLine
 10
234.873471049
 20
281.825239015
 30
0.0
 11
237.689746343
 21
296.262942364
 31
0.0
  0
LINE
  5
354
330
1F
100
AcDbEntity
  8
2
  6
Continuous
 62
     1
100
AcDbLine
 10
216.632436752
 20
266.862942364
 30
0.0
 11
216.632436752
 21
279.162948971
 31
0.0
  0
LINE
  5
355
330
1F
100
AcDbEntity
  8
0
  6
Continuous
 62
     1
100
AcDbLine
 10
215.488914072
 20
281.825239015
 30
0.0
 11
212.672638777
 21
296.262942364
 31
0.0
  0
LINE
  5
356
330
1F
100
AcDbEntity
  8
2
  6
Continuous
 62
     1
100
AcDbLine
 10
174.206029881
 20
262.862948971
 30
0.0
 11
174.206029881
 21
279.162942364
 31
0.0
  0
ELLIPSE
  5
357
330
1F
100
AcDbEntity
  8
2
  6
Continuous
 62
     1
100
AcDbEllipse
 10
174.488872593
 20
279.162942364
 30
0.0
 11
0.0
 21
-3.0
 31
0.0
 40
0.707106781
 41
3.141590855
 42
3.620644814
  0
ELLIPSE
  5
358
330
1F
100
AcDbEntity
  8
2
  6
Continuous
 62
     1
100
AcDbEllipse
 10
275.873512527
 20
279.162942364
 30
0.0
 11
0.0
 21
3.0
 31
0.0
 40
0.707106781
 41
5.804133147
 42
0.000001798
  0
LINE
  5
359
330
1F
100
AcDbEntity
  8
2
  6
Continuous
 62
     1
100
AcDbLine
 10
313.123079621
 20
116.768465861
 30
0.0
 11
351.306845805
 21
154.952232045
 31
0.0
  0
LINE
  5
35A
330
1F
100
AcDbEntity
  8
2
  6
Continuous
 62
     1
100
AcDbLine
 10
351.306848141
 20
159.194870396
 30
0.0
 11
336.104050009
 21
174.397668528
 31
0.0
  0
ARC
  5
35B
330
1F
100
AcDbEntity
  8
2
  6
Continuous
 62
     1
100
AcDbCircle
 10
349.185525461
 20
157.073552389
 30
0.0
 40
3.0
100
AcDbArc
 50
315.0
 51
44.999936905
  0
ARC
  5
35C
330
1F
100
AcDbEntity
  8
2
  6
Continuous
 62
     1
100
AcDbCircle
 10
311.001759277
 20
118.889786205
 30
0.0
 40
3.0
100
AcDbArc
 50
225.000081455
 51
315.0
  0
LINE
  5
35D
330
1F
100
AcDbEntity
  8
2
  6
Continuous
 62
     1
100
AcDbLine
 10
308.880441949
 20
116.768462845
 30
0.0
 11
293.677643138
 21
131.971261656
 31
0.0
  0
LINE
  5
35E
330
1F
100
AcDbEntity
  8
7
  6
Continuous
 62
     2
100
AcDbLine
 10
378.6095225
 20
107.850565477
 30
0.0
 11
376.1095225
 21
112.180692496
 31
0.0
  0
LINE
  5
35F
330
1F
100
AcDbEntity
  8
7
  6
Continuous
 62
     2
100
AcDbLine
 10
378.6095225
 20
107.850565477
 30
0.0
 11
374.279395481
 21
110.350565477
 31
0.0
  0
LWPOLYLINE
  5
361
330
1F
100
AcDbEntity
  8
7
  6
Continuous
 62
     2
100
AcDbPolyline
 90
     3
 70
   128
 43
0.0
 10
378.6095225
 20
107.850565477
 10
341.407350868
 20
145.052737108
 10
343.907350868
 20
140.722610089
  0
LINE
  5
362
330
1F
100
AcDbEntity
  8
7
  6
Continuous
 62
     2
100
AcDbLine
 10
341.407350868
 20
145.052737108
 30
0.0
 11
345.737477887
 21
142.552737108
 31
0.0
  0
LINE
  5
363
330
1F
100
AcDbEntity
  8
7
  6
Continuous
 62
     2
100
AcDbLine
 10
342.82156443
 20
146.466950671
 30
0.0
 11
344.235777993
 21
147.881164233
 31
0.0
  0
MTEXT
  5
364
330
1F
100
AcDbEntity
  8
7
  6
Continuous
 62
     2
100
AcDbMText
 10
352.725236838
 20
136.563278264
 30
0.0
 40
6.0
 41
49.2
 71
     7
 72
     1
  1
\T1.167;\W0.600;（５２．６）
  7
KANJI6
 11
0.707106781
 21
-0.707106781
 31
0.0
 73
     1
 44
1.0
  0
MTEXT
  5
365
330
1F
100
AcDbEntity
  8
4
  6
Continuous
 62
     2
100
AcDbMText
 10
476.0
 20
94.4
 30
0.0
 40
6.0
 41
70.8
 71
     7
 72
     1
  1
\T1.111;\W0.900;ＣＲ２全体図
  7
KANJI5
 73
     1
 44
1.0
  0
CIRCLE
  5
366
330
1F
100
AcDbEntity
  8
5
  6
Continuous
 62
     1
100
AcDbCircle
 10
326.558108463
 20
141.517203202
 30
0.0
 40
2.0
  0
ELLIPSE
  5
367
330
1F
100
AcDbEntity
  8
5
  6
Continuous
 62
     1
100
AcDbEllipse
 10
254.943151804
 20
274.162942364
 30
0.0
 11
0.0
 21
2.0
 31
0.0
 40
0.707106781
 41
0.0
 42
6.283185307
  0
ELLIPSE
  5
368
330
1F
100
AcDbEntity
  8
5
  6
Continuous
 62
     1
100
AcDbEllipse
 10
256.781629435
 20
274.162942364
 30
0.0
 11
0.0
 21
2.0
 31
0.0
 40
0.707106781
 41
0.707584437
 42
2.434008217
  0
ELLIPSE
  5
369
330
1F
100
AcDbEntity
  8
5
  6
Continuous
 62
     1
100
AcDbEllipse
 10
195.419233316
 20
274.162942364
 30
0.0
 11
0.0
 21
-2.0
 31
0.0
 40
0.707106781
 41
0.0
 42
6.283185307
  0
ELLIPSE
  5
36A
330
1F
100
AcDbEntity
  8
5
  6
Continuous
 62
     1
100
AcDbEllipse
 10
193.580755685
 20
274.162942364
 30
0.0
 11
0.0
 21
-2.0
 31
0.0
 40
0.707106781
 41
0.707584437
 42
2.434008217
  0
MTEXT
  5
36B
330
1F
100
AcDbEntity
  8
4
  6
Continuous
 62
     2
100
AcDbMText
 10
476.0
 20
22.4
 30
0.0
 40
6.0
 41
126.6
 71
     7
 72
     1
  1
\T1.111;\W0.900;ＣＲ２　CRV２台用金具
  7
KANJI5
 73
     1
 44
1.0
  0
MTEXT
  5
36C
330
1F
100
AcDbEntity
  8
4
  6
Continuous
 62
     2
100
AcDbMText
 10
476.0
 20
82.4
 30
0.0
 40
6.0
 41
18.6
 71
     7
 72
     1
  1
\T1.111;\W0.900;CR2
  7
KANJI3
 73
     1
 44
1.0
  0
MTEXT
  5
36D
330
1F
100
AcDbEntity
  8
4
  6
Continuous
 62
     2
100
AcDbMText
 10
386.0
 20
22.4
 30
0.0
 40
6.0
 41
45.0
 71
     7
 72
     1
  1
\T1.111;\W0.900;CR2-000
  7
KANJI3
 73
     1
 44
1.0
  0
MTEXT
  5
36E
330
1F
100
AcDbEntity
  8
4
  6
Continuous
 62
     2
100
AcDbMText
 10
428.0
 20
22.4
 30
0.0
 40
6.0
 41
64.8
 71
     7
 72
     1
  1
\T1.111;\W0.900;2015/02/23
  7
KANJI3
 73
     1
 44
1.0
  0
ENDSEC
  0
SECTION
  2
OBJECTS
  0
DICTIONARY
  5
C
330
0
100
AcDbDictionary
280
     0
281
     1
  3
ACAD_GROUP
350
D
  3
ACAD_LAYOUT
350
1A
  3
ACAD_MLINESTYLE
350
17
  3
ACAD_PLOTSETTINGS
350
19
  3
ACAD_PLOTSTYLENAME
350
E
  0
DICTIONARY
  5
D
102
{ACAD_REACTORS
330
C
102
}
330
C
100
AcDbDictionary
280
     0
281
     1
  0
DICTIONARY
  5
1A
102
{ACAD_REACTORS
330
C
102
}
330
C
100
AcDbDictionary
280
     0
281
     1
  3
Model
350
22
  3
ﾚｲｱｳﾄ1
350
1E
  3
ﾚｲｱｳﾄ2
350
26
  0
LAYOUT
  5
22
102
{ACAD_REACTORS
330
1A
102
}
330
1A
100
AcDbPlotSettings
  1

  2

  4

  6

 40
0.0
 41
0.0
 42
0.0
 43
0.0
 44
0.0
 45
0.0
 46
0.0
 47
0.0
 48
0.0
 49
0.0
140
0.0
141
0.0
142
1.0
143
1.0
 70
  1712
 72
     0
 73
     0
 74
     0
  7

 75
     0
147
1.0
148
0.0
149
0.0
100
AcDbLayout
  1
Model
 70
     1
 71
     0
 10
0.0
 20
0.0
 11
0.0
 21
0.0
 12
0.0
 22
0.0
 32
0.0
 14
0.0
 24
0.0
 34
0.0
 15
0.0
 25
0.0
 35
0.0
146
0.0
 13
0.0
 23
0.0
 33
0.0
 16
1.0
 26
0.0
 36
0.0
 17
0.0
 27
1.0
 37
0.0
 76
     0
330
1F
331
0
345
0
346
0
  0
LAYOUT
  5
1E
102
{ACAD_REACTORS
330
1A
102
}
330
1A
100
AcDbPlotSettings
  1

  2

  4

  6

 40
0.0
 41
0.0
 42
0.0
 43
0.0
 44
0.0
 45
0.0
 46
0.0
 47
0.0
 48
0.0
 49
0.0
140
0.0
141
0.0
142
1.0
143
1.0
 70
   688
 72
     0
 73
     0
 74
     5
  7

 75
    16
147
1.0
148
0.0
149
0.0
100
AcDbLayout
  1
ﾚｲｱｳﾄ1
 70
     1
 71
     1
 10
0.0
 20
0.0
 11
0.0
 21
0.0
 12
0.0
 22
0.0
 32
0.0
 14
0.0
 24
0.0
 34
0.0
 15
0.0
 25
0.0
 35
0.0
146
0.0
 13
0.0
 23
0.0
 33
0.0
 16
1.0
 26
0.0
 36
0.0
 17
0.0
 27
1.0
 37
0.0
 76
     0
330
1B
331
0
345
0
346
0
  0
LAYOUT
  5
26
102
{ACAD_REACTORS
330
1A
102
}
330
1A
100
AcDbPlotSettings
  1

  2

  4

  6

 40
0.0
 41
0.0
 42
0.0
 43
0.0
 44
0.0
 45
0.0
 46
0.0
 47
0.0
 48
0.0
 49
0.0
140
0.0
141
0.0
142
1.0
143
1.0
 70
   688
 72
     0
 73
     0
 74
     5
  7

 75
    16
147
1.0
148
0.0
149
0.0
100
AcDbLayout
  1
ﾚｲｱｳﾄ2
 70
     1
 71
     2
 10
0.0
 20
0.0
 11
0.0
 21
0.0
 12
0.0
 22
0.0
 32
0.0
 14
0.0
 24
0.0
 34
0.0
 15
0.0
 25
0.0
 35
0.0
146
0.0
 13
0.0
 23
0.0
 33
0.0
 16
1.0
 26
0.0
 36
0.0
 17
0.0
 27
1.0
 37
0.0
 76
     0
330
23
331
0
345
0
346
0
  0
DICTIONARY
  5
17
102
{ACAD_REACTORS
330
C
102
}
330
C
100
AcDbDictionary
280
     0
281
     1
  3
Standard
350
18
  0
MLINESTYLE
  5
18
102
{ACAD_REACTORS
330
17
102
}
330
17
100
AcDbMlineStyle
  2
STANDARD
 70
     0
  3

 62
   256
 51
90.0
 52
90.0
 71
     2
 49
0.5
 62
   256
  6
ByLayer
 49
-0.5
 62
   256
  6
ByLayer
  0
DICTIONARY
  5
19
102
{ACAD_REACTORS
330
C
102
}
330
C
100
AcDbDictionary
280
     0
281
     1
  0
ACDBDICTIONARYWDFLT
  5
E
330
C
100
AcDbDictionary
281
     0
  3
Normal
350
F
100
AcDbDictionaryWithDefault
340
F
  0
ACDBPLACEHOLDER
  5
F
102
{ACAD_REACTORS
330
E
102
}
330
E
  0
ENDSEC
  0
EOF
