  0
SECTION
  2
HEADER
  9
$ACADVER
  1
AC1009
  9
$INSBASE
 10
0.0
 20
0.0
 30
0.0
  9
$EXTMIN
 10
-170.0191273858149
 20
-265.08444836580992
 30
-0.0015258207003583
  9
$EXTMAX
 10
374.09591619656811
 20
537.12498979279303
 30
0.0000000349246037
  9
$LIMMIN
 10
0.0
 20
0.0
  9
$LIMMAX
 10
0.0
 20
0.0
  9
$ORTHOMODE
 70
     0
  9
$REGENMODE
 70
     1
  9
$FILLMODE
 70
     1
  9
$QTEXTMODE
 70
     0
  9
$MIRRTEXT
 70
     1
  9
$DRAGMODE
 70
     2
  9
$LTSCALE
 40
3.0
  9
$OSMODE
 70
    37
  9
$ATTMODE
 70
     1
  9
$TEXTSIZE
 40
0.0
  9
$TRACEWID
 40
0.05
  9
$TEXTSTYLE
  7
STANDARD
  9
$CLAYER
  8
0
  9
$CELTYPE
  6
CONTINUOUS
  9
$CECOLOR
 62
   256
  9
$DIMSCALE
 40
1.0
  9
$DIMASZ
 40
0.18
  9
$DIMEXO
 40
0.0625
  9
$DIMDLI
 40
0.38
  9
$DIMRND
 40
0.0
  9
$DIMDLE
 40
0.0
  9
$DIMEXE
 40
0.18
  9
$DIMTP
 40
0.0
  9
$DIMTM
 40
0.0
  9
$DIMTXT
 40
0.18
  9
$DIMCEN
 40
0.09
  9
$DIMTSZ
 40
0.0
  9
$DIMTOL
 70
     0
  9
$DIMLIM
 70
     0
  9
$DIMTIH
 70
     1
  9
$DIMTOH
 70
     1
  9
$DIMSE1
 70
     0
  9
$DIMSE2
 70
     0
  9
$DIMTAD
 70
     0
  9
$DIMZIN
 70
     0
  9
$DIMBLK
  1

  9
$DIMASO
 70
     1
  9
$DIMSHO
 70
     1
  9
$DIMPOST
  1

  9
$DIMAPOST
  1

  9
$DIMALT
 70
     0
  9
$DIMALTD
 70
     2
  9
$DIMALTF
 40
25.399999999999999
  9
$DIMLFAC
 40
1.0
  9
$DIMTOFL
 70
     0
  9
$DIMTVP
 40
0.0
  9
$DIMTIX
 70
     0
  9
$DIMSOXD
 70
     0
  9
$DIMSAH
 70
     0
  9
$DIMBLK1
  1

  9
$DIMBLK2
  1

  9
$DIMSTYLE
  2
STANDARD
  9
$DIMCLRD
 70
     0
  9
$DIMCLRE
 70
     0
  9
$DIMCLRT
 70
     0
  9
$DIMTFAC
 40
1.0
  9
$DIMGAP
 40
0.09
  9
$LUNITS
 70
     2
  9
$LUPREC
 70
     4
  9
$SKETCHINC
 40
0.1
  9
$FILLETRAD
 40
0.0
  9
$AUNITS
 70
     0
  9
$AUPREC
 70
     0
  9
$MENU
  1
acad
  9
$ELEVATION
 40
0.0
  9
$PELEVATION
 40
0.0
  9
$THICKNESS
 40
0.0
  9
$LIMCHECK
 70
     0
  9
$BLIPMODE
 70
     0
  9
$CHAMFERA
 40
0.0
  9
$CHAMFERB
 40
0.0
  9
$SKPOLY
 70
     0
  9
$TDCREATE
 40
2451856.4467245368
  9
$TDUPDATE
 40
2451856.4488575221
  9
$TDINDWG
 40
0.0001938657
  9
$TDUSRTIMER
 40
0.0001938657
  9
$USRTIMER
 70
     1
  9
$ANGBASE
 50
0.0
  9
$ANGDIR
 70
     0
  9
$PDMODE
 70
     0
  9
$PDSIZE
 40
0.0
  9
$PLINEWID
 40
0.0
  9
$COORDS
 70
     1
  9
$SPLFRAME
 70
     0
  9
$SPLINETYPE
 70
     6
  9
$SPLINESEGS
 70
     8
  9
$ATTDIA
 70
     0
  9
$ATTREQ
 70
     1
  9
$HANDLING
 70
-16383
  9
$HANDSEED
  5
1BF
  9
$SURFTAB1
 70
     6
  9
$SURFTAB2
 70
     6
  9
$SURFTYPE
 70
     6
  9
$SURFU
 70
     6
  9
$SURFV
 70
     6
  9
$UCSNAME
  2

  9
$UCSORG
 10
0.0
 20
0.0
 30
0.0
  9
$UCSXDIR
 10
1.0
 20
0.0
 30
0.0
  9
$UCSYDIR
 10
0.0
 20
1.0
 30
0.0
  9
$PUCSNAME
  2

  9
$PUCSORG
 10
0.0
 20
0.0
 30
0.0
  9
$PUCSXDIR
 10
1.0
 20
0.0
 30
0.0
  9
$PUCSYDIR
 10
0.0
 20
1.0
 30
0.0
  9
$USERI1
 70
     0
  9
$USERI2
 70
     0
  9
$USERI3
 70
     0
  9
$USERI4
 70
     0
  9
$USERI5
 70
     0
  9
$USERR1
 40
0.0
  9
$USERR2
 40
0.0
  9
$USERR3
 40
0.0
  9
$USERR4
 40
0.0
  9
$USERR5
 40
0.0
  9
$WORLDVIEW
 70
     1
  9
$SHADEDGE
 70
     3
  9
$SHADEDIF
 70
    70
  9
$TILEMODE
 70
     1
  9
$MAXACTVP
 70
    16
  9
$PLIMCHECK
 70
     0
  9
$PEXTMIN
 10
1.0000000000000000E+020
 20
1.0000000000000000E+020
 30
1.0000000000000000E+020
  9
$PEXTMAX
 10
-1.0000000000000000E+020
 20
-1.0000000000000000E+020
 30
-1.0000000000000000E+020
  9
$PLIMMIN
 10
0.0
 20
0.0
  9
$PLIMMAX
 10
12.0
 20
9.0
  9
$UNITMODE
 70
     0
  9
$VISRETAIN
 70
     0
  9
$PLINEGEN
 70
     1
  9
$PSLTSCALE
 70
     0
  0
ENDSEC
  0
SECTION
  2
TABLES
  0
TABLE
  2
VPORT
 70
     3
  0
VPORT
  2
*ACTIVE
 70
     0
 10
0.0
 20
0.0
 11
1.0
 21
1.0
 12
102.03839440537659
 22
136.0202707134915
 13
0.0
 23
0.0
 14
1.0
 24
1.0
 15
0.0
 25
0.0
 16
0.0
 26
0.0
 36
1.0
 17
0.0
 27
0.0
 37
0.0
 40
811.18939455590089
 41
1.743925233644859
 42
50.0
 43
0.0
 44
0.0
 50
0.0
 51
0.0
 71
     0
 72
   100
 73
     1
 74
     1
 75
     0
 76
     0
 77
     0
 78
     0
  0
ENDTAB
  0
TABLE
  2
LTYPE
 70
    14
  0
LTYPE
  2
CONTINUOUS
 70
     0
  3
Solid line
 72
    65
 73
     0
 40
0.0
  0
LTYPE
  2
VECTORWORKS_DASH_01
 70
     0
  3
(unavailable)
 72
    65
 73
     2
 40
1.411154174804687
 49
0.70538330078125
 49
-0.7057708740234375
  0
LTYPE
  2
VECTORWORKS_DASH_02
 70
     0
  3
(unavailable)
 72
    65
 73
     2
 40
3.5276916503906239
 49
2.469229125976562
 49
-1.058462524414062
  0
LTYPE
  2
VECTORWORKS_DASH_03
 70
     0
  3
(unavailable)
 72
    65
 73
     2
 40
6.3499999999999988
 49
5.2915374755859359
 49
-1.058462524414062
  0
LTYPE
  2
VECTORWORKS_DASH_04
 70
     0
  3
(unavailable)
 72
    65
 73
     2
 40
7.7607666015624988
 49
6.7026916503906238
 49
-1.058074951171875
  0
LTYPE
  2
VECTORWORKS_DASH_05
 70
     0
  3
(unavailable)
 72
    65
 73
     2
 40
1.058074951171875
 49
0.352691650390625
 49
-0.70538330078125
  0
LTYPE
  2
VECTORWORKS_DASH_06
 70
     0
  3
(unavailable)
 72
    65
 73
     4
 40
5.2915374755859359
 49
3.1749999999999989
 49
-1.058074951171875
 49
0.352691650390625
 49
-0.7057708740234375
  0
LTYPE
  2
VECTORWORKS_DASH_07
 70
     0
  3
(unavailable)
 72
    65
 73
     6
 40
9.5249999999999986
 49
3.1749999999999989
 49
-1.058074951171875
 49
3.1749999999999989
 49
-1.058462524414062
 49
0.352691650390625
 49
-0.7057708740234375
  0
LTYPE
  2
VECTORWORKS_DASH_08
 70
     0
  3
(unavailable)
 72
    65
 73
     6
 40
6.3499999999999988
 49
3.1749999999999989
 49
-1.058074951171875
 49
0.352691650390625
 49
-0.7057708740234375
 49
0.352691650390625
 49
-0.7057708740234375
  0
LTYPE
  2
VECTORWORKS_DASH_09
 70
     0
  3
(unavailable)
 72
    65
 73
     4
 40
25.399999999999999
 49
19.04999999999999
 49
-1.411154174804687
 49
3.5276916503906239
 49
-1.411154174804687
  0
LTYPE
  2
VECTORWORKS_DASH_10
 70
     0
  3
(unavailable)
 72
    65
 73
     6
 40
30.162499999999991
 49
19.04999999999999
 49
-1.411154174804687
 49
3.5276916503906239
 49
-1.411154174804687
 49
3.1749999999999989
 49
-1.587499999999999
  0
LTYPE
  2
VECTORWORKS_DASH_11
 70
     0
  3
(unavailable)
 72
    65
 73
     2
 40
1.9998779296874989
 49
1.199926757812499
 49
-0.799951171875
  0
LTYPE
  2
VECTORWORKS_DASH_12
 70
     0
  3
(unavailable)
 72
    65
 73
     2
 40
2.99981689453125
 49
1.799890136718749
 49
-1.199926757812499
  0
LTYPE
  2
VECTORWORKS_DASH_13
 70
     0
  3
(unavailable)
 72
    65
 73
     2
 40
2.4696166992187489
 49
1.058462524414062
 49
-1.411154174804687
  0
ENDTAB
  0
TABLE
  2
LAYER
 70
     5
  0
LAYER
  2
0
 70
     0
 62
     7
  6
CONTINUOUS
  0
LAYER
  2
HIBINO-BASE
 70
     0
 62
     7
  6
CONTINUOUS
  0
LAYER
  2
SPEC
 70
     0
 62
     7
  6
CONTINUOUS
  0
LAYER
  2
DIMNSIONS
 70
     0
 62
     7
  6
CONTINUOUS
  0
LAYER
  2
DATA
 70
     0
 62
     7
  6
CONTINUOUS
  0
ENDTAB
  0
TABLE
  2
STYLE
 70
     1
  0
STYLE
  2
STANDARD
 70
     0
 40
0.0
 41
1.0
 50
0.0
 71
     0
 42
0.0
  3
txt
  4
BIGFONT.SHX
  0
ENDTAB
  0
TABLE
  2
VIEW
 70
     0
  0
ENDTAB
  0
TABLE
  2
UCS
 70
     0
  0
ENDTAB
  0
TABLE
  2
APPID
 70
     1
  0
APPID
  2
ACAD
 70
     0
  0
ENDTAB
  0
TABLE
  2
DIMSTYLE
 70
     1
  0
DIMSTYLE
  2
STANDARD
 70
     0
  3

  4

  5

  6

  7

 40
1.0
 41
0.18
 42
0.0625
 43
0.38
 44
0.18
 45
0.0
 46
0.0
 47
0.0
 48
0.0
140
0.18
141
0.09
142
0.0
143
25.399999999999999
144
1.0
145
0.0
146
1.0
147
0.09
 71
     0
 72
     0
 73
     1
 74
     1
 75
     0
 76
     0
 77
     0
 78
     0
170
     0
171
     2
172
     0
173
     0
174
     0
175
     0
176
     0
177
     0
178
     0
  0
ENDTAB
  0
ENDSEC
  0
SECTION
  2
BLOCKS
  0
BLOCK
  8
0
  2
$MODEL_SPACE
 70
     0
 10
0.0
 20
0.0
 30
0.0
  3
$MODEL_SPACE
  1

  0
ENDBLK
  5
182
  8
0
  0
BLOCK
 67
     1
  8
0
  2
$PAPER_SPACE
 70
     0
 10
0.0
 20
0.0
 30
0.0
  3
$PAPER_SPACE
  1

  0
ENDBLK
  5
180
 67
     1
  8
0
  0
BLOCK
  8
DIMNSIONS
  2
*G0
 70
     1
 10
0.0
 20
0.0
 30
0.0
  3
*G0
  1

  0
TEXT
  5
36
  8
DIMNSIONS
 62
     7
 10
-32.000010000000003
 20
82.142499999999984
 30
0.0
 40
7.6200000000000001
  1
2-M6
 11
-32.000010000000003
 21
89.762500000000003
 31
0.0
 73
     3
  0
ENDBLK
  5
37
  8
DIMNSIONS
  0
BLOCK
  8
DIMNSIONS
  2
*G1
 70
     1
 10
0.0
 20
0.0
 30
0.0
  3
*G1
  1

  0
TEXT
  5
39
  8
DIMNSIONS
 62
     7
 10
-32.0
 20
132.1424999999999
 30
0.0
 40
7.6200000000000001
  1
5/16
 11
-32.0
 21
139.7624999999999
 31
0.0
 73
     3
  0
ENDBLK
  5
3A
  8
DIMNSIONS
  0
BLOCK
  8
DIMNSIONS
  2
*G2
 70
     1
 10
0.0
 20
0.0
 30
0.0
  3
*G2
  1

  0
TEXT
  5
3C
  8
DIMNSIONS
 62
     7
 10
-179.905
 20
83.237499999999997
 30
0.0
 40
7.6200000000000001
  1
30
 50
90.0
 11
-187.52500000000001
 21
83.237499999999997
 31
0.0
 73
     3
  0
ENDBLK
  5
3D
  8
DIMNSIONS
  0
BLOCK
  8
DIMNSIONS
  2
*G3
 70
     1
 10
0.0
 20
0.0
 30
0.0
  3
*G3
  1

  0
TEXT
  5
3F
  8
DIMNSIONS
 62
     7
 10
-179.905
 20
113.2374999999999
 30
0.0
 40
7.6200000000000001
  1
30
 50
90.0
 11
-187.52500000000001
 21
113.2374999999999
 31
0.0
 73
     3
  0
ENDBLK
  5
40
  8
DIMNSIONS
  0
BLOCK
  8
DIMNSIONS
  2
*G4
 70
     1
 10
0.0
 20
0.0
 30
0.0
  3
*G4
  1

  0
TEXT
  5
42
  8
DIMNSIONS
 62
     7
 10
-204.905
 20
111.85625
 30
0.0
 40
7.6200000000000001
  1
118
 50
90.0
 11
-212.52500000000001
 21
111.85625
 31
0.0
 73
     3
  0
ENDBLK
  5
43
  8
DIMNSIONS
  0
BLOCK
  8
DIMNSIONS
  2
*G5
 70
     1
 10
0.0
 20
0.0
 30
0.0
  3
*G5
  1

  0
TEXT
  5
45
  8
DIMNSIONS
 62
     7
 10
-204.905
 20
-67.143749999999997
 30
0.0
 40
7.6200000000000001
  1
160
 50
90.0
 11
-212.52500000000001
 21
-67.143749999999997
 31
0.0
 73
     3
  0
ENDBLK
  5
46
  8
DIMNSIONS
  0
BLOCK
  8
DIMNSIONS
  2
*G6
 70
     1
 10
0.0
 20
0.0
 30
0.0
  3
*G6
  1

  0
TEXT
  5
48
  8
DIMNSIONS
 62
     7
 10
-109.7625
 20
-185.095
 30
0.0
 40
7.6200000000000001
  1
90
 11
-109.7625
 21
-177.47499999999999
 31
0.0
 73
     3
  0
ENDBLK
  5
49
  8
DIMNSIONS
  0
ENDSEC
  0
SECTION
  2
ENTITIES
  0
LINE
  5
4A
  8
HIBINO-BASE
  6
CONTINUOUS
 62
     7
 10
-170.0
 20
537.06364000000008
 30
0.0
 11
370.0
 21
537.06364000000008
 31
0.0
  0
LINE
  5
4B
  8
HIBINO-BASE
  6
CONTINUOUS
 62
     7
 10
370.0
 20
-242.93635999999989
 30
0.0
 11
-170.0
 21
-242.93635999999989
 31
0.0
  0
LINE
  5
4C
  8
HIBINO-BASE
  6
CONTINUOUS
 62
     7
 10
-170.0
 20
-242.93635999999989
 30
0.0
 11
-170.0
 21
537.06364000000008
 31
0.0
  0
TEXT
  5
4D
  8
HIBINO-BASE
 62
     7
 10
-148.44800000000001
 20
-261.32031000000001
 30
0.0
 40
11.22775
  1
Hibino Corporation
 11
-148.44800000000001
 21
-250.09255999999991
 31
0.0
 73
     3
  0
LINE
  5
4E
  8
HIBINO-BASE
  6
CONTINUOUS
 62
     7
 10
370.0
 20
537.06364000000008
 30
0.0
 11
370.0
 21
-242.93635999999989
 31
0.0
  0
LINE
  5
4F
  8
HIBINO-BASE
  6
CONTINUOUS
 62
     7
 10
100.0
 20
-175.43635999999989
 30
0.0
 11
370.0
 21
-175.43635999999989
 31
0.0
  0
LINE
  5
50
  8
HIBINO-BASE
  6
CONTINUOUS
 62
     7
 10
100.0
 20
-242.93635999999989
 30
0.0
 11
100.0
 21
-175.43635999999989
 31
0.0
  0
TEXT
  5
51
  8
HIBINO-BASE
 62
     7
 10
102.7
 20
-183.11533
 30
0.0
 40
5.6138899999999987
  1
NOTE
 11
102.7
 21
-177.50144
 31
0.0
 73
     3
  0
LINE
  5
52
  8
HIBINO-BASE
  6
CONTINUOUS
 62
     7
 10
205.0
 20
-242.93635999999989
 30
0.0
 11
205.0
 21
-175.43635999999989
 31
0.0
  0
TEXT
  5
53
  8
HIBINO-BASE
 62
     7
 10
207.6999999999999
 20
-183.11533
 30
0.0
 40
5.6138899999999987
  1
TITLE
 11
207.6999999999999
 21
-177.50144
 31
0.0
 73
     3
  0
TEXT
  5
54
  8
HIBINO-BASE
 62
     7
 10
250.2051699999999
 20
-261.32031000000001
 30
0.0
 40
11.22775
  1
ヒビノ株式会社
 11
250.2051699999999
 21
-250.09255999999991
 31
0.0
 73
     3
  0
LINE
  5
55
  8
HIBINO-BASE
  6
CONTINUOUS
 62
     7
 10
100.0
 20
-212.93636000000001
 30
0.0
 11
370.0
 21
-212.93636000000001
 31
0.0
  0
TEXT
  5
56
  8
HIBINO-BASE
 62
     7
 10
245.1999999999999
 20
-220.44636999999989
 30
0.0
 40
5.6138899999999987
  1
DRAWN
 11
245.1999999999999
 21
-214.83247999999989
 31
0.0
 73
     3
  0
TEXT
  5
57
  8
HIBINO-BASE
 62
     7
 10
170.1999999999999
 20
-220.44636999999989
 30
0.0
 40
5.6138899999999987
  1
DATE
 11
170.1999999999999
 21
-214.83247999999989
 31
0.0
 73
     3
  0
TEXT
  5
58
  8
HIBINO-BASE
 62
     7
 10
103.2999999999999
 20
-220.41372999999999
 30
0.0
 40
5.0800099999999988
  1
図面サイズ
 11
103.2999999999999
 21
-215.33372
 31
0.0
 73
     3
  0
TEXT
  5
59
  8
HIBINO-BASE
 62
     7
 10
140.1999999999999
 20
-220.44636999999989
 30
0.0
 40
5.6138899999999987
  1
SCALE
 11
140.1999999999999
 21
-214.83247999999989
 31
0.0
 73
     3
  0
TEXT
  5
5A
  8
HIBINO-BASE
 62
     7
 10
207.6999999999999
 20
-220.44636999999989
 30
0.0
 40
5.6138899999999987
  1
DESIGN
 11
207.6999999999999
 21
-214.83247999999989
 31
0.0
 73
     3
  0
TEXT
  5
5B
  8
HIBINO-BASE
 62
     7
 10
320.19999999999987
 20
-220.44636999999989
 30
0.0
 40
5.6138899999999987
  1
DRAWING NO.
 11
320.19999999999987
 21
-214.83247999999989
 31
0.0
 73
     3
  0
TEXT
  5
5C
  8
HIBINO-BASE
 62
     7
 10
282.69999999999987
 20
-220.44636999999989
 30
0.0
 40
5.6138899999999987
  1
CHECK
 11
282.69999999999987
 21
-214.83247999999989
 31
0.0
 73
     3
  0
LINE
  5
5D
  8
HIBINO-BASE
  6
CONTINUOUS
 62
     7
 10
143.125
 20
-239.18635999999989
 30
0.0
 11
154.375
 21
-227.93635999999989
 31
0.0
  0
TEXT
  5
5E
  8
HIBINO-BASE
 62
     7
 10
141.25
 20
-232.5755199999999
 30
0.0
 40
6.7733299999999987
  1
1
 11
141.25
 21
-225.80219
 31
0.0
 73
     3
  0
LINE
  5
5F
  8
HIBINO-BASE
  6
CONTINUOUS
 62
     7
 10
137.5
 20
-242.93635999999989
 30
0.0
 11
137.5
 21
-212.93636000000001
 31
0.0
  0
LINE
  5
60
  8
HIBINO-BASE
  6
CONTINUOUS
 62
     7
 10
167.5
 20
-242.93635999999989
 30
0.0
 11
167.5
 21
-212.93636000000001
 31
0.0
  0
LINE
  5
61
  8
HIBINO-BASE
  6
CONTINUOUS
 62
     7
 10
242.5
 20
-212.93636000000001
 30
0.0
 11
242.5
 21
-242.93635999999989
 31
0.0
  0
LINE
  5
62
  8
HIBINO-BASE
  6
CONTINUOUS
 62
     7
 10
317.5
 20
-212.93636000000001
 30
0.0
 11
317.5
 21
-242.93635999999989
 31
0.0
  0
LINE
  5
63
  8
HIBINO-BASE
  6
CONTINUOUS
 62
     7
 10
280.0
 20
-242.93635999999989
 30
0.0
 11
280.0
 21
-212.93636000000001
 31
0.0
  0
TEXT
  5
64
  8
HIBINO-BASE
 62
     7
 10
111.73267
 20
-234.67899
 30
0.0
 40
10.159990000000001
  1
A4
 11
111.73267
 21
-224.51900000000001
 31
0.0
 73
     3
  0
TEXT
  5
65
  8
HIBINO-BASE
 62
     7
 10
170.0696199999999
 20
-234.49830999999989
 30
0.0
 40
5.6138899999999987
  1
'00.11.
 11
170.0696199999999
 21
-228.88441999999989
 31
0.0
 73
     3
  0
TEXT
  5
66
  8
HIBINO-BASE
 62
     7
 10
152.5
 20
-238.20052000000001
 30
0.0
 40
6.7733299999999987
  1
3
 11
152.5
 21
-231.42719
 31
0.0
 73
     3
  0
TEXT
  5
67
  8
SPEC
 62
     7
 10
-47.300000000000011
 20
458.1219099999999
 30
0.0
 40
5.92666
  1
M4ワッシャー：4枚、六角棒レンチ：1個、M6セムスネジ：4本
 11
-47.300000000000011
 21
464.04856999999998
 31
0.0
 73
     3
  0
TEXT
  5
68
  8
SPEC
 62
     7
 10
-47.300000000000011
 20
467.12191000000001
 30
0.0
 40
5.92666
  1
M8ワッシャー：2枚、M8ナット（ナイロンロック付）：2個、M4ネジ：4枚、
 11
-47.300000000000011
 21
473.04856999999998
 31
0.0
 73
     3
  0
LINE
  5
69
  8
SPEC
  6
CONTINUOUS
 62
     7
 10
-147.5
 20
484.56364000000002
 30
0.0
 11
295.0
 21
484.56364000000002
 31
0.0
  0
LINE
  5
6A
  8
SPEC
  6
CONTINUOUS
 62
     7
 10
-147.5
 20
495.81363999999991
 30
0.0
 11
295.0
 21
495.81363999999991
 31
0.0
  0
LINE
  5
6B
  8
SPEC
  6
CONTINUOUS
 62
     7
 10
-147.5
 20
507.06364000000002
 30
0.0
 11
295.0
 21
507.06364000000002
 31
0.0
  0
LINE
  5
6C
  8
SPEC
  6
CONTINUOUS
 62
     7
 10
-147.5
 20
507.06364000000002
 30
0.0
 11
-147.5
 21
450.81364000000002
 31
0.0
  0
TEXT
  5
6D
  8
SPEC
 62
     7
 10
-143.75
 20
511.81495000000001
 30
0.0
 40
7.6200000000000001
  1
仕様
 11
-143.75
 21
519.43494999999996
 31
0.0
 73
     3
  0
LINE
  5
6E
  8
SPEC
  6
CONTINUOUS
 62
     7
 10
-50.0
 20
507.06364000000002
 30
0.0
 11
-50.0
 21
450.81364000000002
 31
0.0
  0
LINE
  5
6F
  8
SPEC
  6
CONTINUOUS
 62
     7
 10
295.0
 20
507.06364000000002
 30
0.0
 11
295.0
 21
450.81364000000002
 31
0.0
  0
TEXT
  5
70
  8
SPEC
 62
     7
 10
-144.80000000000001
 20
498.62189999999998
 30
0.0
 40
5.92666
  1
寸法
 11
-144.80000000000001
 21
504.54856000000001
 31
0.0
 73
     3
  0
TEXT
  5
71
  8
SPEC
 62
     7
 10
-144.80000000000001
 20
487.37189999999998
 30
0.0
 40
5.92666
  1
重量
 11
-144.80000000000001
 21
493.29856000000001
 31
0.0
 73
     3
  0
TEXT
  5
72
  8
SPEC
 62
     7
 10
-47.300000000000011
 20
498.62189999999998
 30
0.0
 40
5.92666
  1
90(W)×160(H)×118(D)mm（1個）
 11
-47.300000000000011
 21
504.54856000000001
 31
0.0
 73
     3
  0
TEXT
  5
73
  8
SPEC
 62
     7
 10
-47.300000000000011
 20
487.37189999999998
 30
0.0
 40
5.92666
  1
約600g（1個）
 11
-47.300000000000011
 21
493.29856000000001
 31
0.0
 73
     3
  0
TEXT
  5
74
  8
SPEC
 62
     7
 10
-47.300000000000011
 20
476.1219099999999
 30
0.0
 40
5.92666
  1
Lアダプター：2個、M8ボルト：2本、取付ボール：2個、ボ ール取付スペーサー：2枚、
 11
-47.300000000000011
 21
482.04856999999993
 31
0.0
 73
     3
  0
TEXT
  5
75
  8
SPEC
 62
     7
 10
-144.80000000000001
 20
476.1219099999999
 30
0.0
 40
5.92666
  1
パッケージ内容
 11
-144.80000000000001
 21
482.04856999999993
 31
0.0
 73
     3
  0
TEXT
  5
76
  8
SPEC
 62
     7
 10
-144.80000000000001
 20
467.12191000000001
 30
0.0
 40
5.92666
  1
(1箱に2セット同梱)
 11
-144.80000000000001
 21
473.04856999999998
 31
0.0
 73
     3
  0
LINE
  5
77
  8
SPEC
  6
CONTINUOUS
 62
     7
 10
-147.5
 20
450.81364000000002
 30
0.0
 11
295.0
 21
450.81364000000002
 31
0.0
  0
TEXT
  5
78
  8
DIMNSIONS
 62
     7
 10
40.0
 20
-205.55638999999999
 30
0.0
 40
7.6200000000000001
  1
(単位：mm)
 11
40.0
 21
-197.93638999999999
 31
0.0
 73
     3
  0
LINE
  5
7A
  8
DIMNSIONS
 62
     7
 10
-0.505740000000003
 20
213.98057
 30
0.0
 11
8.280469999999994
 21
218.45737
 31
0.0
  0
LINE
  5
7B
  8
DIMNSIONS
 62
     7
 10
-0.505740000000003
 20
213.98057
 30
0.0
 11
9.3417400000000015
 21
213.4644799999999
 31
0.0
  0
LINE
  5
79
  8
DIMNSIONS
  6
CONTINUOUS
 62
     7
 10
-0.505740000000003
 20
213.98057
 30
0.0
 11
49.99998999999999
 21
225.0
 31
0.0
  0
LINE
  5
7C
  8
DIMNSIONS
  6
CONTINUOUS
 62
     7
 10
49.99998999999999
 20
225.0
 30
0.0
 11
67.999989999999997
 21
225.0
 31
0.0
  0
INSERT
  5
7D
  8
DIMNSIONS
  2
*G0
 10
100.0
 20
140.0
 30
0.0
  0
LINE
  5
7F
  8
DIMNSIONS
 62
     7
 10
-1.4561800000000029
 20
245.06185999999991
 30
0.0
 11
5.5165899999999928
 21
252.03462999999991
 31
0.0
  0
LINE
  5
80
  8
DIMNSIONS
 62
     7
 10
-1.4561800000000029
 20
245.06185999999991
 30
0.0
 11
8.0688099999999991
 21
247.61407
 31
0.0
  0
LINE
  5
7E
  8
DIMNSIONS
  6
CONTINUOUS
 62
     7
 10
-1.4561800000000029
 20
245.06185999999991
 30
0.0
 11
50.0
 21
275.0
 31
0.0
  0
LINE
  5
81
  8
DIMNSIONS
  6
CONTINUOUS
 62
     7
 10
50.0
 20
275.0
 30
0.0
 11
68.0
 21
275.0
 31
0.0
  0
INSERT
  5
82
  8
DIMNSIONS
  2
*G1
 10
100.0
 20
140.0
 30
0.0
  0
LINE
  5
83
  8
DIMNSIONS
  6
CONTINUOUS
 62
     7
 10
-15.59999
 20
213.0
 30
0.0
 11
-81.0
 21
213.0
 31
0.0
  0
LINE
  5
84
  8
DIMNSIONS
  6
CONTINUOUS
 62
     7
 10
-15.09999
 20
243.0
 30
0.0
 11
-81.0
 21
243.0
 31
0.0
  0
LINE
  5
86
  8
DIMNSIONS
 62
     7
 10
-75.0
 20
213.0
 30
0.0
 11
-77.552220000000005
 21
222.52499
 31
0.0
  0
LINE
  5
87
  8
DIMNSIONS
 62
     7
 10
-75.0
 20
213.0
 30
0.0
 11
-72.447789999999998
 21
222.52499
 31
0.0
  0
LINE
  5
88
  8
DIMNSIONS
 62
     7
 10
-75.0
 20
243.0
 30
0.0
 11
-72.447789999999998
 21
233.47499999999999
 31
0.0
  0
LINE
  5
89
  8
DIMNSIONS
 62
     7
 10
-75.0
 20
243.0
 30
0.0
 11
-77.552220000000005
 21
233.47499999999999
 31
0.0
  0
LINE
  5
85
  8
DIMNSIONS
  6
CONTINUOUS
 62
     7
 10
-75.0
 20
213.0
 30
0.0
 11
-75.0
 21
243.0
 31
0.0
  0
INSERT
  5
8A
  8
DIMNSIONS
  2
*G2
 10
100.0
 20
140.0
 30
0.0
  0
LINE
  5
8B
  8
DIMNSIONS
  6
CONTINUOUS
 62
     7
 10
-15.09999
 20
243.0
 30
0.0
 11
-81.0
 21
243.0
 31
0.0
  0
LINE
  5
8C
  8
DIMNSIONS
  6
CONTINUOUS
 62
     7
 10
-15.59999
 20
273.0
 30
0.0
 11
-81.0
 21
273.0
 31
0.0
  0
LINE
  5
8E
  8
DIMNSIONS
 62
     7
 10
-75.0
 20
243.0
 30
0.0
 11
-77.552220000000005
 21
252.52498999999989
 31
0.0
  0
LINE
  5
8F
  8
DIMNSIONS
 62
     7
 10
-75.0
 20
243.0
 30
0.0
 11
-72.447789999999998
 21
252.52498999999989
 31
0.0
  0
LINE
  5
90
  8
DIMNSIONS
 62
     7
 10
-75.0
 20
273.0
 30
0.0
 11
-72.447789999999998
 21
263.47500000000002
 31
0.0
  0
LINE
  5
91
  8
DIMNSIONS
 62
     7
 10
-75.0
 20
273.0
 30
0.0
 11
-77.552220000000005
 21
263.47500000000002
 31
0.0
  0
LINE
  5
8D
  8
DIMNSIONS
  6
CONTINUOUS
 62
     7
 10
-75.0
 20
243.0
 30
0.0
 11
-75.0
 21
273.0
 31
0.0
  0
INSERT
  5
92
  8
DIMNSIONS
  2
*G3
 10
100.0
 20
140.0
 30
0.0
  0
LINE
  5
93
  8
DIMNSIONS
  6
CONTINUOUS
 62
     7
 10
-56.0
 20
318.0
 30
0.0
 11
-106.0
 21
318.0
 31
0.0
  0
LINE
  5
94
  8
DIMNSIONS
  6
CONTINUOUS
 62
     7
 10
-36.0
 20
200.0
 30
0.0
 11
-106.0
 21
200.0
 31
0.0
  0
LINE
  5
96
  8
DIMNSIONS
 62
     7
 10
-100.0
 20
318.0
 30
0.0
 11
-97.447790000000012
 21
308.47500000000002
 31
0.0
  0
LINE
  5
97
  8
DIMNSIONS
 62
     7
 10
-100.0
 20
318.0
 30
0.0
 11
-102.55222000000001
 21
308.47500000000002
 31
0.0
  0
LINE
  5
98
  8
DIMNSIONS
 62
     7
 10
-100.0
 20
200.0
 30
0.0
 11
-102.55222000000001
 21
209.52499
 31
0.0
  0
LINE
  5
99
  8
DIMNSIONS
 62
     7
 10
-100.0
 20
200.0
 30
0.0
 11
-97.447790000000012
 21
209.52499
 31
0.0
  0
LINE
  5
95
  8
DIMNSIONS
  6
CONTINUOUS
 62
     7
 10
-100.0
 20
318.0
 30
0.0
 11
-100.0
 21
200.0
 31
0.0
  0
INSERT
  5
9A
  8
DIMNSIONS
  2
*G4
 10
100.0
 20
140.0
 30
0.0
  0
LINE
  5
9B
  8
DIMNSIONS
  6
CONTINUOUS
 62
     7
 10
-56.0
 20
160.0
 30
0.0
 11
-106.0
 21
160.0
 31
0.0
  0
LINE
  5
9C
  8
DIMNSIONS
  6
CONTINUOUS
 62
     7
 10
-50.0
 20
0.0
 30
0.0
 11
-106.0
 21
0.0
 31
0.0
  0
LINE
  5
9E
  8
DIMNSIONS
 62
     7
 10
-100.0
 20
160.0
 30
0.0
 11
-97.447790000000012
 21
150.47499999999999
 31
0.0
  0
LINE
  5
9F
  8
DIMNSIONS
 62
     7
 10
-100.0
 20
160.0
 30
0.0
 11
-102.55222000000001
 21
150.47499999999999
 31
0.0
  0
LINE
  5
A0
  8
DIMNSIONS
 62
     7
 10
-100.0
 20
0.0
 30
0.0
 11
-102.55222000000001
 21
9.5249900000000025
 31
0.0
  0
LINE
  5
A1
  8
DIMNSIONS
 62
     7
 10
-100.0
 20
0.0
 30
0.0
 11
-97.447790000000012
 21
9.5249900000000025
 31
0.0
  0
LINE
  5
9D
  8
DIMNSIONS
  6
CONTINUOUS
 62
     7
 10
-100.0
 20
160.0
 30
0.0
 11
-100.0
 21
0.0
 31
0.0
  0
INSERT
  5
A2
  8
DIMNSIONS
  2
*G5
 10
100.0
 20
140.0
 30
0.0
  0
LINE
  5
A3
  8
DIMNSIONS
  6
CONTINUOUS
 62
     7
 10
-50.0
 20
0.0
 30
0.0
 11
-50.0
 21
-56.0
 31
0.0
  0
LINE
  5
A4
  8
DIMNSIONS
  6
CONTINUOUS
 62
     7
 10
40.0
 20
0.0
 30
0.0
 11
40.0
 21
-56.0
 31
0.0
  0
LINE
  5
A6
  8
DIMNSIONS
 62
     7
 10
-50.0
 20
-50.0
 30
0.0
 11
-40.47500999999999
 21
-47.447789999999998
 31
0.0
  0
LINE
  5
A7
  8
DIMNSIONS
 62
     7
 10
-50.0
 20
-50.0
 30
0.0
 11
-40.47500999999999
 21
-52.552219999999998
 31
0.0
  0
LINE
  5
A8
  8
DIMNSIONS
 62
     7
 10
40.0
 20
-50.0
 30
0.0
 11
30.474999999999991
 21
-52.552219999999998
 31
0.0
  0
LINE
  5
A9
  8
DIMNSIONS
 62
     7
 10
40.0
 20
-50.0
 30
0.0
 11
30.474999999999991
 21
-47.447789999999998
 31
0.0
  0
LINE
  5
A5
  8
DIMNSIONS
  6
CONTINUOUS
 62
     7
 10
-50.0
 20
-50.0
 30
0.0
 11
40.0
 21
-50.0
 31
0.0
  0
INSERT
  5
AA
  8
DIMNSIONS
  2
*G6
 10
100.0
 20
140.0
 30
0.0
  0
LINE
  5
AC
  8
DIMNSIONS
 62
     7
 10
28.140069999999991
 20
23.292269999999998
 30
0.0
 11
35.23346999999999
 21
30.142289999999999
 31
0.0
  0
LINE
  5
AD
  8
DIMNSIONS
 62
     7
 10
28.140069999999991
 20
23.292269999999998
 30
0.0
 11
37.708150000000003
 21
25.677859999999988
 31
0.0
  0
LINE
  5
AB
  8
DIMNSIONS
  6
CONTINUOUS
 62
     7
 10
28.140069999999991
 20
23.292269999999998
 30
0.0
 11
74.999989999999997
 21
49.99998999999999
 31
0.0
  0
LINE
  5
AE
  8
DIMNSIONS
  6
CONTINUOUS
 62
     7
 10
74.999989999999997
 20
49.99998999999999
 30
0.0
 11
92.999989999999997
 21
49.99998999999999
 31
0.0
  0
LINE
  5
B0
  8
DIMNSIONS
 62
     7
 10
-1.4265500000000051
 20
17.989930000000001
 30
0.0
 11
8.0984399999999965
 21
15.43770999999999
 31
0.0
  0
LINE
  5
B1
  8
DIMNSIONS
 62
     7
 10
-1.4265500000000051
 20
17.989930000000001
 30
0.0
 11
5.5462200000000053
 21
11.01714999999998
 31
0.0
  0
LINE
  5
AF
  8
DIMNSIONS
  6
CONTINUOUS
 62
     7
 10
-1.4265500000000051
 20
17.989930000000001
 30
0.0
 11
74.999989999999997
 21
-25.00001
 31
0.0
  0
LINE
  5
B2
  8
DIMNSIONS
  6
CONTINUOUS
 62
     7
 10
74.999989999999997
 20
-25.00001
 30
0.0
 11
92.999989999999997
 21
-25.00001
 31
0.0
  0
TEXT
  5
B3
  8
DIMNSIONS
 62
     7
 10
92.999989999999997
 20
47.142490000000002
 30
0.0
 40
7.6200000000000001
  1
サポートガイドネジ M4
 11
92.999989999999997
 21
54.76249
 31
0.0
 73
     3
  0
TEXT
  5
B4
  8
DIMNSIONS
 62
     7
 10
92.999989999999997
 20
-27.85750999999998
 30
0.0
 40
7.6200000000000001
  1
取付ボール M8
 11
92.999989999999997
 21
-20.237509999999979
 31
0.0
 73
     3
  0
TEXT
  5
B5
  8
DIMNSIONS
 62
     7
 10
92.999989999999997
 20
11.14248999999999
 30
0.0
 40
7.6200000000000001
  1
　取付位置が変わります）
 11
92.999989999999997
 21
18.762489999999989
 31
0.0
 73
     3
  0
TEXT
  5
B6
  8
DIMNSIONS
 62
     7
 10
92.999989999999997
 20
23.142489999999992
 30
0.0
 40
7.6200000000000001
  1
(スピーカーの取付方向にて、
 11
92.999989999999997
 21
30.76249
 31
0.0
 73
     3
  0
TEXT
  5
B7
  8
DIMNSIONS
 62
     7
 10
92.999989999999997
 20
35.142490000000002
 30
0.0
 40
7.6200000000000001
  1
(ツィータを上取付用)
 11
92.999989999999997
 21
42.762489999999993
 31
0.0
 73
     3
  0
TEXT
  5
B8
  8
DIMNSIONS
 62
     7
 10
92.999989999999997
 20
-63.857509999999991
 30
0.0
 40
7.6200000000000001
  1
　取付位置が変わります）
 11
92.999989999999997
 21
-56.237509999999979
 31
0.0
 73
     3
  0
TEXT
  5
B9
  8
DIMNSIONS
 62
     7
 10
92.999989999999997
 20
-51.857509999999976
 30
0.0
 40
7.6200000000000001
  1
(スピーカーの取付方向にて、
 11
92.999989999999997
 21
-44.237509999999979
 31
0.0
 73
     3
  0
TEXT
  5
BA
  8
DIMNSIONS
 62
     7
 10
92.999989999999997
 20
-39.857509999999976
 30
0.0
 40
7.6200000000000001
  1
(ツィータを上取付用)
 11
92.999989999999997
 21
-32.237509999999979
 31
0.0
 73
     3
  0
LINE
  5
BC
  8
DIMNSIONS
 62
     7
 10
-35.196349999999988
 20
22.88231
 30
0.0
 11
-26.489609999999988
 21
27.511759999999988
 31
0.0
  0
LINE
  5
BD
  8
DIMNSIONS
 62
     7
 10
-35.196349999999988
 20
22.88231
 30
0.0
 11
-25.341359999999991
 21
22.538160000000001
 31
0.0
  0
LINE
  5
BB
  8
DIMNSIONS
  6
CONTINUOUS
 62
     7
 10
-35.196349999999988
 20
22.88231
 30
0.0
 11
74.999989999999997
 21
49.99998999999999
 31
0.0
  0
TEXT
  5
BE
  8
DATA
 62
     7
 10
250.0
 20
-208.97219000000001
 30
0.0
 40
7.6200000000000001
  1
CTLB-25
 11
250.0
 21
-201.35219000000001
 31
0.0
 73
     3
  0
TEXT
  5
BF
  8
DATA
 62
     7
 10
250.0
 20
-187.22219000000001
 30
0.0
 40
7.6200000000000001
  1
JBL
 11
250.0
 21
-179.60219000000001
 31
0.0
 73
     3
  0
TEXT
  5
C0
  8
DATA
 62
     7
 10
242.5
 20
-197.84356
 30
0.0
 40
5.0800099999999988
  1
CONTROL25/25T専用L字金具
 11
242.5
 21
-192.76355000000001
 31
0.0
 73
     3
  0
LINE
  5
C1
  8
DATA
  6
CONTINUOUS
 62
     7
 10
150.0
 20
160.0
 30
0.0
 11
150.0
 21
157.40000000000001
 31
0.0
  0
LINE
  5
C2
  8
DATA
  6
CONTINUOUS
 62
     7
 10
150.0
 20
160.0
 30
0.0
 11
270.0
 21
160.0
 31
0.0
  0
LINE
  5
C3
  8
DATA
  6
CONTINUOUS
 62
     7
 10
150.0
 20
157.40000000000001
 30
0.0
 11
267.39999999999992
 21
157.40000000000001
 31
0.0
  0
LINE
  5
C4
  8
DATA
  6
CONTINUOUS
 62
     7
 10
267.39999999999992
 20
0.0
 30
0.0
 11
270.0
 21
0.0
 31
0.0
  0
LINE
  5
C5
  8
DATA
  6
CONTINUOUS
 62
     7
 10
269.99999000000003
 20
0.0
 30
0.0
 11
269.99999000000003
 21
160.0
 31
0.0
  0
LINE
  5
C6
  8
DATA
  6
CONTINUOUS
 62
     7
 10
267.39999999999992
 20
0.0
 30
0.0
 11
267.39999999999992
 21
157.40000000000001
 31
0.0
  0
LINE
  5
C7
  8
DATA
  6
CONTINUOUS
 62
     7
 10
187.0
 20
150.90000000000001
 30
0.0
 11
187.0
 21
157.40000000000001
 31
0.0
  0
LINE
  5
C8
  8
DATA
  6
CONTINUOUS
 62
     7
 10
203.0
 20
150.90000000000001
 30
0.0
 11
187.0
 21
150.90000000000001
 31
0.0
  0
LINE
  5
C9
  8
DATA
  6
CONTINUOUS
 62
     7
 10
203.0
 20
150.90000000000001
 30
0.0
 11
203.0
 21
157.40000000000001
 31
0.0
  0
LINE
  5
CA
  8
DATA
  6
CONTINUOUS
 62
     7
 10
157.5
 20
157.40000000000001
 30
0.0
 11
157.5
 21
151.40000000000001
 31
0.0
  0
LINE
  5
CB
  8
DATA
  6
CONTINUOUS
 62
     7
 10
172.5
 20
151.40000000000001
 30
0.0
 11
157.5
 21
151.40000000000001
 31
0.0
  0
LINE
  5
CC
  8
DATA
  6
CONTINUOUS
 62
     7
 10
172.5
 20
157.40000000000001
 30
0.0
 11
172.5
 21
151.40000000000001
 31
0.0
  0
LINE
  5
CD
  8
DATA
  6
CONTINUOUS
 62
     7
 10
232.5
 20
157.40000000000001
 30
0.0
 11
232.5
 21
151.40000000000001
 31
0.0
  0
LINE
  5
CE
  8
DATA
  6
CONTINUOUS
 62
     7
 10
217.5
 20
151.40000000000001
 30
0.0
 11
232.5
 21
151.40000000000001
 31
0.0
  0
LINE
  5
CF
  8
DATA
  6
CONTINUOUS
 62
     7
 10
217.5
 20
157.40000000000001
 30
0.0
 11
217.5
 21
151.40000000000001
 31
0.0
  0
LINE
  5
D0
  8
DATA
  6
VECTORWORKS_DASH_01
 62
     7
 10
-50.0
 20
315.39999999999992
 30
0.0
 11
40.0
 21
315.39999999999992
 31
0.0
  0
CIRCLE
  5
D1
  8
DATA
  6
CONTINUOUS
 62
     7
 10
-5.0
 20
213.0
 30
0.0
 40
4.59999
  0
CIRCLE
  5
D2
  8
DATA
  6
CONTINUOUS
 62
     7
 10
-5.0
 20
273.0
 30
0.0
 40
4.59999
  0
CIRCLE
  5
D3
  8
DATA
  6
CONTINUOUS
 62
     7
 10
-5.0
 20
243.0
 30
0.0
 40
4.09999
  0
LINE
  5
D4
  8
DATA
  6
CONTINUOUS
 62
     7
 10
-50.0
 20
317.99999000000003
 30
0.0
 11
40.0
 21
317.99999000000003
 31
0.0
  0
LINE
  5
D5
  8
DATA
  6
CONTINUOUS
 62
     7
 10
-50.0
 20
275.0
 30
0.0
 11
-50.0
 21
318.0
 31
0.0
  0
LINE
  5
D6
  8
DATA
  6
CONTINUOUS
 62
     7
 10
-30.0
 20
200.0
 30
0.0
 11
-50.0
 21
275.0
 31
0.0
  0
LINE
  5
D7
  8
DATA
  6
CONTINUOUS
 62
     7
 10
20.0
 20
200.0
 30
0.0
 11
-30.0
 21
200.0
 31
0.0
  0
LINE
  5
D8
  8
DATA
  6
CONTINUOUS
 62
     7
 10
20.0
 20
200.0
 30
0.0
 11
40.0
 21
275.0
 31
0.0
  0
LINE
  5
D9
  8
DATA
  6
CONTINUOUS
 62
     7
 10
40.0
 20
275.0
 30
0.0
 11
40.0
 21
318.0
 31
0.0
  0
CIRCLE
  5
DA
  8
DATA
  6
VECTORWORKS_DASH_01
 62
     7
 10
-5.0
 20
20.0
 30
0.0
 40
4.09999
  0
ARC
  5
DB
  8
DATA
  6
CONTINUOUS
 62
     7
 10
-44.0
 20
6.0
 30
0.0
 40
6.0
 50
180.0
 51
270.0
  0
LINE
  5
DC
  8
DATA
  6
CONTINUOUS
 62
     7
 10
-44.0
 20
0.0
 30
0.0
 11
34.0
 21
0.0
 31
0.0
  0
ARC
  5
DD
  8
DATA
  6
CONTINUOUS
 62
     7
 10
34.0
 20
6.0
 30
0.0
 40
6.0
 50
270.0
 51
0.0
  0
LINE
  5
DE
  8
DATA
  6
CONTINUOUS
 62
     7
 10
-50.0
 20
157.40000000000001
 30
0.0
 11
40.0
 21
157.40000000000001
 31
0.0
  0
LINE
  5
DF
  8
DATA
  6
CONTINUOUS
 62
     7
 10
-50.0
 20
160.0
 30
0.0
 11
40.0
 21
160.0
 31
0.0
  0
ARC
  5
E0
  8
DATA
  6
CONTINUOUS
 62
     7
 10
11.899990000000001
 20
90.599999999999994
 30
0.0
 40
3.1000000000000001
 50
270.0
 51
0.0
  0
LINE
  5
E1
  8
DATA
  6
CONTINUOUS
 62
     7
 10
-21.899989999999999
 20
87.5
 30
0.0
 11
11.899990000000001
 21
87.5
 31
0.0
  0
LINE
  5
E2
  8
DATA
  6
CONTINUOUS
 62
     7
 10
-21.899989999999999
 20
124.5
 30
0.0
 11
11.899990000000001
 21
124.5
 31
0.0
  0
ARC
  5
E3
  8
DATA
  6
CONTINUOUS
 62
     7
 10
-21.900009999999991
 20
121.40000000000001
 30
0.0
 40
3.1000000000000001
 50
89.999815174904796
 51
179.9998151749048
  0
ARC
  5
E4
  8
DATA
  6
CONTINUOUS
 62
     7
 10
11.899990000000001
 20
121.40000000000001
 30
0.0
 40
3.1000000000000001
 50
0.0001848250952029
 51
90.0
  0
LINE
  5
E5
  8
DATA
  6
CONTINUOUS
 62
     7
 10
14.99998999999999
 20
121.40000000000001
 30
0.0
 11
14.99998999999999
 21
90.599999999999994
 31
0.0
  0
LINE
  5
E6
  8
DATA
  6
CONTINUOUS
 62
     7
 10
-25.00001
 20
121.40000000000001
 30
0.0
 11
-25.00001
 21
90.599999999999994
 31
0.0
  0
ARC
  5
E7
  8
DATA
  6
CONTINUOUS
 62
     7
 10
-21.900009999999991
 20
90.599999999999994
 30
0.0
 40
3.1000000000000001
 50
179.9998151749048
 51
270.00018482509518
  0
CIRCLE
  5
E8
  8
DATA
  6
CONTINUOUS
 62
     7
 10
-36.75
 20
22.5
 30
0.0
 40
1.6000000000000001
  0
CIRCLE
  5
E9
  8
DATA
  6
CONTINUOUS
 62
     7
 10
26.75
 20
22.5
 30
0.0
 40
1.6000000000000001
  0
ARC
  5
EA
  8
DATA
  6
CONTINUOUS
 62
     7
 10
37.0
 20
61.0
 30
0.0
 40
7.0999999999999988
 50
90.0
 51
180.0
  0
LINE
  5
EB
  8
DATA
  6
CONTINUOUS
 62
     7
 10
29.899999999999999
 20
41.0
 30
0.0
 11
29.899999999999999
 21
61.0
 31
0.0
  0
ARC
  5
EC
  8
DATA
  6
CONTINUOUS
 62
     7
 10
37.0
 20
41.0
 30
0.0
 40
7.0999999999999988
 50
180.0
 51
270.0
  0
ARC
  5
ED
  8
DATA
  6
CONTINUOUS
 62
     7
 10
-47.000010000000003
 20
61.0
 30
0.0
 40
7.0999999999999988
 50
0.0
 51
90.0
  0
LINE
  5
EE
  8
DATA
  6
CONTINUOUS
 62
     7
 10
-39.900010000000009
 20
41.0
 30
0.0
 11
-39.900010000000009
 21
61.0
 31
0.0
  0
ARC
  5
EF
  8
DATA
  6
CONTINUOUS
 62
     7
 10
-47.000010000000003
 20
41.0
 30
0.0
 40
7.0999999999999988
 50
270.0
 51
0.0
  0
CIRCLE
  5
F0
  8
DATA
  6
CONTINUOUS
 62
     7
 10
3.5
 20
82.75
 30
0.0
 40
1.6000000000000001
  0
CIRCLE
  5
F1
  8
DATA
  6
CONTINUOUS
 62
     7
 10
6.0
 20
51.0
 30
0.0
 40
4.09999
  0
CIRCLE
  5
F2
  8
DATA
  6
CONTINUOUS
 62
     7
 10
-13.5
 20
82.75
 30
0.0
 40
1.6000000000000001
  0
CIRCLE
  5
F3
  8
DATA
  6
CONTINUOUS
 62
     7
 10
-16.0
 20
51.0
 30
0.0
 40
4.09999
  0
CIRCLE
  5
F4
  8
DATA
  6
VECTORWORKS_DASH_01
 62
     7
 10
3.5
 20
19.25
 30
0.0
 40
1.6000000000000001
  0
CIRCLE
  5
F5
  8
DATA
  6
VECTORWORKS_DASH_01
 62
     7
 10
-13.5
 20
19.25
 30
0.0
 40
1.6000000000000001
  0
LINE
  5
F6
  8
DATA
  6
CONTINUOUS
 62
     7
 10
-50.0
 20
71.100009999999997
 30
0.0
 11
-50.0
 21
159.99999
 31
0.0
  0
ARC
  5
F7
  8
DATA
  6
CONTINUOUS
 62
     7
 10
-47.0
 20
71.099999999999994
 30
0.0
 40
3.0
 50
179.99980901406821
 51
269.99980901406821
  0
LINE
  5
F8
  8
DATA
  6
CONTINUOUS
 62
     7
 10
40.0
 20
71.099999999999994
 30
0.0
 11
40.0
 21
160.0
 31
0.0
  0
ARC
  5
F9
  8
DATA
  6
CONTINUOUS
 62
     7
 10
37.0
 20
71.099999999999994
 30
0.0
 40
3.0
 50
270.00019098593168
 51
0.0
  0
LINE
  5
FA
  8
DATA
  6
CONTINUOUS
 62
     7
 10
-50.0
 20
6.0
 30
0.0
 11
-50.0
 21
30.899999999999999
 31
0.0
  0
ARC
  5
FB
  8
DATA
  6
CONTINUOUS
 62
     7
 10
-47.0
 20
30.899999999999999
 30
0.0
 40
3.0
 50
90.000190985931695
 51
180.0
  0
ARC
  5
FC
  8
DATA
  6
CONTINUOUS
 62
     7
 10
37.0
 20
30.899999999999999
 30
0.0
 40
3.0
 50
0.0001909859317096
 51
89.99980901406829
  0
LINE
  5
FD
  8
DATA
  6
CONTINUOUS
 62
     7
 10
40.0
 20
6.0
 30
0.0
 11
40.0
 21
30.899999999999999
 31
0.0
  0
CIRCLE
  5
FE
  8
DATA
  6
CONTINUOUS
 62
     7
 10
-5.0
 20
42.0
 30
0.0
 40
4.09999
  0
CIRCLE
  5
FF
  8
DATA
  6
CONTINUOUS
 62
     7
 10
26.75
 20
39.5
 30
0.0
 40
1.6000000000000001
  0
CIRCLE
  5
100
  8
DATA
  6
CONTINUOUS
 62
     7
 10
-36.75
 20
39.5
 30
0.0
 40
1.6000000000000001
  0
LINE
  5
101
  8
DATA
  6
VECTORWORKS_DASH_01
 62
     7
 10
237.9153
 20
24.0
 30
0.0
 11
237.9153
 21
16.0
 31
0.0
  0
LINE
  5
102
  8
DATA
  6
VECTORWORKS_DASH_01
 62
     7
 10
237.9153
 20
24.0
 30
0.0
 11
270.0
 21
24.0
 31
0.0
  0
LINE
  5
103
  8
DATA
  6
VECTORWORKS_DASH_01
 62
     7
 10
233.9153
 20
28.0
 30
0.0
 11
237.9153
 21
24.0
 31
0.0
  0
LINE
  5
104
  8
DATA
  6
VECTORWORKS_DASH_01
 62
     7
 10
237.9153
 20
16.0
 30
0.0
 11
270.0
 21
16.0
 31
0.0
  0
LINE
  5
105
  8
DATA
  6
VECTORWORKS_DASH_01
 62
     7
 10
233.9153
 20
12.0
 30
0.0
 11
237.9153
 21
16.0
 31
0.0
  0
ARC
  5
106
  8
DATA
  6
CONTINUOUS
 62
     7
 10
249.4375
 20
20.0
 30
0.0
 40
17.462489999999988
 50
207.26616470511911
 51
339.55499454411029
  0
ARC
  5
107
  8
DATA
  6
CONTINUOUS
 62
     7
 10
249.4375
 20
20.0
 30
0.0
 40
17.462489999999988
 50
20.44500545588965
 51
152.73383529488081
  0
LINE
  5
108
  8
DATA
  6
CONTINUOUS
 62
     7
 10
233.9153
 20
28.0
 30
0.0
 11
233.9153
 21
12.0
 31
0.0
  0
LINE
  5
109
  8
DATA
  6
CONTINUOUS
 62
     7
 10
265.80000000000001
 20
11.0
 30
0.0
 11
265.80000000000001
 21
29.0
 31
0.0
  0
LINE
  5
10A
  8
DATA
  6
CONTINUOUS
 62
     7
 10
265.80000000000001
 20
11.0
 30
0.0
 11
267.39999999999992
 21
11.0
 31
0.0
  0
LINE
  5
10B
  8
DATA
  6
CONTINUOUS
 62
     7
 10
265.80000000000001
 20
29.0
 30
0.0
 11
267.39999999999992
 21
29.0
 31
0.0
  0
LINE
  5
10C
  8
DATA
  6
VECTORWORKS_DASH_01
 62
     7
 10
-7.8991299999999987
 20
17.10087
 30
0.0
 11
-2.10087
 21
22.899129999999989
 31
0.0
  0
LINE
  5
10D
  8
DATA
  6
VECTORWORKS_DASH_01
 62
     7
 10
-8.9809199999999976
 20
19.019079999999999
 30
0.0
 11
-4.0190800000000024
 21
23.98091999999999
 31
0.0
  0
LINE
  5
10E
  8
DATA
  6
VECTORWORKS_DASH_01
 62
     7
 10
-5.9809199999999967
 20
16.019079999999999
 30
0.0
 11
-1.019080000000002
 21
20.98091999999999
 31
0.0
  0
LINE
  5
10F
  8
DATA
  6
CONTINUOUS
 62
     7
 10
-7.8991299999999987
 20
39.10087
 30
0.0
 11
-2.10087
 21
44.89913
 31
0.0
  0
LINE
  5
110
  8
DATA
  6
CONTINUOUS
 62
     7
 10
-8.9809199999999976
 20
41.019080000000002
 30
0.0
 11
-4.0190800000000024
 21
45.980919999999998
 31
0.0
  0
LINE
  5
111
  8
DATA
  6
CONTINUOUS
 62
     7
 10
-5.9809199999999967
 20
38.019080000000002
 30
0.0
 11
-1.019080000000002
 21
42.98091999999999
 31
0.0
  0
LINE
  5
112
  8
DATA
  6
CONTINUOUS
 62
     7
 10
-18.899129999999989
 20
48.10087
 30
0.0
 11
-13.10087
 21
53.899129999999992
 31
0.0
  0
LINE
  5
113
  8
DATA
  6
CONTINUOUS
 62
     7
 10
-19.98091999999999
 20
50.019080000000002
 30
0.0
 11
-15.019080000000001
 21
54.98091999999999
 31
0.0
  0
LINE
  5
114
  8
DATA
  6
CONTINUOUS
 62
     7
 10
-16.98091999999999
 20
47.019080000000002
 30
0.0
 11
-12.019080000000001
 21
51.98091999999999
 31
0.0
  0
LINE
  5
115
  8
DATA
  6
CONTINUOUS
 62
     7
 10
3.10087
 20
48.10087
 30
0.0
 11
8.8991299999999995
 21
53.899129999999992
 31
0.0
  0
LINE
  5
116
  8
DATA
  6
CONTINUOUS
 62
     7
 10
2.019080000000002
 20
50.019080000000002
 30
0.0
 11
6.9809199999999967
 21
54.98091999999999
 31
0.0
  0
LINE
  5
117
  8
DATA
  6
CONTINUOUS
 62
     7
 10
5.0190800000000024
 20
47.019080000000002
 30
0.0
 11
9.9809199999999976
 21
51.98091999999999
 31
0.0
  0
TEXT
  5
118
  8
DATA
 62
     7
 10
225.0
 20
-152.85749999999999
 30
0.0
 40
7.6200000000000001
  1
（ネジ類は省略しております）
 11
225.0
 21
-145.23750000000001
 31
0.0
 73
     3
  0
TEXT
  5
119
  8
DATA
 62
     7
 10
-150.0
 20
-127.8575
 30
0.0
 40
7.6200000000000001
  1
注）ツィータを下(正面むかって）で取り付ける場合（マイクスタンド取付時）は
 11
-150.0
 21
-120.2375
 31
0.0
 73
     3
  0
TEXT
  5
11A
  8
DATA
 62
     7
 10
-150.0
 20
-143.3324999999999
 30
0.0
 40
7.6200000000000001
  1
　　安全ワイヤー用サポートポイントは使用できません。
 11
-150.0
 21
-135.71249999999989
 31
0.0
 73
     3
  0
CIRCLE
  5
11B
  8
DATA
  6
CONTINUOUS
 62
     7
 10
-5.0
 20
20.0
 30
0.0
 40
8.0
  0
CIRCLE
  5
11C
  8
DATA
  6
CONTINUOUS
 62
     7
 10
-5.0
 20
20.0
 30
0.0
 40
17.462489999999988
  0
LINE
  5
11D
  8
DATA
  6
CONTINUOUS
 62
     7
 10
165.0
 20
151.40000000000001
 30
0.0
 11
165.0
 21
157.40000000000001
 31
0.0
  0
LINE
  5
11E
  8
DATA
  6
CONTINUOUS
 62
     7
 10
195.0
 20
150.90000000000001
 30
0.0
 11
195.0
 21
157.40000000000001
 31
0.0
  0
LINE
  5
11F
  8
DATA
  6
CONTINUOUS
 62
     7
 10
225.0
 20
151.40000000000001
 30
0.0
 11
225.0
 21
157.40000000000001
 31
0.0
  0
LINE
  5
120
  8
DATA
  6
VECTORWORKS_DASH_01
 62
     7
 10
-9.0
 20
249.9282
 30
0.0
 11
-12.99997999999999
 21
243.0000299999999
 31
0.0
  0
LINE
  5
121
  8
DATA
  6
VECTORWORKS_DASH_01
 62
     7
 10
-12.99997999999999
 20
243.0000299999999
 30
0.0
 11
-8.9999899999999968
 21
236.07181999999989
 31
0.0
  0
LINE
  5
122
  8
DATA
  6
VECTORWORKS_DASH_01
 62
     7
 10
-8.9999899999999968
 20
236.07181999999989
 30
0.0
 11
-1.000010000000003
 21
236.07179999999991
 31
0.0
  0
LINE
  5
123
  8
DATA
  6
VECTORWORKS_DASH_01
 62
     7
 10
-1.000010000000003
 20
236.07179999999991
 30
0.0
 11
3.0000200000000059
 21
243.0000299999999
 31
0.0
  0
LINE
  5
124
  8
DATA
  6
VECTORWORKS_DASH_01
 62
     7
 10
3.0000200000000059
 20
243.0000299999999
 30
0.0
 11
-0.9999899999999968
 21
249.92822000000001
 31
0.0
  0
LINE
  5
125
  8
DATA
  6
VECTORWORKS_DASH_01
 62
     7
 10
-0.9999899999999968
 20
249.92822000000001
 30
0.0
 11
-9.0
 21
249.9282
 31
0.0
  0
LINE
  5
126
  8
DATA
  6
VECTORWORKS_DASH_01
 62
     7
 10
-1.25
 20
219.49518999999989
 30
0.0
 11
-8.7499899999999968
 21
219.49522999999999
 31
0.0
  0
LINE
  5
127
  8
DATA
  6
VECTORWORKS_DASH_01
 62
     7
 10
-8.7499899999999968
 20
219.49522999999999
 30
0.0
 11
-12.49997999999999
 21
213.00004000000001
 31
0.0
  0
LINE
  5
128
  8
DATA
  6
VECTORWORKS_DASH_01
 62
     7
 10
-12.49997999999999
 20
213.00004000000001
 30
0.0
 11
-8.7499799999999937
 21
206.50485
 31
0.0
  0
LINE
  5
129
  8
DATA
  6
VECTORWORKS_DASH_01
 62
     7
 10
-8.7500100000000032
 20
206.50480999999999
 30
0.0
 11
-0.7500100000000032
 21
206.50485
 31
0.0
  0
LINE
  5
12A
  8
DATA
  6
VECTORWORKS_DASH_01
 62
     7
 10
-1.2499899999999959
 20
206.50485
 30
0.0
 11
2.5000200000000059
 21
213.00004000000001
 31
0.0
  0
LINE
  5
12B
  8
DATA
  6
VECTORWORKS_DASH_01
 62
     7
 10
2.5000200000000059
 20
213.00004000000001
 30
0.0
 11
-1.25
 21
219.49518999999989
 31
0.0
  0
LINE
  5
12C
  8
DATA
  6
VECTORWORKS_DASH_01
 62
     7
 10
-1.25
 20
279.49518999999998
 30
0.0
 11
-8.7499899999999968
 21
279.49522999999988
 31
0.0
  0
LINE
  5
12D
  8
DATA
  6
VECTORWORKS_DASH_01
 62
     7
 10
-8.7499899999999968
 20
279.49522999999988
 30
0.0
 11
-12.49997999999999
 21
273.00004000000001
 31
0.0
  0
LINE
  5
12E
  8
DATA
  6
VECTORWORKS_DASH_01
 62
     7
 10
-12.49997999999999
 20
273.00004000000001
 30
0.0
 11
-8.7499799999999937
 21
266.50484999999998
 31
0.0
  0
LINE
  5
12F
  8
DATA
  6
VECTORWORKS_DASH_01
 62
     7
 10
-8.7500100000000032
 20
266.50481000000002
 30
0.0
 11
-1.2499899999999959
 21
266.50484999999998
 31
0.0
  0
LINE
  5
130
  8
DATA
  6
VECTORWORKS_DASH_01
 62
     7
 10
-1.2499899999999959
 20
266.50484999999998
 30
0.0
 11
2.5000200000000059
 21
273.00004000000001
 31
0.0
  0
LINE
  5
131
  8
DATA
  6
VECTORWORKS_DASH_01
 62
     7
 10
2.5000200000000059
 20
273.00004000000001
 30
0.0
 11
-1.25
 21
279.49518999999998
 31
0.0
  0
LINE
  5
132
  8
DATA
  6
CONTINUOUS
 62
     7
 10
-12.5
 20
157.40000000000001
 30
0.0
 11
-12.5
 21
151.40000000000001
 31
0.0
  0
LINE
  5
133
  8
DATA
  6
CONTINUOUS
 62
     7
 10
2.5
 20
151.40000000000001
 30
0.0
 11
-12.5
 21
151.40000000000001
 31
0.0
  0
LINE
  5
134
  8
DATA
  6
CONTINUOUS
 62
     7
 10
2.5
 20
157.40000000000001
 30
0.0
 11
2.5
 21
151.40000000000001
 31
0.0
  0
LINE
  5
135
  8
DATA
  6
CONTINUOUS
 62
     7
 10
-8.7500100000000032
 20
151.40000000000001
 30
0.0
 11
-8.7500100000000032
 21
157.40000000000001
 31
0.0
  0
LINE
  5
136
  8
DATA
  6
CONTINUOUS
 62
     7
 10
-0.7500100000000032
 20
151.40000000000001
 30
0.0
 11
-0.7500100000000032
 21
157.40000000000001
 31
0.0
  0
LINE
  5
137
  8
DATA
  6
VECTORWORKS_DASH_01
 62
     7
 10
-9.0
 20
285.91529000000003
 30
0.0
 11
-1.0
 21
285.91529000000003
 31
0.0
  0
LINE
  5
138
  8
DATA
  6
VECTORWORKS_DASH_01
 62
     7
 10
-9.0
 20
285.91529000000003
 30
0.0
 11
-9.0
 21
317.99999000000003
 31
0.0
  0
LINE
  5
139
  8
DATA
  6
VECTORWORKS_DASH_01
 62
     7
 10
-13.0
 20
281.91529000000003
 30
0.0
 11
-9.0
 21
285.91529000000003
 31
0.0
  0
LINE
  5
13A
  8
DATA
  6
VECTORWORKS_DASH_01
 62
     7
 10
-1.0
 20
285.91529000000003
 30
0.0
 11
-1.0
 21
317.99999000000003
 31
0.0
  0
LINE
  5
13B
  8
DATA
  6
VECTORWORKS_DASH_01
 62
     7
 10
3.0
 20
281.91529000000003
 30
0.0
 11
-1.0
 21
285.91529000000003
 31
0.0
  0
ARC
  5
13C
  8
DATA
  6
VECTORWORKS_DASH_01
 62
     7
 10
-5.0
 20
297.43749000000003
 30
0.0
 40
17.462489999999988
 50
297.26616470511919
 51
69.554994544110372
  0
ARC
  5
13D
  8
DATA
  6
VECTORWORKS_DASH_01
 62
     7
 10
-5.0
 20
297.43749000000003
 30
0.0
 40
17.462489999999988
 50
110.4450054558896
 51
242.73383529488069
  0
LINE
  5
13E
  8
DATA
  6
VECTORWORKS_DASH_01
 62
     7
 10
-13.0
 20
281.91529000000003
 30
0.0
 11
3.0
 21
281.91529000000003
 31
0.0
  0
LINE
  5
13F
  8
DATA
  6
VECTORWORKS_DASH_01
 62
     7
 10
4.0
 20
313.79998999999998
 30
0.0
 11
-14.0
 21
313.79998999999998
 31
0.0
  0
LINE
  5
140
  8
DATA
  6
VECTORWORKS_DASH_01
 62
     7
 10
4.0
 20
313.79998999999998
 30
0.0
 11
4.0
 21
315.39999
 31
0.0
  0
LINE
  5
141
  8
DATA
  6
VECTORWORKS_DASH_01
 62
     7
 10
-14.0
 20
313.79998999999998
 30
0.0
 11
-14.0
 21
315.39999
 31
0.0
  0
ENDSEC
  0
EOF
