  0
SECTION
  2
HEADER
  9
$ACADVER
  1
AC1015
  9
$ACADMAINTVER
 70
     6
  9
$DWGCODEPAGE
  3
ANSI_932
  9
$INSBASE
 10
0.0
 20
0.0
 30
0.0
  9
$EXTMIN
 10
0.0
 20
0.0
 30
0.0
  9
$EXTMAX
 10
742.5
 20
525.0
 30
0.0
  9
$LIMMIN
 10
0.0
 20
0.0
  9
$LIMMAX
 10
742.5
 20
525.0
  9
$ORTHOMODE
 70
     0
  9
$REGENMODE
 70
     1
  9
$FILLMODE
 70
     1
  9
$QTEXTMODE
 70
     0
  9
$MIRRTEXT
 70
     1
  9
$LTSCALE
 40
2.5
  9
$ATTMODE
 70
     1
  9
$TEXTSIZE
 40
2.5
  9
$TRACEWID
 40
1.0
  9
$TEXTSTYLE
  7
Standard
  9
$CLAYER
  8
0
  9
$CELTYPE
  6
ByLayer
  9
$CECOLOR
 62
   256
  9
$CELTSCALE
 40
1.0
  9
$DISPSILH
 70
     0
  9
$DIMSCALE
 40
1.0
  9
$DIMASZ
 40
2.5
  9
$DIMEXO
 40
0.625
  9
$DIMDLI
 40
3.75
  9
$DIMRND
 40
0.0
  9
$DIMDLE
 40
0.0
  9
$DIMEXE
 40
1.25
  9
$DIMTP
 40
0.0
  9
$DIMTM
 40
0.0
  9
$DIMTXT
 40
2.5
  9
$DIMCEN
 40
2.5
  9
$DIMTSZ
 40
0.0
  9
$DIMTOL
 70
     0
  9
$DIMLIM
 70
     0
  9
$DIMTIH
 70
     0
  9
$DIMTOH
 70
     0
  9
$DIMSE1
 70
     0
  9
$DIMSE2
 70
     0
  9
$DIMTAD
 70
     1
  9
$DIMZIN
 70
     8
  9
$DIMBLK
  1

  9
$DIMASO
 70
     1
  9
$DIMSHO
 70
     1
  9
$DIMPOST
  1

  9
$DIMAPOST
  1

  9
$DIMALT
 70
     0
  9
$DIMALTD
 70
     3
  9
$DIMALTF
 40
0.03937007874016
  9
$DIMLFAC
 40
1.0
  9
$DIMTOFL
 70
     1
  9
$DIMTVP
 40
0.0
  9
$DIMTIX
 70
     0
  9
$DIMSOXD
 70
     0
  9
$DIMSAH
 70
     0
  9
$DIMBLK1
  1

  9
$DIMBLK2
  1

  9
$DIMSTYLE
  2
ISO-25
  9
$DIMCLRD
 70
     0
  9
$DIMCLRE
 70
     0
  9
$DIMCLRT
 70
     0
  9
$DIMTFAC
 40
1.0
  9
$DIMGAP
 40
0.625
  9
$DIMJUST
 70
     0
  9
$DIMSD1
 70
     0
  9
$DIMSD2
 70
     0
  9
$DIMTOLJ
 70
     0
  9
$DIMTZIN
 70
     8
  9
$DIMALTZ
 70
     0
  9
$DIMALTTZ
 70
     0
  9
$DIMUPT
 70
     0
  9
$DIMDEC
 70
     2
  9
$DIMTDEC
 70
     2
  9
$DIMALTU
 70
     2
  9
$DIMALTTD
 70
     3
  9
$DIMTXSTY
  7
Standard
  9
$DIMAUNIT
 70
     0
  9
$DIMADEC
 70
     0
  9
$DIMALTRND
 40
0.0
  9
$DIMAZIN
 70
     0
  9
$DIMDSEP
 70
    46
  9
$DIMATFIT
 70
     3
  9
$DIMFRAC
 70
     0
  9
$DIMLDRBLK
  1

  9
$DIMLUNIT
 70
     2
  9
$DIMLWD
 70
    -2
  9
$DIMLWE
 70
    -2
  9
$DIMTMOVE
 70
     0
  9
$LUNITS
 70
     2
  9
$LUPREC
 70
     4
  9
$SKETCHINC
 40
1.0
  9
$FILLETRAD
 40
10.0
  9
$AUNITS
 70
     0
  9
$AUPREC
 70
     0
  9
$MENU
  1
.
  9
$ELEVATION
 40
0.0
  9
$PELEVATION
 40
0.0
  9
$THICKNESS
 40
0.0
  9
$LIMCHECK
 70
     0
  9
$CHAMFERA
 40
10.0
  9
$CHAMFERB
 40
10.0
  9
$CHAMFERC
 40
20.0
  9
$CHAMFERD
 40
0.0
  9
$SKPOLY
 70
     0
  9
$TDCREATE
 40
2457071.000000
  9
$TDUCREATE
 40
0.000000000
  9
$TDUPDATE
 40
2457071.000000
  9
$TDUUPDATE
 40
2457071.000000
  9
$TDINDWG
 40
0.0
  9
$TDUSRTIMER
 40
0.0
  9
$USRTIMER
 70
     1
  9
$ANGBASE
 50
0.0
  9
$ANGDIR
 70
     0
  9
$PDMODE
 70
     0
  9
$PDSIZE
 40
0.0
  9
$PLINEWID
 40
0.0
  9
$SPLFRAME
 70
     0
  9
$SPLINETYPE
 70
     6
  9
$SPLINESEGS
 70
     8
  9
$HANDSEED
  5
03A2
  9
$SURFTAB1
 70
     6
  9
$SURFTAB2
 70
     6
  9
$SURFTYPE
 70
     6
  9
$SURFU
 70
     6
  9
$SURFV
 70
     6
  9
$UCSBASE
  2

  9
$UCSNAME
  2

  9
$UCSORG
 10
0.0
 20
0.0
 30
0.0
  9
$UCSXDIR
 10
1.0
 20
0.0
 30
0.0
  9
$UCSYDIR
 10
0.0
 20
1.0
 30
0.0
  9
$UCSORTHOREF
  2

  9
$UCSORTHOVIEW
 70
     0
  9
$UCSORGTOP
 10
0.0
 20
0.0
 30
0.0
  9
$UCSORGBOTTOM
 10
0.0
 20
0.0
 30
0.0
  9
$UCSORGLEFT
 10
0.0
 20
0.0
 30
0.0
  9
$UCSORGRIGHT
 10
0.0
 20
0.0
 30
0.0
  9
$UCSORGFRONT
 10
0.0
 20
0.0
 30
0.0
  9
$UCSORGBACK
 10
0.0
 20
0.0
 30
0.0
  9
$PUCSBASE
  2

  9
$PUCSNAME
  2

  9
$PUCSORG
 10
0.0
 20
0.0
 30
0.0
  9
$PUCSXDIR
 10
1.0
 20
0.0
 30
0.0
  9
$PUCSYDIR
 10
0.0
 20
1.0
 30
0.0
  9
$PUCSORTHOREF
  2

  9
$PUCSORTHOVIEW
 70
     0
  9
$PUCSORGTOP
 10
0.0
 20
0.0
 30
0.0
  9
$PUCSORGBOTTOM
 10
0.0
 20
0.0
 30
0.0
  9
$PUCSORGLEFT
 10
0.0
 20
0.0
 30
0.0
  9
$PUCSORGRIGHT
 10
0.0
 20
0.0
 30
0.0
  9
$PUCSORGFRONT
 10
0.0
 20
0.0
 30
0.0
  9
$PUCSORGBACK
 10
0.0
 20
0.0
 30
0.0
  9
$USERI1
 70
     0
  9
$USERI2
 70
     0
  9
$USERI3
 70
     0
  9
$USERI4
 70
     0
  9
$USERI5
 70
     0
  9
$USERR1
 40
0.0
  9
$USERR2
 40
0.0
  9
$USERR3
 40
0.0
  9
$USERR4
 40
0.0
  9
$USERR5
 40
0.0
  9
$WORLDVIEW
 70
     1
  9
$SHADEDGE
 70
     3
  9
$SHADEDIF
 70
    70
  9
$TILEMODE
 70
     1
  9
$MAXACTVP
 70
    64
  9
$PINSBASE
 10
0.0
 20
0.0
 30
0.0
  9
$PLIMCHECK
 70
     0
  9
$PEXTMIN
 10
1.000000E+20
 20
1.000000E+20
 30
1.000000E+20
  9
$PEXTMAX
 10
-1.000000E+20
 20
-1.000000E+20
 30
-1.000000E+20
  9
$PLIMMIN
 10
0.0
 20
0.0
  9
$PLIMMAX
 10
0.0
 20
0.0
  9
$UNITMODE
 70
     0
  9
$VISRETAIN
 70
     0
  9
$PLINEGEN
 70
     0
  9
$PSLTSCALE
 70
     1
  9
$TREEDEPTH
 70
  3020
  9
$CMLSTYLE
  2
STANDARD
  9
$CMLJUST
 70
     0
  9
$CMLSCALE
 40
20.0
  9
$PROXYGRAPHICS
 70
     1
  9
$MEASUREMENT
 70
     1
  9
$CELWEIGHT
370
    -1
  9
$ENDCAPS
280
     0
  9
$JOINSTYLE
280
     0
  9
$LWDISPLAY
290
     0
  9
$INSUNITS
 70
     4
  9
$HYPERLINKBASE
  1

  9
$STYLESHEET
  1

  9
$XEDIT
290
     1
  9
$CEPSNTYPE
380
     0
  9
$PSTYLEMODE
290
     1
  9
$FINGERPRINTGUID
  2
{9A74102D-B868-93CF-92D7-903C62642DD0}
  9
$VERSIONGUID
  2
{FAC15975-68E7-D674-4ED2-7E853DE00421}
  9
$EXTNAMES
290
     1
  9
$PSVPSCALE
 40
0.0
  0
ENDSEC
  0
SECTION
  2
CLASSES
  0
ENDSEC
  0
SECTION
  2
TABLES
  0
TABLE
  2
VPORT
  5
8
330
0
100
AcDbSymbolTable
 70
     3
  0
VPORT
  5
29
330
8
100
AcDbSymbolTableRecord
100
AcDbViewportTableRecord
  2
*Active
 70
     0
 10
0.0
 20
0.0
 11
1.0
 21
1.0
 12
371.25
 22
262.5
 13
0.0
 23
0.0
 14
10.0
 24
10.0
 15
0.0
 25
0.0
 16
0.0
 26
0.0
 36
1.0
 17
0.0
 27
0.0
 37
0.0
 40
525.0
 41
1.414285714
 42
50.0
 43
0.0
 44
0.0
 50
0.0
 51
0.0
 71
     0
 72
  1000
 73
     1
 74
     3
 75
     0
 76
     0
 77
     0
 78
     0
281
     0
 65
     0
110
0.0
120
0.0
130
0.0
111
1.0
121
0.0
131
0.0
112
0.0
122
1.0
132
0.0
 79
     0
146
0.0
  0
ENDTAB
  0
TABLE
  2
LTYPE
  5
5
330
0
100
AcDbSymbolTable
 70
     6
  0
LTYPE
  5
14
330
5
100
AcDbSymbolTableRecord
100
AcDbLinetypeTableRecord
  2
ByBlock
 70
     0
  3

 72
    65
 73
     0
 40
0.0
  0
LTYPE
  5
15
330
5
100
AcDbSymbolTableRecord
100
AcDbLinetypeTableRecord
  2
ByLayer
 70
     0
  3

 72
    65
 73
     0
 40
0.0
  0
LTYPE
  5
16
330
5
100
AcDbSymbolTableRecord
100
AcDbLinetypeTableRecord
  2
Continuous
 70
     0
  3
Solid line
 72
    65
 73
     0
 40
0.0
  0
LTYPE
  5
A9
330
5
100
AcDbSymbolTableRecord
100
AcDbLinetypeTableRecord
  2
LTYPE1
 70
     0
  3
PHANTOM
 72
    65
 73
     6
 40
12.0
 49
9.0
 74
     0
 49
-0.6
 74
     0
 49
0.6
 74
     0
 49
-0.6
 74
     0
 49
0.6
 74
     0
 49
-0.6
 74
     0
  0
LTYPE
  5
12A
330
5
100
AcDbSymbolTableRecord
100
AcDbLinetypeTableRecord
  2
LTYPE2
 70
     0
  3
HIDDEN
 72
    65
 73
     2
 40
2.0
 49
1.2
 74
     0
 49
-0.8
 74
     0
  0
LTYPE
  5
189
330
5
100
AcDbSymbolTableRecord
100
AcDbLinetypeTableRecord
  2
LTYPE3
 70
     0
  3
CENTER
 72
    65
 73
     4
 40
12.0
 49
8.4
 74
     0
 49
-1.2
 74
     0
 49
1.2
 74
     0
 49
-1.2
 74
     0
  0
ENDTAB
  0
TABLE
  2
LAYER
  5
2
330
0
100
AcDbSymbolTable
 70
   128
  0
LAYER
  5
10
330
2
100
AcDbSymbolTableRecord
100
AcDbLayerTableRecord
  2
0
 70
     0
 62
     7
  6
Continuous
290
     1
370
    -3
390
F
  0
LAYER
  5
2A
330
2
100
AcDbSymbolTableRecord
100
AcDbLayerTableRecord
  2
2
 70
     0
 62
     7
  6
Continuous
290
     1
370
    -3
390
F
  0
LAYER
  5
2B
330
2
100
AcDbSymbolTableRecord
100
AcDbLayerTableRecord
  2
3
 70
     0
 62
     7
  6
Continuous
290
     1
370
    -3
390
F
  0
LAYER
  5
2C
330
2
100
AcDbSymbolTableRecord
100
AcDbLayerTableRecord
  2
4
 70
     0
 62
     7
  6
Continuous
290
     1
370
    -3
390
F
  0
LAYER
  5
2D
330
2
100
AcDbSymbolTableRecord
100
AcDbLayerTableRecord
  2
5
 70
     0
 62
     7
  6
Continuous
290
     1
370
    -3
390
F
  0
LAYER
  5
2E
330
2
100
AcDbSymbolTableRecord
100
AcDbLayerTableRecord
  2
6
 70
     0
 62
     7
  6
Continuous
290
     1
370
    -3
390
F
  0
LAYER
  5
2F
330
2
100
AcDbSymbolTableRecord
100
AcDbLayerTableRecord
  2
7
 70
     0
 62
     7
  6
Continuous
290
     1
370
    -3
390
F
  0
LAYER
  5
30
330
2
100
AcDbSymbolTableRecord
100
AcDbLayerTableRecord
  2
8
 70
     0
 62
     7
  6
Continuous
290
     1
370
    -3
390
F
  0
LAYER
  5
31
330
2
100
AcDbSymbolTableRecord
100
AcDbLayerTableRecord
  2
9
 70
     0
 62
     7
  6
Continuous
290
     1
370
    -3
390
F
  0
LAYER
  5
32
330
2
100
AcDbSymbolTableRecord
100
AcDbLayerTableRecord
  2
10
 70
     0
 62
     7
  6
Continuous
290
     1
370
    -3
390
F
  0
LAYER
  5
33
330
2
100
AcDbSymbolTableRecord
100
AcDbLayerTableRecord
  2
11
 70
     0
 62
     7
  6
Continuous
290
     1
370
    -3
390
F
  0
LAYER
  5
34
330
2
100
AcDbSymbolTableRecord
100
AcDbLayerTableRecord
  2
12
 70
     0
 62
     7
  6
Continuous
290
     1
370
    -3
390
F
  0
LAYER
  5
35
330
2
100
AcDbSymbolTableRecord
100
AcDbLayerTableRecord
  2
13
 70
     0
 62
     7
  6
Continuous
290
     1
370
    -3
390
F
  0
LAYER
  5
36
330
2
100
AcDbSymbolTableRecord
100
AcDbLayerTableRecord
  2
14
 70
     0
 62
     7
  6
Continuous
290
     1
370
    -3
390
F
  0
LAYER
  5
37
330
2
100
AcDbSymbolTableRecord
100
AcDbLayerTableRecord
  2
15
 70
     0
 62
     7
  6
Continuous
290
     1
370
    -3
390
F
  0
LAYER
  5
38
330
2
100
AcDbSymbolTableRecord
100
AcDbLayerTableRecord
  2
16
 70
     0
 62
     7
  6
Continuous
290
     1
370
    -3
390
F
  0
LAYER
  5
39
330
2
100
AcDbSymbolTableRecord
100
AcDbLayerTableRecord
  2
17
 70
     0
 62
     7
  6
Continuous
290
     1
370
    -3
390
F
  0
LAYER
  5
3A
330
2
100
AcDbSymbolTableRecord
100
AcDbLayerTableRecord
  2
18
 70
     0
 62
     7
  6
Continuous
290
     1
370
    -3
390
F
  0
LAYER
  5
3B
330
2
100
AcDbSymbolTableRecord
100
AcDbLayerTableRecord
  2
19
 70
     0
 62
     7
  6
Continuous
290
     1
370
    -3
390
F
  0
LAYER
  5
3C
330
2
100
AcDbSymbolTableRecord
100
AcDbLayerTableRecord
  2
20
 70
     0
 62
     7
  6
Continuous
290
     1
370
    -3
390
F
  0
LAYER
  5
3D
330
2
100
AcDbSymbolTableRecord
100
AcDbLayerTableRecord
  2
21
 70
     0
 62
     7
  6
Continuous
290
     1
370
    -3
390
F
  0
LAYER
  5
3E
330
2
100
AcDbSymbolTableRecord
100
AcDbLayerTableRecord
  2
22
 70
     0
 62
     7
  6
Continuous
290
     1
370
    -3
390
F
  0
LAYER
  5
3F
330
2
100
AcDbSymbolTableRecord
100
AcDbLayerTableRecord
  2
23
 70
     0
 62
     7
  6
Continuous
290
     1
370
    -3
390
F
  0
LAYER
  5
40
330
2
100
AcDbSymbolTableRecord
100
AcDbLayerTableRecord
  2
24
 70
     0
 62
     7
  6
Continuous
290
     1
370
    -3
390
F
  0
LAYER
  5
41
330
2
100
AcDbSymbolTableRecord
100
AcDbLayerTableRecord
  2
25
 70
     0
 62
     7
  6
Continuous
290
     1
370
    -3
390
F
  0
LAYER
  5
42
330
2
100
AcDbSymbolTableRecord
100
AcDbLayerTableRecord
  2
26
 70
     0
 62
     7
  6
Continuous
290
     1
370
    -3
390
F
  0
LAYER
  5
43
330
2
100
AcDbSymbolTableRecord
100
AcDbLayerTableRecord
  2
27
 70
     0
 62
     7
  6
Continuous
290
     1
370
    -3
390
F
  0
LAYER
  5
44
330
2
100
AcDbSymbolTableRecord
100
AcDbLayerTableRecord
  2
28
 70
     0
 62
     7
  6
Continuous
290
     1
370
    -3
390
F
  0
LAYER
  5
45
330
2
100
AcDbSymbolTableRecord
100
AcDbLayerTableRecord
  2
29
 70
     0
 62
     7
  6
Continuous
290
     1
370
    -3
390
F
  0
LAYER
  5
46
330
2
100
AcDbSymbolTableRecord
100
AcDbLayerTableRecord
  2
30
 70
     0
 62
     7
  6
Continuous
290
     1
370
    -3
390
F
  0
LAYER
  5
47
330
2
100
AcDbSymbolTableRecord
100
AcDbLayerTableRecord
  2
31
 70
     0
 62
     7
  6
Continuous
290
     1
370
    -3
390
F
  0
LAYER
  5
48
330
2
100
AcDbSymbolTableRecord
100
AcDbLayerTableRecord
  2
32
 70
     0
 62
     7
  6
Continuous
290
     1
370
    -3
390
F
  0
LAYER
  5
49
330
2
100
AcDbSymbolTableRecord
100
AcDbLayerTableRecord
  2
33
 70
     0
 62
     7
  6
Continuous
290
     1
370
    -3
390
F
  0
LAYER
  5
4A
330
2
100
AcDbSymbolTableRecord
100
AcDbLayerTableRecord
  2
34
 70
     0
 62
     7
  6
Continuous
290
     1
370
    -3
390
F
  0
LAYER
  5
4B
330
2
100
AcDbSymbolTableRecord
100
AcDbLayerTableRecord
  2
35
 70
     0
 62
     7
  6
Continuous
290
     1
370
    -3
390
F
  0
LAYER
  5
4C
330
2
100
AcDbSymbolTableRecord
100
AcDbLayerTableRecord
  2
36
 70
     0
 62
     7
  6
Continuous
290
     1
370
    -3
390
F
  0
LAYER
  5
4D
330
2
100
AcDbSymbolTableRecord
100
AcDbLayerTableRecord
  2
37
 70
     0
 62
     7
  6
Continuous
290
     1
370
    -3
390
F
  0
LAYER
  5
4E
330
2
100
AcDbSymbolTableRecord
100
AcDbLayerTableRecord
  2
38
 70
     0
 62
     7
  6
Continuous
290
     1
370
    -3
390
F
  0
LAYER
  5
4F
330
2
100
AcDbSymbolTableRecord
100
AcDbLayerTableRecord
  2
39
 70
     0
 62
     7
  6
Continuous
290
     1
370
    -3
390
F
  0
LAYER
  5
50
330
2
100
AcDbSymbolTableRecord
100
AcDbLayerTableRecord
  2
40
 70
     0
 62
     7
  6
Continuous
290
     1
370
    -3
390
F
  0
LAYER
  5
51
330
2
100
AcDbSymbolTableRecord
100
AcDbLayerTableRecord
  2
41
 70
     0
 62
     7
  6
Continuous
290
     1
370
    -3
390
F
  0
LAYER
  5
52
330
2
100
AcDbSymbolTableRecord
100
AcDbLayerTableRecord
  2
42
 70
     0
 62
     7
  6
Continuous
290
     1
370
    -3
390
F
  0
LAYER
  5
53
330
2
100
AcDbSymbolTableRecord
100
AcDbLayerTableRecord
  2
43
 70
     0
 62
     7
  6
Continuous
290
     1
370
    -3
390
F
  0
LAYER
  5
54
330
2
100
AcDbSymbolTableRecord
100
AcDbLayerTableRecord
  2
44
 70
     0
 62
     7
  6
Continuous
290
     1
370
    -3
390
F
  0
LAYER
  5
55
330
2
100
AcDbSymbolTableRecord
100
AcDbLayerTableRecord
  2
45
 70
     0
 62
     7
  6
Continuous
290
     1
370
    -3
390
F
  0
LAYER
  5
56
330
2
100
AcDbSymbolTableRecord
100
AcDbLayerTableRecord
  2
46
 70
     0
 62
     7
  6
Continuous
290
     1
370
    -3
390
F
  0
LAYER
  5
57
330
2
100
AcDbSymbolTableRecord
100
AcDbLayerTableRecord
  2
47
 70
     0
 62
     7
  6
Continuous
290
     1
370
    -3
390
F
  0
LAYER
  5
58
330
2
100
AcDbSymbolTableRecord
100
AcDbLayerTableRecord
  2
48
 70
     0
 62
     7
  6
Continuous
290
     1
370
    -3
390
F
  0
LAYER
  5
59
330
2
100
AcDbSymbolTableRecord
100
AcDbLayerTableRecord
  2
49
 70
     0
 62
     7
  6
Continuous
290
     1
370
    -3
390
F
  0
LAYER
  5
5A
330
2
100
AcDbSymbolTableRecord
100
AcDbLayerTableRecord
  2
50
 70
     0
 62
     7
  6
Continuous
290
     1
370
    -3
390
F
  0
LAYER
  5
5B
330
2
100
AcDbSymbolTableRecord
100
AcDbLayerTableRecord
  2
51
 70
     0
 62
     7
  6
Continuous
290
     1
370
    -3
390
F
  0
LAYER
  5
5C
330
2
100
AcDbSymbolTableRecord
100
AcDbLayerTableRecord
  2
52
 70
     0
 62
     7
  6
Continuous
290
     1
370
    -3
390
F
  0
LAYER
  5
5D
330
2
100
AcDbSymbolTableRecord
100
AcDbLayerTableRecord
  2
53
 70
     0
 62
     7
  6
Continuous
290
     1
370
    -3
390
F
  0
LAYER
  5
5E
330
2
100
AcDbSymbolTableRecord
100
AcDbLayerTableRecord
  2
54
 70
     0
 62
     7
  6
Continuous
290
     1
370
    -3
390
F
  0
LAYER
  5
5F
330
2
100
AcDbSymbolTableRecord
100
AcDbLayerTableRecord
  2
55
 70
     0
 62
     7
  6
Continuous
290
     1
370
    -3
390
F
  0
LAYER
  5
60
330
2
100
AcDbSymbolTableRecord
100
AcDbLayerTableRecord
  2
56
 70
     0
 62
     7
  6
Continuous
290
     1
370
    -3
390
F
  0
LAYER
  5
61
330
2
100
AcDbSymbolTableRecord
100
AcDbLayerTableRecord
  2
57
 70
     0
 62
     7
  6
Continuous
290
     1
370
    -3
390
F
  0
LAYER
  5
62
330
2
100
AcDbSymbolTableRecord
100
AcDbLayerTableRecord
  2
58
 70
     0
 62
     7
  6
Continuous
290
     1
370
    -3
390
F
  0
LAYER
  5
63
330
2
100
AcDbSymbolTableRecord
100
AcDbLayerTableRecord
  2
59
 70
     0
 62
     7
  6
Continuous
290
     1
370
    -3
390
F
  0
LAYER
  5
64
330
2
100
AcDbSymbolTableRecord
100
AcDbLayerTableRecord
  2
60
 70
     0
 62
     7
  6
Continuous
290
     1
370
    -3
390
F
  0
LAYER
  5
65
330
2
100
AcDbSymbolTableRecord
100
AcDbLayerTableRecord
  2
61
 70
     0
 62
     7
  6
Continuous
290
     1
370
    -3
390
F
  0
LAYER
  5
66
330
2
100
AcDbSymbolTableRecord
100
AcDbLayerTableRecord
  2
62
 70
     0
 62
     7
  6
Continuous
290
     1
370
    -3
390
F
  0
LAYER
  5
67
330
2
100
AcDbSymbolTableRecord
100
AcDbLayerTableRecord
  2
63
 70
     0
 62
     7
  6
Continuous
290
     1
370
    -3
390
F
  0
LAYER
  5
68
330
2
100
AcDbSymbolTableRecord
100
AcDbLayerTableRecord
  2
64
 70
     0
 62
     7
  6
Continuous
290
     1
370
    -3
390
F
  0
LAYER
  5
69
330
2
100
AcDbSymbolTableRecord
100
AcDbLayerTableRecord
  2
65
 70
     0
 62
     7
  6
Continuous
290
     1
370
    -3
390
F
  0
LAYER
  5
6A
330
2
100
AcDbSymbolTableRecord
100
AcDbLayerTableRecord
  2
66
 70
     0
 62
     7
  6
Continuous
290
     1
370
    -3
390
F
  0
LAYER
  5
6B
330
2
100
AcDbSymbolTableRecord
100
AcDbLayerTableRecord
  2
67
 70
     0
 62
     7
  6
Continuous
290
     1
370
    -3
390
F
  0
LAYER
  5
6C
330
2
100
AcDbSymbolTableRecord
100
AcDbLayerTableRecord
  2
68
 70
     0
 62
     7
  6
Continuous
290
     1
370
    -3
390
F
  0
LAYER
  5
6D
330
2
100
AcDbSymbolTableRecord
100
AcDbLayerTableRecord
  2
69
 70
     0
 62
     7
  6
Continuous
290
     1
370
    -3
390
F
  0
LAYER
  5
6E
330
2
100
AcDbSymbolTableRecord
100
AcDbLayerTableRecord
  2
70
 70
     0
 62
     7
  6
Continuous
290
     1
370
    -3
390
F
  0
LAYER
  5
6F
330
2
100
AcDbSymbolTableRecord
100
AcDbLayerTableRecord
  2
71
 70
     0
 62
     7
  6
Continuous
290
     1
370
    -3
390
F
  0
LAYER
  5
70
330
2
100
AcDbSymbolTableRecord
100
AcDbLayerTableRecord
  2
72
 70
     0
 62
     7
  6
Continuous
290
     1
370
    -3
390
F
  0
LAYER
  5
71
330
2
100
AcDbSymbolTableRecord
100
AcDbLayerTableRecord
  2
73
 70
     0
 62
     7
  6
Continuous
290
     1
370
    -3
390
F
  0
LAYER
  5
72
330
2
100
AcDbSymbolTableRecord
100
AcDbLayerTableRecord
  2
74
 70
     0
 62
     7
  6
Continuous
290
     1
370
    -3
390
F
  0
LAYER
  5
73
330
2
100
AcDbSymbolTableRecord
100
AcDbLayerTableRecord
  2
75
 70
     0
 62
     7
  6
Continuous
290
     1
370
    -3
390
F
  0
LAYER
  5
74
330
2
100
AcDbSymbolTableRecord
100
AcDbLayerTableRecord
  2
76
 70
     0
 62
     7
  6
Continuous
290
     1
370
    -3
390
F
  0
LAYER
  5
75
330
2
100
AcDbSymbolTableRecord
100
AcDbLayerTableRecord
  2
77
 70
     0
 62
     7
  6
Continuous
290
     1
370
    -3
390
F
  0
LAYER
  5
76
330
2
100
AcDbSymbolTableRecord
100
AcDbLayerTableRecord
  2
78
 70
     0
 62
     7
  6
Continuous
290
     1
370
    -3
390
F
  0
LAYER
  5
77
330
2
100
AcDbSymbolTableRecord
100
AcDbLayerTableRecord
  2
79
 70
     0
 62
     7
  6
Continuous
290
     1
370
    -3
390
F
  0
LAYER
  5
78
330
2
100
AcDbSymbolTableRecord
100
AcDbLayerTableRecord
  2
80
 70
     0
 62
     7
  6
Continuous
290
     1
370
    -3
390
F
  0
LAYER
  5
79
330
2
100
AcDbSymbolTableRecord
100
AcDbLayerTableRecord
  2
81
 70
     0
 62
     7
  6
Continuous
290
     1
370
    -3
390
F
  0
LAYER
  5
7A
330
2
100
AcDbSymbolTableRecord
100
AcDbLayerTableRecord
  2
82
 70
     0
 62
     7
  6
Continuous
290
     1
370
    -3
390
F
  0
LAYER
  5
7B
330
2
100
AcDbSymbolTableRecord
100
AcDbLayerTableRecord
  2
83
 70
     0
 62
     7
  6
Continuous
290
     1
370
    -3
390
F
  0
LAYER
  5
7C
330
2
100
AcDbSymbolTableRecord
100
AcDbLayerTableRecord
  2
84
 70
     0
 62
     7
  6
Continuous
290
     1
370
    -3
390
F
  0
LAYER
  5
7D
330
2
100
AcDbSymbolTableRecord
100
AcDbLayerTableRecord
  2
85
 70
     0
 62
     7
  6
Continuous
290
     1
370
    -3
390
F
  0
LAYER
  5
7E
330
2
100
AcDbSymbolTableRecord
100
AcDbLayerTableRecord
  2
86
 70
     0
 62
     7
  6
Continuous
290
     1
370
    -3
390
F
  0
LAYER
  5
7F
330
2
100
AcDbSymbolTableRecord
100
AcDbLayerTableRecord
  2
87
 70
     0
 62
     7
  6
Continuous
290
     1
370
    -3
390
F
  0
LAYER
  5
80
330
2
100
AcDbSymbolTableRecord
100
AcDbLayerTableRecord
  2
88
 70
     0
 62
     7
  6
Continuous
290
     1
370
    -3
390
F
  0
LAYER
  5
81
330
2
100
AcDbSymbolTableRecord
100
AcDbLayerTableRecord
  2
89
 70
     0
 62
     7
  6
Continuous
290
     1
370
    -3
390
F
  0
LAYER
  5
82
330
2
100
AcDbSymbolTableRecord
100
AcDbLayerTableRecord
  2
90
 70
     0
 62
     7
  6
Continuous
290
     1
370
    -3
390
F
  0
LAYER
  5
83
330
2
100
AcDbSymbolTableRecord
100
AcDbLayerTableRecord
  2
91
 70
     0
 62
     7
  6
Continuous
290
     1
370
    -3
390
F
  0
LAYER
  5
84
330
2
100
AcDbSymbolTableRecord
100
AcDbLayerTableRecord
  2
92
 70
     0
 62
     7
  6
Continuous
290
     1
370
    -3
390
F
  0
LAYER
  5
85
330
2
100
AcDbSymbolTableRecord
100
AcDbLayerTableRecord
  2
93
 70
     0
 62
     7
  6
Continuous
290
     1
370
    -3
390
F
  0
LAYER
  5
86
330
2
100
AcDbSymbolTableRecord
100
AcDbLayerTableRecord
  2
94
 70
     0
 62
     7
  6
Continuous
290
     1
370
    -3
390
F
  0
LAYER
  5
87
330
2
100
AcDbSymbolTableRecord
100
AcDbLayerTableRecord
  2
95
 70
     0
 62
     7
  6
Continuous
290
     1
370
    -3
390
F
  0
LAYER
  5
88
330
2
100
AcDbSymbolTableRecord
100
AcDbLayerTableRecord
  2
96
 70
     0
 62
     7
  6
Continuous
290
     1
370
    -3
390
F
  0
LAYER
  5
89
330
2
100
AcDbSymbolTableRecord
100
AcDbLayerTableRecord
  2
97
 70
     0
 62
     7
  6
Continuous
290
     1
370
    -3
390
F
  0
LAYER
  5
8A
330
2
100
AcDbSymbolTableRecord
100
AcDbLayerTableRecord
  2
98
 70
     0
 62
     7
  6
Continuous
290
     1
370
    -3
390
F
  0
LAYER
  5
8B
330
2
100
AcDbSymbolTableRecord
100
AcDbLayerTableRecord
  2
99
 70
     0
 62
     7
  6
Continuous
290
     1
370
    -3
390
F
  0
LAYER
  5
8C
330
2
100
AcDbSymbolTableRecord
100
AcDbLayerTableRecord
  2
100
 70
     0
 62
     7
  6
Continuous
290
     1
370
    -3
390
F
  0
LAYER
  5
8D
330
2
100
AcDbSymbolTableRecord
100
AcDbLayerTableRecord
  2
101
 70
     0
 62
     7
  6
Continuous
290
     1
370
    -3
390
F
  0
LAYER
  5
8E
330
2
100
AcDbSymbolTableRecord
100
AcDbLayerTableRecord
  2
102
 70
     0
 62
     7
  6
Continuous
290
     1
370
    -3
390
F
  0
LAYER
  5
8F
330
2
100
AcDbSymbolTableRecord
100
AcDbLayerTableRecord
  2
103
 70
     0
 62
     7
  6
Continuous
290
     1
370
    -3
390
F
  0
LAYER
  5
90
330
2
100
AcDbSymbolTableRecord
100
AcDbLayerTableRecord
  2
104
 70
     0
 62
     7
  6
Continuous
290
     1
370
    -3
390
F
  0
LAYER
  5
91
330
2
100
AcDbSymbolTableRecord
100
AcDbLayerTableRecord
  2
105
 70
     0
 62
     7
  6
Continuous
290
     1
370
    -3
390
F
  0
LAYER
  5
92
330
2
100
AcDbSymbolTableRecord
100
AcDbLayerTableRecord
  2
106
 70
     0
 62
     7
  6
Continuous
290
     1
370
    -3
390
F
  0
LAYER
  5
93
330
2
100
AcDbSymbolTableRecord
100
AcDbLayerTableRecord
  2
107
 70
     0
 62
     7
  6
Continuous
290
     1
370
    -3
390
F
  0
LAYER
  5
94
330
2
100
AcDbSymbolTableRecord
100
AcDbLayerTableRecord
  2
108
 70
     0
 62
     7
  6
Continuous
290
     1
370
    -3
390
F
  0
LAYER
  5
95
330
2
100
AcDbSymbolTableRecord
100
AcDbLayerTableRecord
  2
109
 70
     0
 62
     7
  6
Continuous
290
     1
370
    -3
390
F
  0
LAYER
  5
96
330
2
100
AcDbSymbolTableRecord
100
AcDbLayerTableRecord
  2
110
 70
     0
 62
     7
  6
Continuous
290
     1
370
    -3
390
F
  0
LAYER
  5
97
330
2
100
AcDbSymbolTableRecord
100
AcDbLayerTableRecord
  2
111
 70
     0
 62
     7
  6
Continuous
290
     1
370
    -3
390
F
  0
LAYER
  5
98
330
2
100
AcDbSymbolTableRecord
100
AcDbLayerTableRecord
  2
112
 70
     0
 62
     7
  6
Continuous
290
     1
370
    -3
390
F
  0
LAYER
  5
99
330
2
100
AcDbSymbolTableRecord
100
AcDbLayerTableRecord
  2
113
 70
     0
 62
     7
  6
Continuous
290
     1
370
    -3
390
F
  0
LAYER
  5
9A
330
2
100
AcDbSymbolTableRecord
100
AcDbLayerTableRecord
  2
114
 70
     0
 62
     7
  6
Continuous
290
     1
370
    -3
390
F
  0
LAYER
  5
9B
330
2
100
AcDbSymbolTableRecord
100
AcDbLayerTableRecord
  2
115
 70
     0
 62
     7
  6
Continuous
290
     1
370
    -3
390
F
  0
LAYER
  5
9C
330
2
100
AcDbSymbolTableRecord
100
AcDbLayerTableRecord
  2
116
 70
     0
 62
     7
  6
Continuous
290
     1
370
    -3
390
F
  0
LAYER
  5
9D
330
2
100
AcDbSymbolTableRecord
100
AcDbLayerTableRecord
  2
117
 70
     0
 62
     7
  6
Continuous
290
     1
370
    -3
390
F
  0
LAYER
  5
9E
330
2
100
AcDbSymbolTableRecord
100
AcDbLayerTableRecord
  2
118
 70
     0
 62
     7
  6
Continuous
290
     1
370
    -3
390
F
  0
LAYER
  5
9F
330
2
100
AcDbSymbolTableRecord
100
AcDbLayerTableRecord
  2
119
 70
     0
 62
     7
  6
Continuous
290
     1
370
    -3
390
F
  0
LAYER
  5
A0
330
2
100
AcDbSymbolTableRecord
100
AcDbLayerTableRecord
  2
120
 70
     0
 62
     7
  6
Continuous
290
     1
370
    -3
390
F
  0
LAYER
  5
A1
330
2
100
AcDbSymbolTableRecord
100
AcDbLayerTableRecord
  2
121
 70
     0
 62
     7
  6
Continuous
290
     1
370
    -3
390
F
  0
LAYER
  5
A2
330
2
100
AcDbSymbolTableRecord
100
AcDbLayerTableRecord
  2
122
 70
     0
 62
     7
  6
Continuous
290
     1
370
    -3
390
F
  0
LAYER
  5
A3
330
2
100
AcDbSymbolTableRecord
100
AcDbLayerTableRecord
  2
123
 70
     0
 62
     7
  6
Continuous
290
     1
370
    -3
390
F
  0
LAYER
  5
A4
330
2
100
AcDbSymbolTableRecord
100
AcDbLayerTableRecord
  2
124
 70
     0
 62
     7
  6
Continuous
290
     1
370
    -3
390
F
  0
LAYER
  5
A5
330
2
100
AcDbSymbolTableRecord
100
AcDbLayerTableRecord
  2
125
 70
     0
 62
     7
  6
Continuous
290
     1
370
    -3
390
F
  0
LAYER
  5
A6
330
2
100
AcDbSymbolTableRecord
100
AcDbLayerTableRecord
  2
126
 70
     0
 62
     7
  6
Continuous
290
     1
370
    -3
390
F
  0
LAYER
  5
A7
330
2
100
AcDbSymbolTableRecord
100
AcDbLayerTableRecord
  2
127
 70
     0
 62
     7
  6
Continuous
290
     1
370
    -3
390
F
  0
LAYER
  5
A8
330
2
100
AcDbSymbolTableRecord
100
AcDbLayerTableRecord
  2
128
 70
     0
 62
     7
  6
Continuous
290
     1
370
    -3
390
F
  0
ENDTAB
  0
TABLE
  2
STYLE
  5
3
330
0
100
AcDbSymbolTable
 70
     9
  0
STYLE
  5
11
330
3
100
AcDbSymbolTableRecord
100
AcDbTextStyleTableRecord
  2
Standard
 70
     0
 40
0.0
 41
1.0
 50
0.0
 71
     0
 42
2.5
  3
txt.shx
  4
extfont.shx
  0
STYLE
  5
B0
330
3
100
AcDbSymbolTableRecord
100
AcDbTextStyleTableRecord
  2
KANJI0
 70
     4
 40
6.25
 41
1.0
 50
0.0
 71
     0
 42
6.25
  3
txt.shx
  4
extfont.shx
  0
STYLE
  5
B6
330
3
100
AcDbSymbolTableRecord
100
AcDbTextStyleTableRecord
  2
KANJI1
 70
     4
 40
6.25
 41
1.0
 50
0.0
 71
     0
 42
6.25
  3
txt.shx
  4
extfont.shx
  0
STYLE
  5
C2
330
3
100
AcDbSymbolTableRecord
100
AcDbTextStyleTableRecord
  2
KANJI2
 70
     4
 40
4.166666667
 41
1.5
 50
0.0
 71
     0
 42
4.166666667
  3
txt.shx
  4
extfont.shx
  0
STYLE
  5
C4
330
3
100
AcDbSymbolTableRecord
100
AcDbTextStyleTableRecord
  2
KANJI3
 70
     0
 40
7.5
 41
0.9
 50
0.0
 71
     0
 42
7.5
  3
txt.shx
  4
extfont.shx
  0
STYLE
  5
CD
330
3
100
AcDbSymbolTableRecord
100
AcDbTextStyleTableRecord
  2
KANJI4
 70
     0
 40
7.5
 41
1.0
 50
0.0
 71
     0
 42
7.5
  3
txt.shx
  4
extfont.shx
  0
STYLE
  5
D2
330
3
100
AcDbSymbolTableRecord
100
AcDbTextStyleTableRecord
  2
KANJI5
 70
     0
 40
7.5
 41
0.45
 50
0.0
 71
     0
 42
7.5
  3
txt.shx
  4
extfont.shx
  0
STYLE
  5
33F
330
3
100
AcDbSymbolTableRecord
100
AcDbTextStyleTableRecord
  2
KANJI6
 70
     0
 40
7.5
 41
0.6
 50
0.0
 71
     0
 42
7.5
  3
txt.shx
  4
extfont.shx
  0
STYLE
  5
395
330
3
100
AcDbSymbolTableRecord
100
AcDbTextStyleTableRecord
  2
KANJI7
 70
     0
 40
7.5
 41
0.9
 50
0.0
 71
     0
 42
7.5
  3
txt.shx
  4
extfont.shx
  0
ENDTAB
  0
TABLE
  2
VIEW
  5
6
330
0
100
AcDbSymbolTable
 70
     0
  0
ENDTAB
  0
TABLE
  2
UCS
  5
7
330
0
100
AcDbSymbolTable
 70
     0
  0
ENDTAB
  0
TABLE
  2
APPID
  5
9
330
0
100
AcDbSymbolTable
 70
     1
  0
APPID
  5
12
330
9
100
AcDbSymbolTableRecord
100
AcDbRegAppTableRecord
  2
ACAD
 70
     0
  0
ENDTAB
  0
TABLE
  2
DIMSTYLE
  5
A
330
0
100
AcDbSymbolTable
 70
     1
100
AcDbDimStyleTable
 71
     0
  0
DIMSTYLE
105
27
330
A
100
AcDbSymbolTableRecord
100
AcDbDimStyleTableRecord
  2
ISO-25
 70
    64
  3

  4

 40
1.0
 41
2.5
 42
0.625
 43
3.75
 44
1.25
 45
0.0
 46
0.0
 47
0.0
 48
0.0
 71
     0
 72
     0
 73
     0
 74
     0
 75
     0
 76
     0
 77
     1
 78
     8
 79
     0
140
2.5
141
2.5
142
0.0
143
0.039370079
144
1.0
145
0.0
146
1.0
147
0.625
148
0.0
170
     0
171
     3
172
     1
173
     0
174
     0
175
     0
176
     0
177
     0
178
     0
179
     0
270
     2
271
     2
272
     2
273
     2
274
     3
275
     0
276
     0
277
     2
278
    46
279
     0
280
     0
281
     0
282
     0
283
     1
284
     8
285
     0
286
     0
288
     0
289
     3
340
11
341
0
342
0
343
0
344
0
371
    -2
372
    -2
  0
ENDTAB
  0
TABLE
  2
BLOCK_RECORD
  5
1
330
0
100
AcDbSymbolTable
 70
     3
  0
BLOCK_RECORD
  5
1F
330
1
100
AcDbSymbolTableRecord
100
AcDbBlockTableRecord
  2
*Model_Space
340
22
  0
BLOCK_RECORD
  5
1B
330
1
100
AcDbSymbolTableRecord
100
AcDbBlockTableRecord
  2
*Paper_Space
340
1E
  0
BLOCK_RECORD
  5
23
330
1
100
AcDbSymbolTableRecord
100
AcDbBlockTableRecord
  2
*Paper_Space0
340
26
  0
ENDTAB
  0
ENDSEC
  0
SECTION
  2
BLOCKS
  0
BLOCK
  5
1C
330
1B
100
AcDbEntity
 67
     1
  8
0
100
AcDbBlockBegin
  2
*Paper_Space
 70
     0
 10
0.0
 20
0.0
 30
0.0
  3
*Paper_Space
  1

  0
ENDBLK
  5
1D
330
1B
100
AcDbEntity
  8
0
100
AcDbBlockEnd
  0
BLOCK
  5
20
330
1F
100
AcDbEntity
  8
0
100
AcDbBlockBegin
  2
*Model_Space
 70
     0
 10
0.0
 20
0.0
 30
0.0
  3
*Model_Space
  1

  0
ENDBLK
  5
21
330
1F
100
AcDbEntity
  8
0
100
AcDbBlockEnd
  0
BLOCK
  5
24
330
23
100
AcDbEntity
 67
     1
  8
0
100
AcDbBlockBegin
  2
*Paper_Space0
 70
     0
 10
0.0
 20
0.0
 30
0.0
  3
*Paper_Space0
  1

  0
ENDBLK
  5
25
330
23
100
AcDbEntity
  8
0
100
AcDbBlockEnd
  0
ENDSEC
  0
SECTION
  2
ENTITIES
  0
LINE
  5
AA
330
1F
100
AcDbEntity
  8
9
  6
LTYPE1
 62
     2
100
AcDbLine
 10
703.44625
 20
692.950279063
 30
0.0
 11
703.44625
 21
692.950279063
 31
0.0
  0
LINE
  5
AB
330
1F
100
AcDbEntity
  8
9
  6
LTYPE1
 62
     2
100
AcDbLine
 10
703.44625
 20
692.95
 30
0.0
 11
703.44625
 21
692.95
 31
0.0
  0
LINE
  5
AC
330
1F
100
AcDbEntity
  8
9
  6
LTYPE1
 62
     2
100
AcDbLine
 10
703.44625
 20
692.95
 30
0.0
 11
703.44625
 21
692.95
 31
0.0
  0
LINE
  5
AD
330
1F
100
AcDbEntity
  8
9
  6
LTYPE1
 62
     2
100
AcDbLine
 10
703.44625
 20
692.95
 30
0.0
 11
703.44625
 21
692.95
 31
0.0
  0
LINE
  5
AE
330
1F
100
AcDbEntity
  8
9
  6
Continuous
 62
     2
100
AcDbLine
 10
725.833333333
 20
31.666666667
 30
0.0
 11
263.333333333
 21
31.666666667
 31
0.0
  0
MTEXT
  5
AF
330
1F
100
AcDbEntity
  8
9
  6
Continuous
 62
     2
100
AcDbMText
 10
589.583333333
 20
60.416666667
 30
0.0
 40
6.25
 41
25.0
 71
     1
 72
     3
  1
\W1.000;仕上
  7
KANJI0
 73
     1
 44
1.0
  0
LINE
  5
B1
330
1F
100
AcDbEntity
  8
9
  6
Continuous
 62
     2
100
AcDbLine
 10
588.333333333
 20
76.666666667
 30
0.0
 11
725.833333333
 21
76.666666667
 31
0.0
  0
LINE
  5
B2
330
1F
100
AcDbEntity
  8
9
  6
Continuous
 62
     2
100
AcDbLine
 10
588.333333333
 20
61.666666667
 30
0.0
 11
725.833333333
 21
61.666666667
 31
0.0
  0
MTEXT
  5
B3
330
1F
100
AcDbEntity
  8
9
  6
Continuous
 62
     2
100
AcDbMText
 10
589.583333333
 20
75.416666667
 30
0.0
 40
6.25
 41
25.0
 71
     1
 72
     3
  1
\W1.000;規格
  7
KANJI0
 73
     1
 44
1.0
  0
MTEXT
  5
B4
330
1F
100
AcDbEntity
  8
9
  6
Continuous
 62
     2
100
AcDbMText
 10
589.583333333
 20
90.416666667
 30
0.0
 40
6.25
 41
25.0
 71
     1
 72
     3
  1
\W1.000;材質
  7
KANJI0
 73
     1
 44
1.0
  0
MTEXT
  5
B5
330
1F
100
AcDbEntity
  8
9
  6
Continuous
 62
     2
100
AcDbMText
 10
589.583333333
 20
105.416666667
 30
0.0
 40
6.25
 41
25.0
 71
     1
 72
     3
  1
\W1.000;品番
  7
KANJI1
 73
     1
 44
1.0
  0
MTEXT
  5
B7
330
1F
100
AcDbEntity
  8
9
  6
Continuous
 62
     2
100
AcDbMText
 10
589.583333333
 20
120.416666667
 30
0.0
 40
6.25
 41
25.0
 71
     1
 72
     3
  1
\W1.000;図名
  7
KANJI0
 73
     1
 44
1.0
  0
LINE
  5
B8
330
1F
100
AcDbEntity
  8
9
  6
Continuous
 62
     2
100
AcDbLine
 10
588.333333333
 20
91.666666667
 30
0.0
 11
725.833333333
 21
91.666666667
 31
0.0
  0
LINE
  5
B9
330
1F
100
AcDbEntity
  8
9
  6
Continuous
 62
     2
100
AcDbLine
 10
588.333333333
 20
106.666666667
 30
0.0
 11
725.833333333
 21
106.666666667
 31
0.0
  0
LINE
  5
BA
330
1F
100
AcDbEntity
  8
9
  6
Continuous
 62
     2
100
AcDbLine
 10
588.333333333
 20
121.666666667
 30
0.0
 11
725.833333333
 21
121.666666667
 31
0.0
  0
LINE
  5
BB
330
1F
100
AcDbEntity
  8
9
  6
Continuous
 62
     2
100
AcDbLine
 10
533.333333333
 20
31.666666667
 30
0.0
 11
533.333333333
 21
16.666666667
 31
0.0
  0
MTEXT
  5
BC
330
1F
100
AcDbEntity
  8
9
  6
Continuous
 62
     2
100
AcDbMText
 10
534.583333333
 20
30.416666667
 30
0.0
 40
6.25
 41
25.0
 71
     1
 72
     3
  1
\W1.000;日付
  7
KANJI0
 73
     1
 44
1.0
  0
LINE
  5
BD
330
1F
100
AcDbEntity
  8
9
  6
Continuous
 62
     2
100
AcDbLine
 10
588.333333333
 20
16.666666667
 30
0.0
 11
588.333333333
 21
121.666666667
 31
0.0
  0
MTEXT
  5
BE
330
1F
100
AcDbEntity
  8
9
  6
Continuous
 62
     2
100
AcDbMText
 10
534.583333333
 20
45.416666667
 30
0.0
 40
6.25
 41
25.0
 71
     1
 72
     3
  1
\W1.000;尺度
  7
KANJI0
 73
     1
 44
1.0
  0
LINE
  5
BF
330
1F
100
AcDbEntity
  8
9
  6
Continuous
 62
     2
100
AcDbLine
 10
533.333333333
 20
46.666666667
 30
0.0
 11
725.833333333
 21
46.666666667
 31
0.0
  0
MTEXT
  5
C0
330
1F
100
AcDbEntity
  8
9
  6
Continuous
 62
     2
100
AcDbMText
 10
589.583333333
 20
30.416666667
 30
0.0
 40
6.25
 41
25.0
 71
     1
 72
     3
  1
\W1.000;品名
  7
KANJI0
 73
     1
 44
1.0
  0
MTEXT
  5
C1
330
1F
100
AcDbEntity
  8
9
  6
Continuous
 62
     2
100
AcDbMText
 10
589.583333333
 20
45.416666667
 30
0.0
 40
4.166666667
 41
25.0
 71
     1
 72
     3
  1
\W1.500;その他
  7
KANJI2
 73
     1
 44
1.0
  0
MTEXT
  5
C3
330
1F
100
AcDbEntity
  8
9
  6
Continuous
 62
     2
100
AcDbMText
 10
603.333333333
 20
79.666666667
 30
0.0
 40
7.5
 41
43.5
 71
     7
 72
     1
  1
\T1.111;\W0.900;－－－
  7
KANJI3
 73
     1
 44
1.0
  0
MTEXT
  5
C5
330
1F
100
AcDbEntity
  8
9
  6
Continuous
 62
     2
100
AcDbMText
 10
603.333333333
 20
64.666666667
 30
0.0
 40
7.5
 41
43.5
 71
     7
 72
     1
  1
\T1.111;\W0.900;－－－
  7
KANJI3
 73
     1
 44
1.0
  0
MTEXT
  5
C6
330
1F
100
AcDbEntity
  8
9
  6
Continuous
 62
     2
100
AcDbMText
 10
603.333333333
 20
49.666666667
 30
0.0
 40
7.5
 41
43.5
 71
     7
 72
     1
  1
\T1.111;\W0.900;－－－
  7
KANJI3
 73
     1
 44
1.0
  0
MTEXT
  5
C7
330
1F
100
AcDbEntity
  8
9
  6
Continuous
 62
     2
100
AcDbMText
 10
603.333333333
 20
34.666666667
 30
0.0
 40
7.5
 41
43.5
 71
     7
 72
     1
  1
\T1.111;\W0.900;－－－
  7
KANJI3
 73
     1
 44
1.0
  0
POINT
  5
C8
330
1F
100
AcDbEntity
  8
9
  6
Continuous
 62
     2
100
AcDbPoint
 10
725.833333333
 20
121.666666667
 30
0.0
  0
LINE
  5
C9
330
1F
100
AcDbEntity
  8
9
  6
Continuous
 62
     2
100
AcDbLine
 10
533.333333333
 20
61.666666667
 30
0.0
 11
588.333333333
 21
61.666666667
 31
0.0
  0
LINE
  5
CA
330
1F
100
AcDbEntity
  8
9
  6
Continuous
 62
     2
100
AcDbLine
 10
533.333333333
 20
61.666666667
 30
0.0
 11
533.333333333
 21
31.666666667
 31
0.0
  0
MTEXT
  5
CB
330
1F
100
AcDbEntity
  8
9
  6
Continuous
 62
     2
100
AcDbMText
 10
534.583333333
 20
60.416666667
 30
0.0
 40
6.25
 41
25.0
 71
     1
 72
     3
  1
\W1.000;用紙
  7
KANJI0
 73
     1
 44
1.0
  0
MTEXT
  5
CC
330
1F
100
AcDbEntity
  8
9
  6
Continuous
 62
     2
100
AcDbMText
 10
265.833333333
 20
20.416666667
 30
0.0
 40
7.5
 41
200.0
 71
     7
 72
     1
  1
\T1.370;\W1.000;オオハシ産業株式会社
  7
KANJI4
 73
     1
 44
1.0
  0
LINE
  5
CE
330
1F
100
AcDbEntity
  8
9
  6
Continuous
 62
     2
100
AcDbLine
 10
370.833333333
 20
31.666666667
 30
0.0
 11
370.833333333
 21
16.666666667
 31
0.0
  0
MTEXT
  5
CF
330
1F
100
AcDbEntity
  8
9
  6
Continuous
 62
     2
100
AcDbMText
 10
372.083333333
 20
30.416666667
 30
0.0
 40
6.25
 41
25.0
 71
     1
 72
     3
  1
\W1.000;作図
  7
KANJI0
 73
     1
 44
1.0
  0
LINE
  5
D0
330
1F
100
AcDbEntity
  8
9
  6
Continuous
 62
     2
100
AcDbLine
 10
420.833333333
 20
16.666666667
 30
0.0
 11
420.833333333
 21
31.666666667
 31
0.0
  0
MTEXT
  5
D1
330
1F
100
AcDbEntity
  8
9
  6
Continuous
 62
     2
100
AcDbMText
 10
423.333333333
 20
20.416666667
 30
0.0
 40
7.5
 41
23.25
 71
     7
 72
     1
  1
\T1.111;\W0.900;ＦＤ＝
  7
KANJI5
 73
     1
 44
1.0
  0
LINE
  5
D3
330
1F
100
AcDbEntity
  8
9
  6
Continuous
 62
     2
100
AcDbLine
 10
470.833333333
 20
16.666666667
 30
0.0
 11
470.833333333
 21
31.666666667
 31
0.0
  0
MTEXT
  5
D4
330
1F
100
AcDbEntity
  8
9
  6
Continuous
 62
     2
100
AcDbMText
 10
473.333333333
 20
20.416666667
 30
0.0
 40
7.5
 41
23.25
 71
     7
 72
     1
  1
\T1.111;\W0.900;ＮＯ＝
  7
KANJI5
 73
     1
 44
1.0
  0
LINE
  5
D5
330
1F
100
AcDbEntity
  8
9
  6
Continuous
 62
     2
100
AcDbLine
 10
263.333333333
 20
16.666666667
 30
0.0
 11
263.333333333
 21
31.666666667
 31
0.0
  0
MTEXT
  5
D6
330
1F
100
AcDbEntity
  8
9
  6
Continuous
 62
     2
100
AcDbMText
 10
380.833333333
 20
19.666666667
 30
0.0
 40
7.5
 41
73.5
 71
     7
 72
     1
  1
\T1.111;\W0.900;大橋　一之
  7
KANJI3
 73
     1
 44
1.0
  0
MTEXT
  5
D7
330
1F
100
AcDbEntity
  8
9
  6
Continuous
 62
     2
100
AcDbMText
 10
543.333333333
 20
19.666666667
 30
0.0
 40
7.5
 41
81.0
 71
     7
 72
     1
  1
\T1.111;\W0.900;２０１５／０２／１７
  7
KANJI5
 73
     1
 44
1.0
  0
MTEXT
  5
D8
330
1F
100
AcDbEntity
  8
9
  6
Continuous
 62
     2
100
AcDbMText
 10
439.833333333
 20
19.666666667
 30
0.0
 40
7.5
 41
43.5
 71
     7
 72
     1
  1
\T1.111;\W0.900;ヒビノ
  7
KANJI3
 73
     1
 44
1.0
  0
MTEXT
  5
D9
330
1F
100
AcDbEntity
  8
9
  6
Continuous
 62
     2
100
AcDbMText
 10
553.333333333
 20
49.666666667
 30
0.0
 40
7.5
 41
28.5
 71
     7
 72
     1
  1
\T1.111;\W0.900;Ａ４
  7
KANJI3
 73
     1
 44
1.0
  0
LINE
  5
DA
330
1F
100
AcDbEntity
  8
9
  6
Continuous
 62
     2
100
AcDbLine
 10
16.666666667
 20
16.666666667
 30
0.0
 11
16.666666667
 21
508.333333333
 31
0.0
  0
LINE
  5
DB
330
1F
100
AcDbEntity
  8
9
  6
Continuous
 62
     2
100
AcDbLine
 10
16.666666667
 20
16.666666667
 30
0.0
 11
725.833333333
 21
16.666666667
 31
0.0
  0
LINE
  5
DC
330
1F
100
AcDbEntity
  8
9
  6
Continuous
 62
     2
100
AcDbLine
 10
725.833333333
 20
16.666666667
 30
0.0
 11
725.833333333
 21
508.333333333
 31
0.0
  0
LINE
  5
DD
330
1F
100
AcDbEntity
  8
9
  6
Continuous
 62
     2
100
AcDbLine
 10
16.666666667
 20
508.333333333
 30
0.0
 11
725.833333333
 21
508.333333333
 31
0.0
  0
MTEXT
  5
DE
330
1F
100
AcDbEntity
  8
9
  6
Continuous
 62
     2
100
AcDbMText
 10
553.333333333
 20
34.666666667
 30
0.0
 40
7.5
 41
43.5
 71
     7
 72
     1
  1
\T1.111;\W0.900;２／５
  7
KANJI3
 73
     1
 44
1.0
  0
MTEXT
  5
DF
330
1F
100
AcDbEntity
  8
9
  6
Continuous
 62
     2
100
AcDbMText
 10
603.333333333
 20
19.666666667
 30
0.0
 40
7.5
 41
239.25
 71
     7
 72
     1
  1
\T1.111;\W0.687;ＣＶ１００　ＣＢＴ５０／１００ＬＡ用壁金具
  7
KANJI3
 73
     1
 44
1.0
  0
MTEXT
  5
E0
330
1F
100
AcDbEntity
  8
9
  6
Continuous
 62
     2
100
AcDbMText
 10
603.333333333
 20
109.666666667
 30
0.0
 40
7.5
 41
99.75
 71
     7
 72
     1
  1
\T1.111;\W0.672;ＣＶ１００　全体図
  7
KANJI3
 73
     1
 44
1.0
  0
MTEXT
  5
E1
330
1F
100
AcDbEntity
  8
9
  6
Continuous
 62
     2
100
AcDbMText
 10
603.333333333
 20
94.666666667
 30
0.0
 40
7.5
 41
39.75
 71
     7
 72
     1
  1
\T1.111;\W0.900;ＣＶ１００
  7
KANJI5
 73
     1
 44
1.0
  0
MTEXT
  5
E2
330
1F
100
AcDbEntity
  8
9
  6
Continuous
 62
     2
100
AcDbMText
 10
490.833333333
 20
19.666666667
 30
0.0
 40
7.5
 41
72.75
 71
     7
 72
     1
  1
\T1.111;\W0.900;ＣＶ１００－０００
  7
KANJI5
 73
     1
 44
1.0
  0
LINE
  5
E3
330
1F
100
AcDbEntity
  8
3
  6
Continuous
 62
     1
100
AcDbLine
 10
342.138
 20
157.813857919
 30
0.0
 11
342.138
 21
177.813857919
 31
0.0
  0
LINE
  5
E4
330
1F
100
AcDbEntity
  8
3
  6
Continuous
 62
     1
100
AcDbLine
 10
345.338
 20
177.813857919
 30
0.0
 11
342.138
 21
177.813857919
 31
0.0
  0
LINE
  5
E5
330
1F
100
AcDbEntity
  8
5
  6
Continuous
 62
     1
100
AcDbLine
 10
372.438
 20
310.513857919
 30
0.0
 11
375.638
 21
310.513857919
 31
0.0
  0
ARC
  5
E6
330
1F
100
AcDbEntity
  8
5
  6
Continuous
 62
     1
100
AcDbCircle
 10
369.838
 20
334.713857919
 30
0.0
 40
2.6
100
AcDbArc
 50
0.0
 51
90.0
  0
ARC
  5
E7
330
1F
100
AcDbEntity
  8
5
  6
Continuous
 62
     1
100
AcDbCircle
 10
369.838
 20
334.713857919
 30
0.0
 40
5.8
100
AcDbArc
 50
0.0
 51
90.0
  0
LINE
  5
E8
330
1F
100
AcDbEntity
  8
5
  6
Continuous
 62
     1
100
AcDbLine
 10
372.438
 20
127.313857919
 30
0.0
 11
375.638
 21
127.313857919
 31
0.0
  0
ARC
  5
E9
330
1F
100
AcDbEntity
  8
5
  6
Continuous
 62
     1
100
AcDbCircle
 10
369.838
 20
151.513857919
 30
0.0
 40
5.8
100
AcDbArc
 50
0.0
 51
90.0
  0
ARC
  5
EA
330
1F
100
AcDbEntity
  8
5
  6
Continuous
 62
     1
100
AcDbCircle
 10
369.838
 20
151.513857919
 30
0.0
 40
2.6
100
AcDbArc
 50
0.0
 51
89.999762231
  0
LINE
  5
EB
330
1F
100
AcDbEntity
  8
5
  6
Continuous
 62
     1
100
AcDbLine
 10
317.638
 20
154.113857919
 30
0.0
 11
317.638
 21
157.313857919
 31
0.0
  0
LINE
  5
EC
330
1F
100
AcDbEntity
  8
5
  6
Continuous
 62
     1
100
AcDbLine
 10
317.638
 20
340.513857919
 30
0.0
 11
369.838
 21
340.513857919
 31
0.0
  0
LINE
  5
ED
330
1F
100
AcDbEntity
  8
5
  6
Continuous
 62
     1
100
AcDbLine
 10
317.638
 20
157.313857919
 30
0.0
 11
369.838
 21
157.313857919
 31
0.0
  0
LINE
  5
EE
330
1F
100
AcDbEntity
  8
5
  6
Continuous
 62
     1
100
AcDbLine
 10
317.638
 20
154.113857919
 30
0.0
 11
369.83801079
 21
154.113857919
 31
0.0
  0
ARC
  5
EF
330
1F
100
AcDbEntity
  8
6
  6
Continuous
 62
     1
100
AcDbCircle
 10
382.238
 20
328.913857919
 30
0.0
 40
2.6
100
AcDbArc
 50
0.0
 51
90.0
  0
ARC
  5
F0
330
1F
100
AcDbEntity
  8
6
  6
Continuous
 62
     1
100
AcDbCircle
 10
382.238
 20
154.113857919
 30
0.0
 40
2.6
100
AcDbArc
 50
270.0
 51
0.0
  0
LINE
  5
F1
330
1F
100
AcDbEntity
  8
6
  6
Continuous
 62
     1
100
AcDbLine
 10
384.838
 20
151.513857919
 30
0.0
 11
388.038
 21
151.513857919
 31
0.0
  0
ARC
  5
F2
330
1F
100
AcDbEntity
  8
6
  6
Continuous
 62
     1
100
AcDbCircle
 10
382.238
 20
154.113857919
 30
0.0
 40
5.8
100
AcDbArc
 50
270.0
 51
333.366881251
  0
LINE
  5
F3
330
1F
100
AcDbEntity
  8
6
  6
Continuous
 62
     1
100
AcDbLine
 10
384.838
 20
331.513857919
 30
0.0
 11
384.838
 21
151.513857919
 31
0.0
  0
ARC
  5
F4
330
1F
100
AcDbEntity
  8
6
  6
Continuous
 62
     1
100
AcDbCircle
 10
382.238
 20
328.913857919
 30
0.0
 40
5.8
100
AcDbArc
 50
26.633118749
 51
90.0
  0
LWPOLYLINE
  5
F6
330
1F
100
AcDbEntity
  8
6
  6
Continuous
 62
     1
100
AcDbPolyline
 90
     3
 70
   128
 43
0.0
 10
384.838
 20
331.513857919
 10
388.038
 20
331.513857919
 10
388.038
 20
151.513857919
  0
LINE
  5
F7
330
1F
100
AcDbEntity
  8
6
  6
Continuous
 62
     1
100
AcDbLine
 10
353.038
 20
334.713857919
 30
0.0
 11
353.038
 21
331.513857919
 31
0.0
  0
LINE
  5
F8
330
1F
100
AcDbEntity
  8
6
  6
Continuous
 62
     1
100
AcDbLine
 10
353.038
 20
151.513857919
 30
0.0
 11
353.038
 21
148.313857919
 31
0.0
  0
LINE
  5
F9
330
1F
100
AcDbEntity
  8
6
  6
Continuous
 62
     1
100
AcDbLine
 10
353.038
 20
331.513857919
 30
0.0
 11
382.238
 21
331.513857919
 31
0.0
  0
LINE
  5
FA
330
1F
100
AcDbEntity
  8
6
  6
Continuous
 62
     1
100
AcDbLine
 10
353.038
 20
151.513857919
 30
0.0
 11
382.238
 21
151.513857919
 31
0.0
  0
LINE
  5
FB
330
1F
100
AcDbEntity
  8
6
  6
Continuous
 62
     1
100
AcDbLine
 10
353.038
 20
148.313857919
 30
0.0
 11
382.238
 21
148.313857919
 31
0.0
  0
LINE
  5
FC
330
1F
100
AcDbEntity
  8
6
  6
Continuous
 62
     1
100
AcDbLine
 10
353.038
 20
334.713857919
 30
0.0
 11
382.238
 21
334.713857919
 31
0.0
  0
ARC
  5
FD
330
1F
100
AcDbEntity
  8
10
  6
Continuous
 62
     1
100
AcDbCircle
 10
361.038
 20
344.313857919
 30
0.0
 40
3.0
100
AcDbArc
 50
0.0
 51
90.0
  0
LINE
  5
FE
330
1F
100
AcDbEntity
  8
10
  6
Continuous
 62
     1
100
AcDbLine
 10
351.038
 20
347.313857919
 30
0.0
 11
361.038
 21
347.313857919
 31
0.0
  0
ARC
  5
FF
330
1F
100
AcDbEntity
  8
10
  6
Continuous
 62
     1
100
AcDbCircle
 10
351.038
 20
344.313857919
 30
0.0
 40
3.0
100
AcDbArc
 50
90.0
 51
180.0
  0
LINE
  5
100
330
1F
100
AcDbEntity
  8
10
  6
Continuous
 62
     1
100
AcDbLine
 10
351.038
 20
147.313857919
 30
0.0
 11
361.038
 21
147.313857919
 31
0.0
  0
ARC
  5
101
330
1F
100
AcDbEntity
  8
10
  6
Continuous
 62
     1
100
AcDbCircle
 10
351.038
 20
150.313857919
 30
0.0
 40
3.0
100
AcDbArc
 50
180.0
 51
270.0
  0
LINE
  5
102
330
1F
100
AcDbEntity
  8
10
  6
Continuous
 62
     1
100
AcDbLine
 10
356.038005395
 20
154.113857919
 30
0.0
 11
364.038
 21
154.113857919
 31
0.0
  0
LINE
  5
103
330
1F
100
AcDbEntity
  8
10
  6
Continuous
 62
     1
100
AcDbLine
 10
356.038005395
 20
157.313857919
 30
0.0
 11
364.038
 21
157.313857919
 31
0.0
  0
LINE
  5
104
330
1F
100
AcDbEntity
  8
10
  6
Continuous
 62
     1
100
AcDbLine
 10
356.038005395
 20
340.513857919
 30
0.0
 11
364.038
 21
340.513857919
 31
0.0
  0
LINE
  5
105
330
1F
100
AcDbEntity
  8
10
  6
Continuous
 62
     1
100
AcDbLine
 10
356.038005395
 20
337.313857919
 30
0.0
 11
364.038
 21
337.313857919
 31
0.0
  0
LINE
  5
106
330
1F
100
AcDbEntity
  8
0
  6
Continuous
 62
     1
100
AcDbLine
 10
266.638
 20
343.313857919
 30
0.0
 11
266.638
 21
367.313857919
 31
0.0
  0
LINE
  5
107
330
1F
100
AcDbEntity
  8
0
  6
Continuous
 62
     1
100
AcDbLine
 10
264.638
 20
343.313857919
 30
0.0
 11
264.638
 21
367.313857919
 31
0.0
  0
LINE
  5
108
330
1F
100
AcDbEntity
  8
0
  6
Continuous
 62
     1
100
AcDbLine
 10
264.638
 20
343.313857919
 30
0.0
 11
279.638
 21
343.313857919
 31
0.0
  0
ARC
  5
109
330
1F
100
AcDbEntity
  8
0
  6
Continuous
 62
     1
100
AcDbCircle
 10
279.638
 20
333.313857919
 30
0.0
 40
10.0
100
AcDbArc
 50
0.0
 51
90.0
  0
LINE
  5
10A
330
1F
100
AcDbEntity
  8
0
  6
Continuous
 62
     1
100
AcDbLine
 10
266.638
 20
151.313857919
 30
0.0
 11
266.638
 21
127.313857919
 31
0.0
  0
LINE
  5
10B
330
1F
100
AcDbEntity
  8
0
  6
Continuous
 62
     1
100
AcDbLine
 10
264.638
 20
151.313857919
 30
0.0
 11
264.638
 21
127.313857919
 31
0.0
  0
LINE
  5
10C
330
1F
100
AcDbEntity
  8
0
  6
Continuous
 62
     1
100
AcDbLine
 10
264.638
 20
151.313857919
 30
0.0
 11
279.638
 21
151.313857919
 31
0.0
  0
LINE
  5
10D
330
1F
100
AcDbEntity
  8
0
  6
Continuous
 62
     1
100
AcDbLine
 10
289.638
 20
333.313857919
 30
0.0
 11
289.638
 21
161.313857919
 31
0.0
  0
ARC
  5
10E
330
1F
100
AcDbEntity
  8
0
  6
Continuous
 62
     1
100
AcDbCircle
 10
279.638
 20
161.313857919
 30
0.0
 40
10.0
100
AcDbArc
 50
270.0
 51
0.0
  0
CIRCLE
  5
10F
330
1F
100
AcDbEntity
  8
0
  6
Continuous
 62
     1
100
AcDbCircle
 10
314.000437088
 20
302.237711296
 30
0.0
 40
3.25
  0
CIRCLE
  5
110
330
1F
100
AcDbEntity
  8
0
  6
Continuous
 62
     1
100
AcDbCircle
 10
319.403906324
 20
316.972824955
 30
0.0
 40
3.25
  0
CIRCLE
  5
111
330
1F
100
AcDbEntity
  8
0
  6
Continuous
 62
     1
100
AcDbCircle
 10
322.704057908
 20
301.62909484
 30
0.0
 40
3.25
  0
CIRCLE
  5
112
330
1F
100
AcDbEntity
  8
0
  6
Continuous
 62
     1
100
AcDbCircle
 10
329.122234134
 20
315.951387542
 30
0.0
 40
3.25
  0
CIRCLE
  5
113
330
1F
100
AcDbEntity
  8
0
  6
Continuous
 62
     1
100
AcDbCircle
 10
331.344022208
 20
300.414827045
 30
0.0
 40
3.25
  0
ARC
  5
114
330
1F
100
AcDbEntity
  8
0
  6
Continuous
 62
     1
100
AcDbCircle
 10
339.726050404
 20
319.157818745
 30
0.0
 40
10.0
100
AcDbArc
 50
350.000060881
 51
78.023891714
  0
LINE
  5
115
330
1F
100
AcDbEntity
  8
0
  6
Continuous
 62
     1
100
AcDbLine
 10
314.638
 20
355.313857919
 30
0.0
 11
314.638
 21
350.518938675
 31
0.0
  0
ARC
  5
116
330
1F
100
AcDbEntity
  8
0
  6
Continuous
 62
     1
100
AcDbCircle
 10
334.638
 20
350.518938675
 30
0.0
 40
20.0
100
AcDbArc
 50
180.0
 51
261.786789298
  0
ARC
  5
117
330
1F
100
AcDbEntity
  8
0
  6
Continuous
 62
     1
100
AcDbCircle
 10
309.638
 20
177.313857919
 30
0.0
 40
155.0
100
AcDbArc
 50
78.023891714
 51
81.786789298
  0
LINE
  5
118
330
1F
100
AcDbEntity
  8
0
  6
Continuous
 62
     1
100
AcDbLine
 10
349.574129779
 20
317.421347432
 30
0.0
 11
324.410116948
 21
174.709138953
 31
0.0
  0
ARC
  5
119
330
1F
100
AcDbEntity
  8
0
  6
Continuous
 62
     1
100
AcDbCircle
 10
309.638
 20
177.313857919
 30
0.0
 40
15.0
100
AcDbArc
 50
315.584720841
 51
350.00001435
  0
ARC
  5
11A
330
1F
100
AcDbEntity
  8
0
  6
Continuous
 62
     1
100
AcDbCircle
 10
334.638
 20
152.818960491
 30
0.0
 40
20.0
100
AcDbArc
 50
135.584669324
 51
179.999992269
  0
LINE
  5
11B
330
1F
100
AcDbEntity
  8
0
  6
Continuous
 62
     1
100
AcDbLine
 10
314.638
 20
152.818963188
 30
0.0
 11
314.638
 21
139.313857919
 31
0.0
  0
ARC
  5
11C
330
1F
100
AcDbEntity
  8
0
  6
Continuous
 62
     1
100
AcDbCircle
 10
302.638
 20
355.313857919
 30
0.0
 40
12.0
100
AcDbArc
 50
0.0
 51
89.999948483
  0
LINE
  5
11D
330
1F
100
AcDbEntity
  8
0
  6
Continuous
 62
     1
100
AcDbLine
 10
264.638
 20
367.313857919
 30
0.0
 11
302.63801079
 21
367.313857919
 31
0.0
  0
LWPOLYLINE
  5
120
330
1F
100
AcDbEntity
  8
0
  6
Continuous
 62
     1
100
AcDbPolyline
 90
     3
 70
   128
 43
0.0
 10
264.638
 20
127.313857919
 42
0.0
 10
302.638
 20
127.313857919
 42
0.414213562
 10
314.638
 20
139.313857919
 42
0.0
  0
CIRCLE
  5
121
330
1F
100
AcDbEntity
  8
0
  6
Continuous
 62
     2
100
AcDbCircle
 10
280.638
 20
355.313857919
 30
0.0
 40
3.6
  0
CIRCLE
  5
122
330
1F
100
AcDbEntity
  8
0
  6
Continuous
 62
     2
100
AcDbCircle
 10
292.638
 20
355.313857919
 30
0.0
 40
3.6
  0
CIRCLE
  5
123
330
1F
100
AcDbEntity
  8
0
  6
Continuous
 62
     2
100
AcDbCircle
 10
280.638
 20
139.313857919
 30
0.0
 40
3.6
  0
CIRCLE
  5
124
330
1F
100
AcDbEntity
  8
0
  6
Continuous
 62
     2
100
AcDbCircle
 10
292.638
 20
139.313857919
 30
0.0
 40
3.6
  0
ARC
  5
125
330
1F
100
AcDbEntity
  8
3
  6
Continuous
 62
     1
100
AcDbCircle
 10
309.638
 20
302.313857919
 30
0.0
 40
4.6
100
AcDbArc
 50
316.58341382
 51
41.41658618
  0
ARC
  5
126
330
1F
100
AcDbEntity
  8
3
  6
Continuous
 62
     2
100
AcDbCircle
 10
309.638
 20
302.313857919
 30
0.0
 40
3.0
100
AcDbArc
 50
310.874210746
 51
47.125789254
  0
LINE
  5
127
330
1F
100
AcDbEntity
  8
3
  6
Continuous
 62
     1
100
AcDbLine
 10
342.138
 20
336.813857919
 30
0.0
 11
320.07191743
 21
336.813857919
 31
0.0
  0
LINE
  5
128
330
1F
100
AcDbEntity
  8
3
  6
Continuous
 62
     1
100
AcDbLine
 10
342.138
 20
328.862585571
 30
0.0
 11
342.138
 21
336.813857919
 31
0.0
  0
LINE
  5
129
330
1F
100
AcDbEntity
  8
3
  6
Continuous
 62
     1
100
AcDbLine
 10
345.338
 20
177.813857919
 30
0.0
 11
345.338
 21
293.397061632
 31
0.0
  0
LINE
  5
12B
330
1F
100
AcDbEntity
  8
3
  6
LTYPE2
 62
     2
100
AcDbLine
 10
345.338
 20
316.813857919
 30
0.0
 11
342.138
 21
316.813857919
 31
0.0
  0
LINE
  5
12C
330
1F
100
AcDbEntity
  8
3
  6
LTYPE2
 62
     2
100
AcDbLine
 10
342.138
 20
316.813857919
 30
0.0
 11
342.138
 21
328.862585571
 31
0.0
  0
LINE
  5
12D
330
1F
100
AcDbEntity
  8
3
  6
LTYPE2
 62
     2
100
AcDbLine
 10
345.338
 20
293.397061632
 30
0.0
 11
345.338
 21
316.813857919
 31
0.0
  0
LINE
  5
12E
330
1F
100
AcDbEntity
  8
3
  6
LTYPE2
 62
     2
100
AcDbLine
 10
320.07191743
 20
336.813857919
 30
0.0
 11
299.038
 21
336.813857919
 31
0.0
  0
LINE
  5
12F
330
1F
100
AcDbEntity
  8
3
  6
Continuous
 62
     1
100
AcDbLine
 10
342.138
 20
157.813857919
 30
0.0
 11
315.271766508
 21
157.813857919
 31
0.0
  0
LINE
  5
130
330
1F
100
AcDbEntity
  8
3
  6
LTYPE2
 62
     2
100
AcDbLine
 10
295.838
 20
333.613857919
 30
0.0
 11
295.838
 21
161.013857919
 31
0.0
  0
LINE
  5
131
330
1F
100
AcDbEntity
  8
3
  6
LTYPE2
 62
     2
100
AcDbLine
 10
315.271766508
 20
157.813857919
 30
0.0
 11
299.038
 21
157.813857919
 31
0.0
  0
LINE
  5
132
330
1F
100
AcDbEntity
  8
3
  6
LTYPE2
 62
     2
100
AcDbLine
 10
299.038
 20
161.013857919
 30
0.0
 11
295.838
 21
161.013857919
 31
0.0
  0
LINE
  5
133
330
1F
100
AcDbEntity
  8
3
  6
LTYPE2
 62
     2
100
AcDbLine
 10
299.038
 20
157.813857919
 30
0.0
 11
299.038
 21
161.013857919
 31
0.0
  0
LINE
  5
134
330
1F
100
AcDbEntity
  8
3
  6
LTYPE2
 62
     2
100
AcDbLine
 10
299.038
 20
333.613857919
 30
0.0
 11
295.838
 21
333.613857919
 31
0.0
  0
LINE
  5
135
330
1F
100
AcDbEntity
  8
3
  6
LTYPE2
 62
     2
100
AcDbLine
 10
299.038
 20
336.813857919
 30
0.0
 11
299.038
 21
333.613857919
 31
0.0
  0
CIRCLE
  5
136
330
1F
100
AcDbEntity
  8
12
  6
Continuous
 62
     2
100
AcDbCircle
 10
309.638
 20
317.313857919
 30
0.0
 40
5.3
  0
LINE
  5
137
330
1F
100
AcDbEntity
  8
12
  6
Continuous
 62
     2
100
AcDbLine
 10
312.838
 20
317.913857919
 30
0.0
 11
312.838
 21
316.713857919
 31
0.0
  0
LINE
  5
138
330
1F
100
AcDbEntity
  8
12
  6
Continuous
 62
     2
100
AcDbLine
 10
312.838
 20
317.913857919
 30
0.0
 11
311.638
 21
317.913857919
 31
0.0
  0
LINE
  5
139
330
1F
100
AcDbEntity
  8
12
  6
Continuous
 62
     2
100
AcDbLine
 10
312.838
 20
316.713857919
 30
0.0
 11
311.638
 21
316.713857919
 31
0.0
  0
LINE
  5
13A
330
1F
100
AcDbEntity
  8
12
  6
Continuous
 62
     2
100
AcDbLine
 10
309.038
 20
320.513857919
 30
0.0
 11
310.238
 21
320.513857919
 31
0.0
  0
LINE
  5
13B
330
1F
100
AcDbEntity
  8
12
  6
Continuous
 62
     2
100
AcDbLine
 10
309.038
 20
320.513857919
 30
0.0
 11
309.038
 21
319.313857919
 31
0.0
  0
LINE
  5
13C
330
1F
100
AcDbEntity
  8
12
  6
Continuous
 62
     2
100
AcDbLine
 10
310.238
 20
320.513857919
 30
0.0
 11
310.238
 21
319.313857919
 31
0.0
  0
LINE
  5
13D
330
1F
100
AcDbEntity
  8
12
  6
Continuous
 62
     2
100
AcDbLine
 10
306.438
 20
316.713857919
 30
0.0
 11
306.438
 21
317.913857919
 31
0.0
  0
LINE
  5
13E
330
1F
100
AcDbEntity
  8
12
  6
Continuous
 62
     2
100
AcDbLine
 10
306.438
 20
316.713857919
 30
0.0
 11
307.638
 21
316.713857919
 31
0.0
  0
LINE
  5
13F
330
1F
100
AcDbEntity
  8
12
  6
Continuous
 62
     2
100
AcDbLine
 10
306.438
 20
317.913857919
 30
0.0
 11
307.638
 21
317.913857919
 31
0.0
  0
LINE
  5
140
330
1F
100
AcDbEntity
  8
12
  6
Continuous
 62
     2
100
AcDbLine
 10
310.238
 20
314.113857919
 30
0.0
 11
309.038
 21
314.113857919
 31
0.0
  0
LINE
  5
141
330
1F
100
AcDbEntity
  8
12
  6
Continuous
 62
     2
100
AcDbLine
 10
310.238
 20
314.113857919
 30
0.0
 11
310.238
 21
315.313857919
 31
0.0
  0
LINE
  5
142
330
1F
100
AcDbEntity
  8
12
  6
Continuous
 62
     2
100
AcDbLine
 10
309.038
 20
314.113857919
 30
0.0
 11
309.038
 21
315.313857919
 31
0.0
  0
ARC
  5
143
330
1F
100
AcDbEntity
  8
12
  6
Continuous
 62
     2
100
AcDbCircle
 10
307.838
 20
315.513857919
 30
0.0
 40
1.2
100
AcDbArc
 50
349.4
 51
100.6
  0
ARC
  5
144
330
1F
100
AcDbEntity
  8
12
  6
Continuous
 62
     2
100
AcDbCircle
 10
311.438
 20
315.513857919
 30
0.0
 40
1.2
100
AcDbArc
 50
79.4
 51
190.6
  0
ARC
  5
145
330
1F
100
AcDbEntity
  8
12
  6
Continuous
 62
     2
100
AcDbCircle
 10
311.438
 20
319.113857919
 30
0.0
 40
1.2
100
AcDbArc
 50
169.4
 51
280.6
  0
ARC
  5
146
330
1F
100
AcDbEntity
  8
12
  6
Continuous
 62
     2
100
AcDbCircle
 10
307.838
 20
319.113857919
 30
0.0
 40
1.2
100
AcDbArc
 50
259.4
 51
10.6
  0
CIRCLE
  5
147
330
1F
100
AcDbEntity
  8
12
  6
Continuous
 62
     2
100
AcDbCircle
 10
309.638
 20
177.313857919
 30
0.0
 40
5.3
  0
LINE
  5
148
330
1F
100
AcDbEntity
  8
12
  6
Continuous
 62
     2
100
AcDbLine
 10
312.838
 20
177.913857919
 30
0.0
 11
312.838
 21
176.713857919
 31
0.0
  0
LINE
  5
149
330
1F
100
AcDbEntity
  8
12
  6
Continuous
 62
     2
100
AcDbLine
 10
312.838
 20
177.913857919
 30
0.0
 11
311.638
 21
177.913857919
 31
0.0
  0
LINE
  5
14A
330
1F
100
AcDbEntity
  8
12
  6
Continuous
 62
     2
100
AcDbLine
 10
312.838
 20
176.713857919
 30
0.0
 11
311.638
 21
176.713857919
 31
0.0
  0
LINE
  5
14B
330
1F
100
AcDbEntity
  8
12
  6
Continuous
 62
     2
100
AcDbLine
 10
309.038
 20
180.513857919
 30
0.0
 11
310.238
 21
180.513857919
 31
0.0
  0
LINE
  5
14C
330
1F
100
AcDbEntity
  8
12
  6
Continuous
 62
     2
100
AcDbLine
 10
309.038
 20
180.513857919
 30
0.0
 11
309.038
 21
179.313857919
 31
0.0
  0
LINE
  5
14D
330
1F
100
AcDbEntity
  8
12
  6
Continuous
 62
     2
100
AcDbLine
 10
310.238
 20
180.513857919
 30
0.0
 11
310.238
 21
179.313857919
 31
0.0
  0
LINE
  5
14E
330
1F
100
AcDbEntity
  8
12
  6
Continuous
 62
     2
100
AcDbLine
 10
306.438
 20
176.713857919
 30
0.0
 11
306.438
 21
177.913857919
 31
0.0
  0
LINE
  5
14F
330
1F
100
AcDbEntity
  8
12
  6
Continuous
 62
     2
100
AcDbLine
 10
306.438
 20
176.713857919
 30
0.0
 11
307.638
 21
176.713857919
 31
0.0
  0
LINE
  5
150
330
1F
100
AcDbEntity
  8
12
  6
Continuous
 62
     2
100
AcDbLine
 10
306.438
 20
177.913857919
 30
0.0
 11
307.638
 21
177.913857919
 31
0.0
  0
LINE
  5
151
330
1F
100
AcDbEntity
  8
12
  6
Continuous
 62
     2
100
AcDbLine
 10
310.238
 20
174.113857919
 30
0.0
 11
309.038
 21
174.113857919
 31
0.0
  0
LINE
  5
152
330
1F
100
AcDbEntity
  8
12
  6
Continuous
 62
     2
100
AcDbLine
 10
310.238
 20
174.113857919
 30
0.0
 11
310.238
 21
175.313857919
 31
0.0
  0
LINE
  5
153
330
1F
100
AcDbEntity
  8
12
  6
Continuous
 62
     2
100
AcDbLine
 10
309.038
 20
174.113857919
 30
0.0
 11
309.038
 21
175.313857919
 31
0.0
  0
ARC
  5
154
330
1F
100
AcDbEntity
  8
12
  6
Continuous
 62
     2
100
AcDbCircle
 10
307.838
 20
175.513857919
 30
0.0
 40
1.2
100
AcDbArc
 50
349.4
 51
100.6
  0
ARC
  5
155
330
1F
100
AcDbEntity
  8
12
  6
Continuous
 62
     2
100
AcDbCircle
 10
311.438
 20
175.513857919
 30
0.0
 40
1.2
100
AcDbArc
 50
79.4
 51
190.6
  0
ARC
  5
156
330
1F
100
AcDbEntity
  8
12
  6
Continuous
 62
     2
100
AcDbCircle
 10
311.438
 20
179.113857919
 30
0.0
 40
1.2
100
AcDbArc
 50
169.4
 51
280.6
  0
ARC
  5
157
330
1F
100
AcDbEntity
  8
12
  6
Continuous
 62
     2
100
AcDbCircle
 10
307.838
 20
179.113857919
 30
0.0
 40
1.2
100
AcDbArc
 50
259.4
 51
10.6
  0
LWPOLYLINE
  5
159
330
1F
100
AcDbEntity
  8
12
  6
Continuous
 62
     2
100
AcDbPolyline
 90
     4
 70
   129
 43
0.0
 10
341.138
 20
154.113857919
 10
324.138
 20
154.113857919
 10
324.138
 20
152.513857919
 10
341.138
 20
152.513857919
  0
LWPOLYLINE
  5
15B
330
1F
100
AcDbEntity
  8
12
  6
Continuous
 62
     2
100
AcDbPolyline
 90
     4
 70
   129
 43
0.0
 10
324.938
 20
152.513857919
 10
324.938
 20
150.513857919
 10
340.338
 20
150.513857919
 10
340.338
 20
152.513857919
  0
LINE
  5
15C
330
1F
100
AcDbEntity
  8
12
  6
Continuous
 62
     2
100
AcDbLine
 10
340.138
 20
150.513857919
 30
0.0
 11
340.138
 21
145.913857919
 31
0.0
  0
LINE
  5
15D
330
1F
100
AcDbEntity
  8
12
  6
Continuous
 62
     2
100
AcDbLine
 10
325.138
 20
150.513857919
 30
0.0
 11
325.138
 21
145.913857919
 31
0.0
  0
LINE
  5
15E
330
1F
100
AcDbEntity
  8
12
  6
Continuous
 62
     2
100
AcDbLine
 10
328.838
 20
150.513857919
 30
0.0
 11
328.838
 21
145.913857919
 31
0.0
  0
LINE
  5
15F
330
1F
100
AcDbEntity
  8
12
  6
Continuous
 62
     2
100
AcDbLine
 10
336.438
 20
150.513857919
 30
0.0
 11
336.438
 21
145.913857919
 31
0.0
  0
LINE
  5
160
330
1F
100
AcDbEntity
  8
12
  6
Continuous
 62
     2
100
AcDbLine
 10
338.338
 20
145.213857919
 30
0.0
 11
326.938
 21
145.213857919
 31
0.0
  0
ARC
  5
161
330
1F
100
AcDbEntity
  8
12
  6
Continuous
 62
     2
100
AcDbCircle
 10
326.938
 20
148.013857919
 30
0.0
 40
2.8
100
AcDbArc
 50
228.5
 51
311.5
  0
ARC
  5
162
330
1F
100
AcDbEntity
  8
12
  6
Continuous
 62
     2
100
AcDbCircle
 10
332.638
 20
155.913857919
 30
0.0
 40
10.7
100
AcDbArc
 50
249.1
 51
290.9
  0
ARC
  5
163
330
1F
100
AcDbEntity
  8
12
  6
Continuous
 62
     2
100
AcDbCircle
 10
338.338
 20
148.013857919
 30
0.0
 40
2.8
100
AcDbArc
 50
228.5
 51
311.5
  0
LINE
  5
164
330
1F
100
AcDbEntity
  8
12
  6
Continuous
 62
     2
100
AcDbLine
 10
332.638
 20
150.513857919
 30
0.0
 11
331.483299462
 21
152.513857919
 31
0.0
  0
LINE
  5
165
330
1F
100
AcDbEntity
  8
12
  6
Continuous
 62
     2
100
AcDbLine
 10
332.638
 20
152.513857919
 30
0.0
 11
333.792700538
 21
150.513857919
 31
0.0
  0
LWPOLYLINE
  5
167
330
1F
100
AcDbEntity
  8
12
  6
Continuous
 62
     2
100
AcDbPolyline
 90
     4
 70
   129
 43
0.0
 10
324.138
 20
340.513857919
 10
341.138
 20
340.513857919
 10
341.138
 20
342.113857919
 10
324.138
 20
342.113857919
  0
LWPOLYLINE
  5
169
330
1F
100
AcDbEntity
  8
12
  6
Continuous
 62
     2
100
AcDbPolyline
 90
     4
 70
   129
 43
0.0
 10
340.338
 20
342.113857919
 10
340.338
 20
344.113857919
 10
324.938
 20
344.113857919
 10
324.938
 20
342.113857919
  0
LINE
  5
16A
330
1F
100
AcDbEntity
  8
12
  6
Continuous
 62
     2
100
AcDbLine
 10
325.138
 20
344.113857919
 30
0.0
 11
325.138
 21
348.713857919
 31
0.0
  0
LINE
  5
16B
330
1F
100
AcDbEntity
  8
12
  6
Continuous
 62
     2
100
AcDbLine
 10
340.138
 20
344.113857919
 30
0.0
 11
340.138
 21
348.713857919
 31
0.0
  0
LINE
  5
16C
330
1F
100
AcDbEntity
  8
12
  6
Continuous
 62
     2
100
AcDbLine
 10
336.438
 20
344.113857919
 30
0.0
 11
336.438
 21
348.713857919
 31
0.0
  0
LINE
  5
16D
330
1F
100
AcDbEntity
  8
12
  6
Continuous
 62
     2
100
AcDbLine
 10
328.838
 20
344.113857919
 30
0.0
 11
328.838
 21
348.713857919
 31
0.0
  0
LINE
  5
16E
330
1F
100
AcDbEntity
  8
12
  6
Continuous
 62
     2
100
AcDbLine
 10
326.938
 20
349.413857919
 30
0.0
 11
338.338
 21
349.413857919
 31
0.0
  0
ARC
  5
16F
330
1F
100
AcDbEntity
  8
12
  6
Continuous
 62
     2
100
AcDbCircle
 10
338.338
 20
346.613857919
 30
0.0
 40
2.8
100
AcDbArc
 50
48.5
 51
131.5
  0
ARC
  5
170
330
1F
100
AcDbEntity
  8
12
  6
Continuous
 62
     2
100
AcDbCircle
 10
332.638
 20
338.713857919
 30
0.0
 40
10.7
100
AcDbArc
 50
69.1
 51
110.9
  0
ARC
  5
171
330
1F
100
AcDbEntity
  8
12
  6
Continuous
 62
     2
100
AcDbCircle
 10
326.938
 20
346.613857919
 30
0.0
 40
2.8
100
AcDbArc
 50
48.5
 51
131.5
  0
LINE
  5
172
330
1F
100
AcDbEntity
  8
12
  6
Continuous
 62
     2
100
AcDbLine
 10
332.638
 20
344.113857919
 30
0.0
 11
333.792700538
 21
342.113857919
 31
0.0
  0
LINE
  5
173
330
1F
100
AcDbEntity
  8
12
  6
Continuous
 62
     2
100
AcDbLine
 10
332.638
 20
342.113857919
 30
0.0
 11
331.483299462
 21
344.113857919
 31
0.0
  0
LINE
  5
174
330
1F
100
AcDbEntity
  8
10
  6
Continuous
 62
     1
100
AcDbLine
 10
364.038
 20
344.313857919
 30
0.0
 11
364.038
 21
340.513857919
 31
0.0
  0
LINE
  5
175
330
1F
100
AcDbEntity
  8
10
  6
Continuous
 62
     2
100
AcDbLine
 10
352.988
 20
302.313861733
 30
0.0
 11
352.988
 21
282.313864526
 31
0.0
  0
ARC
  5
176
330
1F
100
AcDbEntity
  8
10
  6
Continuous
 62
     2
100
AcDbCircle
 10
354.038
 20
282.313857919
 30
0.0
 40
1.05
100
AcDbArc
 50
179.999639459
 51
0.00029438
  0
LWPOLYLINE
  5
179
330
1F
100
AcDbEntity
  8
10
  6
Continuous
 62
     2
100
AcDbPolyline
 90
     3
 70
   128
 43
0.0
 10
355.088
 20
282.313863313
 42
0.0
 10
355.088
 20
302.313861733
 42
0.999996367
 10
352.988
 20
302.313861733
 42
0.0
  0
LINE
  5
17A
330
1F
100
AcDbEntity
  8
10
  6
Continuous
 62
     2
100
AcDbLine
 10
352.988
 20
192.313854104
 30
0.0
 11
352.988
 21
212.313851311
 31
0.0
  0
ARC
  5
17B
330
1F
100
AcDbEntity
  8
10
  6
Continuous
 62
     2
100
AcDbCircle
 10
354.038
 20
212.313857919
 30
0.0
 40
1.05
100
AcDbArc
 50
359.99970562
 51
180.000360541
  0
LWPOLYLINE
  5
17E
330
1F
100
AcDbEntity
  8
10
  6
Continuous
 62
     2
100
AcDbPolyline
 90
     3
 70
   128
 43
0.0
 10
355.088
 20
212.313852524
 42
0.0
 10
355.088
 20
192.313854104
 42
-0.999996367
 10
352.988
 20
192.313854104
 42
0.0
  0
LINE
  5
17F
330
1F
100
AcDbEntity
  8
10
  6
Continuous
 62
     1
100
AcDbLine
 10
364.038
 20
331.513857919
 30
0.0
 11
364.038
 21
157.313857919
 31
0.0
  0
LINE
  5
180
330
1F
100
AcDbEntity
  8
10
  6
Continuous
 62
     1
100
AcDbLine
 10
364.038
 20
337.313857919
 30
0.0
 11
364.038
 21
334.713857919
 31
0.0
  0
LINE
  5
181
330
1F
100
AcDbEntity
  8
5
  6
Continuous
 62
     1
100
AcDbLine
 10
372.438
 20
331.513857919
 30
0.0
 11
372.438
 21
310.513857919
 31
0.0
  0
LINE
  5
182
330
1F
100
AcDbEntity
  8
5
  6
Continuous
 62
     1
100
AcDbLine
 10
375.638
 20
331.513857919
 30
0.0
 11
375.638
 21
310.513857919
 31
0.0
  0
LINE
  5
183
330
1F
100
AcDbEntity
  8
10
  6
Continuous
 62
     1
100
AcDbLine
 10
364.038
 20
151.513857919
 30
0.0
 11
364.038
 21
154.113857919
 31
0.0
  0
ARC
  5
184
330
1F
100
AcDbEntity
  8
10
  6
Continuous
 62
     1
100
AcDbCircle
 10
361.038
 20
150.313857919
 30
0.0
 40
3.0
100
AcDbArc
 50
270.0
 51
318.189685104
  0
LINE
  5
185
330
1F
100
AcDbEntity
  8
5
  6
Continuous
 62
     1
100
AcDbLine
 10
372.438
 20
148.313857919
 30
0.0
 11
372.438
 21
127.313857919
 31
0.0
  0
LINE
  5
186
330
1F
100
AcDbEntity
  8
5
  6
Continuous
 62
     1
100
AcDbLine
 10
375.638
 20
148.313857919
 30
0.0
 11
375.638
 21
127.313857919
 31
0.0
  0
LINE
  5
187
330
1F
100
AcDbEntity
  8
10
  6
Continuous
 62
     1
100
AcDbLine
 10
348.038
 20
308.709522545
 30
0.0
 11
348.038
 21
150.313857919
 31
0.0
  0
LINE
  5
188
330
1F
100
AcDbEntity
  8
10
  6
Continuous
 62
     1
100
AcDbLine
 10
348.038
 20
344.313857919
 30
0.0
 11
348.038
 21
324.717629345
 31
0.0
  0
LINE
  5
18A
330
1F
100
AcDbEntity
  8
11
  6
LTYPE3
 62
     2
100
AcDbLine
 10
264.638
 20
247.313857919
 30
0.0
 11
356.678
 21
247.313857919
 31
0.0
  0
LINE
  5
18B
330
1F
100
AcDbEntity
  8
11
  6
LTYPE3
 62
     2
100
AcDbLine
 10
395.113
 20
241.413857919
 30
0.0
 11
366.713
 21
241.413857919
 31
0.0
  0
ARC
  5
18C
330
1F
100
AcDbEntity
  8
3
  6
Continuous
 62
     1
100
AcDbCircle
 10
301.638
 20
433.563857919
 30
0.0
 40
5.8
100
AcDbArc
 50
180.0
 51
270.0
  0
LINE
  5
18D
330
1F
100
AcDbEntity
  8
3
  6
Continuous
 62
     1
100
AcDbLine
 10
299.038
 20
433.563857919
 30
0.0
 11
295.838
 21
433.563857919
 31
0.0
  0
LINE
  5
18E
330
1F
100
AcDbEntity
  8
3
  6
Continuous
 62
     1
100
AcDbLine
 10
301.638
 20
430.963857919
 30
0.0
 11
301.638
 21
427.763857919
 31
0.0
  0
ARC
  5
18F
330
1F
100
AcDbEntity
  8
3
  6
Continuous
 62
     1
100
AcDbCircle
 10
299.038
 20
430.963857919
 30
0.0
 40
2.6
100
AcDbArc
 50
360.0
 51
90.0
  0
ARC
  5
190
330
1F
100
AcDbEntity
  8
3
  6
Continuous
 62
     1
100
AcDbCircle
 10
301.638
 20
433.563857919
 30
0.0
 40
2.6
100
AcDbArc
 50
179.999831874
 51
270.0
  0
LINE
  5
191
330
1F
100
AcDbEntity
  8
3
  6
Continuous
 62
     1
100
AcDbLine
 10
299.038
 20
448.263857919
 30
0.0
 11
299.038
 21
433.563865548
 31
0.0
  0
ARC
  5
192
330
1F
100
AcDbEntity
  8
3
  6
Continuous
 62
     1
100
AcDbCircle
 10
302.038
 20
448.263857919
 30
0.0
 40
3.0
100
AcDbArc
 50
90.0
 51
180.0
  0
LINE
  5
193
330
1F
100
AcDbEntity
  8
3
  6
Continuous
 62
     1
100
AcDbLine
 10
295.838
 20
441.763857919
 30
0.0
 11
299.038
 21
441.763857919
 31
0.0
  0
LINE
  5
194
330
1F
100
AcDbEntity
  8
3
  6
Continuous
 62
     1
100
AcDbLine
 10
295.838
 20
441.763857919
 30
0.0
 11
295.838
 21
433.563857919
 31
0.0
  0
LINE
  5
195
330
1F
100
AcDbEntity
  8
4
  6
Continuous
 62
     1
100
AcDbLine
 10
299.038
 20
451.463857919
 30
0.0
 11
295.838
 21
451.463857919
 31
0.0
  0
LINE
  5
196
330
1F
100
AcDbEntity
  8
4
  6
Continuous
 62
     1
100
AcDbLine
 10
301.638
 20
454.063857919
 30
0.0
 11
301.638
 21
457.263857919
 31
0.0
  0
ARC
  5
197
330
1F
100
AcDbEntity
  8
4
  6
Continuous
 62
     1
100
AcDbCircle
 10
299.038
 20
454.063857919
 30
0.0
 40
2.6
100
AcDbArc
 50
270.0
 51
0.0
  0
ARC
  5
198
330
1F
100
AcDbEntity
  8
4
  6
Continuous
 62
     1
100
AcDbCircle
 10
301.638
 20
451.463857919
 30
0.0
 40
2.6
100
AcDbArc
 50
90.0
 51
179.999881117
  0
ARC
  5
199
330
1F
100
AcDbEntity
  8
4
  6
Continuous
 62
     1
100
AcDbCircle
 10
301.638
 20
451.463857919
 30
0.0
 40
5.8
100
AcDbArc
 50
90.0
 51
179.999946716
  0
LINE
  5
19A
330
1F
100
AcDbEntity
  8
4
  6
Continuous
 62
     1
100
AcDbLine
 10
295.838
 20
443.263857919
 30
0.0
 11
299.038
 21
443.263857919
 31
0.0
  0
LINE
  5
19B
330
1F
100
AcDbEntity
  8
4
  6
Continuous
 62
     1
100
AcDbLine
 10
295.838
 20
443.263857919
 30
0.0
 11
295.838
 21
451.463863313
 31
0.0
  0
LINE
  5
19C
330
1F
100
AcDbEntity
  8
5
  6
Continuous
 62
     1
100
AcDbLine
 10
375.638
 20
417.513857919
 30
0.0
 11
375.638
 21
467.513857919
 31
0.0
  0
LINE
  5
19D
330
1F
100
AcDbEntity
  8
5
  6
Continuous
 62
     1
100
AcDbLine
 10
327.507700232
 20
456.609248097
 30
0.0
 11
346.477959806
 21
463.513857919
 31
0.0
  0
LINE
  5
19E
330
1F
100
AcDbEntity
  8
5
  6
Continuous
 62
     1
100
AcDbLine
 10
356.038
 20
463.513857919
 30
0.0
 11
346.477959806
 21
463.513857919
 31
0.0
  0
LINE
  5
19F
330
1F
100
AcDbEntity
  8
5
  6
Continuous
 62
     1
100
AcDbLine
 10
348.038
 20
465.513857919
 30
0.0
 11
356.038
 21
465.513857919
 31
0.0
  0
LINE
  5
1A0
330
1F
100
AcDbEntity
  8
5
  6
Continuous
 62
     1
100
AcDbLine
 10
349.038
 20
467.513857919
 30
0.0
 11
375.638
 21
467.513857919
 31
0.0
  0
LINE
  5
1A1
330
1F
100
AcDbEntity
  8
5
  6
Continuous
 62
     1
100
AcDbLine
 10
348.038
 20
465.513857919
 30
0.0
 11
348.038
 21
466.513857919
 31
0.0
  0
ARC
  5
1A2
330
1F
100
AcDbEntity
  8
5
  6
Continuous
 62
     1
100
AcDbCircle
 10
349.038
 20
466.513857919
 30
0.0
 40
1.0
100
AcDbArc
 50
90.0
 51
180.0
  0
LINE
  5
1A3
330
1F
100
AcDbEntity
  8
5
  6
Continuous
 62
     1
100
AcDbLine
 10
356.038
 20
421.513857919
 30
0.0
 11
346.477959806
 21
421.513857919
 31
0.0
  0
LINE
  5
1A4
330
1F
100
AcDbEntity
  8
5
  6
Continuous
 62
     1
100
AcDbLine
 10
348.038
 20
419.513857919
 30
0.0
 11
356.038
 21
419.513857919
 31
0.0
  0
LINE
  5
1A5
330
1F
100
AcDbEntity
  8
5
  6
Continuous
 62
     1
100
AcDbLine
 10
349.038
 20
417.513857919
 30
0.0
 11
375.638
 21
417.513857919
 31
0.0
  0
LINE
  5
1A6
330
1F
100
AcDbEntity
  8
5
  6
Continuous
 62
     1
100
AcDbLine
 10
348.038
 20
419.513857919
 30
0.0
 11
348.038
 21
418.513857919
 31
0.0
  0
ARC
  5
1A7
330
1F
100
AcDbEntity
  8
5
  6
Continuous
 62
     1
100
AcDbCircle
 10
349.038
 20
418.513857919
 30
0.0
 40
1.0
100
AcDbArc
 50
180.0
 51
270.0
  0
LINE
  5
1A8
330
1F
100
AcDbEntity
  8
5
  6
Continuous
 62
     1
100
AcDbLine
 10
327.50769785
 20
428.418468607
 30
0.0
 11
346.477959806
 21
421.513857919
 31
0.0
  0
ARC
  5
1A9
330
1F
100
AcDbEntity
  8
5
  6
Continuous
 62
     1
100
AcDbCircle
 10
332.638
 20
442.513857919
 30
0.0
 40
15.0
100
AcDbArc
 50
109.999990318
 51
250.0
  0
ARC
  5
1AA
330
1F
100
AcDbEntity
  8
2
  6
Continuous
 62
     1
100
AcDbCircle
 10
276.638
 20
453.513857919
 30
0.0
 40
2.0
100
AcDbArc
 50
90.0
 51
180.0
  0
LINE
  5
1AB
330
1F
100
AcDbEntity
  8
2
  6
Continuous
 62
     1
100
AcDbLine
 10
274.638
 20
431.513857919
 30
0.0
 11
274.638
 21
453.513857919
 31
0.0
  0
ARC
  5
1AC
330
1F
100
AcDbEntity
  8
2
  6
Continuous
 62
     1
100
AcDbCircle
 10
276.638
 20
431.513857919
 30
0.0
 40
2.0
100
AcDbArc
 50
180.0
 51
270.0
  0
ARC
  5
1AD
330
1F
100
AcDbEntity
  8
2
  6
Continuous
 62
     1
100
AcDbCircle
 10
276.638
 20
431.513857919
 30
0.0
 40
4.0
100
AcDbArc
 50
180.0
 51
270.0
  0
LINE
  5
1AE
330
1F
100
AcDbEntity
  8
2
  6
Continuous
 62
     1
100
AcDbLine
 10
272.638
 20
431.513857919
 30
0.0
 11
272.638
 21
453.513857919
 31
0.0
  0
ARC
  5
1AF
330
1F
100
AcDbEntity
  8
2
  6
Continuous
 62
     1
100
AcDbCircle
 10
276.638
 20
453.513857919
 30
0.0
 40
4.0
100
AcDbArc
 50
90.0
 51
180.0
  0
LINE
  5
1B0
330
1F
100
AcDbEntity
  8
2
  6
Continuous
 62
     1
100
AcDbLine
 10
297.638
 20
427.513857919
 30
0.0
 11
297.638
 21
429.513857919
 31
0.0
  0
LINE
  5
1B1
330
1F
100
AcDbEntity
  8
2
  6
Continuous
 62
     1
100
AcDbLine
 10
297.638
 20
455.513857919
 30
0.0
 11
297.638
 21
457.513857919
 31
0.0
  0
LINE
  5
1B2
330
1F
100
AcDbEntity
  8
2
  6
Continuous
 62
     1
100
AcDbLine
 10
276.638
 20
455.513857919
 30
0.0
 11
297.638
 21
455.513857919
 31
0.0
  0
LINE
  5
1B3
330
1F
100
AcDbEntity
  8
2
  6
Continuous
 62
     1
100
AcDbLine
 10
276.638
 20
429.513857919
 30
0.0
 11
297.638
 21
429.513857919
 31
0.0
  0
LINE
  5
1B4
330
1F
100
AcDbEntity
  8
2
  6
Continuous
 62
     1
100
AcDbLine
 10
276.638
 20
427.513857919
 30
0.0
 11
297.638
 21
427.513857919
 31
0.0
  0
LINE
  5
1B5
330
1F
100
AcDbEntity
  8
2
  6
Continuous
 62
     1
100
AcDbLine
 10
297.638
 20
457.513857919
 30
0.0
 11
276.638
 21
457.513857919
 31
0.0
  0
LINE
  5
1B6
330
1F
100
AcDbEntity
  8
6
  6
Continuous
 62
     1
100
AcDbLine
 10
376.038
 20
418.513857919
 30
0.0
 11
376.038
 21
466.513857919
 31
0.0
  0
LINE
  5
1B7
330
1F
100
AcDbEntity
  8
6
  6
Continuous
 62
     1
100
AcDbLine
 10
384.838
 20
492.513857919
 30
0.0
 11
388.038
 21
492.513857919
 31
0.0
  0
LINE
  5
1B8
330
1F
100
AcDbEntity
  8
6
  6
Continuous
 62
     1
100
AcDbLine
 10
388.038
 20
392.513857919
 30
0.0
 11
388.038
 21
492.513857919
 31
0.0
  0
LINE
  5
1B9
330
1F
100
AcDbEntity
  8
6
  6
Continuous
 62
     1
100
AcDbLine
 10
384.838
 20
482.513857919
 30
0.0
 11
384.838
 21
492.513857919
 31
0.0
  0
LINE
  5
1BA
330
1F
100
AcDbEntity
  8
6
  6
Continuous
 62
     1
100
AcDbLine
 10
384.838
 20
392.513857919
 30
0.0
 11
388.038
 21
392.513857919
 31
0.0
  0
LINE
  5
1BB
330
1F
100
AcDbEntity
  8
6
  6
Continuous
 62
     1
100
AcDbLine
 10
384.838
 20
402.513857919
 30
0.0
 11
384.838
 21
392.513857919
 31
0.0
  0
LINE
  5
1BC
330
1F
100
AcDbEntity
  8
6
  6
LTYPE2
 62
     2
100
AcDbLine
 10
384.838
 20
402.513857919
 30
0.0
 11
384.838
 21
482.513857919
 31
0.0
  0
ARC
  5
1BD
330
1F
100
AcDbEntity
  8
6
  6
Continuous
 62
     1
100
AcDbCircle
 10
358.038
 20
475.751462226
 30
0.0
 40
5.0
100
AcDbArc
 50
180.0
 51
240.0
  0
LINE
  5
1BE
330
1F
100
AcDbEntity
  8
6
  6
Continuous
 62
     1
100
AcDbLine
 10
355.038
 20
482.513857919
 30
0.0
 11
388.038
 21
482.513857919
 31
0.0
  0
LINE
  5
1BF
330
1F
100
AcDbEntity
  8
6
  6
Continuous
 62
     1
100
AcDbLine
 10
353.038
 20
475.751462226
 30
0.0
 11
353.038
 21
480.513857919
 31
0.0
  0
ARC
  5
1C0
330
1F
100
AcDbEntity
  8
6
  6
Continuous
 62
     1
100
AcDbCircle
 10
355.038
 20
480.513857919
 30
0.0
 40
2.0
100
AcDbArc
 50
90.0
 51
180.0
  0
ARC
  5
1C1
330
1F
100
AcDbEntity
  8
6
  6
Continuous
 62
     1
100
AcDbCircle
 10
358.038
 20
409.276253612
 30
0.0
 40
5.0
100
AcDbArc
 50
120.0
 51
180.0
  0
LINE
  5
1C2
330
1F
100
AcDbEntity
  8
6
  6
Continuous
 62
     1
100
AcDbLine
 10
353.038
 20
409.276253612
 30
0.0
 11
353.038
 21
404.513857919
 31
0.0
  0
LINE
  5
1C3
330
1F
100
AcDbEntity
  8
6
  6
Continuous
 62
     1
100
AcDbLine
 10
355.038
 20
402.513857919
 30
0.0
 11
388.038
 21
402.513857919
 31
0.0
  0
ARC
  5
1C4
330
1F
100
AcDbEntity
  8
6
  6
Continuous
 62
     1
100
AcDbCircle
 10
355.038
 20
404.513857919
 30
0.0
 40
2.0
100
AcDbArc
 50
180.0
 51
270.0
  0
LINE
  5
1C5
330
1F
100
AcDbEntity
  8
10
  6
Continuous
 62
     1
100
AcDbLine
 10
348.038
 20
463.513857919
 30
0.0
 11
348.038
 21
465.513857919
 31
0.0
  0
LINE
  5
1C6
330
1F
100
AcDbEntity
  8
10
  6
Continuous
 62
     1
100
AcDbLine
 10
364.038
 20
463.513857919
 30
0.0
 11
348.038
 21
463.513857919
 31
0.0
  0
LWPOLYLINE
  5
1C8
330
1F
100
AcDbEntity
  8
10
  6
Continuous
 62
     1
100
AcDbPolyline
 90
     3
 70
   128
 43
0.0
 10
364.038
 20
463.513857919
 10
364.038
 20
465.513857919
 10
348.038
 20
465.513857919
  0
LINE
  5
1C9
330
1F
100
AcDbEntity
  8
10
  6
Continuous
 62
     1
100
AcDbLine
 10
348.038
 20
421.513857919
 30
0.0
 11
348.038
 21
419.513857919
 31
0.0
  0
LINE
  5
1CA
330
1F
100
AcDbEntity
  8
10
  6
Continuous
 62
     1
100
AcDbLine
 10
364.038
 20
421.513857919
 30
0.0
 11
348.038
 21
421.513857919
 31
0.0
  0
LWPOLYLINE
  5
1CC
330
1F
100
AcDbEntity
  8
10
  6
Continuous
 62
     1
100
AcDbPolyline
 90
     3
 70
   128
 43
0.0
 10
364.038
 20
421.513857919
 10
364.038
 20
419.513857919
 10
348.038
 20
419.513857919
  0
ARC
  5
1CD
330
1F
100
AcDbEntity
  8
0
  6
Continuous
 62
     1
100
AcDbCircle
 10
268.638
 20
461.513857919
 30
0.0
 40
2.0
100
AcDbArc
 50
180.0
 51
270.0
  0
ARC
  5
1CE
330
1F
100
AcDbEntity
  8
0
  6
Continuous
 62
     1
100
AcDbCircle
 10
268.638
 20
461.513857919
 30
0.0
 40
4.0
100
AcDbArc
 50
180.0
 51
270.0
  0
ARC
  5
1CF
330
1F
100
AcDbEntity
  8
0
  6
Continuous
 62
     1
100
AcDbCircle
 10
268.638
 20
423.513857919
 30
0.0
 40
2.0
100
AcDbArc
 50
90.0
 51
180.0
  0
ARC
  5
1D0
330
1F
100
AcDbEntity
  8
0
  6
Continuous
 62
     1
100
AcDbCircle
 10
268.638
 20
423.513857919
 30
0.0
 40
4.0
100
AcDbArc
 50
90.0
 51
180.0
  0
LINE
  5
1D1
330
1F
100
AcDbEntity
  8
0
  6
Continuous
 62
     1
100
AcDbLine
 10
264.638
 20
461.513863313
 30
0.0
 11
264.638
 21
478.013857919
 31
0.0
  0
LINE
  5
1D2
330
1F
100
AcDbEntity
  8
0
  6
Continuous
 62
     1
100
AcDbLine
 10
266.638
 20
461.513863313
 30
0.0
 11
266.638
 21
478.013857919
 31
0.0
  0
LINE
  5
1D3
330
1F
100
AcDbEntity
  8
0
  6
Continuous
 62
     1
100
AcDbLine
 10
264.638
 20
478.013857919
 30
0.0
 11
266.638
 21
478.013857919
 31
0.0
  0
LINE
  5
1D4
330
1F
100
AcDbEntity
  8
0
  6
Continuous
 62
     1
100
AcDbLine
 10
266.638
 20
423.513863313
 30
0.0
 11
266.638
 21
407.013857919
 31
0.0
  0
LINE
  5
1D5
330
1F
100
AcDbEntity
  8
0
  6
Continuous
 62
     1
100
AcDbLine
 10
264.638
 20
407.013857919
 30
0.0
 11
264.638
 21
423.513863313
 31
0.0
  0
LINE
  5
1D6
330
1F
100
AcDbEntity
  8
0
  6
Continuous
 62
     1
100
AcDbLine
 10
264.638
 20
407.013857919
 30
0.0
 11
266.638
 21
407.013857919
 31
0.0
  0
ARC
  5
1D7
330
1F
100
AcDbEntity
  8
0
  6
Continuous
 62
     2
100
AcDbCircle
 10
279.638
 20
432.013852524
 30
0.0
 40
1.0
100
AcDbArc
 50
90.0
 51
180.0
  0
LINE
  5
1D8
330
1F
100
AcDbEntity
  8
0
  6
Continuous
 62
     2
100
AcDbLine
 10
279.638
 20
433.013852524
 30
0.0
 11
281.638007629
 21
433.013852524
 31
0.0
  0
ARC
  5
1D9
330
1F
100
AcDbEntity
  8
0
  6
Continuous
 62
     2
100
AcDbCircle
 10
281.638
 20
432.013852524
 30
0.0
 40
1.0
100
AcDbArc
 50
0.0
 51
89.999562868
  0
LINE
  5
1DA
330
1F
100
AcDbEntity
  8
0
  6
Continuous
 62
     2
100
AcDbLine
 10
278.638
 20
429.913860153
 30
0.0
 11
278.638
 21
432.013852524
 31
0.0
  0
ARC
  5
1DB
330
1F
100
AcDbEntity
  8
0
  6
Continuous
 62
     2
100
AcDbCircle
 10
279.038
 20
429.913852524
 30
0.0
 40
0.4
100
AcDbArc
 50
179.99890717
 51
270.0
  0
LWPOLYLINE
  5
1DD
330
1F
100
AcDbEntity
  8
0
  6
Continuous
 62
     2
100
AcDbPolyline
 90
     3
 70
   128
 43
0.0
 10
282.238
 20
429.513852524
 42
0.414217513
 10
282.638
 20
429.913857919
 42
0.0
 10
282.638
 20
432.013852524
 42
0.0
  0
ARC
  5
1DE
330
1F
100
AcDbEntity
  8
0
  6
Continuous
 62
     2
100
AcDbCircle
 10
280.638
 20
430.313857919
 30
0.0
 40
6.0
100
AcDbArc
 50
233.130102354
 51
306.869897646
  0
ARC
  5
1DF
330
1F
100
AcDbEntity
  8
0
  6
Continuous
 62
     2
100
AcDbCircle
 10
291.638
 20
432.013852524
 30
0.0
 40
1.0
100
AcDbArc
 50
90.0
 51
180.0
  0
LINE
  5
1E0
330
1F
100
AcDbEntity
  8
0
  6
Continuous
 62
     2
100
AcDbLine
 10
291.638
 20
433.013852524
 30
0.0
 11
293.638007629
 21
433.013852524
 31
0.0
  0
ARC
  5
1E1
330
1F
100
AcDbEntity
  8
0
  6
Continuous
 62
     2
100
AcDbCircle
 10
293.638
 20
432.013852524
 30
0.0
 40
1.0
100
AcDbArc
 50
0.0
 51
89.999562868
  0
LINE
  5
1E2
330
1F
100
AcDbEntity
  8
0
  6
Continuous
 62
     2
100
AcDbLine
 10
290.638
 20
429.913860153
 30
0.0
 11
290.638
 21
432.013852524
 31
0.0
  0
ARC
  5
1E3
330
1F
100
AcDbEntity
  8
0
  6
Continuous
 62
     2
100
AcDbCircle
 10
291.038
 20
429.913852524
 30
0.0
 40
0.4
100
AcDbArc
 50
179.99890717
 51
270.0
  0
LWPOLYLINE
  5
1E5
330
1F
100
AcDbEntity
  8
0
  6
Continuous
 62
     2
100
AcDbPolyline
 90
     3
 70
   128
 43
0.0
 10
294.238
 20
429.513852524
 42
0.414217513
 10
294.638
 20
429.913857919
 42
0.0
 10
294.638
 20
432.013852524
 42
0.0
  0
ARC
  5
1E6
330
1F
100
AcDbEntity
  8
0
  6
Continuous
 62
     2
100
AcDbCircle
 10
292.638
 20
430.313857919
 30
0.0
 40
6.0
100
AcDbArc
 50
233.130102354
 51
306.869897646
  0
ARC
  5
1E7
330
1F
100
AcDbEntity
  8
0
  6
Continuous
 62
     2
100
AcDbCircle
 10
279.638
 20
453.013863313
 30
0.0
 40
1.0
100
AcDbArc
 50
180.0
 51
270.0
  0
LINE
  5
1E8
330
1F
100
AcDbEntity
  8
0
  6
Continuous
 62
     2
100
AcDbLine
 10
279.638
 20
452.013863313
 30
0.0
 11
281.638007629
 21
452.013863313
 31
0.0
  0
ARC
  5
1E9
330
1F
100
AcDbEntity
  8
0
  6
Continuous
 62
     2
100
AcDbCircle
 10
281.638
 20
453.013863313
 30
0.0
 40
1.0
100
AcDbArc
 50
270.000437132
 51
0.0
  0
LINE
  5
1EA
330
1F
100
AcDbEntity
  8
0
  6
Continuous
 62
     2
100
AcDbLine
 10
278.638
 20
455.113855684
 30
0.0
 11
278.638
 21
453.013863313
 31
0.0
  0
ARC
  5
1EB
330
1F
100
AcDbEntity
  8
0
  6
Continuous
 62
     2
100
AcDbCircle
 10
279.038
 20
455.113863313
 30
0.0
 40
0.4
100
AcDbArc
 50
90.0
 51
180.00109283
  0
LWPOLYLINE
  5
1ED
330
1F
100
AcDbEntity
  8
0
  6
Continuous
 62
     2
100
AcDbPolyline
 90
     3
 70
   128
 43
0.0
 10
282.238
 20
455.513863313
 42
-0.414217513
 10
282.638
 20
455.113857919
 42
0.0
 10
282.638
 20
453.013863313
 42
0.0
  0
ARC
  5
1EE
330
1F
100
AcDbEntity
  8
0
  6
Continuous
 62
     2
100
AcDbCircle
 10
280.638
 20
454.713857919
 30
0.0
 40
6.0
100
AcDbArc
 50
53.130102354
 51
126.869897646
  0
ARC
  5
1EF
330
1F
100
AcDbEntity
  8
0
  6
Continuous
 62
     2
100
AcDbCircle
 10
291.638
 20
453.013863313
 30
0.0
 40
1.0
100
AcDbArc
 50
180.0
 51
270.0
  0
LINE
  5
1F0
330
1F
100
AcDbEntity
  8
0
  6
Continuous
 62
     2
100
AcDbLine
 10
291.638
 20
452.013863313
 30
0.0
 11
293.638007629
 21
452.013863313
 31
0.0
  0
ARC
  5
1F1
330
1F
100
AcDbEntity
  8
0
  6
Continuous
 62
     2
100
AcDbCircle
 10
293.638
 20
453.013863313
 30
0.0
 40
1.0
100
AcDbArc
 50
270.000437132
 51
0.0
  0
LINE
  5
1F2
330
1F
100
AcDbEntity
  8
0
  6
Continuous
 62
     2
100
AcDbLine
 10
290.638
 20
455.113855684
 30
0.0
 11
290.638
 21
453.013863313
 31
0.0
  0
ARC
  5
1F3
330
1F
100
AcDbEntity
  8
0
  6
Continuous
 62
     2
100
AcDbCircle
 10
291.038
 20
455.113863313
 30
0.0
 40
0.4
100
AcDbArc
 50
90.0
 51
180.00109283
  0
LWPOLYLINE
  5
1F5
330
1F
100
AcDbEntity
  8
0
  6
Continuous
 62
     2
100
AcDbPolyline
 90
     3
 70
   128
 43
0.0
 10
294.238
 20
455.513863313
 42
-0.414217513
 10
294.638
 20
455.113857919
 42
0.0
 10
294.638
 20
453.013863313
 42
0.0
  0
ARC
  5
1F6
330
1F
100
AcDbEntity
  8
0
  6
Continuous
 62
     2
100
AcDbCircle
 10
292.638
 20
454.713857919
 30
0.0
 40
6.0
100
AcDbArc
 50
53.130102354
 51
126.869897646
  0
LINE
  5
1F7
330
1F
100
AcDbEntity
  8
4
  6
Continuous
 62
     1
100
AcDbLine
 10
299.038
 20
448.263857919
 30
0.0
 11
299.038
 21
451.463863313
 31
0.0
  0
CIRCLE
  5
1F8
330
1F
100
AcDbEntity
  8
12
  6
Continuous
 62
     2
100
AcDbCircle
 10
332.638
 20
442.513857919
 30
0.0
 40
6.5
  0
LWPOLYLINE
  5
1FA
330
1F
100
AcDbEntity
  8
12
  6
Continuous
 62
     2
100
AcDbPolyline
 90
     6
 70
   129
 43
0.0
 10
336.438
 20
449.013857919
 10
328.838
 20
449.013857919
 10
325.138
 20
442.513857919
 10
328.838
 20
436.013857919
 10
336.438
 20
436.013857919
 10
340.138
 20
442.513857919
  0
CIRCLE
  5
1FB
330
1F
100
AcDbEntity
  8
12
  6
Continuous
 62
     2
100
AcDbCircle
 10
332.638
 20
442.513857919
 30
0.0
 40
7.7
  0
CIRCLE
  5
1FC
330
1F
100
AcDbEntity
  8
12
  6
Continuous
 62
     2
100
AcDbCircle
 10
332.638
 20
442.513857919
 30
0.0
 40
8.5
  0
LINE
  5
1FD
330
1F
100
AcDbEntity
  8
12
  6
Continuous
 62
     2
100
AcDbLine
 10
304.338
 20
459.513857919
 30
0.0
 11
304.438
 21
461.313857919
 31
0.0
  0
LINE
  5
1FE
330
1F
100
AcDbEntity
  8
12
  6
Continuous
 62
     2
100
AcDbLine
 10
314.938
 20
459.513857919
 30
0.0
 11
314.738
 21
461.313857919
 31
0.0
  0
ARC
  5
1FF
330
1F
100
AcDbEntity
  8
12
  6
Continuous
 62
     2
100
AcDbCircle
 10
312.038
 20
460.113857919
 30
0.0
 40
3.0
100
AcDbArc
 50
23.7
 51
75.6
  0
ARC
  5
200
330
1F
100
AcDbEntity
  8
12
  6
Continuous
 62
     2
100
AcDbCircle
 10
307.138
 20
460.113857919
 30
0.0
 40
3.0
100
AcDbArc
 50
101.2
 51
153.4
  0
ARC
  5
201
330
1F
100
AcDbEntity
  8
12
  6
Continuous
 62
     2
100
AcDbCircle
 10
309.638
 20
451.213857919
 30
0.0
 40
12.2
100
AcDbArc
 50
75.3
 51
104.7
  0
LINE
  5
202
330
1F
100
AcDbEntity
  8
12
  6
Continuous
 62
     2
100
AcDbLine
 10
314.938
 20
425.513857919
 30
0.0
 11
314.838
 21
423.713857919
 31
0.0
  0
LINE
  5
203
330
1F
100
AcDbEntity
  8
12
  6
Continuous
 62
     2
100
AcDbLine
 10
304.338
 20
425.513857919
 30
0.0
 11
304.538
 21
423.713857919
 31
0.0
  0
ARC
  5
204
330
1F
100
AcDbEntity
  8
12
  6
Continuous
 62
     2
100
AcDbCircle
 10
307.238
 20
424.913857919
 30
0.0
 40
3.0
100
AcDbArc
 50
203.7
 51
255.6
  0
ARC
  5
205
330
1F
100
AcDbEntity
  8
12
  6
Continuous
 62
     2
100
AcDbCircle
 10
312.138
 20
424.913857919
 30
0.0
 40
3.0
100
AcDbArc
 50
281.2
 51
333.4
  0
ARC
  5
206
330
1F
100
AcDbEntity
  8
12
  6
Continuous
 62
     2
100
AcDbCircle
 10
309.638
 20
433.813857919
 30
0.0
 40
12.2
100
AcDbArc
 50
255.3
 51
284.7
  0
LWPOLYLINE
  5
208
330
1F
100
AcDbEntity
  8
5
  6
Continuous
 62
     2
100
AcDbPolyline
 90
     4
 70
   129
 43
0.0
 10
355.138
 20
449.663857919
 42
1.0
 10
352.938
 20
449.663857919
 42
0.0
 10
352.938
 20
435.363857919
 42
1.0
 10
355.138
 20
435.363857919
 42
0.0
  0
LINE
  5
20A
330
1F
100
AcDbEntity
  8
6
  6
Continuous
 62
     1
100
AcDbLine
 10
362.305949192
 20
467.513857919
 30
0.0
 11
355.538
 21
471.421335207
 31
0.0
  0
LINE
  5
20B
330
1F
100
AcDbEntity
  8
6
  6
Continuous
 62
     1
100
AcDbLine
 10
362.305949192
 20
417.513857919
 30
0.0
 11
355.538
 21
413.60638063
 31
0.0
  0
ARC
  5
20C
330
1F
100
AcDbEntity
  8
6
  6
Continuous
 62
     1
100
AcDbCircle
 10
374.038
 20
418.513857919
 30
0.0
 40
2.0
100
AcDbArc
 50
210.0
 51
0.0
  0
ARC
  5
20D
330
1F
100
AcDbEntity
  8
6
  6
Continuous
 62
     1
100
AcDbCircle
 10
374.038
 20
466.513857919
 30
0.0
 40
2.0
100
AcDbArc
 50
0.0
 51
150.0
  0
LINE
  5
20E
330
1F
100
AcDbEntity
  8
0
  6
Continuous
 62
     1
100
AcDbLine
 10
268.638003815
 20
459.513857919
 30
0.0
 11
335.488050128
 21
459.513857919
 31
0.0
  0
LINE
  5
20F
330
1F
100
AcDbEntity
  8
0
  6
Continuous
 62
     1
100
AcDbLine
 10
268.638003815
 20
457.513857919
 30
0.0
 11
329.993095289
 21
457.513857919
 31
0.0
  0
LINE
  5
210
330
1F
100
AcDbEntity
  8
4
  6
Continuous
 62
     1
100
AcDbLine
 10
301.638
 20
457.263857919
 30
0.0
 11
329.306225935
 21
457.263857919
 31
0.0
  0
LINE
  5
211
330
1F
100
AcDbEntity
  8
3
  6
Continuous
 62
     1
100
AcDbLine
 10
302.038
 20
451.263857919
 30
0.0
 11
320.454507069
 21
451.263857919
 31
0.0
  0
LINE
  5
212
330
1F
100
AcDbEntity
  8
0
  6
Continuous
 62
     1
100
AcDbLine
 10
268.638003815
 20
425.513857919
 30
0.0
 11
335.488050128
 21
425.513857919
 31
0.0
  0
LINE
  5
213
330
1F
100
AcDbEntity
  8
0
  6
Continuous
 62
     1
100
AcDbLine
 10
268.638003815
 20
427.513857919
 30
0.0
 11
329.993095289
 21
427.513857919
 31
0.0
  0
LINE
  5
214
330
1F
100
AcDbEntity
  8
3
  6
Continuous
 62
     1
100
AcDbLine
 10
301.638
 20
427.763857919
 30
0.0
 11
329.306225935
 21
427.763857919
 31
0.0
  0
LINE
  5
215
330
1F
100
AcDbEntity
  8
5
  6
Continuous
 62
     1
100
AcDbLine
 10
317.638
 20
340.513857919
 30
0.0
 11
317.638
 21
339.983284923
 31
0.0
  0
LINE
  5
216
330
1F
100
AcDbEntity
  8
5
  6
Continuous
 62
     1
100
AcDbLine
 10
319.61715308
 20
337.313857919
 30
0.0
 11
369.838
 21
337.313857919
 31
0.0
  0
LINE
  5
217
330
1F
100
AcDbEntity
  8
5
  6
LTYPE2
 62
     2
100
AcDbLine
 10
317.638
 20
339.983284923
 30
0.0
 11
317.638
 21
337.313857919
 31
0.0
  0
LINE
  5
218
330
1F
100
AcDbEntity
  8
5
  6
LTYPE2
 62
     2
100
AcDbLine
 10
317.638
 20
337.313857919
 30
0.0
 11
319.61715308
 21
337.313857919
 31
0.0
  0
ARC
  5
219
330
1F
100
AcDbEntity
  8
12
  6
Continuous
 62
     2
100
AcDbCircle
 10
365.631145751
 20
135.313857919
 30
0.0
 40
4.0
100
AcDbArc
 50
45.000026769
 51
315.000021857
  0
ARC
  5
21A
330
1F
100
AcDbEntity
  8
12
  6
Continuous
 62
     2
100
AcDbCircle
 10
365.631145751
 20
135.313857919
 30
0.0
 40
2.15
100
AcDbArc
 50
45.000026769
 51
315.000021857
  0
LINE
  5
21B
330
1F
100
AcDbEntity
  8
12
  6
Continuous
 62
     2
100
AcDbLine
 10
368.67170491
 20
135.313857919
 30
0.0
 11
367.15142591
 21
133.793578919
 31
0.0
  0
LINE
  5
21C
330
1F
100
AcDbEntity
  8
12
  6
Continuous
 62
     2
100
AcDbLine
 10
369.438
 20
137.163857919
 30
0.0
 11
368.459571554
 21
138.142286365
 31
0.0
  0
LINE
  5
21D
330
1F
100
AcDbEntity
  8
12
  6
Continuous
 62
     2
100
AcDbLine
 10
369.438
 20
133.463857919
 30
0.0
 11
368.459573954
 21
132.485431873
 31
0.0
  0
LINE
  5
21E
330
1F
100
AcDbEntity
  8
12
  6
Continuous
 62
     2
100
AcDbLine
 10
368.67170491
 20
135.313857919
 30
0.0
 11
367.15142462
 21
136.834138208
 31
0.0
  0
LINE
  5
21F
330
1F
100
AcDbEntity
  8
12
  6
Continuous
 62
     2
100
AcDbLine
 10
372.438
 20
137.163857919
 30
0.0
 11
369.438
 21
137.163857919
 31
0.0
  0
LINE
  5
220
330
1F
100
AcDbEntity
  8
12
  6
Continuous
 62
     2
100
AcDbLine
 10
372.438
 20
133.463857919
 30
0.0
 11
369.438
 21
133.463857919
 31
0.0
  0
LINE
  5
221
330
1F
100
AcDbEntity
  8
12
  6
Continuous
 62
     2
100
AcDbLine
 10
372.438
 20
135.313857919
 30
0.0
 11
368.67170491
 21
135.313857919
 31
0.0
  0
LINE
  5
222
330
1F
100
AcDbEntity
  8
12
  6
LTYPE1
 62
     2
100
AcDbLine
 10
388.810287143
 20
122.291570776
 30
0.0
 11
390.118434688
 21
123.599718321
 31
0.0
  0
LINE
  5
223
330
1F
100
AcDbEntity
  8
12
  6
LTYPE1
 62
     2
100
AcDbLine
 10
384.567646456
 20
144.093504374
 30
0.0
 11
385.875794001
 21
142.785356829
 31
0.0
  0
LINE
  5
224
330
1F
100
AcDbEntity
  8
12
  6
Continuous
 62
     2
100
AcDbLine
 10
387.438
 20
137.163857919
 30
0.0
 11
387.438
 21
135.313857919
 31
0.0
  0
LINE
  5
225
330
1F
100
AcDbEntity
  8
12
  6
Continuous
 62
     2
100
AcDbLine
 10
391.438
 20
133.463857919
 30
0.0
 11
391.438
 21
135.313857919
 31
0.0
  0
LINE
  5
226
330
1F
100
AcDbEntity
  8
12
  6
Continuous
 62
     2
100
AcDbLine
 10
391.438
 20
133.463857919
 30
0.0
 11
375.638
 21
133.463857919
 31
0.0
  0
LINE
  5
227
330
1F
100
AcDbEntity
  8
12
  6
Continuous
 62
     2
100
AcDbLine
 10
387.438
 20
137.163857919
 30
0.0
 11
375.638
 21
137.163857919
 31
0.0
  0
LINE
  5
228
330
1F
100
AcDbEntity
  8
12
  6
Continuous
 62
     2
100
AcDbLine
 10
391.438
 20
135.313857919
 30
0.0
 11
375.638
 21
135.313857919
 31
0.0
  0
LINE
  5
229
330
1F
100
AcDbEntity
  8
12
  6
LTYPE1
 62
     2
100
AcDbLine
 10
390.118434688
 20
123.599718321
 30
0.0
 11
380.410610859
 21
133.30754215
 31
0.0
  0
LINE
  5
22A
330
1F
100
AcDbEntity
  8
12
  6
LTYPE1
 62
     2
100
AcDbLine
 10
388.810287143
 20
122.291570776
 30
0.0
 11
379.102466094
 21
131.999391824
 31
0.0
  0
ARC
  5
22B
330
1F
100
AcDbEntity
  8
12
  6
LTYPE1
 62
     2
100
AcDbCircle
 10
375.566932188
 20
128.463857919
 30
0.0
 40
5.0
100
AcDbArc
 50
45.0
 51
67.09279772
  0
LINE
  5
22C
330
1F
100
AcDbEntity
  8
12
  6
LTYPE1
 62
     2
100
AcDbLine
 10
384.567646456
 20
144.093504374
 30
0.0
 11
379.102466094
 21
138.628324013
 31
0.0
  0
LINE
  5
22D
330
1F
100
AcDbEntity
  8
12
  6
LTYPE1
 62
     2
100
AcDbLine
 10
385.875794001
 20
142.785356829
 30
0.0
 11
380.410614807
 21
137.320177635
 31
0.0
  0
ARC
  5
22E
330
1F
100
AcDbEntity
  8
12
  6
LTYPE1
 62
     2
100
AcDbCircle
 10
375.566932188
 20
142.163857919
 30
0.0
 40
5.0
100
AcDbArc
 50
292.907202279
 51
315.0
  0
LINE
  5
22F
330
1F
100
AcDbEntity
  8
6
  6
Continuous
 62
     1
100
AcDbLine
 10
570.738
 20
334.613857919
 30
0.0
 11
570.738
 21
331.413857919
 31
0.0
  0
LINE
  5
230
330
1F
100
AcDbEntity
  8
6
  6
Continuous
 62
     1
100
AcDbLine
 10
490.738
 20
334.613857919
 30
0.0
 11
570.738
 21
334.613857919
 31
0.0
  0
LINE
  5
231
330
1F
100
AcDbEntity
  8
6
  6
Continuous
 62
     1
100
AcDbLine
 10
490.738
 20
334.613857919
 30
0.0
 11
490.738
 21
331.413857919
 31
0.0
  0
LINE
  5
232
330
1F
100
AcDbEntity
  8
6
  6
Continuous
 62
     1
100
AcDbLine
 10
570.738
 20
148.213857919
 30
0.0
 11
570.738
 21
151.413857919
 31
0.0
  0
LINE
  5
233
330
1F
100
AcDbEntity
  8
6
  6
Continuous
 62
     1
100
AcDbLine
 10
490.738
 20
148.213857919
 30
0.0
 11
570.738
 21
148.213857919
 31
0.0
  0
LINE
  5
234
330
1F
100
AcDbEntity
  8
6
  6
Continuous
 62
     1
100
AcDbLine
 10
490.738
 20
148.213857919
 30
0.0
 11
490.738
 21
151.413857919
 31
0.0
  0
LINE
  5
235
330
1F
100
AcDbEntity
  8
6
  6
Continuous
 62
     1
100
AcDbLine
 10
485.738
 20
331.413857919
 30
0.0
 11
490.738
 21
331.413857919
 31
0.0
  0
ARC
  5
236
330
1F
100
AcDbEntity
  8
6
  6
Continuous
 62
     1
100
AcDbCircle
 10
485.738
 20
326.413857919
 30
0.0
 40
5.0
100
AcDbArc
 50
90.0
 51
180.0
  0
LINE
  5
237
330
1F
100
AcDbEntity
  8
6
  6
Continuous
 62
     1
100
AcDbLine
 10
570.738
 20
331.413857919
 30
0.0
 11
575.738
 21
331.413857919
 31
0.0
  0
ARC
  5
238
330
1F
100
AcDbEntity
  8
6
  6
Continuous
 62
     1
100
AcDbCircle
 10
575.738
 20
326.413857919
 30
0.0
 40
5.0
100
AcDbArc
 50
0.0
 51
90.0
  0
LINE
  5
239
330
1F
100
AcDbEntity
  8
6
  6
Continuous
 62
     1
100
AcDbLine
 10
485.738
 20
151.413857919
 30
0.0
 11
490.738
 21
151.413857919
 31
0.0
  0
LINE
  5
23A
330
1F
100
AcDbEntity
  8
6
  6
Continuous
 62
     1
100
AcDbLine
 10
480.738
 20
326.413857919
 30
0.0
 11
480.738
 21
156.413857919
 31
0.0
  0
ARC
  5
23B
330
1F
100
AcDbEntity
  8
6
  6
Continuous
 62
     1
100
AcDbCircle
 10
485.738
 20
156.413857919
 30
0.0
 40
5.0
100
AcDbArc
 50
180.0
 51
270.0
  0
LINE
  5
23C
330
1F
100
AcDbEntity
  8
6
  6
Continuous
 62
     1
100
AcDbLine
 10
570.738
 20
151.413857919
 30
0.0
 11
575.738
 21
151.413857919
 31
0.0
  0
LINE
  5
23D
330
1F
100
AcDbEntity
  8
6
  6
Continuous
 62
     1
100
AcDbLine
 10
580.738
 20
326.413857919
 30
0.0
 11
580.738
 21
156.413857919
 31
0.0
  0
ARC
  5
23E
330
1F
100
AcDbEntity
  8
6
  6
Continuous
 62
     1
100
AcDbCircle
 10
575.738
 20
156.413857919
 30
0.0
 40
5.0
100
AcDbArc
 50
270.0
 51
0.0
  0
CIRCLE
  5
23F
330
1F
100
AcDbEntity
  8
6
  6
Continuous
 62
     1
100
AcDbCircle
 10
570.738
 20
316.413857919
 30
0.0
 40
4.75
  0
CIRCLE
  5
240
330
1F
100
AcDbEntity
  8
6
  6
Continuous
 62
     1
100
AcDbCircle
 10
490.738
 20
316.413857919
 30
0.0
 40
4.75
  0
CIRCLE
  5
241
330
1F
100
AcDbEntity
  8
6
  6
Continuous
 62
     1
100
AcDbCircle
 10
490.738
 20
241.413857919
 30
0.0
 40
4.75
  0
CIRCLE
  5
242
330
1F
100
AcDbEntity
  8
6
  6
Continuous
 62
     1
100
AcDbCircle
 10
490.738
 20
166.413857919
 30
0.0
 40
4.75
  0
CIRCLE
  5
243
330
1F
100
AcDbEntity
  8
6
  6
Continuous
 62
     1
100
AcDbCircle
 10
570.738
 20
166.413857919
 30
0.0
 40
4.75
  0
CIRCLE
  5
244
330
1F
100
AcDbEntity
  8
6
  6
Continuous
 62
     1
100
AcDbCircle
 10
570.738
 20
241.413857919
 30
0.0
 40
4.75
  0
LINE
  5
245
330
1F
100
AcDbEntity
  8
10
  6
Continuous
 62
     1
100
AcDbLine
 10
553.738
 20
347.213857919
 30
0.0
 11
551.738
 21
347.213857919
 31
0.0
  0
LWPOLYLINE
  5
247
330
1F
100
AcDbEntity
  8
12
  6
Continuous
 62
     2
100
AcDbPolyline
 90
     4
 70
   129
 43
0.0
 10
522.238
 20
340.413857919
 10
539.238
 20
340.413857919
 10
539.238
 20
342.013857919
 10
522.238
 20
342.013857919
  0
LWPOLYLINE
  5
249
330
1F
100
AcDbEntity
  8
12
  6
Continuous
 62
     2
100
AcDbPolyline
 90
     4
 70
   129
 43
0.0
 10
538.438
 20
342.013857919
 10
538.438
 20
344.013857919
 10
523.038
 20
344.013857919
 10
523.038
 20
342.013857919
  0
LINE
  5
24A
330
1F
100
AcDbEntity
  8
12
  6
Continuous
 62
     2
100
AcDbLine
 10
523.238
 20
344.013857919
 30
0.0
 11
523.238
 21
348.613857919
 31
0.0
  0
LINE
  5
24B
330
1F
100
AcDbEntity
  8
12
  6
Continuous
 62
     2
100
AcDbLine
 10
538.238
 20
344.013857919
 30
0.0
 11
538.238
 21
348.613857919
 31
0.0
  0
LINE
  5
24C
330
1F
100
AcDbEntity
  8
12
  6
Continuous
 62
     2
100
AcDbLine
 10
534.538
 20
344.013857919
 30
0.0
 11
534.538
 21
348.613857919
 31
0.0
  0
LINE
  5
24D
330
1F
100
AcDbEntity
  8
12
  6
Continuous
 62
     2
100
AcDbLine
 10
526.938
 20
344.013857919
 30
0.0
 11
526.938
 21
348.613857919
 31
0.0
  0
LINE
  5
24E
330
1F
100
AcDbEntity
  8
12
  6
Continuous
 62
     2
100
AcDbLine
 10
525.038
 20
349.313857919
 30
0.0
 11
536.438
 21
349.313857919
 31
0.0
  0
ARC
  5
24F
330
1F
100
AcDbEntity
  8
12
  6
Continuous
 62
     2
100
AcDbCircle
 10
536.438
 20
346.513857919
 30
0.0
 40
2.8
100
AcDbArc
 50
48.5
 51
131.5
  0
ARC
  5
250
330
1F
100
AcDbEntity
  8
12
  6
Continuous
 62
     2
100
AcDbCircle
 10
530.738
 20
338.613857919
 30
0.0
 40
10.7
100
AcDbArc
 50
69.1
 51
110.9
  0
ARC
  5
251
330
1F
100
AcDbEntity
  8
12
  6
Continuous
 62
     2
100
AcDbCircle
 10
525.038
 20
346.513857919
 30
0.0
 40
2.8
100
AcDbArc
 50
48.5
 51
131.5
  0
LINE
  5
252
330
1F
100
AcDbEntity
  8
12
  6
Continuous
 62
     2
100
AcDbLine
 10
530.738
 20
344.013857919
 30
0.0
 11
531.892700538
 21
342.013857919
 31
0.0
  0
LINE
  5
253
330
1F
100
AcDbEntity
  8
12
  6
Continuous
 62
     2
100
AcDbLine
 10
530.738
 20
342.013857919
 30
0.0
 11
529.583299462
 21
344.013857919
 31
0.0
  0
LINE
  5
254
330
1F
100
AcDbEntity
  8
2
  6
Continuous
 62
     2
100
AcDbLine
 10
515.738
 20
367.213857919
 30
0.0
 11
545.738
 21
367.213857919
 31
0.0
  0
CIRCLE
  5
255
330
1F
100
AcDbEntity
  8
0
  6
Continuous
 62
     2
100
AcDbCircle
 10
505.338
 20
355.213857919
 30
0.0
 40
3.25
  0
ARC
  5
256
330
1F
100
AcDbEntity
  8
0
  6
Continuous
 62
     2
100
AcDbCircle
 10
500.238
 20
362.213857919
 30
0.0
 40
5.0
100
AcDbArc
 50
90.0
 51
180.0
  0
LINE
  5
257
330
1F
100
AcDbEntity
  8
0
  6
Continuous
 62
     2
100
AcDbLine
 10
495.238
 20
348.213857919
 30
0.0
 11
495.238
 21
362.213857919
 31
0.0
  0
ARC
  5
258
330
1F
100
AcDbEntity
  8
0
  6
Continuous
 62
     2
100
AcDbCircle
 10
500.238
 20
348.213857919
 30
0.0
 40
5.0
100
AcDbArc
 50
180.0
 51
270.0
  0
LINE
  5
259
330
1F
100
AcDbEntity
  8
0
  6
Continuous
 62
     2
100
AcDbLine
 10
515.738
 20
367.213857919
 30
0.0
 11
500.238
 21
367.213857919
 31
0.0
  0
CIRCLE
  5
25A
330
1F
100
AcDbEntity
  8
0
  6
Continuous
 62
     2
100
AcDbCircle
 10
556.138
 20
355.213857919
 30
0.0
 40
3.25
  0
ARC
  5
25B
330
1F
100
AcDbEntity
  8
0
  6
Continuous
 62
     2
100
AcDbCircle
 10
561.238
 20
362.213857919
 30
0.0
 40
5.0
100
AcDbArc
 50
0.0
 51
90.0
  0
LINE
  5
25C
330
1F
100
AcDbEntity
  8
0
  6
Continuous
 62
     2
100
AcDbLine
 10
566.238
 20
348.213857919
 30
0.0
 11
566.238
 21
362.213857919
 31
0.0
  0
ARC
  5
25D
330
1F
100
AcDbEntity
  8
0
  6
Continuous
 62
     2
100
AcDbCircle
 10
561.238
 20
348.213857919
 30
0.0
 40
5.0
100
AcDbArc
 50
270.0
 51
0.0
  0
LINE
  5
25E
330
1F
100
AcDbEntity
  8
0
  6
Continuous
 62
     2
100
AcDbLine
 10
545.738
 20
367.213857919
 30
0.0
 11
561.238
 21
367.213857919
 31
0.0
  0
ARC
  5
25F
330
1F
100
AcDbEntity
  8
0
  6
Continuous
 62
     2
100
AcDbCircle
 10
500.238
 20
132.213857919
 30
0.0
 40
5.0
100
AcDbArc
 50
180.0
 51
270.0
  0
LINE
  5
260
330
1F
100
AcDbEntity
  8
0
  6
Continuous
 62
     2
100
AcDbLine
 10
495.238
 20
146.213857919
 30
0.0
 11
495.238
 21
132.213857919
 31
0.0
  0
ARC
  5
261
330
1F
100
AcDbEntity
  8
0
  6
Continuous
 62
     2
100
AcDbCircle
 10
561.238
 20
132.213857919
 30
0.0
 40
5.0
100
AcDbArc
 50
270.0
 51
0.0
  0
LINE
  5
262
330
1F
100
AcDbEntity
  8
0
  6
Continuous
 62
     2
100
AcDbLine
 10
566.238
 20
146.213857919
 30
0.0
 11
566.238
 21
132.213857919
 31
0.0
  0
LINE
  5
263
330
1F
100
AcDbEntity
  8
2
  6
Continuous
 62
     2
100
AcDbLine
 10
543.738
 20
343.213857919
 30
0.0
 11
543.738
 21
367.213857919
 31
0.0
  0
LINE
  5
264
330
1F
100
AcDbEntity
  8
2
  6
Continuous
 62
     2
100
AcDbLine
 10
517.738
 20
343.213857919
 30
0.0
 11
517.738
 21
367.213857919
 31
0.0
  0
ARC
  5
265
330
1F
100
AcDbEntity
  8
0
  6
Continuous
 62
     2
100
AcDbCircle
 10
520.237994605
 20
356.213857919
 30
0.0
 40
1.0
100
AcDbArc
 50
0.0
 51
90.0
  0
LINE
  5
266
330
1F
100
AcDbEntity
  8
0
  6
Continuous
 62
     2
100
AcDbLine
 10
521.237994605
 20
356.213857919
 30
0.0
 11
521.237994605
 21
354.213850289
 31
0.0
  0
ARC
  5
267
330
1F
100
AcDbEntity
  8
0
  6
Continuous
 62
     2
100
AcDbCircle
 10
520.237994605
 20
354.213857919
 30
0.0
 40
1.0
100
AcDbArc
 50
270.0
 51
359.999562868
  0
LINE
  5
268
330
1F
100
AcDbEntity
  8
0
  6
Continuous
 62
     2
100
AcDbLine
 10
518.138002235
 20
357.213857919
 30
0.0
 11
520.237994605
 21
357.213857919
 31
0.0
  0
ARC
  5
269
330
1F
100
AcDbEntity
  8
0
  6
Continuous
 62
     2
100
AcDbCircle
 10
518.137994605
 20
356.813857919
 30
0.0
 40
0.4
100
AcDbArc
 50
89.99890717
 51
180.0
  0
LWPOLYLINE
  5
26B
330
1F
100
AcDbEntity
  8
0
  6
Continuous
 62
     2
100
AcDbPolyline
 90
     3
 70
   128
 43
0.0
 10
517.737994605
 20
353.613857919
 42
0.414217513
 10
518.138
 20
353.213857919
 42
0.0
 10
520.237994605
 20
353.213857919
 42
0.0
  0
ARC
  5
26C
330
1F
100
AcDbEntity
  8
0
  6
Continuous
 62
     2
100
AcDbCircle
 10
518.538
 20
355.213857919
 30
0.0
 40
6.0
100
AcDbArc
 50
143.130102354
 51
216.869897646
  0
ARC
  5
26D
330
1F
100
AcDbEntity
  8
0
  6
Continuous
 62
     2
100
AcDbCircle
 10
541.238005395
 20
356.213857919
 30
0.0
 40
1.0
100
AcDbArc
 50
90.0
 51
180.0
  0
LINE
  5
26E
330
1F
100
AcDbEntity
  8
0
  6
Continuous
 62
     2
100
AcDbLine
 10
540.238005395
 20
356.213857919
 30
0.0
 11
540.238005395
 21
354.213850289
 31
0.0
  0
ARC
  5
26F
330
1F
100
AcDbEntity
  8
0
  6
Continuous
 62
     2
100
AcDbCircle
 10
541.238005395
 20
354.213857919
 30
0.0
 40
1.0
100
AcDbArc
 50
180.000437132
 51
270.0
  0
LINE
  5
270
330
1F
100
AcDbEntity
  8
0
  6
Continuous
 62
     2
100
AcDbLine
 10
543.337997765
 20
357.213857919
 30
0.0
 11
541.238005395
 21
357.213857919
 31
0.0
  0
ARC
  5
271
330
1F
100
AcDbEntity
  8
0
  6
Continuous
 62
     2
100
AcDbCircle
 10
543.338005395
 20
356.813857919
 30
0.0
 40
0.4
100
AcDbArc
 50
0.0
 51
90.00109283
  0
LWPOLYLINE
  5
273
330
1F
100
AcDbEntity
  8
0
  6
Continuous
 62
     2
100
AcDbPolyline
 90
     3
 70
   128
 43
0.0
 10
543.738005395
 20
353.613857919
 42
-0.414217513
 10
543.338
 20
353.213857919
 42
0.0
 10
541.238005395
 20
353.213857919
 42
0.0
  0
ARC
  5
274
330
1F
100
AcDbEntity
  8
0
  6
Continuous
 62
     2
100
AcDbCircle
 10
542.938
 20
355.213857919
 30
0.0
 40
6.0
100
AcDbArc
 50
323.130102354
 51
36.869897646
  0
LINE
  5
275
330
1F
100
AcDbEntity
  8
0
  6
Continuous
 62
     2
100
AcDbLine
 10
513.738
 20
367.213857919
 30
0.0
 11
513.738
 21
340.413857919
 31
0.0
  0
LINE
  5
276
330
1F
100
AcDbEntity
  8
0
  6
Continuous
 62
     2
100
AcDbLine
 10
515.738
 20
367.213857919
 30
0.0
 11
515.738
 21
340.413857919
 31
0.0
  0
LINE
  5
277
330
1F
100
AcDbEntity
  8
0
  6
Continuous
 62
     2
100
AcDbLine
 10
507.738
 20
343.213857919
 30
0.0
 11
500.238
 21
343.213857919
 31
0.0
  0
LINE
  5
278
330
1F
100
AcDbEntity
  8
0
  6
Continuous
 62
     2
100
AcDbLine
 10
513.738
 20
343.213857919
 30
0.0
 11
509.738
 21
343.213857919
 31
0.0
  0
LINE
  5
279
330
1F
100
AcDbEntity
  8
0
  6
Continuous
 62
     2
100
AcDbLine
 10
553.738
 20
343.213857919
 30
0.0
 11
561.238
 21
343.213857919
 31
0.0
  0
LINE
  5
27A
330
1F
100
AcDbEntity
  8
0
  6
Continuous
 62
     2
100
AcDbLine
 10
547.738
 20
343.213857919
 30
0.0
 11
551.738
 21
343.213857919
 31
0.0
  0
LINE
  5
27B
330
1F
100
AcDbEntity
  8
2
  6
Continuous
 62
     2
100
AcDbLine
 10
538.438
 20
343.213857919
 30
0.0
 11
545.738
 21
343.213857919
 31
0.0
  0
LINE
  5
27C
330
1F
100
AcDbEntity
  8
2
  6
Continuous
 62
     2
100
AcDbLine
 10
515.738
 20
343.213857919
 30
0.0
 11
523.038
 21
343.213857919
 31
0.0
  0
LINE
  5
27D
330
1F
100
AcDbEntity
  8
0
  6
Continuous
 62
     2
100
AcDbLine
 10
545.738
 20
367.213857919
 30
0.0
 11
545.738
 21
340.413857919
 31
0.0
  0
LINE
  5
27E
330
1F
100
AcDbEntity
  8
0
  6
Continuous
 62
     2
100
AcDbLine
 10
547.738
 20
367.213857919
 30
0.0
 11
547.738
 21
340.413857919
 31
0.0
  0
ARC
  5
27F
330
1F
100
AcDbEntity
  8
0
  6
Continuous
 62
     2
100
AcDbCircle
 10
500.238
 20
146.213857919
 30
0.0
 40
5.0
100
AcDbArc
 50
156.421821522
 51
180.0
  0
ARC
  5
280
330
1F
100
AcDbEntity
  8
0
  6
Continuous
 62
     2
100
AcDbCircle
 10
505.338
 20
139.213857919
 30
0.0
 40
3.25
100
AcDbArc
 50
64.512407926
 51
325.487592074
  0
LINE
  5
281
330
1F
100
AcDbEntity
  8
0
  6
Continuous
 62
     2
100
AcDbLine
 10
510.738
 20
127.213857919
 30
0.0
 11
500.238
 21
127.213857919
 31
0.0
  0
LINE
  5
282
330
1F
100
AcDbEntity
  8
0
  6
Continuous
 62
     2
100
AcDbLine
 10
550.738
 20
127.213857919
 30
0.0
 11
561.238
 21
127.213857919
 31
0.0
  0
ARC
  5
283
330
1F
100
AcDbEntity
  8
0
  6
Continuous
 62
     2
100
AcDbCircle
 10
556.138
 20
139.213857919
 30
0.0
 40
3.25
100
AcDbArc
 50
214.512407926
 51
115.487592074
  0
ARC
  5
284
330
1F
100
AcDbEntity
  8
0
  6
Continuous
 62
     2
100
AcDbCircle
 10
561.238
 20
146.213857919
 30
0.0
 40
5.0
100
AcDbArc
 50
0.0
 51
23.578178478
  0
LINE
  5
285
330
1F
100
AcDbEntity
  8
5
  6
Continuous
 62
     2
100
AcDbLine
 10
505.738
 20
340.413857919
 30
0.0
 11
555.738
 21
340.413857919
 31
0.0
  0
LINE
  5
286
330
1F
100
AcDbEntity
  8
5
  6
Continuous
 62
     2
100
AcDbLine
 10
505.738
 20
145.874111956
 30
0.0
 11
510.738
 21
127.213857919
 31
0.0
  0
LINE
  5
287
330
1F
100
AcDbEntity
  8
5
  6
Continuous
 62
     2
100
AcDbLine
 10
555.738
 20
145.874111956
 30
0.0
 11
550.738
 21
127.213857919
 31
0.0
  0
LINE
  5
288
330
1F
100
AcDbEntity
  8
5
  6
Continuous
 62
     2
100
AcDbLine
 10
510.738
 20
127.213857919
 30
0.0
 11
550.738
 21
127.213857919
 31
0.0
  0
LINE
  5
289
330
1F
100
AcDbEntity
  8
5
  6
Continuous
 62
     2
100
AcDbLine
 10
555.738
 20
340.413857919
 30
0.0
 11
555.738
 21
334.613857919
 31
0.0
  0
LINE
  5
28A
330
1F
100
AcDbEntity
  8
5
  6
Continuous
 62
     2
100
AcDbLine
 10
505.738
 20
340.413857919
 30
0.0
 11
505.738
 21
334.613857919
 31
0.0
  0
LINE
  5
28B
330
1F
100
AcDbEntity
  8
5
  6
Continuous
 62
     2
100
AcDbLine
 10
505.738
 20
148.213857919
 30
0.0
 11
505.738
 21
145.874111956
 31
0.0
  0
LINE
  5
28C
330
1F
100
AcDbEntity
  8
5
  6
Continuous
 62
     2
100
AcDbLine
 10
555.738
 20
148.213857919
 30
0.0
 11
555.738
 21
145.874111956
 31
0.0
  0
LINE
  5
28D
330
1F
100
AcDbEntity
  8
10
  6
Continuous
 62
     2
100
AcDbLine
 10
551.738
 20
347.213857919
 30
0.0
 11
551.738
 21
340.413857919
 31
0.0
  0
LINE
  5
28E
330
1F
100
AcDbEntity
  8
10
  6
Continuous
 62
     2
100
AcDbLine
 10
553.738
 20
347.213857919
 30
0.0
 11
553.738
 21
340.413857919
 31
0.0
  0
LINE
  5
28F
330
1F
100
AcDbEntity
  8
10
  6
Continuous
 62
     2
100
AcDbLine
 10
507.738
 20
347.213857919
 30
0.0
 11
509.738
 21
347.213857919
 31
0.0
  0
LINE
  5
290
330
1F
100
AcDbEntity
  8
10
  6
Continuous
 62
     2
100
AcDbLine
 10
507.738
 20
347.213857919
 30
0.0
 11
507.738
 21
340.413857919
 31
0.0
  0
LINE
  5
291
330
1F
100
AcDbEntity
  8
10
  6
Continuous
 62
     2
100
AcDbLine
 10
509.738
 20
347.213857919
 30
0.0
 11
509.738
 21
340.413857919
 31
0.0
  0
LINE
  5
292
330
1F
100
AcDbEntity
  8
11
  6
LTYPE3
 62
     2
100
AcDbLine
 10
591.888
 20
241.413857919
 30
0.0
 11
472.543
 21
241.413857919
 31
0.0
  0
LINE
  5
293
330
1F
100
AcDbEntity
  8
11
  6
LTYPE3
 62
     2
100
AcDbLine
 10
530.738
 20
370.103857919
 30
0.0
 11
530.738
 21
117.553857919
 31
0.0
  0
CIRCLE
  5
294
330
1F
100
AcDbEntity
  8
3
  6
Continuous
 62
     1
100
AcDbCircle
 10
530.738
 20
135.213857919
 30
0.0
 40
2.2
  0
LINE
  5
295
330
1F
100
AcDbEntity
  8
2
  6
Continuous
 62
     1
100
AcDbLine
 10
140.428
 20
343.313857919
 30
0.0
 11
110.428
 21
343.313857919
 31
0.0
  0
LINE
  5
296
330
1F
100
AcDbEntity
  8
2
  6
Continuous
 62
     1
100
AcDbLine
 10
140.428
 20
367.313857919
 30
0.0
 11
110.428
 21
367.313857919
 31
0.0
  0
LINE
  5
297
330
1F
100
AcDbEntity
  8
2
  6
Continuous
 62
     1
100
AcDbLine
 10
140.428
 20
343.313857919
 30
0.0
 11
140.428
 21
367.313857919
 31
0.0
  0
LINE
  5
298
330
1F
100
AcDbEntity
  8
2
  6
Continuous
 62
     1
100
AcDbLine
 10
110.428
 20
343.313857919
 30
0.0
 11
110.428
 21
367.313857919
 31
0.0
  0
LINE
  5
299
330
1F
100
AcDbEntity
  8
2
  6
Continuous
 62
     1
100
AcDbLine
 10
140.428
 20
151.313857919
 30
0.0
 11
110.428
 21
151.313857919
 31
0.0
  0
LINE
  5
29A
330
1F
100
AcDbEntity
  8
2
  6
Continuous
 62
     1
100
AcDbLine
 10
140.428
 20
127.313857919
 30
0.0
 11
110.428
 21
127.313857919
 31
0.0
  0
LINE
  5
29B
330
1F
100
AcDbEntity
  8
2
  6
Continuous
 62
     1
100
AcDbLine
 10
140.428
 20
151.313857919
 30
0.0
 11
140.428
 21
127.313857919
 31
0.0
  0
LINE
  5
29C
330
1F
100
AcDbEntity
  8
2
  6
Continuous
 62
     1
100
AcDbLine
 10
110.428
 20
151.313857919
 30
0.0
 11
110.428
 21
127.313857919
 31
0.0
  0
CIRCLE
  5
29D
330
1F
100
AcDbEntity
  8
0
  6
Continuous
 62
     1
100
AcDbCircle
 10
150.828
 20
355.313857919
 30
0.0
 40
3.25
  0
ARC
  5
29E
330
1F
100
AcDbEntity
  8
0
  6
Continuous
 62
     1
100
AcDbCircle
 10
155.928
 20
362.313857919
 30
0.0
 40
5.0
100
AcDbArc
 50
0.0
 51
90.0
  0
LINE
  5
29F
330
1F
100
AcDbEntity
  8
0
  6
Continuous
 62
     1
100
AcDbLine
 10
160.928
 20
348.313857919
 30
0.0
 11
160.928
 21
362.313857919
 31
0.0
  0
ARC
  5
2A0
330
1F
100
AcDbEntity
  8
0
  6
Continuous
 62
     1
100
AcDbCircle
 10
155.928
 20
348.313857919
 30
0.0
 40
5.0
100
AcDbArc
 50
270.0
 51
0.0
  0
LINE
  5
2A1
330
1F
100
AcDbEntity
  8
0
  6
Continuous
 62
     1
100
AcDbLine
 10
140.428
 20
367.313857919
 30
0.0
 11
155.928
 21
367.313857919
 31
0.0
  0
LINE
  5
2A2
330
1F
100
AcDbEntity
  8
0
  6
Continuous
 62
     1
100
AcDbLine
 10
140.428
 20
343.313857919
 30
0.0
 11
155.928
 21
343.313857919
 31
0.0
  0
CIRCLE
  5
2A3
330
1F
100
AcDbEntity
  8
0
  6
Continuous
 62
     1
100
AcDbCircle
 10
100.028
 20
355.313857919
 30
0.0
 40
3.25
  0
ARC
  5
2A4
330
1F
100
AcDbEntity
  8
0
  6
Continuous
 62
     1
100
AcDbCircle
 10
94.928
 20
362.313857919
 30
0.0
 40
5.0
100
AcDbArc
 50
90.0
 51
180.0
  0
LINE
  5
2A5
330
1F
100
AcDbEntity
  8
0
  6
Continuous
 62
     1
100
AcDbLine
 10
89.928
 20
348.313857919
 30
0.0
 11
89.928
 21
362.313857919
 31
0.0
  0
ARC
  5
2A6
330
1F
100
AcDbEntity
  8
0
  6
Continuous
 62
     1
100
AcDbCircle
 10
94.928
 20
348.313857919
 30
0.0
 40
5.0
100
AcDbArc
 50
180.0
 51
270.0
  0
LINE
  5
2A7
330
1F
100
AcDbEntity
  8
0
  6
Continuous
 62
     1
100
AcDbLine
 10
110.428
 20
367.313857919
 30
0.0
 11
94.928
 21
367.313857919
 31
0.0
  0
LINE
  5
2A8
330
1F
100
AcDbEntity
  8
0
  6
Continuous
 62
     1
100
AcDbLine
 10
110.428
 20
343.313857919
 30
0.0
 11
94.928
 21
343.313857919
 31
0.0
  0
CIRCLE
  5
2A9
330
1F
100
AcDbEntity
  8
0
  6
Continuous
 62
     1
100
AcDbCircle
 10
150.828
 20
139.313857919
 30
0.0
 40
3.25
  0
ARC
  5
2AA
330
1F
100
AcDbEntity
  8
0
  6
Continuous
 62
     1
100
AcDbCircle
 10
155.928
 20
132.313857919
 30
0.0
 40
5.0
100
AcDbArc
 50
270.0
 51
0.0
  0
LINE
  5
2AB
330
1F
100
AcDbEntity
  8
0
  6
Continuous
 62
     1
100
AcDbLine
 10
160.928
 20
146.313857919
 30
0.0
 11
160.928
 21
132.313857919
 31
0.0
  0
ARC
  5
2AC
330
1F
100
AcDbEntity
  8
0
  6
Continuous
 62
     1
100
AcDbCircle
 10
155.928
 20
146.313857919
 30
0.0
 40
5.0
100
AcDbArc
 50
0.0
 51
90.0
  0
LINE
  5
2AD
330
1F
100
AcDbEntity
  8
0
  6
Continuous
 62
     1
100
AcDbLine
 10
140.428
 20
127.313857919
 30
0.0
 11
155.928
 21
127.313857919
 31
0.0
  0
LINE
  5
2AE
330
1F
100
AcDbEntity
  8
0
  6
Continuous
 62
     1
100
AcDbLine
 10
140.428
 20
151.313857919
 30
0.0
 11
155.928
 21
151.313857919
 31
0.0
  0
CIRCLE
  5
2AF
330
1F
100
AcDbEntity
  8
0
  6
Continuous
 62
     1
100
AcDbCircle
 10
100.028
 20
139.313857919
 30
0.0
 40
3.25
  0
ARC
  5
2B0
330
1F
100
AcDbEntity
  8
0
  6
Continuous
 62
     1
100
AcDbCircle
 10
94.928
 20
132.313857919
 30
0.0
 40
5.0
100
AcDbArc
 50
180.0
 51
270.0
  0
LINE
  5
2B1
330
1F
100
AcDbEntity
  8
0
  6
Continuous
 62
     1
100
AcDbLine
 10
89.928
 20
146.313857919
 30
0.0
 11
89.928
 21
132.313857919
 31
0.0
  0
ARC
  5
2B2
330
1F
100
AcDbEntity
  8
0
  6
Continuous
 62
     1
100
AcDbCircle
 10
94.928
 20
146.313857919
 30
0.0
 40
5.0
100
AcDbArc
 50
90.0
 51
180.0
  0
LINE
  5
2B3
330
1F
100
AcDbEntity
  8
0
  6
Continuous
 62
     1
100
AcDbLine
 10
110.428
 20
127.313857919
 30
0.0
 11
94.928
 21
127.313857919
 31
0.0
  0
LINE
  5
2B4
330
1F
100
AcDbEntity
  8
0
  6
Continuous
 62
     1
100
AcDbLine
 10
110.428
 20
151.313857919
 30
0.0
 11
94.928
 21
151.313857919
 31
0.0
  0
LINE
  5
2B5
330
1F
100
AcDbEntity
  8
0
  6
Continuous
 62
     1
100
AcDbLine
 10
140.428
 20
367.313857919
 30
0.0
 11
140.428
 21
127.313857919
 31
0.0
  0
LINE
  5
2B6
330
1F
100
AcDbEntity
  8
0
  6
Continuous
 62
     1
100
AcDbLine
 10
110.428
 20
367.313857919
 30
0.0
 11
110.428
 21
127.313857919
 31
0.0
  0
LINE
  5
2B7
330
1F
100
AcDbEntity
  8
0
  6
Continuous
 62
     1
100
AcDbLine
 10
142.428
 20
343.313857919
 30
0.0
 11
142.428
 21
151.313857919
 31
0.0
  0
LINE
  5
2B8
330
1F
100
AcDbEntity
  8
0
  6
Continuous
 62
     1
100
AcDbLine
 10
108.428
 20
343.313857919
 30
0.0
 11
108.428
 21
151.313857919
 31
0.0
  0
LINE
  5
2B9
330
1F
100
AcDbEntity
  8
12
  6
Continuous
 62
     2
100
AcDbLine
 10
108.428
 20
312.013857919
 30
0.0
 11
106.628
 21
312.113857919
 31
0.0
  0
LINE
  5
2BA
330
1F
100
AcDbEntity
  8
12
  6
Continuous
 62
     2
100
AcDbLine
 10
108.428
 20
322.613857919
 30
0.0
 11
106.628
 21
322.413857919
 31
0.0
  0
ARC
  5
2BB
330
1F
100
AcDbEntity
  8
12
  6
Continuous
 62
     2
100
AcDbCircle
 10
107.828
 20
319.713857919
 30
0.0
 40
3.0
100
AcDbArc
 50
113.7
 51
165.6
  0
ARC
  5
2BC
330
1F
100
AcDbEntity
  8
12
  6
Continuous
 62
     2
100
AcDbCircle
 10
107.828
 20
314.813857919
 30
0.0
 40
3.0
100
AcDbArc
 50
191.2
 51
243.4
  0
ARC
  5
2BD
330
1F
100
AcDbEntity
  8
12
  6
Continuous
 62
     2
100
AcDbCircle
 10
116.728
 20
317.313857919
 30
0.0
 40
12.2
100
AcDbArc
 50
165.3
 51
194.7
  0
LINE
  5
2BE
330
1F
100
AcDbEntity
  8
12
  6
Continuous
 62
     2
100
AcDbLine
 10
108.428
 20
172.013857919
 30
0.0
 11
106.628
 21
172.113857919
 31
0.0
  0
LINE
  5
2BF
330
1F
100
AcDbEntity
  8
12
  6
Continuous
 62
     2
100
AcDbLine
 10
108.428
 20
182.613857919
 30
0.0
 11
106.628
 21
182.413857919
 31
0.0
  0
ARC
  5
2C0
330
1F
100
AcDbEntity
  8
12
  6
Continuous
 62
     2
100
AcDbCircle
 10
107.828
 20
179.713857919
 30
0.0
 40
3.0
100
AcDbArc
 50
113.7
 51
165.6
  0
ARC
  5
2C1
330
1F
100
AcDbEntity
  8
12
  6
Continuous
 62
     2
100
AcDbCircle
 10
107.828
 20
174.813857919
 30
0.0
 40
3.0
100
AcDbArc
 50
191.2
 51
243.4
  0
ARC
  5
2C2
330
1F
100
AcDbEntity
  8
12
  6
Continuous
 62
     2
100
AcDbCircle
 10
116.728
 20
177.313857919
 30
0.0
 40
12.2
100
AcDbArc
 50
165.3
 51
194.7
  0
LINE
  5
2C3
330
1F
100
AcDbEntity
  8
12
  6
Continuous
 62
     2
100
AcDbLine
 10
142.428
 20
182.613857919
 30
0.0
 11
144.228
 21
182.513857919
 31
0.0
  0
LINE
  5
2C4
330
1F
100
AcDbEntity
  8
12
  6
Continuous
 62
     2
100
AcDbLine
 10
142.428
 20
172.013857919
 30
0.0
 11
144.228
 21
172.213857919
 31
0.0
  0
ARC
  5
2C5
330
1F
100
AcDbEntity
  8
12
  6
Continuous
 62
     2
100
AcDbCircle
 10
143.028
 20
174.913857919
 30
0.0
 40
3.0
100
AcDbArc
 50
293.7
 51
345.6
  0
ARC
  5
2C6
330
1F
100
AcDbEntity
  8
12
  6
Continuous
 62
     2
100
AcDbCircle
 10
143.028
 20
179.813857919
 30
0.0
 40
3.0
100
AcDbArc
 50
11.2
 51
63.4
  0
ARC
  5
2C7
330
1F
100
AcDbEntity
  8
12
  6
Continuous
 62
     2
100
AcDbCircle
 10
134.128
 20
177.313857919
 30
0.0
 40
12.2
100
AcDbArc
 50
345.3
 51
14.7
  0
LINE
  5
2C8
330
1F
100
AcDbEntity
  8
12
  6
Continuous
 62
     2
100
AcDbLine
 10
142.428
 20
322.613857919
 30
0.0
 11
144.228
 21
322.513857919
 31
0.0
  0
LINE
  5
2C9
330
1F
100
AcDbEntity
  8
12
  6
Continuous
 62
     2
100
AcDbLine
 10
142.428
 20
312.013857919
 30
0.0
 11
144.228
 21
312.213857919
 31
0.0
  0
ARC
  5
2CA
330
1F
100
AcDbEntity
  8
12
  6
Continuous
 62
     2
100
AcDbCircle
 10
143.028
 20
314.913857919
 30
0.0
 40
3.0
100
AcDbArc
 50
293.7
 51
345.6
  0
ARC
  5
2CB
330
1F
100
AcDbEntity
  8
12
  6
Continuous
 62
     2
100
AcDbCircle
 10
143.028
 20
319.813857919
 30
0.0
 40
3.0
100
AcDbArc
 50
11.2
 51
63.4
  0
ARC
  5
2CC
330
1F
100
AcDbEntity
  8
12
  6
Continuous
 62
     2
100
AcDbCircle
 10
134.128
 20
317.313857919
 30
0.0
 40
12.2
100
AcDbArc
 50
345.3
 51
14.7
  0
LINE
  5
2CD
330
1F
100
AcDbEntity
  8
5
  6
Continuous
 62
     2
100
AcDbLine
 10
145.428
 20
127.313857919
 30
0.0
 11
105.428
 21
127.313857919
 31
0.0
  0
LINE
  5
2CE
330
1F
100
AcDbEntity
  8
6
  6
Continuous
 62
     2
100
AcDbLine
 10
85.428
 20
334.713857919
 30
0.0
 11
85.428
 21
331.513857919
 31
0.0
  0
LINE
  5
2CF
330
1F
100
AcDbEntity
  8
6
  6
Continuous
 62
     2
100
AcDbLine
 10
165.428
 20
334.713857919
 30
0.0
 11
165.428
 21
331.513857919
 31
0.0
  0
LINE
  5
2D0
330
1F
100
AcDbEntity
  8
6
  6
Continuous
 62
     2
100
AcDbLine
 10
85.428
 20
148.313857919
 30
0.0
 11
85.428
 21
151.513857919
 31
0.0
  0
LINE
  5
2D1
330
1F
100
AcDbEntity
  8
6
  6
Continuous
 62
     2
100
AcDbLine
 10
165.428
 20
148.313857919
 30
0.0
 11
165.428
 21
151.513857919
 31
0.0
  0
ARC
  5
2D2
330
1F
100
AcDbEntity
  8
6
  6
Continuous
 62
     2
100
AcDbCircle
 10
170.428
 20
326.513857919
 30
0.0
 40
5.0
100
AcDbArc
 50
0.0
 51
90.0
  0
ARC
  5
2D3
330
1F
100
AcDbEntity
  8
6
  6
Continuous
 62
     2
100
AcDbCircle
 10
80.428
 20
326.513857919
 30
0.0
 40
5.0
100
AcDbArc
 50
90.0
 51
180.0
  0
LINE
  5
2D4
330
1F
100
AcDbEntity
  8
6
  6
Continuous
 62
     2
100
AcDbLine
 10
175.428
 20
326.513857919
 30
0.0
 11
175.428
 21
156.513857919
 31
0.0
  0
ARC
  5
2D5
330
1F
100
AcDbEntity
  8
6
  6
Continuous
 62
     2
100
AcDbCircle
 10
170.428
 20
156.513857919
 30
0.0
 40
5.0
100
AcDbArc
 50
270.0
 51
0.0
  0
LINE
  5
2D6
330
1F
100
AcDbEntity
  8
6
  6
Continuous
 62
     2
100
AcDbLine
 10
75.428
 20
326.513857919
 30
0.0
 11
75.428
 21
156.513857919
 31
0.0
  0
ARC
  5
2D7
330
1F
100
AcDbEntity
  8
6
  6
Continuous
 62
     2
100
AcDbCircle
 10
80.428
 20
156.513857919
 30
0.0
 40
5.0
100
AcDbArc
 50
180.0
 51
270.0
  0
CIRCLE
  5
2D8
330
1F
100
AcDbEntity
  8
6
  6
Continuous
 62
     2
100
AcDbCircle
 10
85.428
 20
316.513857919
 30
0.0
 40
4.75
  0
CIRCLE
  5
2D9
330
1F
100
AcDbEntity
  8
6
  6
Continuous
 62
     2
100
AcDbCircle
 10
165.428
 20
316.513857919
 30
0.0
 40
4.75
  0
CIRCLE
  5
2DA
330
1F
100
AcDbEntity
  8
6
  6
Continuous
 62
     2
100
AcDbCircle
 10
165.428
 20
241.513857919
 30
0.0
 40
4.75
  0
CIRCLE
  5
2DB
330
1F
100
AcDbEntity
  8
6
  6
Continuous
 62
     2
100
AcDbCircle
 10
165.428
 20
166.513857919
 30
0.0
 40
4.75
  0
CIRCLE
  5
2DC
330
1F
100
AcDbEntity
  8
6
  6
Continuous
 62
     2
100
AcDbCircle
 10
85.428
 20
166.513857919
 30
0.0
 40
4.75
  0
CIRCLE
  5
2DD
330
1F
100
AcDbEntity
  8
6
  6
Continuous
 62
     2
100
AcDbCircle
 10
85.428
 20
241.513857919
 30
0.0
 40
4.75
  0
LINE
  5
2DE
330
1F
100
AcDbEntity
  8
5
  6
Continuous
 62
     2
100
AcDbLine
 10
150.428
 20
329.174111956
 30
0.0
 11
148.428
 21
321.710010341
 31
0.0
  0
LINE
  5
2DF
330
1F
100
AcDbEntity
  8
5
  6
Continuous
 62
     2
100
AcDbLine
 10
102.428
 20
340.513857919
 30
0.0
 11
100.428
 21
340.513857919
 31
0.0
  0
LINE
  5
2E0
330
1F
100
AcDbEntity
  8
5
  6
Continuous
 62
     2
100
AcDbLine
 10
102.428
 20
337.313857919
 30
0.0
 11
100.428
 21
337.313857919
 31
0.0
  0
LINE
  5
2E1
330
1F
100
AcDbEntity
  8
5
  6
Continuous
 62
     2
100
AcDbLine
 10
150.428
 20
340.513857919
 30
0.0
 11
148.428
 21
340.513857919
 31
0.0
  0
LINE
  5
2E2
330
1F
100
AcDbEntity
  8
5
  6
Continuous
 62
     2
100
AcDbLine
 10
150.428
 20
337.313857919
 30
0.0
 11
148.428
 21
337.313857919
 31
0.0
  0
LINE
  5
2E3
330
1F
100
AcDbEntity
  8
5
  6
Continuous
 62
     2
100
AcDbLine
 10
102.428
 20
154.113857919
 30
0.0
 11
100.428
 21
154.113857919
 31
0.0
  0
LINE
  5
2E4
330
1F
100
AcDbEntity
  8
5
  6
Continuous
 62
     2
100
AcDbLine
 10
102.428
 20
157.313857919
 30
0.0
 11
100.428
 21
157.313857919
 31
0.0
  0
LINE
  5
2E5
330
1F
100
AcDbEntity
  8
5
  6
Continuous
 62
     2
100
AcDbLine
 10
150.428
 20
154.113857919
 30
0.0
 11
148.428
 21
154.113857919
 31
0.0
  0
LINE
  5
2E6
330
1F
100
AcDbEntity
  8
5
  6
Continuous
 62
     2
100
AcDbLine
 10
150.428
 20
157.313857919
 30
0.0
 11
148.428
 21
157.313857919
 31
0.0
  0
LINE
  5
2E7
330
1F
100
AcDbEntity
  8
6
  6
Continuous
 62
     2
100
AcDbLine
 10
102.428
 20
331.513857919
 30
0.0
 11
80.428
 21
331.513857919
 31
0.0
  0
LINE
  5
2E8
330
1F
100
AcDbEntity
  8
6
  6
Continuous
 62
     2
100
AcDbLine
 10
102.428
 20
334.713857919
 30
0.0
 11
85.428
 21
334.713857919
 31
0.0
  0
LINE
  5
2E9
330
1F
100
AcDbEntity
  8
6
  6
Continuous
 62
     2
100
AcDbLine
 10
165.428
 20
334.713857919
 30
0.0
 11
148.428
 21
334.713857919
 31
0.0
  0
LINE
  5
2EA
330
1F
100
AcDbEntity
  8
6
  6
Continuous
 62
     2
100
AcDbLine
 10
170.428
 20
331.513857919
 30
0.0
 11
148.428
 21
331.513857919
 31
0.0
  0
LINE
  5
2EB
330
1F
100
AcDbEntity
  8
5
  6
Continuous
 62
     2
100
AcDbLine
 10
150.428
 20
331.513857919
 30
0.0
 11
150.428
 21
329.174111956
 31
0.0
  0
LINE
  5
2EC
330
1F
100
AcDbEntity
  8
5
  6
Continuous
 62
     2
100
AcDbLine
 10
150.428
 20
340.513857919
 30
0.0
 11
150.428
 21
334.713857919
 31
0.0
  0
LINE
  5
2ED
330
1F
100
AcDbEntity
  8
5
  6
Continuous
 62
     2
100
AcDbLine
 10
100.428
 20
331.513857919
 30
0.0
 11
100.428
 21
329.174111956
 31
0.0
  0
LINE
  5
2EE
330
1F
100
AcDbEntity
  8
5
  6
Continuous
 62
     2
100
AcDbLine
 10
100.428
 20
340.513857919
 30
0.0
 11
100.428
 21
334.713857919
 31
0.0
  0
LINE
  5
2EF
330
1F
100
AcDbEntity
  8
6
  6
Continuous
 62
     2
100
AcDbLine
 10
170.428
 20
151.513857919
 30
0.0
 11
148.428
 21
151.513857919
 31
0.0
  0
LINE
  5
2F0
330
1F
100
AcDbEntity
  8
6
  6
Continuous
 62
     2
100
AcDbLine
 10
102.428
 20
151.513857919
 30
0.0
 11
80.428
 21
151.513857919
 31
0.0
  0
LINE
  5
2F1
330
1F
100
AcDbEntity
  8
5
  6
Continuous
 62
     2
100
AcDbLine
 10
100.428
 20
157.313857919
 30
0.0
 11
100.428
 21
151.513857919
 31
0.0
  0
LINE
  5
2F2
330
1F
100
AcDbEntity
  8
5
  6
Continuous
 62
     2
100
AcDbLine
 10
150.428
 20
157.313857919
 30
0.0
 11
150.428
 21
151.513857919
 31
0.0
  0
LINE
  5
2F3
330
1F
100
AcDbEntity
  8
5
  6
Continuous
 62
     2
100
AcDbLine
 10
108.428
 20
340.513857919
 30
0.0
 11
104.428
 21
340.513857919
 31
0.0
  0
LINE
  5
2F4
330
1F
100
AcDbEntity
  8
5
  6
Continuous
 62
     2
100
AcDbLine
 10
108.428
 20
337.313857919
 30
0.0
 11
104.428
 21
337.313857919
 31
0.0
  0
LINE
  5
2F5
330
1F
100
AcDbEntity
  8
5
  6
Continuous
 62
     2
100
AcDbLine
 10
140.428
 20
340.513857919
 30
0.0
 11
110.428
 21
340.513857919
 31
0.0
  0
LINE
  5
2F6
330
1F
100
AcDbEntity
  8
5
  6
Continuous
 62
     2
100
AcDbLine
 10
146.428
 20
340.513857919
 30
0.0
 11
142.428
 21
340.513857919
 31
0.0
  0
LINE
  5
2F7
330
1F
100
AcDbEntity
  8
5
  6
Continuous
 62
     2
100
AcDbLine
 10
140.428
 20
337.313857919
 30
0.0
 11
110.428
 21
337.313857919
 31
0.0
  0
LINE
  5
2F8
330
1F
100
AcDbEntity
  8
5
  6
Continuous
 62
     2
100
AcDbLine
 10
146.428
 20
337.313857919
 30
0.0
 11
142.428
 21
337.313857919
 31
0.0
  0
LINE
  5
2F9
330
1F
100
AcDbEntity
  8
6
  6
Continuous
 62
     2
100
AcDbLine
 10
108.428
 20
334.713857919
 30
0.0
 11
104.428
 21
334.713857919
 31
0.0
  0
LINE
  5
2FA
330
1F
100
AcDbEntity
  8
6
  6
Continuous
 62
     2
100
AcDbLine
 10
140.428
 20
334.713857919
 30
0.0
 11
134.178
 21
334.713857919
 31
0.0
  0
LINE
  5
2FB
330
1F
100
AcDbEntity
  8
6
  6
Continuous
 62
     2
100
AcDbLine
 10
146.428
 20
334.713857919
 30
0.0
 11
142.428
 21
334.713857919
 31
0.0
  0
LINE
  5
2FC
330
1F
100
AcDbEntity
  8
6
  6
Continuous
 62
     2
100
AcDbLine
 10
108.428
 20
331.513857919
 30
0.0
 11
104.428
 21
331.513857919
 31
0.0
  0
LINE
  5
2FD
330
1F
100
AcDbEntity
  8
6
  6
Continuous
 62
     2
100
AcDbLine
 10
146.428
 20
331.513857919
 30
0.0
 11
142.428
 21
331.513857919
 31
0.0
  0
LINE
  5
2FE
330
1F
100
AcDbEntity
  8
6
  6
Continuous
 62
     2
100
AcDbLine
 10
90.345424305
 20
148.313857919
 30
0.0
 11
85.428
 21
148.313857919
 31
0.0
  0
LINE
  5
2FF
330
1F
100
AcDbEntity
  8
6
  6
Continuous
 62
     2
100
AcDbLine
 10
165.428
 20
148.313857919
 30
0.0
 11
160.510575695
 21
148.313857919
 31
0.0
  0
LINE
  5
300
330
1F
100
AcDbEntity
  8
6
  6
Continuous
 62
     2
100
AcDbLine
 10
108.428
 20
151.513857919
 30
0.0
 11
104.428
 21
151.513857919
 31
0.0
  0
LINE
  5
301
330
1F
100
AcDbEntity
  8
6
  6
Continuous
 62
     2
100
AcDbLine
 10
140.428
 20
151.513857919
 30
0.0
 11
110.428
 21
151.513857919
 31
0.0
  0
LINE
  5
302
330
1F
100
AcDbEntity
  8
6
  6
Continuous
 62
     2
100
AcDbLine
 10
146.428
 20
151.513857919
 30
0.0
 11
142.428
 21
151.513857919
 31
0.0
  0
LINE
  5
303
330
1F
100
AcDbEntity
  8
5
  6
Continuous
 62
     2
100
AcDbLine
 10
146.428
 20
154.113857919
 30
0.0
 11
142.428
 21
154.113857919
 31
0.0
  0
LINE
  5
304
330
1F
100
AcDbEntity
  8
5
  6
Continuous
 62
     2
100
AcDbLine
 10
146.428
 20
157.313857919
 30
0.0
 11
142.428
 21
157.313857919
 31
0.0
  0
LINE
  5
305
330
1F
100
AcDbEntity
  8
5
  6
Continuous
 62
     2
100
AcDbLine
 10
108.428
 20
157.313857919
 30
0.0
 11
104.428
 21
157.313857919
 31
0.0
  0
LINE
  5
306
330
1F
100
AcDbEntity
  8
5
  6
Continuous
 62
     2
100
AcDbLine
 10
140.428
 20
157.313857919
 30
0.0
 11
110.428
 21
157.313857919
 31
0.0
  0
LINE
  5
307
330
1F
100
AcDbEntity
  8
5
  6
Continuous
 62
     2
100
AcDbLine
 10
108.428
 20
154.113857919
 30
0.0
 11
104.428
 21
154.113857919
 31
0.0
  0
LINE
  5
308
330
1F
100
AcDbEntity
  8
5
  6
Continuous
 62
     2
100
AcDbLine
 10
140.428
 20
154.113857919
 30
0.0
 11
110.428
 21
154.113857919
 31
0.0
  0
LINE
  5
309
330
1F
100
AcDbEntity
  8
5
  6
Continuous
 62
     2
100
AcDbLine
 10
100.428
 20
329.174111956
 30
0.0
 11
102.428
 21
321.710010341
 31
0.0
  0
LINE
  5
30A
330
1F
100
AcDbEntity
  8
10
  6
Continuous
 62
     2
100
AcDbLine
 10
104.428
 20
343.313857919
 30
0.0
 11
104.428
 21
151.313857919
 31
0.0
  0
LINE
  5
30B
330
1F
100
AcDbEntity
  8
10
  6
Continuous
 62
     2
100
AcDbLine
 10
102.428
 20
343.313857919
 30
0.0
 11
102.428
 21
151.313857919
 31
0.0
  0
LINE
  5
30C
330
1F
100
AcDbEntity
  8
10
  6
Continuous
 62
     2
100
AcDbLine
 10
146.428
 20
343.313857919
 30
0.0
 11
146.428
 21
151.313857919
 31
0.0
  0
LINE
  5
30D
330
1F
100
AcDbEntity
  8
10
  6
Continuous
 62
     2
100
AcDbLine
 10
148.428
 20
343.313857919
 30
0.0
 11
148.428
 21
151.313857919
 31
0.0
  0
ARC
  5
30E
330
1F
100
AcDbEntity
  8
4
  6
Continuous
 62
     2
100
AcDbCircle
 10
134.378
 20
327.563857919
 30
0.0
 40
2.6
100
AcDbArc
 50
0.0
 51
90.0
  0
ARC
  5
30F
330
1F
100
AcDbEntity
  8
4
  6
Continuous
 62
     2
100
AcDbCircle
 10
134.378
 20
327.563857919
 30
0.0
 40
5.8
100
AcDbArc
 50
0.0
 51
90.0
  0
ARC
  5
310
330
1F
100
AcDbEntity
  8
4
  6
Continuous
 62
     2
100
AcDbCircle
 10
134.378
 20
167.063857919
 30
0.0
 40
5.8
100
AcDbArc
 50
270.000075368
 51
0.000023083
  0
LINE
  5
311
330
1F
100
AcDbEntity
  8
4
  6
Continuous
 62
     2
100
AcDbLine
 10
140.178
 20
167.063860255
 30
0.0
 11
140.178
 21
327.563857919
 31
0.0
  0
ARC
  5
312
330
1F
100
AcDbEntity
  8
3
  6
Continuous
 62
     2
100
AcDbCircle
 10
116.478
 20
331.013857919
 30
0.0
 40
5.8
100
AcDbArc
 50
90.0
 51
180.0
  0
ARC
  5
313
330
1F
100
AcDbEntity
  8
3
  6
Continuous
 62
     2
100
AcDbCircle
 10
116.478
 20
331.013857919
 30
0.0
 40
2.6
100
AcDbArc
 50
90.0
 51
180.0
  0
ARC
  5
314
330
1F
100
AcDbEntity
  8
3
  6
Continuous
 62
     2
100
AcDbCircle
 10
116.478
 20
163.613857919
 30
0.0
 40
2.6
100
AcDbArc
 50
179.999921365
 51
270.0
  0
ARC
  5
315
330
1F
100
AcDbEntity
  8
3
  6
Continuous
 62
     2
100
AcDbCircle
 10
116.478
 20
163.613857919
 30
0.0
 40
5.8
100
AcDbArc
 50
179.999964746
 51
270.0
  0
LINE
  5
316
330
1F
100
AcDbEntity
  8
3
  6
Continuous
 62
     2
100
AcDbLine
 10
110.678
 20
163.613861487
 30
0.0
 11
110.678
 21
331.013857919
 31
0.0
  0
LINE
  5
317
330
1F
100
AcDbEntity
  8
3
  6
Continuous
 62
     2
100
AcDbLine
 10
134.178
 20
333.613857919
 30
0.0
 11
134.178
 21
336.813857919
 31
0.0
  0
LINE
  5
318
330
1F
100
AcDbEntity
  8
3
  6
Continuous
 62
     2
100
AcDbLine
 10
134.178
 20
161.013857919
 30
0.0
 11
134.178
 21
157.813857919
 31
0.0
  0
LINE
  5
319
330
1F
100
AcDbEntity
  8
3
  6
Continuous
 62
     2
100
AcDbLine
 10
116.478
 20
336.813857919
 30
0.0
 11
134.178
 21
336.813857919
 31
0.0
  0
LINE
  5
31A
330
1F
100
AcDbEntity
  8
3
  6
Continuous
 62
     2
100
AcDbLine
 10
116.478
 20
333.613857919
 30
0.0
 11
134.178
 21
333.613857919
 31
0.0
  0
LINE
  5
31B
330
1F
100
AcDbEntity
  8
3
  6
Continuous
 62
     2
100
AcDbLine
 10
116.478
 20
157.813857919
 30
0.0
 11
134.178
 21
157.813857919
 31
0.0
  0
LINE
  5
31C
330
1F
100
AcDbEntity
  8
3
  6
Continuous
 62
     2
100
AcDbLine
 10
116.478
 20
161.013857919
 30
0.0
 11
134.178
 21
161.013857919
 31
0.0
  0
LINE
  5
31D
330
1F
100
AcDbEntity
  8
3
  6
Continuous
 62
     2
100
AcDbLine
 10
116.478
 20
336.813857919
 30
0.0
 11
116.478
 21
333.613857919
 31
0.0
  0
LINE
  5
31E
330
1F
100
AcDbEntity
  8
3
  6
Continuous
 62
     2
100
AcDbLine
 10
110.678
 20
331.013857919
 30
0.0
 11
113.878
 21
331.013857919
 31
0.0
  0
ARC
  5
31F
330
1F
100
AcDbEntity
  8
3
  6
Continuous
 62
     2
100
AcDbCircle
 10
113.878
 20
333.613857919
 30
0.0
 40
2.6
100
AcDbArc
 50
270.0
 51
0.0
  0
ARC
  5
320
330
1F
100
AcDbEntity
  8
3
  6
Continuous
 62
     2
100
AcDbCircle
 10
122.678
 20
331.613857919
 30
0.0
 40
2.0
100
AcDbArc
 50
0.0
 51
90.0
  0
LWPOLYLINE
  5
323
330
1F
100
AcDbEntity
  8
3
  6
Continuous
 62
     2
100
AcDbPolyline
 90
     3
 70
   128
 43
0.0
 10
116.478
 20
157.813857919
 42
0.0
 10
116.478
 20
161.013861487
 42
0.414213562
 10
113.878
 20
163.613861487
 42
0.0
  0
ARC
  5
324
330
1F
100
AcDbEntity
  8
3
  6
Continuous
 62
     2
100
AcDbCircle
 10
122.678
 20
163.013857919
 30
0.0
 40
2.0
100
AcDbArc
 50
270.0
 51
0.0
  0
LINE
  5
325
330
1F
100
AcDbEntity
  8
3
  6
Continuous
 62
     2
100
AcDbLine
 10
124.678
 20
331.613857919
 30
0.0
 11
124.678
 21
163.013857919
 31
0.0
  0
LINE
  5
326
330
1F
100
AcDbEntity
  8
3
  6
Continuous
 62
     2
100
AcDbLine
 10
110.678
 20
163.613861487
 30
0.0
 11
113.878
 21
163.613861487
 31
0.0
  0
ARC
  5
327
330
1F
100
AcDbEntity
  8
4
  6
Continuous
 62
     2
100
AcDbCircle
 10
134.378
 20
167.063857919
 30
0.0
 40
2.6
100
AcDbArc
 50
270.0
 51
0.0
  0
ARC
  5
328
330
1F
100
AcDbEntity
  8
4
  6
Continuous
 62
     2
100
AcDbCircle
 10
128.178
 20
166.463857919
 30
0.0
 40
2.0
100
AcDbArc
 50
180.0
 51
270.0
  0
LINE
  5
329
330
1F
100
AcDbEntity
  8
4
  6
Continuous
 62
     2
100
AcDbLine
 10
140.178
 20
167.063860255
 30
0.0
 11
136.978007629
 21
167.063860255
 31
0.0
  0
LINE
  5
32A
330
1F
100
AcDbEntity
  8
4
  6
Continuous
 62
     2
100
AcDbLine
 10
134.378007629
 20
161.263857919
 30
0.0
 11
134.378007629
 21
164.463860255
 31
0.0
  0
ARC
  5
32B
330
1F
100
AcDbEntity
  8
4
  6
Continuous
 62
     2
100
AcDbCircle
 10
136.978007629
 20
164.463860255
 30
0.0
 40
2.6
100
AcDbArc
 50
90.0
 51
180.0
  0
LINE
  5
32C
330
1F
100
AcDbEntity
  8
4
  6
Continuous
 62
     2
100
AcDbLine
 10
134.378
 20
333.363857919
 30
0.0
 11
134.378
 21
330.163857919
 31
0.0
  0
LINE
  5
32D
330
1F
100
AcDbEntity
  8
4
  6
Continuous
 62
     2
100
AcDbLine
 10
140.178
 20
327.563857919
 30
0.0
 11
136.978
 21
327.563857919
 31
0.0
  0
ARC
  5
32E
330
1F
100
AcDbEntity
  8
4
  6
Continuous
 62
     2
100
AcDbCircle
 10
136.978
 20
330.163857919
 30
0.0
 40
2.6
100
AcDbArc
 50
180.0
 51
270.0
  0
LWPOLYLINE
  5
330
330
1F
100
AcDbEntity
  8
4
  6
Continuous
 62
     2
100
AcDbPolyline
 90
     3
 70
   128
 43
0.0
 10
128.178
 20
330.163857919
 42
0.414213562
 10
126.178
 20
328.163857919
 42
0.0
 10
126.178
 20
166.463857919
 42
0.0
  0
LINE
  5
331
330
1F
100
AcDbEntity
  8
4
  6
Continuous
 62
     2
100
AcDbLine
 10
124.678
 20
330.163857919
 30
0.0
 11
134.378
 21
330.163857919
 31
0.0
  0
LINE
  5
332
330
1F
100
AcDbEntity
  8
4
  6
Continuous
 62
     2
100
AcDbLine
 10
123.646245837
 20
333.363857919
 30
0.0
 11
134.378
 21
333.363857919
 31
0.0
  0
LINE
  5
333
330
1F
100
AcDbEntity
  8
4
  6
Continuous
 62
     2
100
AcDbLine
 10
124.678
 20
164.463857919
 30
0.0
 11
134.378
 21
164.463857919
 31
0.0
  0
LINE
  5
334
330
1F
100
AcDbEntity
  8
4
  6
Continuous
 62
     2
100
AcDbLine
 10
123.646245837
 20
161.263857919
 30
0.0
 11
134.378007629
 21
161.263857919
 31
0.0
  0
LINE
  5
335
330
1F
100
AcDbEntity
  8
11
  6
LTYPE3
 62
     2
100
AcDbLine
 10
125.428
 20
379.363857919
 30
0.0
 11
125.428
 21
116.493857919
 31
0.0
  0
LINE
  5
336
330
1F
100
AcDbEntity
  8
11
  6
LTYPE3
 62
     2
100
AcDbLine
 10
180.368
 20
247.313857919
 30
0.0
 11
63.663
 21
247.313857919
 31
0.0
  0
LINE
  5
337
330
1F
100
AcDbEntity
  8
7
  6
Continuous
 62
     2
100
AcDbLine
 10
264.638
 20
369.813857919
 30
0.0
 11
264.638
 21
387.313857919
 31
0.0
  0
LINE
  5
338
330
1F
100
AcDbEntity
  8
7
  6
Continuous
 62
     2
100
AcDbLine
 10
264.638
 20
382.313857919
 30
0.0
 11
270.675036414
 21
380.696238887
 31
0.0
  0
LINE
  5
339
330
1F
100
AcDbEntity
  8
7
  6
Continuous
 62
     2
100
AcDbLine
 10
264.638
 20
382.313857919
 30
0.0
 11
270.675036414
 21
383.93147695
 31
0.0
  0
LWPOLYLINE
  5
33B
330
1F
100
AcDbEntity
  8
7
  6
Continuous
 62
     2
100
AcDbPolyline
 90
     3
 70
   128
 43
0.0
 10
264.638
 20
382.313857919
 10
388.038
 20
382.313857919
 10
382.000963586
 20
383.93147695
  0
LINE
  5
33C
330
1F
100
AcDbEntity
  8
7
  6
Continuous
 62
     2
100
AcDbLine
 10
388.038
 20
382.313857919
 30
0.0
 11
382.000963586
 21
380.696238887
 31
0.0
  0
LINE
  5
33D
330
1F
100
AcDbEntity
  8
7
  6
Continuous
 62
     2
100
AcDbLine
 10
388.038
 20
334.013857919
 30
0.0
 11
388.038
 21
387.313857919
 31
0.0
  0
MTEXT
  5
33E
330
1F
100
AcDbEntity
  8
7
  6
Continuous
 62
     2
100
AcDbMText
 10
308.338
 20
384.813857919
 30
0.0
 40
7.5
 41
72.0
 71
     7
 72
     1
  1
\T1.167;\W0.600;（１２３．４）
  7
KANJI6
 73
     1
 44
1.0
  0
LINE
  5
340
330
1F
100
AcDbEntity
  8
7
  6
Continuous
 62
     2
100
AcDbLine
 10
150.828
 20
357.813857919
 30
0.0
 11
150.828
 21
387.313857919
 31
0.0
  0
LINE
  5
341
330
1F
100
AcDbEntity
  8
7
  6
Continuous
 62
     2
100
AcDbLine
 10
150.828
 20
382.313857919
 30
0.0
 11
144.790963586
 21
383.93147695
 31
0.0
  0
LINE
  5
342
330
1F
100
AcDbEntity
  8
7
  6
Continuous
 62
     2
100
AcDbLine
 10
150.828
 20
382.313857919
 30
0.0
 11
144.790963586
 21
380.696238887
 31
0.0
  0
LWPOLYLINE
  5
344
330
1F
100
AcDbEntity
  8
7
  6
Continuous
 62
     2
100
AcDbPolyline
 90
     3
 70
   128
 43
0.0
 10
150.828
 20
382.313857919
 10
100.028
 20
382.313857919
 10
106.065036414
 20
380.696238887
  0
LINE
  5
345
330
1F
100
AcDbEntity
  8
7
  6
Continuous
 62
     2
100
AcDbLine
 10
100.028
 20
382.313857919
 30
0.0
 11
106.065036414
 21
383.93147695
 31
0.0
  0
LINE
  5
346
330
1F
100
AcDbEntity
  8
7
  6
Continuous
 62
     2
100
AcDbLine
 10
100.028
 20
357.813857919
 30
0.0
 11
100.028
 21
387.313857919
 31
0.0
  0
MTEXT
  5
347
330
1F
100
AcDbEntity
  8
7
  6
Continuous
 62
     2
100
AcDbMText
 10
115.303
 20
384.813857919
 30
0.0
 40
7.5
 41
40.5
 71
     7
 72
     1
  1
\T1.167;\W0.600;５０．８
  7
KANJI6
 73
     1
 44
1.0
  0
LINE
  5
348
330
1F
100
AcDbEntity
  8
7
  6
Continuous
 62
     2
100
AcDbLine
 10
160.928
 20
364.813857919
 30
0.0
 11
160.928
 21
402.313857919
 31
0.0
  0
LINE
  5
349
330
1F
100
AcDbEntity
  8
7
  6
Continuous
 62
     2
100
AcDbLine
 10
160.928
 20
397.313857919
 30
0.0
 11
154.890963586
 21
398.93147695
 31
0.0
  0
LINE
  5
34A
330
1F
100
AcDbEntity
  8
7
  6
Continuous
 62
     2
100
AcDbLine
 10
160.928
 20
397.313857919
 30
0.0
 11
154.890963586
 21
395.696238887
 31
0.0
  0
LWPOLYLINE
  5
34C
330
1F
100
AcDbEntity
  8
7
  6
Continuous
 62
     2
100
AcDbPolyline
 90
     3
 70
   128
 43
0.0
 10
160.928
 20
397.313857919
 10
89.928
 20
397.313857919
 10
95.965036414
 20
395.696238887
  0
LINE
  5
34D
330
1F
100
AcDbEntity
  8
7
  6
Continuous
 62
     2
100
AcDbLine
 10
89.928
 20
397.313857919
 30
0.0
 11
95.965036414
 21
398.93147695
 31
0.0
  0
LINE
  5
34E
330
1F
100
AcDbEntity
  8
7
  6
Continuous
 62
     2
100
AcDbLine
 10
89.928
 20
364.813857919
 30
0.0
 11
89.928
 21
402.313857919
 31
0.0
  0
MTEXT
  5
34F
330
1F
100
AcDbEntity
  8
7
  6
Continuous
 62
     2
100
AcDbMText
 10
120.553
 20
399.813857919
 30
0.0
 40
7.5
 41
19.5
 71
     7
 72
     1
  1
\T1.167;\W0.600;７１
  7
KANJI6
 73
     1
 44
1.0
  0
LINE
  5
350
330
1F
100
AcDbEntity
  8
7
  6
Continuous
 62
     2
100
AcDbLine
 10
490.738
 20
318.913857919
 30
0.0
 11
490.738
 21
387.313857919
 31
0.0
  0
LINE
  5
351
330
1F
100
AcDbEntity
  8
7
  6
Continuous
 62
     2
100
AcDbLine
 10
490.738
 20
382.313857919
 30
0.0
 11
496.775036414
 21
380.696238887
 31
0.0
  0
LINE
  5
352
330
1F
100
AcDbEntity
  8
7
  6
Continuous
 62
     2
100
AcDbLine
 10
490.738
 20
382.313857919
 30
0.0
 11
496.775036414
 21
383.93147695
 31
0.0
  0
LWPOLYLINE
  5
354
330
1F
100
AcDbEntity
  8
7
  6
Continuous
 62
     2
100
AcDbPolyline
 90
     3
 70
   128
 43
0.0
 10
490.738
 20
382.313857919
 10
570.738
 20
382.313857919
 10
564.700963586
 20
383.93147695
  0
LINE
  5
355
330
1F
100
AcDbEntity
  8
7
  6
Continuous
 62
     2
100
AcDbLine
 10
570.738
 20
382.313857919
 30
0.0
 11
564.700963586
 21
380.696238887
 31
0.0
  0
LINE
  5
356
330
1F
100
AcDbEntity
  8
7
  6
Continuous
 62
     2
100
AcDbLine
 10
570.738
 20
318.913857919
 30
0.0
 11
570.738
 21
387.313857919
 31
0.0
  0
MTEXT
  5
357
330
1F
100
AcDbEntity
  8
7
  6
Continuous
 62
     2
100
AcDbMText
 10
525.863
 20
384.813857919
 30
0.0
 40
7.5
 41
19.5
 71
     7
 72
     1
  1
\T1.167;\W0.600;８０
  7
KANJI6
 73
     1
 44
1.0
  0
LINE
  5
358
330
1F
100
AcDbEntity
  8
7
  6
Continuous
 62
     2
100
AcDbLine
 10
480.738
 20
328.913857919
 30
0.0
 11
480.738
 21
402.313857919
 31
0.0
  0
LINE
  5
359
330
1F
100
AcDbEntity
  8
7
  6
Continuous
 62
     2
100
AcDbLine
 10
480.738
 20
397.313857919
 30
0.0
 11
486.775036414
 21
395.696238887
 31
0.0
  0
LINE
  5
35A
330
1F
100
AcDbEntity
  8
7
  6
Continuous
 62
     2
100
AcDbLine
 10
480.738
 20
397.313857919
 30
0.0
 11
486.775036414
 21
398.93147695
 31
0.0
  0
LWPOLYLINE
  5
35C
330
1F
100
AcDbEntity
  8
7
  6
Continuous
 62
     2
100
AcDbPolyline
 90
     3
 70
   128
 43
0.0
 10
480.738
 20
397.313857919
 10
580.738
 20
397.313857919
 10
574.700963586
 20
398.93147695
  0
LINE
  5
35D
330
1F
100
AcDbEntity
  8
7
  6
Continuous
 62
     2
100
AcDbLine
 10
580.738
 20
397.313857919
 30
0.0
 11
574.700963586
 21
395.696238887
 31
0.0
  0
LINE
  5
35E
330
1F
100
AcDbEntity
  8
7
  6
Continuous
 62
     2
100
AcDbLine
 10
580.738
 20
328.913857919
 30
0.0
 11
580.738
 21
402.313857919
 31
0.0
  0
MTEXT
  5
35F
330
1F
100
AcDbEntity
  8
7
  6
Continuous
 62
     2
100
AcDbMText
 10
523.238
 20
399.813857919
 30
0.0
 40
7.5
 41
30.0
 71
     7
 72
     1
  1
\T1.167;\W0.600;１００
  7
KANJI6
 73
     1
 44
1.0
  0
LINE
  5
360
330
1F
100
AcDbEntity
  8
7
  6
Continuous
 62
     2
100
AcDbLine
 10
488.238
 20
316.413857919
 30
0.0
 11
460.738
 21
316.413857919
 31
0.0
  0
LINE
  5
361
330
1F
100
AcDbEntity
  8
7
  6
Continuous
 62
     2
100
AcDbLine
 10
465.738
 20
316.413857919
 30
0.0
 11
464.120380968
 21
310.376821504
 31
0.0
  0
LINE
  5
362
330
1F
100
AcDbEntity
  8
7
  6
Continuous
 62
     2
100
AcDbLine
 10
465.738
 20
316.413857919
 30
0.0
 11
467.355619032
 21
310.376821504
 31
0.0
  0
LWPOLYLINE
  5
364
330
1F
100
AcDbEntity
  8
7
  6
Continuous
 62
     2
100
AcDbPolyline
 90
     3
 70
   128
 43
0.0
 10
465.738
 20
316.413857919
 10
465.738
 20
241.413857919
 10
467.355619032
 20
247.450894333
  0
LINE
  5
365
330
1F
100
AcDbEntity
  8
7
  6
Continuous
 62
     2
100
AcDbLine
 10
465.738
 20
241.413857919
 30
0.0
 11
464.120380968
 21
247.450894333
 31
0.0
  0
LINE
  5
366
330
1F
100
AcDbEntity
  8
7
  6
Continuous
 62
     2
100
AcDbLine
 10
470.043
 20
241.413857919
 30
0.0
 11
460.738
 21
241.413857919
 31
0.0
  0
MTEXT
  5
367
330
1F
100
AcDbEntity
  8
7
  6
Continuous
 62
     2
100
AcDbMText
 10
463.238
 20
274.038857919
 30
0.0
 40
7.5
 41
19.5
 71
     7
 72
     1
  1
\T1.167;\W0.600;７５
  7
KANJI6
 11
0.0
 21
1.0
 31
0.0
 73
     1
 44
1.0
  0
LINE
  5
368
330
1F
100
AcDbEntity
  8
7
  6
Continuous
 62
     2
100
AcDbLine
 10
465.738
 20
241.413857919
 30
0.0
 11
464.120380968
 21
235.376821504
 31
0.0
  0
LINE
  5
369
330
1F
100
AcDbEntity
  8
7
  6
Continuous
 62
     2
100
AcDbLine
 10
465.738
 20
241.413857919
 30
0.0
 11
467.355619032
 21
235.376821504
 31
0.0
  0
LWPOLYLINE
  5
36B
330
1F
100
AcDbEntity
  8
7
  6
Continuous
 62
     2
100
AcDbPolyline
 90
     3
 70
   128
 43
0.0
 10
465.738
 20
241.413857919
 10
465.738
 20
166.413857919
 10
467.355619032
 20
172.450894333
  0
LINE
  5
36C
330
1F
100
AcDbEntity
  8
7
  6
Continuous
 62
     2
100
AcDbLine
 10
465.738
 20
166.413857919
 30
0.0
 11
464.120380968
 21
172.450894333
 31
0.0
  0
LINE
  5
36D
330
1F
100
AcDbEntity
  8
7
  6
Continuous
 62
     2
100
AcDbLine
 10
488.238
 20
166.413857919
 30
0.0
 11
460.738
 21
166.413857919
 31
0.0
  0
MTEXT
  5
36E
330
1F
100
AcDbEntity
  8
7
  6
Continuous
 62
     2
100
AcDbMText
 10
463.238
 20
199.038857919
 30
0.0
 40
7.5
 41
19.5
 71
     7
 72
     1
  1
\T1.167;\W0.600;７５
  7
KANJI6
 11
0.0
 21
1.0
 31
0.0
 73
     1
 44
1.0
  0
LINE
  5
36F
330
1F
100
AcDbEntity
  8
7
  6
Continuous
 62
     2
100
AcDbLine
 10
483.238
 20
331.413857919
 30
0.0
 11
445.738
 21
331.413857919
 31
0.0
  0
LINE
  5
370
330
1F
100
AcDbEntity
  8
7
  6
Continuous
 62
     2
100
AcDbLine
 10
450.738
 20
331.413857919
 30
0.0
 11
449.120380968
 21
325.376821504
 31
0.0
  0
LINE
  5
371
330
1F
100
AcDbEntity
  8
7
  6
Continuous
 62
     2
100
AcDbLine
 10
450.738
 20
331.413857919
 30
0.0
 11
452.355619032
 21
325.376821504
 31
0.0
  0
LWPOLYLINE
  5
373
330
1F
100
AcDbEntity
  8
7
  6
Continuous
 62
     2
100
AcDbPolyline
 90
     3
 70
   128
 43
0.0
 10
450.738
 20
331.413857919
 10
450.738
 20
151.413857919
 10
452.355619032
 20
157.450894333
  0
LINE
  5
374
330
1F
100
AcDbEntity
  8
7
  6
Continuous
 62
     2
100
AcDbLine
 10
450.738
 20
151.413857919
 30
0.0
 11
449.120380968
 21
157.450894333
 31
0.0
  0
LINE
  5
375
330
1F
100
AcDbEntity
  8
7
  6
Continuous
 62
     2
100
AcDbLine
 10
483.238
 20
151.413857919
 30
0.0
 11
445.738
 21
151.413857919
 31
0.0
  0
MTEXT
  5
376
330
1F
100
AcDbEntity
  8
7
  6
Continuous
 62
     2
100
AcDbMText
 10
448.238
 20
233.913857919
 30
0.0
 40
7.5
 41
30.0
 71
     7
 72
     1
  1
\T1.167;\W0.600;１８０
  7
KANJI6
 11
0.0
 21
1.0
 31
0.0
 73
     1
 44
1.0
  0
LINE
  5
377
330
1F
100
AcDbEntity
  8
7
  6
Continuous
 62
     2
100
AcDbLine
 10
359.178
 20
247.313857919
 30
0.0
 11
408.038
 21
247.313857919
 31
0.0
  0
LINE
  5
378
330
1F
100
AcDbEntity
  8
7
  6
Continuous
 62
     2
100
AcDbLine
 10
403.038
 20
247.313857919
 30
0.0
 11
404.655619032
 21
253.350894333
 31
0.0
  0
LINE
  5
379
330
1F
100
AcDbEntity
  8
7
  6
Continuous
 62
     2
100
AcDbLine
 10
403.038
 20
247.313857919
 30
0.0
 11
401.420380968
 21
253.350894333
 31
0.0
  0
LWPOLYLINE
  5
37B
330
1F
100
AcDbEntity
  8
7
  6
Continuous
 62
     2
100
AcDbPolyline
 90
     4
 70
   128
 43
0.0
 10
403.038
 20
282.188857919
 10
403.038
 20
247.313857919
 10
403.038
 20
241.413857919
 10
403.038
 20
232.038857919
  0
LINE
  5
37C
330
1F
100
AcDbEntity
  8
7
  6
Continuous
 62
     2
100
AcDbLine
 10
403.038
 20
241.413857919
 30
0.0
 11
401.420380968
 21
235.376821504
 31
0.0
  0
LINE
  5
37D
330
1F
100
AcDbEntity
  8
7
  6
Continuous
 62
     2
100
AcDbLine
 10
403.038
 20
241.413857919
 30
0.0
 11
404.655619032
 21
235.376821504
 31
0.0
  0
LINE
  5
37E
330
1F
100
AcDbEntity
  8
7
  6
Continuous
 62
     2
100
AcDbLine
 10
397.613
 20
241.413857919
 30
0.0
 11
408.038
 21
241.413857919
 31
0.0
  0
MTEXT
  5
37F
330
1F
100
AcDbEntity
  8
7
  6
Continuous
 62
     2
100
AcDbMText
 10
400.538
 20
256.688857919
 30
0.0
 40
7.5
 41
51.0
 71
     7
 72
     1
  1
\T1.167;\W0.600;（５．９）
  7
KANJI6
 11
0.0
 21
1.0
 31
0.0
 73
     1
 44
1.0
  0
LINE
  5
380
330
1F
100
AcDbEntity
  8
7
  6
Continuous
 62
     2
100
AcDbLine
 10
153.328
 20
139.313857919
 30
0.0
 11
195.428
 21
139.313857919
 31
0.0
  0
LINE
  5
381
330
1F
100
AcDbEntity
  8
7
  6
Continuous
 62
     2
100
AcDbLine
 10
190.428
 20
139.313857919
 30
0.0
 11
192.045619032
 21
145.350894333
 31
0.0
  0
LINE
  5
382
330
1F
100
AcDbEntity
  8
7
  6
Continuous
 62
     2
100
AcDbLine
 10
190.428
 20
139.313857919
 30
0.0
 11
188.810380968
 21
145.350894333
 31
0.0
  0
LWPOLYLINE
  5
384
330
1F
100
AcDbEntity
  8
7
  6
Continuous
 62
     2
100
AcDbPolyline
 90
     3
 70
   128
 43
0.0
 10
190.428
 20
139.313857919
 10
190.428
 20
355.313857919
 10
188.810380968
 20
349.276821504
  0
LINE
  5
385
330
1F
100
AcDbEntity
  8
7
  6
Continuous
 62
     2
100
AcDbLine
 10
190.428
 20
355.313857919
 30
0.0
 11
192.045619032
 21
349.276821504
 31
0.0
  0
LINE
  5
386
330
1F
100
AcDbEntity
  8
7
  6
Continuous
 62
     2
100
AcDbLine
 10
153.328
 20
355.313857919
 30
0.0
 11
195.428
 21
355.313857919
 31
0.0
  0
MTEXT
  5
387
330
1F
100
AcDbEntity
  8
7
  6
Continuous
 62
     2
100
AcDbMText
 10
187.928
 20
239.813857919
 30
0.0
 40
7.5
 41
30.0
 71
     7
 72
     1
  1
\T1.167;\W0.600;２１６
  7
KANJI6
 11
0.0
 21
1.0
 31
0.0
 73
     1
 44
1.0
  0
LINE
  5
388
330
1F
100
AcDbEntity
  8
7
  6
Continuous
 62
     2
100
AcDbLine
 10
158.428
 20
127.313857919
 30
0.0
 11
210.428
 21
127.313857919
 31
0.0
  0
LINE
  5
389
330
1F
100
AcDbEntity
  8
7
  6
Continuous
 62
     2
100
AcDbLine
 10
205.428
 20
127.313857919
 30
0.0
 11
207.045619032
 21
133.350894333
 31
0.0
  0
LINE
  5
38A
330
1F
100
AcDbEntity
  8
7
  6
Continuous
 62
     2
100
AcDbLine
 10
205.428
 20
127.313857919
 30
0.0
 11
203.810380968
 21
133.350894333
 31
0.0
  0
LWPOLYLINE
  5
38C
330
1F
100
AcDbEntity
  8
7
  6
Continuous
 62
     2
100
AcDbPolyline
 90
     3
 70
   128
 43
0.0
 10
205.428
 20
127.313857919
 10
205.428
 20
367.313857919
 10
203.810380968
 20
361.276821504
  0
LINE
  5
38D
330
1F
100
AcDbEntity
  8
7
  6
Continuous
 62
     2
100
AcDbLine
 10
205.428
 20
367.313857919
 30
0.0
 11
207.045619032
 21
361.276821504
 31
0.0
  0
LINE
  5
38E
330
1F
100
AcDbEntity
  8
7
  6
Continuous
 62
     2
100
AcDbLine
 10
158.428
 20
367.313857919
 30
0.0
 11
210.428
 21
367.313857919
 31
0.0
  0
MTEXT
  5
38F
330
1F
100
AcDbEntity
  8
7
  6
Continuous
 62
     2
100
AcDbMText
 10
202.928
 20
239.813857919
 30
0.0
 40
7.5
 41
30.0
 71
     7
 72
     1
  1
\T1.167;\W0.600;２４０
  7
KANJI6
 11
0.0
 21
1.0
 31
0.0
 73
     1
 44
1.0
  0
LINE
  5
390
330
1F
100
AcDbEntity
  8
7
  6
Continuous
 62
     2
100
AcDbLine
 10
488.548
 20
159.813857919
 30
0.0
 11
484.626212788
 21
154.94743366
 31
0.0
  0
LINE
  5
391
330
1F
100
AcDbEntity
  8
7
  6
Continuous
 62
     2
100
AcDbLine
 10
488.548
 20
159.813857919
 30
0.0
 11
487.584844776
 21
153.638517279
 31
0.0
  0
LWPOLYLINE
  5
393
330
1F
100
AcDbEntity
  8
7
  6
Continuous
 62
     2
100
AcDbPolyline
 90
     3
 70
   128
 43
0.0
 10
488.548
 20
159.813857919
 10
469.498
 20
116.753857919
 10
438.748
 20
116.753857919
  0
MTEXT
  5
394
330
1F
100
AcDbEntity
  8
7
  6
Continuous
 62
     2
100
AcDbMText
 10
438.748
 20
119.253857919
 30
0.0
 40
7.5
 41
61.5
 71
     7
 72
     1
  1
\T1.111;\W0.625;６－φ９．５
  7
KANJI7
 73
     1
 44
1.0
  0
LINE
  5
396
330
1F
100
AcDbEntity
  8
7
  6
Continuous
 62
     2
100
AcDbLine
 10
153.093978078
 20
134.51315867
 30
0.0
 11
154.897145006
 21
128.528921958
 31
0.0
  0
LINE
  5
397
330
1F
100
AcDbEntity
  8
7
  6
Continuous
 62
     2
100
AcDbLine
 10
153.093978078
 20
134.51315867
 30
0.0
 11
157.647684801
 21
130.232241119
 31
0.0
  0
LWPOLYLINE
  5
399
330
1F
100
AcDbEntity
  8
7
  6
Continuous
 62
     2
100
AcDbPolyline
 90
     3
 70
   128
 43
0.0
 10
153.093978078
 20
134.51315867
 10
177.263978078
 20
95.48315867
 10
204.638978078
 20
95.48315867
  0
MTEXT
  5
39A
330
1F
100
AcDbEntity
  8
7
  6
Continuous
 62
     2
100
AcDbMText
 10
177.263978078
 20
97.98315867
 30
0.0
 40
7.5
 41
54.75
 71
     7
 72
     1
  1
\T1.111;\W0.557;４－φ６．５
  7
KANJI7
 73
     1
 44
1.0
  0
LINE
  5
39B
330
1F
100
AcDbEntity
  8
7
  6
Continuous
 62
     2
100
AcDbLine
 10
363.983978078
 20
128.59315867
 30
0.0
 11
359.480610785
 21
124.25931707
 31
0.0
  0
LINE
  5
39C
330
1F
100
AcDbEntity
  8
7
  6
Continuous
 62
     2
100
AcDbLine
 10
363.983978078
 20
128.59315867
 30
0.0
 11
362.2508684
 21
122.588258101
 31
0.0
  0
LWPOLYLINE
  5
39E
330
1F
100
AcDbEntity
  8
7
  6
Continuous
 62
     2
100
AcDbPolyline
 90
     3
 70
   128
 43
0.0
 10
363.983978078
 20
128.59315867
 10
347.093978078
 20
100.59315867
 10
280.343978078
 20
100.59315867
  0
MTEXT
  5
39F
330
1F
100
AcDbEntity
  8
7
  6
Continuous
 62
     2
100
AcDbMText
 10
280.343978078
 20
103.09315867
 30
0.0
 40
7.5
 41
133.5
 71
     7
 72
     1
  1
\T1.111;\W0.900;割りピン　抜け止め
  7
KANJI7
 73
     1
 44
1.0
  0
MTEXT
  5
3A0
330
1F
100
AcDbEntity
  8
7
  6
Continuous
 62
     2
100
AcDbMText
 10
280.343978078
 20
90.59315867
 30
0.0
 40
7.5
 41
101.25
 71
     7
 72
     1
  1
\T1.111;\W0.614;４ｍｍ　長さ２０ｍｍ
  7
KANJI7
 73
     1
 44
1.0
  0
MTEXT
  5
3A1
330
1F
100
AcDbEntity
  8
9
  6
Continuous
 62
     2
100
AcDbMText
 10
300.627083333
 20
35.002916667
 30
0.0
 40
7.5
 41
343.5
 71
     7
 72
     1
  1
\T1.111;\W0.900;特記　　寸法指示無い公差は±０．５以内とする．
  7
KANJI3
 73
     1
 44
1.0
  0
ENDSEC
  0
SECTION
  2
OBJECTS
  0
DICTIONARY
  5
C
330
0
100
AcDbDictionary
280
     0
281
     1
  3
ACAD_GROUP
350
D
  3
ACAD_LAYOUT
350
1A
  3
ACAD_MLINESTYLE
350
17
  3
ACAD_PLOTSETTINGS
350
19
  3
ACAD_PLOTSTYLENAME
350
E
  0
DICTIONARY
  5
D
102
{ACAD_REACTORS
330
C
102
}
330
C
100
AcDbDictionary
280
     0
281
     1
  0
DICTIONARY
  5
1A
102
{ACAD_REACTORS
330
C
102
}
330
C
100
AcDbDictionary
280
     0
281
     1
  3
Model
350
22
  3
ﾚｲｱｳﾄ1
350
1E
  3
ﾚｲｱｳﾄ2
350
26
  0
LAYOUT
  5
22
102
{ACAD_REACTORS
330
1A
102
}
330
1A
100
AcDbPlotSettings
  1

  2

  4

  6

 40
0.0
 41
0.0
 42
0.0
 43
0.0
 44
0.0
 45
0.0
 46
0.0
 47
0.0
 48
0.0
 49
0.0
140
0.0
141
0.0
142
1.0
143
1.0
 70
  1712
 72
     0
 73
     0
 74
     0
  7

 75
     0
147
1.0
148
0.0
149
0.0
100
AcDbLayout
  1
Model
 70
     1
 71
     0
 10
0.0
 20
0.0
 11
0.0
 21
0.0
 12
0.0
 22
0.0
 32
0.0
 14
0.0
 24
0.0
 34
0.0
 15
0.0
 25
0.0
 35
0.0
146
0.0
 13
0.0
 23
0.0
 33
0.0
 16
1.0
 26
0.0
 36
0.0
 17
0.0
 27
1.0
 37
0.0
 76
     0
330
1F
331
0
345
0
346
0
  0
LAYOUT
  5
1E
102
{ACAD_REACTORS
330
1A
102
}
330
1A
100
AcDbPlotSettings
  1

  2

  4

  6

 40
0.0
 41
0.0
 42
0.0
 43
0.0
 44
0.0
 45
0.0
 46
0.0
 47
0.0
 48
0.0
 49
0.0
140
0.0
141
0.0
142
1.0
143
1.0
 70
   688
 72
     0
 73
     0
 74
     5
  7

 75
    16
147
1.0
148
0.0
149
0.0
100
AcDbLayout
  1
ﾚｲｱｳﾄ1
 70
     1
 71
     1
 10
0.0
 20
0.0
 11
0.0
 21
0.0
 12
0.0
 22
0.0
 32
0.0
 14
0.0
 24
0.0
 34
0.0
 15
0.0
 25
0.0
 35
0.0
146
0.0
 13
0.0
 23
0.0
 33
0.0
 16
1.0
 26
0.0
 36
0.0
 17
0.0
 27
1.0
 37
0.0
 76
     0
330
1B
331
0
345
0
346
0
  0
LAYOUT
  5
26
102
{ACAD_REACTORS
330
1A
102
}
330
1A
100
AcDbPlotSettings
  1

  2

  4

  6

 40
0.0
 41
0.0
 42
0.0
 43
0.0
 44
0.0
 45
0.0
 46
0.0
 47
0.0
 48
0.0
 49
0.0
140
0.0
141
0.0
142
1.0
143
1.0
 70
   688
 72
     0
 73
     0
 74
     5
  7

 75
    16
147
1.0
148
0.0
149
0.0
100
AcDbLayout
  1
ﾚｲｱｳﾄ2
 70
     1
 71
     2
 10
0.0
 20
0.0
 11
0.0
 21
0.0
 12
0.0
 22
0.0
 32
0.0
 14
0.0
 24
0.0
 34
0.0
 15
0.0
 25
0.0
 35
0.0
146
0.0
 13
0.0
 23
0.0
 33
0.0
 16
1.0
 26
0.0
 36
0.0
 17
0.0
 27
1.0
 37
0.0
 76
     0
330
23
331
0
345
0
346
0
  0
DICTIONARY
  5
17
102
{ACAD_REACTORS
330
C
102
}
330
C
100
AcDbDictionary
280
     0
281
     1
  3
Standard
350
18
  0
MLINESTYLE
  5
18
102
{ACAD_REACTORS
330
17
102
}
330
17
100
AcDbMlineStyle
  2
STANDARD
 70
     0
  3

 62
   256
 51
90.0
 52
90.0
 71
     2
 49
0.5
 62
   256
  6
ByLayer
 49
-0.5
 62
   256
  6
ByLayer
  0
DICTIONARY
  5
19
102
{ACAD_REACTORS
330
C
102
}
330
C
100
AcDbDictionary
280
     0
281
     1
  0
ACDBDICTIONARYWDFLT
  5
E
330
C
100
AcDbDictionary
281
     0
  3
Normal
350
F
100
AcDbDictionaryWithDefault
340
F
  0
ACDBPLACEHOLDER
  5
F
102
{ACAD_REACTORS
330
E
102
}
330
E
  0
ENDSEC
  0
EOF
