  0
SECTION
  2
HEADER
  9
$ACADVER
  1
AC1015
  9
$ACADMAINTVER
 70
    20
  9
$DWGCODEPAGE
  3
ANSI_932
  9
$INSBASE
 10
0.0
 20
0.0
 30
0.0
  9
$EXTMIN
 10
-350.0274637248688
 20
-533.9162626328125
 30
-0.0015258207003583
  9
$EXTMAX
 10
550.0274679158201
 20
804.1679537850423
 30
0.0000000349246037
  9
$LIMMIN
 10
0.0
 20
0.0
  9
$LIMMAX
 10
0.0
 20
0.0
  9
$ORTHOMODE
 70
     0
  9
$REGENMODE
 70
     1
  9
$FILLMODE
 70
     1
  9
$QTEXTMODE
 70
     0
  9
$MIRRTEXT
 70
     1
  9
$LTSCALE
 40
25.4
  9
$ATTMODE
 70
     1
  9
$TEXTSIZE
 40
0.0
  9
$TRACEWID
 40
1.0
  9
$TEXTSTYLE
  7
STANDARD
  9
$CLAYER
  8
DATA
  9
$CELTYPE
  6
ByLayer
  9
$CECOLOR
 62
   256
  9
$CELTSCALE
 40
1.0
  9
$DISPSILH
 70
     0
  9
$DIMSCALE
 40
1.0
  9
$DIMASZ
 40
0.18
  9
$DIMEXO
 40
0.0625
  9
$DIMDLI
 40
0.38
  9
$DIMRND
 40
0.0
  9
$DIMDLE
 40
0.0
  9
$DIMEXE
 40
0.18
  9
$DIMTP
 40
0.0
  9
$DIMTM
 40
0.0
  9
$DIMTXT
 40
0.18
  9
$DIMCEN
 40
0.09
  9
$DIMTSZ
 40
0.0
  9
$DIMTOL
 70
     0
  9
$DIMLIM
 70
     0
  9
$DIMTIH
 70
     1
  9
$DIMTOH
 70
     1
  9
$DIMSE1
 70
     0
  9
$DIMSE2
 70
     0
  9
$DIMTAD
 70
     0
  9
$DIMZIN
 70
     0
  9
$DIMBLK
  1

  9
$DIMASO
 70
     1
  9
$DIMSHO
 70
     1
  9
$DIMPOST
  1

  9
$DIMAPOST
  1

  9
$DIMALT
 70
     0
  9
$DIMALTD
 70
     2
  9
$DIMALTF
 40
25.4
  9
$DIMLFAC
 40
1.0
  9
$DIMTOFL
 70
     0
  9
$DIMTVP
 40
0.0
  9
$DIMTIX
 70
     0
  9
$DIMSOXD
 70
     0
  9
$DIMSAH
 70
     0
  9
$DIMBLK1
  1

  9
$DIMBLK2
  1

  9
$DIMSTYLE
  2
STANDARD
  9
$DIMCLRD
 70
     0
  9
$DIMCLRE
 70
     0
  9
$DIMCLRT
 70
     0
  9
$DIMTFAC
 40
1.0
  9
$DIMGAP
 40
0.09
  9
$DIMJUST
 70
     0
  9
$DIMSD1
 70
     0
  9
$DIMSD2
 70
     0
  9
$DIMTOLJ
 70
     1
  9
$DIMTZIN
 70
     0
  9
$DIMALTZ
 70
     0
  9
$DIMALTTZ
 70
     0
  9
$DIMUPT
 70
     0
  9
$DIMDEC
 70
     4
  9
$DIMTDEC
 70
     4
  9
$DIMALTU
 70
     2
  9
$DIMALTTD
 70
     2
  9
$DIMTXSTY
  7
STANDARD
  9
$DIMAUNIT
 70
     0
  9
$DIMADEC
 70
     0
  9
$DIMALTRND
 40
0.0
  9
$DIMAZIN
 70
     0
  9
$DIMDSEP
 70
    46
  9
$DIMATFIT
 70
     3
  9
$DIMFRAC
 70
     0
  9
$DIMLDRBLK
  1

  9
$DIMLUNIT
 70
     2
  9
$DIMLWD
 70
    -2
  9
$DIMLWE
 70
    -2
  9
$DIMTMOVE
 70
     0
  9
$LUNITS
 70
     2
  9
$LUPREC
 70
     4
  9
$SKETCHINC
 40
0.1
  9
$FILLETRAD
 40
0.0
  9
$AUNITS
 70
     0
  9
$AUPREC
 70
     0
  9
$MENU
  1
acad
  9
$ELEVATION
 40
0.0
  9
$PELEVATION
 40
0.0
  9
$THICKNESS
 40
0.0
  9
$LIMCHECK
 70
     0
  9
$CHAMFERA
 40
0.0
  9
$CHAMFERB
 40
0.0
  9
$CHAMFERC
 40
0.0
  9
$CHAMFERD
 40
0.0
  9
$SKPOLY
 70
     0
  9
$TDCREATE
 40
2457051.559259259
  9
$TDUCREATE
 40
2457051.184259259
  9
$TDUPDATE
 40
2457051.560681736
  9
$TDUUPDATE
 40
2457051.185681736
  9
$TDINDWG
 40
0.0005153472
  9
$TDUSRTIMER
 40
0.0005153356
  9
$USRTIMER
 70
     1
  9
$ANGBASE
 50
0.0
  9
$ANGDIR
 70
     0
  9
$PDMODE
 70
     1
  9
$PDSIZE
 40
-2.0
  9
$PLINEWID
 40
0.0
  9
$SPLFRAME
 70
     0
  9
$SPLINETYPE
 70
     6
  9
$SPLINESEGS
 70
     8
  9
$HANDSEED
  5
4E3
  9
$SURFTAB1
 70
     6
  9
$SURFTAB2
 70
     6
  9
$SURFTYPE
 70
     6
  9
$SURFU
 70
     6
  9
$SURFV
 70
     6
  9
$UCSBASE
  2

  9
$UCSNAME
  2

  9
$UCSORG
 10
0.0
 20
0.0
 30
0.0
  9
$UCSXDIR
 10
1.0
 20
0.0
 30
0.0
  9
$UCSYDIR
 10
0.0
 20
1.0
 30
0.0
  9
$UCSORTHOREF
  2

  9
$UCSORTHOVIEW
 70
     0
  9
$UCSORGTOP
 10
0.0
 20
0.0
 30
0.0
  9
$UCSORGBOTTOM
 10
0.0
 20
0.0
 30
0.0
  9
$UCSORGLEFT
 10
0.0
 20
0.0
 30
0.0
  9
$UCSORGRIGHT
 10
0.0
 20
0.0
 30
0.0
  9
$UCSORGFRONT
 10
0.0
 20
0.0
 30
0.0
  9
$UCSORGBACK
 10
0.0
 20
0.0
 30
0.0
  9
$PUCSBASE
  2

  9
$PUCSNAME
  2

  9
$PUCSORG
 10
0.0
 20
0.0
 30
0.0
  9
$PUCSXDIR
 10
1.0
 20
0.0
 30
0.0
  9
$PUCSYDIR
 10
0.0
 20
1.0
 30
0.0
  9
$PUCSORTHOREF
  2

  9
$PUCSORTHOVIEW
 70
     0
  9
$PUCSORGTOP
 10
0.0
 20
0.0
 30
0.0
  9
$PUCSORGBOTTOM
 10
0.0
 20
0.0
 30
0.0
  9
$PUCSORGLEFT
 10
0.0
 20
0.0
 30
0.0
  9
$PUCSORGRIGHT
 10
0.0
 20
0.0
 30
0.0
  9
$PUCSORGFRONT
 10
0.0
 20
0.0
 30
0.0
  9
$PUCSORGBACK
 10
0.0
 20
0.0
 30
0.0
  9
$USERI1
 70
     0
  9
$USERI2
 70
     0
  9
$USERI3
 70
     0
  9
$USERI4
 70
     0
  9
$USERI5
 70
     0
  9
$USERR1
 40
0.0
  9
$USERR2
 40
0.0
  9
$USERR3
 40
0.0
  9
$USERR4
 40
0.0
  9
$USERR5
 40
0.0
  9
$WORLDVIEW
 70
     1
  9
$SHADEDGE
 70
     3
  9
$SHADEDIF
 70
    70
  9
$TILEMODE
 70
     1
  9
$MAXACTVP
 70
    64
  9
$PINSBASE
 10
0.0
 20
0.0
 30
0.0
  9
$PLIMCHECK
 70
     0
  9
$PEXTMIN
 10
1.000000000000000E+20
 20
1.000000000000000E+20
 30
1.000000000000000E+20
  9
$PEXTMAX
 10
-1.000000000000000E+20
 20
-1.000000000000000E+20
 30
-1.000000000000000E+20
  9
$PLIMMIN
 10
0.0
 20
0.0
  9
$PLIMMAX
 10
12.0
 20
9.0
  9
$UNITMODE
 70
     0
  9
$VISRETAIN
 70
     0
  9
$PLINEGEN
 70
     1
  9
$PSLTSCALE
 70
     0
  9
$TREEDEPTH
 70
  3020
  9
$CMLSTYLE
  2
Standard
  9
$CMLJUST
 70
     0
  9
$CMLSCALE
 40
1.0
  9
$PROXYGRAPHICS
 70
     1
  9
$MEASUREMENT
 70
     0
  9
$CELWEIGHT
370
    -1
  9
$ENDCAPS
280
     0
  9
$JOINSTYLE
280
     0
  9
$LWDISPLAY
290
     0
  9
$INSUNITS
 70
     0
  9
$HYPERLINKBASE
  1

  9
$STYLESHEET
  1

  9
$XEDIT
290
     1
  9
$CEPSNTYPE
380
     0
  9
$PSTYLEMODE
290
     1
  9
$FINGERPRINTGUID
  2
{ED888E0D-D276-4B7B-97E2-6258F366BF84}
  9
$VERSIONGUID
  2
{BE84C982-FC2C-4069-A40F-161D3FF54B71}
  9
$EXTNAMES
290
     1
  9
$PSVPSCALE
 40
0.0
  9
$OLESTARTUP
290
     0
  0
ENDSEC
  0
SECTION
  2
CLASSES
  0
CLASS
  1
ACDBDICTIONARYWDFLT
  2
AcDbDictionaryWithDefault
  3
ObjectDBX Classes
 90
        0
280
     0
281
     0
  0
CLASS
  1
MATERIAL
  2
AcDbMaterial
  3
ObjectDBX Classes
 90
     1153
280
     0
281
     0
  0
CLASS
  1
VISUALSTYLE
  2
AcDbVisualStyle
  3
ObjectDBX Classes
 90
     4095
280
     0
281
     0
  0
CLASS
  1
SCALE
  2
AcDbScale
  3
ObjectDBX Classes
 90
     1153
280
     0
281
     0
  0
CLASS
  1
TABLESTYLE
  2
AcDbTableStyle
  3
ObjectDBX Classes
 90
     4095
280
     0
281
     0
  0
CLASS
  1
MLEADERSTYLE
  2
AcDbMLeaderStyle
  3
ACDB_MLEADERSTYLE_CLASS
 90
     4095
280
     0
281
     0
  0
CLASS
  1
ACDBSECTIONVIEWSTYLE
  2
AcDbSectionViewStyle
  3
ObjectDBX Classes
 90
     1025
280
     0
281
     0
  0
CLASS
  1
ACDBDETAILVIEWSTYLE
  2
AcDbDetailViewStyle
  3
ObjectDBX Classes
 90
     1025
280
     0
281
     0
  0
CLASS
  1
DICTIONARYVAR
  2
AcDbDictionaryVar
  3
ObjectDBX Classes
 90
        0
280
     0
281
     0
  0
CLASS
  1
CELLSTYLEMAP
  2
AcDbCellStyleMap
  3
ObjectDBX Classes
 90
     1152
280
     0
281
     0
  0
CLASS
  1
ACDBPLACEHOLDER
  2
AcDbPlaceHolder
  3
ObjectDBX Classes
 90
        0
280
     0
281
     0
  0
CLASS
  1
LAYOUT
  2
AcDbLayout
  3
ObjectDBX Classes
 90
        0
280
     0
281
     0
  0
ENDSEC
  0
SECTION
  2
TABLES
  0
TABLE
  2
VPORT
  5
40C
330
0
100
AcDbSymbolTable
 70
     1
  0
VPORT
  5
478
330
40C
100
AcDbSymbolTableRecord
100
AcDbViewportTableRecord
  2
*ACTIVE
 70
     0
 10
0.0
 20
0.0
 11
1.0
 21
1.0
 12
100.0000020954755
 22
136.4681281090304
 13
0.0
 23
0.0
 14
1.0
 24
1.0
 15
0.0
 25
0.0
 16
0.0
 26
0.0
 36
1.0
 17
0.0
 27
0.0
 37
0.0
 40
1345.170868313136
 41
2.322344322344322
 42
50.0
 43
0.0
 44
0.0
 50
0.0
 51
0.0
 71
     0
 72
  2000
 73
     1
 74
     1
 75
     0
 76
     0
 77
     0
 78
     0
281
     0
 65
     1
110
0.0
120
0.0
130
0.0
111
1.0
121
0.0
131
0.0
112
0.0
122
1.0
132
0.0
 79
     0
146
0.0
1001
ACAD_NAV_VCDISPLAY
1070
     3
  0
ENDTAB
  0
TABLE
  2
LTYPE
  5
409
330
0
100
AcDbSymbolTable
 70
    15
  0
LTYPE
  5
45E
330
409
100
AcDbSymbolTableRecord
100
AcDbLinetypeTableRecord
  2
ByBlock
 70
     0
  3

 72
    65
 73
     0
 40
0.0
  0
LTYPE
  5
45F
330
409
100
AcDbSymbolTableRecord
100
AcDbLinetypeTableRecord
  2
ByLayer
 70
     0
  3

 72
    65
 73
     0
 40
0.0
  0
LTYPE
  5
460
330
409
100
AcDbSymbolTableRecord
100
AcDbLinetypeTableRecord
  2
CONTINUOUS
 70
     0
  3
Solid line
 72
    65
 73
     0
 40
0.0
  0
LTYPE
  5
486
330
409
100
AcDbSymbolTableRecord
100
AcDbLinetypeTableRecord
  2
STYLE_14
 70
     0
  3

 72
    65
 73
     2
 40
0.1875
 49
0.125
 74
     0
 49
-0.0625
 74
     0
  0
ENDTAB
  0
TABLE
  2
LAYER
  5
406
330
0
100
AcDbSymbolTable
 70
     4
  0
LAYER
  5
458
102
{ACAD_XDICTIONARY
360
48F
102
}
330
406
100
AcDbSymbolTableRecord
100
AcDbLayerTableRecord
  2
0
 70
     0
 62
     7
  6
CONTINUOUS
370
    -3
390
413
  0
LAYER
  5
477
102
{ACAD_XDICTIONARY
360
491
102
}
330
406
100
AcDbSymbolTableRecord
100
AcDbLayerTableRecord
  2
DATA
 70
     0
 62
     7
  6
CONTINUOUS
370
    -3
390
413
  0
LAYER
  5
487
102
{ACAD_XDICTIONARY
360
493
102
}
330
406
100
AcDbSymbolTableRecord
100
AcDbLayerTableRecord
  2
HIBINO-BASE
 70
     0
 62
     7
  6
CONTINUOUS
370
    -3
390
413
  0
LAYER
  5
488
102
{ACAD_XDICTIONARY
360
495
102
}
330
406
100
AcDbSymbolTableRecord
100
AcDbLayerTableRecord
  2
DIMNSIONS
 70
     0
 62
     7
  6
CONTINUOUS
370
    -3
390
413
  0
ENDTAB
  0
TABLE
  2
STYLE
  5
407
330
0
100
AcDbSymbolTable
 70
     3
  0
STYLE
  5
459
330
407
100
AcDbSymbolTableRecord
100
AcDbTextStyleTableRecord
  2
STANDARD
 70
     0
 40
0.0
 41
1.0
 50
0.0
 71
     0
 42
0.0
  3
txt
  4
BIGFONT.SHX
  0
ENDTAB
  0
TABLE
  2
VIEW
  5
40A
330
0
100
AcDbSymbolTable
 70
     0
  0
ENDTAB
  0
TABLE
  2
UCS
  5
40B
330
0
100
AcDbSymbolTable
 70
     0
  0
ENDTAB
  0
TABLE
  2
APPID
  5
40D
330
0
100
AcDbSymbolTable
 70
     4
  0
APPID
  5
45A
330
40D
100
AcDbSymbolTableRecord
100
AcDbRegAppTableRecord
  2
ACAD
 70
     0
  0
APPID
  5
461
330
40D
100
AcDbSymbolTableRecord
100
AcDbRegAppTableRecord
  2
AcadAnnotative
 70
     0
  0
APPID
  5
4A1
330
40D
100
AcDbSymbolTableRecord
100
AcDbRegAppTableRecord
  2
ACAD_NAV_VCDISPLAY
 70
     0
  0
APPID
  5
4DA
330
40D
100
AcDbSymbolTableRecord
100
AcDbRegAppTableRecord
  2
ACAD_MLEADERVER
 70
     0
  0
ENDTAB
  0
TABLE
  2
DIMSTYLE
  5
40E
330
0
100
AcDbSymbolTable
 70
     2
100
AcDbDimStyleTable
 71
     0
  0
DIMSTYLE
105
45B
330
40E
100
AcDbSymbolTableRecord
100
AcDbDimStyleTableRecord
  2
STANDARD
 70
     0
279
     2
340
459
  0
ENDTAB
  0
TABLE
  2
BLOCK_RECORD
  5
405
330
0
100
AcDbSymbolTable
 70
     0
  0
BLOCK_RECORD
  5
473
330
405
100
AcDbSymbolTableRecord
100
AcDbBlockTableRecord
  2
*Model_Space
340
476
  0
BLOCK_RECORD
  5
46F
330
405
100
AcDbSymbolTableRecord
100
AcDbBlockTableRecord
  2
*Paper_Space
340
472
  0
ENDTAB
  0
ENDSEC
  0
SECTION
  2
BLOCKS
  0
BLOCK
  5
474
330
473
100
AcDbEntity
  8
0
100
AcDbBlockBegin
  2
*Model_Space
 70
     0
 10
0.0
 20
0.0
 30
0.0
  3
*Model_Space
  1

  0
ENDBLK
  5
475
330
473
100
AcDbEntity
  8
0
100
AcDbBlockEnd
  0
BLOCK
  5
470
330
46F
100
AcDbEntity
 67
     1
  8
0
100
AcDbBlockBegin
  2
*Paper_Space
 70
     0
 10
0.0
 20
0.0
 30
0.0
  3
*Paper_Space
  1

  0
ENDBLK
  5
471
330
46F
100
AcDbEntity
 67
     1
  8
0
100
AcDbBlockEnd
  0
ENDSEC
  0
SECTION
  2
ENTITIES
  0
LINE
  5
2F
330
473
100
AcDbEntity
  8
HIBINO-BASE
  6
Continuous
 62
     7
100
AcDbLine
 10
-350.0000000000002
 20
804.1271999999999
 30
0.0
 11
549.9999999999999
 21
804.1271999999999
 31
0.0
  0
LINE
  5
30
330
473
100
AcDbEntity
  8
HIBINO-BASE
  6
Continuous
 62
     7
100
AcDbLine
 10
549.9999999999999
 20
-495.8727999999999
 30
0.0
 11
-350.0000000000002
 21
-495.8727999999999
 31
0.0
  0
LINE
  5
31
330
473
100
AcDbEntity
  8
HIBINO-BASE
  6
Continuous
 62
     7
100
AcDbLine
 10
-350.0000000000002
 20
-495.8727999999999
 30
0.0
 11
-350.0000000000002
 21
804.1271999999999
 31
0.0
  0
TEXT
  5
32
330
473
100
AcDbEntity
  8
HIBINO-BASE
 62
     7
100
AcDbText
 10
-314.0799999999996
 20
-527.9161889999998
 30
0.0
 40
18.00022089843749
  1
Hibino Corporation
 41
0.7
 11
-314.0799999999996
 21
-509.9159681015623
 31
0.0
100
AcDbText
 73
     3
  0
LINE
  5
33
330
473
100
AcDbEntity
  8
HIBINO-BASE
  6
Continuous
 62
     7
100
AcDbLine
 10
549.9999999999999
 20
804.1271999999999
 30
0.0
 11
549.9999999999999
 21
-495.8727999999999
 31
0.0
  0
LINE
  5
34
330
473
100
AcDbEntity
  8
HIBINO-BASE
  6
Continuous
 62
     7
100
AcDbLine
 10
99.99999999999996
 20
-383.3728
 30
0.0
 11
549.9999999999999
 21
-383.3728
 31
0.0
  0
LINE
  5
35
330
473
100
AcDbEntity
  8
HIBINO-BASE
  6
Continuous
 62
     7
100
AcDbLine
 10
99.99999999999996
 20
-495.8727999999999
 30
0.0
 11
99.99999999999996
 21
-383.3728
 31
0.0
  0
TEXT
  5
36
330
473
100
AcDbEntity
  8
HIBINO-BASE
 62
     7
100
AcDbText
 10
104.4999999999998
 20
-395.9162666666667
 30
0.0
 40
8.144205729166666
  1
NOTE
 41
0.7
 11
104.4999999999998
 21
-387.7720609375
 31
0.0
100
AcDbText
 73
     3
  0
LINE
  5
37
330
473
100
AcDbEntity
  8
HIBINO-BASE
  6
Continuous
 62
     7
100
AcDbLine
 10
275.0
 20
-495.8727999999999
 30
0.0
 11
275.0
 21
-383.3728
 31
0.0
  0
TEXT
  5
38
330
473
100
AcDbEntity
  8
HIBINO-BASE
 62
     7
100
AcDbText
 10
279.4999999999998
 20
-395.9162666666667
 30
0.0
 40
8.144205729166666
  1
TITLE
 41
0.7
 11
279.4999999999998
 21
-387.7720609375
 31
0.0
100
AcDbText
 73
     3
  0
TEXT
  5
39
330
473
100
AcDbEntity
  8
HIBINO-BASE
 62
     7
100
AcDbText
 10
350.3419500000001
 20
-527.9161889999998
 30
0.0
 40
18.00022089843749
  1
ヒビノ株式会社
 41
0.7
 11
350.3419500000001
 21
-509.9159681015623
 31
0.0
100
AcDbText
 73
     3
  0
LINE
  5
3A
330
473
100
AcDbEntity
  8
HIBINO-BASE
  6
Continuous
 62
     7
100
AcDbLine
 10
99.99999999999996
 20
-445.8727999999999
 30
0.0
 11
549.9999999999999
 21
-445.8727999999999
 31
0.0
  0
TEXT
  5
3B
330
473
100
AcDbEntity
  8
HIBINO-BASE
 62
     7
100
AcDbText
 10
341.9999999999998
 20
-458.1346666666667
 30
0.0
 40
8.144205729166666
  1
DRAWN
 41
0.7
 11
341.9999999999998
 21
-449.9904609375
 31
0.0
100
AcDbText
 73
     3
  0
TEXT
  5
3C
330
473
100
AcDbEntity
  8
HIBINO-BASE
 62
     7
100
AcDbText
 10
216.9999999999999
 20
-458.1346666666667
 30
0.0
 40
8.144205729166666
  1
DATE
 41
0.7
 11
216.9999999999999
 21
-449.9904609375
 31
0.0
100
AcDbText
 73
     3
  0
TEXT
  5
3D
330
473
100
AcDbEntity
  8
HIBINO-BASE
 62
     7
100
AcDbText
 10
105.5000000000001
 20
-458.9700809999998
 30
0.0
 40
8.144218554687498
  1
図面サイズ
 41
0.7
 11
105.5000000000001
 21
-450.8258624453123
 31
0.0
100
AcDbText
 73
     3
  0
TEXT
  5
3E
330
473
100
AcDbEntity
  8
HIBINO-BASE
 62
     7
100
AcDbText
 10
166.9999999999998
 20
-458.1346666666667
 30
0.0
 40
8.144205729166666
  1
SCALE
 41
0.7
 11
166.9999999999998
 21
-449.9904609375
 31
0.0
100
AcDbText
 73
     3
  0
TEXT
  5
3F
330
473
100
AcDbEntity
  8
HIBINO-BASE
 62
     7
100
AcDbText
 10
279.4999999999998
 20
-458.1346666666667
 30
0.0
 40
8.144205729166666
  1
DESIGN
 41
0.7
 11
279.4999999999998
 21
-449.9904609375
 31
0.0
100
AcDbText
 73
     3
  0
TEXT
  5
40
330
473
100
AcDbEntity
  8
HIBINO-BASE
 62
     7
100
AcDbText
 10
466.9999999999998
 20
-458.1346666666667
 30
0.0
 40
8.144205729166666
  1
DRAWING NO.
 41
0.7
 11
466.9999999999998
 21
-449.9904609375
 31
0.0
100
AcDbText
 73
     3
  0
TEXT
  5
41
330
473
100
AcDbEntity
  8
HIBINO-BASE
 62
     7
100
AcDbText
 10
404.4999999999999
 20
-458.1346666666667
 30
0.0
 40
8.144205729166666
  1
CHECK
 41
0.7
 11
404.4999999999999
 21
-449.9904609375
 31
0.0
100
AcDbText
 73
     3
  0
LINE
  5
42
330
473
100
AcDbEntity
  8
HIBINO-BASE
  6
Continuous
 62
     7
100
AcDbLine
 10
171.8749999999999
 20
-489.6227999999999
 30
0.0
 11
190.625
 21
-470.8727999999999
 31
0.0
  0
TEXT
  5
43
330
473
100
AcDbEntity
  8
HIBINO-BASE
 62
     7
100
AcDbText
 10
168.7499999999999
 20
-476.4175166666665
 30
0.0
 40
8.144205729166666
  1
1
 41
0.7
 11
168.7499999999999
 21
-468.2733109374998
 31
0.0
100
AcDbText
 73
     3
  0
LINE
  5
44
330
473
100
AcDbEntity
  8
HIBINO-BASE
  6
Continuous
 62
     7
100
AcDbLine
 10
162.4999999999999
 20
-495.8727999999999
 30
0.0
 11
162.4999999999999
 21
-445.8727999999999
 31
0.0
  0
LINE
  5
45
330
473
100
AcDbEntity
  8
HIBINO-BASE
  6
Continuous
 62
     7
100
AcDbLine
 10
212.5
 20
-495.8727999999999
 30
0.0
 11
212.5
 21
-445.8727999999999
 31
0.0
  0
LINE
  5
46
330
473
100
AcDbEntity
  8
HIBINO-BASE
  6
Continuous
 62
     7
100
AcDbLine
 10
337.5
 20
-445.8727999999999
 30
0.0
 11
337.5
 21
-495.8727999999999
 31
0.0
  0
LINE
  5
47
330
473
100
AcDbEntity
  8
HIBINO-BASE
  6
Continuous
 62
     7
100
AcDbLine
 10
462.5
 20
-445.8727999999999
 30
0.0
 11
462.5
 21
-495.8727999999999
 31
0.0
  0
LINE
  5
48
330
473
100
AcDbEntity
  8
HIBINO-BASE
  6
Continuous
 62
     7
100
AcDbLine
 10
400.0
 20
-495.8727999999999
 30
0.0
 11
400.0
 21
-445.8727999999999
 31
0.0
  0
TEXT
  5
49
330
473
100
AcDbEntity
  8
HIBINO-BASE
 62
     7
100
AcDbText
 10
216.7826999999999
 20
-481.5545666666666
 30
0.0
 40
8.144205729166666
  1
'15.01.
 41
0.7
 11
216.7826999999999
 21
-473.4103609375
 31
0.0
100
AcDbText
 73
     3
  0
TEXT
  5
4A
330
473
100
AcDbEntity
  8
HIBINO-BASE
 62
     7
100
AcDbText
 10
187.5
 20
-485.7925166666665
 30
0.0
 40
8.144205729166666
  1
5
 41
0.7
 11
187.5
 21
-477.6483109374998
 31
0.0
100
AcDbText
 73
     3
  0
TEXT
  5
4B
330
473
100
AcDbEntity
  8
HIBINO-BASE
 62
     7
100
AcDbText
 10
345.0290500551733
 20
-481.5545666666666
 30
0.0
 40
8.144205729166666
  1
N.Sasaki
 41
0.7
 11
345.0290500551733
 21
-473.4103609375
 31
0.0
100
AcDbText
 73
     3
  0
TEXT
  5
4C
330
473
100
AcDbEntity
  8
HIBINO-BASE
 62
     7
100
AcDbText
 10
119.4166666666666
 20
-485.9928
 30
0.0
 40
16.28841145833333
  1
A4
 41
0.7
 11
119.4166666666666
 21
-469.7043885416667
 31
0.0
100
AcDbText
 73
     3
  0
TEXT
  5
4D
330
473
100
AcDbEntity
  8
DIMNSIONS
 62
     7
100
AcDbText
 10
-0.0000000000000007
 20
-434.5253
 30
0.0
 40
12.21630859375
  1
(単位：mm)
 41
0.7
 11
0.0
 21
-422.30899140625
 31
0.0
100
AcDbText
 73
     3
  0
LINE
  5
4E
330
473
100
AcDbEntity
  8
DIMNSIONS
  6
Continuous
 62
     7
100
AcDbLine
 10
5.923624252999971
 20
380.0
 30
0.0
 11
-129.86527
 21
380.0
 31
0.0
  0
LINE
  5
4F
330
473
100
AcDbEntity
  8
DIMNSIONS
  6
Continuous
 62
     7
100
AcDbLine
 10
5.923624252999971
 20
500.0
 30
0.0
 11
-129.86527
 21
500.0
 31
0.0
  0
LINE
  5
50
330
473
100
AcDbEntity
  8
DIMNSIONS
  6
Continuous
 62
     7
100
AcDbLine
 10
-119.86527
 20
380.0
 30
0.0
 11
-119.86527
 21
500.0
 31
0.0
  0
LINE
  5
51
330
473
100
AcDbEntity
  8
DIMNSIONS
  6
Continuous
 62
     7
100
AcDbLine
 10
-119.86527
 20
380.0
 30
0.0
 11
-123.2154689757512
 21
392.5031127929687
 31
0.0
  0
LINE
  5
52
330
473
100
AcDbEntity
  8
DIMNSIONS
  6
Continuous
 62
     7
100
AcDbLine
 10
-119.86527
 20
380.0
 30
0.0
 11
-116.5150710242487
 21
392.5031127929687
 31
0.0
  0
LINE
  5
53
330
473
100
AcDbEntity
  8
DIMNSIONS
  6
Continuous
 62
     7
100
AcDbLine
 10
-119.86527
 20
500.0
 30
0.0
 11
-116.5150710242487
 21
487.4968872070311
 31
0.0
  0
LINE
  5
54
330
473
100
AcDbEntity
  8
DIMNSIONS
  6
Continuous
 62
     7
100
AcDbLine
 10
-119.86527
 20
500.0
 30
0.0
 11
-123.2154689757512
 21
487.4968872070311
 31
0.0
  0
TEXT
  5
55
330
473
100
AcDbEntity
  8
DIMNSIONS
 62
     7
100
AcDbText
 10
-124.8347144444444
 20
426.7708333333332
 30
0.0
 40
13.57367621527778
  1
120
 50
90.0
 41
0.7
 11
-138.4083906597222
 21
426.7708333333332
 31
0.0
100
AcDbText
 73
     3
  0
LINE
  5
56
330
473
100
AcDbEntity
  8
DIMNSIONS
  6
Continuous
 62
     7
100
AcDbLine
 10
70.92362425299999
 20
380.0
 30
0.0
 11
-129.8652699999999
 21
380.0
 31
0.0
  0
LINE
  5
57
330
473
100
AcDbEntity
  8
DIMNSIONS
  6
Continuous
 62
     7
100
AcDbLine
 10
105.405244253
 20
-73.00148000000001
 30
0.0
 11
-129.8652699999999
 21
-73.00148000000001
 31
0.0
  0
LINE
  5
58
330
473
100
AcDbEntity
  8
DIMNSIONS
  6
Continuous
 62
     7
100
AcDbLine
 10
-119.86527
 20
380.0
 30
0.0
 11
-119.86527
 21
-73.00148000000001
 31
0.0
  0
LINE
  5
59
330
473
100
AcDbEntity
  8
DIMNSIONS
  6
Continuous
 62
     7
100
AcDbLine
 10
-119.86527
 20
380.0
 30
0.0
 11
-116.5150710242487
 21
367.4968872070312
 31
0.0
  0
LINE
  5
5A
330
473
100
AcDbEntity
  8
DIMNSIONS
  6
Continuous
 62
     7
100
AcDbLine
 10
-119.86527
 20
380.0
 30
0.0
 11
-123.2154689757512
 21
367.4968872070312
 31
0.0
  0
LINE
  5
5B
330
473
100
AcDbEntity
  8
DIMNSIONS
  6
Continuous
 62
     7
100
AcDbLine
 10
-119.86527
 20
-73.00148000000001
 30
0.0
 11
-123.2154689757512
 21
-60.49836720703127
 31
0.0
  0
LINE
  5
5C
330
473
100
AcDbEntity
  8
DIMNSIONS
  6
Continuous
 62
     7
100
AcDbLine
 10
-119.86527
 20
-73.00148000000001
 30
0.0
 11
-116.5150710242487
 21
-60.49836720703127
 31
0.0
  0
TEXT
  5
5D
330
473
100
AcDbEntity
  8
DIMNSIONS
 62
     7
100
AcDbText
 10
-124.8347144444444
 20
140.2700933333333
 30
0.0
 40
13.57367621527778
  1
453
 50
90.0
 41
0.7
 11
-138.4083906597221
 21
140.2700933333333
 31
0.0
100
AcDbText
 73
     3
  0
LINE
  5
5E
330
473
100
AcDbEntity
  8
DIMNSIONS
  6
Continuous
 62
     7
100
AcDbLine
 10
-48.28997574700003
 20
317.46579
 30
0.0
 11
-48.28997574700003
 21
-243.85555
 31
0.0
  0
LINE
  5
5F
330
473
100
AcDbEntity
  8
DIMNSIONS
  6
Continuous
 62
     7
100
AcDbLine
 10
211.999984253
 20
-24.89322000000004
 30
0.0
 11
211.999984253
 21
-243.85555
 31
0.0
  0
LINE
  5
60
330
473
100
AcDbEntity
  8
DIMNSIONS
  6
Continuous
 62
     7
100
AcDbLine
 10
-48.28997574700003
 20
-233.85555
 30
0.0
 11
211.999984253
 21
-233.85555
 31
0.0
  0
LINE
  5
61
330
473
100
AcDbEntity
  8
DIMNSIONS
  6
Continuous
 62
     7
100
AcDbLine
 10
-48.28997574700003
 20
-233.85555
 30
0.0
 11
-35.78686295403127
 21
-230.5053510242488
 31
0.0
  0
LINE
  5
62
330
473
100
AcDbEntity
  8
DIMNSIONS
  6
Continuous
 62
     7
100
AcDbLine
 10
-48.28997574700003
 20
-233.85555
 30
0.0
 11
-35.78686295403127
 21
-237.2057489757512
 31
0.0
  0
LINE
  5
63
330
473
100
AcDbEntity
  8
DIMNSIONS
  6
Continuous
 62
     7
100
AcDbLine
 10
211.999984253
 20
-233.85555
 30
0.0
 11
199.4968714600312
 21
-237.2057489757512
 31
0.0
  0
LINE
  5
64
330
473
100
AcDbEntity
  8
DIMNSIONS
  6
Continuous
 62
     7
100
AcDbLine
 10
211.999984253
 20
-233.85555
 30
0.0
 11
199.4968714600312
 21
-230.5053510242488
 31
0.0
  0
TEXT
  5
65
330
473
100
AcDbEntity
  8
DIMNSIONS
 62
     7
100
AcDbText
 10
59.80639314188885
 20
-228.8861055555555
 30
0.0
 40
13.57367621527778
  1
260.3
 41
0.7
 11
59.80639314188885
 21
-215.3124293402777
 31
0.0
100
AcDbText
 73
     3
  0
LINE
  5
66
330
473
100
AcDbEntity
  8
DIMNSIONS
  6
Continuous
 62
     7
100
AcDbLine
 10
211.999984253
 20
-24.89322000000004
 30
0.0
 11
211.999984253
 21
-243.85555
 31
0.0
  0
LINE
  5
67
330
473
100
AcDbEntity
  8
DIMNSIONS
  6
Continuous
 62
     7
100
AcDbLine
 10
250.0
 20
-205.59865
 30
0.0
 11
250.0
 21
-243.85555
 31
0.0
  0
LINE
  5
68
330
473
100
AcDbEntity
  8
DIMNSIONS
  6
Continuous
 62
     7
100
AcDbLine
 10
211.999984253
 20
-233.85555
 30
0.0
 11
250.0
 21
-233.85555
 31
0.0
  0
LINE
  5
69
330
473
100
AcDbEntity
  8
DIMNSIONS
  6
Continuous
 62
     7
100
AcDbLine
 10
211.999984253
 20
-233.85555
 30
0.0
 11
224.5030970459687
 21
-230.5053510242488
 31
0.0
  0
LINE
  5
6A
330
473
100
AcDbEntity
  8
DIMNSIONS
  6
Continuous
 62
     7
100
AcDbLine
 10
211.999984253
 20
-233.85555
 30
0.0
 11
224.5030970459687
 21
-237.2057489757512
 31
0.0
  0
LINE
  5
6B
330
473
100
AcDbEntity
  8
DIMNSIONS
  6
Continuous
 62
     7
100
AcDbLine
 10
250.0
 20
-233.85555
 30
0.0
 11
237.4968872070311
 21
-237.2057489757512
 31
0.0
  0
LINE
  5
6C
330
473
100
AcDbEntity
  8
DIMNSIONS
  6
Continuous
 62
     7
100
AcDbLine
 10
250.0
 20
-233.85555
 30
0.0
 11
237.4968872070311
 21
-230.5053510242488
 31
0.0
  0
TEXT
  5
6D
330
473
100
AcDbEntity
  8
DIMNSIONS
 62
     7
100
AcDbText
 10
222.1805476820556
 20
-228.8861055555555
 30
0.0
 40
13.57367621527778
  1
38
 41
0.7
 11
222.1805476820556
 21
-215.3124293402777
 31
0.0
100
AcDbText
 73
     3
  0
LINE
  5
6E
330
473
100
AcDbEntity
  8
DIMNSIONS
  6
Continuous
 62
     7
100
AcDbLine
 10
215.13473
 20
500.0
 30
0.0
 11
390.13473
 21
500.0
 31
0.0
  0
LINE
  5
6F
330
473
100
AcDbEntity
  8
DIMNSIONS
  6
Continuous
 62
     7
100
AcDbLine
 10
260.0
 20
350.2413399999999
 30
0.0
 11
390.13473
 21
350.2413399999999
 31
0.0
  0
LINE
  5
70
330
473
100
AcDbEntity
  8
DIMNSIONS
  6
Continuous
 62
     7
100
AcDbLine
 10
380.13473
 20
500.0
 30
0.0
 11
380.13473
 21
350.2413399999999
 31
0.0
  0
LINE
  5
71
330
473
100
AcDbEntity
  8
DIMNSIONS
  6
Continuous
 62
     7
100
AcDbLine
 10
380.13473
 20
500.0
 30
0.0
 11
383.4849289757512
 21
487.4968872070311
 31
0.0
  0
LINE
  5
72
330
473
100
AcDbEntity
  8
DIMNSIONS
  6
Continuous
 62
     7
100
AcDbLine
 10
380.13473
 20
500.0
 30
0.0
 11
376.7845310242488
 21
487.4968872070311
 31
0.0
  0
LINE
  5
73
330
473
100
AcDbEntity
  8
DIMNSIONS
  6
Continuous
 62
     7
100
AcDbLine
 10
380.13473
 20
350.2413399999999
 30
0.0
 11
376.7845310242488
 21
362.7444527929687
 31
0.0
  0
LINE
  5
74
330
473
100
AcDbEntity
  8
DIMNSIONS
  6
Continuous
 62
     7
100
AcDbLine
 10
380.13473
 20
350.2413399999999
 30
0.0
 11
383.4849289757512
 21
362.7444527929687
 31
0.0
  0
TEXT
  5
75
330
473
100
AcDbEntity
  8
DIMNSIONS
 62
     7
100
AcDbText
 10
375.1652855555555
 20
411.8915033333331
 30
0.0
 40
13.57367621527778
  1
150
 50
90.0
 41
0.7
 11
361.5916093402777
 21
411.8915033333331
 31
0.0
100
AcDbText
 73
     3
  0
LINE
  5
76
330
473
100
AcDbEntity
  8
DIMNSIONS
  6
Continuous
 62
     7
100
AcDbLine
 10
260.0
 20
350.2413399999999
 30
0.0
 11
390.13473
 21
350.2413399999999
 31
0.0
  0
LINE
  5
77
330
473
100
AcDbEntity
  8
DIMNSIONS
  6
Continuous
 62
     7
100
AcDbLine
 10
260.0
 20
275.2413399999999
 30
0.0
 11
390.13473
 21
275.2413399999999
 31
0.0
  0
LINE
  5
78
330
473
100
AcDbEntity
  8
DIMNSIONS
  6
Continuous
 62
     7
100
AcDbLine
 10
380.13473
 20
350.2413399999999
 30
0.0
 11
380.13473
 21
275.2413399999999
 31
0.0
  0
LINE
  5
79
330
473
100
AcDbEntity
  8
DIMNSIONS
  6
Continuous
 62
     7
100
AcDbLine
 10
380.13473
 20
350.2413399999999
 30
0.0
 11
383.4849289757512
 21
337.7382272070312
 31
0.0
  0
LINE
  5
7A
330
473
100
AcDbEntity
  8
DIMNSIONS
  6
Continuous
 62
     7
100
AcDbLine
 10
380.13473
 20
350.2413399999999
 30
0.0
 11
376.7845310242488
 21
337.7382272070312
 31
0.0
  0
LINE
  5
7B
330
473
100
AcDbEntity
  8
DIMNSIONS
  6
Continuous
 62
     7
100
AcDbLine
 10
380.13473
 20
275.2413399999999
 30
0.0
 11
376.7845310242488
 21
287.7444527929687
 31
0.0
  0
LINE
  5
7C
330
473
100
AcDbEntity
  8
DIMNSIONS
  6
Continuous
 62
     7
100
AcDbLine
 10
380.13473
 20
275.2413399999999
 30
0.0
 11
383.4849289757512
 21
287.7444527929687
 31
0.0
  0
TEXT
  5
7D
330
473
100
AcDbEntity
  8
DIMNSIONS
 62
     7
100
AcDbText
 10
375.1652855555555
 20
303.9218955555555
 30
0.0
 40
13.57367621527778
  1
75
 50
90.0
 41
0.7
 11
361.5916093402777
 21
303.9218955555555
 31
0.0
100
AcDbText
 73
     3
  0
LINE
  5
7E
330
473
100
AcDbEntity
  8
DIMNSIONS
  6
Continuous
 62
     7
100
AcDbLine
 10
260.0
 20
275.2413399999999
 30
0.0
 11
390.13473
 21
275.2413399999999
 31
0.0
  0
LINE
  5
7F
330
473
100
AcDbEntity
  8
DIMNSIONS
  6
Continuous
 62
     7
100
AcDbLine
 10
260.0
 20
200.24134
 30
0.0
 11
390.13473
 21
200.24134
 31
0.0
  0
LINE
  5
80
330
473
100
AcDbEntity
  8
DIMNSIONS
  6
Continuous
 62
     7
100
AcDbLine
 10
380.13473
 20
275.2413399999999
 30
0.0
 11
380.13473
 21
200.24134
 31
0.0
  0
LINE
  5
81
330
473
100
AcDbEntity
  8
DIMNSIONS
  6
Continuous
 62
     7
100
AcDbLine
 10
380.13473
 20
275.2413399999999
 30
0.0
 11
383.4849289757512
 21
262.7382272070312
 31
0.0
  0
LINE
  5
82
330
473
100
AcDbEntity
  8
DIMNSIONS
  6
Continuous
 62
     7
100
AcDbLine
 10
380.13473
 20
275.2413399999999
 30
0.0
 11
376.7845310242488
 21
262.7382272070312
 31
0.0
  0
LINE
  5
83
330
473
100
AcDbEntity
  8
DIMNSIONS
  6
Continuous
 62
     7
100
AcDbLine
 10
380.13473
 20
200.24134
 30
0.0
 11
376.7845310242488
 21
212.7444527929687
 31
0.0
  0
LINE
  5
84
330
473
100
AcDbEntity
  8
DIMNSIONS
  6
Continuous
 62
     7
100
AcDbLine
 10
380.13473
 20
200.24134
 30
0.0
 11
383.4849289757512
 21
212.7444527929687
 31
0.0
  0
TEXT
  5
85
330
473
100
AcDbEntity
  8
DIMNSIONS
 62
     7
100
AcDbText
 10
375.1652855555555
 20
228.9218955555555
 30
0.0
 40
13.57367621527778
  1
75
 50
90.0
 41
0.7
 11
361.5916093402777
 21
228.9218955555555
 31
0.0
100
AcDbText
 73
     3
  0
TEXT
  5
86
330
473
100
AcDbEntity
  8
DIMNSIONS
 62
     7
100
AcDbText
 10
-100.9757662102716
 20
433.6499999999999
 30
0.0
 40
13.57367621527778
  1
取付必要スペース
 41
0.7
 11
-100.9757662102716
 21
447.2236762152776
 31
0.0
100
AcDbText
 73
     3
  0
TEXT
  5
87
330
473
100
AcDbEntity
  8
DIMNSIONS
 62
     7
100
AcDbText
 10
412.3666744444443
 20
379.2089274908689
 30
0.0
 40
13.57367621527778
  1
取付穴最小寸法
 50
90.0
 41
0.7
 11
398.7929982291666
 21
379.2089274908689
 31
0.0
100
AcDbText
 73
     3
  0
LINE
  5
88
330
473
100
AcDbEntity
  8
DIMNSIONS
  6
Continuous
 62
     7
100
AcDbLine
 10
31.15815425299998
 20
131.6876499999999
 30
0.0
 11
465.13473
 21
131.6876499999999
 31
0.0
  0
LINE
  5
89
330
473
100
AcDbEntity
  8
DIMNSIONS
  6
Continuous
 62
     7
100
AcDbLine
 10
260.0
 20
185.2413399999999
 30
0.0
 11
465.13473
 21
185.2413399999999
 31
0.0
  0
LINE
  5
8A
330
473
100
AcDbEntity
  8
DIMNSIONS
  6
Continuous
 62
     7
100
AcDbLine
 10
455.1347299999999
 20
131.6876499999999
 30
0.0
 11
455.1347299999999
 21
185.2413399999999
 31
0.0
  0
LINE
  5
8B
330
473
100
AcDbEntity
  8
DIMNSIONS
  6
Continuous
 62
     7
100
AcDbLine
 10
455.1347299999999
 20
131.6876499999999
 30
0.0
 11
451.7845310242488
 21
144.1907627929687
 31
0.0
  0
LINE
  5
8C
330
473
100
AcDbEntity
  8
DIMNSIONS
  6
Continuous
 62
     7
100
AcDbLine
 10
455.1347299999999
 20
131.6876499999999
 30
0.0
 11
458.4849289757512
 21
144.1907627929687
 31
0.0
  0
LINE
  5
8D
330
473
100
AcDbEntity
  8
DIMNSIONS
  6
Continuous
 62
     7
100
AcDbLine
 10
455.1347299999999
 20
185.2413399999999
 30
0.0
 11
458.4849289757512
 21
172.7382272070312
 31
0.0
  0
LINE
  5
8E
330
473
100
AcDbEntity
  8
DIMNSIONS
  6
Continuous
 62
     7
100
AcDbLine
 10
455.1347299999999
 20
185.2413399999999
 30
0.0
 11
451.7845310242488
 21
172.7382272070312
 31
0.0
  0
TEXT
  5
8F
330
473
100
AcDbEntity
  8
DIMNSIONS
 62
     7
100
AcDbText
 10
450.1652855555555
 20
140.825606111111
 30
0.0
 40
13.57367621527778
  1
53.6
 50
90.0
 41
0.7
 11
436.5916093402777
 21
140.825606111111
 31
0.0
100
AcDbText
 73
     3
  0
LINE
  5
90
330
473
100
AcDbEntity
  8
DIMNSIONS
  6
Continuous
 62
     7
100
AcDbLine
 10
260.0
 20
185.2413399999999
 30
0.0
 11
465.1347299999999
 21
185.2413399999999
 31
0.0
  0
LINE
  5
91
330
473
100
AcDbEntity
  8
DIMNSIONS
  6
Continuous
 62
     7
100
AcDbLine
 10
260.00001
 20
365.2413399999999
 30
0.0
 11
465.1347299999999
 21
365.2413399999999
 31
0.0
  0
LINE
  5
92
330
473
100
AcDbEntity
  8
DIMNSIONS
  6
Continuous
 62
     7
100
AcDbLine
 10
455.1347299999999
 20
185.2413399999999
 30
0.0
 11
455.1347299999999
 21
365.2413399999999
 31
0.0
  0
LINE
  5
93
330
473
100
AcDbEntity
  8
DIMNSIONS
  6
Continuous
 62
     7
100
AcDbLine
 10
455.1347299999999
 20
185.2413399999999
 30
0.0
 11
451.7845310242488
 21
197.7444527929687
 31
0.0
  0
LINE
  5
94
330
473
100
AcDbEntity
  8
DIMNSIONS
  6
Continuous
 62
     7
100
AcDbLine
 10
455.1347299999999
 20
185.2413399999999
 30
0.0
 11
458.4849289757511
 21
197.7444527929687
 31
0.0
  0
LINE
  5
95
330
473
100
AcDbEntity
  8
DIMNSIONS
  6
Continuous
 62
     7
100
AcDbLine
 10
455.1347299999999
 20
365.2413399999999
 30
0.0
 11
458.4849289757511
 21
352.7382272070312
 31
0.0
  0
LINE
  5
96
330
473
100
AcDbEntity
  8
DIMNSIONS
  6
Continuous
 62
     7
100
AcDbLine
 10
455.1347299999999
 20
365.2413399999999
 30
0.0
 11
451.7845310242488
 21
352.7382272070312
 31
0.0
  0
TEXT
  5
97
330
473
100
AcDbEntity
  8
DIMNSIONS
 62
     7
100
AcDbText
 10
450.1652855555555
 20
262.0121733333332
 30
0.0
 40
13.57367621527778
  1
180
 50
90.0
 41
0.7
 11
436.5916093402777
 21
262.0121733333332
 31
0.0
100
AcDbText
 73
     3
  0
LINE
  5
98
330
473
100
AcDbEntity
  8
DIMNSIONS
  6
Continuous
 62
     7
100
AcDbLine
 10
260.0
 20
200.24134
 30
0.0
 11
427.6347299999999
 21
200.24134
 31
0.0
  0
LINE
  5
99
330
473
100
AcDbEntity
  8
DIMNSIONS
  6
Continuous
 62
     7
100
AcDbLine
 10
260.0
 20
185.2413399999999
 30
0.0
 11
427.6347299999999
 21
185.2413399999999
 31
0.0
  0
LINE
  5
9A
330
473
100
AcDbEntity
  8
DIMNSIONS
  6
Continuous
 62
     7
100
AcDbLine
 10
417.6347299999999
 20
185.2413399999999
 30
0.0
 11
417.6347299999999
 21
200.24134
 31
0.0
  0
LINE
  5
9B
330
473
100
AcDbEntity
  8
DIMNSIONS
  6
Continuous
 62
     7
100
AcDbLine
 10
417.6347299999999
 20
200.24134
 30
0.0
 11
417.6347299999999
 21
233.7833388888888
 31
0.0
  0
LINE
  5
9C
330
473
100
AcDbEntity
  8
DIMNSIONS
  6
Continuous
 62
     7
100
AcDbLine
 10
417.6347299999999
 20
200.24134
 30
0.0
 11
414.2845310242488
 21
212.7444527929687
 31
0.0
  0
LINE
  5
9D
330
473
100
AcDbEntity
  8
DIMNSIONS
  6
Continuous
 62
     7
100
AcDbLine
 10
417.6347299999999
 20
200.24134
 30
0.0
 11
420.9849289757511
 21
212.7444527929687
 31
0.0
  0
LINE
  5
9E
330
473
100
AcDbEntity
  8
DIMNSIONS
  6
Continuous
 62
     7
100
AcDbLine
 10
417.6347299999999
 20
185.2413399999999
 30
0.0
 11
417.6347299999999
 21
160.2413399999999
 31
0.0
  0
LINE
  5
9F
330
473
100
AcDbEntity
  8
DIMNSIONS
  6
Continuous
 62
     7
100
AcDbLine
 10
417.6347299999999
 20
185.2413399999999
 30
0.0
 11
420.9849289757511
 21
172.7382272070312
 31
0.0
  0
LINE
  5
A0
330
473
100
AcDbEntity
  8
DIMNSIONS
  6
Continuous
 62
     7
100
AcDbLine
 10
417.6347299999999
 20
185.2413399999999
 30
0.0
 11
414.2845310242488
 21
172.7382272070312
 31
0.0
  0
TEXT
  5
A1
330
473
100
AcDbEntity
  8
DIMNSIONS
 62
     7
100
AcDbText
 10
412.6652855555555
 20
216.1444499999999
 30
0.0
 40
13.57367621527778
  1
15
 50
90.0
 41
0.7
 11
399.0916093402777
 21
216.1444499999999
 31
0.0
100
AcDbText
 73
     3
  0
TEXT
  5
A2
330
473
100
AcDbEntity
  8
DATA
 62
     7
100
AcDbText
 10
300.0
 20
-438.7013555555554
 30
0.0
 40
10.85894097222222
  1
JBL-1 MKII 20\U+00B0固定金具装着外観図
 41
0.7
 11
300.0
 21
-427.8424145833333
 31
0.0
100
AcDbText
 73
     3
  0
TEXT
  5
A3
330
473
100
AcDbEntity
  8
DATA
 62
     7
100
AcDbText
 10
337.5
 20
-421.3531099999999
 30
0.0
 40
8.144333984375
  1
8340A用
 41
0.7
 11
337.5
 21
-413.2087760156249
 31
0.0
100
AcDbText
 73
     3
  0
LINE
  5
A4
330
473
100
AcDbEntity
  8
DATA
  6
Continuous
 62
     7
100
AcDbLine
 10
208.23335
 20
500.0
 30
0.0
 11
-219.86527
 21
500.0
 31
0.0
  0
LINE
  5
A5
330
473
100
AcDbEntity
  8
DATA
  6
Continuous
 62
     7
100
AcDbLine
 10
250.0
 20
474.15447
 30
0.0
 11
250.0
 21
-195.59865
 31
0.0
  0
LINE
  5
A6
330
473
100
AcDbEntity
  8
DATA
  6
Continuous
 62
     7
100
AcDbLine
 10
-200.52158
 20
500.0
 30
0.0
 11
-150.52158
 21
550.0
 31
0.0
  0
LINE
  5
A7
330
473
100
AcDbEntity
  8
DATA
  6
Continuous
 62
     7
100
AcDbLine
 10
-108.09518
 20
550.0
 30
0.0
 11
-158.09518
 21
500.0
 31
0.0
  0
LINE
  5
A8
330
473
100
AcDbEntity
  8
DATA
  6
Continuous
 62
     7
100
AcDbLine
 10
-115.66877
 20
500.0
 30
0.0
 11
-65.66877000000001
 21
550.0
 31
0.0
  0
LINE
  5
A9
330
473
100
AcDbEntity
  8
DATA
  6
Continuous
 62
     7
100
AcDbLine
 10
-23.24236000000002
 20
550.0
 30
0.0
 11
-73.24236
 21
500.0
 31
0.0
  0
LINE
  5
AA
330
473
100
AcDbEntity
  8
DATA
  6
Continuous
 62
     7
100
AcDbLine
 10
-30.81596000000003
 20
500.0
 30
0.0
 11
19.18403999999998
 21
550.0
 31
0.0
  0
LINE
  5
AB
330
473
100
AcDbEntity
  8
DATA
  6
Continuous
 62
     7
100
AcDbLine
 10
61.61044999999997
 20
550.0
 30
0.0
 11
11.61044999999998
 21
500.0
 31
0.0
  0
LINE
  5
AC
330
473
100
AcDbEntity
  8
DATA
  6
Continuous
 62
     7
100
AcDbLine
 10
54.03684999999998
 20
500.0
 30
0.0
 11
104.0368499999999
 21
550.0
 31
0.0
  0
LINE
  5
AD
330
473
100
AcDbEntity
  8
DATA
  6
Continuous
 62
     7
100
AcDbLine
 10
146.4632499999999
 20
550.0
 30
0.0
 11
96.46324999999997
 21
500.0
 31
0.0
  0
LINE
  5
AE
330
473
100
AcDbEntity
  8
DATA
  6
Continuous
 62
     7
100
AcDbLine
 10
138.8896599999999
 20
500.0
 30
0.0
 11
188.88966
 21
550.0
 31
0.0
  0
LINE
  5
AF
330
473
100
AcDbEntity
  8
DATA
  6
Continuous
 62
     7
100
AcDbLine
 10
208.23335
 20
526.9172799999998
 30
0.0
 11
181.31607
 21
500.0
 31
0.0
  0
LINE
  5
B0
330
473
100
AcDbEntity
  8
DATA
  6
Continuous
 62
     7
100
AcDbLine
 10
270.46531
 20
474.1544499999999
 30
0.0
 11
250.00001
 21
453.6891499999999
 31
0.0
  0
LINE
  5
B1
330
473
100
AcDbEntity
  8
DATA
  6
Continuous
 62
     7
100
AcDbLine
 10
250.0
 20
411.2627399999999
 30
0.0
 11
300.0
 21
461.26274
 31
0.0
  0
LINE
  5
B2
330
473
100
AcDbEntity
  8
DATA
  6
Continuous
 62
     7
100
AcDbLine
 10
300.0
 20
418.83634
 30
0.0
 11
250.0
 21
368.83634
 31
0.0
  0
LINE
  5
B3
330
473
100
AcDbEntity
  8
DATA
  6
Continuous
 62
     7
100
AcDbLine
 10
250.0
 20
326.4099299999999
 30
0.0
 11
300.0
 21
376.4099299999999
 31
0.0
  0
LINE
  5
B4
330
473
100
AcDbEntity
  8
DATA
  6
Continuous
 62
     7
100
AcDbLine
 10
300.0
 20
333.98352
 30
0.0
 11
250.0
 21
283.9835199999999
 31
0.0
  0
LINE
  5
B5
330
473
100
AcDbEntity
  8
DATA
  6
Continuous
 62
     7
100
AcDbLine
 10
250.0
 20
241.55712
 30
0.0
 11
300.0
 21
291.55712
 31
0.0
  0
LINE
  5
B6
330
473
100
AcDbEntity
  8
DATA
  6
Continuous
 62
     7
100
AcDbLine
 10
300.0
 20
249.13071
 30
0.0
 11
250.0
 21
199.13071
 31
0.0
  0
LINE
  5
B7
330
473
100
AcDbEntity
  8
DATA
  6
Continuous
 62
     7
100
AcDbLine
 10
250.0
 20
156.7043099999999
 30
0.0
 11
300.0
 21
206.70431
 31
0.0
  0
LINE
  5
B8
330
473
100
AcDbEntity
  8
DATA
  6
Continuous
 62
     7
100
AcDbLine
 10
300.0
 20
164.2779099999999
 30
0.0
 11
250.0
 21
114.2779099999999
 31
0.0
  0
LINE
  5
B9
330
473
100
AcDbEntity
  8
DATA
  6
Continuous
 62
     7
100
AcDbLine
 10
250.0
 20
71.85149999999996
 30
0.0
 11
300.0
 21
121.8514999999999
 31
0.0
  0
LINE
  5
BA
330
473
100
AcDbEntity
  8
DATA
  6
Continuous
 62
     7
100
AcDbLine
 10
300.0
 20
79.42508999999995
 30
0.0
 11
250.0
 21
29.42508999999995
 31
0.0
  0
LINE
  5
BB
330
473
100
AcDbEntity
  8
DATA
  6
Continuous
 62
     7
100
AcDbLine
 10
250.0
 20
-13.00132000000002
 30
0.0
 11
300.0
 21
36.99867999999995
 31
0.0
  0
LINE
  5
BC
330
473
100
AcDbEntity
  8
DATA
  6
Continuous
 62
     7
100
AcDbLine
 10
300.0
 20
-5.427720000000022
 30
0.0
 11
250.0
 21
-55.42772000000002
 31
0.0
  0
LINE
  5
BD
330
473
100
AcDbEntity
  8
DATA
  6
Continuous
 62
     7
100
AcDbLine
 10
250.0
 20
-97.85413
 30
0.0
 11
300.0
 21
-47.85413000000001
 31
0.0
  0
LINE
  5
BE
330
473
100
AcDbEntity
  8
DATA
  6
Continuous
 62
     7
100
AcDbLine
 10
300.0
 20
-90.28054000000004
 30
0.0
 11
250.0
 21
-140.28054
 31
0.0
  0
LINE
  5
BF
330
473
100
AcDbEntity
  8
DATA
  6
Continuous
 62
     7
100
AcDbLine
 10
250.0
 20
-182.70694
 30
0.0
 11
300.0
 21
-132.70694
 31
0.0
  0
LINE
  5
C0
330
473
100
AcDbEntity
  8
DATA
  6
Continuous
 62
     7
100
AcDbLine
 10
-46.65087847497288
 20
317.9914362551631
 30
0.0
 11
88.96718698097282
 21
-54.61613625516315
 31
0.0
  0
LINE
  5
C1
330
473
100
AcDbEntity
  8
DATA
  6
Continuous
 62
     7
100
AcDbLine
 10
-10.04301947194771
 20
363.6023902779286
 30
0.0
 11
146.3285900565485
 21
-66.02507594538792
 31
0.0
  0
LINE
  5
C2
330
473
100
AcDbEntity
  8
DATA
  6
Continuous
 62
     7
100
AcDbLine
 10
211.999999631447
 20
325.2627045112579
 30
0.0
 11
211.9999996314479
 21
-14.89321464174895
 31
0.0
  0
LINE
  5
C3
330
473
100
AcDbEntity
  8
DATA
  6
Continuous
 62
     7
100
AcDbLine
 10
33.00317944610898
 20
375.4432265644744
 30
0.0
 11
185.8448855300977
 21
-44.48590965220545
 31
0.0
  0
LINE
  5
C4
330
473
100
AcDbEntity
  8
DATA
  6
Continuous
 62
     7
100
AcDbLine
 10
53.7122746499892
 20
378.4834453178189
 30
0.0
 11
203.3510795890408
 21
-32.64579232639995
 31
0.0
  0
LINE
  5
C5
330
473
100
AcDbEntity
  8
DATA
  6
STYLE_14
 62
     7
100
AcDbLine
 10
154.8654114047851
 20
348.0675286508165
 30
0.0
 11
209.0756041219044
 21
199.1262482562494
 31
0.0
  0
LINE
  5
C6
330
473
100
AcDbEntity
  8
DATA
  6
Continuous
 62
     7
100
AcDbLine
 10
122.1895362162892
 20
-72.1732909181694
 30
0.0
 11
146.3285900565485
 21
-66.02507594538792
 31
0.0
  0
ARC
  5
C7
330
473
100
AcDbEntity
  8
DATA
  6
Continuous
 62
     7
100
AcDbCircle
 10
115.405249666812
 20
-44.79988352656641
 30
0.0
 40
28.20159527778675
100
AcDbArc
 50
200.3695806049469
 51
283.9198262575557
  0
ARC
  5
C8
330
473
100
AcDbEntity
  8
DATA
  6
Continuous
 62
     7
100
AcDbCircle
 10
189.499999631447
 20
-14.89321464174895
 30
0.0
 40
22.50000000000007
100
AcDbArc
 50
305.6730311201028
 51
0.0
  0
ARC
  5
C9
330
473
100
AcDbEntity
  8
DATA
  6
Continuous
 62
     7
100
AcDbCircle
 10
0.8273494746756142
 20
247.9335317757002
 30
0.0
 40
346.03557385481
100
AcDbArc
 50
294.8649325546038
 51
305.6730311201032
  0
LINE
  5
CA
330
473
100
AcDbEntity
  8
DATA
  6
STYLE_14
 62
     7
100
AcDbLine
 10
209.0756041219044
 20
199.1262482562494
 30
0.0
 11
211.999999631447
 21
200.1906411749444
 31
0.0
  0
ARC
  5
CB
330
473
100
AcDbEntity
  8
DATA
  6
STYLE_14
 62
     7
100
AcDbCircle
 10
197.9675844123564
 20
213.7063707386599
 30
0.0
 40
8.951428571453339
100
AcDbArc
 50
327.5173006958843
 51
72.48269930413306
  0
ARC
  5
CC
330
473
100
AcDbEntity
  8
DATA
  6
Continuous
 62
     7
100
AcDbCircle
 10
82.18535258486207
 20
112.4807249783482
 30
0.0
 40
267.5222671014206
100
AcDbArc
 50
64.72952511701045
 51
110.1665516682032
  0
LINE
  5
CD
330
473
100
AcDbEntity
  8
DATA
  6
Continuous
 62
     7
100
AcDbLine
 10
-32.48660393457957
 20
352.7959114748743
 30
0.0
 11
-10.04301947194771
 21
363.6023902779286
 31
0.0
  0
ARC
  5
CE
330
473
100
AcDbEntity
  8
DATA
  6
Continuous
 62
     7
100
AcDbCircle
 10
-20.08838184015058
 20
327.4658095187181
 30
0.0
 40
28.20159527778678
100
AcDbArc
 50
116.0801737424448
 51
199.6304193950531
  0
ARC
  5
CF
330
473
100
AcDbEntity
  8
DATA
  6
Continuous
 62
     7
100
AcDbCircle
 10
176.9999996314465
 20
325.2627045112579
 30
0.0
 40
35.0
100
AcDbArc
 50
0.0
 51
56.3611866405842
  0
LINE
  5
D0
330
473
100
AcDbEntity
  8
DATA
  6
STYLE_14
 62
     7
100
AcDbLine
 10
127.0258996049266
 20
364.6179684862248
 30
0.0
 11
134.5434405712141
 21
367.3541296328301
 31
0.0
  0
LINE
  5
D1
330
473
100
AcDbEntity
  8
DATA
  6
STYLE_14
 62
     7
100
AcDbLine
 10
134.5940595524263
 20
367.215055124954
 30
0.0
 11
139.6737427210984
 21
353.2587403210416
 31
0.0
  0
LINE
  5
D2
330
473
100
AcDbEntity
  8
DATA
  6
STYLE_14
 62
     7
100
AcDbLine
 10
132.1562017548114
 20
350.5225791744363
 30
0.0
 11
139.6737427210984
 21
353.2587403210416
 31
0.0
  0
LINE
  5
D3
330
473
100
AcDbEntity
  8
DATA
  6
STYLE_14
 62
     7
100
AcDbLine
 10
136.0052346637882
 20
363.3378833715913
 30
0.0
 11
144.9323145612535
 21
366.5870747331853
 31
0.0
  0
LINE
  5
D4
330
473
100
AcDbEntity
  8
DATA
  6
STYLE_14
 62
     7
100
AcDbLine
 10
138.2625676097374
 20
357.1359120744038
 30
0.0
 11
147.1896475072037
 21
360.3851034359984
 31
0.0
  0
LINE
  5
D5
330
473
100
AcDbEntity
  8
DATA
  6
STYLE_14
 62
     7
100
AcDbLine
 10
134.8765681908132
 20
366.4388690201848
 30
0.0
 11
143.8036480882794
 21
369.6880603817788
 31
0.0
  0
LINE
  5
D6
330
473
100
AcDbEntity
  8
DATA
  6
STYLE_14
 62
     7
100
AcDbLine
 10
148.3183139801778
 20
357.2841177874049
 30
0.0
 11
139.3912340827116
 21
354.0349264258105
 31
0.0
  0
LINE
  5
D7
330
473
100
AcDbEntity
  8
DATA
  6
STYLE_14
 62
     7
100
AcDbLine
 10
143.8036480882794
 20
369.6880603817788
 30
0.0
 11
148.3183139801778
 21
357.2841177874049
 31
0.0
  0
LINE
  5
D8
330
473
100
AcDbEntity
  8
DATA
  6
STYLE_14
 62
     7
100
AcDbLine
 10
122.3185439772707
 20
362.9322997777369
 30
0.0
 11
127.0170070812002
 21
364.6424004943654
 31
0.0
  0
LINE
  5
D9
330
473
100
AcDbEntity
  8
DATA
  6
STYLE_14
 62
     7
100
AcDbLine
 10
127.517250155821
 20
348.6489719417912
 30
0.0
 11
132.2157132597505
 21
350.3590726584196
 31
0.0
  0
LINE
  5
DA
330
473
100
AcDbEntity
  8
DATA
  6
STYLE_14
 62
     7
100
AcDbLine
 10
127.0170070812002
 20
364.6424004943654
 30
0.0
 11
132.2157132597505
 21
350.3590726584191
 31
0.0
  0
LINE
  5
DB
330
473
100
AcDbEntity
  8
DATA
  6
STYLE_14
 62
     7
100
AcDbLine
 10
117.2693950138543
 20
376.8047225421877
 30
0.0
 11
130.9032495747444
 21
339.3460149960122
 31
0.0
  0
LINE
  5
DC
330
473
100
AcDbEntity
  8
DATA
  6
STYLE_14
 62
     7
100
AcDbLine
 10
130.9032495747444
 20
339.3460149960122
 30
0.0
 11
154.8654114047851
 21
348.0675286508165
 31
0.0
  0
ARC
  5
DD
330
473
100
AcDbEntity
  8
DATA
  6
STYLE_14
 62
     7
100
AcDbCircle
 10
154.5310262099967
 20
333.0473335784707
 30
0.0
 40
8.951428571453339
100
AcDbArc
 50
327.5173006958843
 51
72.48269930413264
  0
ARC
  5
DE
330
473
100
AcDbEntity
  8
DATA
  6
Continuous
 62
     7
100
AcDbCircle
 10
60.70099271043122
 20
335.5490317263754
 30
0.0
 40
6.132812500000267
100
AcDbArc
 50
130.3510216860946
 51
269.648978313913
  0
ARC
  5
DF
330
473
100
AcDbEntity
  8
DATA
  6
Continuous
 62
     7
100
AcDbCircle
 10
56.69261637489042
 20
334.0901020525014
 30
0.0
 40
6.132812500000613
100
AcDbArc
 50
310.3510216860918
 51
89.64897831391306
  0
ARC
  5
E0
330
473
100
AcDbEntity
  8
DATA
  6
Continuous
 62
     7
100
AcDbCircle
 10
100.8883595511973
 20
225.1351487840311
 30
0.0
 40
6.132812500000267
100
AcDbArc
 50
130.3510216860946
 51
269.648978313913
  0
ARC
  5
E1
330
473
100
AcDbEntity
  8
DATA
  6
Continuous
 62
     7
100
AcDbCircle
 10
96.8799832156565
 20
223.676219110157
 30
0.0
 40
6.132812500000613
100
AcDbArc
 50
310.3510216860918
 51
89.64897831391306
  0
ARC
  5
E2
330
473
100
AcDbEntity
  8
DATA
  6
Continuous
 62
     7
100
AcDbCircle
 10
141.0757263919634
 20
114.721265841687
 30
0.0
 40
6.132812500000267
100
AcDbArc
 50
130.3510216860946
 51
269.648978313913
  0
ARC
  5
E3
330
473
100
AcDbEntity
  8
DATA
  6
Continuous
 62
     7
100
AcDbCircle
 10
137.0673500564226
 20
113.2623361678129
 30
0.0
 40
6.132812500000613
100
AcDbArc
 50
310.3510216860918
 51
89.64897831391306
  0
ARC
  5
E4
330
473
100
AcDbEntity
  8
DATA
  6
Continuous
 62
     7
100
AcDbCircle
 10
181.2630932327294
 20
4.307382899343111
 30
0.0
 40
6.132812500000341
100
AcDbArc
 50
130.3510216860954
 51
269.648978313912
  0
ARC
  5
E5
330
473
100
AcDbEntity
  8
DATA
  6
Continuous
 62
     7
100
AcDbCircle
 10
177.2547168971885
 20
2.848453225469029
 30
0.0
 40
6.132812500000613
100
AcDbArc
 50
310.3510216860918
 51
89.64897831391306
  0
LINE
  5
E6
330
473
100
AcDbEntity
  8
DATA
  6
Continuous
 62
     7
100
AcDbLine
 10
242.021817322
 20
205.835373655
 30
0.0
 11
217.2754597339999
 21
205.835373655
 31
0.0
  0
LINE
  5
E7
330
473
100
AcDbEntity
  8
DATA
  6
Continuous
 62
     7
100
AcDbLine
 10
217.2754597339999
 20
205.835373655
 30
0.0
 11
211.9999997529998
 21
203.9152632702388
 31
0.0
  0
CIRCLE
  5
E8
330
473
100
AcDbEntity
  8
DATA
  6
Continuous
 62
     7
100
AcDbCircle
 10
197.7999999999999
 20
365.8353736549998
 30
0.0
 40
10.0
  0
ARC
  5
E9
330
473
100
AcDbEntity
  8
DATA
  6
Continuous
 62
     7
100
AcDbCircle
 10
197.7999999999999
 20
365.8353736549998
 30
0.0
 40
20.00000000000004
100
AcDbArc
 50
41.81034747800008
 51
184.557379586
  0
ARC
  5
EA
330
473
100
AcDbEntity
  8
DATA
  6
Continuous
 62
     7
100
AcDbCircle
 10
167.8948534829999
 20
363.4516346209999
 30
0.0
 40
9.999999999999955
100
AcDbArc
 50
353.5076377686005
 51
4.557472021999956
  0
ARC
  5
EB
330
473
100
AcDbEntity
  8
DATA
  6
Continuous
 62
     7
100
AcDbCircle
 10
220.160679775
 20
385.8353736549998
 30
0.0
 40
10.0000000000001
100
AcDbArc
 50
221.8102497319999
 51
270.0000437129996
  0
LINE
  5
EC
330
473
100
AcDbEntity
  8
DATA
  6
Continuous
 62
     7
100
AcDbLine
 10
239.856361699
 20
375.8353736549998
 30
0.0
 11
220.1606874049998
 21
375.8353736549998
 31
0.0
  0
LINE
  5
ED
330
473
100
AcDbEntity
  8
DATA
  6
Continuous
 62
     7
100
AcDbLine
 10
242.274574429
 20
200.835373655
 30
0.0
 11
239.856361699
 21
248.672064727
 31
0.0
  0
LINE
  5
EE
330
473
100
AcDbEntity
  8
DATA
  6
Continuous
 62
     7
100
AcDbLine
 10
250.0
 20
200.835373655
 30
0.0
 11
242.274574429
 21
200.835373655
 31
0.0
  0
LINE
  5
EF
330
473
100
AcDbEntity
  8
DATA
  6
Continuous
 62
     7
100
AcDbLine
 10
248.0
 20
380.8353736549999
 30
0.0
 11
248.0
 21
200.835373655
 31
0.0
  0
LINE
  5
F0
330
473
100
AcDbEntity
  8
DATA
  6
Continuous
 62
     7
100
AcDbLine
 10
248.0
 20
390.8353736549998
 30
0.0
 11
227.715734411
 21
390.8353736549998
 31
0.0
  0
ARC
  5
F1
330
473
100
AcDbEntity
  8
DATA
  6
Continuous
 62
     7
100
AcDbCircle
 10
227.715729016
 20
380.8353736549999
 30
0.0
 40
9.999999999999976
100
AcDbArc
 50
89.99996909000035
 51
179.9999562899999
  0
LINE
  5
F2
330
473
100
AcDbEntity
  8
DATA
  6
Continuous
 62
     7
100
AcDbLine
 10
248.0
 20
380.8353736549999
 30
0.0
 11
248.0
 21
390.8353736549998
 31
0.0
  0
LINE
  5
F3
330
473
100
AcDbEntity
  8
DATA
  6
Continuous
 62
     7
100
AcDbLine
 10
217.715729016
 20
380.8353812839998
 30
0.0
 11
217.715729016
 21
376.138868316
 31
0.0
  0
LINE
  5
F4
330
473
100
AcDbEntity
  8
DATA
  6
Continuous
 62
     7
100
AcDbLine
 10
250.0
 20
380.8353736549999
 30
0.0
 11
239.856361699
 21
380.8353736549999
 31
0.0
  0
LINE
  5
F5
330
473
100
AcDbEntity
  8
DATA
  6
Continuous
 62
     7
100
AcDbLine
 10
250.0
 20
380.8353736549999
 30
0.0
 11
250.0
 21
200.835373655
 31
0.0
  0
LINE
  5
F6
330
473
100
AcDbEntity
  8
DATA
  6
Continuous
 62
     7
100
AcDbLine
 10
246.0
 20
390.8353736549998
 30
0.0
 11
246.0
 21
380.8353736549999
 31
0.0
  0
LINE
  5
F7
330
473
100
AcDbEntity
  8
DATA
  6
Continuous
 62
     7
100
AcDbLine
 10
239.856361699
 20
380.8353736549999
 30
0.0
 11
239.856361699
 21
248.672064727
 31
0.0
  0
LINE
  5
F8
330
473
100
AcDbEntity
  8
DATA
  6
Continuous
 62
     7
100
AcDbLine
 10
244.0
 20
380.8353736549999
 30
0.0
 11
244.0
 21
200.835373655
 31
0.0
  0
LINE
  5
F9
330
473
100
AcDbEntity
  8
DATA
  6
Continuous
 62
     7
100
AcDbLine
 10
246.0
 20
380.8353736549999
 30
0.0
 11
246.0
 21
200.835373655
 31
0.0
  0
LWPOLYLINE
  5
FA
330
473
100
AcDbEntity
  8
DATA
  6
Continuous
 62
     7
100
AcDbPolyline
 90
      258
 70
   128
 43
0.0
 10
233.9791849822501
 20
378.2852480258173
 10
233.9596888555144
 20
378.2823975792171
 10
233.9402214130057
 20
378.2794805189254
 10
233.9207826547243
 20
378.2764968449425
 10
233.9013725806701
 20
378.2734465572683
 10
233.881991190843
 20
378.2703296559026
 10
233.8626384852432
 20
378.2671461408457
 10
233.8433144638706
 20
378.2638960120976
 10
233.8240191267253
 20
378.260579269658
 10
233.8047524738071
 20
378.2571959135272
 10
233.7855145051161
 20
378.2537459437049
 10
233.7663052206524
 20
378.2502293601915
 10
233.7471246204158
 20
378.2466461629867
 10
233.7279727044065
 20
378.2429963520905
 10
233.7088494726244
 20
378.2392799275032
 10
233.6897549250696
 20
378.2354968892245
 10
233.6706890617418
 20
378.2316472372544
 10
233.6516518826414
 20
378.227730971593
 10
233.6326433877681
 20
378.2237480922402
 10
233.6136635771221
 20
378.2196985991963
 10
233.5947124507032
 20
378.2155824924609
 10
233.5757900085116
 20
378.2113997720344
 10
233.5568962505471
 20
378.2071504379164
 10
233.5380311768099
 20
378.2028344901072
 10
233.5191947872999
 20
378.1984519286066
 10
233.5003870820172
 20
378.1940027534146
 10
233.4816080609616
 20
378.1894869645314
 10
233.4628577241332
 20
378.1849045619568
 10
233.444136071532
 20
378.1802555456911
 10
233.4254431031581
 20
378.175539915734
 10
233.4067788190113
 20
378.1707576720854
 10
233.3881432190918
 20
378.1659088147457
 10
233.3695363033994
 20
378.1609933437146
 10
233.3509580719344
 20
378.1560112589921
 10
233.3324085246965
 20
378.1509625605783
 10
233.3138876616858
 20
378.1458472484733
 10
233.2953954829024
 20
378.1406653226769
 10
233.2769319883461
 20
378.1354167831892
 10
233.2584971780171
 20
378.1301016300101
 10
233.2400910519151
 20
378.1247198631398
 10
233.2217136100406
 20
378.1192714825782
 10
233.2033648523932
 20
378.1137564883253
 10
233.1850447789729
 20
378.1081748803809
 10
233.16675338978
 20
378.1025266587453
 10
233.1484906848142
 20
378.0968118234185
 10
233.1302566640756
 20
378.0910303744002
 10
233.1120513275642
 20
378.0851823116906
 10
233.0938746752801
 20
378.0792676352898
 10
233.0757267072232
 20
378.0732863451977
 10
233.0576074233935
 20
378.0672384414142
 10
233.0395168237909
 20
378.0611239239394
 10
233.0214549084156
 20
378.0549427927732
 10
233.0034216772675
 20
378.0486950479158
 10
232.9854171303466
 20
378.0423806893671
 10
232.967441267653
 20
378.0359997171271
 10
232.9494940891865
 20
378.0295521311956
 10
232.9315755949473
 20
378.0230379315729
 10
232.9136857849352
 20
378.0164571182589
 10
232.8958246591504
 20
378.0098096912537
 10
232.8779922175927
 20
378.0030956505569
 10
232.8601884602624
 20
377.9963149961689
 10
232.8424133871592
 20
377.9894677280897
 10
232.8246669982832
 20
377.9825538463192
 10
232.8069492936345
 20
377.9755733508572
 10
232.7892602732128
 20
377.968526241704
 10
232.7716005202099
 20
377.9614205805708
 10
232.7539706178169
 20
377.9542644291688
 10
232.7363705660337
 20
377.9470577874981
 10
232.7188003648607
 20
377.9398006555588
 10
232.7012600142975
 20
377.9324930333507
 10
232.6837495143443
 20
377.925134920874
 10
232.666268865001
 20
377.9177263181285
 10
232.6488180662677
 20
377.9102672251142
 10
232.6313971181444
 20
377.9027576418314
 10
232.614006020631
 20
377.8951975682797
 10
232.5966447737275
 20
377.8875870044594
 10
232.5793133774341
 20
377.8799259503704
 10
232.5620118317504
 20
377.8722144060126
 10
232.5447401366769
 20
377.8644523713861
 10
232.5274982922133
 20
377.8566398464911
 10
232.5102862983596
 20
377.8487768313272
 10
232.493104155116
 20
377.8408633258945
 10
232.4759518624821
 20
377.8328993301934
 10
232.4588294204584
 20
377.8248848442233
 10
232.4417368290445
 20
377.8168198679845
 10
232.4246740882406
 20
377.8087044014772
 10
232.4076411980466
 20
377.8005384447009
 10
232.3906381584626
 20
377.7923219976563
 10
232.3736649694886
 20
377.7840550603426
 10
232.3567216311245
 20
377.7757376327604
 10
232.3398081433704
 20
377.7673697149095
 10
232.3229245062262
 20
377.7589513067898
 10
232.306070719692
 20
377.7504824084015
 10
232.2892467837677
 20
377.7419630197443
 10
232.2724526984533
 20
377.7333931408186
 10
232.255688463749
 20
377.7247727716241
 10
232.2389540796546
 20
377.7161019121609
 10
232.2222495461701
 20
377.7073805624289
 10
232.2055748632956
 20
377.6986087224283
 10
232.188930031031
 20
377.689786392159
 10
232.1723150493764
 20
377.6809135716209
 10
232.1557299183317
 20
377.6719902608141
 10
232.1391746378971
 20
377.6630164597386
 10
232.1226492080723
 20
377.6539921683945
 10
232.1061536288576
 20
377.6449173867816
 10
232.0896879002527
 20
377.6357921149
 10
232.0732520222578
 20
377.6266163527498
 10
232.0568459948729
 20
377.6173901003307
 10
232.0404698180979
 20
377.608113357643
 10
232.0241234919329
 20
377.5987861246866
 10
232.0078070163778
 20
377.5894084014615
 10
231.9915203914328
 20
377.5799801879677
 10
231.9752636170975
 20
377.5705014842051
 10
231.9590366933724
 20
377.5609722901737
 10
231.9428396202571
 20
377.5513926058739
 10
231.9266723977519
 20
377.5417624313052
 10
231.9105350258565
 20
377.532081766468
 10
231.8944275045711
 20
377.5223506113617
 10
231.8783498338956
 20
377.5125689659869
 10
231.8623020138301
 20
377.5027368303434
 10
231.8462840443746
 20
377.4928542044311
 10
231.830295925529
 20
377.4829210882503
 10
231.8143376572934
 20
377.4729374818006
 10
231.7984092396677
 20
377.4629033850823
 10
231.782510672652
 20
377.4528187980952
 10
231.7666419562463
 20
377.4426837208395
 10
231.7508030904504
 20
377.4324981533151
 10
231.7349940752646
 20
377.4222620955218
 10
231.7192149106886
 20
377.41197554746
 10
231.7034693918182
 20
377.401645567434
 10
231.6877613137487
 20
377.3912792137489
 10
231.6720906764802
 20
377.3808764864043
 10
231.6564574800124
 20
377.3704373854005
 10
231.6408617243457
 20
377.3599619107375
 10
231.6253034094799
 20
377.3494500624149
 10
231.609782535415
 20
377.3389018404332
 10
231.5942991021512
 20
377.3283172447922
 10
231.5788531096881
 20
377.3176962754919
 10
231.563444558026
 20
377.3070389325322
 10
231.5480734471649
 20
377.2963452159132
 10
231.5327397771047
 20
377.2856151256349
 10
231.5174435478454
 20
377.2748486616975
 10
231.5021847593871
 20
377.2640458241006
 10
231.4869634117297
 20
377.2532066128444
 10
231.4717795048732
 20
377.2423310279289
 10
231.4566330388178
 20
377.2314190693541
 10
231.4415240135632
 20
377.22047073712
 10
231.4264524291095
 20
377.2094860312265
 10
231.4114182854567
 20
377.1984649516737
 10
231.3964215826048
 20
377.1874074984618
 10
231.381462320554
 20
377.1763136715905
 10
231.3665404993041
 20
377.1651834710598
 10
231.3516561188551
 20
377.1540168968698
 10
231.336809179207
 20
377.1428139490205
 10
231.3219996803598
 20
377.1315746275121
 10
231.3072276223137
 20
377.1202989323442
 10
231.2924930050684
 20
377.1089868635169
 10
231.2777958286241
 20
377.0976384210305
 10
231.2631360929806
 20
377.0862536048848
 10
231.2485137981381
 20
377.0748324150797
 10
231.2339289440966
 20
377.0633748516152
 10
231.219381530856
 20
377.0518809144917
 10
231.2048715584164
 20
377.0403506037086
 10
231.1903990267776
 20
377.0287839192663
 10
231.1759639359398
 20
377.0171808611646
 10
231.1615662859029
 20
377.0055414294037
 10
231.147206076667
 20
376.9938656239834
 10
231.132883308232
 20
376.982153444904
 10
231.1185979805979
 20
376.9704048921651
 10
231.1043500937647
 20
376.9586199657669
 10
231.0901396477325
 20
376.9467986657095
 10
231.0759666425012
 20
376.9349409919926
 10
231.0618310780709
 20
376.9230469446165
 10
231.0477329544414
 20
376.9111165235811
 10
231.0336722716129
 20
376.8991497288865
 10
231.0196490295854
 20
376.8871465605325
 10
231.0056632283588
 20
376.8751070185192
 10
230.9917148679331
 20
376.8630311028466
 10
230.9778039483084
 20
376.8509188135146
 10
230.9639304694845
 20
376.8387701505234
 10
230.9500944314617
 20
376.8265851138729
 10
230.9362958342397
 20
376.8143637035632
 10
230.9225346778187
 20
376.8021059195939
 10
230.9088109621986
 20
376.7898117619656
 10
230.8951246873795
 20
376.7774812306777
 10
230.8814758533612
 20
376.7651143257306
 10
230.8678644601439
 20
376.7527110471244
 10
230.8542905077276
 20
376.7402713948586
 10
230.8407539961121
 20
376.7277953689337
 10
230.8272549252977
 20
376.7152829693494
 10
230.8137932952841
 20
376.7027341961057
 10
230.8003691060714
 20
376.6901490492029
 10
230.7869823576597
 20
376.6775275286407
 10
230.7736333217066
 20
376.6648797127044
 10
230.7603222698697
 20
376.6522156796793
 10
230.7470492021489
 20
376.6395354295653
 10
230.7338141185444
 20
376.6268389623627
 10
230.720617019056
 20
376.6141262780712
 10
230.7074579036838
 20
376.6013973766909
 10
230.6943367724278
 20
376.5886522582217
 10
230.6812536252881
 20
376.5758909226637
 10
230.6682084622645
 20
376.5631133700169
 10
230.6552012833571
 20
376.5503196002812
 10
230.6422320885658
 20
376.5375096134569
 10
230.6293008778909
 20
376.5246834095436
 10
230.6164076513321
 20
376.5118409885416
 10
230.6035524088895
 20
376.4989823504507
 10
230.5907351505631
 20
376.4861074952711
 10
230.5779558763528
 20
376.4732164230025
 10
230.5652145862588
 20
376.4603091336452
 10
230.5525112802809
 20
376.4473856271991
 10
230.5398459584193
 20
376.4344459036641
 10
230.5272186206738
 20
376.4214899630404
 10
230.5146292670445
 20
376.4085178053277
 10
230.5020778975315
 20
376.3955294305263
 10
230.4895645121346
 20
376.3825248386361
 10
230.4770891108539
 20
376.3695040296572
 10
230.4646516936895
 20
376.3564670035893
 10
230.4522522606411
 20
376.3434137604327
 10
230.439890811709
 20
376.3303443001872
 10
230.4275673468931
 20
376.3172586228528
 10
230.4152818661934
 20
376.3041567284298
 10
230.4030343696098
 20
376.2910386169177
 10
230.3908248571425
 20
376.277904288317
 10
230.3786533287914
 20
376.2647537426274
 10
230.3665197845564
 20
376.2515869798491
 10
230.3544242244377
 20
376.2384039999819
 10
230.3423666484352
 20
376.225204803026
 10
230.3303470565488
 20
376.2119893889811
 10
230.3183654487785
 20
376.1987577578474
 10
230.3064218251245
 20
376.185509909625
 10
230.2945161855868
 20
376.1722458443137
 10
230.2826485301652
 20
376.1589655619137
 10
230.2708188588598
 20
376.1456690624249
 10
230.2590271716706
 20
376.1323563458471
 10
230.2472734685976
 20
376.1190274121806
 10
230.2355577496407
 20
376.1056822614252
 10
230.2238800148001
 20
376.0923208935809
 10
230.2122402640757
 20
376.078943308648
 10
230.2006384974674
 20
376.0655495066263
 10
230.1890747149754
 20
376.0521394875157
 10
230.1775489165996
 20
376.0387132513162
 10
230.1660611023399
 20
376.025270798028
 10
230.1546112721964
 20
376.0118121276509
 10
230.1431994261692
 20
375.9983372401849
 10
230.1318255642581
 20
375.9848461356303
 10
230.1204896864632
 20
375.9713388139869
 10
230.1091917927845
 20
375.9578152752545
 10
230.097931883222
 20
375.9442755194334
 10
230.0867099577757
 20
375.9307195465233
 10
230.0755260164456
 20
375.9171473565247
 10
230.0643800592316
 20
375.903558949437
 10
230.0532720861339
 20
375.8899543252608
 10
230.0422020971524
 20
375.8763334839955
 10
230.031170092287
 20
375.8626964256414
 10
230.0201760715379
 20
375.8490431501986
 10
230.0092200349049
 20
375.8353736576669
 10
230.0092200349049
 20
375.8353736576669
  0
LWPOLYLINE
  5
1FE
330
473
100
AcDbEntity
  8
DATA
  6
Continuous
 62
     7
100
AcDbPolyline
 90
      514
 70
   128
 43
0.0
 10
237.9491499330474
 20
375.8353736564791
 10
237.9354268201071
 20
375.8525515381093
 10
237.9216185083727
 20
375.8697239178928
 10
237.9077249978445
 20
375.8868907958295
 10
237.8937462885222
 20
375.9040521719194
 10
237.879682380406
 20
375.9212080461626
 10
237.865533273496
 20
375.9383584185591
 10
237.8512989677918
 20
375.9555032891088
 10
237.8369794632938
 20
375.972642657812
 10
237.8225747600019
 20
375.9897765246681
 10
237.808084857916
 20
376.0069048896777
 10
237.7935097570361
 20
376.0240277528404
 10
237.7788494573624
 20
376.0411451141565
 10
237.7641039588946
 20
376.0582569736257
 10
237.7492732616329
 20
376.0753633312484
 10
237.7343573655773
 20
376.0924641870242
 10
237.7193562707277
 20
376.1095595409532
 10
237.7042699770841
 20
376.1266493930357
 10
237.6890984846466
 20
376.1437337432712
 10
237.6738417934153
 20
376.16081259166
 10
237.6584999033898
 20
376.1778859382022
 10
237.6430728145705
 20
376.1949537828975
 10
237.6275605269573
 20
376.2120161257462
 10
237.6119630405501
 20
376.229072966748
 10
237.5962803553489
 20
376.2461243059032
 10
237.5805124713537
 20
376.2631701432117
 10
237.5646593885647
 20
376.2802104786733
 10
237.5487211069816
 20
376.2972453122883
 10
237.5326976266047
 20
376.3142746440565
 10
237.5165889474338
 20
376.3312984739779
 10
237.5003950694689
 20
376.3483168020526
 10
237.4841159927101
 20
376.3653296282806
 10
237.4677517171574
 20
376.3823369526619
 10
237.4513022428108
 20
376.3993387751964
 10
237.4347675696701
 20
376.4163350958842
 10
237.4181476977355
 20
376.4333259147252
 10
237.401442627007
 20
376.4503112317194
 10
237.3846523574845
 20
376.4672910468669
 10
237.3677768891681
 20
376.4842653601679
 10
237.3508162220577
 20
376.5012341716218
 10
237.3337703561534
 20
376.5181974812291
 10
237.3166392914551
 20
376.5351552889897
 10
237.2994230279629
 20
376.5521075949035
 10
237.2821215656767
 20
376.5690543989706
 10
237.2647349045966
 20
376.585995701191
 10
237.2472630447225
 20
376.6029315015646
 10
237.2297059860545
 20
376.6198618000914
 10
237.2120637285926
 20
376.6367865967716
 10
237.1943362723367
 20
376.653705891605
 10
237.1765236172868
 20
376.6706196845917
 10
237.158625763443
 20
376.6875279757315
 10
237.1406427108052
 20
376.7044307650247
 10
237.1225744593736
 20
376.7213280524712
 10
237.104421009148
 20
376.7382198380709
 10
237.0861823601284
 20
376.7551061218238
 10
237.0678585123148
 20
376.77198690373
 10
237.0494494657073
 20
376.7888621837894
 10
237.0309552203059
 20
376.805731962002
 10
237.0123757761105
 20
376.8225962383681
 10
236.9937111331212
 20
376.8394550128874
 10
236.974961291338
 20
376.8563082855599
 10
236.9561262507607
 20
376.8731560563856
 10
236.9372060113896
 20
376.8899983253648
 10
236.9182005732245
 20
376.906835092497
 10
236.8991099362653
 20
376.9236663577825
 10
236.8799733662741
 20
376.9404338749932
 10
236.8608301290124
 20
376.9570793979009
 10
236.8416802244803
 20
376.9736029265057
 10
236.8225236526777
 20
376.9900044608074
 10
236.8033604136046
 20
377.0062840008062
 10
236.7841905072612
 20
377.0224415465021
 10
236.7650139336472
 20
377.038477097895
 10
236.7458306927629
 20
377.0543906549849
 10
236.7266407846081
 20
377.0701822177719
 10
236.7074442091828
 20
377.0858517862557
 10
236.6882409664871
 20
377.1013993604368
 10
236.669031056521
 20
377.1168249403148
 10
236.6498144792844
 20
377.1321285258898
 10
236.6305912347773
 20
377.147310117162
 10
236.6113613229999
 20
377.1623697141311
 10
236.592124743952
 20
377.1773073167972
 10
236.5728814976336
 20
377.1921229251603
 10
236.5536315840448
 20
377.2068165392205
 10
236.5343750031855
 20
377.2213881589777
 10
236.5151117550557
 20
377.235837784432
 10
236.4958418396557
 20
377.2501654155834
 10
236.476565256985
 20
377.2643710524316
 10
236.4572820070441
 20
377.278454694977
 10
236.4379920898326
 20
377.2924163432192
 10
236.4186955053506
 20
377.3062559971588
 10
236.3993922535982
 20
377.3199736567952
 10
236.3800823345755
 20
377.3335693221288
 10
236.3607657482822
 20
377.3470429931592
 10
236.3414424947185
 20
377.3603946698866
 10
236.3221125738844
 20
377.3736243523113
 10
236.3027759857797
 20
377.3867320404328
 10
236.2834327304047
 20
377.3997177342514
 10
236.2640828077592
 20
377.4125814337671
 10
236.2447262178433
 20
377.4253231389798
 10
236.2253629606569
 20
377.4379428498895
 10
236.2059930362001
 20
377.4504405664962
 10
236.1866164444728
 20
377.4628162888
 10
236.1672331854752
 20
377.4750700168008
 10
236.147843259207
 20
377.4872017504986
 10
236.1284466656684
 20
377.4992114898935
 10
236.1090434048593
 20
377.5110992349854
 10
236.0896334767799
 20
377.5228649857743
 10
236.07021688143
 20
377.5345087422602
 10
236.0507936188096
 20
377.5460305044432
 10
236.0313636889187
 20
377.5574302723232
 10
236.0119270917574
 20
377.5687080459003
 10
235.9924838273257
 20
377.5798638251744
 10
235.9730338956236
 20
377.5908976101454
 10
235.953577296651
 20
377.6018094008135
 10
235.934114030408
 20
377.6125991971787
 10
235.9146440968944
 20
377.6232669992408
 10
235.8951674961105
 20
377.6338128070002
 10
235.8756842280563
 20
377.6442366204564
 10
235.8561942927314
 20
377.6545384396096
 10
235.8366976901361
 20
377.6647182644599
 10
235.8171944202704
 20
377.6747760950073
 10
235.7976844831343
 20
377.6847119312516
 10
235.7781678787277
 20
377.694525773193
 10
235.7586446070506
 20
377.7042176208315
 10
235.7391146681032
 20
377.7137874741669
 10
235.7195780618852
 20
377.7232353331994
 10
235.7000347883968
 20
377.7325611979289
 10
235.680484847638
 20
377.7417650683554
 10
235.6609282396087
 20
377.7508469444791
 10
235.6414148510126
 20
377.7598261364543
 10
235.6219945685532
 20
377.7687219544359
 10
235.6026673922305
 20
377.7775343984238
 10
235.5834333220446
 20
377.7862634684181
 10
235.5642923579954
 20
377.7949091644186
 10
235.5452445000829
 20
377.8034714864255
 10
235.5262897483072
 20
377.8119504344388
 10
235.5074281026681
 20
377.8203460084583
 10
235.4886595631659
 20
377.8286582084842
 10
235.4699841298003
 20
377.8368870345164
 10
235.4514018025715
 20
377.8450324865549
 10
235.4329125814794
 20
377.8530945645998
 10
235.414516466524
 20
377.8610732686511
 10
235.3962134577054
 20
377.8689685987086
 10
235.3780035550234
 20
377.8767805547725
 10
235.3598867584782
 20
377.8845091368427
 10
235.3418630680697
 20
377.8921543449192
 10
235.323932483798
 20
377.8997161790021
 10
235.306095005663
 20
377.9071946390912
 10
235.2883506336648
 20
377.9145897251868
 10
235.2706993678032
 20
377.9219014372886
 10
235.2531412080784
 20
377.9291297753968
 10
235.2356761544903
 20
377.9362747395112
 10
235.2183042070389
 20
377.943336329632
 10
235.2010253657243
 20
377.9503145457593
 10
235.1838396305464
 20
377.9572093878928
 10
235.1667470015052
 20
377.9640208560326
 10
235.1497474786008
 20
377.9707489501788
 10
235.132841061833
 20
377.9773936703312
 10
235.116027751202
 20
377.98395501649
 10
235.0993075467078
 20
377.9904329886551
 10
235.0826804483503
 20
377.9968275868266
 10
235.0661464561294
 20
378.0031388110044
 10
235.0497055700453
 20
378.0093666611886
 10
235.033357790098
 20
378.0155111373791
 10
235.0171031162874
 20
378.0215722395757
 10
235.0009415486136
 20
378.0275499677788
 10
234.9848730870764
 20
378.0334443219883
 10
234.968897731676
 20
378.0392553022041
 10
234.9530154824122
 20
378.0449829084262
 10
234.9372263392853
 20
378.0506271406545
 10
234.921530302295
 20
378.0561879988895
 10
234.9059273714414
 20
378.0616654831305
 10
234.8904175467247
 20
378.0670595933778
 10
234.8750008281446
 20
378.0723703296317
 10
234.8596772157013
 20
378.0775976918917
 10
234.8444467093947
 20
378.0827416801581
 10
234.8293093092248
 20
378.0878022944309
 10
234.8142650151917
 20
378.09277953471
 10
234.7993138272953
 20
378.0976734009954
 10
234.7844557455356
 20
378.1024838932871
 10
234.7696907699126
 20
378.1072110115851
 10
234.7550189004264
 20
378.1118547558895
 10
234.7404401370769
 20
378.1164151262002
 10
234.7259544798641
 20
378.1208921225172
 10
234.7115619287881
 20
378.1252857448408
 10
234.6972624838487
 20
378.1295959931703
 10
234.6830561450461
 20
378.1338228675064
 10
234.6689429123803
 20
378.1379663678487
 10
234.6549227858512
 20
378.1420264941975
 10
234.6409957654588
 20
378.1460032465524
 10
234.627161851203
 20
378.1498966249138
 10
234.6134210430841
 20
378.1537066292815
 10
234.5997733411019
 20
378.1574332596555
 10
234.586113803299
 20
378.1611038124742
 10
234.5723374877184
 20
378.1647455841759
 10
234.5584443943597
 20
378.1683585747608
 10
234.5444345232233
 20
378.1719427842288
 10
234.5303078743088
 20
378.1754982125797
 10
234.5160644476165
 20
378.1790248598138
 10
234.5017042431462
 20
378.1825227259309
 10
234.4872272608982
 20
378.1859918109311
 10
234.4726335008721
 20
378.1894321148144
 10
234.4579229630682
 20
378.1928436375808
 10
234.4430956474864
 20
378.1962263792303
 10
234.4281515541266
 20
378.1995803397626
 10
234.4130906829891
 20
378.2029055191783
 10
234.3979130340735
 20
378.2062019174769
 10
234.38261860738
 20
378.2094695346586
 10
234.3672074029087
 20
378.2127083707234
 10
234.3516794206595
 20
378.2159184256713
 10
234.3360346606323
 20
378.2190996995022
 10
234.3202731228273
 20
378.2222521922161
 10
234.3043948072443
 20
378.2253759038133
 10
234.2883997138835
 20
378.2284708342934
 10
234.2722878427447
 20
378.2315369836568
 10
234.256059193828
 20
378.234574351903
 10
234.2397137671335
 20
378.2375829390323
 10
234.223251562661
 20
378.2405627450448
 10
234.2066725804107
 20
378.2435137699404
 10
234.1899768203824
 20
378.2464360137189
 10
234.1731642825762
 20
378.2493294763805
 10
234.1562349669921
 20
378.2521941579253
 10
234.1391888736301
 20
378.255030058353
 10
234.1220260024903
 20
378.2578371776639
 10
234.1047463535725
 20
378.2606155158579
 10
234.0873499268769
 20
378.2633650729349
 10
234.0698367224033
 20
378.2660858488949
 10
234.0522067401517
 20
378.2687778437381
 10
234.0344599801224
 20
378.2714410574643
 10
234.016596442315
 20
378.2740754900737
 10
233.9986161267299
 20
378.276681141566
 10
233.9805190333668
 20
378.2792580119415
 10
233.9623051622258
 20
378.2818061012
 10
233.9439745133069
 20
378.2843254093417
 10
233.92552708661
 20
378.2868159363663
 10
233.9069628821353
 20
378.289277682274
 10
233.8882818998827
 20
378.2917106470648
 10
233.8694841398523
 20
378.2941148307386
 10
233.8505696020438
 20
378.2964902332956
 10
233.8315382864575
 20
378.2988368547357
 10
233.8123901930933
 20
378.3011546950588
 10
233.7931253219512
 20
378.3034437542649
 10
233.7737436730311
 20
378.3057040323542
 10
233.7542452463332
 20
378.3079355293265
 10
233.7346300418574
 20
378.3101382451818
 10
233.7148980596036
 20
378.3123121799203
 10
233.695049299572
 20
378.3144573335417
 10
233.6750837617625
 20
378.3165737060464
 10
233.655001446175
 20
378.3186612974341
 10
233.6348023528097
 20
378.3207201077049
 10
233.6144864816664
 20
378.3227501368587
 10
233.5940538327453
 20
378.3247513848956
 10
233.5735044060462
 20
378.3267238518157
 10
233.5528382015693
 20
378.3286675376186
 10
233.5320552193144
 20
378.3305824423048
 10
233.5111554592817
 20
378.3324685658738
 10
233.490138921471
 20
378.3343259083262
 10
233.4690691461801
 20
378.3361112754765
 10
233.4480096737069
 20
378.33778147314
 10
233.426960504051
 20
378.3393365013168
 10
233.4059216372128
 20
378.3407763600065
 10
233.384893073192
 20
378.3421010492095
 10
233.3638748119888
 20
378.3433105689258
 10
233.3428668536031
 20
378.3444049191551
 10
233.3218691980349
 20
378.3453840998976
 10
233.3008818452843
 20
378.3462481111532
 10
233.2799047953512
 20
378.3469969529221
 10
233.2589380482356
 20
378.347630625204
 10
233.2379816039375
 20
378.3481491279992
 10
233.2170354624569
 20
378.3485524613074
 10
233.196099623794
 20
378.3488406251288
 10
233.1751740879485
 20
378.3490136194635
 10
233.1542588549204
 20
378.3490714443112
 10
233.1333539247101
 20
378.3490140996722
 10
233.1124592973171
 20
378.3488415855463
 10
233.0915749727417
 20
378.3485539019336
 10
233.0707009509839
 20
378.348151048834
 10
233.0498372320435
 20
378.3476330262475
 10
233.0289838159206
 20
378.3469998341744
 10
233.0081407026153
 20
378.3462514726142
 10
232.9873078921276
 20
378.3453879415672
 10
232.9664853844574
 20
378.3444092410335
 10
232.9456731796047
 20
378.3433153710129
 10
232.9248712775695
 20
378.3421063315054
 10
232.9040796783519
 20
378.3407821225112
 10
232.8832983819516
 20
378.33934274403
 10
232.8625273883691
 20
378.3377881960621
 10
232.841766697604
 20
378.3361184786072
 10
232.8210163096564
 20
378.3343335916657
 10
232.8002762245264
 20
378.3324335352371
 10
232.7795464422139
 20
378.3304183093218
 10
232.7588269627189
 20
378.3282879139196
 10
232.7381177860414
 20
378.3260423490306
 10
232.7174189121815
 20
378.3236816146549
 10
232.6967303411391
 20
378.3212057107921
 10
232.6760520729142
 20
378.3186146374425
 10
232.6553841075068
 20
378.3159083946061
 10
232.634726444917
 20
378.3130869822829
 10
232.6140790851447
 20
378.3101504004729
 10
232.5934420281899
 20
378.307098649176
 10
232.5728152740526
 20
378.3039317283923
 10
232.5521988227329
 20
378.3006496381217
 10
232.5315926742307
 20
378.2972523783644
 10
232.510996828546
 20
378.2937399491201
 10
232.4904112856788
 20
378.290112350389
 10
232.4698360456292
 20
378.2863695821711
 10
232.4492711083971
 20
378.2825116444664
 10
232.4287164739825
 20
378.2785385372747
 10
232.4081721423855
 20
378.2744502605963
 10
232.3876381136059
 20
378.2702468144312
 10
232.367114387644
 20
378.2659281987789
 10
232.3466009644994
 20
378.26149441364
 10
232.3260978441725
 20
378.2569454590143
 10
232.305605026663
 20
378.2522813349017
 10
232.2851225119712
 20
378.247502041302
 10
232.2646503000968
 20
378.2426075782157
 10
232.2441883910399
 20
378.2375979456426
 10
232.2237367848006
 20
378.2324731435825
 10
232.2032954813789
 20
378.2272331720358
 10
232.1828644807745
 20
378.2218780310021
 10
232.1624437829877
 20
378.2164077204817
 10
232.1420347461808
 20
378.210852000059
 10
232.1216387285157
 20
378.2052406293192
 10
232.1012557299927
 20
378.1995736082618
 10
232.0808857506116
 20
378.1938509368872
 10
232.0605287903725
 20
378.1880726151952
 10
232.0401848492755
 20
378.1822386431861
 10
232.0198539273204
 20
378.1763490208592
 10
231.9995360245072
 20
378.1704037482154
 10
231.9792311408361
 20
378.1644028252541
 10
231.9589392763069
 20
378.1583462519754
 10
231.9386604309197
 20
378.1522340283795
 10
231.9183946046745
 20
378.1460661544663
 10
231.8981417975712
 20
378.1398426302355
 10
231.87790200961
 20
378.1335634556876
 10
231.8576752407907
 20
378.1272286308223
 10
231.8374614911134
 20
378.1208381556397
 10
231.8172607605781
 20
378.1143920301397
 10
231.7970730491848
 20
378.1078902543223
 10
231.7768983569334
 20
378.1013328281877
 10
231.7567366838241
 20
378.0947197517356
 10
231.7365880298567
 20
378.0880510249663
 10
231.7164523950312
 20
378.0813266478796
 10
231.6963297793478
 20
378.0745466204757
 10
231.6762201828064
 20
378.0677109427543
 10
231.6561236054068
 20
378.0608196147155
 10
231.6360400471494
 20
378.0538726363595
 10
231.6159695080338
 20
378.0468700076862
 10
231.5959119880603
 20
378.0398117286954
 10
231.5758674872288
 20
378.0326977993873
 10
231.5558360055391
 20
378.0255282197619
 10
231.5358175429916
 20
378.0183029898192
 10
231.515812099586
 20
378.0110221095592
 10
231.4958196753224
 20
378.0036855789818
 10
231.4758402702008
 20
377.9962933980872
 10
231.455873884221
 20
377.9888455668752
 10
231.4359205173833
 20
377.9813420853457
 10
231.4159801696877
 20
377.9737829534988
 10
231.3960528411339
 20
377.9661681713349
 10
231.3761385317222
 20
377.9584977388535
 10
231.3562372414524
 20
377.9507716560548
 10
231.3363489703246
 20
377.9429899229385
 10
231.3164737183388
 20
377.9351525395052
 10
231.296611485495
 20
377.9272595057544
 10
231.2767622717932
 20
377.9193108216863
 10
231.2569260772332
 20
377.9113064873009
 10
231.2371029018154
 20
377.9032465025981
 10
231.2172927455394
 20
377.895130867578
 10
231.1974956084056
 20
377.8869595822405
 10
231.1777114904136
 20
377.8787326465857
 10
231.1579403915636
 20
377.8704500606136
 10
231.1381823118556
 20
377.8621118243242
 10
231.1184372512896
 20
377.8537179377174
 10
231.0987052098656
 20
377.8452684007931
 10
231.0789861875836
 20
377.8367632135517
 10
231.0592801844435
 20
377.828202375993
 10
231.0395872004454
 20
377.8195858881168
 10
231.0199072355893
 20
377.8109137499233
 10
231.0002402898752
 20
377.8021859614125
 10
230.980586363303
 20
377.7934025225844
 10
230.9609454558728
 20
377.7845634334389
 10
230.9413175675847
 20
377.7756686939761
 10
230.9217026984384
 20
377.7667183041959
 10
230.9021008484342
 20
377.7577122640983
 10
230.882512017572
 20
377.7486505736836
 10
230.8629333795976
 20
377.7395011334056
 10
230.8433621082569
 20
377.7302318437185
 10
230.82379820355
 20
377.7208427046223
 10
230.8042416654768
 20
377.7113337161172
 10
230.7846924940373
 20
377.7017048782032
 10
230.7651506892316
 20
377.69195619088
 10
230.7456162510596
 20
377.682087654148
 10
230.7260891795213
 20
377.6720992680067
 10
230.7065694746167
 20
377.6619910324565
 10
230.6870571363458
 20
377.6517629474973
 10
230.6675521647088
 20
377.6414150131291
 10
230.6480545597054
 20
377.6309472293517
 10
230.6285643213358
 20
377.6203595961655
 10
230.6090814495998
 20
377.6096521135702
 10
230.5896059444976
 20
377.5988247815658
 10
230.5701378060292
 20
377.5878776001525
 10
230.5506770341944
 20
377.5768105693301
 10
230.5312236289934
 20
377.5656236890986
 10
230.5117775904261
 20
377.5543169594582
 10
230.4923389184926
 20
377.5428903804088
 10
230.4729076131928
 20
377.5313439519503
 10
230.4534836745267
 20
377.5196776740828
 10
230.4340671024944
 20
377.5078915468063
 10
230.4146578970957
 20
377.4959855701208
 10
230.3952560583308
 20
377.4839597440262
 10
230.3758615861996
 20
377.4718140685226
 10
230.3564744807022
 20
377.45954854361
 10
230.3370947418385
 20
377.4471631692883
 10
230.3177223696084
 20
377.4346579455577
 10
230.2983573640121
 20
377.422032872418
 10
230.2789997250496
 20
377.4092879498692
 10
230.2596494527208
 20
377.3964231779116
 10
230.2403065470257
 20
377.3834385565448
 10
230.2209710079644
 20
377.3703340857691
 10
230.2016428355368
 20
377.3571097655842
 10
230.1823220297429
 20
377.3437655959904
 10
230.1630085905827
 20
377.3303015769876
 10
230.1437025180563
 20
377.3167177085757
 10
230.1244038121636
 20
377.3030139907548
 10
230.1051124729045
 20
377.2891904235249
 10
230.0858285002793
 20
377.275247006886
 10
230.0665518942877
 20
377.2611837408381
 10
230.04728265493
 20
377.2470006253811
 10
230.0280207822059
 20
377.2326976605151
 10
230.0087662761155
 20
377.2182748462401
 10
229.9895191366589
 20
377.203732182556
 10
229.970279363836
 20
377.189069669463
 10
229.9510469576468
 20
377.1742873069609
 10
229.9318219180915
 20
377.1593850950498
 10
229.9126042451698
 20
377.1443630337297
 10
229.8933939388819
 20
377.1292211230005
 10
229.8741909992276
 20
377.1139593628624
 10
229.8549954262071
 20
377.0985777533152
 10
229.8358072198202
 20
377.0830762943589
 10
229.8166263800673
 20
377.0674549859937
 10
229.7974529069479
 20
377.0517138282194
 10
229.7782868004623
 20
377.0358528210361
 10
229.7591280606104
 20
377.0198719644438
 10
229.7399766873922
 20
377.0037712584425
 10
229.7208326808078
 20
376.9875507030321
 10
229.7016960408572
 20
376.9712102982128
 10
229.6825667675402
 20
376.9547500439843
 10
229.663444860857
 20
376.9381699403469
 10
229.6443303208074
 20
376.9214699873005
 10
229.625261888631
 20
376.9047068224026
 10
229.6062783055668
 20
376.8879370832111
 10
229.5873795716149
 20
376.8711607697257
 10
229.5685656867753
 20
376.8543778819467
 10
229.549836651048
 20
376.837588419874
 10
229.531192464433
 20
376.8207923835074
 10
229.5126331269304
 20
376.8039897728472
 10
229.4941586385399
 20
376.7871805878932
 10
229.4757689992617
 20
376.7703648286455
 10
229.457464209096
 20
376.7535424951041
 10
229.4392442680424
 20
376.7367135872689
 10
229.4211091761013
 20
376.71987810514
 10
229.4030589332724
 20
376.7030360487173
 10
229.3850935395557
 20
376.6861874180009
 10
229.3672129949515
 20
376.6693322129908
 10
229.3494172994594
 20
376.6524704336869
 10
229.3317064530797
 20
376.6356020800893
 10
229.3140804558123
 20
376.6187271521978
 10
229.2965393076571
 20
376.6018456500128
 10
229.2790830086143
 20
376.584957573534
 10
229.2617115586837
 20
376.5680629227615
 10
229.2444249578656
 20
376.5511616976951
 10
229.2272232061596
 20
376.5342538983351
 10
229.210106303566
 20
376.5173395246814
 10
229.1930742500846
 20
376.5004185767338
 10
229.1761270457156
 20
376.4834910544926
 10
229.1592646904588
 20
376.4665569579577
 10
229.1424871843144
 20
376.4496162871289
 10
229.1257945272823
 20
376.4326690420065
 10
229.1091867193624
 20
376.4157152225903
 10
229.0926637605549
 20
376.3987548288804
 10
229.0762256508596
 20
376.3817878608768
 10
229.0598723902767
 20
376.3648143185794
 10
229.043603978806
 20
376.3478342019882
 10
229.0274204164476
 20
376.3308475111033
 10
229.0113217032016
 20
376.3138542459249
 10
228.9953078390678
 20
376.2968544064524
 10
228.9793788240464
 20
376.2798479926863
 10
228.9635346581373
 20
376.2628350046265
 10
228.9477753413404
 20
376.2458154422729
 10
228.9321008736557
 20
376.2287893056257
 10
228.9165112550834
 20
376.2117565946847
 10
228.9010064856235
 20
376.19471730945
 10
228.8855865652759
 20
376.1776714499214
 10
228.8702514940404
 20
376.1606190160992
 10
228.8550012719174
 20
376.1435600079832
 10
228.8398358989066
 20
376.1264944255735
 10
228.8247553750081
 20
376.1094222688701
 10
228.809759700222
 20
376.0923435378729
 10
228.794848874548
 20
376.075258232582
 10
228.7800228979865
 20
376.0581663529972
 10
228.7652817705372
 20
376.041067899119
 10
228.7506254922002
 20
376.0239628709468
 10
228.7360540629755
 20
376.006851268481
 10
228.7215674828631
 20
375.9897330917214
 10
228.707165751863
 20
375.972608340668
 10
228.6928488699752
 20
375.955477015321
 10
228.6786168371996
 20
375.9383391156802
 10
228.6644696535365
 20
375.9211946417456
 10
228.6504073189856
 20
375.9040435935174
 10
228.636429833547
 20
375.8868859709954
 10
228.6225371972206
 20
375.8697217741796
 10
228.6087294100067
 20
375.8525510030701
 10
228.5950064719049
 20
375.8353736576669
 10
228.5950064719049
 20
375.8353736576669
  0
TEXT
  5
402
330
473
100
AcDbEntity
  8
DATA
 62
     7
100
AcDbText
 10
350.0
 20
-403.9683
 30
0.0
 40
12.21630859375
  1
JBL PROFESSIONAL
 41
0.7
 11
350.0
 21
-391.75199140625
 31
0.0
100
AcDbText
 73
     3
  0
ENDSEC
  0
SECTION
  2
OBJECTS
  0
DICTIONARY
  5
410
330
0
100
AcDbDictionary
281
     1
  3
ACAD_CIP_PREVIOUS_PRODUCT_INFO
350
48E
  3
ACAD_COLOR
350
466
  3
ACAD_DETAILVIEWSTYLE
350
46D
  3
ACAD_GROUP
350
411
  3
ACAD_LAYOUT
350
465
  3
ACAD_MATERIAL
350
414
  3
ACAD_MLEADERSTYLE
350
469
  3
ACAD_MLINESTYLE
350
462
  3
ACAD_PLOTSETTINGS
350
464
  3
ACAD_PLOTSTYLENAME
350
412
  3
ACAD_SCALELIST
350
446
  3
ACAD_SECTIONVIEWSTYLE
350
46B
  3
ACAD_TABLESTYLE
350
467
  3
ACAD_VISUALSTYLE
350
42D
  3
ACDB_RECOMPOSE_DATA
350
4A4
  3
AcDbVariableDictionary
350
497
  3
DWGPROPS
350
4A5
  0
DICTIONARY
  5
48F
330
458
100
AcDbDictionary
280
     1
281
     1
  3
ADSK_XREC_LAYER_RECONCILED
360
490
  0
DICTIONARY
  5
491
330
477
100
AcDbDictionary
280
     1
281
     1
  3
ADSK_XREC_LAYER_RECONCILED
360
492
  0
DICTIONARY
  5
493
330
487
100
AcDbDictionary
280
     1
281
     1
  3
ADSK_XREC_LAYER_RECONCILED
360
494
  0
DICTIONARY
  5
495
330
488
100
AcDbDictionary
280
     1
281
     1
  3
ADSK_XREC_LAYER_RECONCILED
360
496
  0
XRECORD
  5
48E
102
{ACAD_REACTORS
330
410
102
}
330
410
100
AcDbXrecord
280
     1
300
ACDLT
300
2015
300
ACDLT_F_S
  0
DICTIONARY
  5
466
102
{ACAD_REACTORS
330
410
102
}
330
410
100
AcDbDictionary
281
     1
  0
DICTIONARY
  5
46D
102
{ACAD_REACTORS
330
410
102
}
330
410
100
AcDbDictionary
281
     1
  3
Imperial24
350
46E
  0
DICTIONARY
  5
411
102
{ACAD_REACTORS
330
410
102
}
330
410
100
AcDbDictionary
281
     1
  0
DICTIONARY
  5
465
102
{ACAD_REACTORS
330
410
102
}
330
410
100
AcDbDictionary
281
     1
  3
Model
350
476
  3
レイアウト1
350
472
  0
DICTIONARY
  5
414
102
{ACAD_REACTORS
330
410
102
}
330
410
100
AcDbDictionary
281
     1
  3
ByBlock
350
41D
  3
ByLayer
350
415
  3
Global
350
425
  0
DICTIONARY
  5
469
102
{ACAD_REACTORS
330
410
102
}
330
410
100
AcDbDictionary
281
     1
  3
Standard
350
46A
  0
DICTIONARY
  5
462
102
{ACAD_REACTORS
330
410
102
}
330
410
100
AcDbDictionary
281
     1
  3
Standard
350
463
  0
DICTIONARY
  5
464
102
{ACAD_REACTORS
330
410
102
}
330
410
100
AcDbDictionary
281
     1
  0
ACDBDICTIONARYWDFLT
  5
412
102
{ACAD_REACTORS
330
410
102
}
330
410
100
AcDbDictionary
281
     1
  3
Normal
350
413
100
AcDbDictionaryWithDefault
340
413
  0
DICTIONARY
  5
446
102
{ACAD_REACTORS
330
410
102
}
330
410
100
AcDbDictionary
281
     1
  3
A0
350
447
  3
A1
350
448
  3
A2
350
449
  3
A3
350
44A
  3
A4
350
44B
  3
A5
350
44C
  3
A6
350
44D
  3
A7
350
44E
  3
A8
350
44F
  3
A9
350
450
  3
B0
350
451
  3
B1
350
452
  3
B2
350
453
  3
B3
350
454
  3
B4
350
455
  3
B5
350
456
  3
B6
350
457
  0
DICTIONARY
  5
46B
102
{ACAD_REACTORS
330
410
102
}
330
410
100
AcDbDictionary
281
     1
  3
Imperial24
350
46C
  0
DICTIONARY
  5
467
102
{ACAD_REACTORS
330
410
102
}
330
410
100
AcDbDictionary
281
     1
  3
Standard
350
468
  0
DICTIONARY
  5
42D
102
{ACAD_REACTORS
330
410
102
}
330
410
100
AcDbDictionary
281
     1
  3
2dWireframe
350
433
  3
Basic
350
432
  3
Brighten
350
439
  3
ColorChange
350
43D
  3
Conceptual
350
436
  3
Dim
350
438
  3
EdgeColorOff
350
445
  3
Facepattern
350
43C
  3
Flat
350
42E
  3
FlatWithEdges
350
42F
  3
Gouraud
350
430
  3
GouraudWithEdges
350
431
  3
Hidden
350
435
  3
JitterOff
350
443
  3
Linepattern
350
43B
  3
OverhangOff
350
444
  3
Realistic
350
437
  3
Shaded
350
442
  3
Shaded with edges
350
441
  3
Shades of Gray
350
43E
  3
Sketchy
350
43F
  3
Thicken
350
43A
  3
Wireframe
350
434
  3
X-Ray
350
440
  0
XRECORD
  5
4A4
102
{ACAD_REACTORS
330
410
102
}
330
410
100
AcDbXrecord
280
     1
 90
        1
330
468
  0
DICTIONARY
  5
497
102
{ACAD_REACTORS
330
410
102
}
330
410
100
AcDbDictionary
281
     1
  3
CANNOSCALE
350
49C
  3
CMLEADERSTYLE
350
499
  3
CTABLESTYLE
350
498
  3
CVIEWDETAILSTYLE
350
49A
  3
CVIEWSECTIONSTYLE
350
49B
  3
DIMASSOC
350
49F
  3
INDEXCTL
350
49E
  3
SORTENTS
350
49D
  3
XCLIPFRAME
350
4A0
  0
XRECORD
  5
4A5
102
{ACAD_REACTORS
330
410
102
}
330
410
100
AcDbXrecord
280
     1
  1
DWGPROPS COOKIE
  2

  3

  4

  6

  7

  8
sasaki_n
  9

300
=
301
=
302
=
303
=
304
=
305
=
306
=
307
=
308
=
309
=
 40
0.0005138657407407
 41
2457051.559259259
 42
2457051.560681736
  1

 90
        0
  0
XRECORD
  5
490
102
{ACAD_REACTORS
330
48F
102
}
330
48F
100
AcDbXrecord
280
     1
290
     1
  0
XRECORD
  5
492
102
{ACAD_REACTORS
330
491
102
}
330
491
100
AcDbXrecord
280
     1
290
     1
  0
XRECORD
  5
494
102
{ACAD_REACTORS
330
493
102
}
330
493
100
AcDbXrecord
280
     1
290
     1
  0
XRECORD
  5
496
102
{ACAD_REACTORS
330
495
102
}
330
495
100
AcDbXrecord
280
     1
290
     1
  0
ACDBDETAILVIEWSTYLE
  5
46E
102
{ACAD_XDICTIONARY
360
4DD
102
}
102
{ACAD_REACTORS
330
46D
102
}
330
46D
100
AcDbModelDocViewStyle
 70
     0
  3
Imperial24
290
     0
100
AcDbDetailViewStyle
 70
     0
 71
     0
 90
        3
 71
     1
340
459
 40
0.24
340
0
 40
0.24
300

 40
0.36
280
     3
 71
     2
340
460
 90
       25
 71
     3
340
459
 40
0.24
 90
        1
 40
0.75
 90
        1
300
%<\AcVar ViewType \f "%tc1">% %<\AcVar ViewDetailId>%\PSCALE %<\AcVar ViewScale \f "%sn">%
 71
     4
340
460
 90
       25
340
460
 90
       25
280
     0
  0
LAYOUT
  5
476
102
{ACAD_XDICTIONARY
360
4E1
102
}
102
{ACAD_REACTORS
330
465
102
}
330
465
100
AcDbPlotSettings
  1

  2
Microsoft XPS Document Writer
  4

  6

 40
0.0
 41
0.0
 42
0.0
 43
0.0
 44
0.0
 45
0.0
 46
0.0
 47
0.0
 48
0.0
 49
0.0
140
0.0
141
0.0
142
1.0
143
1.0
 70
  1712
 72
     0
 73
     0
 74
     0
  7

 75
     0
147
1.0
148
0.0
149
0.0
100
AcDbLayout
  1
Model
 70
     1
 71
     0
 10
0.0
 20
0.0
 11
12.0
 21
9.0
 12
0.0
 22
0.0
 32
0.0
 14
0.0
 24
0.0
 34
0.0
 15
0.0
 25
0.0
 35
0.0
146
0.0
 13
0.0
 23
0.0
 33
0.0
 16
1.0
 26
0.0
 36
0.0
 17
0.0
 27
1.0
 37
0.0
 76
     0
330
473
331
478
  0
LAYOUT
  5
472
102
{ACAD_XDICTIONARY
360
4DF
102
}
102
{ACAD_REACTORS
330
465
102
}
330
465
100
AcDbPlotSettings
  1

  2
Microsoft XPS Document Writer
  4

  6

 40
0.0
 41
0.0
 42
0.0
 43
0.0
 44
0.0
 45
0.0
 46
0.0
 47
0.0
 48
0.0
 49
0.0
140
0.0
141
0.0
142
1.0
143
1.0
 70
   688
 72
     0
 73
     0
 74
     5
  7

 75
    16
147
1.0
148
0.0
149
0.0
100
AcDbLayout
  1
レイアウト1
 70
     0
 71
     1
 10
0.0
 20
0.0
 11
12.0
 21
9.0
 12
0.0
 22
0.0
 32
0.0
 14
1.000000000000000E+20
 24
1.000000000000000E+20
 34
1.000000000000000E+20
 15
-1.000000000000000E+20
 25
-1.000000000000000E+20
 35
-1.000000000000000E+20
146
0.0
 13
0.0
 23
0.0
 33
0.0
 16
1.0
 26
0.0
 36
0.0
 17
0.0
 27
1.0
 37
0.0
 76
     0
330
46F
  0
MATERIAL
  5
41D
102
{ACAD_XDICTIONARY
360
41E
102
}
102
{ACAD_REACTORS
330
414
102
}
330
414
100
AcDbMaterial
  1
ByBlock
 72
     0
 43
0.0208333333333333
 43
0.0
 43
0.0
 43
0.0
 43
0.0
 43
0.0208333333333333
 43
0.0
 43
0.0
 43
0.0
 43
0.0
 43
1.0
 43
0.0
 43
0.0
 43
0.0
 43
0.0
 43
1.0
 77
     0
 47
0.0208333333333333
 47
0.0
 47
0.0
 47
0.0
 47
0.0
 47
0.0208333333333333
 47
0.0
 47
0.0
 47
0.0
 47
0.0
 47
1.0
 47
0.0
 47
0.0
 47
0.0
 47
0.0
 47
1.0
171
     0
 49
0.0208333333333333
 49
0.0
 49
0.0
 49
0.0
 49
0.0
 49
0.0208333333333333
 49
0.0
 49
0.0
 49
0.0
 49
0.0
 49
1.0
 49
0.0
 49
0.0
 49
0.0
 49
0.0
 49
1.0
175
     0
142
0.0208333333333333
142
0.0
142
0.0
142
0.0
142
0.0
142
0.0208333333333333
142
0.0
142
0.0
142
0.0
142
0.0
142
1.0
142
0.0
142
0.0
142
0.0
142
0.0
142
1.0
179
     0
144
0.0208333333333333
144
0.0
144
0.0
144
0.0
144
0.0
144
0.0208333333333333
144
0.0
144
0.0
144
0.0
144
0.0
144
1.0
144
0.0
144
0.0
144
0.0
144
0.0
144
1.0
147
0.0208333333333333
147
0.0
147
0.0
147
0.0
147
0.0
147
0.0208333333333333
147
0.0
147
0.0
147
0.0
147
0.0
147
1.0
147
0.0
147
0.0
147
0.0
147
0.0
147
1.0
  0
MATERIAL
  5
415
102
{ACAD_XDICTIONARY
360
416
102
}
102
{ACAD_REACTORS
330
414
102
}
330
414
100
AcDbMaterial
  1
ByLayer
 72
     0
 43
0.0208333333333333
 43
0.0
 43
0.0
 43
0.0
 43
0.0
 43
0.0208333333333333
 43
0.0
 43
0.0
 43
0.0
 43
0.0
 43
1.0
 43
0.0
 43
0.0
 43
0.0
 43
0.0
 43
1.0
 77
     0
 47
0.0208333333333333
 47
0.0
 47
0.0
 47
0.0
 47
0.0
 47
0.0208333333333333
 47
0.0
 47
0.0
 47
0.0
 47
0.0
 47
1.0
 47
0.0
 47
0.0
 47
0.0
 47
0.0
 47
1.0
171
     0
 49
0.0208333333333333
 49
0.0
 49
0.0
 49
0.0
 49
0.0
 49
0.0208333333333333
 49
0.0
 49
0.0
 49
0.0
 49
0.0
 49
1.0
 49
0.0
 49
0.0
 49
0.0
 49
0.0
 49
1.0
175
     0
142
0.0208333333333333
142
0.0
142
0.0
142
0.0
142
0.0
142
0.0208333333333333
142
0.0
142
0.0
142
0.0
142
0.0
142
1.0
142
0.0
142
0.0
142
0.0
142
0.0
142
1.0
179
     0
144
0.0208333333333333
144
0.0
144
0.0
144
0.0
144
0.0
144
0.0208333333333333
144
0.0
144
0.0
144
0.0
144
0.0
144
1.0
144
0.0
144
0.0
144
0.0
144
0.0
144
1.0
147
0.0208333333333333
147
0.0
147
0.0
147
0.0
147
0.0
147
0.0208333333333333
147
0.0
147
0.0
147
0.0
147
0.0
147
1.0
147
0.0
147
0.0
147
0.0
147
0.0
147
1.0
  0
MATERIAL
  5
425
102
{ACAD_XDICTIONARY
360
426
102
}
102
{ACAD_REACTORS
330
414
102
}
330
414
100
AcDbMaterial
  1
Global
 72
     0
 43
0.0208333333333333
 43
0.0
 43
0.0
 43
0.0
 43
0.0
 43
0.0208333333333333
 43
0.0
 43
0.0
 43
0.0
 43
0.0
 43
1.0
 43
0.0
 43
0.0
 43
0.0
 43
0.0
 43
1.0
 77
     0
 47
0.0208333333333333
 47
0.0
 47
0.0
 47
0.0
 47
0.0
 47
0.0208333333333333
 47
0.0
 47
0.0
 47
0.0
 47
0.0
 47
1.0
 47
0.0
 47
0.0
 47
0.0
 47
0.0
 47
1.0
171
     0
 49
0.0208333333333333
 49
0.0
 49
0.0
 49
0.0
 49
0.0
 49
0.0208333333333333
 49
0.0
 49
0.0
 49
0.0
 49
0.0
 49
1.0
 49
0.0
 49
0.0
 49
0.0
 49
0.0
 49
1.0
175
     0
142
0.0208333333333333
142
0.0
142
0.0
142
0.0
142
0.0
142
0.0208333333333333
142
0.0
142
0.0
142
0.0
142
0.0
142
1.0
142
0.0
142
0.0
142
0.0
142
0.0
142
1.0
179
     0
144
0.0208333333333333
144
0.0
144
0.0
144
0.0
144
0.0
144
0.0208333333333333
144
0.0
144
0.0
144
0.0
144
0.0
144
1.0
144
0.0
144
0.0
144
0.0
144
0.0
144
1.0
147
0.0208333333333333
147
0.0
147
0.0
147
0.0
147
0.0
147
0.0208333333333333
147
0.0
147
0.0
147
0.0
147
0.0
147
1.0
147
0.0
147
0.0
147
0.0
147
0.0
147
1.0
  0
MLEADERSTYLE
  5
46A
102
{ACAD_REACTORS
330
469
102
}
330
469
100
AcDbMLeaderStyle
170
     2
171
     1
172
     0
 90
        2
 40
0.0
 41
0.0
173
     1
 91
-1056964608
340
45E
 92
       -2
290
     1
 42
0.09
291
     1
 43
0.36
  3
Standard
 44
0.18
300

342
459
174
     1
178
     6
175
     1
176
     0
 93
-1056964608
 45
0.18
292
     0
297
     0
 46
0.18
 94
-1056964608
 47
1.0
 49
1.0
140
1.0
293
     1
141
0.0
294
     1
177
     0
142
1.0
295
     0
296
     0
143
0.125
1001
ACAD_MLEADERVER
1070
     2
  0
MLINESTYLE
  5
463
102
{ACAD_REACTORS
330
462
102
}
330
462
100
AcDbMlineStyle
  2
STANDARD
 70
     0
  3

 62
   256
 51
90.0
 52
90.0
 71
     2
 49
0.5
 62
   256
  6
BYLAYER
 49
-0.5
 62
   256
  6
BYLAYER
  0
ACDBPLACEHOLDER
  5
413
102
{ACAD_REACTORS
330
412
102
}
330
412
  0
SCALE
  5
447
102
{ACAD_REACTORS
330
446
102
}
330
446
100
AcDbScale
 70
     0
300
1:1
140
1.0
141
1.0
290
     1
  0
SCALE
  5
448
102
{ACAD_REACTORS
330
446
102
}
330
446
100
AcDbScale
 70
     0
300
1/128" = 1'-0"
140
0.0078125
141
12.0
290
     0
  0
SCALE
  5
449
102
{ACAD_REACTORS
330
446
102
}
330
446
100
AcDbScale
 70
     0
300
1/64" = 1'-0"
140
0.015625
141
12.0
290
     0
  0
SCALE
  5
44A
102
{ACAD_REACTORS
330
446
102
}
330
446
100
AcDbScale
 70
     0
300
1/32" = 1'-0"
140
0.03125
141
12.0
290
     0
  0
SCALE
  5
44B
102
{ACAD_REACTORS
330
446
102
}
330
446
100
AcDbScale
 70
     0
300
1/16" = 1'-0"
140
0.0625
141
12.0
290
     0
  0
SCALE
  5
44C
102
{ACAD_REACTORS
330
446
102
}
330
446
100
AcDbScale
 70
     0
300
3/32" = 1'-0"
140
0.09375
141
12.0
290
     0
  0
SCALE
  5
44D
102
{ACAD_REACTORS
330
446
102
}
330
446
100
AcDbScale
 70
     0
300
1/8" = 1'-0"
140
0.125
141
12.0
290
     0
  0
SCALE
  5
44E
102
{ACAD_REACTORS
330
446
102
}
330
446
100
AcDbScale
 70
     0
300
3/16" = 1'-0"
140
0.1875
141
12.0
290
     0
  0
SCALE
  5
44F
102
{ACAD_REACTORS
330
446
102
}
330
446
100
AcDbScale
 70
     0
300
1/4" = 1'-0"
140
0.25
141
12.0
290
     0
  0
SCALE
  5
450
102
{ACAD_REACTORS
330
446
102
}
330
446
100
AcDbScale
 70
     0
300
3/8" = 1'-0"
140
0.375
141
12.0
290
     0
  0
SCALE
  5
451
102
{ACAD_REACTORS
330
446
102
}
330
446
100
AcDbScale
 70
     0
300
1/2" = 1'-0"
140
0.5
141
12.0
290
     0
  0
SCALE
  5
452
102
{ACAD_REACTORS
330
446
102
}
330
446
100
AcDbScale
 70
     0
300
3/4" = 1'-0"
140
0.75
141
12.0
290
     0
  0
SCALE
  5
453
102
{ACAD_REACTORS
330
446
102
}
330
446
100
AcDbScale
 70
     0
300
1" = 1'-0"
140
1.0
141
12.0
290
     0
  0
SCALE
  5
454
102
{ACAD_REACTORS
330
446
102
}
330
446
100
AcDbScale
 70
     0
300
1-1/2" = 1'-0"
140
1.5
141
12.0
290
     0
  0
SCALE
  5
455
102
{ACAD_REACTORS
330
446
102
}
330
446
100
AcDbScale
 70
     0
300
3" = 1'-0"
140
3.0
141
12.0
290
     0
  0
SCALE
  5
456
102
{ACAD_REACTORS
330
446
102
}
330
446
100
AcDbScale
 70
     0
300
6" = 1'-0"
140
6.0
141
12.0
290
     0
  0
SCALE
  5
457
102
{ACAD_REACTORS
330
446
102
}
330
446
100
AcDbScale
 70
     0
300
1'-0" = 1'-0"
140
12.0
141
12.0
290
     0
  0
ACDBSECTIONVIEWSTYLE
  5
46C
102
{ACAD_XDICTIONARY
360
4DB
102
}
102
{ACAD_REACTORS
330
46B
102
}
330
46B
100
AcDbModelDocViewStyle
 70
     0
  3
Imperial24
290
     0
100
AcDbSectionViewStyle
 70
     0
 71
     0
 90
       78
 71
     1
340
459
 40
0.24
340
0
340
0
 40
0.24
300
I, O, Q, S, X, Z
 40
0.48
 90
        3
 40
0.18
 90
        1
 71
     2
340
460
 90
       25
340
460
 90
       50
 40
0.24
 40
0.0
 40
0.24
 71
     3
340
459
 40
0.24
 90
        1
 40
0.75
 90
        1
300
%<\AcVar ViewType \f "%tc1">% %<\AcVar ViewSectionStartId>%-%<\AcVar ViewSectionEndId>%\PSCALE %<\AcVar ViewScale \f "%sn">%
 71
     4
300
ANSI31
 40
1.0
 90
        0
290
     0
290
     0
 90
        6
 40
0.0
 40
1.570796326794896
 40
0.2617993877991494
 40
1.308996938995747
 40
-0.2617993877991494
 40
1.832595714594046
  0
TABLESTYLE
  5
468
102
{ACAD_XDICTIONARY
360
4A2
102
}
102
{ACAD_REACTORS
330
467
102
}
330
467
100
AcDbTableStyle
  3
Standard
 70
     0
 71
     0
 40
0.06
 41
0.06
280
     0
281
     0
  7
STANDARD
140
0.18
170
     2
 62
     0
 63
     7
283
     0
274
    -2
284
     1
 64
     0
275
    -2
285
     1
 65
     0
276
    -2
286
     1
 66
     0
277
    -2
287
     1
 67
     0
278
    -2
288
     1
 68
     0
279
    -2
289
     1
 69
     0
  7
STANDARD
140
0.25
170
     5
 62
     0
 63
     7
283
     0
274
    -2
284
     1
 64
     0
275
    -2
285
     1
 65
     0
276
    -2
286
     1
 66
     0
277
    -2
287
     1
 67
     0
278
    -2
288
     1
 68
     0
279
    -2
289
     1
 69
     0
  7
STANDARD
140
0.18
170
     5
 62
     0
 63
     7
283
     0
274
    -2
284
     1
 64
     0
275
    -2
285
     1
 65
     0
276
    -2
286
     1
 66
     0
277
    -2
287
     1
 67
     0
278
    -2
288
     1
 68
     0
279
    -2
289
     1
 69
     0
  0
VISUALSTYLE
  5
433
102
{ACAD_XDICTIONARY
360
4B3
102
}
102
{ACAD_REACTORS
330
42D
102
}
330
42D
100
AcDbVisualStyle
  2
2dWireframe
 70
     4
 71
     0
 72
     2
 73
     0
 90
        0
 40
-0.6
 41
-30.0
 62
     5
 63
     7
 74
     1
 91
        4
 64
     7
 65
   257
 75
     1
175
     1
 42
1.0
 92
        0
 66
   257
 43
1.0
 76
     1
 77
     6
 78
     2
 67
     7
 79
     5
170
     0
171
     0
290
     0
174
     0
 93
        1
 44
0.0
173
     0
291
     0
 45
0.0
1001
ACAD
1000
AcDbSavedByObjectVersion
1070
     0
  0
VISUALSTYLE
  5
432
102
{ACAD_XDICTIONARY
360
4B1
102
}
102
{ACAD_REACTORS
330
42D
102
}
330
42D
100
AcDbVisualStyle
  2
Basic
 70
     7
 71
     1
 72
     0
 73
     1
 90
        0
 40
-0.6
 41
-30.0
 62
     5
 63
     7
 74
     0
 91
        4
 64
     7
 65
   257
 75
     1
175
     1
 42
1.0
 92
        8
 66
     7
 43
1.0
 76
     1
 77
     6
 78
     2
 67
     7
 79
     5
170
     0
171
     0
290
     0
174
     0
 93
        1
 44
0.0
173
     0
291
     1
 45
0.0
1001
ACAD
1000
AcDbSavedByObjectVersion
1070
     0
  0
VISUALSTYLE
  5
439
102
{ACAD_XDICTIONARY
360
4BF
102
}
102
{ACAD_REACTORS
330
42D
102
}
330
42D
100
AcDbVisualStyle
  2
Brighten
 70
    12
 71
     2
 72
     2
 73
     0
 90
        0
 40
-0.6
 41
-30.0
 62
     5
 63
     7
 74
     1
 91
        4
 64
     7
 65
   257
 75
     1
175
     1
 42
1.0
 92
        8
 66
     7
 43
1.0
 76
     1
 77
     6
 78
     2
 67
     7
 79
     5
170
     0
171
     0
290
     0
174
     0
 93
        1
 44
50.0
173
     0
291
     1
 45
0.0
1001
ACAD
1000
AcDbSavedByObjectVersion
1070
     0
  0
VISUALSTYLE
  5
43D
102
{ACAD_XDICTIONARY
360
4C7
102
}
102
{ACAD_REACTORS
330
42D
102
}
330
42D
100
AcDbVisualStyle
  2
ColorChange
 70
    16
 71
     2
 72
     2
 73
     3
 90
        0
 40
-0.6
 41
-30.0
 62
     5
 63
     8
 74
     1
 91
        4
 64
     7
 65
   257
 75
     1
175
     1
 42
1.0
 92
        8
 66
     8
 43
1.0
 76
     1
 77
     6
 78
     2
 67
     7
 79
     5
170
     0
171
     0
290
     0
174
     0
 93
        1
 44
0.0
173
     0
291
     1
 45
0.0
1001
ACAD
1000
AcDbSavedByObjectVersion
1070
     0
  0
VISUALSTYLE
  5
436
102
{ACAD_XDICTIONARY
360
4B9
102
}
102
{ACAD_REACTORS
330
42D
102
}
330
42D
100
AcDbVisualStyle
  2
Conceptual
 70
     9
 71
     3
 72
     2
 73
     0
 90
        0
 40
-0.6
 41
-30.0
 62
     5
 63
     7
 74
     2
 91
        2
 64
     7
 65
   257
 75
     1
175
     1
 42
179.0
 92
        8
 66
     7
 43
1.0
 76
     1
 77
     6
 78
     2
 67
     7
 79
     3
170
     0
171
     0
290
     0
174
     0
 93
        1
 44
0.0
173
     0
291
     0
 45
0.0
1001
ACAD
1000
AcDbSavedByObjectVersion
1070
     0
  0
VISUALSTYLE
  5
438
102
{ACAD_XDICTIONARY
360
4BD
102
}
102
{ACAD_REACTORS
330
42D
102
}
330
42D
100
AcDbVisualStyle
  2
Dim
 70
    11
 71
     2
 72
     2
 73
     0
 90
        0
 40
-0.6
 41
-30.0
 62
     5
 63
     7
 74
     1
 91
        4
 64
     7
 65
   257
 75
     1
175
     1
 42
1.0
 92
        8
 66
     7
 43
1.0
 76
     1
 77
     6
 78
     2
 67
     7
 79
     5
170
     0
171
     0
290
     0
174
     0
 93
        1
 44
-50.0
173
     0
291
     1
 45
0.0
1001
ACAD
1000
AcDbSavedByObjectVersion
1070
     0
  0
VISUALSTYLE
  5
445
102
{ACAD_XDICTIONARY
360
4D7
102
}
102
{ACAD_REACTORS
330
42D
102
}
330
42D
100
AcDbVisualStyle
  2
EdgeColorOff
 70
    22
 71
     2
 72
     2
 73
     0
 90
        0
 40
-0.6
 41
-30.0
 62
     5
 63
     7
 74
     1
 91
        4
 64
     7
 65
   257
 75
     1
175
     1
 42
1.0
 92
        8
 66
     7
 43
1.0
 76
     1
 77
     6
 78
     2
 67
     7
 79
     5
170
     0
171
     0
290
     0
174
     0
 93
        1
 44
0.0
173
     0
291
     1
 45
0.0
1001
ACAD
1000
AcDbSavedByObjectVersion
1070
     0
  0
VISUALSTYLE
  5
43C
102
{ACAD_XDICTIONARY
360
4C5
102
}
102
{ACAD_REACTORS
330
42D
102
}
330
42D
100
AcDbVisualStyle
  2
Facepattern
 70
    15
 71
     2
 72
     2
 73
     0
 90
        0
 40
-0.6
 41
-30.0
 62
     5
 63
     7
 74
     1
 91
        4
 64
     7
 65
   257
 75
     1
175
     1
 42
1.0
 92
        8
 66
     7
 43
1.0
 76
     1
 77
     6
 78
     2
 67
     7
 79
     5
170
     0
171
     0
290
     0
174
     0
 93
        1
 44
0.0
173
     0
291
     1
 45
0.0
1001
ACAD
1000
AcDbSavedByObjectVersion
1070
     0
  0
VISUALSTYLE
  5
42E
102
{ACAD_XDICTIONARY
360
4A9
102
}
102
{ACAD_REACTORS
330
42D
102
}
330
42D
100
AcDbVisualStyle
  2
Flat
 70
     0
 71
     2
 72
     1
 73
     1
 90
        2
 40
-0.6
 41
30.0
 62
     5
 63
     7
 74
     0
 91
        0
 64
     7
 65
   257
 75
     1
175
     1
 42
1.0
 92
        8
 66
     7
 43
1.0
 76
     1
 77
     6
 78
     2
 67
     7
 79
     5
170
     0
171
     0
290
     0
174
     0
 93
       13
 44
0.0
173
     0
291
     1
 45
0.0
1001
ACAD
1000
AcDbSavedByObjectVersion
1070
     0
  0
VISUALSTYLE
  5
42F
102
{ACAD_XDICTIONARY
360
4AB
102
}
102
{ACAD_REACTORS
330
42D
102
}
330
42D
100
AcDbVisualStyle
  2
FlatWithEdges
 70
     1
 71
     2
 72
     1
 73
     1
 90
        2
 40
-0.6
 41
30.0
 62
     5
 63
     7
 74
     1
 91
        0
 64
     7
 65
   257
 75
     1
175
     1
 42
1.0
 92
        0
 66
   257
 43
1.0
 76
     1
 77
     6
 78
     2
 67
     7
 79
     5
170
     0
171
     0
290
     0
174
     0
 93
       13
 44
0.0
173
     0
291
     1
 45
0.0
1001
ACAD
1000
AcDbSavedByObjectVersion
1070
     0
  0
VISUALSTYLE
  5
430
102
{ACAD_XDICTIONARY
360
4AD
102
}
102
{ACAD_REACTORS
330
42D
102
}
330
42D
100
AcDbVisualStyle
  2
Gouraud
 70
     2
 71
     2
 72
     2
 73
     1
 90
        2
 40
-0.6
 41
30.0
 62
     5
 63
     7
 74
     0
 91
        0
 64
     7
 65
   257
 75
     1
175
     1
 42
1.0
 92
        0
 66
     7
 43
1.0
 76
     1
 77
     6
 78
     2
 67
     7
 79
     5
170
     0
171
     0
290
     0
174
     0
 93
       13
 44
0.0
173
     0
291
     1
 45
0.0
1001
ACAD
1000
AcDbSavedByObjectVersion
1070
     0
  0
VISUALSTYLE
  5
431
102
{ACAD_XDICTIONARY
360
4AF
102
}
102
{ACAD_REACTORS
330
42D
102
}
330
42D
100
AcDbVisualStyle
  2
GouraudWithEdges
 70
     3
 71
     2
 72
     2
 73
     1
 90
        2
 40
-0.6
 41
30.0
 62
     5
 63
     7
 74
     1
 91
        0
 64
     7
 65
   257
 75
     1
175
     1
 42
1.0
 92
        0
 66
   257
 43
1.0
 76
     1
 77
     6
 78
     2
 67
     7
 79
     5
170
     0
171
     0
290
     0
174
     0
 93
       13
 44
0.0
173
     0
291
     1
 45
0.0
1001
ACAD
1000
AcDbSavedByObjectVersion
1070
     0
  0
VISUALSTYLE
  5
435
102
{ACAD_XDICTIONARY
360
4B7
102
}
102
{ACAD_REACTORS
330
42D
102
}
330
42D
100
AcDbVisualStyle
  2
Hidden
 70
     6
 71
     1
 72
     2
 73
     2
 90
        0
 40
-0.6
 41
-30.0
 62
     5
 63
     7
 74
     2
 91
        2
 64
     7
 65
   257
 75
     2
175
     1
 42
40.0
 92
        0
 66
   257
 43
1.0
 76
     1
 77
     6
 78
     2
 67
     7
 79
     3
170
     0
171
     0
290
     0
174
     0
 93
        1
 44
0.0
173
     0
291
     0
 45
0.0
1001
ACAD
1000
AcDbSavedByObjectVersion
1070
     0
  0
VISUALSTYLE
  5
443
102
{ACAD_XDICTIONARY
360
4D3
102
}
102
{ACAD_REACTORS
330
42D
102
}
330
42D
100
AcDbVisualStyle
  2
JitterOff
 70
    20
 71
     2
 72
     2
 73
     0
 90
        0
 40
-0.6
 41
-30.0
 62
     5
 63
     7
 74
     1
 91
        4
 64
     7
 65
   257
 75
     1
175
     1
 42
1.0
 92
       10
 66
     7
 43
1.0
 76
     1
 77
     6
 78
     2
 67
     7
 79
     5
170
     0
171
     0
290
     0
174
     0
 93
        1
 44
0.0
173
     0
291
     1
 45
0.0
1001
ACAD
1000
AcDbSavedByObjectVersion
1070
     0
  0
VISUALSTYLE
  5
43B
102
{ACAD_XDICTIONARY
360
4C3
102
}
102
{ACAD_REACTORS
330
42D
102
}
330
42D
100
AcDbVisualStyle
  2
Linepattern
 70
    14
 71
     2
 72
     2
 73
     0
 90
        0
 40
-0.6
 41
-30.0
 62
     5
 63
     7
 74
     1
 91
        4
 64
     7
 65
   257
 75
     7
175
     7
 42
1.0
 92
        8
 66
     7
 43
1.0
 76
     1
 77
     6
 78
     2
 67
     7
 79
     5
170
     0
171
     0
290
     0
174
     0
 93
        1
 44
0.0
173
     0
291
     1
 45
0.0
1001
ACAD
1000
AcDbSavedByObjectVersion
1070
     0
  0
VISUALSTYLE
  5
444
102
{ACAD_XDICTIONARY
360
4D5
102
}
102
{ACAD_REACTORS
330
42D
102
}
330
42D
100
AcDbVisualStyle
  2
OverhangOff
 70
    21
 71
     2
 72
     2
 73
     0
 90
        0
 40
-0.6
 41
-30.0
 62
     5
 63
     7
 74
     1
 91
        4
 64
     7
 65
   257
 75
     1
175
     1
 42
1.0
 92
        9
 66
     7
 43
1.0
 76
     1
 77
     6
 78
     2
 67
     7
 79
     5
170
     0
171
     0
290
     0
174
     0
 93
        1
 44
0.0
173
     0
291
     1
 45
0.0
1001
ACAD
1000
AcDbSavedByObjectVersion
1070
     0
  0
VISUALSTYLE
  5
437
102
{ACAD_XDICTIONARY
360
4BB
102
}
102
{ACAD_REACTORS
330
42D
102
}
330
42D
100
AcDbVisualStyle
  2
Realistic
 70
     8
 71
     2
 72
     3
 73
     0
 90
        2
 40
-0.6
 41
30.0
 62
     5
 63
     7
 74
     0
 91
        0
 64
     7
 65
   257
 75
     1
175
     1
 42
1.0
 92
        8
 66
   257
 43
1.0
 76
     1
 77
     6
 78
     2
 67
     7
 79
     3
170
     0
171
     0
290
     0
174
     0
 93
       13
 44
0.0
173
     0
291
     0
 45
0.0
1001
ACAD
1000
AcDbSavedByObjectVersion
1070
     0
  0
VISUALSTYLE
  5
442
102
{ACAD_XDICTIONARY
360
4D1
102
}
102
{ACAD_REACTORS
330
42D
102
}
330
42D
100
AcDbVisualStyle
  2
Shaded
 70
    27
 71
     2
 72
     2
 73
     1
 90
        2
 40
-0.6
 41
30.0
 62
     5
 63
     7
 74
     0
 91
        4
 64
     7
 65
   257
 75
     1
175
     1
 42
1.0
 92
        8
 66
   257
 43
1.0
 76
     1
 77
     6
 78
     2
 67
     8
 79
     3
170
     0
171
     0
290
     0
174
     0
 93
        5
 44
0.0
173
     0
291
     0
 45
0.0
1001
ACAD
1000
AcDbSavedByObjectVersion
1070
     0
  0
VISUALSTYLE
  5
441
102
{ACAD_XDICTIONARY
360
4CF
102
}
102
{ACAD_REACTORS
330
42D
102
}
330
42D
100
AcDbVisualStyle
  2
Shaded with edges
 70
    26
 71
     2
 72
     2
 73
     1
 90
        2
 40
-0.6
 41
30.0
 62
     5
 63
     7
 74
     1
 91
       10
 64
     7
 65
   257
 75
     2
175
     1
 42
1.0
 92
        8
 66
   257
 43
1.0
 76
     1
 77
     6
 78
     2
 67
     7
 79
     3
170
     0
171
     0
290
     0
174
     0
 93
        5
 44
0.0
173
     0
291
     0
 45
0.0
1001
ACAD
1000
AcDbSavedByObjectVersion
1070
     0
  0
VISUALSTYLE
  5
43E
102
{ACAD_XDICTIONARY
360
4C9
102
}
102
{ACAD_REACTORS
330
42D
102
}
330
42D
100
AcDbVisualStyle
  2
Shades of Gray
 70
    23
 71
     2
 72
     2
 73
     3
 90
        0
 40
-0.6
 41
-30.0
 62
     5
 63
     7
 74
     2
 91
        2
 64
     7
 65
     7
 75
     1
175
     1
 42
40.0
 92
        8
 66
     7
 43
1.0
 76
     1
 77
     6
 78
     2
 67
     7
 79
     3
170
     0
171
     0
290
     0
174
     0
 93
        1
 44
0.0
173
     0
291
     0
 45
0.0
1001
ACAD
1000
AcDbSavedByObjectVersion
1070
     0
  0
VISUALSTYLE
  5
43F
102
{ACAD_XDICTIONARY
360
4CB
102
}
102
{ACAD_REACTORS
330
42D
102
}
330
42D
100
AcDbVisualStyle
  2
Sketchy
 70
    24
 71
     1
 72
     2
 73
     2
 90
        0
 40
-0.6
 41
-30.0
 62
     5
 63
     7
 74
     2
 91
        2
 64
     7
 65
     7
 75
     1
175
     1
 42
40.0
 92
       11
 66
     7
 43
1.0
 76
     1
 77
     6
 78
     2
 67
     7
 79
     6
170
     0
171
     0
290
     0
174
     0
 93
        1
 44
0.0
173
     0
291
     0
 45
0.0
1001
ACAD
1000
AcDbSavedByObjectVersion
1070
     0
  0
VISUALSTYLE
  5
43A
102
{ACAD_XDICTIONARY
360
4C1
102
}
102
{ACAD_REACTORS
330
42D
102
}
330
42D
100
AcDbVisualStyle
  2
Thicken
 70
    13
 71
     2
 72
     2
 73
     0
 90
        0
 40
-0.6
 41
-30.0
 62
     5
 63
     7
 74
     1
 91
        4
 64
     7
 65
   257
 75
     1
175
     1
 42
1.0
 92
       12
 66
     7
 43
1.0
 76
     1
 77
     6
 78
     2
 67
     7
 79
     5
170
     0
171
     0
290
     0
174
     0
 93
        1
 44
0.0
173
     0
291
     1
 45
0.0
1001
ACAD
1000
AcDbSavedByObjectVersion
1070
     0
  0
VISUALSTYLE
  5
434
102
{ACAD_XDICTIONARY
360
4B5
102
}
102
{ACAD_REACTORS
330
42D
102
}
330
42D
100
AcDbVisualStyle
  2
Wireframe
 70
     5
 71
     0
 72
     2
 73
     0
 90
        0
 40
-0.6
 41
-30.0
 62
     5
 63
     7
 74
     1
 91
        4
 64
     7
 65
   257
 75
     1
175
     1
 42
1.0
 92
        0
 66
   257
 43
1.0
 76
     1
 77
     6
 78
     2
 67
     7
 79
     3
170
     0
171
     0
290
     0
174
     0
 93
        1
 44
0.0
173
     0
291
     0
 45
0.0
1001
ACAD
1000
AcDbSavedByObjectVersion
1070
     0
  0
VISUALSTYLE
  5
440
102
{ACAD_XDICTIONARY
360
4CD
102
}
102
{ACAD_REACTORS
330
42D
102
}
330
42D
100
AcDbVisualStyle
  2
X-Ray
 70
    25
 71
     2
 72
     2
 73
     1
 90
        1
 40
0.5
 41
-30.0
 62
     5
 63
     7
 74
     1
 91
        0
 64
     7
 65
   257
 75
     1
175
     1
 42
1.0
 92
        8
 66
     7
 43
1.0
 76
     1
 77
     6
 78
     2
 67
     7
 79
     3
170
     0
171
     0
290
     0
174
     0
 93
       13
 44
0.0
173
     0
291
     0
 45
0.0
1001
ACAD
1000
AcDbSavedByObjectVersion
1070
     0
  0
DICTIONARYVAR
  5
49C
102
{ACAD_REACTORS
330
497
102
}
330
497
100
DictionaryVariables
280
     0
  1
1:1
  0
DICTIONARYVAR
  5
499
102
{ACAD_REACTORS
330
497
102
}
330
497
100
DictionaryVariables
280
     0
  1
STANDARD
  0
DICTIONARYVAR
  5
498
102
{ACAD_REACTORS
330
497
102
}
330
497
100
DictionaryVariables
280
     0
  1
STANDARD
  0
DICTIONARYVAR
  5
49A
102
{ACAD_REACTORS
330
497
102
}
330
497
100
DictionaryVariables
280
     0
  1
Imperial24
  0
DICTIONARYVAR
  5
49B
102
{ACAD_REACTORS
330
497
102
}
330
497
100
DictionaryVariables
280
     0
  1
Imperial24
  0
DICTIONARYVAR
  5
49F
102
{ACAD_REACTORS
330
497
102
}
330
497
100
DictionaryVariables
280
     0
  1
1
  0
DICTIONARYVAR
  5
49E
102
{ACAD_REACTORS
330
497
102
}
330
497
100
DictionaryVariables
280
     0
  1
0
  0
DICTIONARYVAR
  5
49D
102
{ACAD_REACTORS
330
497
102
}
330
497
100
DictionaryVariables
280
     0
  1
127
  0
DICTIONARYVAR
  5
4A0
102
{ACAD_REACTORS
330
497
102
}
330
497
100
DictionaryVariables
280
     0
  1
2
  0
DICTIONARY
  5
4DD
330
46E
100
AcDbDictionary
280
     1
281
     1
  3
ACAD_XREC_ROUNDTRIP
360
4DE
  0
DICTIONARY
  5
4E1
330
476
100
AcDbDictionary
280
     1
281
     1
  3
ACAD_XREC_ROUNDTRIP
360
4E2
  0
DICTIONARY
  5
4DF
330
472
100
AcDbDictionary
280
     1
281
     1
  3
ACAD_XREC_ROUNDTRIP
360
4E0
  0
DICTIONARY
  5
41E
330
41D
100
AcDbDictionary
280
     1
281
     1
  3
ACAD_XREC_ROUNDTRIP
360
4A7
  3
BUMPTILE
360
420
  3
DIFFUSETILE
360
41F
  3
OPACITYTILE
360
423
  3
REFLECTIONTILE
360
422
  3
REFRACTIONTILE
360
424
  3
SPECULARTILE
360
421
  0
DICTIONARY
  5
416
330
415
100
AcDbDictionary
280
     1
281
     1
  3
ACAD_XREC_ROUNDTRIP
360
4A6
  3
BUMPTILE
360
418
  3
DIFFUSETILE
360
417
  3
OPACITYTILE
360
41B
  3
REFLECTIONTILE
360
41A
  3
REFRACTIONTILE
360
41C
  3
SPECULARTILE
360
419
  0
DICTIONARY
  5
426
330
425
100
AcDbDictionary
280
     1
281
     1
  3
ACAD_XREC_ROUNDTRIP
360
4A8
  3
BUMPTILE
360
428
  3
DIFFUSETILE
360
427
  3
OPACITYTILE
360
42B
  3
REFLECTIONTILE
360
42A
  3
REFRACTIONTILE
360
42C
  3
SPECULARTILE
360
429
  0
DICTIONARY
  5
4DB
330
46C
100
AcDbDictionary
280
     1
281
     1
  3
ACAD_XREC_ROUNDTRIP
360
4DC
  0
DICTIONARY
  5
4A2
330
468
100
AcDbDictionary
280
     1
281
     1
  3
ACAD_ROUNDTRIP_2008_TABLESTYLE_CELLSTYLEMAP
360
4A3
  3
ACAD_XREC_ROUNDTRIP
360
4D9
  0
DICTIONARY
  5
4B3
330
433
100
AcDbDictionary
280
     1
281
     1
  3
ACAD_XREC_ROUNDTRIP
360
4B4
  0
DICTIONARY
  5
4B1
330
432
100
AcDbDictionary
280
     1
281
     1
  3
ACAD_XREC_ROUNDTRIP
360
4B2
  0
DICTIONARY
  5
4BF
330
439
100
AcDbDictionary
280
     1
281
     1
  3
ACAD_XREC_ROUNDTRIP
360
4C0
  0
DICTIONARY
  5
4C7
330
43D
100
AcDbDictionary
280
     1
281
     1
  3
ACAD_XREC_ROUNDTRIP
360
4C8
  0
DICTIONARY
  5
4B9
330
436
100
AcDbDictionary
280
     1
281
     1
  3
ACAD_XREC_ROUNDTRIP
360
4BA
  0
DICTIONARY
  5
4BD
330
438
100
AcDbDictionary
280
     1
281
     1
  3
ACAD_XREC_ROUNDTRIP
360
4BE
  0
DICTIONARY
  5
4D7
330
445
100
AcDbDictionary
280
     1
281
     1
  3
ACAD_XREC_ROUNDTRIP
360
4D8
  0
DICTIONARY
  5
4C5
330
43C
100
AcDbDictionary
280
     1
281
     1
  3
ACAD_XREC_ROUNDTRIP
360
4C6
  0
DICTIONARY
  5
4A9
330
42E
100
AcDbDictionary
280
     1
281
     1
  3
ACAD_XREC_ROUNDTRIP
360
4AA
  0
DICTIONARY
  5
4AB
330
42F
100
AcDbDictionary
280
     1
281
     1
  3
ACAD_XREC_ROUNDTRIP
360
4AC
  0
DICTIONARY
  5
4AD
330
430
100
AcDbDictionary
280
     1
281
     1
  3
ACAD_XREC_ROUNDTRIP
360
4AE
  0
DICTIONARY
  5
4AF
330
431
100
AcDbDictionary
280
     1
281
     1
  3
ACAD_XREC_ROUNDTRIP
360
4B0
  0
DICTIONARY
  5
4B7
330
435
100
AcDbDictionary
280
     1
281
     1
  3
ACAD_XREC_ROUNDTRIP
360
4B8
  0
DICTIONARY
  5
4D3
330
443
100
AcDbDictionary
280
     1
281
     1
  3
ACAD_XREC_ROUNDTRIP
360
4D4
  0
DICTIONARY
  5
4C3
330
43B
100
AcDbDictionary
280
     1
281
     1
  3
ACAD_XREC_ROUNDTRIP
360
4C4
  0
DICTIONARY
  5
4D5
330
444
100
AcDbDictionary
280
     1
281
     1
  3
ACAD_XREC_ROUNDTRIP
360
4D6
  0
DICTIONARY
  5
4BB
330
437
100
AcDbDictionary
280
     1
281
     1
  3
ACAD_XREC_ROUNDTRIP
360
4BC
  0
DICTIONARY
  5
4D1
330
442
100
AcDbDictionary
280
     1
281
     1
  3
ACAD_XREC_ROUNDTRIP
360
4D2
  0
DICTIONARY
  5
4CF
330
441
100
AcDbDictionary
280
     1
281
     1
  3
ACAD_XREC_ROUNDTRIP
360
4D0
  0
DICTIONARY
  5
4C9
330
43E
100
AcDbDictionary
280
     1
281
     1
  3
ACAD_XREC_ROUNDTRIP
360
4CA
  0
DICTIONARY
  5
4CB
330
43F
100
AcDbDictionary
280
     1
281
     1
  3
ACAD_XREC_ROUNDTRIP
360
4CC
  0
DICTIONARY
  5
4C1
330
43A
100
AcDbDictionary
280
     1
281
     1
  3
ACAD_XREC_ROUNDTRIP
360
4C2
  0
DICTIONARY
  5
4B5
330
434
100
AcDbDictionary
280
     1
281
     1
  3
ACAD_XREC_ROUNDTRIP
360
4B6
  0
DICTIONARY
  5
4CD
330
440
100
AcDbDictionary
280
     1
281
     1
  3
ACAD_XREC_ROUNDTRIP
360
4CE
  0
XRECORD
  5
4DE
102
{ACAD_REACTORS
330
4DD
102
}
330
4DD
100
AcDbXrecord
280
     1
102
DISPLAYNAME
  1
Imperial24
102
FLAGS
 90
        0
  0
XRECORD
  5
4E2
102
{ACAD_REACTORS
330
4E1
102
}
330
4E1
100
AcDbXrecord
280
     1
102
SHADEPLOT
 70
     0
102
SHADEPLOTRESLEVEL
 70
     2
102
SHADEPLOTCUSTOMDPI
 70
   300
  0
XRECORD
  5
4E0
102
{ACAD_REACTORS
330
4DF
102
}
330
4DF
100
AcDbXrecord
280
     1
102
SHADEPLOT
 70
     0
102
SHADEPLOTRESLEVEL
 70
     2
102
SHADEPLOTCUSTOMDPI
 70
   300
  0
XRECORD
  5
4A7
102
{ACAD_REACTORS
330
41E
102
}
330
41E
100
AcDbXrecord
280
     1
102
MATERIAL
148
0.0
149
0.0
149
0.0
 93
        0
 94
      127
282
     0
 72
     0
 77
     0
171
     0
175
     0
179
     0
273
     0
  0
XRECORD
  5
420
102
{ACAD_REACTORS
330
41E
102
}
330
41E
100
AcDbXrecord
280
     1
270
     1
271
     1
  0
XRECORD
  5
41F
102
{ACAD_REACTORS
330
41E
102
}
330
41E
100
AcDbXrecord
280
     1
270
     1
271
     1
  0
XRECORD
  5
423
102
{ACAD_REACTORS
330
41E
102
}
330
41E
100
AcDbXrecord
280
     1
270
     1
271
     1
  0
XRECORD
  5
422
102
{ACAD_REACTORS
330
41E
102
}
330
41E
100
AcDbXrecord
280
     1
270
     1
271
     1
  0
XRECORD
  5
424
102
{ACAD_REACTORS
330
41E
102
}
330
41E
100
AcDbXrecord
280
     1
270
     1
271
     1
  0
XRECORD
  5
421
102
{ACAD_REACTORS
330
41E
102
}
330
41E
100
AcDbXrecord
280
     1
270
     1
271
     1
  0
XRECORD
  5
4A6
102
{ACAD_REACTORS
330
416
102
}
330
416
100
AcDbXrecord
280
     1
102
MATERIAL
148
0.0
149
0.0
149
0.0
 93
        0
 94
      127
282
     0
 72
     0
 77
     0
171
     0
175
     0
179
     0
273
     0
  0
XRECORD
  5
418
102
{ACAD_REACTORS
330
416
102
}
330
416
100
AcDbXrecord
280
     1
270
     1
271
     1
  0
XRECORD
  5
417
102
{ACAD_REACTORS
330
416
102
}
330
416
100
AcDbXrecord
280
     1
270
     1
271
     1
  0
XRECORD
  5
41B
102
{ACAD_REACTORS
330
416
102
}
330
416
100
AcDbXrecord
280
     1
270
     1
271
     1
  0
XRECORD
  5
41A
102
{ACAD_REACTORS
330
416
102
}
330
416
100
AcDbXrecord
280
     1
270
     1
271
     1
  0
XRECORD
  5
41C
102
{ACAD_REACTORS
330
416
102
}
330
416
100
AcDbXrecord
280
     1
270
     1
271
     1
  0
XRECORD
  5
419
102
{ACAD_REACTORS
330
416
102
}
330
416
100
AcDbXrecord
280
     1
270
     1
271
     1
  0
XRECORD
  5
4A8
102
{ACAD_REACTORS
330
426
102
}
330
426
100
AcDbXrecord
280
     1
102
MATERIAL
148
0.0
149
0.0
149
0.0
 93
        0
 94
      127
282
     0
 72
     0
 77
     0
171
     0
175
     0
179
     0
273
     0
  0
XRECORD
  5
428
102
{ACAD_REACTORS
330
426
102
}
330
426
100
AcDbXrecord
280
     1
270
     1
271
     1
  0
XRECORD
  5
427
102
{ACAD_REACTORS
330
426
102
}
330
426
100
AcDbXrecord
280
     1
270
     1
271
     1
  0
XRECORD
  5
42B
102
{ACAD_REACTORS
330
426
102
}
330
426
100
AcDbXrecord
280
     1
270
     1
271
     1
  0
XRECORD
  5
42A
102
{ACAD_REACTORS
330
426
102
}
330
426
100
AcDbXrecord
280
     1
270
     1
271
     1
  0
XRECORD
  5
42C
102
{ACAD_REACTORS
330
426
102
}
330
426
100
AcDbXrecord
280
     1
270
     1
271
     1
  0
XRECORD
  5
429
102
{ACAD_REACTORS
330
426
102
}
330
426
100
AcDbXrecord
280
     1
270
     1
271
     1
  0
XRECORD
  5
4DC
102
{ACAD_REACTORS
330
4DB
102
}
330
4DB
100
AcDbXrecord
280
     1
102
DISPLAYNAME
  1
Imperial24
102
FLAGS
 90
        0
  0
CELLSTYLEMAP
  5
4A3
102
{ACAD_REACTORS
330
4A2
102
}
330
4A2
100
AcDbCellStyleMap
 90
        3
300
CELLSTYLE
  1
TABLEFORMAT_BEGIN
 90
        5
170
     1
 91
        0
 92
    32768
 62
   257
 93
        1
300
CONTENTFORMAT
  1
CONTENTFORMAT_BEGIN
 90
        0
 91
        0
 92
      512
 93
        0
300

 40
0.0
140
1.0
 94
        5
 62
     0
340
459
144
0.25
309
CONTENTFORMAT_END
171
     0
 94
        0
309
TABLEFORMAT_END
  1
CELLSTYLE_BEGIN
 90
        1
 91
        1
300
_TITLE
309
CELLSTYLE_END
300
CELLSTYLE
  1
TABLEFORMAT_BEGIN
 90
        5
170
     1
 91
        0
 92
        0
 62
   257
 93
        1
300
CONTENTFORMAT
  1
CONTENTFORMAT_BEGIN
 90
        0
 91
        0
 92
      512
 93
        0
300

 40
0.0
140
1.0
 94
        5
 62
     0
340
459
144
0.18
309
CONTENTFORMAT_END
171
     0
 94
        0
309
TABLEFORMAT_END
  1
CELLSTYLE_BEGIN
 90
        2
 91
        1
300
_HEADER
309
CELLSTYLE_END
300
CELLSTYLE
  1
TABLEFORMAT_BEGIN
 90
        5
170
     1
 91
        0
 92
        0
 62
   257
 93
        1
300
CONTENTFORMAT
  1
CONTENTFORMAT_BEGIN
 90
        0
 91
        0
 92
      512
 93
        0
300

 40
0.0
140
1.0
 94
        2
 62
     0
340
459
144
0.18
309
CONTENTFORMAT_END
171
     0
 94
        0
309
TABLEFORMAT_END
  1
CELLSTYLE_BEGIN
 90
        3
 91
        2
300
_DATA
309
CELLSTYLE_END
  0
XRECORD
  5
4D9
102
{ACAD_REACTORS
330
4A2
102
}
330
4A2
100
AcDbXrecord
280
     1
102
ACAD_ROUNDTRIP_PRE2007_TABLESTYLE
 90
      512
 91
        0
  1

 92
      512
 93
        0
  2

 94
      512
 95
        0
  3

  0
XRECORD
  5
4B4
102
{ACAD_REACTORS
330
4B3
102
}
330
4B3
100
AcDbXrecord
280
     1
102
RTVSPost2010Prop28
280
     1
102
RTVSPost2010PropOp28
 70
     1
102
RTVSPost2010Prop29
280
     1
102
RTVSPost2010PropOp29
 70
     1
102
RTVSPost2010Prop30
280
     0
102
RTVSPost2010PropOp30
 70
     1
102
RTVSPost2010Prop31
280
     0
102
RTVSPost2010PropOp31
 70
     1
102
RTVSPost2010Prop32
280
     0
102
RTVSPost2010PropOp32
 70
     1
102
RTVSPost2010Prop33
280
     0
102
RTVSPost2010PropOp33
 70
     1
102
RTVSPost2010Prop34
280
     0
102
RTVSPost2010PropOp34
 70
     1
102
RTVSPost2010Prop35
280
     0
102
RTVSPost2010PropOp35
 70
     1
102
RTVSPost2010Prop36
280
     0
102
RTVSPost2010PropOp36
 70
     1
102
RTVSPost2010Prop37
 90
       50
102
RTVSPost2010PropOp37
 70
     1
102
RTVSPost2010Prop38
140
0.0
102
RTVSPost2010PropOp38
 70
     1
102
RTVSPost2010Prop39
140
1.0
102
RTVSPost2010PropOp39
 70
     1
102
RTVSPost2010Prop40
 90
        0
102
RTVSPost2010PropOp40
 70
     1
102
RTVSPost2010Prop41ColorIndex
 90
       18
102
RTVSPost2010Prop41ColorRGB
 90
        0
102
RTVSPost2010PropOp41
 70
     1
102
RTVSPost2010Prop42
 90
       50
102
RTVSPost2010PropOp42
 70
     1
102
RTVSPost2010Prop43
 90
        3
102
RTVSPost2010PropOp43
 70
     1
102
RTVSPost2010Prop44ColorIndex
 90
        5
102
RTVSPost2010Prop44ColorRGB
 90
      255
102
RTVSPost2010PropOp44
 70
     1
102
RTVSPost2010Prop45
280
     0
102
RTVSPost2010PropOp45
 70
     1
102
RTVSPost2010Prop46
 90
       50
102
RTVSPost2010PropOp46
 70
     1
102
RTVSPost2010Prop47
 90
       50
102
RTVSPost2010PropOp47
 70
     1
102
RTVSPost2010Prop48
 90
       50
102
RTVSPost2010PropOp48
 70
     1
102
RTVSPost2010Prop49
280
     0
102
RTVSPost2010PropOp49
 70
     1
102
RTVSPost2010Prop50
 90
       50
102
RTVSPost2010PropOp50
 70
     1
102
RTVSPost2010Prop51ColorIndex
 90
      256
102
RTVSPost2010Prop51ColorRGB
 90
-16777216
102
RTVSPost2010PropOp51
 70
     0
102
RTVSPost2010Prop52
140
1.0
102
RTVSPost2010PropOp52
 70
     0
102
RTVSPost2010Prop53
 90
        2
102
RTVSPost2010PropOp53
 70
     1
102
RTVSPost2010Prop54
  1
strokes_ogs.tif
102
RTVSPost2010PropOp54
 70
     1
102
RTVSPost2010Prop55
280
     0
102
RTVSPost2010PropOp55
 70
     1
102
RTVSPost2010Prop56
140
1.0
102
RTVSPost2010PropOp56
 70
     1
102
RTVSPost2010Prop57
140
1.0
102
RTVSPost2010PropOp57
 70
     1
102
RTVSPropertyOp0
 70
     1
102
RTVSPropertyOp1
 70
     1
102
RTVSPropertyOp2
 70
     1
102
RTVSPropertyOp3
 70
     1
102
RTVSPropertyOp4
 70
     1
102
RTVSPropertyOp5
 70
     1
102
RTVSPropertyOp6
 70
     1
102
RTVSPropertyOp7
 70
     1
102
RTVSPropertyOp8
 70
     1
102
RTVSPropertyOp9
 70
     1
102
RTVSPropertyOp10
 70
     1
102
RTVSPropertyOp11
 70
     1
102
RTVSPropertyOp12
 70
     1
102
RTVSPropertyOp13
 70
     1
102
RTVSPropertyOp14
 70
     1
102
RTVSPropertyOp15
 70
     1
102
RTVSPropertyOp16
 70
     1
102
RTVSPropertyOp17
 70
     1
102
RTVSPropertyOp18
 70
     1
102
RTVSPropertyOp19
 70
     1
102
RTVSPropertyOp20
 70
     1
102
RTVSPropertyOp21
 70
     1
102
RTVSPropertyOp22
 70
     1
102
RTVSPropertyOp23
 70
     1
102
RTVSPropertyOp24
 70
     1
102
RTVSPropertyOp25
 70
     1
102
RTVSPropertyOp26
 70
     1
102
RTVSPropertyOp27
 70
     1
102
RTVSPropertyOp28
 70
     1
102
RTVSPropertyOp29
 70
     1
102
RTVSPropertyOp30
 70
     1
102
RTVSPropertyOp31
 70
     1
102
RTVSPropertyOp32
 70
     1
102
RTVSPropertyOp33
 70
     1
102
RTVSPropertyOp34
 70
     1
102
RTVSPropertyOp35
 70
     1
102
RTVSPropertyOp36
 70
     1
102
RTVSPropertyOp37
 70
     1
102
RTVSPropertyOp38
 70
     1
102
RTVSPropertyOp39
 70
     1
102
RTVSPropertyOp40
 70
     1
102
RTVSPropertyOp41
 70
     1
102
RTVSPropertyOp42
 70
     1
102
RTVSPropertyOp43
 70
     1
102
RTVSPropertyOp44
 70
     1
102
RTVSPropertyOp45
 70
     1
102
RTVSPropertyOp46
 70
     1
102
RTVSPropertyOp47
 70
     1
102
RTVSPropertyOp48
 70
     1
102
RTVSPropertyOp49
 70
     1
102
RTVSPropertyOp50
 70
     1
102
RTVSPropertyOp51
 70
     0
102
RTVSPropertyOp52
 70
     0
102
RTVSPropertyOp53
 70
     1
102
RTVSPropertyOp54
 70
     1
102
RTVSPropertyOp55
 70
     1
102
RTVSPropertyOp56
 70
     1
102
RTVSPropertyOp57
 70
     1
102
RTVSPropertyOp58
 70
     1
102
RTVSPropertyOp59
 70
     1
102
RTVSPropertyOp60
 70
     1
102
RTVSPropertyOp61
 70
     1
102
RTVSPropertyOp62
 70
     1
  0
XRECORD
  5
4B2
102
{ACAD_REACTORS
330
4B1
102
}
330
4B1
100
AcDbXrecord
280
     1
102
RTVSPost2010Prop28
280
     0
102
RTVSPost2010PropOp28
 70
     1
102
RTVSPost2010Prop29
280
     1
102
RTVSPost2010PropOp29
 70
     1
102
RTVSPost2010Prop30
280
     1
102
RTVSPost2010PropOp30
 70
     1
102
RTVSPost2010Prop31
280
     0
102
RTVSPost2010PropOp31
 70
     1
102
RTVSPost2010Prop32
280
     0
102
RTVSPost2010PropOp32
 70
     1
102
RTVSPost2010Prop33
280
     0
102
RTVSPost2010PropOp33
 70
     1
102
RTVSPost2010Prop34
280
     0
102
RTVSPost2010PropOp34
 70
     1
102
RTVSPost2010Prop35
280
     0
102
RTVSPost2010PropOp35
 70
     1
102
RTVSPost2010Prop36
280
     0
102
RTVSPost2010PropOp36
 70
     1
102
RTVSPost2010Prop37
 90
       50
102
RTVSPost2010PropOp37
 70
     1
102
RTVSPost2010Prop38
140
0.0
102
RTVSPost2010PropOp38
 70
     1
102
RTVSPost2010Prop39
140
1.0
102
RTVSPost2010PropOp39
 70
     1
102
RTVSPost2010Prop40
 90
        0
102
RTVSPost2010PropOp40
 70
     1
102
RTVSPost2010Prop41ColorIndex
 90
       18
102
RTVSPost2010Prop41ColorRGB
 90
        0
102
RTVSPost2010PropOp41
 70
     1
102
RTVSPost2010Prop42
 90
       50
102
RTVSPost2010PropOp42
 70
     1
102
RTVSPost2010Prop43
 90
        3
102
RTVSPost2010PropOp43
 70
     1
102
RTVSPost2010Prop44ColorIndex
 90
        5
102
RTVSPost2010Prop44ColorRGB
 90
      255
102
RTVSPost2010PropOp44
 70
     1
102
RTVSPost2010Prop45
280
     0
102
RTVSPost2010PropOp45
 70
     1
102
RTVSPost2010Prop46
 90
       50
102
RTVSPost2010PropOp46
 70
     1
102
RTVSPost2010Prop47
 90
       50
102
RTVSPost2010PropOp47
 70
     1
102
RTVSPost2010Prop48
 90
       50
102
RTVSPost2010PropOp48
 70
     1
102
RTVSPost2010Prop49
280
     0
102
RTVSPost2010PropOp49
 70
     1
102
RTVSPost2010Prop50
 90
       50
102
RTVSPost2010PropOp50
 70
     1
102
RTVSPost2010Prop51ColorIndex
 90
      256
102
RTVSPost2010Prop51ColorRGB
 90
-16777216
102
RTVSPost2010PropOp51
 70
     0
102
RTVSPost2010Prop52
140
1.0
102
RTVSPost2010PropOp52
 70
     0
102
RTVSPost2010Prop53
 90
        2
102
RTVSPost2010PropOp53
 70
     1
102
RTVSPost2010Prop54
  1
strokes_ogs.tif
102
RTVSPost2010PropOp54
 70
     1
102
RTVSPost2010Prop55
280
     0
102
RTVSPost2010PropOp55
 70
     1
102
RTVSPost2010Prop56
140
1.0
102
RTVSPost2010PropOp56
 70
     1
102
RTVSPost2010Prop57
140
1.0
102
RTVSPost2010PropOp57
 70
     1
102
RTVSPropertyOp0
 70
     1
102
RTVSPropertyOp1
 70
     1
102
RTVSPropertyOp2
 70
     1
102
RTVSPropertyOp3
 70
     1
102
RTVSPropertyOp4
 70
     1
102
RTVSPropertyOp5
 70
     1
102
RTVSPropertyOp6
 70
     1
102
RTVSPropertyOp7
 70
     1
102
RTVSPropertyOp8
 70
     1
102
RTVSPropertyOp9
 70
     1
102
RTVSPropertyOp10
 70
     1
102
RTVSPropertyOp11
 70
     1
102
RTVSPropertyOp12
 70
     1
102
RTVSPropertyOp13
 70
     1
102
RTVSPropertyOp14
 70
     1
102
RTVSPropertyOp15
 70
     1
102
RTVSPropertyOp16
 70
     1
102
RTVSPropertyOp17
 70
     1
102
RTVSPropertyOp18
 70
     1
102
RTVSPropertyOp19
 70
     1
102
RTVSPropertyOp20
 70
     1
102
RTVSPropertyOp21
 70
     1
102
RTVSPropertyOp22
 70
     1
102
RTVSPropertyOp23
 70
     1
102
RTVSPropertyOp24
 70
     1
102
RTVSPropertyOp25
 70
     1
102
RTVSPropertyOp26
 70
     1
102
RTVSPropertyOp27
 70
     1
102
RTVSPropertyOp28
 70
     1
102
RTVSPropertyOp29
 70
     1
102
RTVSPropertyOp30
 70
     1
102
RTVSPropertyOp31
 70
     1
102
RTVSPropertyOp32
 70
     1
102
RTVSPropertyOp33
 70
     1
102
RTVSPropertyOp34
 70
     1
102
RTVSPropertyOp35
 70
     1
102
RTVSPropertyOp36
 70
     1
102
RTVSPropertyOp37
 70
     1
102
RTVSPropertyOp38
 70
     1
102
RTVSPropertyOp39
 70
     1
102
RTVSPropertyOp40
 70
     1
102
RTVSPropertyOp41
 70
     1
102
RTVSPropertyOp42
 70
     1
102
RTVSPropertyOp43
 70
     1
102
RTVSPropertyOp44
 70
     1
102
RTVSPropertyOp45
 70
     1
102
RTVSPropertyOp46
 70
     1
102
RTVSPropertyOp47
 70
     1
102
RTVSPropertyOp48
 70
     1
102
RTVSPropertyOp49
 70
     1
102
RTVSPropertyOp50
 70
     1
102
RTVSPropertyOp51
 70
     0
102
RTVSPropertyOp52
 70
     0
102
RTVSPropertyOp53
 70
     1
102
RTVSPropertyOp54
 70
     1
102
RTVSPropertyOp55
 70
     1
102
RTVSPropertyOp56
 70
     1
102
RTVSPropertyOp57
 70
     1
102
RTVSPropertyOp58
 70
     1
102
RTVSPropertyOp59
 70
     1
102
RTVSPropertyOp60
 70
     1
102
RTVSPropertyOp61
 70
     1
102
RTVSPropertyOp62
 70
     1
  0
XRECORD
  5
4C0
102
{ACAD_REACTORS
330
4BF
102
}
330
4BF
100
AcDbXrecord
280
     1
102
RTVSPost2010Prop28
280
     0
102
RTVSPost2010PropOp28
 70
     1
102
RTVSPost2010Prop29
280
     1
102
RTVSPost2010PropOp29
 70
     1
102
RTVSPost2010Prop30
280
     1
102
RTVSPost2010PropOp30
 70
     1
102
RTVSPost2010Prop31
280
     0
102
RTVSPost2010PropOp31
 70
     1
102
RTVSPost2010Prop32
280
     0
102
RTVSPost2010PropOp32
 70
     1
102
RTVSPost2010Prop33
280
     0
102
RTVSPost2010PropOp33
 70
     1
102
RTVSPost2010Prop34
280
     0
102
RTVSPost2010PropOp34
 70
     1
102
RTVSPost2010Prop35
280
     0
102
RTVSPost2010PropOp35
 70
     1
102
RTVSPost2010Prop36
280
     0
102
RTVSPost2010PropOp36
 70
     1
102
RTVSPost2010Prop37
 90
       50
102
RTVSPost2010PropOp37
 70
     1
102
RTVSPost2010Prop38
140
0.0
102
RTVSPost2010PropOp38
 70
     1
102
RTVSPost2010Prop39
140
1.0
102
RTVSPost2010PropOp39
 70
     1
102
RTVSPost2010Prop40
 90
        0
102
RTVSPost2010PropOp40
 70
     1
102
RTVSPost2010Prop41ColorIndex
 90
       18
102
RTVSPost2010Prop41ColorRGB
 90
        0
102
RTVSPost2010PropOp41
 70
     1
102
RTVSPost2010Prop42
 90
       50
102
RTVSPost2010PropOp42
 70
     1
102
RTVSPost2010Prop43
 90
        3
102
RTVSPost2010PropOp43
 70
     1
102
RTVSPost2010Prop44ColorIndex
 90
        5
102
RTVSPost2010Prop44ColorRGB
 90
      255
102
RTVSPost2010PropOp44
 70
     1
102
RTVSPost2010Prop45
280
     0
102
RTVSPost2010PropOp45
 70
     1
102
RTVSPost2010Prop46
 90
       50
102
RTVSPost2010PropOp46
 70
     1
102
RTVSPost2010Prop47
 90
       50
102
RTVSPost2010PropOp47
 70
     1
102
RTVSPost2010Prop48
 90
       50
102
RTVSPost2010PropOp48
 70
     1
102
RTVSPost2010Prop49
280
     0
102
RTVSPost2010PropOp49
 70
     1
102
RTVSPost2010Prop50
 90
       50
102
RTVSPost2010PropOp50
 70
     1
102
RTVSPost2010Prop51ColorIndex
 90
      256
102
RTVSPost2010Prop51ColorRGB
 90
-16777216
102
RTVSPost2010PropOp51
 70
     0
102
RTVSPost2010Prop52
140
1.0
102
RTVSPost2010PropOp52
 70
     0
102
RTVSPost2010Prop53
 90
        2
102
RTVSPost2010PropOp53
 70
     1
102
RTVSPost2010Prop54
  1
strokes_ogs.tif
102
RTVSPost2010PropOp54
 70
     1
102
RTVSPost2010Prop55
280
     0
102
RTVSPost2010PropOp55
 70
     1
102
RTVSPost2010Prop56
140
1.0
102
RTVSPost2010PropOp56
 70
     1
102
RTVSPost2010Prop57
140
1.0
102
RTVSPost2010PropOp57
 70
     1
102
RTVSPropertyOp0
 70
     1
102
RTVSPropertyOp1
 70
     1
102
RTVSPropertyOp2
 70
     1
102
RTVSPropertyOp3
 70
     1
102
RTVSPropertyOp4
 70
     1
102
RTVSPropertyOp5
 70
     1
102
RTVSPropertyOp6
 70
     1
102
RTVSPropertyOp7
 70
     1
102
RTVSPropertyOp8
 70
     1
102
RTVSPropertyOp9
 70
     1
102
RTVSPropertyOp10
 70
     1
102
RTVSPropertyOp11
 70
     1
102
RTVSPropertyOp12
 70
     1
102
RTVSPropertyOp13
 70
     1
102
RTVSPropertyOp14
 70
     1
102
RTVSPropertyOp15
 70
     1
102
RTVSPropertyOp16
 70
     1
102
RTVSPropertyOp17
 70
     1
102
RTVSPropertyOp18
 70
     1
102
RTVSPropertyOp19
 70
     1
102
RTVSPropertyOp20
 70
     1
102
RTVSPropertyOp21
 70
     1
102
RTVSPropertyOp22
 70
     1
102
RTVSPropertyOp23
 70
     1
102
RTVSPropertyOp24
 70
     1
102
RTVSPropertyOp25
 70
     1
102
RTVSPropertyOp26
 70
     1
102
RTVSPropertyOp27
 70
     1
102
RTVSPropertyOp28
 70
     1
102
RTVSPropertyOp29
 70
     1
102
RTVSPropertyOp30
 70
     1
102
RTVSPropertyOp31
 70
     1
102
RTVSPropertyOp32
 70
     1
102
RTVSPropertyOp33
 70
     1
102
RTVSPropertyOp34
 70
     1
102
RTVSPropertyOp35
 70
     1
102
RTVSPropertyOp36
 70
     1
102
RTVSPropertyOp37
 70
     1
102
RTVSPropertyOp38
 70
     1
102
RTVSPropertyOp39
 70
     1
102
RTVSPropertyOp40
 70
     1
102
RTVSPropertyOp41
 70
     1
102
RTVSPropertyOp42
 70
     1
102
RTVSPropertyOp43
 70
     1
102
RTVSPropertyOp44
 70
     1
102
RTVSPropertyOp45
 70
     1
102
RTVSPropertyOp46
 70
     1
102
RTVSPropertyOp47
 70
     1
102
RTVSPropertyOp48
 70
     1
102
RTVSPropertyOp49
 70
     1
102
RTVSPropertyOp50
 70
     1
102
RTVSPropertyOp51
 70
     0
102
RTVSPropertyOp52
 70
     0
102
RTVSPropertyOp53
 70
     1
102
RTVSPropertyOp54
 70
     1
102
RTVSPropertyOp55
 70
     1
102
RTVSPropertyOp56
 70
     1
102
RTVSPropertyOp57
 70
     1
102
RTVSPropertyOp58
 70
     1
102
RTVSPropertyOp59
 70
     1
102
RTVSPropertyOp60
 70
     1
102
RTVSPropertyOp61
 70
     1
102
RTVSPropertyOp62
 70
     1
  0
XRECORD
  5
4C8
102
{ACAD_REACTORS
330
4C7
102
}
330
4C7
100
AcDbXrecord
280
     1
102
RTVSPost2010Prop28
280
     0
102
RTVSPost2010PropOp28
 70
     1
102
RTVSPost2010Prop29
280
     1
102
RTVSPost2010PropOp29
 70
     1
102
RTVSPost2010Prop30
280
     1
102
RTVSPost2010PropOp30
 70
     1
102
RTVSPost2010Prop31
280
     0
102
RTVSPost2010PropOp31
 70
     1
102
RTVSPost2010Prop32
280
     0
102
RTVSPost2010PropOp32
 70
     1
102
RTVSPost2010Prop33
280
     0
102
RTVSPost2010PropOp33
 70
     1
102
RTVSPost2010Prop34
280
     0
102
RTVSPost2010PropOp34
 70
     1
102
RTVSPost2010Prop35
280
     0
102
RTVSPost2010PropOp35
 70
     1
102
RTVSPost2010Prop36
280
     0
102
RTVSPost2010PropOp36
 70
     1
102
RTVSPost2010Prop37
 90
       50
102
RTVSPost2010PropOp37
 70
     1
102
RTVSPost2010Prop38
140
0.0
102
RTVSPost2010PropOp38
 70
     1
102
RTVSPost2010Prop39
140
1.0
102
RTVSPost2010PropOp39
 70
     1
102
RTVSPost2010Prop40
 90
        0
102
RTVSPost2010PropOp40
 70
     1
102
RTVSPost2010Prop41ColorIndex
 90
       18
102
RTVSPost2010Prop41ColorRGB
 90
        0
102
RTVSPost2010PropOp41
 70
     1
102
RTVSPost2010Prop42
 90
       50
102
RTVSPost2010PropOp42
 70
     1
102
RTVSPost2010Prop43
 90
        3
102
RTVSPost2010PropOp43
 70
     1
102
RTVSPost2010Prop44ColorIndex
 90
        5
102
RTVSPost2010Prop44ColorRGB
 90
      255
102
RTVSPost2010PropOp44
 70
     1
102
RTVSPost2010Prop45
280
     0
102
RTVSPost2010PropOp45
 70
     1
102
RTVSPost2010Prop46
 90
       50
102
RTVSPost2010PropOp46
 70
     1
102
RTVSPost2010Prop47
 90
       50
102
RTVSPost2010PropOp47
 70
     1
102
RTVSPost2010Prop48
 90
       50
102
RTVSPost2010PropOp48
 70
     1
102
RTVSPost2010Prop49
280
     0
102
RTVSPost2010PropOp49
 70
     1
102
RTVSPost2010Prop50
 90
       50
102
RTVSPost2010PropOp50
 70
     1
102
RTVSPost2010Prop51ColorIndex
 90
      256
102
RTVSPost2010Prop51ColorRGB
 90
-16777216
102
RTVSPost2010PropOp51
 70
     0
102
RTVSPost2010Prop52
140
1.0
102
RTVSPost2010PropOp52
 70
     0
102
RTVSPost2010Prop53
 90
        2
102
RTVSPost2010PropOp53
 70
     1
102
RTVSPost2010Prop54
  1
strokes_ogs.tif
102
RTVSPost2010PropOp54
 70
     1
102
RTVSPost2010Prop55
280
     0
102
RTVSPost2010PropOp55
 70
     1
102
RTVSPost2010Prop56
140
1.0
102
RTVSPost2010PropOp56
 70
     1
102
RTVSPost2010Prop57
140
1.0
102
RTVSPost2010PropOp57
 70
     1
102
RTVSPropertyOp0
 70
     1
102
RTVSPropertyOp1
 70
     1
102
RTVSPropertyOp2
 70
     1
102
RTVSPropertyOp3
 70
     1
102
RTVSPropertyOp4
 70
     1
102
RTVSPropertyOp5
 70
     1
102
RTVSPropertyOp6
 70
     1
102
RTVSPropertyOp7
 70
     1
102
RTVSPropertyOp8
 70
     1
102
RTVSPropertyOp9
 70
     1
102
RTVSPropertyOp10
 70
     1
102
RTVSPropertyOp11
 70
     1
102
RTVSPropertyOp12
 70
     1
102
RTVSPropertyOp13
 70
     1
102
RTVSPropertyOp14
 70
     1
102
RTVSPropertyOp15
 70
     1
102
RTVSPropertyOp16
 70
     1
102
RTVSPropertyOp17
 70
     1
102
RTVSPropertyOp18
 70
     1
102
RTVSPropertyOp19
 70
     1
102
RTVSPropertyOp20
 70
     1
102
RTVSPropertyOp21
 70
     1
102
RTVSPropertyOp22
 70
     1
102
RTVSPropertyOp23
 70
     1
102
RTVSPropertyOp24
 70
     1
102
RTVSPropertyOp25
 70
     1
102
RTVSPropertyOp26
 70
     1
102
RTVSPropertyOp27
 70
     1
102
RTVSPropertyOp28
 70
     1
102
RTVSPropertyOp29
 70
     1
102
RTVSPropertyOp30
 70
     1
102
RTVSPropertyOp31
 70
     1
102
RTVSPropertyOp32
 70
     1
102
RTVSPropertyOp33
 70
     1
102
RTVSPropertyOp34
 70
     1
102
RTVSPropertyOp35
 70
     1
102
RTVSPropertyOp36
 70
     1
102
RTVSPropertyOp37
 70
     1
102
RTVSPropertyOp38
 70
     1
102
RTVSPropertyOp39
 70
     1
102
RTVSPropertyOp40
 70
     1
102
RTVSPropertyOp41
 70
     1
102
RTVSPropertyOp42
 70
     1
102
RTVSPropertyOp43
 70
     1
102
RTVSPropertyOp44
 70
     1
102
RTVSPropertyOp45
 70
     1
102
RTVSPropertyOp46
 70
     1
102
RTVSPropertyOp47
 70
     1
102
RTVSPropertyOp48
 70
     1
102
RTVSPropertyOp49
 70
     1
102
RTVSPropertyOp50
 70
     1
102
RTVSPropertyOp51
 70
     0
102
RTVSPropertyOp52
 70
     0
102
RTVSPropertyOp53
 70
     1
102
RTVSPropertyOp54
 70
     1
102
RTVSPropertyOp55
 70
     1
102
RTVSPropertyOp56
 70
     1
102
RTVSPropertyOp57
 70
     1
102
RTVSPropertyOp58
 70
     1
102
RTVSPropertyOp59
 70
     1
102
RTVSPropertyOp60
 70
     1
102
RTVSPropertyOp61
 70
     1
102
RTVSPropertyOp62
 70
     1
  0
XRECORD
  5
4BA
102
{ACAD_REACTORS
330
4B9
102
}
330
4B9
100
AcDbXrecord
280
     1
102
RTVSPost2010Prop28
280
     0
102
RTVSPost2010PropOp28
 70
     1
102
RTVSPost2010Prop29
280
     1
102
RTVSPost2010PropOp29
 70
     1
102
RTVSPost2010Prop30
280
     1
102
RTVSPost2010PropOp30
 70
     1
102
RTVSPost2010Prop31
280
     0
102
RTVSPost2010PropOp31
 70
     1
102
RTVSPost2010Prop32
280
     0
102
RTVSPost2010PropOp32
 70
     1
102
RTVSPost2010Prop33
280
     0
102
RTVSPost2010PropOp33
 70
     1
102
RTVSPost2010Prop34
280
     0
102
RTVSPost2010PropOp34
 70
     1
102
RTVSPost2010Prop35
280
     0
102
RTVSPost2010PropOp35
 70
     1
102
RTVSPost2010Prop36
280
     0
102
RTVSPost2010PropOp36
 70
     1
102
RTVSPost2010Prop37
 90
       50
102
RTVSPost2010PropOp37
 70
     1
102
RTVSPost2010Prop38
140
0.0
102
RTVSPost2010PropOp38
 70
     1
102
RTVSPost2010Prop39
140
1.0
102
RTVSPost2010PropOp39
 70
     1
102
RTVSPost2010Prop40
 90
        0
102
RTVSPost2010PropOp40
 70
     1
102
RTVSPost2010Prop41ColorIndex
 90
       18
102
RTVSPost2010Prop41ColorRGB
 90
        0
102
RTVSPost2010PropOp41
 70
     1
102
RTVSPost2010Prop42
 90
       50
102
RTVSPost2010PropOp42
 70
     1
102
RTVSPost2010Prop43
 90
        3
102
RTVSPost2010PropOp43
 70
     1
102
RTVSPost2010Prop44ColorIndex
 90
        5
102
RTVSPost2010Prop44ColorRGB
 90
      255
102
RTVSPost2010PropOp44
 70
     1
102
RTVSPost2010Prop45
280
     0
102
RTVSPost2010PropOp45
 70
     1
102
RTVSPost2010Prop46
 90
       50
102
RTVSPost2010PropOp46
 70
     1
102
RTVSPost2010Prop47
 90
       50
102
RTVSPost2010PropOp47
 70
     1
102
RTVSPost2010Prop48
 90
       50
102
RTVSPost2010PropOp48
 70
     1
102
RTVSPost2010Prop49
280
     0
102
RTVSPost2010PropOp49
 70
     1
102
RTVSPost2010Prop50
 90
       50
102
RTVSPost2010PropOp50
 70
     1
102
RTVSPost2010Prop51ColorIndex
 90
      256
102
RTVSPost2010Prop51ColorRGB
 90
-16777216
102
RTVSPost2010PropOp51
 70
     0
102
RTVSPost2010Prop52
140
1.0
102
RTVSPost2010PropOp52
 70
     0
102
RTVSPost2010Prop53
 90
        2
102
RTVSPost2010PropOp53
 70
     1
102
RTVSPost2010Prop54
  1
strokes_ogs.tif
102
RTVSPost2010PropOp54
 70
     1
102
RTVSPost2010Prop55
280
     0
102
RTVSPost2010PropOp55
 70
     1
102
RTVSPost2010Prop56
140
1.0
102
RTVSPost2010PropOp56
 70
     1
102
RTVSPost2010Prop57
140
1.0
102
RTVSPost2010PropOp57
 70
     1
102
RTVSPropertyOp0
 70
     1
102
RTVSPropertyOp1
 70
     1
102
RTVSPropertyOp2
 70
     1
102
RTVSPropertyOp3
 70
     1
102
RTVSPropertyOp4
 70
     1
102
RTVSPropertyOp5
 70
     1
102
RTVSPropertyOp6
 70
     1
102
RTVSPropertyOp7
 70
     1
102
RTVSPropertyOp8
 70
     1
102
RTVSPropertyOp9
 70
     1
102
RTVSPropertyOp10
 70
     1
102
RTVSPropertyOp11
 70
     1
102
RTVSPropertyOp12
 70
     1
102
RTVSPropertyOp13
 70
     1
102
RTVSPropertyOp14
 70
     1
102
RTVSPropertyOp15
 70
     1
102
RTVSPropertyOp16
 70
     1
102
RTVSPropertyOp17
 70
     1
102
RTVSPropertyOp18
 70
     1
102
RTVSPropertyOp19
 70
     1
102
RTVSPropertyOp20
 70
     1
102
RTVSPropertyOp21
 70
     1
102
RTVSPropertyOp22
 70
     1
102
RTVSPropertyOp23
 70
     1
102
RTVSPropertyOp24
 70
     1
102
RTVSPropertyOp25
 70
     1
102
RTVSPropertyOp26
 70
     1
102
RTVSPropertyOp27
 70
     1
102
RTVSPropertyOp28
 70
     1
102
RTVSPropertyOp29
 70
     1
102
RTVSPropertyOp30
 70
     1
102
RTVSPropertyOp31
 70
     1
102
RTVSPropertyOp32
 70
     1
102
RTVSPropertyOp33
 70
     1
102
RTVSPropertyOp34
 70
     1
102
RTVSPropertyOp35
 70
     1
102
RTVSPropertyOp36
 70
     1
102
RTVSPropertyOp37
 70
     1
102
RTVSPropertyOp38
 70
     1
102
RTVSPropertyOp39
 70
     1
102
RTVSPropertyOp40
 70
     1
102
RTVSPropertyOp41
 70
     1
102
RTVSPropertyOp42
 70
     1
102
RTVSPropertyOp43
 70
     1
102
RTVSPropertyOp44
 70
     1
102
RTVSPropertyOp45
 70
     1
102
RTVSPropertyOp46
 70
     1
102
RTVSPropertyOp47
 70
     1
102
RTVSPropertyOp48
 70
     1
102
RTVSPropertyOp49
 70
     1
102
RTVSPropertyOp50
 70
     1
102
RTVSPropertyOp51
 70
     0
102
RTVSPropertyOp52
 70
     0
102
RTVSPropertyOp53
 70
     1
102
RTVSPropertyOp54
 70
     1
102
RTVSPropertyOp55
 70
     1
102
RTVSPropertyOp56
 70
     1
102
RTVSPropertyOp57
 70
     1
102
RTVSPropertyOp58
 70
     1
102
RTVSPropertyOp59
 70
     1
102
RTVSPropertyOp60
 70
     1
102
RTVSPropertyOp61
 70
     1
102
RTVSPropertyOp62
 70
     1
  0
XRECORD
  5
4BE
102
{ACAD_REACTORS
330
4BD
102
}
330
4BD
100
AcDbXrecord
280
     1
102
RTVSPost2010Prop28
280
     0
102
RTVSPost2010PropOp28
 70
     1
102
RTVSPost2010Prop29
280
     1
102
RTVSPost2010PropOp29
 70
     1
102
RTVSPost2010Prop30
280
     1
102
RTVSPost2010PropOp30
 70
     1
102
RTVSPost2010Prop31
280
     0
102
RTVSPost2010PropOp31
 70
     1
102
RTVSPost2010Prop32
280
     0
102
RTVSPost2010PropOp32
 70
     1
102
RTVSPost2010Prop33
280
     0
102
RTVSPost2010PropOp33
 70
     1
102
RTVSPost2010Prop34
280
     0
102
RTVSPost2010PropOp34
 70
     1
102
RTVSPost2010Prop35
280
     0
102
RTVSPost2010PropOp35
 70
     1
102
RTVSPost2010Prop36
280
     0
102
RTVSPost2010PropOp36
 70
     1
102
RTVSPost2010Prop37
 90
       50
102
RTVSPost2010PropOp37
 70
     1
102
RTVSPost2010Prop38
140
0.0
102
RTVSPost2010PropOp38
 70
     1
102
RTVSPost2010Prop39
140
1.0
102
RTVSPost2010PropOp39
 70
     1
102
RTVSPost2010Prop40
 90
        0
102
RTVSPost2010PropOp40
 70
     1
102
RTVSPost2010Prop41ColorIndex
 90
       18
102
RTVSPost2010Prop41ColorRGB
 90
        0
102
RTVSPost2010PropOp41
 70
     1
102
RTVSPost2010Prop42
 90
       50
102
RTVSPost2010PropOp42
 70
     1
102
RTVSPost2010Prop43
 90
        3
102
RTVSPost2010PropOp43
 70
     1
102
RTVSPost2010Prop44ColorIndex
 90
        5
102
RTVSPost2010Prop44ColorRGB
 90
      255
102
RTVSPost2010PropOp44
 70
     1
102
RTVSPost2010Prop45
280
     0
102
RTVSPost2010PropOp45
 70
     1
102
RTVSPost2010Prop46
 90
       50
102
RTVSPost2010PropOp46
 70
     1
102
RTVSPost2010Prop47
 90
       50
102
RTVSPost2010PropOp47
 70
     1
102
RTVSPost2010Prop48
 90
       50
102
RTVSPost2010PropOp48
 70
     1
102
RTVSPost2010Prop49
280
     0
102
RTVSPost2010PropOp49
 70
     1
102
RTVSPost2010Prop50
 90
       50
102
RTVSPost2010PropOp50
 70
     1
102
RTVSPost2010Prop51ColorIndex
 90
      256
102
RTVSPost2010Prop51ColorRGB
 90
-16777216
102
RTVSPost2010PropOp51
 70
     0
102
RTVSPost2010Prop52
140
1.0
102
RTVSPost2010PropOp52
 70
     0
102
RTVSPost2010Prop53
 90
        2
102
RTVSPost2010PropOp53
 70
     1
102
RTVSPost2010Prop54
  1
strokes_ogs.tif
102
RTVSPost2010PropOp54
 70
     1
102
RTVSPost2010Prop55
280
     0
102
RTVSPost2010PropOp55
 70
     1
102
RTVSPost2010Prop56
140
1.0
102
RTVSPost2010PropOp56
 70
     1
102
RTVSPost2010Prop57
140
1.0
102
RTVSPost2010PropOp57
 70
     1
102
RTVSPropertyOp0
 70
     1
102
RTVSPropertyOp1
 70
     1
102
RTVSPropertyOp2
 70
     1
102
RTVSPropertyOp3
 70
     1
102
RTVSPropertyOp4
 70
     1
102
RTVSPropertyOp5
 70
     1
102
RTVSPropertyOp6
 70
     1
102
RTVSPropertyOp7
 70
     1
102
RTVSPropertyOp8
 70
     1
102
RTVSPropertyOp9
 70
     1
102
RTVSPropertyOp10
 70
     1
102
RTVSPropertyOp11
 70
     1
102
RTVSPropertyOp12
 70
     1
102
RTVSPropertyOp13
 70
     1
102
RTVSPropertyOp14
 70
     1
102
RTVSPropertyOp15
 70
     1
102
RTVSPropertyOp16
 70
     1
102
RTVSPropertyOp17
 70
     1
102
RTVSPropertyOp18
 70
     1
102
RTVSPropertyOp19
 70
     1
102
RTVSPropertyOp20
 70
     1
102
RTVSPropertyOp21
 70
     1
102
RTVSPropertyOp22
 70
     1
102
RTVSPropertyOp23
 70
     1
102
RTVSPropertyOp24
 70
     1
102
RTVSPropertyOp25
 70
     1
102
RTVSPropertyOp26
 70
     1
102
RTVSPropertyOp27
 70
     1
102
RTVSPropertyOp28
 70
     1
102
RTVSPropertyOp29
 70
     1
102
RTVSPropertyOp30
 70
     1
102
RTVSPropertyOp31
 70
     1
102
RTVSPropertyOp32
 70
     1
102
RTVSPropertyOp33
 70
     1
102
RTVSPropertyOp34
 70
     1
102
RTVSPropertyOp35
 70
     1
102
RTVSPropertyOp36
 70
     1
102
RTVSPropertyOp37
 70
     1
102
RTVSPropertyOp38
 70
     1
102
RTVSPropertyOp39
 70
     1
102
RTVSPropertyOp40
 70
     1
102
RTVSPropertyOp41
 70
     1
102
RTVSPropertyOp42
 70
     1
102
RTVSPropertyOp43
 70
     1
102
RTVSPropertyOp44
 70
     1
102
RTVSPropertyOp45
 70
     1
102
RTVSPropertyOp46
 70
     1
102
RTVSPropertyOp47
 70
     1
102
RTVSPropertyOp48
 70
     1
102
RTVSPropertyOp49
 70
     1
102
RTVSPropertyOp50
 70
     1
102
RTVSPropertyOp51
 70
     0
102
RTVSPropertyOp52
 70
     0
102
RTVSPropertyOp53
 70
     1
102
RTVSPropertyOp54
 70
     1
102
RTVSPropertyOp55
 70
     1
102
RTVSPropertyOp56
 70
     1
102
RTVSPropertyOp57
 70
     1
102
RTVSPropertyOp58
 70
     1
102
RTVSPropertyOp59
 70
     1
102
RTVSPropertyOp60
 70
     1
102
RTVSPropertyOp61
 70
     1
102
RTVSPropertyOp62
 70
     1
  0
XRECORD
  5
4D8
102
{ACAD_REACTORS
330
4D7
102
}
330
4D7
100
AcDbXrecord
280
     1
102
RTVSPost2010Prop28
280
     0
102
RTVSPost2010PropOp28
 70
     1
102
RTVSPost2010Prop29
280
     1
102
RTVSPost2010PropOp29
 70
     1
102
RTVSPost2010Prop30
280
     1
102
RTVSPost2010PropOp30
 70
     1
102
RTVSPost2010Prop31
280
     0
102
RTVSPost2010PropOp31
 70
     1
102
RTVSPost2010Prop32
280
     0
102
RTVSPost2010PropOp32
 70
     1
102
RTVSPost2010Prop33
280
     0
102
RTVSPost2010PropOp33
 70
     1
102
RTVSPost2010Prop34
280
     0
102
RTVSPost2010PropOp34
 70
     1
102
RTVSPost2010Prop35
280
     0
102
RTVSPost2010PropOp35
 70
     1
102
RTVSPost2010Prop36
280
     0
102
RTVSPost2010PropOp36
 70
     1
102
RTVSPost2010Prop37
 90
       50
102
RTVSPost2010PropOp37
 70
     0
102
RTVSPost2010Prop38
140
0.0
102
RTVSPost2010PropOp38
 70
     0
102
RTVSPost2010Prop39
140
1.0
102
RTVSPost2010PropOp39
 70
     0
102
RTVSPost2010Prop40
 90
        0
102
RTVSPost2010PropOp40
 70
     0
102
RTVSPost2010Prop41ColorIndex
 90
       18
102
RTVSPost2010Prop41ColorRGB
 90
        0
102
RTVSPost2010PropOp41
 70
     0
102
RTVSPost2010Prop42
 90
       50
102
RTVSPost2010PropOp42
 70
     0
102
RTVSPost2010Prop43
 90
        3
102
RTVSPost2010PropOp43
 70
     0
102
RTVSPost2010Prop44ColorIndex
 90
        5
102
RTVSPost2010Prop44ColorRGB
 90
      255
102
RTVSPost2010PropOp44
 70
     0
102
RTVSPost2010Prop45
280
     0
102
RTVSPost2010PropOp45
 70
     1
102
RTVSPost2010Prop46
 90
       50
102
RTVSPost2010PropOp46
 70
     0
102
RTVSPost2010Prop47
 90
       50
102
RTVSPost2010PropOp47
 70
     0
102
RTVSPost2010Prop48
 90
       50
102
RTVSPost2010PropOp48
 70
     0
102
RTVSPost2010Prop49
280
     0
102
RTVSPost2010PropOp49
 70
     1
102
RTVSPost2010Prop50
 90
       50
102
RTVSPost2010PropOp50
 70
     0
102
RTVSPost2010Prop51ColorIndex
 90
      256
102
RTVSPost2010Prop51ColorRGB
 90
-16777216
102
RTVSPost2010PropOp51
 70
     0
102
RTVSPost2010Prop52
140
1.0
102
RTVSPost2010PropOp52
 70
     0
102
RTVSPost2010Prop53
 90
        2
102
RTVSPost2010PropOp53
 70
     0
102
RTVSPost2010Prop54
  1
strokes_ogs.tif
102
RTVSPost2010PropOp54
 70
     0
102
RTVSPost2010Prop55
280
     0
102
RTVSPost2010PropOp55
 70
     1
102
RTVSPost2010Prop56
140
1.0
102
RTVSPost2010PropOp56
 70
     0
102
RTVSPost2010Prop57
140
1.0
102
RTVSPost2010PropOp57
 70
     0
102
RTVSPropertyOp0
 70
     0
102
RTVSPropertyOp1
 70
     0
102
RTVSPropertyOp2
 70
     0
102
RTVSPropertyOp3
 70
     0
102
RTVSPropertyOp4
 70
     0
102
RTVSPropertyOp5
 70
     0
102
RTVSPropertyOp6
 70
     0
102
RTVSPropertyOp7
 70
     0
102
RTVSPropertyOp8
 70
     0
102
RTVSPropertyOp9
 70
     0
102
RTVSPropertyOp10
 70
     0
102
RTVSPropertyOp11
 70
     0
102
RTVSPropertyOp12
 70
     0
102
RTVSPropertyOp13
 70
     0
102
RTVSPropertyOp14
 70
     2
102
RTVSPropertyOp15
 70
     0
102
RTVSPropertyOp16
 70
     0
102
RTVSPropertyOp17
 70
     0
102
RTVSPropertyOp18
 70
     0
102
RTVSPropertyOp19
 70
     0
102
RTVSPropertyOp20
 70
     0
102
RTVSPropertyOp21
 70
     0
102
RTVSPropertyOp22
 70
     0
102
RTVSPropertyOp23
 70
     0
102
RTVSPropertyOp24
 70
     0
102
RTVSPropertyOp25
 70
     0
102
RTVSPropertyOp26
 70
     0
102
RTVSPropertyOp27
 70
     0
102
RTVSPropertyOp28
 70
     1
102
RTVSPropertyOp29
 70
     1
102
RTVSPropertyOp30
 70
     1
102
RTVSPropertyOp31
 70
     1
102
RTVSPropertyOp32
 70
     1
102
RTVSPropertyOp33
 70
     1
102
RTVSPropertyOp34
 70
     1
102
RTVSPropertyOp35
 70
     1
102
RTVSPropertyOp36
 70
     1
102
RTVSPropertyOp37
 70
     0
102
RTVSPropertyOp38
 70
     0
102
RTVSPropertyOp39
 70
     0
102
RTVSPropertyOp40
 70
     0
102
RTVSPropertyOp41
 70
     0
102
RTVSPropertyOp42
 70
     0
102
RTVSPropertyOp43
 70
     0
102
RTVSPropertyOp44
 70
     0
102
RTVSPropertyOp45
 70
     1
102
RTVSPropertyOp46
 70
     0
102
RTVSPropertyOp47
 70
     0
102
RTVSPropertyOp48
 70
     0
102
RTVSPropertyOp49
 70
     1
102
RTVSPropertyOp50
 70
     0
102
RTVSPropertyOp51
 70
     0
102
RTVSPropertyOp52
 70
     0
102
RTVSPropertyOp53
 70
     0
102
RTVSPropertyOp54
 70
     0
102
RTVSPropertyOp55
 70
     1
102
RTVSPropertyOp56
 70
     0
102
RTVSPropertyOp57
 70
     0
102
RTVSPropertyOp58
 70
     0
102
RTVSPropertyOp59
 70
     0
102
RTVSPropertyOp60
 70
     0
102
RTVSPropertyOp61
 70
     0
102
RTVSPropertyOp62
 70
     0
  0
XRECORD
  5
4C6
102
{ACAD_REACTORS
330
4C5
102
}
330
4C5
100
AcDbXrecord
280
     1
102
RTVSPost2010Prop28
280
     0
102
RTVSPost2010PropOp28
 70
     1
102
RTVSPost2010Prop29
280
     1
102
RTVSPost2010PropOp29
 70
     1
102
RTVSPost2010Prop30
280
     1
102
RTVSPost2010PropOp30
 70
     1
102
RTVSPost2010Prop31
280
     0
102
RTVSPost2010PropOp31
 70
     1
102
RTVSPost2010Prop32
280
     0
102
RTVSPost2010PropOp32
 70
     1
102
RTVSPost2010Prop33
280
     0
102
RTVSPost2010PropOp33
 70
     1
102
RTVSPost2010Prop34
280
     0
102
RTVSPost2010PropOp34
 70
     1
102
RTVSPost2010Prop35
280
     0
102
RTVSPost2010PropOp35
 70
     1
102
RTVSPost2010Prop36
280
     0
102
RTVSPost2010PropOp36
 70
     1
102
RTVSPost2010Prop37
 90
       50
102
RTVSPost2010PropOp37
 70
     1
102
RTVSPost2010Prop38
140
0.0
102
RTVSPost2010PropOp38
 70
     1
102
RTVSPost2010Prop39
140
1.0
102
RTVSPost2010PropOp39
 70
     1
102
RTVSPost2010Prop40
 90
        0
102
RTVSPost2010PropOp40
 70
     1
102
RTVSPost2010Prop41ColorIndex
 90
       18
102
RTVSPost2010Prop41ColorRGB
 90
        0
102
RTVSPost2010PropOp41
 70
     1
102
RTVSPost2010Prop42
 90
       50
102
RTVSPost2010PropOp42
 70
     1
102
RTVSPost2010Prop43
 90
        3
102
RTVSPost2010PropOp43
 70
     1
102
RTVSPost2010Prop44ColorIndex
 90
        5
102
RTVSPost2010Prop44ColorRGB
 90
      255
102
RTVSPost2010PropOp44
 70
     1
102
RTVSPost2010Prop45
280
     0
102
RTVSPost2010PropOp45
 70
     1
102
RTVSPost2010Prop46
 90
       50
102
RTVSPost2010PropOp46
 70
     1
102
RTVSPost2010Prop47
 90
       50
102
RTVSPost2010PropOp47
 70
     1
102
RTVSPost2010Prop48
 90
       50
102
RTVSPost2010PropOp48
 70
     1
102
RTVSPost2010Prop49
280
     0
102
RTVSPost2010PropOp49
 70
     1
102
RTVSPost2010Prop50
 90
       50
102
RTVSPost2010PropOp50
 70
     1
102
RTVSPost2010Prop51ColorIndex
 90
      256
102
RTVSPost2010Prop51ColorRGB
 90
-16777216
102
RTVSPost2010PropOp51
 70
     0
102
RTVSPost2010Prop52
140
1.0
102
RTVSPost2010PropOp52
 70
     0
102
RTVSPost2010Prop53
 90
        2
102
RTVSPost2010PropOp53
 70
     1
102
RTVSPost2010Prop54
  1
strokes_ogs.tif
102
RTVSPost2010PropOp54
 70
     1
102
RTVSPost2010Prop55
280
     0
102
RTVSPost2010PropOp55
 70
     1
102
RTVSPost2010Prop56
140
1.0
102
RTVSPost2010PropOp56
 70
     1
102
RTVSPost2010Prop57
140
1.0
102
RTVSPost2010PropOp57
 70
     1
102
RTVSPropertyOp0
 70
     1
102
RTVSPropertyOp1
 70
     1
102
RTVSPropertyOp2
 70
     1
102
RTVSPropertyOp3
 70
     1
102
RTVSPropertyOp4
 70
     1
102
RTVSPropertyOp5
 70
     1
102
RTVSPropertyOp6
 70
     1
102
RTVSPropertyOp7
 70
     1
102
RTVSPropertyOp8
 70
     1
102
RTVSPropertyOp9
 70
     1
102
RTVSPropertyOp10
 70
     1
102
RTVSPropertyOp11
 70
     1
102
RTVSPropertyOp12
 70
     1
102
RTVSPropertyOp13
 70
     1
102
RTVSPropertyOp14
 70
     1
102
RTVSPropertyOp15
 70
     1
102
RTVSPropertyOp16
 70
     1
102
RTVSPropertyOp17
 70
     1
102
RTVSPropertyOp18
 70
     1
102
RTVSPropertyOp19
 70
     1
102
RTVSPropertyOp20
 70
     1
102
RTVSPropertyOp21
 70
     1
102
RTVSPropertyOp22
 70
     1
102
RTVSPropertyOp23
 70
     1
102
RTVSPropertyOp24
 70
     1
102
RTVSPropertyOp25
 70
     1
102
RTVSPropertyOp26
 70
     1
102
RTVSPropertyOp27
 70
     1
102
RTVSPropertyOp28
 70
     1
102
RTVSPropertyOp29
 70
     1
102
RTVSPropertyOp30
 70
     1
102
RTVSPropertyOp31
 70
     1
102
RTVSPropertyOp32
 70
     1
102
RTVSPropertyOp33
 70
     1
102
RTVSPropertyOp34
 70
     1
102
RTVSPropertyOp35
 70
     1
102
RTVSPropertyOp36
 70
     1
102
RTVSPropertyOp37
 70
     1
102
RTVSPropertyOp38
 70
     1
102
RTVSPropertyOp39
 70
     1
102
RTVSPropertyOp40
 70
     1
102
RTVSPropertyOp41
 70
     1
102
RTVSPropertyOp42
 70
     1
102
RTVSPropertyOp43
 70
     1
102
RTVSPropertyOp44
 70
     1
102
RTVSPropertyOp45
 70
     1
102
RTVSPropertyOp46
 70
     1
102
RTVSPropertyOp47
 70
     1
102
RTVSPropertyOp48
 70
     1
102
RTVSPropertyOp49
 70
     1
102
RTVSPropertyOp50
 70
     1
102
RTVSPropertyOp51
 70
     0
102
RTVSPropertyOp52
 70
     0
102
RTVSPropertyOp53
 70
     1
102
RTVSPropertyOp54
 70
     1
102
RTVSPropertyOp55
 70
     1
102
RTVSPropertyOp56
 70
     1
102
RTVSPropertyOp57
 70
     1
102
RTVSPropertyOp58
 70
     1
102
RTVSPropertyOp59
 70
     1
102
RTVSPropertyOp60
 70
     1
102
RTVSPropertyOp61
 70
     1
102
RTVSPropertyOp62
 70
     1
  0
XRECORD
  5
4AA
102
{ACAD_REACTORS
330
4A9
102
}
330
4A9
100
AcDbXrecord
280
     1
102
RTVSPost2010Prop28
280
     0
102
RTVSPost2010PropOp28
 70
     1
102
RTVSPost2010Prop29
280
     1
102
RTVSPost2010PropOp29
 70
     1
102
RTVSPost2010Prop30
280
     1
102
RTVSPost2010PropOp30
 70
     1
102
RTVSPost2010Prop31
280
     0
102
RTVSPost2010PropOp31
 70
     1
102
RTVSPost2010Prop32
280
     0
102
RTVSPost2010PropOp32
 70
     1
102
RTVSPost2010Prop33
280
     0
102
RTVSPost2010PropOp33
 70
     1
102
RTVSPost2010Prop34
280
     0
102
RTVSPost2010PropOp34
 70
     1
102
RTVSPost2010Prop35
280
     0
102
RTVSPost2010PropOp35
 70
     1
102
RTVSPost2010Prop36
280
     0
102
RTVSPost2010PropOp36
 70
     1
102
RTVSPost2010Prop37
 90
       50
102
RTVSPost2010PropOp37
 70
     1
102
RTVSPost2010Prop38
140
0.0
102
RTVSPost2010PropOp38
 70
     1
102
RTVSPost2010Prop39
140
1.0
102
RTVSPost2010PropOp39
 70
     1
102
RTVSPost2010Prop40
 90
        0
102
RTVSPost2010PropOp40
 70
     1
102
RTVSPost2010Prop41ColorIndex
 90
       18
102
RTVSPost2010Prop41ColorRGB
 90
        0
102
RTVSPost2010PropOp41
 70
     1
102
RTVSPost2010Prop42
 90
       50
102
RTVSPost2010PropOp42
 70
     1
102
RTVSPost2010Prop43
 90
        3
102
RTVSPost2010PropOp43
 70
     1
102
RTVSPost2010Prop44ColorIndex
 90
        5
102
RTVSPost2010Prop44ColorRGB
 90
      255
102
RTVSPost2010PropOp44
 70
     1
102
RTVSPost2010Prop45
280
     0
102
RTVSPost2010PropOp45
 70
     1
102
RTVSPost2010Prop46
 90
       50
102
RTVSPost2010PropOp46
 70
     1
102
RTVSPost2010Prop47
 90
       50
102
RTVSPost2010PropOp47
 70
     1
102
RTVSPost2010Prop48
 90
       50
102
RTVSPost2010PropOp48
 70
     1
102
RTVSPost2010Prop49
280
     0
102
RTVSPost2010PropOp49
 70
     1
102
RTVSPost2010Prop50
 90
       50
102
RTVSPost2010PropOp50
 70
     1
102
RTVSPost2010Prop51ColorIndex
 90
      256
102
RTVSPost2010Prop51ColorRGB
 90
-16777216
102
RTVSPost2010PropOp51
 70
     0
102
RTVSPost2010Prop52
140
1.0
102
RTVSPost2010PropOp52
 70
     0
102
RTVSPost2010Prop53
 90
        2
102
RTVSPost2010PropOp53
 70
     1
102
RTVSPost2010Prop54
  1
strokes_ogs.tif
102
RTVSPost2010PropOp54
 70
     1
102
RTVSPost2010Prop55
280
     0
102
RTVSPost2010PropOp55
 70
     1
102
RTVSPost2010Prop56
140
1.0
102
RTVSPost2010PropOp56
 70
     1
102
RTVSPost2010Prop57
140
1.0
102
RTVSPost2010PropOp57
 70
     1
102
RTVSPropertyOp0
 70
     1
102
RTVSPropertyOp1
 70
     1
102
RTVSPropertyOp2
 70
     1
102
RTVSPropertyOp3
 70
     1
102
RTVSPropertyOp4
 70
     1
102
RTVSPropertyOp5
 70
     1
102
RTVSPropertyOp6
 70
     1
102
RTVSPropertyOp7
 70
     1
102
RTVSPropertyOp8
 70
     1
102
RTVSPropertyOp9
 70
     1
102
RTVSPropertyOp10
 70
     1
102
RTVSPropertyOp11
 70
     1
102
RTVSPropertyOp12
 70
     1
102
RTVSPropertyOp13
 70
     1
102
RTVSPropertyOp14
 70
     1
102
RTVSPropertyOp15
 70
     1
102
RTVSPropertyOp16
 70
     1
102
RTVSPropertyOp17
 70
     1
102
RTVSPropertyOp18
 70
     1
102
RTVSPropertyOp19
 70
     1
102
RTVSPropertyOp20
 70
     1
102
RTVSPropertyOp21
 70
     1
102
RTVSPropertyOp22
 70
     1
102
RTVSPropertyOp23
 70
     1
102
RTVSPropertyOp24
 70
     1
102
RTVSPropertyOp25
 70
     1
102
RTVSPropertyOp26
 70
     1
102
RTVSPropertyOp27
 70
     1
102
RTVSPropertyOp28
 70
     1
102
RTVSPropertyOp29
 70
     1
102
RTVSPropertyOp30
 70
     1
102
RTVSPropertyOp31
 70
     1
102
RTVSPropertyOp32
 70
     1
102
RTVSPropertyOp33
 70
     1
102
RTVSPropertyOp34
 70
     1
102
RTVSPropertyOp35
 70
     1
102
RTVSPropertyOp36
 70
     1
102
RTVSPropertyOp37
 70
     1
102
RTVSPropertyOp38
 70
     1
102
RTVSPropertyOp39
 70
     1
102
RTVSPropertyOp40
 70
     1
102
RTVSPropertyOp41
 70
     1
102
RTVSPropertyOp42
 70
     1
102
RTVSPropertyOp43
 70
     1
102
RTVSPropertyOp44
 70
     1
102
RTVSPropertyOp45
 70
     1
102
RTVSPropertyOp46
 70
     1
102
RTVSPropertyOp47
 70
     1
102
RTVSPropertyOp48
 70
     1
102
RTVSPropertyOp49
 70
     1
102
RTVSPropertyOp50
 70
     1
102
RTVSPropertyOp51
 70
     0
102
RTVSPropertyOp52
 70
     0
102
RTVSPropertyOp53
 70
     1
102
RTVSPropertyOp54
 70
     1
102
RTVSPropertyOp55
 70
     1
102
RTVSPropertyOp56
 70
     1
102
RTVSPropertyOp57
 70
     1
102
RTVSPropertyOp58
 70
     1
102
RTVSPropertyOp59
 70
     1
102
RTVSPropertyOp60
 70
     1
102
RTVSPropertyOp61
 70
     1
102
RTVSPropertyOp62
 70
     1
  0
XRECORD
  5
4AC
102
{ACAD_REACTORS
330
4AB
102
}
330
4AB
100
AcDbXrecord
280
     1
102
RTVSPost2010Prop28
280
     0
102
RTVSPost2010PropOp28
 70
     1
102
RTVSPost2010Prop29
280
     1
102
RTVSPost2010PropOp29
 70
     1
102
RTVSPost2010Prop30
280
     1
102
RTVSPost2010PropOp30
 70
     1
102
RTVSPost2010Prop31
280
     0
102
RTVSPost2010PropOp31
 70
     1
102
RTVSPost2010Prop32
280
     0
102
RTVSPost2010PropOp32
 70
     1
102
RTVSPost2010Prop33
280
     0
102
RTVSPost2010PropOp33
 70
     1
102
RTVSPost2010Prop34
280
     0
102
RTVSPost2010PropOp34
 70
     1
102
RTVSPost2010Prop35
280
     0
102
RTVSPost2010PropOp35
 70
     1
102
RTVSPost2010Prop36
280
     0
102
RTVSPost2010PropOp36
 70
     1
102
RTVSPost2010Prop37
 90
       50
102
RTVSPost2010PropOp37
 70
     1
102
RTVSPost2010Prop38
140
0.0
102
RTVSPost2010PropOp38
 70
     1
102
RTVSPost2010Prop39
140
1.0
102
RTVSPost2010PropOp39
 70
     1
102
RTVSPost2010Prop40
 90
        0
102
RTVSPost2010PropOp40
 70
     1
102
RTVSPost2010Prop41ColorIndex
 90
       18
102
RTVSPost2010Prop41ColorRGB
 90
        0
102
RTVSPost2010PropOp41
 70
     1
102
RTVSPost2010Prop42
 90
       50
102
RTVSPost2010PropOp42
 70
     1
102
RTVSPost2010Prop43
 90
        3
102
RTVSPost2010PropOp43
 70
     1
102
RTVSPost2010Prop44ColorIndex
 90
        5
102
RTVSPost2010Prop44ColorRGB
 90
      255
102
RTVSPost2010PropOp44
 70
     1
102
RTVSPost2010Prop45
280
     0
102
RTVSPost2010PropOp45
 70
     1
102
RTVSPost2010Prop46
 90
       50
102
RTVSPost2010PropOp46
 70
     1
102
RTVSPost2010Prop47
 90
       50
102
RTVSPost2010PropOp47
 70
     1
102
RTVSPost2010Prop48
 90
       50
102
RTVSPost2010PropOp48
 70
     1
102
RTVSPost2010Prop49
280
     0
102
RTVSPost2010PropOp49
 70
     1
102
RTVSPost2010Prop50
 90
       50
102
RTVSPost2010PropOp50
 70
     1
102
RTVSPost2010Prop51ColorIndex
 90
      256
102
RTVSPost2010Prop51ColorRGB
 90
-16777216
102
RTVSPost2010PropOp51
 70
     0
102
RTVSPost2010Prop52
140
1.0
102
RTVSPost2010PropOp52
 70
     0
102
RTVSPost2010Prop53
 90
        2
102
RTVSPost2010PropOp53
 70
     1
102
RTVSPost2010Prop54
  1
strokes_ogs.tif
102
RTVSPost2010PropOp54
 70
     1
102
RTVSPost2010Prop55
280
     0
102
RTVSPost2010PropOp55
 70
     1
102
RTVSPost2010Prop56
140
1.0
102
RTVSPost2010PropOp56
 70
     1
102
RTVSPost2010Prop57
140
1.0
102
RTVSPost2010PropOp57
 70
     1
102
RTVSPropertyOp0
 70
     1
102
RTVSPropertyOp1
 70
     1
102
RTVSPropertyOp2
 70
     1
102
RTVSPropertyOp3
 70
     1
102
RTVSPropertyOp4
 70
     1
102
RTVSPropertyOp5
 70
     1
102
RTVSPropertyOp6
 70
     1
102
RTVSPropertyOp7
 70
     1
102
RTVSPropertyOp8
 70
     1
102
RTVSPropertyOp9
 70
     1
102
RTVSPropertyOp10
 70
     1
102
RTVSPropertyOp11
 70
     1
102
RTVSPropertyOp12
 70
     1
102
RTVSPropertyOp13
 70
     1
102
RTVSPropertyOp14
 70
     1
102
RTVSPropertyOp15
 70
     1
102
RTVSPropertyOp16
 70
     1
102
RTVSPropertyOp17
 70
     1
102
RTVSPropertyOp18
 70
     1
102
RTVSPropertyOp19
 70
     1
102
RTVSPropertyOp20
 70
     1
102
RTVSPropertyOp21
 70
     1
102
RTVSPropertyOp22
 70
     1
102
RTVSPropertyOp23
 70
     1
102
RTVSPropertyOp24
 70
     1
102
RTVSPropertyOp25
 70
     1
102
RTVSPropertyOp26
 70
     1
102
RTVSPropertyOp27
 70
     1
102
RTVSPropertyOp28
 70
     1
102
RTVSPropertyOp29
 70
     1
102
RTVSPropertyOp30
 70
     1
102
RTVSPropertyOp31
 70
     1
102
RTVSPropertyOp32
 70
     1
102
RTVSPropertyOp33
 70
     1
102
RTVSPropertyOp34
 70
     1
102
RTVSPropertyOp35
 70
     1
102
RTVSPropertyOp36
 70
     1
102
RTVSPropertyOp37
 70
     1
102
RTVSPropertyOp38
 70
     1
102
RTVSPropertyOp39
 70
     1
102
RTVSPropertyOp40
 70
     1
102
RTVSPropertyOp41
 70
     1
102
RTVSPropertyOp42
 70
     1
102
RTVSPropertyOp43
 70
     1
102
RTVSPropertyOp44
 70
     1
102
RTVSPropertyOp45
 70
     1
102
RTVSPropertyOp46
 70
     1
102
RTVSPropertyOp47
 70
     1
102
RTVSPropertyOp48
 70
     1
102
RTVSPropertyOp49
 70
     1
102
RTVSPropertyOp50
 70
     1
102
RTVSPropertyOp51
 70
     0
102
RTVSPropertyOp52
 70
     0
102
RTVSPropertyOp53
 70
     1
102
RTVSPropertyOp54
 70
     1
102
RTVSPropertyOp55
 70
     1
102
RTVSPropertyOp56
 70
     1
102
RTVSPropertyOp57
 70
     1
102
RTVSPropertyOp58
 70
     1
102
RTVSPropertyOp59
 70
     1
102
RTVSPropertyOp60
 70
     1
102
RTVSPropertyOp61
 70
     1
102
RTVSPropertyOp62
 70
     1
  0
XRECORD
  5
4AE
102
{ACAD_REACTORS
330
4AD
102
}
330
4AD
100
AcDbXrecord
280
     1
102
RTVSPost2010Prop28
280
     0
102
RTVSPost2010PropOp28
 70
     1
102
RTVSPost2010Prop29
280
     1
102
RTVSPost2010PropOp29
 70
     1
102
RTVSPost2010Prop30
280
     1
102
RTVSPost2010PropOp30
 70
     1
102
RTVSPost2010Prop31
280
     0
102
RTVSPost2010PropOp31
 70
     1
102
RTVSPost2010Prop32
280
     0
102
RTVSPost2010PropOp32
 70
     1
102
RTVSPost2010Prop33
280
     0
102
RTVSPost2010PropOp33
 70
     1
102
RTVSPost2010Prop34
280
     0
102
RTVSPost2010PropOp34
 70
     1
102
RTVSPost2010Prop35
280
     0
102
RTVSPost2010PropOp35
 70
     1
102
RTVSPost2010Prop36
280
     0
102
RTVSPost2010PropOp36
 70
     1
102
RTVSPost2010Prop37
 90
       50
102
RTVSPost2010PropOp37
 70
     1
102
RTVSPost2010Prop38
140
0.0
102
RTVSPost2010PropOp38
 70
     1
102
RTVSPost2010Prop39
140
1.0
102
RTVSPost2010PropOp39
 70
     1
102
RTVSPost2010Prop40
 90
        0
102
RTVSPost2010PropOp40
 70
     1
102
RTVSPost2010Prop41ColorIndex
 90
       18
102
RTVSPost2010Prop41ColorRGB
 90
        0
102
RTVSPost2010PropOp41
 70
     1
102
RTVSPost2010Prop42
 90
       50
102
RTVSPost2010PropOp42
 70
     1
102
RTVSPost2010Prop43
 90
        3
102
RTVSPost2010PropOp43
 70
     1
102
RTVSPost2010Prop44ColorIndex
 90
        5
102
RTVSPost2010Prop44ColorRGB
 90
      255
102
RTVSPost2010PropOp44
 70
     1
102
RTVSPost2010Prop45
280
     0
102
RTVSPost2010PropOp45
 70
     1
102
RTVSPost2010Prop46
 90
       50
102
RTVSPost2010PropOp46
 70
     1
102
RTVSPost2010Prop47
 90
       50
102
RTVSPost2010PropOp47
 70
     1
102
RTVSPost2010Prop48
 90
       50
102
RTVSPost2010PropOp48
 70
     1
102
RTVSPost2010Prop49
280
     0
102
RTVSPost2010PropOp49
 70
     1
102
RTVSPost2010Prop50
 90
       50
102
RTVSPost2010PropOp50
 70
     1
102
RTVSPost2010Prop51ColorIndex
 90
      256
102
RTVSPost2010Prop51ColorRGB
 90
-16777216
102
RTVSPost2010PropOp51
 70
     0
102
RTVSPost2010Prop52
140
1.0
102
RTVSPost2010PropOp52
 70
     0
102
RTVSPost2010Prop53
 90
        2
102
RTVSPost2010PropOp53
 70
     1
102
RTVSPost2010Prop54
  1
strokes_ogs.tif
102
RTVSPost2010PropOp54
 70
     1
102
RTVSPost2010Prop55
280
     0
102
RTVSPost2010PropOp55
 70
     1
102
RTVSPost2010Prop56
140
1.0
102
RTVSPost2010PropOp56
 70
     1
102
RTVSPost2010Prop57
140
1.0
102
RTVSPost2010PropOp57
 70
     1
102
RTVSPropertyOp0
 70
     1
102
RTVSPropertyOp1
 70
     1
102
RTVSPropertyOp2
 70
     1
102
RTVSPropertyOp3
 70
     1
102
RTVSPropertyOp4
 70
     1
102
RTVSPropertyOp5
 70
     1
102
RTVSPropertyOp6
 70
     1
102
RTVSPropertyOp7
 70
     1
102
RTVSPropertyOp8
 70
     1
102
RTVSPropertyOp9
 70
     1
102
RTVSPropertyOp10
 70
     1
102
RTVSPropertyOp11
 70
     1
102
RTVSPropertyOp12
 70
     1
102
RTVSPropertyOp13
 70
     1
102
RTVSPropertyOp14
 70
     1
102
RTVSPropertyOp15
 70
     1
102
RTVSPropertyOp16
 70
     1
102
RTVSPropertyOp17
 70
     1
102
RTVSPropertyOp18
 70
     1
102
RTVSPropertyOp19
 70
     1
102
RTVSPropertyOp20
 70
     1
102
RTVSPropertyOp21
 70
     1
102
RTVSPropertyOp22
 70
     1
102
RTVSPropertyOp23
 70
     1
102
RTVSPropertyOp24
 70
     1
102
RTVSPropertyOp25
 70
     1
102
RTVSPropertyOp26
 70
     1
102
RTVSPropertyOp27
 70
     1
102
RTVSPropertyOp28
 70
     1
102
RTVSPropertyOp29
 70
     1
102
RTVSPropertyOp30
 70
     1
102
RTVSPropertyOp31
 70
     1
102
RTVSPropertyOp32
 70
     1
102
RTVSPropertyOp33
 70
     1
102
RTVSPropertyOp34
 70
     1
102
RTVSPropertyOp35
 70
     1
102
RTVSPropertyOp36
 70
     1
102
RTVSPropertyOp37
 70
     1
102
RTVSPropertyOp38
 70
     1
102
RTVSPropertyOp39
 70
     1
102
RTVSPropertyOp40
 70
     1
102
RTVSPropertyOp41
 70
     1
102
RTVSPropertyOp42
 70
     1
102
RTVSPropertyOp43
 70
     1
102
RTVSPropertyOp44
 70
     1
102
RTVSPropertyOp45
 70
     1
102
RTVSPropertyOp46
 70
     1
102
RTVSPropertyOp47
 70
     1
102
RTVSPropertyOp48
 70
     1
102
RTVSPropertyOp49
 70
     1
102
RTVSPropertyOp50
 70
     1
102
RTVSPropertyOp51
 70
     0
102
RTVSPropertyOp52
 70
     0
102
RTVSPropertyOp53
 70
     1
102
RTVSPropertyOp54
 70
     1
102
RTVSPropertyOp55
 70
     1
102
RTVSPropertyOp56
 70
     1
102
RTVSPropertyOp57
 70
     1
102
RTVSPropertyOp58
 70
     1
102
RTVSPropertyOp59
 70
     1
102
RTVSPropertyOp60
 70
     1
102
RTVSPropertyOp61
 70
     1
102
RTVSPropertyOp62
 70
     1
  0
XRECORD
  5
4B0
102
{ACAD_REACTORS
330
4AF
102
}
330
4AF
100
AcDbXrecord
280
     1
102
RTVSPost2010Prop28
280
     0
102
RTVSPost2010PropOp28
 70
     1
102
RTVSPost2010Prop29
280
     1
102
RTVSPost2010PropOp29
 70
     1
102
RTVSPost2010Prop30
280
     1
102
RTVSPost2010PropOp30
 70
     1
102
RTVSPost2010Prop31
280
     0
102
RTVSPost2010PropOp31
 70
     1
102
RTVSPost2010Prop32
280
     0
102
RTVSPost2010PropOp32
 70
     1
102
RTVSPost2010Prop33
280
     0
102
RTVSPost2010PropOp33
 70
     1
102
RTVSPost2010Prop34
280
     0
102
RTVSPost2010PropOp34
 70
     1
102
RTVSPost2010Prop35
280
     0
102
RTVSPost2010PropOp35
 70
     1
102
RTVSPost2010Prop36
280
     0
102
RTVSPost2010PropOp36
 70
     1
102
RTVSPost2010Prop37
 90
       50
102
RTVSPost2010PropOp37
 70
     1
102
RTVSPost2010Prop38
140
0.0
102
RTVSPost2010PropOp38
 70
     1
102
RTVSPost2010Prop39
140
1.0
102
RTVSPost2010PropOp39
 70
     1
102
RTVSPost2010Prop40
 90
        0
102
RTVSPost2010PropOp40
 70
     1
102
RTVSPost2010Prop41ColorIndex
 90
       18
102
RTVSPost2010Prop41ColorRGB
 90
        0
102
RTVSPost2010PropOp41
 70
     1
102
RTVSPost2010Prop42
 90
       50
102
RTVSPost2010PropOp42
 70
     1
102
RTVSPost2010Prop43
 90
        3
102
RTVSPost2010PropOp43
 70
     1
102
RTVSPost2010Prop44ColorIndex
 90
        5
102
RTVSPost2010Prop44ColorRGB
 90
      255
102
RTVSPost2010PropOp44
 70
     1
102
RTVSPost2010Prop45
280
     0
102
RTVSPost2010PropOp45
 70
     1
102
RTVSPost2010Prop46
 90
       50
102
RTVSPost2010PropOp46
 70
     1
102
RTVSPost2010Prop47
 90
       50
102
RTVSPost2010PropOp47
 70
     1
102
RTVSPost2010Prop48
 90
       50
102
RTVSPost2010PropOp48
 70
     1
102
RTVSPost2010Prop49
280
     0
102
RTVSPost2010PropOp49
 70
     1
102
RTVSPost2010Prop50
 90
       50
102
RTVSPost2010PropOp50
 70
     1
102
RTVSPost2010Prop51ColorIndex
 90
      256
102
RTVSPost2010Prop51ColorRGB
 90
-16777216
102
RTVSPost2010PropOp51
 70
     0
102
RTVSPost2010Prop52
140
1.0
102
RTVSPost2010PropOp52
 70
     0
102
RTVSPost2010Prop53
 90
        2
102
RTVSPost2010PropOp53
 70
     1
102
RTVSPost2010Prop54
  1
strokes_ogs.tif
102
RTVSPost2010PropOp54
 70
     1
102
RTVSPost2010Prop55
280
     0
102
RTVSPost2010PropOp55
 70
     1
102
RTVSPost2010Prop56
140
1.0
102
RTVSPost2010PropOp56
 70
     1
102
RTVSPost2010Prop57
140
1.0
102
RTVSPost2010PropOp57
 70
     1
102
RTVSPropertyOp0
 70
     1
102
RTVSPropertyOp1
 70
     1
102
RTVSPropertyOp2
 70
     1
102
RTVSPropertyOp3
 70
     1
102
RTVSPropertyOp4
 70
     1
102
RTVSPropertyOp5
 70
     1
102
RTVSPropertyOp6
 70
     1
102
RTVSPropertyOp7
 70
     1
102
RTVSPropertyOp8
 70
     1
102
RTVSPropertyOp9
 70
     1
102
RTVSPropertyOp10
 70
     1
102
RTVSPropertyOp11
 70
     1
102
RTVSPropertyOp12
 70
     1
102
RTVSPropertyOp13
 70
     1
102
RTVSPropertyOp14
 70
     1
102
RTVSPropertyOp15
 70
     1
102
RTVSPropertyOp16
 70
     1
102
RTVSPropertyOp17
 70
     1
102
RTVSPropertyOp18
 70
     1
102
RTVSPropertyOp19
 70
     1
102
RTVSPropertyOp20
 70
     1
102
RTVSPropertyOp21
 70
     1
102
RTVSPropertyOp22
 70
     1
102
RTVSPropertyOp23
 70
     1
102
RTVSPropertyOp24
 70
     1
102
RTVSPropertyOp25
 70
     1
102
RTVSPropertyOp26
 70
     1
102
RTVSPropertyOp27
 70
     1
102
RTVSPropertyOp28
 70
     1
102
RTVSPropertyOp29
 70
     1
102
RTVSPropertyOp30
 70
     1
102
RTVSPropertyOp31
 70
     1
102
RTVSPropertyOp32
 70
     1
102
RTVSPropertyOp33
 70
     1
102
RTVSPropertyOp34
 70
     1
102
RTVSPropertyOp35
 70
     1
102
RTVSPropertyOp36
 70
     1
102
RTVSPropertyOp37
 70
     1
102
RTVSPropertyOp38
 70
     1
102
RTVSPropertyOp39
 70
     1
102
RTVSPropertyOp40
 70
     1
102
RTVSPropertyOp41
 70
     1
102
RTVSPropertyOp42
 70
     1
102
RTVSPropertyOp43
 70
     1
102
RTVSPropertyOp44
 70
     1
102
RTVSPropertyOp45
 70
     1
102
RTVSPropertyOp46
 70
     1
102
RTVSPropertyOp47
 70
     1
102
RTVSPropertyOp48
 70
     1
102
RTVSPropertyOp49
 70
     1
102
RTVSPropertyOp50
 70
     1
102
RTVSPropertyOp51
 70
     0
102
RTVSPropertyOp52
 70
     0
102
RTVSPropertyOp53
 70
     1
102
RTVSPropertyOp54
 70
     1
102
RTVSPropertyOp55
 70
     1
102
RTVSPropertyOp56
 70
     1
102
RTVSPropertyOp57
 70
     1
102
RTVSPropertyOp58
 70
     1
102
RTVSPropertyOp59
 70
     1
102
RTVSPropertyOp60
 70
     1
102
RTVSPropertyOp61
 70
     1
102
RTVSPropertyOp62
 70
     1
  0
XRECORD
  5
4B8
102
{ACAD_REACTORS
330
4B7
102
}
330
4B7
100
AcDbXrecord
280
     1
102
RTVSPost2010Prop28
280
     0
102
RTVSPost2010PropOp28
 70
     1
102
RTVSPost2010Prop29
280
     1
102
RTVSPost2010PropOp29
 70
     1
102
RTVSPost2010Prop30
280
     1
102
RTVSPost2010PropOp30
 70
     1
102
RTVSPost2010Prop31
280
     0
102
RTVSPost2010PropOp31
 70
     1
102
RTVSPost2010Prop32
280
     0
102
RTVSPost2010PropOp32
 70
     1
102
RTVSPost2010Prop33
280
     0
102
RTVSPost2010PropOp33
 70
     1
102
RTVSPost2010Prop34
280
     0
102
RTVSPost2010PropOp34
 70
     1
102
RTVSPost2010Prop35
280
     0
102
RTVSPost2010PropOp35
 70
     1
102
RTVSPost2010Prop36
280
     0
102
RTVSPost2010PropOp36
 70
     1
102
RTVSPost2010Prop37
 90
       50
102
RTVSPost2010PropOp37
 70
     1
102
RTVSPost2010Prop38
140
0.0
102
RTVSPost2010PropOp38
 70
     1
102
RTVSPost2010Prop39
140
1.0
102
RTVSPost2010PropOp39
 70
     1
102
RTVSPost2010Prop40
 90
        0
102
RTVSPost2010PropOp40
 70
     1
102
RTVSPost2010Prop41ColorIndex
 90
       18
102
RTVSPost2010Prop41ColorRGB
 90
        0
102
RTVSPost2010PropOp41
 70
     1
102
RTVSPost2010Prop42
 90
       50
102
RTVSPost2010PropOp42
 70
     1
102
RTVSPost2010Prop43
 90
        3
102
RTVSPost2010PropOp43
 70
     1
102
RTVSPost2010Prop44ColorIndex
 90
        5
102
RTVSPost2010Prop44ColorRGB
 90
      255
102
RTVSPost2010PropOp44
 70
     1
102
RTVSPost2010Prop45
280
     0
102
RTVSPost2010PropOp45
 70
     1
102
RTVSPost2010Prop46
 90
       50
102
RTVSPost2010PropOp46
 70
     1
102
RTVSPost2010Prop47
 90
       50
102
RTVSPost2010PropOp47
 70
     1
102
RTVSPost2010Prop48
 90
       50
102
RTVSPost2010PropOp48
 70
     1
102
RTVSPost2010Prop49
280
     0
102
RTVSPost2010PropOp49
 70
     1
102
RTVSPost2010Prop50
 90
       50
102
RTVSPost2010PropOp50
 70
     1
102
RTVSPost2010Prop51ColorIndex
 90
      256
102
RTVSPost2010Prop51ColorRGB
 90
-16777216
102
RTVSPost2010PropOp51
 70
     0
102
RTVSPost2010Prop52
140
1.0
102
RTVSPost2010PropOp52
 70
     0
102
RTVSPost2010Prop53
 90
        2
102
RTVSPost2010PropOp53
 70
     1
102
RTVSPost2010Prop54
  1
strokes_ogs.tif
102
RTVSPost2010PropOp54
 70
     1
102
RTVSPost2010Prop55
280
     0
102
RTVSPost2010PropOp55
 70
     1
102
RTVSPost2010Prop56
140
1.0
102
RTVSPost2010PropOp56
 70
     1
102
RTVSPost2010Prop57
140
1.0
102
RTVSPost2010PropOp57
 70
     1
102
RTVSPropertyOp0
 70
     1
102
RTVSPropertyOp1
 70
     1
102
RTVSPropertyOp2
 70
     1
102
RTVSPropertyOp3
 70
     1
102
RTVSPropertyOp4
 70
     1
102
RTVSPropertyOp5
 70
     1
102
RTVSPropertyOp6
 70
     1
102
RTVSPropertyOp7
 70
     1
102
RTVSPropertyOp8
 70
     1
102
RTVSPropertyOp9
 70
     1
102
RTVSPropertyOp10
 70
     1
102
RTVSPropertyOp11
 70
     1
102
RTVSPropertyOp12
 70
     1
102
RTVSPropertyOp13
 70
     1
102
RTVSPropertyOp14
 70
     1
102
RTVSPropertyOp15
 70
     1
102
RTVSPropertyOp16
 70
     1
102
RTVSPropertyOp17
 70
     1
102
RTVSPropertyOp18
 70
     1
102
RTVSPropertyOp19
 70
     1
102
RTVSPropertyOp20
 70
     1
102
RTVSPropertyOp21
 70
     1
102
RTVSPropertyOp22
 70
     1
102
RTVSPropertyOp23
 70
     1
102
RTVSPropertyOp24
 70
     1
102
RTVSPropertyOp25
 70
     1
102
RTVSPropertyOp26
 70
     1
102
RTVSPropertyOp27
 70
     1
102
RTVSPropertyOp28
 70
     1
102
RTVSPropertyOp29
 70
     1
102
RTVSPropertyOp30
 70
     1
102
RTVSPropertyOp31
 70
     1
102
RTVSPropertyOp32
 70
     1
102
RTVSPropertyOp33
 70
     1
102
RTVSPropertyOp34
 70
     1
102
RTVSPropertyOp35
 70
     1
102
RTVSPropertyOp36
 70
     1
102
RTVSPropertyOp37
 70
     1
102
RTVSPropertyOp38
 70
     1
102
RTVSPropertyOp39
 70
     1
102
RTVSPropertyOp40
 70
     1
102
RTVSPropertyOp41
 70
     1
102
RTVSPropertyOp42
 70
     1
102
RTVSPropertyOp43
 70
     1
102
RTVSPropertyOp44
 70
     1
102
RTVSPropertyOp45
 70
     1
102
RTVSPropertyOp46
 70
     1
102
RTVSPropertyOp47
 70
     1
102
RTVSPropertyOp48
 70
     1
102
RTVSPropertyOp49
 70
     1
102
RTVSPropertyOp50
 70
     1
102
RTVSPropertyOp51
 70
     0
102
RTVSPropertyOp52
 70
     0
102
RTVSPropertyOp53
 70
     1
102
RTVSPropertyOp54
 70
     1
102
RTVSPropertyOp55
 70
     1
102
RTVSPropertyOp56
 70
     1
102
RTVSPropertyOp57
 70
     1
102
RTVSPropertyOp58
 70
     1
102
RTVSPropertyOp59
 70
     1
102
RTVSPropertyOp60
 70
     1
102
RTVSPropertyOp61
 70
     1
102
RTVSPropertyOp62
 70
     1
  0
XRECORD
  5
4D4
102
{ACAD_REACTORS
330
4D3
102
}
330
4D3
100
AcDbXrecord
280
     1
102
RTVSPost2010Prop28
280
     0
102
RTVSPost2010PropOp28
 70
     1
102
RTVSPost2010Prop29
280
     1
102
RTVSPost2010PropOp29
 70
     1
102
RTVSPost2010Prop30
280
     1
102
RTVSPost2010PropOp30
 70
     1
102
RTVSPost2010Prop31
280
     0
102
RTVSPost2010PropOp31
 70
     1
102
RTVSPost2010Prop32
280
     0
102
RTVSPost2010PropOp32
 70
     1
102
RTVSPost2010Prop33
280
     0
102
RTVSPost2010PropOp33
 70
     1
102
RTVSPost2010Prop34
280
     0
102
RTVSPost2010PropOp34
 70
     1
102
RTVSPost2010Prop35
280
     0
102
RTVSPost2010PropOp35
 70
     1
102
RTVSPost2010Prop36
280
     0
102
RTVSPost2010PropOp36
 70
     1
102
RTVSPost2010Prop37
 90
       50
102
RTVSPost2010PropOp37
 70
     0
102
RTVSPost2010Prop38
140
0.0
102
RTVSPost2010PropOp38
 70
     0
102
RTVSPost2010Prop39
140
1.0
102
RTVSPost2010PropOp39
 70
     0
102
RTVSPost2010Prop40
 90
        0
102
RTVSPost2010PropOp40
 70
     0
102
RTVSPost2010Prop41ColorIndex
 90
       18
102
RTVSPost2010Prop41ColorRGB
 90
        0
102
RTVSPost2010PropOp41
 70
     0
102
RTVSPost2010Prop42
 90
       50
102
RTVSPost2010PropOp42
 70
     0
102
RTVSPost2010Prop43
 90
        3
102
RTVSPost2010PropOp43
 70
     0
102
RTVSPost2010Prop44ColorIndex
 90
        5
102
RTVSPost2010Prop44ColorRGB
 90
      255
102
RTVSPost2010PropOp44
 70
     0
102
RTVSPost2010Prop45
280
     0
102
RTVSPost2010PropOp45
 70
     1
102
RTVSPost2010Prop46
 90
       50
102
RTVSPost2010PropOp46
 70
     0
102
RTVSPost2010Prop47
 90
       50
102
RTVSPost2010PropOp47
 70
     0
102
RTVSPost2010Prop48
 90
       50
102
RTVSPost2010PropOp48
 70
     0
102
RTVSPost2010Prop49
280
     0
102
RTVSPost2010PropOp49
 70
     1
102
RTVSPost2010Prop50
 90
       50
102
RTVSPost2010PropOp50
 70
     0
102
RTVSPost2010Prop51ColorIndex
 90
      256
102
RTVSPost2010Prop51ColorRGB
 90
-16777216
102
RTVSPost2010PropOp51
 70
     0
102
RTVSPost2010Prop52
140
1.0
102
RTVSPost2010PropOp52
 70
     0
102
RTVSPost2010Prop53
 90
        2
102
RTVSPost2010PropOp53
 70
     0
102
RTVSPost2010Prop54
  1
strokes_ogs.tif
102
RTVSPost2010PropOp54
 70
     0
102
RTVSPost2010Prop55
280
     0
102
RTVSPost2010PropOp55
 70
     1
102
RTVSPost2010Prop56
140
1.0
102
RTVSPost2010PropOp56
 70
     0
102
RTVSPost2010Prop57
140
1.0
102
RTVSPost2010PropOp57
 70
     0
102
RTVSPropertyOp0
 70
     0
102
RTVSPropertyOp1
 70
     0
102
RTVSPropertyOp2
 70
     0
102
RTVSPropertyOp3
 70
     0
102
RTVSPropertyOp4
 70
     0
102
RTVSPropertyOp5
 70
     0
102
RTVSPropertyOp6
 70
     0
102
RTVSPropertyOp7
 70
     0
102
RTVSPropertyOp8
 70
     0
102
RTVSPropertyOp9
 70
     0
102
RTVSPropertyOp10
 70
     0
102
RTVSPropertyOp11
 70
     0
102
RTVSPropertyOp12
 70
     0
102
RTVSPropertyOp13
 70
     0
102
RTVSPropertyOp14
 70
     2
102
RTVSPropertyOp15
 70
     0
102
RTVSPropertyOp16
 70
     0
102
RTVSPropertyOp17
 70
     0
102
RTVSPropertyOp18
 70
     0
102
RTVSPropertyOp19
 70
     0
102
RTVSPropertyOp20
 70
     0
102
RTVSPropertyOp21
 70
     0
102
RTVSPropertyOp22
 70
     0
102
RTVSPropertyOp23
 70
     0
102
RTVSPropertyOp24
 70
     0
102
RTVSPropertyOp25
 70
     0
102
RTVSPropertyOp26
 70
     0
102
RTVSPropertyOp27
 70
     0
102
RTVSPropertyOp28
 70
     1
102
RTVSPropertyOp29
 70
     1
102
RTVSPropertyOp30
 70
     1
102
RTVSPropertyOp31
 70
     1
102
RTVSPropertyOp32
 70
     1
102
RTVSPropertyOp33
 70
     1
102
RTVSPropertyOp34
 70
     1
102
RTVSPropertyOp35
 70
     1
102
RTVSPropertyOp36
 70
     1
102
RTVSPropertyOp37
 70
     0
102
RTVSPropertyOp38
 70
     0
102
RTVSPropertyOp39
 70
     0
102
RTVSPropertyOp40
 70
     0
102
RTVSPropertyOp41
 70
     0
102
RTVSPropertyOp42
 70
     0
102
RTVSPropertyOp43
 70
     0
102
RTVSPropertyOp44
 70
     0
102
RTVSPropertyOp45
 70
     1
102
RTVSPropertyOp46
 70
     0
102
RTVSPropertyOp47
 70
     0
102
RTVSPropertyOp48
 70
     0
102
RTVSPropertyOp49
 70
     1
102
RTVSPropertyOp50
 70
     0
102
RTVSPropertyOp51
 70
     0
102
RTVSPropertyOp52
 70
     0
102
RTVSPropertyOp53
 70
     0
102
RTVSPropertyOp54
 70
     0
102
RTVSPropertyOp55
 70
     1
102
RTVSPropertyOp56
 70
     0
102
RTVSPropertyOp57
 70
     0
102
RTVSPropertyOp58
 70
     0
102
RTVSPropertyOp59
 70
     0
102
RTVSPropertyOp60
 70
     0
102
RTVSPropertyOp61
 70
     0
102
RTVSPropertyOp62
 70
     0
  0
XRECORD
  5
4C4
102
{ACAD_REACTORS
330
4C3
102
}
330
4C3
100
AcDbXrecord
280
     1
102
RTVSPost2010Prop28
280
     0
102
RTVSPost2010PropOp28
 70
     1
102
RTVSPost2010Prop29
280
     1
102
RTVSPost2010PropOp29
 70
     1
102
RTVSPost2010Prop30
280
     1
102
RTVSPost2010PropOp30
 70
     1
102
RTVSPost2010Prop31
280
     0
102
RTVSPost2010PropOp31
 70
     1
102
RTVSPost2010Prop32
280
     0
102
RTVSPost2010PropOp32
 70
     1
102
RTVSPost2010Prop33
280
     0
102
RTVSPost2010PropOp33
 70
     1
102
RTVSPost2010Prop34
280
     0
102
RTVSPost2010PropOp34
 70
     1
102
RTVSPost2010Prop35
280
     0
102
RTVSPost2010PropOp35
 70
     1
102
RTVSPost2010Prop36
280
     0
102
RTVSPost2010PropOp36
 70
     1
102
RTVSPost2010Prop37
 90
       50
102
RTVSPost2010PropOp37
 70
     1
102
RTVSPost2010Prop38
140
0.0
102
RTVSPost2010PropOp38
 70
     1
102
RTVSPost2010Prop39
140
1.0
102
RTVSPost2010PropOp39
 70
     1
102
RTVSPost2010Prop40
 90
        0
102
RTVSPost2010PropOp40
 70
     1
102
RTVSPost2010Prop41ColorIndex
 90
       18
102
RTVSPost2010Prop41ColorRGB
 90
        0
102
RTVSPost2010PropOp41
 70
     1
102
RTVSPost2010Prop42
 90
       50
102
RTVSPost2010PropOp42
 70
     1
102
RTVSPost2010Prop43
 90
        3
102
RTVSPost2010PropOp43
 70
     1
102
RTVSPost2010Prop44ColorIndex
 90
        5
102
RTVSPost2010Prop44ColorRGB
 90
      255
102
RTVSPost2010PropOp44
 70
     1
102
RTVSPost2010Prop45
280
     0
102
RTVSPost2010PropOp45
 70
     1
102
RTVSPost2010Prop46
 90
       50
102
RTVSPost2010PropOp46
 70
     1
102
RTVSPost2010Prop47
 90
       50
102
RTVSPost2010PropOp47
 70
     1
102
RTVSPost2010Prop48
 90
       50
102
RTVSPost2010PropOp48
 70
     1
102
RTVSPost2010Prop49
280
     0
102
RTVSPost2010PropOp49
 70
     1
102
RTVSPost2010Prop50
 90
       50
102
RTVSPost2010PropOp50
 70
     1
102
RTVSPost2010Prop51ColorIndex
 90
      256
102
RTVSPost2010Prop51ColorRGB
 90
-16777216
102
RTVSPost2010PropOp51
 70
     0
102
RTVSPost2010Prop52
140
1.0
102
RTVSPost2010PropOp52
 70
     0
102
RTVSPost2010Prop53
 90
        2
102
RTVSPost2010PropOp53
 70
     1
102
RTVSPost2010Prop54
  1
strokes_ogs.tif
102
RTVSPost2010PropOp54
 70
     1
102
RTVSPost2010Prop55
280
     0
102
RTVSPost2010PropOp55
 70
     1
102
RTVSPost2010Prop56
140
1.0
102
RTVSPost2010PropOp56
 70
     1
102
RTVSPost2010Prop57
140
1.0
102
RTVSPost2010PropOp57
 70
     1
102
RTVSPropertyOp0
 70
     1
102
RTVSPropertyOp1
 70
     1
102
RTVSPropertyOp2
 70
     1
102
RTVSPropertyOp3
 70
     1
102
RTVSPropertyOp4
 70
     1
102
RTVSPropertyOp5
 70
     1
102
RTVSPropertyOp6
 70
     1
102
RTVSPropertyOp7
 70
     1
102
RTVSPropertyOp8
 70
     1
102
RTVSPropertyOp9
 70
     1
102
RTVSPropertyOp10
 70
     1
102
RTVSPropertyOp11
 70
     1
102
RTVSPropertyOp12
 70
     1
102
RTVSPropertyOp13
 70
     1
102
RTVSPropertyOp14
 70
     1
102
RTVSPropertyOp15
 70
     1
102
RTVSPropertyOp16
 70
     1
102
RTVSPropertyOp17
 70
     1
102
RTVSPropertyOp18
 70
     1
102
RTVSPropertyOp19
 70
     1
102
RTVSPropertyOp20
 70
     1
102
RTVSPropertyOp21
 70
     1
102
RTVSPropertyOp22
 70
     1
102
RTVSPropertyOp23
 70
     1
102
RTVSPropertyOp24
 70
     1
102
RTVSPropertyOp25
 70
     1
102
RTVSPropertyOp26
 70
     1
102
RTVSPropertyOp27
 70
     1
102
RTVSPropertyOp28
 70
     1
102
RTVSPropertyOp29
 70
     1
102
RTVSPropertyOp30
 70
     1
102
RTVSPropertyOp31
 70
     1
102
RTVSPropertyOp32
 70
     1
102
RTVSPropertyOp33
 70
     1
102
RTVSPropertyOp34
 70
     1
102
RTVSPropertyOp35
 70
     1
102
RTVSPropertyOp36
 70
     1
102
RTVSPropertyOp37
 70
     1
102
RTVSPropertyOp38
 70
     1
102
RTVSPropertyOp39
 70
     1
102
RTVSPropertyOp40
 70
     1
102
RTVSPropertyOp41
 70
     1
102
RTVSPropertyOp42
 70
     1
102
RTVSPropertyOp43
 70
     1
102
RTVSPropertyOp44
 70
     1
102
RTVSPropertyOp45
 70
     1
102
RTVSPropertyOp46
 70
     1
102
RTVSPropertyOp47
 70
     1
102
RTVSPropertyOp48
 70
     1
102
RTVSPropertyOp49
 70
     1
102
RTVSPropertyOp50
 70
     1
102
RTVSPropertyOp51
 70
     0
102
RTVSPropertyOp52
 70
     0
102
RTVSPropertyOp53
 70
     1
102
RTVSPropertyOp54
 70
     1
102
RTVSPropertyOp55
 70
     1
102
RTVSPropertyOp56
 70
     1
102
RTVSPropertyOp57
 70
     1
102
RTVSPropertyOp58
 70
     1
102
RTVSPropertyOp59
 70
     1
102
RTVSPropertyOp60
 70
     1
102
RTVSPropertyOp61
 70
     1
102
RTVSPropertyOp62
 70
     1
  0
XRECORD
  5
4D6
102
{ACAD_REACTORS
330
4D5
102
}
330
4D5
100
AcDbXrecord
280
     1
102
RTVSPost2010Prop28
280
     0
102
RTVSPost2010PropOp28
 70
     1
102
RTVSPost2010Prop29
280
     1
102
RTVSPost2010PropOp29
 70
     1
102
RTVSPost2010Prop30
280
     1
102
RTVSPost2010PropOp30
 70
     1
102
RTVSPost2010Prop31
280
     0
102
RTVSPost2010PropOp31
 70
     1
102
RTVSPost2010Prop32
280
     0
102
RTVSPost2010PropOp32
 70
     1
102
RTVSPost2010Prop33
280
     0
102
RTVSPost2010PropOp33
 70
     1
102
RTVSPost2010Prop34
280
     0
102
RTVSPost2010PropOp34
 70
     1
102
RTVSPost2010Prop35
280
     0
102
RTVSPost2010PropOp35
 70
     1
102
RTVSPost2010Prop36
280
     0
102
RTVSPost2010PropOp36
 70
     1
102
RTVSPost2010Prop37
 90
       50
102
RTVSPost2010PropOp37
 70
     0
102
RTVSPost2010Prop38
140
0.0
102
RTVSPost2010PropOp38
 70
     0
102
RTVSPost2010Prop39
140
1.0
102
RTVSPost2010PropOp39
 70
     0
102
RTVSPost2010Prop40
 90
        0
102
RTVSPost2010PropOp40
 70
     0
102
RTVSPost2010Prop41ColorIndex
 90
       18
102
RTVSPost2010Prop41ColorRGB
 90
        0
102
RTVSPost2010PropOp41
 70
     0
102
RTVSPost2010Prop42
 90
       50
102
RTVSPost2010PropOp42
 70
     0
102
RTVSPost2010Prop43
 90
        3
102
RTVSPost2010PropOp43
 70
     0
102
RTVSPost2010Prop44ColorIndex
 90
        5
102
RTVSPost2010Prop44ColorRGB
 90
      255
102
RTVSPost2010PropOp44
 70
     0
102
RTVSPost2010Prop45
280
     0
102
RTVSPost2010PropOp45
 70
     1
102
RTVSPost2010Prop46
 90
       50
102
RTVSPost2010PropOp46
 70
     0
102
RTVSPost2010Prop47
 90
       50
102
RTVSPost2010PropOp47
 70
     0
102
RTVSPost2010Prop48
 90
       50
102
RTVSPost2010PropOp48
 70
     0
102
RTVSPost2010Prop49
280
     0
102
RTVSPost2010PropOp49
 70
     1
102
RTVSPost2010Prop50
 90
       50
102
RTVSPost2010PropOp50
 70
     0
102
RTVSPost2010Prop51ColorIndex
 90
      256
102
RTVSPost2010Prop51ColorRGB
 90
-16777216
102
RTVSPost2010PropOp51
 70
     0
102
RTVSPost2010Prop52
140
1.0
102
RTVSPost2010PropOp52
 70
     0
102
RTVSPost2010Prop53
 90
        2
102
RTVSPost2010PropOp53
 70
     0
102
RTVSPost2010Prop54
  1
strokes_ogs.tif
102
RTVSPost2010PropOp54
 70
     0
102
RTVSPost2010Prop55
280
     0
102
RTVSPost2010PropOp55
 70
     1
102
RTVSPost2010Prop56
140
1.0
102
RTVSPost2010PropOp56
 70
     0
102
RTVSPost2010Prop57
140
1.0
102
RTVSPost2010PropOp57
 70
     0
102
RTVSPropertyOp0
 70
     0
102
RTVSPropertyOp1
 70
     0
102
RTVSPropertyOp2
 70
     0
102
RTVSPropertyOp3
 70
     0
102
RTVSPropertyOp4
 70
     0
102
RTVSPropertyOp5
 70
     0
102
RTVSPropertyOp6
 70
     0
102
RTVSPropertyOp7
 70
     0
102
RTVSPropertyOp8
 70
     0
102
RTVSPropertyOp9
 70
     0
102
RTVSPropertyOp10
 70
     0
102
RTVSPropertyOp11
 70
     0
102
RTVSPropertyOp12
 70
     0
102
RTVSPropertyOp13
 70
     0
102
RTVSPropertyOp14
 70
     2
102
RTVSPropertyOp15
 70
     0
102
RTVSPropertyOp16
 70
     0
102
RTVSPropertyOp17
 70
     0
102
RTVSPropertyOp18
 70
     0
102
RTVSPropertyOp19
 70
     0
102
RTVSPropertyOp20
 70
     0
102
RTVSPropertyOp21
 70
     0
102
RTVSPropertyOp22
 70
     0
102
RTVSPropertyOp23
 70
     0
102
RTVSPropertyOp24
 70
     0
102
RTVSPropertyOp25
 70
     0
102
RTVSPropertyOp26
 70
     0
102
RTVSPropertyOp27
 70
     0
102
RTVSPropertyOp28
 70
     1
102
RTVSPropertyOp29
 70
     1
102
RTVSPropertyOp30
 70
     1
102
RTVSPropertyOp31
 70
     1
102
RTVSPropertyOp32
 70
     1
102
RTVSPropertyOp33
 70
     1
102
RTVSPropertyOp34
 70
     1
102
RTVSPropertyOp35
 70
     1
102
RTVSPropertyOp36
 70
     1
102
RTVSPropertyOp37
 70
     0
102
RTVSPropertyOp38
 70
     0
102
RTVSPropertyOp39
 70
     0
102
RTVSPropertyOp40
 70
     0
102
RTVSPropertyOp41
 70
     0
102
RTVSPropertyOp42
 70
     0
102
RTVSPropertyOp43
 70
     0
102
RTVSPropertyOp44
 70
     0
102
RTVSPropertyOp45
 70
     1
102
RTVSPropertyOp46
 70
     0
102
RTVSPropertyOp47
 70
     0
102
RTVSPropertyOp48
 70
     0
102
RTVSPropertyOp49
 70
     1
102
RTVSPropertyOp50
 70
     0
102
RTVSPropertyOp51
 70
     0
102
RTVSPropertyOp52
 70
     0
102
RTVSPropertyOp53
 70
     0
102
RTVSPropertyOp54
 70
     0
102
RTVSPropertyOp55
 70
     1
102
RTVSPropertyOp56
 70
     0
102
RTVSPropertyOp57
 70
     0
102
RTVSPropertyOp58
 70
     0
102
RTVSPropertyOp59
 70
     0
102
RTVSPropertyOp60
 70
     0
102
RTVSPropertyOp61
 70
     0
102
RTVSPropertyOp62
 70
     0
  0
XRECORD
  5
4BC
102
{ACAD_REACTORS
330
4BB
102
}
330
4BB
100
AcDbXrecord
280
     1
102
RTVSPost2010Prop28
280
     0
102
RTVSPost2010PropOp28
 70
     1
102
RTVSPost2010Prop29
280
     1
102
RTVSPost2010PropOp29
 70
     1
102
RTVSPost2010Prop30
280
     1
102
RTVSPost2010PropOp30
 70
     1
102
RTVSPost2010Prop31
280
     0
102
RTVSPost2010PropOp31
 70
     1
102
RTVSPost2010Prop32
280
     0
102
RTVSPost2010PropOp32
 70
     1
102
RTVSPost2010Prop33
280
     0
102
RTVSPost2010PropOp33
 70
     1
102
RTVSPost2010Prop34
280
     0
102
RTVSPost2010PropOp34
 70
     1
102
RTVSPost2010Prop35
280
     0
102
RTVSPost2010PropOp35
 70
     1
102
RTVSPost2010Prop36
280
     0
102
RTVSPost2010PropOp36
 70
     1
102
RTVSPost2010Prop37
 90
       50
102
RTVSPost2010PropOp37
 70
     1
102
RTVSPost2010Prop38
140
0.0
102
RTVSPost2010PropOp38
 70
     1
102
RTVSPost2010Prop39
140
1.0
102
RTVSPost2010PropOp39
 70
     1
102
RTVSPost2010Prop40
 90
        0
102
RTVSPost2010PropOp40
 70
     1
102
RTVSPost2010Prop41ColorIndex
 90
       18
102
RTVSPost2010Prop41ColorRGB
 90
        0
102
RTVSPost2010PropOp41
 70
     1
102
RTVSPost2010Prop42
 90
       50
102
RTVSPost2010PropOp42
 70
     1
102
RTVSPost2010Prop43
 90
        3
102
RTVSPost2010PropOp43
 70
     1
102
RTVSPost2010Prop44ColorIndex
 90
        5
102
RTVSPost2010Prop44ColorRGB
 90
      255
102
RTVSPost2010PropOp44
 70
     1
102
RTVSPost2010Prop45
280
     0
102
RTVSPost2010PropOp45
 70
     1
102
RTVSPost2010Prop46
 90
       50
102
RTVSPost2010PropOp46
 70
     1
102
RTVSPost2010Prop47
 90
       50
102
RTVSPost2010PropOp47
 70
     1
102
RTVSPost2010Prop48
 90
       50
102
RTVSPost2010PropOp48
 70
     1
102
RTVSPost2010Prop49
280
     0
102
RTVSPost2010PropOp49
 70
     1
102
RTVSPost2010Prop50
 90
       50
102
RTVSPost2010PropOp50
 70
     1
102
RTVSPost2010Prop51ColorIndex
 90
      256
102
RTVSPost2010Prop51ColorRGB
 90
-16777216
102
RTVSPost2010PropOp51
 70
     0
102
RTVSPost2010Prop52
140
1.0
102
RTVSPost2010PropOp52
 70
     0
102
RTVSPost2010Prop53
 90
        2
102
RTVSPost2010PropOp53
 70
     1
102
RTVSPost2010Prop54
  1
strokes_ogs.tif
102
RTVSPost2010PropOp54
 70
     1
102
RTVSPost2010Prop55
280
     0
102
RTVSPost2010PropOp55
 70
     1
102
RTVSPost2010Prop56
140
1.0
102
RTVSPost2010PropOp56
 70
     1
102
RTVSPost2010Prop57
140
1.0
102
RTVSPost2010PropOp57
 70
     1
102
RTVSPropertyOp0
 70
     1
102
RTVSPropertyOp1
 70
     1
102
RTVSPropertyOp2
 70
     1
102
RTVSPropertyOp3
 70
     1
102
RTVSPropertyOp4
 70
     1
102
RTVSPropertyOp5
 70
     1
102
RTVSPropertyOp6
 70
     1
102
RTVSPropertyOp7
 70
     1
102
RTVSPropertyOp8
 70
     1
102
RTVSPropertyOp9
 70
     1
102
RTVSPropertyOp10
 70
     1
102
RTVSPropertyOp11
 70
     1
102
RTVSPropertyOp12
 70
     1
102
RTVSPropertyOp13
 70
     1
102
RTVSPropertyOp14
 70
     1
102
RTVSPropertyOp15
 70
     1
102
RTVSPropertyOp16
 70
     1
102
RTVSPropertyOp17
 70
     1
102
RTVSPropertyOp18
 70
     1
102
RTVSPropertyOp19
 70
     1
102
RTVSPropertyOp20
 70
     1
102
RTVSPropertyOp21
 70
     1
102
RTVSPropertyOp22
 70
     1
102
RTVSPropertyOp23
 70
     1
102
RTVSPropertyOp24
 70
     1
102
RTVSPropertyOp25
 70
     1
102
RTVSPropertyOp26
 70
     1
102
RTVSPropertyOp27
 70
     1
102
RTVSPropertyOp28
 70
     1
102
RTVSPropertyOp29
 70
     1
102
RTVSPropertyOp30
 70
     1
102
RTVSPropertyOp31
 70
     1
102
RTVSPropertyOp32
 70
     1
102
RTVSPropertyOp33
 70
     1
102
RTVSPropertyOp34
 70
     1
102
RTVSPropertyOp35
 70
     1
102
RTVSPropertyOp36
 70
     1
102
RTVSPropertyOp37
 70
     1
102
RTVSPropertyOp38
 70
     1
102
RTVSPropertyOp39
 70
     1
102
RTVSPropertyOp40
 70
     1
102
RTVSPropertyOp41
 70
     1
102
RTVSPropertyOp42
 70
     1
102
RTVSPropertyOp43
 70
     1
102
RTVSPropertyOp44
 70
     1
102
RTVSPropertyOp45
 70
     1
102
RTVSPropertyOp46
 70
     1
102
RTVSPropertyOp47
 70
     1
102
RTVSPropertyOp48
 70
     1
102
RTVSPropertyOp49
 70
     1
102
RTVSPropertyOp50
 70
     1
102
RTVSPropertyOp51
 70
     0
102
RTVSPropertyOp52
 70
     0
102
RTVSPropertyOp53
 70
     1
102
RTVSPropertyOp54
 70
     1
102
RTVSPropertyOp55
 70
     1
102
RTVSPropertyOp56
 70
     1
102
RTVSPropertyOp57
 70
     1
102
RTVSPropertyOp58
 70
     1
102
RTVSPropertyOp59
 70
     1
102
RTVSPropertyOp60
 70
     1
102
RTVSPropertyOp61
 70
     1
102
RTVSPropertyOp62
 70
     1
  0
XRECORD
  5
4D2
102
{ACAD_REACTORS
330
4D1
102
}
330
4D1
100
AcDbXrecord
280
     1
102
RTVSPost2010Prop28
280
     0
102
RTVSPost2010PropOp28
 70
     1
102
RTVSPost2010Prop29
280
     1
102
RTVSPost2010PropOp29
 70
     1
102
RTVSPost2010Prop30
280
     1
102
RTVSPost2010PropOp30
 70
     1
102
RTVSPost2010Prop31
280
     0
102
RTVSPost2010PropOp31
 70
     1
102
RTVSPost2010Prop32
280
     0
102
RTVSPost2010PropOp32
 70
     1
102
RTVSPost2010Prop33
280
     0
102
RTVSPost2010PropOp33
 70
     1
102
RTVSPost2010Prop34
280
     0
102
RTVSPost2010PropOp34
 70
     1
102
RTVSPost2010Prop35
280
     0
102
RTVSPost2010PropOp35
 70
     1
102
RTVSPost2010Prop36
280
     0
102
RTVSPost2010PropOp36
 70
     1
102
RTVSPost2010Prop37
 90
       50
102
RTVSPost2010PropOp37
 70
     1
102
RTVSPost2010Prop38
140
0.0
102
RTVSPost2010PropOp38
 70
     1
102
RTVSPost2010Prop39
140
1.0
102
RTVSPost2010PropOp39
 70
     1
102
RTVSPost2010Prop40
 90
        0
102
RTVSPost2010PropOp40
 70
     1
102
RTVSPost2010Prop41ColorIndex
 90
       18
102
RTVSPost2010Prop41ColorRGB
 90
        0
102
RTVSPost2010PropOp41
 70
     1
102
RTVSPost2010Prop42
 90
       50
102
RTVSPost2010PropOp42
 70
     1
102
RTVSPost2010Prop43
 90
        3
102
RTVSPost2010PropOp43
 70
     1
102
RTVSPost2010Prop44ColorIndex
 90
        5
102
RTVSPost2010Prop44ColorRGB
 90
      255
102
RTVSPost2010PropOp44
 70
     1
102
RTVSPost2010Prop45
280
     0
102
RTVSPost2010PropOp45
 70
     1
102
RTVSPost2010Prop46
 90
       50
102
RTVSPost2010PropOp46
 70
     1
102
RTVSPost2010Prop47
 90
       50
102
RTVSPost2010PropOp47
 70
     1
102
RTVSPost2010Prop48
 90
       50
102
RTVSPost2010PropOp48
 70
     1
102
RTVSPost2010Prop49
280
     0
102
RTVSPost2010PropOp49
 70
     1
102
RTVSPost2010Prop50
 90
       50
102
RTVSPost2010PropOp50
 70
     1
102
RTVSPost2010Prop51ColorIndex
 90
      256
102
RTVSPost2010Prop51ColorRGB
 90
-16777216
102
RTVSPost2010PropOp51
 70
     0
102
RTVSPost2010Prop52
140
1.0
102
RTVSPost2010PropOp52
 70
     0
102
RTVSPost2010Prop53
 90
        2
102
RTVSPost2010PropOp53
 70
     1
102
RTVSPost2010Prop54
  1
strokes_ogs.tif
102
RTVSPost2010PropOp54
 70
     1
102
RTVSPost2010Prop55
280
     0
102
RTVSPost2010PropOp55
 70
     1
102
RTVSPost2010Prop56
140
1.0
102
RTVSPost2010PropOp56
 70
     1
102
RTVSPost2010Prop57
140
1.0
102
RTVSPost2010PropOp57
 70
     1
102
RTVSPropertyOp0
 70
     1
102
RTVSPropertyOp1
 70
     1
102
RTVSPropertyOp2
 70
     1
102
RTVSPropertyOp3
 70
     1
102
RTVSPropertyOp4
 70
     1
102
RTVSPropertyOp5
 70
     1
102
RTVSPropertyOp6
 70
     1
102
RTVSPropertyOp7
 70
     1
102
RTVSPropertyOp8
 70
     1
102
RTVSPropertyOp9
 70
     1
102
RTVSPropertyOp10
 70
     1
102
RTVSPropertyOp11
 70
     1
102
RTVSPropertyOp12
 70
     1
102
RTVSPropertyOp13
 70
     1
102
RTVSPropertyOp14
 70
     1
102
RTVSPropertyOp15
 70
     1
102
RTVSPropertyOp16
 70
     1
102
RTVSPropertyOp17
 70
     1
102
RTVSPropertyOp18
 70
     1
102
RTVSPropertyOp19
 70
     1
102
RTVSPropertyOp20
 70
     1
102
RTVSPropertyOp21
 70
     1
102
RTVSPropertyOp22
 70
     1
102
RTVSPropertyOp23
 70
     1
102
RTVSPropertyOp24
 70
     1
102
RTVSPropertyOp25
 70
     1
102
RTVSPropertyOp26
 70
     1
102
RTVSPropertyOp27
 70
     1
102
RTVSPropertyOp28
 70
     1
102
RTVSPropertyOp29
 70
     1
102
RTVSPropertyOp30
 70
     1
102
RTVSPropertyOp31
 70
     1
102
RTVSPropertyOp32
 70
     1
102
RTVSPropertyOp33
 70
     1
102
RTVSPropertyOp34
 70
     1
102
RTVSPropertyOp35
 70
     1
102
RTVSPropertyOp36
 70
     1
102
RTVSPropertyOp37
 70
     1
102
RTVSPropertyOp38
 70
     1
102
RTVSPropertyOp39
 70
     1
102
RTVSPropertyOp40
 70
     1
102
RTVSPropertyOp41
 70
     1
102
RTVSPropertyOp42
 70
     1
102
RTVSPropertyOp43
 70
     1
102
RTVSPropertyOp44
 70
     1
102
RTVSPropertyOp45
 70
     1
102
RTVSPropertyOp46
 70
     1
102
RTVSPropertyOp47
 70
     1
102
RTVSPropertyOp48
 70
     1
102
RTVSPropertyOp49
 70
     1
102
RTVSPropertyOp50
 70
     1
102
RTVSPropertyOp51
 70
     0
102
RTVSPropertyOp52
 70
     0
102
RTVSPropertyOp53
 70
     1
102
RTVSPropertyOp54
 70
     1
102
RTVSPropertyOp55
 70
     1
102
RTVSPropertyOp56
 70
     1
102
RTVSPropertyOp57
 70
     1
102
RTVSPropertyOp58
 70
     1
102
RTVSPropertyOp59
 70
     1
102
RTVSPropertyOp60
 70
     1
102
RTVSPropertyOp61
 70
     1
102
RTVSPropertyOp62
 70
     1
  0
XRECORD
  5
4D0
102
{ACAD_REACTORS
330
4CF
102
}
330
4CF
100
AcDbXrecord
280
     1
102
RTVSPost2010Prop28
280
     0
102
RTVSPost2010PropOp28
 70
     1
102
RTVSPost2010Prop29
280
     1
102
RTVSPost2010PropOp29
 70
     1
102
RTVSPost2010Prop30
280
     1
102
RTVSPost2010PropOp30
 70
     1
102
RTVSPost2010Prop31
280
     0
102
RTVSPost2010PropOp31
 70
     1
102
RTVSPost2010Prop32
280
     0
102
RTVSPost2010PropOp32
 70
     1
102
RTVSPost2010Prop33
280
     0
102
RTVSPost2010PropOp33
 70
     1
102
RTVSPost2010Prop34
280
     0
102
RTVSPost2010PropOp34
 70
     1
102
RTVSPost2010Prop35
280
     0
102
RTVSPost2010PropOp35
 70
     1
102
RTVSPost2010Prop36
280
     0
102
RTVSPost2010PropOp36
 70
     1
102
RTVSPost2010Prop37
 90
       50
102
RTVSPost2010PropOp37
 70
     1
102
RTVSPost2010Prop38
140
0.0
102
RTVSPost2010PropOp38
 70
     1
102
RTVSPost2010Prop39
140
1.0
102
RTVSPost2010PropOp39
 70
     1
102
RTVSPost2010Prop40
 90
        0
102
RTVSPost2010PropOp40
 70
     1
102
RTVSPost2010Prop41ColorIndex
 90
       18
102
RTVSPost2010Prop41ColorRGB
 90
        0
102
RTVSPost2010PropOp41
 70
     1
102
RTVSPost2010Prop42
 90
       50
102
RTVSPost2010PropOp42
 70
     1
102
RTVSPost2010Prop43
 90
        3
102
RTVSPost2010PropOp43
 70
     1
102
RTVSPost2010Prop44ColorIndex
 90
        5
102
RTVSPost2010Prop44ColorRGB
 90
      255
102
RTVSPost2010PropOp44
 70
     1
102
RTVSPost2010Prop45
280
     0
102
RTVSPost2010PropOp45
 70
     1
102
RTVSPost2010Prop46
 90
       50
102
RTVSPost2010PropOp46
 70
     1
102
RTVSPost2010Prop47
 90
       50
102
RTVSPost2010PropOp47
 70
     1
102
RTVSPost2010Prop48
 90
       50
102
RTVSPost2010PropOp48
 70
     1
102
RTVSPost2010Prop49
280
     0
102
RTVSPost2010PropOp49
 70
     1
102
RTVSPost2010Prop50
 90
       50
102
RTVSPost2010PropOp50
 70
     1
102
RTVSPost2010Prop51ColorIndex
 90
      256
102
RTVSPost2010Prop51ColorRGB
 90
-16777216
102
RTVSPost2010PropOp51
 70
     0
102
RTVSPost2010Prop52
140
1.0
102
RTVSPost2010PropOp52
 70
     0
102
RTVSPost2010Prop53
 90
        2
102
RTVSPost2010PropOp53
 70
     1
102
RTVSPost2010Prop54
  1
strokes_ogs.tif
102
RTVSPost2010PropOp54
 70
     1
102
RTVSPost2010Prop55
280
     0
102
RTVSPost2010PropOp55
 70
     1
102
RTVSPost2010Prop56
140
1.0
102
RTVSPost2010PropOp56
 70
     1
102
RTVSPost2010Prop57
140
1.0
102
RTVSPost2010PropOp57
 70
     1
102
RTVSPropertyOp0
 70
     1
102
RTVSPropertyOp1
 70
     1
102
RTVSPropertyOp2
 70
     1
102
RTVSPropertyOp3
 70
     1
102
RTVSPropertyOp4
 70
     1
102
RTVSPropertyOp5
 70
     1
102
RTVSPropertyOp6
 70
     1
102
RTVSPropertyOp7
 70
     1
102
RTVSPropertyOp8
 70
     1
102
RTVSPropertyOp9
 70
     1
102
RTVSPropertyOp10
 70
     1
102
RTVSPropertyOp11
 70
     1
102
RTVSPropertyOp12
 70
     1
102
RTVSPropertyOp13
 70
     1
102
RTVSPropertyOp14
 70
     1
102
RTVSPropertyOp15
 70
     1
102
RTVSPropertyOp16
 70
     1
102
RTVSPropertyOp17
 70
     1
102
RTVSPropertyOp18
 70
     1
102
RTVSPropertyOp19
 70
     1
102
RTVSPropertyOp20
 70
     1
102
RTVSPropertyOp21
 70
     1
102
RTVSPropertyOp22
 70
     1
102
RTVSPropertyOp23
 70
     1
102
RTVSPropertyOp24
 70
     1
102
RTVSPropertyOp25
 70
     1
102
RTVSPropertyOp26
 70
     1
102
RTVSPropertyOp27
 70
     1
102
RTVSPropertyOp28
 70
     1
102
RTVSPropertyOp29
 70
     1
102
RTVSPropertyOp30
 70
     1
102
RTVSPropertyOp31
 70
     1
102
RTVSPropertyOp32
 70
     1
102
RTVSPropertyOp33
 70
     1
102
RTVSPropertyOp34
 70
     1
102
RTVSPropertyOp35
 70
     1
102
RTVSPropertyOp36
 70
     1
102
RTVSPropertyOp37
 70
     1
102
RTVSPropertyOp38
 70
     1
102
RTVSPropertyOp39
 70
     1
102
RTVSPropertyOp40
 70
     1
102
RTVSPropertyOp41
 70
     1
102
RTVSPropertyOp42
 70
     1
102
RTVSPropertyOp43
 70
     1
102
RTVSPropertyOp44
 70
     1
102
RTVSPropertyOp45
 70
     1
102
RTVSPropertyOp46
 70
     1
102
RTVSPropertyOp47
 70
     1
102
RTVSPropertyOp48
 70
     1
102
RTVSPropertyOp49
 70
     1
102
RTVSPropertyOp50
 70
     1
102
RTVSPropertyOp51
 70
     0
102
RTVSPropertyOp52
 70
     0
102
RTVSPropertyOp53
 70
     1
102
RTVSPropertyOp54
 70
     1
102
RTVSPropertyOp55
 70
     1
102
RTVSPropertyOp56
 70
     1
102
RTVSPropertyOp57
 70
     1
102
RTVSPropertyOp58
 70
     1
102
RTVSPropertyOp59
 70
     1
102
RTVSPropertyOp60
 70
     1
102
RTVSPropertyOp61
 70
     1
102
RTVSPropertyOp62
 70
     1
  0
XRECORD
  5
4CA
102
{ACAD_REACTORS
330
4C9
102
}
330
4C9
100
AcDbXrecord
280
     1
102
RTVSPost2010Prop28
280
     0
102
RTVSPost2010PropOp28
 70
     1
102
RTVSPost2010Prop29
280
     1
102
RTVSPost2010PropOp29
 70
     1
102
RTVSPost2010Prop30
280
     1
102
RTVSPost2010PropOp30
 70
     1
102
RTVSPost2010Prop31
280
     0
102
RTVSPost2010PropOp31
 70
     1
102
RTVSPost2010Prop32
280
     0
102
RTVSPost2010PropOp32
 70
     1
102
RTVSPost2010Prop33
280
     0
102
RTVSPost2010PropOp33
 70
     1
102
RTVSPost2010Prop34
280
     0
102
RTVSPost2010PropOp34
 70
     1
102
RTVSPost2010Prop35
280
     0
102
RTVSPost2010PropOp35
 70
     1
102
RTVSPost2010Prop36
280
     0
102
RTVSPost2010PropOp36
 70
     1
102
RTVSPost2010Prop37
 90
       50
102
RTVSPost2010PropOp37
 70
     1
102
RTVSPost2010Prop38
140
0.0
102
RTVSPost2010PropOp38
 70
     1
102
RTVSPost2010Prop39
140
1.0
102
RTVSPost2010PropOp39
 70
     1
102
RTVSPost2010Prop40
 90
        0
102
RTVSPost2010PropOp40
 70
     1
102
RTVSPost2010Prop41ColorIndex
 90
       18
102
RTVSPost2010Prop41ColorRGB
 90
        0
102
RTVSPost2010PropOp41
 70
     1
102
RTVSPost2010Prop42
 90
       50
102
RTVSPost2010PropOp42
 70
     1
102
RTVSPost2010Prop43
 90
        3
102
RTVSPost2010PropOp43
 70
     1
102
RTVSPost2010Prop44ColorIndex
 90
        5
102
RTVSPost2010Prop44ColorRGB
 90
      255
102
RTVSPost2010PropOp44
 70
     1
102
RTVSPost2010Prop45
280
     0
102
RTVSPost2010PropOp45
 70
     1
102
RTVSPost2010Prop46
 90
       50
102
RTVSPost2010PropOp46
 70
     1
102
RTVSPost2010Prop47
 90
       50
102
RTVSPost2010PropOp47
 70
     1
102
RTVSPost2010Prop48
 90
       50
102
RTVSPost2010PropOp48
 70
     1
102
RTVSPost2010Prop49
280
     0
102
RTVSPost2010PropOp49
 70
     1
102
RTVSPost2010Prop50
 90
       50
102
RTVSPost2010PropOp50
 70
     1
102
RTVSPost2010Prop51ColorIndex
 90
      256
102
RTVSPost2010Prop51ColorRGB
 90
-16777216
102
RTVSPost2010PropOp51
 70
     0
102
RTVSPost2010Prop52
140
1.0
102
RTVSPost2010PropOp52
 70
     0
102
RTVSPost2010Prop53
 90
        2
102
RTVSPost2010PropOp53
 70
     1
102
RTVSPost2010Prop54
  1
strokes_ogs.tif
102
RTVSPost2010PropOp54
 70
     1
102
RTVSPost2010Prop55
280
     0
102
RTVSPost2010PropOp55
 70
     1
102
RTVSPost2010Prop56
140
1.0
102
RTVSPost2010PropOp56
 70
     1
102
RTVSPost2010Prop57
140
1.0
102
RTVSPost2010PropOp57
 70
     1
102
RTVSPropertyOp0
 70
     1
102
RTVSPropertyOp1
 70
     1
102
RTVSPropertyOp2
 70
     1
102
RTVSPropertyOp3
 70
     1
102
RTVSPropertyOp4
 70
     1
102
RTVSPropertyOp5
 70
     1
102
RTVSPropertyOp6
 70
     1
102
RTVSPropertyOp7
 70
     1
102
RTVSPropertyOp8
 70
     1
102
RTVSPropertyOp9
 70
     1
102
RTVSPropertyOp10
 70
     1
102
RTVSPropertyOp11
 70
     1
102
RTVSPropertyOp12
 70
     1
102
RTVSPropertyOp13
 70
     1
102
RTVSPropertyOp14
 70
     1
102
RTVSPropertyOp15
 70
     1
102
RTVSPropertyOp16
 70
     1
102
RTVSPropertyOp17
 70
     1
102
RTVSPropertyOp18
 70
     1
102
RTVSPropertyOp19
 70
     1
102
RTVSPropertyOp20
 70
     1
102
RTVSPropertyOp21
 70
     1
102
RTVSPropertyOp22
 70
     1
102
RTVSPropertyOp23
 70
     1
102
RTVSPropertyOp24
 70
     1
102
RTVSPropertyOp25
 70
     1
102
RTVSPropertyOp26
 70
     1
102
RTVSPropertyOp27
 70
     1
102
RTVSPropertyOp28
 70
     1
102
RTVSPropertyOp29
 70
     1
102
RTVSPropertyOp30
 70
     1
102
RTVSPropertyOp31
 70
     1
102
RTVSPropertyOp32
 70
     1
102
RTVSPropertyOp33
 70
     1
102
RTVSPropertyOp34
 70
     1
102
RTVSPropertyOp35
 70
     1
102
RTVSPropertyOp36
 70
     1
102
RTVSPropertyOp37
 70
     1
102
RTVSPropertyOp38
 70
     1
102
RTVSPropertyOp39
 70
     1
102
RTVSPropertyOp40
 70
     1
102
RTVSPropertyOp41
 70
     1
102
RTVSPropertyOp42
 70
     1
102
RTVSPropertyOp43
 70
     1
102
RTVSPropertyOp44
 70
     1
102
RTVSPropertyOp45
 70
     1
102
RTVSPropertyOp46
 70
     1
102
RTVSPropertyOp47
 70
     1
102
RTVSPropertyOp48
 70
     1
102
RTVSPropertyOp49
 70
     1
102
RTVSPropertyOp50
 70
     1
102
RTVSPropertyOp51
 70
     0
102
RTVSPropertyOp52
 70
     0
102
RTVSPropertyOp53
 70
     1
102
RTVSPropertyOp54
 70
     1
102
RTVSPropertyOp55
 70
     1
102
RTVSPropertyOp56
 70
     1
102
RTVSPropertyOp57
 70
     1
102
RTVSPropertyOp58
 70
     1
102
RTVSPropertyOp59
 70
     1
102
RTVSPropertyOp60
 70
     1
102
RTVSPropertyOp61
 70
     1
102
RTVSPropertyOp62
 70
     1
  0
XRECORD
  5
4CC
102
{ACAD_REACTORS
330
4CB
102
}
330
4CB
100
AcDbXrecord
280
     1
102
RTVSPost2010Prop28
280
     0
102
RTVSPost2010PropOp28
 70
     1
102
RTVSPost2010Prop29
280
     1
102
RTVSPost2010PropOp29
 70
     1
102
RTVSPost2010Prop30
280
     1
102
RTVSPost2010PropOp30
 70
     1
102
RTVSPost2010Prop31
280
     0
102
RTVSPost2010PropOp31
 70
     1
102
RTVSPost2010Prop32
280
     0
102
RTVSPost2010PropOp32
 70
     1
102
RTVSPost2010Prop33
280
     0
102
RTVSPost2010PropOp33
 70
     1
102
RTVSPost2010Prop34
280
     0
102
RTVSPost2010PropOp34
 70
     1
102
RTVSPost2010Prop35
280
     0
102
RTVSPost2010PropOp35
 70
     1
102
RTVSPost2010Prop36
280
     0
102
RTVSPost2010PropOp36
 70
     1
102
RTVSPost2010Prop37
 90
       50
102
RTVSPost2010PropOp37
 70
     1
102
RTVSPost2010Prop38
140
0.0
102
RTVSPost2010PropOp38
 70
     1
102
RTVSPost2010Prop39
140
1.0
102
RTVSPost2010PropOp39
 70
     1
102
RTVSPost2010Prop40
 90
        0
102
RTVSPost2010PropOp40
 70
     1
102
RTVSPost2010Prop41ColorIndex
 90
       18
102
RTVSPost2010Prop41ColorRGB
 90
        0
102
RTVSPost2010PropOp41
 70
     1
102
RTVSPost2010Prop42
 90
       50
102
RTVSPost2010PropOp42
 70
     1
102
RTVSPost2010Prop43
 90
        3
102
RTVSPost2010PropOp43
 70
     1
102
RTVSPost2010Prop44ColorIndex
 90
        5
102
RTVSPost2010Prop44ColorRGB
 90
      255
102
RTVSPost2010PropOp44
 70
     1
102
RTVSPost2010Prop45
280
     0
102
RTVSPost2010PropOp45
 70
     1
102
RTVSPost2010Prop46
 90
       50
102
RTVSPost2010PropOp46
 70
     1
102
RTVSPost2010Prop47
 90
       50
102
RTVSPost2010PropOp47
 70
     1
102
RTVSPost2010Prop48
 90
       50
102
RTVSPost2010PropOp48
 70
     1
102
RTVSPost2010Prop49
280
     0
102
RTVSPost2010PropOp49
 70
     1
102
RTVSPost2010Prop50
 90
       50
102
RTVSPost2010PropOp50
 70
     1
102
RTVSPost2010Prop51ColorIndex
 90
      256
102
RTVSPost2010Prop51ColorRGB
 90
-16777216
102
RTVSPost2010PropOp51
 70
     0
102
RTVSPost2010Prop52
140
1.0
102
RTVSPost2010PropOp52
 70
     0
102
RTVSPost2010Prop53
 90
        2
102
RTVSPost2010PropOp53
 70
     1
102
RTVSPost2010Prop54
  1
strokes_ogs.tif
102
RTVSPost2010PropOp54
 70
     1
102
RTVSPost2010Prop55
280
     0
102
RTVSPost2010PropOp55
 70
     1
102
RTVSPost2010Prop56
140
1.0
102
RTVSPost2010PropOp56
 70
     1
102
RTVSPost2010Prop57
140
1.0
102
RTVSPost2010PropOp57
 70
     1
102
RTVSPropertyOp0
 70
     1
102
RTVSPropertyOp1
 70
     1
102
RTVSPropertyOp2
 70
     1
102
RTVSPropertyOp3
 70
     1
102
RTVSPropertyOp4
 70
     1
102
RTVSPropertyOp5
 70
     1
102
RTVSPropertyOp6
 70
     1
102
RTVSPropertyOp7
 70
     1
102
RTVSPropertyOp8
 70
     1
102
RTVSPropertyOp9
 70
     1
102
RTVSPropertyOp10
 70
     1
102
RTVSPropertyOp11
 70
     1
102
RTVSPropertyOp12
 70
     1
102
RTVSPropertyOp13
 70
     1
102
RTVSPropertyOp14
 70
     1
102
RTVSPropertyOp15
 70
     1
102
RTVSPropertyOp16
 70
     1
102
RTVSPropertyOp17
 70
     1
102
RTVSPropertyOp18
 70
     1
102
RTVSPropertyOp19
 70
     1
102
RTVSPropertyOp20
 70
     1
102
RTVSPropertyOp21
 70
     1
102
RTVSPropertyOp22
 70
     1
102
RTVSPropertyOp23
 70
     1
102
RTVSPropertyOp24
 70
     1
102
RTVSPropertyOp25
 70
     1
102
RTVSPropertyOp26
 70
     1
102
RTVSPropertyOp27
 70
     1
102
RTVSPropertyOp28
 70
     1
102
RTVSPropertyOp29
 70
     1
102
RTVSPropertyOp30
 70
     1
102
RTVSPropertyOp31
 70
     1
102
RTVSPropertyOp32
 70
     1
102
RTVSPropertyOp33
 70
     1
102
RTVSPropertyOp34
 70
     1
102
RTVSPropertyOp35
 70
     1
102
RTVSPropertyOp36
 70
     1
102
RTVSPropertyOp37
 70
     1
102
RTVSPropertyOp38
 70
     1
102
RTVSPropertyOp39
 70
     1
102
RTVSPropertyOp40
 70
     1
102
RTVSPropertyOp41
 70
     1
102
RTVSPropertyOp42
 70
     1
102
RTVSPropertyOp43
 70
     1
102
RTVSPropertyOp44
 70
     1
102
RTVSPropertyOp45
 70
     1
102
RTVSPropertyOp46
 70
     1
102
RTVSPropertyOp47
 70
     1
102
RTVSPropertyOp48
 70
     1
102
RTVSPropertyOp49
 70
     1
102
RTVSPropertyOp50
 70
     1
102
RTVSPropertyOp51
 70
     0
102
RTVSPropertyOp52
 70
     0
102
RTVSPropertyOp53
 70
     1
102
RTVSPropertyOp54
 70
     1
102
RTVSPropertyOp55
 70
     1
102
RTVSPropertyOp56
 70
     1
102
RTVSPropertyOp57
 70
     1
102
RTVSPropertyOp58
 70
     1
102
RTVSPropertyOp59
 70
     1
102
RTVSPropertyOp60
 70
     1
102
RTVSPropertyOp61
 70
     1
102
RTVSPropertyOp62
 70
     1
  0
XRECORD
  5
4C2
102
{ACAD_REACTORS
330
4C1
102
}
330
4C1
100
AcDbXrecord
280
     1
102
RTVSPost2010Prop28
280
     0
102
RTVSPost2010PropOp28
 70
     1
102
RTVSPost2010Prop29
280
     1
102
RTVSPost2010PropOp29
 70
     1
102
RTVSPost2010Prop30
280
     1
102
RTVSPost2010PropOp30
 70
     1
102
RTVSPost2010Prop31
280
     0
102
RTVSPost2010PropOp31
 70
     1
102
RTVSPost2010Prop32
280
     0
102
RTVSPost2010PropOp32
 70
     1
102
RTVSPost2010Prop33
280
     0
102
RTVSPost2010PropOp33
 70
     1
102
RTVSPost2010Prop34
280
     0
102
RTVSPost2010PropOp34
 70
     1
102
RTVSPost2010Prop35
280
     0
102
RTVSPost2010PropOp35
 70
     1
102
RTVSPost2010Prop36
280
     0
102
RTVSPost2010PropOp36
 70
     1
102
RTVSPost2010Prop37
 90
       50
102
RTVSPost2010PropOp37
 70
     1
102
RTVSPost2010Prop38
140
0.0
102
RTVSPost2010PropOp38
 70
     1
102
RTVSPost2010Prop39
140
1.0
102
RTVSPost2010PropOp39
 70
     1
102
RTVSPost2010Prop40
 90
        0
102
RTVSPost2010PropOp40
 70
     1
102
RTVSPost2010Prop41ColorIndex
 90
       18
102
RTVSPost2010Prop41ColorRGB
 90
        0
102
RTVSPost2010PropOp41
 70
     1
102
RTVSPost2010Prop42
 90
       50
102
RTVSPost2010PropOp42
 70
     1
102
RTVSPost2010Prop43
 90
        3
102
RTVSPost2010PropOp43
 70
     1
102
RTVSPost2010Prop44ColorIndex
 90
        5
102
RTVSPost2010Prop44ColorRGB
 90
      255
102
RTVSPost2010PropOp44
 70
     1
102
RTVSPost2010Prop45
280
     0
102
RTVSPost2010PropOp45
 70
     1
102
RTVSPost2010Prop46
 90
       50
102
RTVSPost2010PropOp46
 70
     1
102
RTVSPost2010Prop47
 90
       50
102
RTVSPost2010PropOp47
 70
     1
102
RTVSPost2010Prop48
 90
       50
102
RTVSPost2010PropOp48
 70
     1
102
RTVSPost2010Prop49
280
     0
102
RTVSPost2010PropOp49
 70
     1
102
RTVSPost2010Prop50
 90
       50
102
RTVSPost2010PropOp50
 70
     1
102
RTVSPost2010Prop51ColorIndex
 90
      256
102
RTVSPost2010Prop51ColorRGB
 90
-16777216
102
RTVSPost2010PropOp51
 70
     0
102
RTVSPost2010Prop52
140
1.0
102
RTVSPost2010PropOp52
 70
     0
102
RTVSPost2010Prop53
 90
        2
102
RTVSPost2010PropOp53
 70
     1
102
RTVSPost2010Prop54
  1
strokes_ogs.tif
102
RTVSPost2010PropOp54
 70
     1
102
RTVSPost2010Prop55
280
     0
102
RTVSPost2010PropOp55
 70
     1
102
RTVSPost2010Prop56
140
1.0
102
RTVSPost2010PropOp56
 70
     1
102
RTVSPost2010Prop57
140
1.0
102
RTVSPost2010PropOp57
 70
     1
102
RTVSPropertyOp0
 70
     1
102
RTVSPropertyOp1
 70
     1
102
RTVSPropertyOp2
 70
     1
102
RTVSPropertyOp3
 70
     1
102
RTVSPropertyOp4
 70
     1
102
RTVSPropertyOp5
 70
     1
102
RTVSPropertyOp6
 70
     1
102
RTVSPropertyOp7
 70
     1
102
RTVSPropertyOp8
 70
     1
102
RTVSPropertyOp9
 70
     1
102
RTVSPropertyOp10
 70
     1
102
RTVSPropertyOp11
 70
     1
102
RTVSPropertyOp12
 70
     1
102
RTVSPropertyOp13
 70
     1
102
RTVSPropertyOp14
 70
     1
102
RTVSPropertyOp15
 70
     1
102
RTVSPropertyOp16
 70
     1
102
RTVSPropertyOp17
 70
     1
102
RTVSPropertyOp18
 70
     1
102
RTVSPropertyOp19
 70
     1
102
RTVSPropertyOp20
 70
     1
102
RTVSPropertyOp21
 70
     1
102
RTVSPropertyOp22
 70
     1
102
RTVSPropertyOp23
 70
     1
102
RTVSPropertyOp24
 70
     1
102
RTVSPropertyOp25
 70
     1
102
RTVSPropertyOp26
 70
     1
102
RTVSPropertyOp27
 70
     1
102
RTVSPropertyOp28
 70
     1
102
RTVSPropertyOp29
 70
     1
102
RTVSPropertyOp30
 70
     1
102
RTVSPropertyOp31
 70
     1
102
RTVSPropertyOp32
 70
     1
102
RTVSPropertyOp33
 70
     1
102
RTVSPropertyOp34
 70
     1
102
RTVSPropertyOp35
 70
     1
102
RTVSPropertyOp36
 70
     1
102
RTVSPropertyOp37
 70
     1
102
RTVSPropertyOp38
 70
     1
102
RTVSPropertyOp39
 70
     1
102
RTVSPropertyOp40
 70
     1
102
RTVSPropertyOp41
 70
     1
102
RTVSPropertyOp42
 70
     1
102
RTVSPropertyOp43
 70
     1
102
RTVSPropertyOp44
 70
     1
102
RTVSPropertyOp45
 70
     1
102
RTVSPropertyOp46
 70
     1
102
RTVSPropertyOp47
 70
     1
102
RTVSPropertyOp48
 70
     1
102
RTVSPropertyOp49
 70
     1
102
RTVSPropertyOp50
 70
     1
102
RTVSPropertyOp51
 70
     0
102
RTVSPropertyOp52
 70
     0
102
RTVSPropertyOp53
 70
     1
102
RTVSPropertyOp54
 70
     1
102
RTVSPropertyOp55
 70
     1
102
RTVSPropertyOp56
 70
     1
102
RTVSPropertyOp57
 70
     1
102
RTVSPropertyOp58
 70
     1
102
RTVSPropertyOp59
 70
     1
102
RTVSPropertyOp60
 70
     1
102
RTVSPropertyOp61
 70
     1
102
RTVSPropertyOp62
 70
     1
  0
XRECORD
  5
4B6
102
{ACAD_REACTORS
330
4B5
102
}
330
4B5
100
AcDbXrecord
280
     1
102
RTVSPost2010Prop28
280
     0
102
RTVSPost2010PropOp28
 70
     1
102
RTVSPost2010Prop29
280
     1
102
RTVSPost2010PropOp29
 70
     1
102
RTVSPost2010Prop30
280
     1
102
RTVSPost2010PropOp30
 70
     1
102
RTVSPost2010Prop31
280
     0
102
RTVSPost2010PropOp31
 70
     1
102
RTVSPost2010Prop32
280
     0
102
RTVSPost2010PropOp32
 70
     1
102
RTVSPost2010Prop33
280
     0
102
RTVSPost2010PropOp33
 70
     1
102
RTVSPost2010Prop34
280
     0
102
RTVSPost2010PropOp34
 70
     1
102
RTVSPost2010Prop35
280
     0
102
RTVSPost2010PropOp35
 70
     1
102
RTVSPost2010Prop36
280
     0
102
RTVSPost2010PropOp36
 70
     1
102
RTVSPost2010Prop37
 90
       50
102
RTVSPost2010PropOp37
 70
     1
102
RTVSPost2010Prop38
140
0.0
102
RTVSPost2010PropOp38
 70
     1
102
RTVSPost2010Prop39
140
1.0
102
RTVSPost2010PropOp39
 70
     1
102
RTVSPost2010Prop40
 90
        0
102
RTVSPost2010PropOp40
 70
     1
102
RTVSPost2010Prop41ColorIndex
 90
       18
102
RTVSPost2010Prop41ColorRGB
 90
        0
102
RTVSPost2010PropOp41
 70
     1
102
RTVSPost2010Prop42
 90
       50
102
RTVSPost2010PropOp42
 70
     1
102
RTVSPost2010Prop43
 90
        3
102
RTVSPost2010PropOp43
 70
     1
102
RTVSPost2010Prop44ColorIndex
 90
        5
102
RTVSPost2010Prop44ColorRGB
 90
      255
102
RTVSPost2010PropOp44
 70
     1
102
RTVSPost2010Prop45
280
     0
102
RTVSPost2010PropOp45
 70
     1
102
RTVSPost2010Prop46
 90
       50
102
RTVSPost2010PropOp46
 70
     1
102
RTVSPost2010Prop47
 90
       50
102
RTVSPost2010PropOp47
 70
     1
102
RTVSPost2010Prop48
 90
       50
102
RTVSPost2010PropOp48
 70
     1
102
RTVSPost2010Prop49
280
     0
102
RTVSPost2010PropOp49
 70
     1
102
RTVSPost2010Prop50
 90
       50
102
RTVSPost2010PropOp50
 70
     1
102
RTVSPost2010Prop51ColorIndex
 90
      256
102
RTVSPost2010Prop51ColorRGB
 90
-16777216
102
RTVSPost2010PropOp51
 70
     0
102
RTVSPost2010Prop52
140
1.0
102
RTVSPost2010PropOp52
 70
     0
102
RTVSPost2010Prop53
 90
        2
102
RTVSPost2010PropOp53
 70
     1
102
RTVSPost2010Prop54
  1
strokes_ogs.tif
102
RTVSPost2010PropOp54
 70
     1
102
RTVSPost2010Prop55
280
     0
102
RTVSPost2010PropOp55
 70
     1
102
RTVSPost2010Prop56
140
1.0
102
RTVSPost2010PropOp56
 70
     1
102
RTVSPost2010Prop57
140
1.0
102
RTVSPost2010PropOp57
 70
     1
102
RTVSPropertyOp0
 70
     1
102
RTVSPropertyOp1
 70
     1
102
RTVSPropertyOp2
 70
     1
102
RTVSPropertyOp3
 70
     1
102
RTVSPropertyOp4
 70
     1
102
RTVSPropertyOp5
 70
     1
102
RTVSPropertyOp6
 70
     1
102
RTVSPropertyOp7
 70
     1
102
RTVSPropertyOp8
 70
     1
102
RTVSPropertyOp9
 70
     1
102
RTVSPropertyOp10
 70
     1
102
RTVSPropertyOp11
 70
     1
102
RTVSPropertyOp12
 70
     1
102
RTVSPropertyOp13
 70
     1
102
RTVSPropertyOp14
 70
     1
102
RTVSPropertyOp15
 70
     1
102
RTVSPropertyOp16
 70
     1
102
RTVSPropertyOp17
 70
     1
102
RTVSPropertyOp18
 70
     1
102
RTVSPropertyOp19
 70
     1
102
RTVSPropertyOp20
 70
     1
102
RTVSPropertyOp21
 70
     1
102
RTVSPropertyOp22
 70
     1
102
RTVSPropertyOp23
 70
     1
102
RTVSPropertyOp24
 70
     1
102
RTVSPropertyOp25
 70
     1
102
RTVSPropertyOp26
 70
     1
102
RTVSPropertyOp27
 70
     1
102
RTVSPropertyOp28
 70
     1
102
RTVSPropertyOp29
 70
     1
102
RTVSPropertyOp30
 70
     1
102
RTVSPropertyOp31
 70
     1
102
RTVSPropertyOp32
 70
     1
102
RTVSPropertyOp33
 70
     1
102
RTVSPropertyOp34
 70
     1
102
RTVSPropertyOp35
 70
     1
102
RTVSPropertyOp36
 70
     1
102
RTVSPropertyOp37
 70
     1
102
RTVSPropertyOp38
 70
     1
102
RTVSPropertyOp39
 70
     1
102
RTVSPropertyOp40
 70
     1
102
RTVSPropertyOp41
 70
     1
102
RTVSPropertyOp42
 70
     1
102
RTVSPropertyOp43
 70
     1
102
RTVSPropertyOp44
 70
     1
102
RTVSPropertyOp45
 70
     1
102
RTVSPropertyOp46
 70
     1
102
RTVSPropertyOp47
 70
     1
102
RTVSPropertyOp48
 70
     1
102
RTVSPropertyOp49
 70
     1
102
RTVSPropertyOp50
 70
     1
102
RTVSPropertyOp51
 70
     0
102
RTVSPropertyOp52
 70
     0
102
RTVSPropertyOp53
 70
     1
102
RTVSPropertyOp54
 70
     1
102
RTVSPropertyOp55
 70
     1
102
RTVSPropertyOp56
 70
     1
102
RTVSPropertyOp57
 70
     1
102
RTVSPropertyOp58
 70
     1
102
RTVSPropertyOp59
 70
     1
102
RTVSPropertyOp60
 70
     1
102
RTVSPropertyOp61
 70
     1
102
RTVSPropertyOp62
 70
     1
  0
XRECORD
  5
4CE
102
{ACAD_REACTORS
330
4CD
102
}
330
4CD
100
AcDbXrecord
280
     1
102
RTVSPost2010Prop28
280
     0
102
RTVSPost2010PropOp28
 70
     1
102
RTVSPost2010Prop29
280
     1
102
RTVSPost2010PropOp29
 70
     1
102
RTVSPost2010Prop30
280
     1
102
RTVSPost2010PropOp30
 70
     1
102
RTVSPost2010Prop31
280
     0
102
RTVSPost2010PropOp31
 70
     1
102
RTVSPost2010Prop32
280
     0
102
RTVSPost2010PropOp32
 70
     1
102
RTVSPost2010Prop33
280
     0
102
RTVSPost2010PropOp33
 70
     1
102
RTVSPost2010Prop34
280
     0
102
RTVSPost2010PropOp34
 70
     1
102
RTVSPost2010Prop35
280
     0
102
RTVSPost2010PropOp35
 70
     1
102
RTVSPost2010Prop36
280
     0
102
RTVSPost2010PropOp36
 70
     1
102
RTVSPost2010Prop37
 90
       50
102
RTVSPost2010PropOp37
 70
     1
102
RTVSPost2010Prop38
140
0.0
102
RTVSPost2010PropOp38
 70
     1
102
RTVSPost2010Prop39
140
1.0
102
RTVSPost2010PropOp39
 70
     1
102
RTVSPost2010Prop40
 90
        0
102
RTVSPost2010PropOp40
 70
     1
102
RTVSPost2010Prop41ColorIndex
 90
       18
102
RTVSPost2010Prop41ColorRGB
 90
        0
102
RTVSPost2010PropOp41
 70
     1
102
RTVSPost2010Prop42
 90
       50
102
RTVSPost2010PropOp42
 70
     1
102
RTVSPost2010Prop43
 90
        3
102
RTVSPost2010PropOp43
 70
     1
102
RTVSPost2010Prop44ColorIndex
 90
        5
102
RTVSPost2010Prop44ColorRGB
 90
      255
102
RTVSPost2010PropOp44
 70
     1
102
RTVSPost2010Prop45
280
     0
102
RTVSPost2010PropOp45
 70
     1
102
RTVSPost2010Prop46
 90
       50
102
RTVSPost2010PropOp46
 70
     1
102
RTVSPost2010Prop47
 90
       50
102
RTVSPost2010PropOp47
 70
     1
102
RTVSPost2010Prop48
 90
       50
102
RTVSPost2010PropOp48
 70
     1
102
RTVSPost2010Prop49
280
     0
102
RTVSPost2010PropOp49
 70
     1
102
RTVSPost2010Prop50
 90
       50
102
RTVSPost2010PropOp50
 70
     1
102
RTVSPost2010Prop51ColorIndex
 90
      256
102
RTVSPost2010Prop51ColorRGB
 90
-16777216
102
RTVSPost2010PropOp51
 70
     0
102
RTVSPost2010Prop52
140
1.0
102
RTVSPost2010PropOp52
 70
     0
102
RTVSPost2010Prop53
 90
        2
102
RTVSPost2010PropOp53
 70
     1
102
RTVSPost2010Prop54
  1
strokes_ogs.tif
102
RTVSPost2010PropOp54
 70
     1
102
RTVSPost2010Prop55
280
     0
102
RTVSPost2010PropOp55
 70
     1
102
RTVSPost2010Prop56
140
1.0
102
RTVSPost2010PropOp56
 70
     1
102
RTVSPost2010Prop57
140
1.0
102
RTVSPost2010PropOp57
 70
     1
102
RTVSPropertyOp0
 70
     1
102
RTVSPropertyOp1
 70
     1
102
RTVSPropertyOp2
 70
     1
102
RTVSPropertyOp3
 70
     1
102
RTVSPropertyOp4
 70
     1
102
RTVSPropertyOp5
 70
     1
102
RTVSPropertyOp6
 70
     1
102
RTVSPropertyOp7
 70
     1
102
RTVSPropertyOp8
 70
     1
102
RTVSPropertyOp9
 70
     1
102
RTVSPropertyOp10
 70
     1
102
RTVSPropertyOp11
 70
     1
102
RTVSPropertyOp12
 70
     1
102
RTVSPropertyOp13
 70
     1
102
RTVSPropertyOp14
 70
     1
102
RTVSPropertyOp15
 70
     1
102
RTVSPropertyOp16
 70
     1
102
RTVSPropertyOp17
 70
     1
102
RTVSPropertyOp18
 70
     1
102
RTVSPropertyOp19
 70
     1
102
RTVSPropertyOp20
 70
     1
102
RTVSPropertyOp21
 70
     1
102
RTVSPropertyOp22
 70
     1
102
RTVSPropertyOp23
 70
     1
102
RTVSPropertyOp24
 70
     1
102
RTVSPropertyOp25
 70
     1
102
RTVSPropertyOp26
 70
     1
102
RTVSPropertyOp27
 70
     1
102
RTVSPropertyOp28
 70
     1
102
RTVSPropertyOp29
 70
     1
102
RTVSPropertyOp30
 70
     1
102
RTVSPropertyOp31
 70
     1
102
RTVSPropertyOp32
 70
     1
102
RTVSPropertyOp33
 70
     1
102
RTVSPropertyOp34
 70
     1
102
RTVSPropertyOp35
 70
     1
102
RTVSPropertyOp36
 70
     1
102
RTVSPropertyOp37
 70
     1
102
RTVSPropertyOp38
 70
     1
102
RTVSPropertyOp39
 70
     1
102
RTVSPropertyOp40
 70
     1
102
RTVSPropertyOp41
 70
     1
102
RTVSPropertyOp42
 70
     1
102
RTVSPropertyOp43
 70
     1
102
RTVSPropertyOp44
 70
     1
102
RTVSPropertyOp45
 70
     1
102
RTVSPropertyOp46
 70
     1
102
RTVSPropertyOp47
 70
     1
102
RTVSPropertyOp48
 70
     1
102
RTVSPropertyOp49
 70
     1
102
RTVSPropertyOp50
 70
     1
102
RTVSPropertyOp51
 70
     0
102
RTVSPropertyOp52
 70
     0
102
RTVSPropertyOp53
 70
     1
102
RTVSPropertyOp54
 70
     1
102
RTVSPropertyOp55
 70
     1
102
RTVSPropertyOp56
 70
     1
102
RTVSPropertyOp57
 70
     1
102
RTVSPropertyOp58
 70
     1
102
RTVSPropertyOp59
 70
     1
102
RTVSPropertyOp60
 70
     1
102
RTVSPropertyOp61
 70
     1
102
RTVSPropertyOp62
 70
     1
  0
ENDSEC
  0
EOF
