  0
SECTION
  2
HEADER
  9
$ACADVER
  1
AC1009
  9
$INSBASE
 10
0.0
 20
0.0
 30
0.0
  9
$EXTMIN
 10
-575.04119558730315
 20
-867.42073522915098
 30
-0.0015258207003583
  9
$EXTMAX
 10
775.04120187373019
 20
1138.0179995671331
 30
0.0000000349246037
  9
$LIMMIN
 10
0.0
 20
0.0
  9
$LIMMAX
 10
0.0
 20
0.0
  9
$ORTHOMODE
 70
     0
  9
$REGENMODE
 70
     1
  9
$FILLMODE
 70
     1
  9
$QTEXTMODE
 70
     0
  9
$MIRRTEXT
 70
     1
  9
$DRAGMODE
 70
     2
  9
$LTSCALE
 40
38.100000000000001
  9
$OSMODE
 70
   231
  9
$ATTMODE
 70
     1
  9
$TEXTSIZE
 40
0.0
  9
$TRACEWID
 40
1.0
  9
$TEXTSTYLE
  7
STANDARD
  9
$CLAYER
  8
DATA
  9
$CELTYPE
  6
BYLAYER
  9
$CECOLOR
 62
   256
  9
$DIMSCALE
 40
1.0
  9
$DIMASZ
 40
0.18
  9
$DIMEXO
 40
0.0625
  9
$DIMDLI
 40
0.38
  9
$DIMRND
 40
0.0
  9
$DIMDLE
 40
0.0
  9
$DIMEXE
 40
0.18
  9
$DIMTP
 40
0.0
  9
$DIMTM
 40
0.0
  9
$DIMTXT
 40
0.18
  9
$DIMCEN
 40
0.09
  9
$DIMTSZ
 40
0.0
  9
$DIMTOL
 70
     0
  9
$DIMLIM
 70
     0
  9
$DIMTIH
 70
     1
  9
$DIMTOH
 70
     1
  9
$DIMSE1
 70
     0
  9
$DIMSE2
 70
     0
  9
$DIMTAD
 70
     0
  9
$DIMZIN
 70
     0
  9
$DIMBLK
  1

  9
$DIMASO
 70
     1
  9
$DIMSHO
 70
     1
  9
$DIMPOST
  1

  9
$DIMAPOST
  1

  9
$DIMALT
 70
     0
  9
$DIMALTD
 70
     2
  9
$DIMALTF
 40
25.399999999999999
  9
$DIMLFAC
 40
1.0
  9
$DIMTOFL
 70
     0
  9
$DIMTVP
 40
0.0
  9
$DIMTIX
 70
     0
  9
$DIMSOXD
 70
     0
  9
$DIMSAH
 70
     0
  9
$DIMBLK1
  1

  9
$DIMBLK2
  1

  9
$DIMSTYLE
  2
STANDARD
  9
$DIMCLRD
 70
     0
  9
$DIMCLRE
 70
     0
  9
$DIMCLRT
 70
     0
  9
$DIMTFAC
 40
1.0
  9
$DIMGAP
 40
0.09
  9
$LUNITS
 70
     2
  9
$LUPREC
 70
     4
  9
$SKETCHINC
 40
0.1
  9
$FILLETRAD
 40
0.0
  9
$AUNITS
 70
     0
  9
$AUPREC
 70
     0
  9
$MENU
  1
acad
  9
$ELEVATION
 40
0.0
  9
$PELEVATION
 40
0.0
  9
$THICKNESS
 40
0.0
  9
$LIMCHECK
 70
     0
  9
$BLIPMODE
 70
     0
  9
$CHAMFERA
 40
0.0
  9
$CHAMFERB
 40
0.0
  9
$SKPOLY
 70
     0
  9
$TDCREATE
 40
2452878.882754629
  9
$TDUPDATE
 40
2455607.738271297
  9
$TDINDWG
 40
0.00180125
  9
$TDUSRTIMER
 40
0.0018010648
  9
$USRTIMER
 70
     1
  9
$ANGBASE
 50
0.0
  9
$ANGDIR
 70
     0
  9
$PDMODE
 70
     1
  9
$PDSIZE
 40
-2.0
  9
$PLINEWID
 40
0.0
  9
$COORDS
 70
     1
  9
$SPLFRAME
 70
     0
  9
$SPLINETYPE
 70
     6
  9
$SPLINESEGS
 70
     8
  9
$ATTDIA
 70
     0
  9
$ATTREQ
 70
     1
  9
$HANDLING
 70
     1
  9
$HANDSEED
  5
112D
  9
$SURFTAB1
 70
     6
  9
$SURFTAB2
 70
     6
  9
$SURFTYPE
 70
     6
  9
$SURFU
 70
     6
  9
$SURFV
 70
     6
  9
$UCSNAME
  2

  9
$UCSORG
 10
0.0
 20
0.0
 30
0.0
  9
$UCSXDIR
 10
1.0
 20
0.0
 30
0.0
  9
$UCSYDIR
 10
0.0
 20
1.0
 30
0.0
  9
$PUCSNAME
  2

  9
$PUCSORG
 10
0.0
 20
0.0
 30
0.0
  9
$PUCSXDIR
 10
1.0
 20
0.0
 30
0.0
  9
$PUCSYDIR
 10
0.0
 20
1.0
 30
0.0
  9
$USERI1
 70
     0
  9
$USERI2
 70
     0
  9
$USERI3
 70
     0
  9
$USERI4
 70
     0
  9
$USERI5
 70
     0
  9
$USERR1
 40
0.0
  9
$USERR2
 40
0.0
  9
$USERR3
 40
0.0
  9
$USERR4
 40
0.0
  9
$USERR5
 40
0.0
  9
$WORLDVIEW
 70
     1
  9
$SHADEDGE
 70
     3
  9
$SHADEDIF
 70
    70
  9
$TILEMODE
 70
     1
  9
$MAXACTVP
 70
    16
  9
$PLIMCHECK
 70
     0
  9
$PEXTMIN
 10
1.0000000000000000E+020
 20
1.0000000000000000E+020
 30
1.0000000000000000E+020
  9
$PEXTMAX
 10
-1.0000000000000000E+020
 20
-1.0000000000000000E+020
 30
-1.0000000000000000E+020
  9
$PLIMMIN
 10
0.0
 20
0.0
  9
$PLIMMAX
 10
12.0
 20
9.0
  9
$UNITMODE
 70
     0
  9
$VISRETAIN
 70
     0
  9
$PLINEGEN
 70
     1
  9
$PSLTSCALE
 70
     0
  0
ENDSEC
  0
SECTION
  2
TABLES
  0
TABLE
  2
VPORT
 70
     1
  0
VPORT
  2
*ACTIVE
 70
     0
 10
0.0
 20
0.0
 11
1.0
 21
1.0
 12
100.00000314321321
 22
135.29863216899119
 13
0.0
 23
0.0
 14
1.0
 24
1.0
 15
0.0
 25
0.0
 16
0.0
 26
0.0
 36
1.0
 17
0.0
 27
0.0
 37
0.0
 40
2020.202700942024
 41
1.9619164619164611
 42
50.0
 43
0.0
 44
0.0
 50
0.0
 51
0.0
 71
     0
 72
   100
 73
     1
 74
     1
 75
     0
 76
     0
 77
     0
 78
     0
  0
ENDTAB
  0
TABLE
  2
LTYPE
 70
     1
  0
LTYPE
  2
CONTINUOUS
 70
     0
  3
Solid line
 72
    65
 73
     0
 40
0.0
  0
ENDTAB
  0
TABLE
  2
LAYER
 70
     6
  0
LAYER
  2
0
 70
     0
 62
     7
  6
CONTINUOUS
  0
LAYER
  2
DATA
 70
     0
 62
     7
  6
CONTINUOUS
  0
LAYER
  2
DEFPOINTS
 70
     0
 62
     7
  6
CONTINUOUS
  0
LAYER
  2
HIBINO-BASE
 70
     0
 62
     7
  6
CONTINUOUS
  0
LAYER
  2
DIMNSIONS
 70
     0
 62
     7
  6
CONTINUOUS
  0
LAYER
  2
BRACKET
 70
     0
 62
     7
  6
CONTINUOUS
  0
ENDTAB
  0
TABLE
  2
STYLE
 70
     2
  0
STYLE
  2
STANDARD
 70
     0
 40
0.0
 41
1.0
 50
0.0
 71
     0
 42
0.0
  3
txt
  4
BIGFONT.SHX
  0
ENDTAB
  0
TABLE
  2
VIEW
 70
     0
  0
ENDTAB
  0
TABLE
  2
UCS
 70
     0
  0
ENDTAB
  0
TABLE
  2
APPID
 70
     3
  0
APPID
  2
ACAD
 70
     0
  0
APPID
  2
ACADANNOTATIVE
 70
     0
  0
APPID
  2
ACAD_MLEADERVER
 70
     0
  0
ENDTAB
  0
TABLE
  2
DIMSTYLE
 70
     2
  0
DIMSTYLE
  2
STANDARD
 70
     0
  3

  4

  5

  6

  7

 40
1.0
 41
0.18
 42
0.0625
 43
0.38
 44
0.18
 45
0.0
 46
0.0
 47
0.0
 48
0.0
140
0.18
141
0.09
142
0.0
143
25.399999999999999
144
1.0
145
0.0
146
1.0
147
0.09
 71
     0
 72
     0
 73
     1
 74
     1
 75
     0
 76
     0
 77
     0
 78
     0
170
     0
171
     2
172
     0
173
     0
174
     0
175
     0
176
     0
177
     0
178
     0
  0
ENDTAB
  0
ENDSEC
  0
SECTION
  2
BLOCKS
  0
BLOCK
  8
0
  2
$MODEL_SPACE
 70
     0
 10
0.0
 20
0.0
 30
0.0
  3
$MODEL_SPACE
  1

  0
ENDBLK
  5
E64
  8
0
  0
BLOCK
 67
     1
  8
0
  2
$PAPER_SPACE
 70
     0
 10
0.0
 20
0.0
 30
0.0
  3
$PAPER_SPACE
  1

  0
ENDBLK
  5
E60
 67
     1
  8
0
  0
ENDSEC
  0
SECTION
  2
ENTITIES
  0
LINE
  5
119
  8
HIBINO-BASE
 62
     7
 10
-574.99999999999989
 20
1137.9567975
 30
0.0
 11
775.0
 21
1137.9567975
 31
0.0
  0
LINE
  5
11A
  8
HIBINO-BASE
 62
     7
 10
775.0
 20
-812.04320250000012
 30
0.0
 11
-574.99999999999989
 21
-812.04320250000012
 31
0.0
  0
LINE
  5
11B
  8
HIBINO-BASE
 62
     7
 10
-574.99999999999989
 20
-812.04320250000012
 30
0.0
 11
-574.99999999999989
 21
1137.9567975
 31
0.0
  0
TEXT
  5
11C
  8
HIBINO-BASE
 62
     7
 10
-521.11999999999978
 20
-858.00308249999955
 30
0.0
 40
28.069379999999999
  1
Hibino Corporation
 41
0.7
 11
-521.11999999999978
 21
-829.93370249999964
 31
0.0
 73
     3
  0
LINE
  5
11D
  8
HIBINO-BASE
 62
     7
 10
775.0
 20
1137.9567975
 30
0.0
 11
775.0
 21
-812.04320250000012
 31
0.0
  0
LINE
  5
11E
  8
HIBINO-BASE
 62
     7
 10
100.0
 20
-643.29320250000001
 30
0.0
 11
775.0
 21
-643.29320250000001
 31
0.0
  0
LINE
  5
11F
  8
HIBINO-BASE
 62
     7
 10
100.0
 20
-812.04320250000012
 30
0.0
 11
100.0
 21
-643.29320250000001
 31
0.0
  0
TEXT
  5
120
  8
HIBINO-BASE
 62
     7
 10
106.75
 20
-661.15590250000002
 30
0.0
 40
12.699999999999999
  1
NOTE
 41
0.7
 11
106.75
 21
-648.45590249999998
 31
0.0
 73
     3
  0
LINE
  5
121
  8
HIBINO-BASE
 62
     7
 10
362.5
 20
-812.04320250000012
 30
0.0
 11
362.5
 21
-643.29320250000001
 31
0.0
  0
TEXT
  5
122
  8
HIBINO-BASE
 62
     7
 10
369.25
 20
-661.15590250000002
 30
0.0
 40
12.699999999999999
  1
TITLE
 41
0.7
 11
369.25
 21
-648.45590249999998
 31
0.0
 73
     3
  0
TEXT
  5
123
  8
HIBINO-BASE
 62
     7
 10
475.51292499999988
 20
-858.00308249999955
 30
0.0
 40
28.069379999999999
  1
ヒビノ株式会社
 41
0.7
 11
475.51292499999988
 21
-829.93370249999964
 31
0.0
 73
     3
  0
LINE
  5
124
  8
HIBINO-BASE
 62
     7
 10
100.0
 20
-737.04320250000001
 30
0.0
 11
775.0
 21
-737.04320250000001
 31
0.0
  0
TEXT
  5
125
  8
HIBINO-BASE
 62
     7
 10
463.0
 20
-754.4835025000001
 30
0.0
 40
12.699999999999999
  1
DRAWN
 41
0.7
 11
463.0
 21
-741.78350250000005
 31
0.0
 73
     3
  0
TEXT
  5
126
  8
HIBINO-BASE
 62
     7
 10
275.5
 20
-754.4835025000001
 30
0.0
 40
12.699999999999999
  1
DATE
 41
0.7
 11
275.5
 21
-741.78350250000005
 31
0.0
 73
     3
  0
TEXT
  5
127
  8
HIBINO-BASE
 62
     7
 10
200.5
 20
-754.4835025000001
 30
0.0
 40
12.699999999999999
  1
SCALE
 41
0.7
 11
200.5
 21
-741.78350250000005
 31
0.0
 73
     3
  0
TEXT
  5
128
  8
HIBINO-BASE
 62
     7
 10
369.25
 20
-754.4835025000001
 30
0.0
 40
12.699999999999999
  1
DESIGN
 41
0.7
 11
369.25
 21
-741.78350250000005
 31
0.0
 73
     3
  0
TEXT
  5
129
  8
HIBINO-BASE
 62
     7
 10
650.49999999999989
 20
-754.4835025000001
 30
0.0
 40
12.699999999999999
  1
DRAWING NO.
 41
0.7
 11
650.49999999999989
 21
-741.78350250000005
 31
0.0
 73
     3
  0
TEXT
  5
12A
  8
HIBINO-BASE
 62
     7
 10
556.74999999999989
 20
-754.4835025000001
 30
0.0
 40
12.699999999999999
  1
CHECK
 41
0.7
 11
556.74999999999989
 21
-741.78350250000005
 31
0.0
 73
     3
  0
LINE
  5
12B
  8
HIBINO-BASE
 62
     7
 10
207.8125
 20
-802.66820250000012
 30
0.0
 11
235.9375
 21
-774.54320250000001
 31
0.0
  0
TEXT
  5
12C
  8
HIBINO-BASE
 62
     7
 10
203.125
 20
-781.90777750000007
 30
0.0
 40
12.699999999999999
  1
1
 41
0.7
 11
203.125
 21
-769.20777750000002
 31
0.0
 73
     3
  0
LINE
  5
12D
  8
HIBINO-BASE
 62
     7
 10
193.75
 20
-812.04320250000012
 30
0.0
 11
193.75
 21
-737.04320250000001
 31
0.0
  0
LINE
  5
12E
  8
HIBINO-BASE
 62
     7
 10
268.75
 20
-812.04320250000012
 30
0.0
 11
268.75
 21
-737.04320250000001
 31
0.0
  0
LINE
  5
12F
  8
HIBINO-BASE
 62
     7
 10
456.24999999999989
 20
-737.04320250000001
 30
0.0
 11
456.24999999999989
 21
-812.04320250000012
 31
0.0
  0
LINE
  5
130
  8
HIBINO-BASE
 62
     7
 10
643.75
 20
-737.04320250000001
 30
0.0
 11
643.75
 21
-812.04320250000012
 31
0.0
  0
LINE
  5
131
  8
HIBINO-BASE
 62
     7
 10
549.99999999999989
 20
-812.04320250000012
 30
0.0
 11
549.99999999999989
 21
-737.04320250000001
 31
0.0
  0
TEXT
  5
132
  8
HIBINO-BASE
 62
     7
 10
275.17405000000002
 20
-789.61335249999979
 30
0.0
 40
12.699999999999999
  1
'03.08.
 41
0.7
 11
275.17405000000002
 21
-776.91335249999986
 31
0.0
 73
     3
  0
TEXT
  5
133
  8
HIBINO-BASE
 62
     7
 10
231.25
 20
-795.97027750000007
 30
0.0
 40
12.699999999999999
  1
7.5
 41
0.7
 11
231.25
 21
-783.27027750000002
 31
0.0
 73
     3
  0
TEXT
  5
134
  8
HIBINO-BASE
 62
     7
 10
467.54357508275939
 20
-789.61335249999979
 30
0.0
 40
12.699999999999999
  1
N.Sasaki
 41
0.7
 11
467.54357508275939
 21
-776.91335249999986
 31
0.0
 73
     3
  0
TEXT
  5
135
  8
HIBINO-BASE
 62
     7
 10
129.12500000000011
 20
-795.31820249999998
 30
0.0
 40
25.399999999999999
  1
A4
 41
0.7
 11
129.12500000000011
 21
-769.91820249999989
 31
0.0
 73
     3
  0
TEXT
  5
136
  8
HIBINO-BASE
 62
     7
 10
107.1874999999999
 20
-753.61994833333335
 30
0.0
 40
10.58333333333333
  1
PAPER SIZE
 41
0.7
 11
107.1874999999999
 21
-743.03661499999998
 31
0.0
 73
     3
  0
LINE
  5
137
  8
DIMNSIONS
 62
     7
 10
-406.0
 20
-203.5
 30
0.0
 11
-493.0
 21
-203.5
 31
0.0
  0
LINE
  5
138
  8
DIMNSIONS
 62
     7
 10
-406.0
 20
103.5
 30
0.0
 11
-493.0
 21
103.5
 31
0.0
  0
LINE
  5
139
  8
DIMNSIONS
 62
     7
 10
-478.0
 20
-203.5
 30
0.0
 11
-478.0
 21
103.5
 31
0.0
  0
LINE
  5
13A
  8
DIMNSIONS
 62
     7
 10
-478.0
 20
-203.5
 30
0.0
 11
-483.02529846362671
 21
-184.74533081054679
 31
0.0
  0
LINE
  5
13B
  8
DIMNSIONS
 62
     7
 10
-478.0
 20
-203.5
 30
0.0
 11
-472.97470153637317
 21
-184.74533081054679
 31
0.0
  0
LINE
  5
13C
  8
DIMNSIONS
 62
     7
 10
-478.0
 20
103.5
 30
0.0
 11
-472.97470153637317
 21
84.745330810546847
 31
0.0
  0
LINE
  5
13D
  8
DIMNSIONS
 62
     7
 10
-478.0
 20
103.5
 30
0.0
 11
-483.02529846362671
 21
84.745330810546847
 31
0.0
  0
TEXT
  5
13E
  8
DIMNSIONS
 62
     7
 10
-487.04166666666652
 20
-69.84375
 30
0.0
 40
21.166666666666671
  1
307
 50
90.0
 41
0.7
 11
-508.2083333333332
 21
-69.84375
 31
0.0
 73
     3
  0
TEXT
  5
13F
  8
DIMNSIONS
 62
     7
 10
-50.0
 20
-753.02360770903294
 30
0.0
 40
19.050000000000001
  1
(単位：mm)
 41
0.7
 11
-50.0
 21
-733.97360770903299
 31
0.0
 73
     3
  0
LINE
  5
140
  8
DIMNSIONS
 62
     7
 10
282.91289383518267
 20
1023.5602035763339
 30
0.0
 11
325.0
 21
1075.0
 31
0.0
  0
LINE
  5
141
  8
DIMNSIONS
 62
     7
 10
282.91289383518267
 20
1023.5602035763339
 30
0.0
 11
291.11856085085742
 21
1041.1573132788451
 31
0.0
  0
LINE
  5
142
  8
DIMNSIONS
 62
     7
 10
282.91289383518267
 20
1023.5602035763339
 30
0.0
 11
298.81776477700868
 21
1034.696914104052
 31
0.0
  0
LINE
  5
143
  8
DIMNSIONS
 62
     7
 10
325.0
 20
1075.0
 30
0.0
 11
445.83333333333331
 21
1075.0
 31
0.0
  0
TEXT
  5
144
  8
DIMNSIONS
 62
     7
 10
340.0
 20
1084.0416666666661
 30
0.0
 40
21.166666666666671
  1
10-\U+03C69.2
 41
0.7
 11
340.0
 21
1105.208333333333
 31
0.0
 73
     3
  0
LINE
  5
145
  8
DIMNSIONS
 62
     7
 10
161.71026313764861
 20
1026.2709648380439
 30
0.0
 11
175.0
 21
1075.0
 31
0.0
  0
LINE
  5
146
  8
DIMNSIONS
 62
     7
 10
161.71026313764861
 20
1026.2709648380439
 30
0.0
 11
162.04912363850991
 21
1045.6842699305651
 31
0.0
  0
LINE
  5
147
  8
DIMNSIONS
 62
     7
 10
161.71026313764861
 20
1026.2709648380439
 30
0.0
 11
171.7103774859942
 21
1042.9139499691551
 31
0.0
  0
LINE
  5
148
  8
DIMNSIONS
 62
     7
 10
175.0
 20
1075.0
 30
0.0
 11
269.375
 21
1075.0
 31
0.0
  0
TEXT
  5
149
  8
DIMNSIONS
 62
     7
 10
190.0
 20
1084.0416666666661
 30
0.0
 40
21.166666666666671
  1
4-\U+03C613
 41
0.7
 11
190.0
 21
1105.208333333333
 31
0.0
 73
     3
  0
LINE
  5
14A
  8
DIMNSIONS
 62
     7
 10
122.0499999999999
 20
1037.5999999999999
 30
0.0
 11
-65.000000000000014
 21
1037.5999999999999
 31
0.0
  0
LINE
  5
14B
  8
DIMNSIONS
 62
     7
 10
122.0499999999999
 20
862.39999999999998
 30
0.0
 11
-65.000000000000014
 21
862.39999999999998
 31
0.0
  0
LINE
  5
14C
  8
DIMNSIONS
 62
     7
 10
-50.0
 20
1037.5999999999999
 30
0.0
 11
-50.0
 21
862.39999999999998
 31
0.0
  0
LINE
  5
14D
  8
DIMNSIONS
 62
     7
 10
-50.0
 20
1037.5999999999999
 30
0.0
 11
-44.974701536373182
 21
1018.845330810547
 31
0.0
  0
LINE
  5
14E
  8
DIMNSIONS
 62
     7
 10
-50.0
 20
1037.5999999999999
 30
0.0
 11
-55.025298463626832
 21
1018.845330810547
 31
0.0
  0
LINE
  5
14F
  8
DIMNSIONS
 62
     7
 10
-50.0
 20
862.39999999999998
 30
0.0
 11
-55.025298463626832
 21
881.15466918945299
 31
0.0
  0
LINE
  5
150
  8
DIMNSIONS
 62
     7
 10
-50.0
 20
862.39999999999998
 30
0.0
 11
-44.974701536373182
 21
881.15466918945299
 31
0.0
  0
TEXT
  5
151
  8
DIMNSIONS
 62
     7
 10
-59.04166666666665
 20
916.92708333333314
 30
0.0
 40
21.166666666666671
  1
175.2
 50
90.0
 41
0.7
 11
-80.208333333333329
 21
916.92708333333314
 31
0.0
 73
     3
  0
LINE
  5
152
  8
DIMNSIONS
 62
     7
 10
138.5000000000002
 20
1020.0
 30
0.0
 11
-15.000000000000011
 21
1020.0
 31
0.0
  0
LINE
  5
153
  8
DIMNSIONS
 62
     7
 10
138.5000000000002
 20
880.0
 30
0.0
 11
-15.000000000000011
 21
880.0
 31
0.0
  0
LINE
  5
154
  8
DIMNSIONS
 62
     7
 10
-0.0000000000000142
 20
1020.0
 30
0.0
 11
-0.0000000000000142
 21
880.0
 31
0.0
  0
LINE
  5
155
  8
DIMNSIONS
 62
     7
 10
-0.0000000000000142
 20
1020.0
 30
0.0
 11
5.0252984636267932
 21
1001.245330810547
 31
0.0
  0
LINE
  5
156
  8
DIMNSIONS
 62
     7
 10
-0.0000000000000142
 20
1020.0
 30
0.0
 11
-5.0252984636268403
 21
1001.245330810547
 31
0.0
  0
LINE
  5
157
  8
DIMNSIONS
 62
     7
 10
-0.0000000000000142
 20
880.0
 30
0.0
 11
-5.0252984636268403
 21
898.75466918945312
 31
0.0
  0
LINE
  5
158
  8
DIMNSIONS
 62
     7
 10
-0.0000000000000142
 20
880.0
 30
0.0
 11
5.0252984636268092
 21
898.75466918945312
 31
0.0
  0
TEXT
  5
159
  8
DIMNSIONS
 62
     7
 10
-9.0416666666666856
 20
930.15625000000011
 30
0.0
 40
21.166666666666671
  1
140
 50
90.0
 41
0.7
 11
-30.208333333333361
 21
930.15625000000011
 31
0.0
 73
     3
  0
LINE
  5
15A
  8
DIMNSIONS
 62
     7
 10
138.5000000000002
 20
1020.0
 30
0.0
 11
-15.000000000000011
 21
1020.0
 31
0.0
  0
LINE
  5
15B
  8
DIMNSIONS
 62
     7
 10
122.0499999999999
 20
1037.5999999999999
 30
0.0
 11
-15.000000000000011
 21
1037.5999999999999
 31
0.0
  0
LINE
  5
15C
  8
DIMNSIONS
 62
     7
 10
-0.0000000000000142
 20
1037.5999999999999
 30
0.0
 11
-0.0000000000000142
 21
1020.0
 31
0.0
  0
LINE
  5
15D
  8
DIMNSIONS
 62
     7
 10
-0.0000000000000142
 20
1020.0
 30
0.0
 11
-0.0000000000000142
 21
982.50000000000011
 31
0.0
  0
LINE
  5
15E
  8
DIMNSIONS
 62
     7
 10
-0.0000000000000142
 20
1020.0
 30
0.0
 11
5.0252984636267932
 21
1001.245330810547
 31
0.0
  0
LINE
  5
15F
  8
DIMNSIONS
 62
     7
 10
-0.0000000000000142
 20
1020.0
 30
0.0
 11
-5.0252984636268403
 21
1001.245330810547
 31
0.0
  0
LINE
  5
160
  8
DIMNSIONS
 62
     7
 10
-0.0000000000000142
 20
1037.5999999999999
 30
0.0
 11
-0.0000000000000142
 21
1102.916670931666
 31
0.0
  0
LINE
  5
161
  8
DIMNSIONS
 62
     7
 10
-0.0000000000000142
 20
1037.5999999999999
 30
0.0
 11
-5.0252984636268403
 21
1056.354669189453
 31
0.0
  0
LINE
  5
162
  8
DIMNSIONS
 62
     7
 10
-0.0000000000000142
 20
1037.5999999999999
 30
0.0
 11
5.0252984636268092
 21
1056.354669189453
 31
0.0
  0
TEXT
  5
163
  8
DIMNSIONS
 62
     7
 10
-9.0416666666666856
 20
1050.0000042649999
 30
0.0
 40
21.166666666666671
  1
17.6
 50
90.0
 41
0.7
 11
-30.208333333333361
 21
1050.0000042649999
 31
0.0
 73
     3
  0
LINE
  5
164
  8
DIMNSIONS
 62
     7
 10
138.5000000000002
 20
880.0
 30
0.0
 11
-15.000000000000011
 21
880.0
 31
0.0
  0
LINE
  5
165
  8
DIMNSIONS
 62
     7
 10
122.0499999999999
 20
862.39999999999998
 30
0.0
 11
-15.000000000000011
 21
862.39999999999998
 31
0.0
  0
LINE
  5
166
  8
DIMNSIONS
 62
     7
 10
-0.0000000000000142
 20
862.39999999999998
 30
0.0
 11
-0.0000000000000142
 21
880.0
 31
0.0
  0
LINE
  5
167
  8
DIMNSIONS
 62
     7
 10
-0.0000000000000142
 20
880.0
 30
0.0
 11
-0.0000000000000142
 21
917.5
 31
0.0
  0
LINE
  5
168
  8
DIMNSIONS
 62
     7
 10
-0.0000000000000142
 20
880.0
 30
0.0
 11
-5.0252984636268403
 21
898.75466918945312
 31
0.0
  0
LINE
  5
169
  8
DIMNSIONS
 62
     7
 10
-0.0000000000000142
 20
880.0
 30
0.0
 11
5.0252984636268092
 21
898.75466918945312
 31
0.0
  0
LINE
  5
16A
  8
DIMNSIONS
 62
     7
 10
-0.0000000000000142
 20
862.39999999999998
 30
0.0
 11
-0.0000000000000142
 21
790.73333333333312
 31
0.0
  0
LINE
  5
16B
  8
DIMNSIONS
 62
     7
 10
-0.0000000000000142
 20
862.39999999999998
 30
0.0
 11
5.0252984636267932
 21
843.64533081054685
 31
0.0
  0
LINE
  5
16C
  8
DIMNSIONS
 62
     7
 10
-0.0000000000000142
 20
862.39999999999998
 30
0.0
 11
-5.0252984636268403
 21
843.64533081054685
 31
0.0
  0
TEXT
  5
16D
  8
DIMNSIONS
 62
     7
 10
-9.0416666666666856
 20
790.73333333333312
 30
0.0
 40
21.166666666666671
  1
17.6
 50
90.0
 41
0.7
 11
-30.208333333333361
 21
790.73333333333312
 31
0.0
 73
     3
  0
LINE
  5
16E
  8
DIMNSIONS
 62
     7
 10
134.44999999999999
 20
850.0
 30
0.0
 11
134.44999999999999
 21
685.0
 31
0.0
  0
LINE
  5
16F
  8
DIMNSIONS
 62
     7
 10
665.55000000000007
 20
850.0
 30
0.0
 11
665.55000000000007
 21
685.0
 31
0.0
  0
LINE
  5
170
  8
DIMNSIONS
 62
     7
 10
134.44999999999999
 20
700.0
 30
0.0
 11
665.55000000000007
 21
700.0
 31
0.0
  0
LINE
  5
171
  8
DIMNSIONS
 62
     7
 10
134.44999999999999
 20
700.0
 30
0.0
 11
153.20466918945311
 21
705.02529846362654
 31
0.0
  0
LINE
  5
172
  8
DIMNSIONS
 62
     7
 10
134.44999999999999
 20
700.0
 30
0.0
 11
153.20466918945311
 21
694.97470153637335
 31
0.0
  0
LINE
  5
173
  8
DIMNSIONS
 62
     7
 10
665.55000000000007
 20
700.0
 30
0.0
 11
646.7953308105466
 21
694.97470153637335
 31
0.0
  0
LINE
  5
174
  8
DIMNSIONS
 62
     7
 10
665.55000000000007
 20
700.0
 30
0.0
 11
646.7953308105466
 21
705.02529846362654
 31
0.0
  0
TEXT
  5
175
  8
DIMNSIONS
 62
     7
 10
366.92708333333343
 20
709.04166666666652
 30
0.0
 40
21.166666666666671
  1
531.1
 41
0.7
 11
366.92708333333343
 21
730.20833333333314
 31
0.0
 73
     3
  0
LINE
  5
176
  8
DIMNSIONS
 62
     7
 10
134.44999999999999
 20
850.0
 30
0.0
 11
134.44999999999999
 21
735.0
 31
0.0
  0
LINE
  5
177
  8
DIMNSIONS
 62
     7
 10
160.0000000000002
 20
858.5
 30
0.0
 11
160.0000000000002
 21
735.0
 31
0.0
  0
LINE
  5
178
  8
DIMNSIONS
 62
     7
 10
160.0000000000002
 20
750.0
 30
0.0
 11
134.44999999999999
 21
750.0
 31
0.0
  0
LINE
  5
179
  8
DIMNSIONS
 62
     7
 10
134.44999999999999
 20
750.0
 30
0.0
 11
58.854166666666657
 21
750.0
 31
0.0
  0
LINE
  5
17A
  8
DIMNSIONS
 62
     7
 10
134.44999999999999
 20
750.0
 30
0.0
 11
115.69533081054691
 21
744.97470153637312
 31
0.0
  0
LINE
  5
17B
  8
DIMNSIONS
 62
     7
 10
134.44999999999999
 20
750.0
 30
0.0
 11
115.69533081054691
 21
755.02529846362654
 31
0.0
  0
LINE
  5
17C
  8
DIMNSIONS
 62
     7
 10
160.0000000000002
 20
750.0
 30
0.0
 11
197.5000000000002
 21
750.0
 31
0.0
  0
LINE
  5
17D
  8
DIMNSIONS
 62
     7
 10
160.0000000000002
 20
750.0
 30
0.0
 11
178.7546691894533
 21
755.02529846362654
 31
0.0
  0
LINE
  5
17E
  8
DIMNSIONS
 62
     7
 10
160.0000000000002
 20
750.0
 30
0.0
 11
178.7546691894533
 21
744.97470153637312
 31
0.0
  0
TEXT
  5
17F
  8
DIMNSIONS
 62
     7
 10
58.854166666666657
 20
759.04166666666652
 30
0.0
 40
21.166666666666671
  1
25.55
 41
0.7
 11
58.854166666666657
 21
780.20833333333314
 31
0.0
 73
     3
  0
LINE
  5
180
  8
DIMNSIONS
 62
     7
 10
160.0000000000002
 20
858.5
 30
0.0
 11
160.0000000000002
 21
735.0
 31
0.0
  0
LINE
  5
181
  8
DIMNSIONS
 62
     7
 10
640.0
 20
858.5
 30
0.0
 11
640.0
 21
735.0
 31
0.0
  0
LINE
  5
182
  8
DIMNSIONS
 62
     7
 10
160.0000000000002
 20
750.0
 30
0.0
 11
640.0
 21
750.0
 31
0.0
  0
LINE
  5
183
  8
DIMNSIONS
 62
     7
 10
160.0000000000002
 20
750.0
 30
0.0
 11
178.7546691894533
 21
755.02529846362654
 31
0.0
  0
LINE
  5
184
  8
DIMNSIONS
 62
     7
 10
160.0000000000002
 20
750.0
 30
0.0
 11
178.7546691894533
 21
744.97470153637312
 31
0.0
  0
LINE
  5
185
  8
DIMNSIONS
 62
     7
 10
640.0
 20
750.0
 30
0.0
 11
621.24533081054687
 21
744.97470153637312
 31
0.0
  0
LINE
  5
186
  8
DIMNSIONS
 62
     7
 10
640.0
 20
750.0
 30
0.0
 11
621.24533081054687
 21
755.02529846362654
 31
0.0
  0
TEXT
  5
187
  8
DIMNSIONS
 62
     7
 10
380.15625000000011
 20
759.04166666666652
 30
0.0
 40
21.166666666666671
  1
480
 41
0.7
 11
380.15625000000011
 21
780.20833333333314
 31
0.0
 73
     3
  0
LINE
  5
188
  8
DIMNSIONS
 62
     7
 10
134.45000000000019
 20
849.99999999999955
 30
0.0
 11
134.45000000000019
 21
785.0
 31
0.0
  0
LINE
  5
189
  8
DIMNSIONS
 62
     7
 10
180.0
 20
860.39999999999952
 30
0.0
 11
180.0
 21
785.0
 31
0.0
  0
LINE
  5
18A
  8
DIMNSIONS
 62
     7
 10
134.45000000000019
 20
800.0
 30
0.0
 11
58.854166666666892
 21
800.0
 31
0.0
  0
LINE
  5
18B
  8
DIMNSIONS
 62
     7
 10
134.45000000000019
 20
800.0
 30
0.0
 11
180.0
 21
800.0
 31
0.0
  0
LINE
  5
18C
  8
DIMNSIONS
 62
     7
 10
134.45000000000019
 20
800.0
 30
0.0
 11
153.2046691894534
 21
805.02529846362665
 31
0.0
  0
LINE
  5
18D
  8
DIMNSIONS
 62
     7
 10
134.45000000000019
 20
800.0
 30
0.0
 11
153.2046691894534
 21
794.97470153637312
 31
0.0
  0
LINE
  5
18E
  8
DIMNSIONS
 62
     7
 10
180.0
 20
800.0
 30
0.0
 11
161.2453308105469
 21
794.97470153637312
 31
0.0
  0
LINE
  5
18F
  8
DIMNSIONS
 62
     7
 10
180.0
 20
800.0
 30
0.0
 11
161.2453308105469
 21
805.02529846362688
 31
0.0
  0
TEXT
  5
190
  8
DIMNSIONS
 62
     7
 10
58.854166666666892
 20
809.04166666666663
 30
0.0
 40
21.166666666666671
  1
45.55
 41
0.7
 11
58.854166666666892
 21
830.20833333333314
 31
0.0
 73
     3
  0
LINE
  5
191
  8
DIMNSIONS
 62
     7
 10
180.0000000000002
 20
860.39999999999986
 30
0.0
 11
180.0000000000002
 21
785.0
 31
0.0
  0
LINE
  5
192
  8
DIMNSIONS
 62
     7
 10
280.00000000000028
 20
860.39999999999986
 30
0.0
 11
280.00000000000028
 21
785.0
 31
0.0
  0
LINE
  5
193
  8
DIMNSIONS
 62
     7
 10
180.0000000000002
 20
800.0
 30
0.0
 11
280.00000000000028
 21
800.0
 31
0.0
  0
LINE
  5
194
  8
DIMNSIONS
 62
     7
 10
180.0000000000002
 20
800.0
 30
0.0
 11
198.7546691894533
 21
805.02529846362665
 31
0.0
  0
LINE
  5
195
  8
DIMNSIONS
 62
     7
 10
180.0000000000002
 20
800.0
 30
0.0
 11
198.7546691894533
 21
794.97470153637312
 31
0.0
  0
LINE
  5
196
  8
DIMNSIONS
 62
     7
 10
280.00000000000028
 20
800.0
 30
0.0
 11
261.2453308105471
 21
794.97470153637312
 31
0.0
  0
LINE
  5
197
  8
DIMNSIONS
 62
     7
 10
280.00000000000028
 20
800.0
 30
0.0
 11
261.2453308105471
 21
805.02529846362688
 31
0.0
  0
TEXT
  5
198
  8
DIMNSIONS
 62
     7
 10
210.1562500000002
 20
809.04166666666663
 30
0.0
 40
21.166666666666671
  1
100
 41
0.7
 11
210.1562500000002
 21
830.20833333333314
 31
0.0
 73
     3
  0
LINE
  5
199
  8
DIMNSIONS
 62
     7
 10
280.00000000000028
 20
860.39999999999986
 30
0.0
 11
280.00000000000028
 21
785.0
 31
0.0
  0
LINE
  5
19A
  8
DIMNSIONS
 62
     7
 10
400.0
 20
860.39999999999986
 30
0.0
 11
400.0
 21
785.0
 31
0.0
  0
LINE
  5
19B
  8
DIMNSIONS
 62
     7
 10
280.00000000000028
 20
800.0
 30
0.0
 11
400.0
 21
800.0
 31
0.0
  0
LINE
  5
19C
  8
DIMNSIONS
 62
     7
 10
280.00000000000028
 20
800.0
 30
0.0
 11
298.75466918945341
 21
805.02529846362665
 31
0.0
  0
LINE
  5
19D
  8
DIMNSIONS
 62
     7
 10
280.00000000000028
 20
800.0
 30
0.0
 11
298.75466918945341
 21
794.97470153637312
 31
0.0
  0
LINE
  5
19E
  8
DIMNSIONS
 62
     7
 10
400.0
 20
800.0
 30
0.0
 11
381.2453308105471
 21
794.97470153637312
 31
0.0
  0
LINE
  5
19F
  8
DIMNSIONS
 62
     7
 10
400.0
 20
800.0
 30
0.0
 11
381.2453308105471
 21
805.02529846362688
 31
0.0
  0
TEXT
  5
1A0
  8
DIMNSIONS
 62
     7
 10
320.15625000000028
 20
809.04166666666663
 30
0.0
 40
21.166666666666671
  1
120
 41
0.7
 11
320.15625000000028
 21
830.20833333333314
 31
0.0
 73
     3
  0
LINE
  5
1A1
  8
DIMNSIONS
 62
     7
 10
400.0
 20
860.39999999999986
 30
0.0
 11
400.0
 21
785.0
 31
0.0
  0
LINE
  5
1A2
  8
DIMNSIONS
 62
     7
 10
520.0
 20
860.39999999999986
 30
0.0
 11
520.0
 21
785.0
 31
0.0
  0
LINE
  5
1A3
  8
DIMNSIONS
 62
     7
 10
400.0
 20
800.0
 30
0.0
 11
520.0
 21
800.0
 31
0.0
  0
LINE
  5
1A4
  8
DIMNSIONS
 62
     7
 10
400.0
 20
800.0
 30
0.0
 11
418.75466918945318
 21
805.02529846362665
 31
0.0
  0
LINE
  5
1A5
  8
DIMNSIONS
 62
     7
 10
400.0
 20
800.0
 30
0.0
 11
418.75466918945318
 21
794.97470153637312
 31
0.0
  0
LINE
  5
1A6
  8
DIMNSIONS
 62
     7
 10
520.0
 20
800.0
 30
0.0
 11
501.24533081054682
 21
794.97470153637312
 31
0.0
  0
LINE
  5
1A7
  8
DIMNSIONS
 62
     7
 10
520.0
 20
800.0
 30
0.0
 11
501.24533081054682
 21
805.02529846362688
 31
0.0
  0
TEXT
  5
1A8
  8
DIMNSIONS
 62
     7
 10
440.15624999999989
 20
809.04166666666663
 30
0.0
 40
21.166666666666671
  1
120
 41
0.7
 11
440.15624999999989
 21
830.20833333333314
 31
0.0
 73
     3
  0
LINE
  5
1A9
  8
DIMNSIONS
 62
     7
 10
520.0
 20
860.39999999999986
 30
0.0
 11
520.0
 21
785.0
 31
0.0
  0
LINE
  5
1AA
  8
DIMNSIONS
 62
     7
 10
620.0
 20
860.39999999999986
 30
0.0
 11
620.0
 21
785.0
 31
0.0
  0
LINE
  5
1AB
  8
DIMNSIONS
 62
     7
 10
520.0
 20
800.0
 30
0.0
 11
620.0
 21
800.0
 31
0.0
  0
LINE
  5
1AC
  8
DIMNSIONS
 62
     7
 10
520.0
 20
800.0
 30
0.0
 11
538.75466918945312
 21
805.02529846362665
 31
0.0
  0
LINE
  5
1AD
  8
DIMNSIONS
 62
     7
 10
520.0
 20
800.0
 30
0.0
 11
538.75466918945312
 21
794.97470153637312
 31
0.0
  0
LINE
  5
1AE
  8
DIMNSIONS
 62
     7
 10
620.0
 20
800.0
 30
0.0
 11
601.24533081054676
 21
794.97470153637312
 31
0.0
  0
LINE
  5
1AF
  8
DIMNSIONS
 62
     7
 10
620.0
 20
800.0
 30
0.0
 11
601.24533081054676
 21
805.02529846362688
 31
0.0
  0
TEXT
  5
1B0
  8
DIMNSIONS
 62
     7
 10
550.15625
 20
809.04166666666663
 30
0.0
 40
21.166666666666671
  1
100
 41
0.7
 11
550.15625
 21
830.20833333333314
 31
0.0
 73
     3
  0
LINE
  5
1B1
  8
DIMNSIONS
 62
     7
 10
-159.49996009399999
 20
-153.31009999999981
 30
0.0
 11
-159.49996009399999
 21
-265.0
 31
0.0
  0
LINE
  5
1B2
  8
DIMNSIONS
 62
     7
 10
-440.49999999999972
 20
-65.0
 30
0.0
 11
-440.49999999999972
 21
-265.0
 31
0.0
  0
LINE
  5
1B3
  8
DIMNSIONS
 62
     7
 10
-159.49996009399999
 20
-250.0
 30
0.0
 11
-440.49999999999972
 21
-250.0
 31
0.0
  0
LINE
  5
1B4
  8
DIMNSIONS
 62
     7
 10
-159.49996009399999
 20
-250.0
 30
0.0
 11
-178.25462928345311
 21
-255.0252984636268
 31
0.0
  0
LINE
  5
1B5
  8
DIMNSIONS
 62
     7
 10
-159.49996009399999
 20
-250.0
 30
0.0
 11
-178.25462928345311
 21
-244.9747015363732
 31
0.0
  0
LINE
  5
1B6
  8
DIMNSIONS
 62
     7
 10
-440.49999999999972
 20
-250.0
 30
0.0
 11
-421.74533081054659
 21
-244.9747015363732
 31
0.0
  0
LINE
  5
1B7
  8
DIMNSIONS
 62
     7
 10
-440.49999999999972
 20
-250.0
 30
0.0
 11
-421.74533081054659
 21
-255.0252984636268
 31
0.0
  0
TEXT
  5
1B8
  8
DIMNSIONS
 62
     7
 10
-319.84373004699989
 20
-240.9583333333334
 30
0.0
 40
21.166666666666671
  1
281
 41
0.7
 11
-319.84373004699989
 21
-219.79166666666671
 31
0.0
 73
     3
  0
LINE
  5
1B9
  8
DIMNSIONS
 62
     7
 10
174.9999999999998
 20
-2.4499957350003561
 30
0.0
 11
250.0
 21
150.0
 31
0.0
  0
LINE
  5
1BA
  8
DIMNSIONS
 62
     7
 10
174.9999999999998
 20
-2.4499957350003561
 30
0.0
 11
178.2284932533679
 21
12.73887083304373
 31
0.0
  0
LINE
  5
1BB
  8
DIMNSIONS
 62
     7
 10
174.9999999999998
 20
-2.4499957350003561
 30
0.0
 11
185.39039045738531
 21
9.0897019409338782
 31
0.0
  0
LINE
  5
1BC
  8
DIMNSIONS
 62
     7
 10
-117.0773991289998
 20
-54.627864195000022
 30
0.0
 11
-103.0
 21
-275.0
 31
0.0
  0
LINE
  5
1BD
  8
DIMNSIONS
 62
     7
 10
-117.0773991289998
 20
-54.627864195000022
 30
0.0
 11
-112.2789230183413
 21
-69.396055124302464
 31
0.0
  0
LINE
  5
1BE
  8
DIMNSIONS
 62
     7
 10
-117.0773991289998
 20
-54.627864195000022
 30
0.0
 11
-120.305892382368
 21
-69.81673076304412
 31
0.0
  0
LINE
  5
1BF
  8
DIMNSIONS
 62
     7
 10
-153.0
 20
150.0
 30
0.0
 11
72.0
 21
150.0
 31
0.0
  0
LINE
  5
1C0
  8
DIMNSIONS
 62
     7
 10
-103.0
 20
-275.0
 30
0.0
 11
72.000000000000014
 21
-275.0
 31
0.0
  0
TEXT
  5
1C1
  8
DIMNSIONS
 62
     7
 10
-81.125001509984344
 20
-266.125
 30
0.0
 40
15.0
  1
角度固定ねじ
 41
0.7
  0
TEXT
  5
1C2
  8
DIMNSIONS
 62
     7
 10
-81.125001509984344
 20
-297.375
 30
0.0
 40
15.0
  1
Ｍ６→Ｍ５変更
 41
0.7
  0
TEXT
  5
1C3
  8
DIMNSIONS
 62
     7
 10
-143.62500381469721
 20
158.875
 30
0.0
 40
15.0
  1
文字・矢印　マーキング
 41
0.7
  0
LINE
  5
1C4
  8
DIMNSIONS
 62
     7
 10
250.0
 20
150.0
 30
0.0
 11
425.0
 21
150.0
 31
0.0
  0
TEXT
  5
1C5
  8
DIMNSIONS
 62
     7
 10
271.87499849001563
 20
165.125
 30
0.0
 40
15.0
  1
文字　スリット
 41
0.7
  0
TEXT
  5
1C6
  8
DIMNSIONS
 62
     7
 10
271.87499849001563
 20
121.375
 30
0.0
 40
15.0
  1
矢印　穴抜き
 41
0.7
  0
LINE
  5
1C7
  8
DIMNSIONS
 62
     7
 10
-172.44949999999969
 20
25.950004264999961
 30
0.0
 11
-153.0
 21
150.0
 31
0.0
  0
LINE
  5
1C8
  8
DIMNSIONS
 62
     7
 10
-172.44949999999969
 20
25.950004264999961
 30
0.0
 11
-174.0726383483879
 21
41.393134071191533
 31
0.0
  0
LINE
  5
1C9
  8
DIMNSIONS
 62
     7
 10
-172.44949999999969
 20
25.950004264999961
 30
0.0
 11
-166.13361414046491
 21
40.135716165296671
 31
0.0
  0
LINE
  5
1CA
  8
DIMNSIONS
 62
     7
 10
282.4037854664744
 20
-123.92196576109031
 30
0.0
 11
375.0
 21
-275.0
 31
0.0
  0
LINE
  5
1CB
  8
DIMNSIONS
 62
     7
 10
282.4037854664744
 20
-123.92196576109031
 30
0.0
 11
296.37067570067472
 21
-137.40963487922011
 31
0.0
  0
LINE
  5
1CC
  8
DIMNSIONS
 62
     7
 10
282.4037854664744
 20
-123.92196576109031
 30
0.0
 11
287.75563266209582
 21
-142.5860749723297
 31
0.0
  0
LINE
  5
1CD
  8
DIMNSIONS
 62
     7
 10
375.0
 20
-275.0
 30
0.0
 11
495.83333333333331
 21
-275.0
 31
0.0
  0
TEXT
  5
1CE
  8
DIMNSIONS
 62
     7
 10
390.0
 20
-265.95833333333343
 30
0.0
 40
21.166666666666671
  1
10-\U+03C69.2
 41
0.7
 11
390.0
 21
-244.79166666666671
 31
0.0
 73
     3
  0
LINE
  5
1CF
  8
DIMNSIONS
 62
     7
 10
163.2638808630125
 20
-125.6211281529658
 30
0.0
 11
250.0
 21
-275.0
 31
0.0
  0
LINE
  5
1D0
  8
DIMNSIONS
 62
     7
 10
163.2638808630125
 20
-125.6211281529658
 30
0.0
 11
176.9932515888388
 21
-139.35049887879211
 31
0.0
  0
LINE
  5
1D1
  8
DIMNSIONS
 62
     7
 10
163.2638808630125
 20
-125.6211281529658
 30
0.0
 11
168.28917932663941
 21
-144.37579734241899
 31
0.0
  0
LINE
  5
1D2
  8
DIMNSIONS
 62
     7
 10
250.0
 20
-275.0
 30
0.0
 11
344.375
 21
-275.0
 31
0.0
  0
TEXT
  5
1D3
  8
DIMNSIONS
 62
     7
 10
265.0
 20
-265.95833333333343
 30
0.0
 40
21.166666666666671
  1
4-\U+03C613
 41
0.7
 11
265.0
 21
-244.79166666666671
 31
0.0
 73
     3
  0
LINE
  5
1D4
  8
DIMNSIONS
 62
     7
 10
-100.0
 20
50.0
 30
0.0
 11
-100.0
 21
140.0
 31
0.0
  0
LINE
  5
1D5
  8
DIMNSIONS
 62
     7
 10
-340.0
 20
1.0
 30
0.0
 11
-340.0
 21
140.0
 31
0.0
  0
LINE
  5
1D6
  8
DIMNSIONS
 62
     7
 10
-100.0
 20
125.0
 30
0.0
 11
-340.0
 21
125.0
 31
0.0
  0
LINE
  5
1D7
  8
DIMNSIONS
 62
     7
 10
-100.0
 20
125.0
 30
0.0
 11
-118.7546691894531
 21
119.9747015363731
 31
0.0
  0
LINE
  5
1D8
  8
DIMNSIONS
 62
     7
 10
-100.0
 20
125.0
 30
0.0
 11
-118.7546691894531
 21
130.0252984636268
 31
0.0
  0
LINE
  5
1D9
  8
DIMNSIONS
 62
     7
 10
-340.0
 20
125.0
 30
0.0
 11
-321.24533081054687
 21
130.0252984636268
 31
0.0
  0
LINE
  5
1DA
  8
DIMNSIONS
 62
     7
 10
-340.0
 20
125.0
 30
0.0
 11
-321.24533081054687
 21
119.9747015363731
 31
0.0
  0
TEXT
  5
1DB
  8
DIMNSIONS
 62
     7
 10
-239.84375
 20
134.0416666666666
 30
0.0
 40
21.166666666666671
  1
240
 41
0.7
 11
-239.84375
 21
155.20833333333329
 31
0.0
 73
     3
  0
LINE
  5
1DC
  8
DIMNSIONS
 62
     7
 10
-340.0
 20
1.0
 30
0.0
 11
-340.0
 21
140.0
 31
0.0
  0
LINE
  5
1DD
  8
DIMNSIONS
 62
     7
 10
-440.49999999999972
 20
-35.0
 30
0.0
 11
-440.49999999999972
 21
140.0
 31
0.0
  0
LINE
  5
1DE
  8
DIMNSIONS
 62
     7
 10
-340.0
 20
125.0
 30
0.0
 11
-440.49999999999972
 21
125.0
 31
0.0
  0
LINE
  5
1DF
  8
DIMNSIONS
 62
     7
 10
-340.0
 20
125.0
 30
0.0
 11
-358.75466918945312
 21
119.9747015363731
 31
0.0
  0
LINE
  5
1E0
  8
DIMNSIONS
 62
     7
 10
-340.0
 20
125.0
 30
0.0
 11
-358.75466918945312
 21
130.0252984636268
 31
0.0
  0
LINE
  5
1E1
  8
DIMNSIONS
 62
     7
 10
-440.49999999999972
 20
125.0
 30
0.0
 11
-421.74533081054659
 21
130.0252984636268
 31
0.0
  0
LINE
  5
1E2
  8
DIMNSIONS
 62
     7
 10
-440.49999999999972
 20
125.0
 30
0.0
 11
-421.74533081054659
 21
119.9747015363731
 31
0.0
  0
TEXT
  5
1E3
  8
DIMNSIONS
 62
     7
 10
-423.32291666666652
 20
134.0416666666666
 30
0.0
 40
21.166666666666671
  1
100.5
 41
0.7
 11
-423.32291666666652
 21
155.20833333333329
 31
0.0
 73
     3
  0
LINE
  5
1E4
  8
DIMNSIONS
 62
     7
 10
-107.018311221
 20
-394.04862839600003
 30
0.0
 11
-38.000000000000021
 21
-394.04862839600003
 31
0.0
  0
LINE
  5
1E5
  8
DIMNSIONS
 62
     7
 10
-107.018311221
 20
-569.24862839600007
 30
0.0
 11
-38.000000000000021
 21
-569.24862839600007
 31
0.0
  0
LINE
  5
1E6
  8
DIMNSIONS
 62
     7
 10
-53.0
 20
-394.04862839600003
 30
0.0
 11
-53.0
 21
-569.24862839600007
 31
0.0
  0
LINE
  5
1E7
  8
DIMNSIONS
 62
     7
 10
-53.0
 20
-394.04862839600003
 30
0.0
 11
-47.974701536373189
 21
-412.8032975854527
 31
0.0
  0
LINE
  5
1E8
  8
DIMNSIONS
 62
     7
 10
-53.0
 20
-394.04862839600003
 30
0.0
 11
-58.025298463626839
 21
-412.8032975854527
 31
0.0
  0
LINE
  5
1E9
  8
DIMNSIONS
 62
     7
 10
-53.0
 20
-569.24862839600007
 30
0.0
 11
-58.025298463626839
 21
-550.49395920654695
 31
0.0
  0
LINE
  5
1EA
  8
DIMNSIONS
 62
     7
 10
-53.0
 20
-569.24862839600007
 30
0.0
 11
-47.974701536373189
 21
-550.49395920654695
 31
0.0
  0
TEXT
  5
1EB
  8
DIMNSIONS
 62
     7
 10
-62.041666666666643
 20
-514.72154506266645
 30
0.0
 40
21.166666666666671
  1
175.2
 50
90.0
 41
0.7
 11
-83.208333333333314
 21
-514.72154506266645
 31
0.0
 73
     3
  0
LINE
  5
1EC
  8
DIMNSIONS
 62
     7
 10
-107.018311221
 20
-394.04862839600003
 30
0.0
 11
-38.000000000000021
 21
-394.04862839600003
 31
0.0
  0
LINE
  5
1ED
  8
DIMNSIONS
 62
     7
 10
-254.83726050300021
 20
-355.11051663299997
 30
0.0
 11
-38.000000000000021
 21
-355.11051663299997
 31
0.0
  0
LINE
  5
1EE
  8
DIMNSIONS
 62
     7
 10
-53.0
 20
-394.04862839600003
 30
0.0
 11
-53.0
 21
-355.11051663299997
 31
0.0
  0
LINE
  5
1EF
  8
DIMNSIONS
 62
     7
 10
-53.0
 20
-394.04862839600003
 30
0.0
 11
-58.025298463626839
 21
-375.2939592065469
 31
0.0
  0
LINE
  5
1F0
  8
DIMNSIONS
 62
     7
 10
-53.0
 20
-394.04862839600003
 30
0.0
 11
-47.974701536373189
 21
-375.2939592065469
 31
0.0
  0
LINE
  5
1F1
  8
DIMNSIONS
 62
     7
 10
-53.0
 20
-355.11051663299997
 30
0.0
 11
-47.974701536373189
 21
-373.86518582245321
 31
0.0
  0
LINE
  5
1F2
  8
DIMNSIONS
 62
     7
 10
-53.0
 20
-355.11051663299997
 30
0.0
 11
-58.025298463626839
 21
-373.86518582245321
 31
0.0
  0
TEXT
  5
1F3
  8
DIMNSIONS
 62
     7
 10
-62.041666666666643
 20
-387.80873918116652
 30
0.0
 40
21.166666666666671
  1
39
 50
90.0
 41
0.7
 11
-83.208333333333314
 21
-387.80873918116652
 31
0.0
 73
     3
  0
LINE
  5
1F4
  8
DIMNSIONS
 62
     7
 10
-107.018311221
 20
-569.24862839600007
 30
0.0
 11
-38.000000000000021
 21
-569.24862839600007
 31
0.0
  0
LINE
  5
1F5
  8
DIMNSIONS
 62
     7
 10
-296.50278662324422
 20
-715.94215673416079
 30
0.0
 11
-38.000000000000021
 21
-715.94215673416079
 31
0.0
  0
LINE
  5
1F6
  8
DIMNSIONS
 62
     7
 10
-53.0
 20
-569.24862839600007
 30
0.0
 11
-53.0
 21
-715.94215673416079
 31
0.0
  0
LINE
  5
1F7
  8
DIMNSIONS
 62
     7
 10
-53.0
 20
-569.24862839600007
 30
0.0
 11
-47.974701536373189
 21
-588.00329758545331
 31
0.0
  0
LINE
  5
1F8
  8
DIMNSIONS
 62
     7
 10
-53.0
 20
-569.24862839600007
 30
0.0
 11
-58.025298463626839
 21
-588.00329758545331
 31
0.0
  0
LINE
  5
1F9
  8
DIMNSIONS
 62
     7
 10
-53.0
 20
-715.94215673416079
 30
0.0
 11
-58.025298463626839
 21
-697.18748754470766
 31
0.0
  0
LINE
  5
1FA
  8
DIMNSIONS
 62
     7
 10
-53.0
 20
-715.94215673416079
 30
0.0
 11
-47.974701536373189
 21
-697.18748754470766
 31
0.0
  0
TEXT
  5
1FB
  8
DIMNSIONS
 62
     7
 10
-62.041666666666643
 20
-662.43914256508015
 30
0.0
 40
21.166666666666671
  1
147
 50
90.0
 41
0.7
 11
-83.208333333333314
 21
-662.43914256508015
 31
0.0
 73
     3
  0
LINE
  5
1FC
  8
DIMNSIONS
 62
     7
 10
-119.4183112210001
 20
-381.64862839600011
 30
0.0
 11
-119.4183112210001
 21
-310.0
 31
0.0
  0
LINE
  5
1FD
  8
DIMNSIONS
 62
     7
 10
-359.41831122100001
 20
-430.64862839599988
 30
0.0
 11
-359.41831122100001
 21
-310.0
 31
0.0
  0
LINE
  5
1FE
  8
DIMNSIONS
 62
     7
 10
-119.4183112210001
 20
-325.0
 30
0.0
 11
-359.41831122100001
 21
-325.0
 31
0.0
  0
LINE
  5
1FF
  8
DIMNSIONS
 62
     7
 10
-119.4183112210001
 20
-325.0
 30
0.0
 11
-138.17298041045319
 21
-330.02529846362683
 31
0.0
  0
LINE
  5
200
  8
DIMNSIONS
 62
     7
 10
-119.4183112210001
 20
-325.0
 30
0.0
 11
-138.17298041045319
 21
-319.97470153637317
 31
0.0
  0
LINE
  5
201
  8
DIMNSIONS
 62
     7
 10
-359.41831122100001
 20
-325.0
 30
0.0
 11
-340.66364203154689
 21
-319.97470153637317
 31
0.0
  0
LINE
  5
202
  8
DIMNSIONS
 62
     7
 10
-359.41831122100001
 20
-325.0
 30
0.0
 11
-340.66364203154689
 21
-330.02529846362683
 31
0.0
  0
TEXT
  5
203
  8
DIMNSIONS
 62
     7
 10
-259.26206122100012
 20
-315.95833333333343
 30
0.0
 40
21.166666666666671
  1
240
 41
0.7
 11
-259.26206122100012
 21
-294.79166666666669
 31
0.0
 73
     3
  0
LINE
  5
204
  8
DIMNSIONS
 62
     7
 10
-359.41831122100001
 20
-430.64862839599988
 30
0.0
 11
-359.41831122100001
 21
-310.0
 31
0.0
  0
LINE
  5
205
  8
DIMNSIONS
 62
     7
 10
-499.19676865000002
 20
-477.2571793460001
 30
0.0
 11
-499.19676865000002
 21
-310.0
 31
0.0
  0
LINE
  5
206
  8
DIMNSIONS
 62
     7
 10
-359.41831122100001
 20
-325.0
 30
0.0
 11
-499.19676865000002
 21
-325.0
 31
0.0
  0
LINE
  5
207
  8
DIMNSIONS
 62
     7
 10
-359.41831122100001
 20
-325.0
 30
0.0
 11
-378.17298041045319
 21
-330.02529846362683
 31
0.0
  0
LINE
  5
208
  8
DIMNSIONS
 62
     7
 10
-359.41831122100001
 20
-325.0
 30
0.0
 11
-378.17298041045319
 21
-319.97470153637317
 31
0.0
  0
LINE
  5
209
  8
DIMNSIONS
 62
     7
 10
-499.19676865000002
 20
-325.0
 30
0.0
 11
-480.4420994605469
 21
-319.97470153637317
 31
0.0
  0
LINE
  5
20A
  8
DIMNSIONS
 62
     7
 10
-499.19676865000002
 20
-325.0
 30
0.0
 11
-480.4420994605469
 21
-330.02529846362683
 31
0.0
  0
TEXT
  5
20B
  8
DIMNSIONS
 62
     7
 10
-449.15128993550002
 20
-315.95833333333343
 30
0.0
 40
21.166666666666671
  1
140
 41
0.7
 11
-449.15128993550002
 21
-294.79166666666669
 31
0.0
 73
     3
  0
LINE
  5
20C
  8
DIMNSIONS
 62
     7
 10
134.44999999999999
 20
-149.99999147
 30
0.0
 11
134.44999999999999
 21
-465.0
 31
0.0
  0
LINE
  5
20D
  8
DIMNSIONS
 62
     7
 10
665.54999999999995
 20
-150.00000000000011
 30
0.0
 11
665.54999999999995
 21
-465.0
 31
0.0
  0
LINE
  5
20E
  8
DIMNSIONS
 62
     7
 10
134.44999999999999
 20
-450.0
 30
0.0
 11
665.54999999999995
 21
-450.0
 31
0.0
  0
LINE
  5
20F
  8
DIMNSIONS
 62
     7
 10
134.44999999999999
 20
-450.0
 30
0.0
 11
153.20466918945311
 21
-444.97470153637317
 31
0.0
  0
LINE
  5
210
  8
DIMNSIONS
 62
     7
 10
134.44999999999999
 20
-450.0
 30
0.0
 11
153.20466918945311
 21
-455.02529846362683
 31
0.0
  0
LINE
  5
211
  8
DIMNSIONS
 62
     7
 10
665.54999999999995
 20
-450.0
 30
0.0
 11
646.7953308105466
 21
-455.02529846362683
 31
0.0
  0
LINE
  5
212
  8
DIMNSIONS
 62
     7
 10
665.54999999999995
 20
-450.0
 30
0.0
 11
646.7953308105466
 21
-444.97470153637312
 31
0.0
  0
TEXT
  5
213
  8
DIMNSIONS
 62
     7
 10
366.92708333333331
 20
-440.9583333333332
 30
0.0
 40
21.166666666666671
  1
531.1
 41
0.7
 11
366.92708333333331
 21
-419.79166666666657
 31
0.0
 73
     3
  0
LINE
  5
214
  8
DIMNSIONS
 62
     7
 10
660.35010000000011
 20
-208.5
 30
0.0
 11
660.35010000000011
 21
-365.0
 31
0.0
  0
LINE
  5
215
  8
DIMNSIONS
 62
     7
 10
139.65010000000001
 20
-208.5
 30
0.0
 11
139.65010000000001
 21
-365.0
 31
0.0
  0
LINE
  5
216
  8
DIMNSIONS
 62
     7
 10
660.35010000000011
 20
-350.0
 30
0.0
 11
139.65010000000001
 21
-350.0
 31
0.0
  0
LINE
  5
217
  8
DIMNSIONS
 62
     7
 10
660.35010000000011
 20
-350.0
 30
0.0
 11
641.59543081054699
 21
-355.02529846362683
 31
0.0
  0
LINE
  5
218
  8
DIMNSIONS
 62
     7
 10
660.35010000000011
 20
-350.0
 30
0.0
 11
641.59543081054699
 21
-344.97470153637317
 31
0.0
  0
LINE
  5
219
  8
DIMNSIONS
 62
     7
 10
139.65010000000001
 20
-350.0
 30
0.0
 11
158.40476918945319
 21
-344.97470153637317
 31
0.0
  0
LINE
  5
21A
  8
DIMNSIONS
 62
     7
 10
139.65010000000001
 20
-350.0
 30
0.0
 11
158.40476918945319
 21
-355.02529846362683
 31
0.0
  0
TEXT
  5
21B
  8
DIMNSIONS
 62
     7
 10
366.9271833333334
 20
-340.95833333333343
 30
0.0
 40
21.166666666666671
  1
520.7
 41
0.7
 11
366.9271833333334
 21
-319.79166666666669
 31
0.0
 73
     3
  0
LINE
  5
21C
  8
DIMNSIONS
 62
     7
 10
134.65010000000001
 20
103.5
 30
0.0
 11
35.0
 21
103.5
 31
0.0
  0
LINE
  5
21D
  8
DIMNSIONS
 62
     7
 10
134.65010000000001
 20
-203.5
 30
0.0
 11
35.0
 21
-203.5
 31
0.0
  0
LINE
  5
21E
  8
DIMNSIONS
 62
     7
 10
50.0
 20
103.5
 30
0.0
 11
50.0
 21
-203.5
 31
0.0
  0
LINE
  5
21F
  8
DIMNSIONS
 62
     7
 10
50.0
 20
103.5
 30
0.0
 11
55.025298463626811
 21
84.745330810546847
 31
0.0
  0
LINE
  5
220
  8
DIMNSIONS
 62
     7
 10
50.0
 20
103.5
 30
0.0
 11
44.974701536373182
 21
84.745330810546847
 31
0.0
  0
LINE
  5
221
  8
DIMNSIONS
 62
     7
 10
50.0
 20
-203.5
 30
0.0
 11
44.974701536373168
 21
-184.74533081054679
 31
0.0
  0
LINE
  5
222
  8
DIMNSIONS
 62
     7
 10
50.0
 20
-203.5
 30
0.0
 11
55.025298463626832
 21
-184.74533081054679
 31
0.0
  0
TEXT
  5
223
  8
DIMNSIONS
 62
     7
 10
40.958333333333343
 20
-69.84375
 30
0.0
 40
21.166666666666671
  1
307
 50
90.0
 41
0.7
 11
19.791666666666671
 21
-69.84375
 31
0.0
 73
     3
  0
LINE
  5
224
  8
DIMNSIONS
 62
     7
 10
122.0499999999999
 20
-137.60000000000019
 30
0.0
 11
85.0
 21
-137.60000000000019
 31
0.0
  0
LINE
  5
225
  8
DIMNSIONS
 62
     7
 10
122.0499999999999
 20
37.599999999999902
 30
0.0
 11
85.0
 21
37.599999999999902
 31
0.0
  0
LINE
  5
226
  8
DIMNSIONS
 62
     7
 10
100.0
 20
-137.60000000000019
 30
0.0
 11
100.0
 21
37.599999999999902
 31
0.0
  0
LINE
  5
227
  8
DIMNSIONS
 62
     7
 10
100.0
 20
-137.60000000000019
 30
0.0
 11
94.974701536373161
 21
-118.8453308105471
 31
0.0
  0
LINE
  5
228
  8
DIMNSIONS
 62
     7
 10
100.0
 20
-137.60000000000019
 30
0.0
 11
105.0252984636268
 21
-118.8453308105471
 31
0.0
  0
LINE
  5
229
  8
DIMNSIONS
 62
     7
 10
100.0
 20
37.599999999999902
 30
0.0
 11
105.0252984636268
 21
18.84533081054678
 31
0.0
  0
LINE
  5
22A
  8
DIMNSIONS
 62
     7
 10
100.0
 20
37.599999999999902
 30
0.0
 11
94.974701536373161
 21
18.84533081054678
 31
0.0
  0
TEXT
  5
22B
  8
DIMNSIONS
 62
     7
 10
90.958333333333329
 20
-83.072916666666814
 30
0.0
 40
21.166666666666671
  1
175.2
 50
90.0
 41
0.7
 11
69.791666666666657
 21
-83.072916666666814
 31
0.0
 73
     3
  0
LINE
  5
22C
  8
BRACKET
 62
     7
 10
137.0499999999999
 20
468.69999999999999
 30
0.0
 11
134.44999999999999
 21
468.69999999999999
 31
0.0
  0
LINE
  5
22D
  8
BRACKET
 62
     7
 10
662.95000000000005
 20
468.69999999999999
 30
0.0
 11
665.54999999999995
 21
468.69999999999999
 31
0.0
  0
LINE
  5
22E
  8
BRACKET
 62
     7
 10
134.44999999999999
 20
468.69999999999999
 30
0.0
 11
134.44999999999999
 21
231.30000000000001
 31
0.0
  0
ARC
  5
22F
  8
BRACKET
 62
     7
 10
137.0499999999999
 20
231.30000000000001
 30
0.0
 40
2.5999999999999082
 50
180.0
 51
270.0
  0
LINE
  5
230
  8
BRACKET
 62
     7
 10
137.0499999999999
 20
468.69999999999999
 30
0.0
 11
137.0499999999999
 21
228.69999999999999
 31
0.0
  0
LINE
  5
231
  8
BRACKET
 62
     7
 10
662.95000000000005
 20
243.69999999999999
 30
0.0
 11
137.0499999999999
 21
243.69999999999999
 31
0.0
  0
LINE
  5
232
  8
BRACKET
 62
     7
 10
662.95000000000005
 20
231.30000000000001
 30
0.0
 11
137.0499999999999
 21
231.30000000000001
 31
0.0
  0
LINE
  5
233
  8
BRACKET
 62
     7
 10
662.95000000000005
 20
468.69999999999999
 30
0.0
 11
662.95000000000005
 21
228.69999999999999
 31
0.0
  0
LINE
  5
234
  8
BRACKET
 62
     7
 10
665.54999999999995
 20
468.69999999999999
 30
0.0
 11
665.54999999999995
 21
231.30000000000001
 31
0.0
  0
LINE
  5
235
  8
BRACKET
 62
     7
 10
662.95000000000005
 20
228.69999999999999
 30
0.0
 11
137.0499999999999
 21
228.69999999999999
 31
0.0
  0
ARC
  5
236
  8
BRACKET
 62
     7
 10
662.95000000000005
 20
231.30000000000001
 30
0.0
 40
2.6000000000000201
 50
270.0
 51
0.0
  0
POLYLINE
  5
237
  8
BRACKET
 62
     7
 66
     1
 10
0.0
 20
0.0
 30
0.0
 70
     1
  0
VERTEX
  5
F74
  8
BRACKET
 62
     7
 10
660.35000000000014
 20
516.70000000000005
 30
0.0
  0
VERTEX
  5
F75
  8
BRACKET
 62
     7
 10
662.95000000000005
 20
516.70000000000005
 30
0.0
  0
VERTEX
  5
F76
  8
BRACKET
 62
     7
 10
662.95000000000005
 20
237.69999999999999
 30
0.0
  0
VERTEX
  5
F77
  8
BRACKET
 62
     7
 10
660.35000000000014
 20
237.69999999999999
 30
0.0
  0
SEQEND
  5
F78
  8
BRACKET
 62
     7
  0
POLYLINE
  5
23D
  8
BRACKET
 62
     7
 66
     1
 10
0.0
 20
0.0
 30
0.0
 70
     1
  0
VERTEX
  5
F79
  8
BRACKET
 62
     7
 10
137.0499999999999
 20
516.70000000099981
 30
0.0
  0
VERTEX
  5
F7A
  8
BRACKET
 62
     7
 10
139.64999999999981
 20
516.70000000099981
 30
0.0
  0
VERTEX
  5
F7B
  8
BRACKET
 62
     7
 10
139.64999999999981
 20
237.70000000100001
 30
0.0
  0
VERTEX
  5
F7C
  8
BRACKET
 62
     7
 10
137.0499999999999
 20
237.70000000100001
 30
0.0
  0
SEQEND
  5
F7D
  8
BRACKET
 62
     7
  0
ARC
  5
243
  8
BRACKET
 62
     7
 10
204.4500000000003
 20
987.5
 30
0.0
 40
10.0
 50
90.0
 51
180.0
  0
LINE
  5
244
  8
BRACKET
 62
     7
 10
194.4500000000003
 20
912.50000852999995
 30
0.0
 11
194.4500000000003
 21
987.5
 31
0.0
  0
ARC
  5
245
  8
BRACKET
 62
     7
 10
204.4500000000003
 20
912.49999999999955
 30
0.0
 40
10.0
 50
179.9999511260001
 51
270.0
  0
LINE
  5
246
  8
BRACKET
 62
     7
 10
204.4500000000003
 20
902.49999999999955
 30
0.0
 11
595.55000000000007
 21
902.49999999999955
 31
0.0
  0
ARC
  5
247
  8
BRACKET
 62
     7
 10
595.55000000000007
 20
912.49999999999955
 30
0.0
 40
10.0
 50
270.0
 51
0.0000378559998353
  0
LINE
  5
248
  8
BRACKET
 62
     7
 10
605.55000000000018
 20
912.50000660699993
 30
0.0
 11
605.55000000000018
 21
987.5
 31
0.0
  0
ARC
  5
249
  8
BRACKET
 62
     7
 10
595.55000000000007
 20
987.5
 30
0.0
 40
10.0
 50
0.0
 51
89.999912573998131
  0
LINE
  5
24A
  8
BRACKET
 62
     7
 10
204.4500000000003
 20
997.49999999999989
 30
0.0
 11
595.55001525900025
 21
997.49999999999989
 31
0.0
  0
LINE
  5
24B
  8
BRACKET
 62
     7
 10
665.55000000000007
 20
864.99999999999955
 30
0.0
 11
665.55000000000007
 21
1035.0
 31
0.0
  0
LINE
  5
24C
  8
BRACKET
 62
     7
 10
662.95000000000005
 20
1037.5999999999999
 30
0.0
 11
137.05000000000021
 21
1037.5999999999999
 31
0.0
  0
LINE
  5
24D
  8
BRACKET
 62
     7
 10
662.95000000000005
 20
862.39999999999975
 30
0.0
 11
137.05000000000021
 21
862.39999999999975
 31
0.0
  0
LINE
  5
24E
  8
BRACKET
 62
     7
 10
134.45000000000019
 20
864.99999999999955
 30
0.0
 11
134.45000000000019
 21
1035.0
 31
0.0
  0
LINE
  5
24F
  8
BRACKET
 62
     7
 10
139.65000000000001
 20
1035.0
 30
0.0
 11
139.65000000000001
 21
1037.5999999999999
 31
0.0
  0
ARC
  5
250
  8
BRACKET
 62
     7
 10
137.05000000000021
 20
1035.0
 30
0.0
 40
2.600000000000362
 50
270.0
 51
0.0
  0
LINE
  5
251
  8
BRACKET
 62
     7
 10
137.05000000000021
 20
1032.399999999999
 30
0.0
 11
134.45000000000019
 21
1032.399999999999
 31
0.0
  0
LINE
  5
252
  8
BRACKET
 62
     7
 10
137.05000000000021
 20
1032.399999999999
 30
0.0
 11
137.05000000000021
 21
1037.5999999999999
 31
0.0
  0
LINE
  5
253
  8
BRACKET
 62
     7
 10
139.65000000000001
 20
1035.0
 30
0.0
 11
134.45000000000019
 21
1035.0
 31
0.0
  0
LINE
  5
254
  8
BRACKET
 62
     7
 10
660.35000000000025
 20
1035.0
 30
0.0
 11
660.35000000000025
 21
1037.5999999999999
 31
0.0
  0
ARC
  5
255
  8
BRACKET
 62
     7
 10
662.95000000000005
 20
1035.0
 30
0.0
 40
2.5999999999999082
 50
180.0
 51
270.0
  0
LINE
  5
256
  8
BRACKET
 62
     7
 10
662.95000000000005
 20
1032.399999999999
 30
0.0
 11
665.55000000000007
 21
1032.399999999999
 31
0.0
  0
LINE
  5
257
  8
BRACKET
 62
     7
 10
662.95000000000005
 20
1032.399999999999
 30
0.0
 11
662.95000000000005
 21
1037.5999999999999
 31
0.0
  0
LINE
  5
258
  8
BRACKET
 62
     7
 10
660.35000000000025
 20
1035.0
 30
0.0
 11
665.55000000000007
 21
1035.0
 31
0.0
  0
LINE
  5
259
  8
BRACKET
 62
     7
 10
139.65000000000001
 20
865.00000852999983
 30
0.0
 11
139.65000000000001
 21
862.40000852999981
 31
0.0
  0
ARC
  5
25A
  8
BRACKET
 62
     7
 10
137.05000000000021
 20
865.00000852999983
 30
0.0
 40
2.5999999999999082
 50
0.0
 51
90.0
  0
LINE
  5
25B
  8
BRACKET
 62
     7
 10
137.05000000000021
 20
867.60000852999985
 30
0.0
 11
134.45000000000019
 21
867.60000852999985
 31
0.0
  0
LINE
  5
25C
  8
BRACKET
 62
     7
 10
137.05000000000021
 20
867.60000852999985
 30
0.0
 11
137.05000000000021
 21
862.40000852999981
 31
0.0
  0
LINE
  5
25D
  8
BRACKET
 62
     7
 10
139.65000000000001
 20
865.00000852999983
 30
0.0
 11
134.45000000000019
 21
865.00000852999983
 31
0.0
  0
LINE
  5
25E
  8
BRACKET
 62
     7
 10
660.35000000000025
 20
865.0000066069997
 30
0.0
 11
660.35000000000025
 21
862.4000066069998
 31
0.0
  0
ARC
  5
25F
  8
BRACKET
 62
     7
 10
662.95000000000005
 20
865.0000066069997
 30
0.0
 40
2.6000000000001351
 50
90.0
 51
180.0
  0
LINE
  5
260
  8
BRACKET
 62
     7
 10
662.95000000000005
 20
867.60000660699995
 30
0.0
 11
665.55000000000007
 21
867.60000660699995
 31
0.0
  0
LINE
  5
261
  8
BRACKET
 62
     7
 10
662.95000000000005
 20
867.60000660699995
 30
0.0
 11
662.95000000000005
 21
862.4000066069998
 31
0.0
  0
LINE
  5
262
  8
BRACKET
 62
     7
 10
660.35000000000025
 20
865.0000066069997
 30
0.0
 11
665.55000000000007
 21
865.0000066069997
 31
0.0
  0
LINE
  5
263
  8
BRACKET
 62
     7
 10
660.35000000000025
 20
1035.0
 30
0.0
 11
139.65000000000001
 21
1035.0
 31
0.0
  0
LINE
  5
264
  8
BRACKET
 62
     7
 10
662.95000000000005
 20
867.60000660699995
 30
0.0
 11
662.95000000000005
 21
1032.399999999999
 31
0.0
  0
LINE
  5
265
  8
BRACKET
 62
     7
 10
137.05000000000021
 20
867.60000852999985
 30
0.0
 11
137.05000000000021
 21
1032.399999999999
 31
0.0
  0
LINE
  5
266
  8
BRACKET
 62
     7
 10
660.35000000000025
 20
864.99999999999955
 30
0.0
 11
139.65000000000001
 21
864.99999999999955
 31
0.0
  0
LINE
  5
267
  8
BRACKET
 62
     7
 10
154.4500000000003
 20
955.00000426499957
 30
0.0
 11
159.4500000000001
 21
955.00000426499957
 31
0.0
  0
LINE
  5
268
  8
BRACKET
 62
     7
 10
154.4500000000003
 20
955.00000426499957
 30
0.0
 11
164.45000000000019
 21
965.00000426500014
 31
0.0
  0
LINE
  5
269
  8
BRACKET
 62
     7
 10
159.4500000000001
 20
950.00000426500003
 30
0.0
 11
159.4500000000001
 21
955.00000426499957
 31
0.0
  0
LINE
  5
26A
  8
BRACKET
 62
     7
 10
164.45000000000019
 20
965.00000426500014
 30
0.0
 11
174.4500000000003
 21
955.00000426499957
 31
0.0
  0
LINE
  5
26B
  8
BRACKET
 62
     7
 10
169.4500000000003
 20
950.00000426500003
 30
0.0
 11
169.4500000000003
 21
955.00000426499957
 31
0.0
  0
LINE
  5
26C
  8
BRACKET
 62
     7
 10
169.4500000000003
 20
955.00000426499957
 30
0.0
 11
174.4500000000003
 21
955.00000426499957
 31
0.0
  0
LINE
  5
26D
  8
BRACKET
 62
     7
 10
159.4500000000001
 20
950.00000426500003
 30
0.0
 11
169.4500000000003
 21
950.00000426500003
 31
0.0
  0
LINE
  5
26E
  8
BRACKET
 62
     7
 10
176.4324218750003
 20
980.71875426499957
 30
0.0
 11
176.4324218750003
 21
973.10156676499957
 31
0.0
  0
LINE
  5
26F
  8
BRACKET
 62
     7
 10
167.9949218750001
 20
973.10156676499957
 30
0.0
 11
167.9949218750001
 21
980.71875426499957
 31
0.0
  0
LINE
  5
270
  8
BRACKET
 62
     7
 10
160.9050781250003
 20
980.71875426499957
 30
0.0
 11
160.9050781250003
 21
969.00000426499957
 31
0.0
  0
LINE
  5
271
  8
BRACKET
 62
     7
 10
155.6316406250003
 20
980.71875426499957
 30
0.0
 11
159.90507812500019
 21
980.71875426499957
 31
0.0
  0
LINE
  5
272
  8
BRACKET
 62
     7
 10
159.90507812500019
 20
974.27344176499957
 30
0.0
 11
155.6316406250003
 21
974.27344176499957
 31
0.0
  0
POLYLINE
  5
273
  8
BRACKET
 62
     7
 66
     1
 10
0.0
 20
0.0
 30
0.0
 70
   128
  0
VERTEX
  5
F7E
  8
BRACKET
 62
     7
 10
155.6316406250003
 20
974.27344176499957
 30
0.0
 42
-0.0243765490006949
  0
VERTEX
  5
F7F
  8
BRACKET
 62
     7
 10
155.37759159500041
 20
974.3129395779996
 30
0.0
  0
VERTEX
  5
F80
  8
BRACKET
 62
     7
 10
155.37759159500041
 20
974.3129395779996
 30
0.0
  0
VERTEX
  5
F81
  8
BRACKET
 62
     7
 10
155.37759159500041
 20
974.3129395779996
 30
0.0
 42
-0.024208642000912
  0
VERTEX
  5
F82
  8
BRACKET
 62
     7
 10
155.1276540960001
 20
974.37711352300005
 30
0.0
  0
VERTEX
  5
F83
  8
BRACKET
 62
     7
 10
155.1276540960001
 20
974.37711352300005
 30
0.0
  0
VERTEX
  5
F84
  8
BRACKET
 62
     7
 10
155.1276540960001
 20
974.37711352300005
 30
0.0
 42
-0.0239653980002683
  0
VERTEX
  5
F85
  8
BRACKET
 62
     7
 10
154.88376566700009
 20
974.46546611799943
 30
0.0
  0
VERTEX
  5
F86
  8
BRACKET
 62
     7
 10
154.88376566700009
 20
974.46546611799943
 30
0.0
  0
VERTEX
  5
F87
  8
BRACKET
 62
     7
 10
154.88376566699711
 20
974.46546611800068
 30
0.0
 42
-0.0236586449991909
  0
VERTEX
  5
F88
  8
BRACKET
 62
     7
 10
154.64781695200011
 20
974.57731244499962
 30
0.0
  0
VERTEX
  5
F89
  8
BRACKET
 62
     7
 10
154.64781695200011
 20
974.57731244499962
 30
0.0
  0
VERTEX
  5
F8A
  8
BRACKET
 62
     7
 10
154.64781695199511
 20
974.57731244500246
 30
0.0
 42
-0.0233024819990923
  0
VERTEX
  5
F8B
  8
BRACKET
 62
     7
 10
154.42163704900031
 20
974.71178546099964
 30
0.0
  0
VERTEX
  5
F8C
  8
BRACKET
 62
     7
 10
154.42163704900031
 20
974.71178546099964
 30
0.0
  0
VERTEX
  5
F8D
  8
BRACKET
 62
     7
 10
154.42163704899281
 20
974.71178546100464
 30
0.0
 42
-0.0229121639986681
  0
VERTEX
  5
F8E
  8
BRACKET
 62
     7
 10
154.2069793220069
 20
974.86784271999466
 30
0.0
  0
VERTEX
  5
F8F
  8
BRACKET
 62
     7
 10
154.20697932200031
 20
974.86784271999954
 30
0.0
  0
VERTEX
  5
F90
  8
BRACKET
 62
     7
 10
154.20697932200031
 20
974.86784271999954
 30
0.0
  0
VERTEX
  5
F91
  8
BRACKET
 62
     7
 10
154.20697932199911
 20
974.86784272000034
 30
0.0
 42
-0.0225030649998763
  0
VERTEX
  5
F92
  8
BRACKET
 62
     7
 10
154.0055078200003
 20
975.04427445099964
 30
0.0
  0
VERTEX
  5
F93
  8
BRACKET
 62
     7
 10
154.0055078200003
 20
975.04427445099964
 30
0.0
  0
VERTEX
  5
F94
  8
BRACKET
 62
     7
 10
154.0055078200003
 20
975.04427445099964
 30
0.0
 42
-0.0220898390002687
  0
VERTEX
  5
F95
  8
BRACKET
 62
     7
 10
153.81878436700021
 20
975.23971293999955
 30
0.0
  0
VERTEX
  5
F96
  8
BRACKET
 62
     7
 10
153.81878436700021
 20
975.23971293999955
 30
0.0
  0
VERTEX
  5
F97
  8
BRACKET
 62
     7
 10
153.8187843669981
 20
975.23971294000182
 30
0.0
 42
-0.0216858179993791
  0
VERTEX
  5
F98
  8
BRACKET
 62
     7
 10
153.64825645900009
 20
975.45264312999996
 30
0.0
  0
VERTEX
  5
F99
  8
BRACKET
 62
     7
 10
153.64825645900009
 20
975.45264312999996
 30
0.0
  0
VERTEX
  5
F9A
  8
BRACKET
 62
     7
 10
153.64825645899731
 20
975.45264313000325
 30
0.0
 42
-0.0213026569993096
  0
VERTEX
  5
F9B
  8
BRACKET
 62
     7
 10
153.49524604600029
 20
975.6814143659999
 30
0.0
  0
VERTEX
  5
F9C
  8
BRACKET
 62
     7
 10
153.49524604600029
 20
975.6814143659999
 30
0.0
  0
VERTEX
  5
F9D
  8
BRACKET
 62
     7
 10
153.49524604600029
 20
975.6814143659999
 30
0.0
 42
-0.0209501920000445
  0
VERTEX
  5
F9E
  8
BRACKET
 62
     7
 10
153.3609392770004
 20
975.92425319500001
 30
0.0
  0
VERTEX
  5
F9F
  8
BRACKET
 62
     7
 10
153.3609392770004
 20
975.92425319500001
 30
0.0
  0
VERTEX
  5
FA0
  8
BRACKET
 62
     7
 10
153.3609392770004
 20
975.92425319500001
 30
0.0
 42
-0.0206364630009794
  0
VERTEX
  5
FA1
  8
BRACKET
 62
     7
 10
153.2463773100003
 20
976.17927710599986
 30
0.0
  0
VERTEX
  5
FA2
  8
BRACKET
 62
     7
 10
153.2463773100003
 20
976.17927710599986
 30
0.0
  0
VERTEX
  5
FA3
  8
BRACKET
 62
     7
 10
153.2463773099997
 20
976.17927710600134
 30
0.0
 42
-0.0203678369995974
  0
VERTEX
  5
FA4
  8
BRACKET
 62
     7
 10
153.1524482410004
 20
976.44450913199967
 30
0.0
  0
VERTEX
  5
FA5
  8
BRACKET
 62
     7
 10
153.1524482410004
 20
976.44450913199967
 30
0.0
  0
VERTEX
  5
FA6
  8
BRACKET
 62
     7
 10
153.1524482410004
 20
976.44450913199967
 30
0.0
 42
-0.0201491930004346
  0
VERTEX
  5
FA7
  8
BRACKET
 62
     7
 10
153.07988021600019
 20
976.71789317000002
 30
0.0
  0
VERTEX
  5
FA8
  8
BRACKET
 62
     7
 10
153.07988021600019
 20
976.71789317000002
 30
0.0
  0
VERTEX
  5
FA9
  8
BRACKET
 62
     7
 10
153.07988021599971
 20
976.71789317000173
 30
0.0
 42
-0.019984125999665
  0
VERTEX
  5
FAA
  8
BRACKET
 62
     7
 10
153.02923578800019
 20
976.99730992299953
 30
0.0
  0
VERTEX
  5
FAB
  8
BRACKET
 62
     7
 10
153.02923578800019
 20
976.99730992299953
 30
0.0
  0
SEQEND
  5
FAC
  8
BRACKET
 62
     7
  0
POLYLINE
  5
2A3
  8
BRACKET
 62
     7
 66
     1
 10
0.0
 20
0.0
 30
0.0
 70
   128
  0
VERTEX
  5
FAD
  8
BRACKET
 62
     7
 10
153.0292357880009
 20
977.9948861090046
 30
0.0
 42
-0.0199515439995479
  0
VERTEX
  5
FAE
  8
BRACKET
 62
     7
 10
153.07988021600019
 20
978.27430286099957
 30
0.0
  0
VERTEX
  5
FAF
  8
BRACKET
 62
     7
 10
153.07988021600019
 20
978.27430286099957
 30
0.0
  0
VERTEX
  5
FB0
  8
BRACKET
 62
     7
 10
153.07988021600019
 20
978.27430286099957
 30
0.0
 42
-0.0201027890000551
  0
VERTEX
  5
FB1
  8
BRACKET
 62
     7
 10
153.1524482410004
 20
978.54768689899993
 30
0.0
  0
VERTEX
  5
FB2
  8
BRACKET
 62
     7
 10
153.1524482410004
 20
978.54768689899993
 30
0.0
  0
VERTEX
  5
FB3
  8
BRACKET
 62
     7
 10
153.15244824100179
 20
978.54768689900447
 30
0.0
 42
-0.0203083289993125
  0
VERTEX
  5
FB4
  8
BRACKET
 62
     7
 10
153.24637731100029
 20
978.81291892499985
 30
0.0
  0
VERTEX
  5
FB5
  8
BRACKET
 62
     7
 10
153.24637731100029
 20
978.81291892499985
 30
0.0
  0
VERTEX
  5
FB6
  8
BRACKET
 62
     7
 10
153.246377311
 20
978.81291892499985
 30
0.0
 42
-0.020564863999854
  0
VERTEX
  5
FB7
  8
BRACKET
 62
     7
 10
153.3609392770004
 20
979.06794283599982
 30
0.0
  0
VERTEX
  5
FB8
  8
BRACKET
 62
     7
 10
153.3609392770004
 20
979.06794283599982
 30
0.0
  0
VERTEX
  5
FB9
  8
BRACKET
 62
     7
 10
153.36093927700099
 20
979.06794283600073
 30
0.0
 42
-0.0208678529999531
  0
VERTEX
  5
FBA
  8
BRACKET
 62
     7
 10
153.49524604600029
 20
979.31078166500004
 30
0.0
  0
VERTEX
  5
FBB
  8
BRACKET
 62
     7
 10
153.49524604600029
 20
979.31078166500004
 30
0.0
  0
VERTEX
  5
FBC
  8
BRACKET
 62
     7
 10
153.4952460460016
 20
979.31078166500163
 30
0.0
 42
-0.0212113189994815
  0
VERTEX
  5
FBD
  8
BRACKET
 62
     7
 10
153.64825646000011
 20
979.53955290099952
 30
0.0
  0
VERTEX
  5
FBE
  8
BRACKET
 62
     7
 10
153.64825646000011
 20
979.53955290099952
 30
0.0
  0
VERTEX
  5
FBF
  8
BRACKET
 62
     7
 10
153.64825646000011
 20
979.53955290099952
 30
0.0
 42
-0.0215876560007952
  0
VERTEX
  5
FC0
  8
BRACKET
 62
     7
 10
153.81878436700021
 20
979.75248309100004
 30
0.0
  0
VERTEX
  5
FC1
  8
BRACKET
 62
     7
 10
153.81878436700021
 20
979.75248309100004
 30
0.0
  0
VERTEX
  5
FC2
  8
BRACKET
 62
     7
 10
153.81878436700021
 20
979.75248309100004
 30
0.0
 42
-0.0219874850010305
  0
VERTEX
  5
FC3
  8
BRACKET
 62
     7
 10
154.00550782100021
 20
979.94792157999984
 30
0.0
  0
VERTEX
  5
FC4
  8
BRACKET
 62
     7
 10
154.00550782100021
 20
979.94792157999984
 30
0.0
  0
VERTEX
  5
FC5
  8
BRACKET
 62
     7
 10
154.00550782100439
 20
979.94792158000348
 30
0.0
 42
-0.0223995979990281
  0
VERTEX
  5
FC6
  8
BRACKET
 62
     7
 10
154.20697932300021
 20
980.12435331100005
 30
0.0
  0
VERTEX
  5
FC7
  8
BRACKET
 62
     7
 10
154.20697932300021
 20
980.12435331100005
 30
0.0
  0
VERTEX
  5
FC8
  8
BRACKET
 62
     7
 10
154.2069793230003
 20
980.12435331100005
 30
0.0
 42
-0.0228110600002158
  0
VERTEX
  5
FC9
  8
BRACKET
 62
     7
 10
154.42163704900031
 20
980.28041056899974
 30
0.0
  0
VERTEX
  5
FCA
  8
BRACKET
 62
     7
 10
154.42163704900031
 20
980.28041056899974
 30
0.0
  0
VERTEX
  5
FCB
  8
BRACKET
 62
     7
 10
154.42163704900031
 20
980.28041056899974
 30
0.0
 42
-0.0232074990007167
  0
VERTEX
  5
FCC
  8
BRACKET
 62
     7
 10
154.6478169530005
 20
980.41488358599952
 30
0.0
  0
VERTEX
  5
FCD
  8
BRACKET
 62
     7
 10
154.6478169530005
 20
980.41488358599952
 30
0.0
  0
VERTEX
  5
FCE
  8
BRACKET
 62
     7
 10
154.6478169530005
 20
980.41488358599952
 30
0.0
 42
-0.023573652000185
  0
VERTEX
  5
FCF
  8
BRACKET
 62
     7
 10
154.88376566700009
 20
980.52672991199995
 30
0.0
  0
VERTEX
  5
FD0
  8
BRACKET
 62
     7
 10
154.88376566700009
 20
980.52672991199995
 30
0.0
  0
VERTEX
  5
FD1
  8
BRACKET
 62
     7
 10
154.88376566700009
 20
980.52672991199995
 30
0.0
 42
-0.0238941429999199
  0
VERTEX
  5
FD2
  8
BRACKET
 62
     7
 10
155.1276540960001
 20
980.61508250699956
 30
0.0
  0
VERTEX
  5
FD3
  8
BRACKET
 62
     7
 10
155.1276540960001
 20
980.61508250699956
 30
0.0
  0
VERTEX
  5
FD4
  8
BRACKET
 62
     7
 10
155.1276540960001
 20
980.61508250699956
 30
0.0
 42
-0.0241544810010392
  0
VERTEX
  5
FD5
  8
BRACKET
 62
     7
 10
155.37759159500041
 20
980.67925645199955
 30
0.0
  0
VERTEX
  5
FD6
  8
BRACKET
 62
     7
 10
155.37759159500041
 20
980.67925645199955
 30
0.0
  0
VERTEX
  5
FD7
  8
BRACKET
 62
     7
 10
155.3775915950049
 20
980.67925645200046
 30
0.0
 42
-0.0243421659992489
  0
VERTEX
  5
FD8
  8
BRACKET
 62
     7
 10
155.6316406250003
 20
980.71875426499957
 30
0.0
  0
VERTEX
  5
FD9
  8
BRACKET
 62
     7
 10
155.6316406250003
 20
980.71875426499957
 30
0.0
  0
SEQEND
  5
FDA
  8
BRACKET
 62
     7
  0
POLYLINE
  5
2D2
  8
BRACKET
 62
     7
 66
     1
 10
0.0
 20
0.0
 30
0.0
 70
   128
  0
VERTEX
  5
FDB
  8
BRACKET
 62
     7
 10
176.4324218750003
 20
973.10156676499957
 30
0.0
 42
-0.0199078940004593
  0
VERTEX
  5
FDC
  8
BRACKET
 62
     7
 10
176.36643359800021
 20
972.69199368599993
 30
0.0
  0
VERTEX
  5
FDD
  8
BRACKET
 62
     7
 10
176.36643359800021
 20
972.69199368599993
 30
0.0
  0
VERTEX
  5
FDE
  8
BRACKET
 62
     7
 10
176.36643359799979
 20
972.69199368599755
 30
0.0
 42
-0.0200452239998808
  0
VERTEX
  5
FDF
  8
BRACKET
 62
     7
 10
176.26830162200031
 20
972.29045012899985
 30
0.0
  0
VERTEX
  5
FE0
  8
BRACKET
 62
     7
 10
176.26830162200031
 20
972.29045012899985
 30
0.0
  0
VERTEX
  5
FE1
  8
BRACKET
 62
     7
 10
176.268301621999
 20
972.29045012899553
 30
0.0
 42
-0.0202373669995666
  0
VERTEX
  5
FE2
  8
BRACKET
 62
     7
 10
176.13878552200001
 20
971.9000441689999
 30
0.0
  0
VERTEX
  5
FE3
  8
BRACKET
 62
     7
 10
176.13878552200001
 20
971.9000441689999
 30
0.0
  0
VERTEX
  5
FE4
  8
BRACKET
 62
     7
 10
176.13878552200001
 20
971.9000441689999
 30
0.0
 42
-0.0204813090002588
  0
VERTEX
  5
FE5
  8
BRACKET
 62
     7
 10
175.97888779100049
 20
971.52379767200011
 30
0.0
  0
VERTEX
  5
FE6
  8
BRACKET
 62
     7
 10
175.97888779100049
 20
971.52379767200011
 30
0.0
  0
VERTEX
  5
FE7
  8
BRACKET
 62
     7
 10
175.97888779100049
 20
971.52379767200011
 30
0.0
 42
-0.020772845000313
  0
VERTEX
  5
FE8
  8
BRACKET
 62
     7
 10
175.78984609099999
 20
971.16462290599952
 30
0.0
  0
VERTEX
  5
FE9
  8
BRACKET
 62
     7
 10
175.78984609099999
 20
971.16462290599952
 30
0.0
  0
VERTEX
  5
FEA
  8
BRACKET
 62
     7
 10
175.78984609099999
 20
971.16462290599952
 30
0.0
 42
-0.0211063900002522
  0
VERTEX
  5
FEB
  8
BRACKET
 62
     7
 10
175.57312366300039
 20
970.82529999899998
 30
0.0
  0
VERTEX
  5
FEC
  8
BRACKET
 62
     7
 10
175.57312366300039
 20
970.82529999899998
 30
0.0
  0
VERTEX
  5
FED
  8
BRACKET
 62
     7
 10
175.57312366300039
 20
970.82529999899998
 30
0.0
 42
-0.0214747810003162
  0
VERTEX
  5
FEE
  8
BRACKET
 62
     7
 10
175.33039800900039
 20
970.50845541699982
 30
0.0
  0
VERTEX
  5
FEF
  8
BRACKET
 62
     7
 10
175.33039800900039
 20
970.50845541699982
 30
0.0
  0
VERTEX
  5
FF0
  8
BRACKET
 62
     7
 10
175.33039800900039
 20
970.50845541699982
 30
0.0
 42
-0.0218691170000838
  0
VERTEX
  5
FF1
  8
BRACKET
 62
     7
 10
175.06354790200021
 20
970.21654163899996
 30
0.0
  0
VERTEX
  5
FF2
  8
BRACKET
 62
     7
 10
175.06354790200021
 20
970.21654163899996
 30
0.0
  0
VERTEX
  5
FF3
  8
BRACKET
 62
     7
 10
175.06354790199811
 20
970.21654163899814
 30
0.0
 42
-0.0222786789996927
  0
VERTEX
  5
FF4
  8
BRACKET
 62
     7
 10
174.77463884599999
 20
969.95181816899992
 30
0.0
  0
VERTEX
  5
FF5
  8
BRACKET
 62
     7
 10
174.77463884599999
 20
969.95181816899992
 30
0.0
  0
VERTEX
  5
FF6
  8
BRACKET
 62
     7
 10
174.77463884599939
 20
969.95181816899924
 30
0.0
 42
-0.0226909799999554
  0
VERTEX
  5
FF7
  8
BRACKET
 62
     7
 10
174.4659070910001
 20
969.71633405299963
 30
0.0
  0
VERTEX
  5
FF8
  8
BRACKET
 62
     7
 10
174.4659070910001
 20
969.71633405299963
 30
0.0
  0
VERTEX
  5
FF9
  8
BRACKET
 62
     7
 10
174.4659070910001
 20
969.71633405299963
 30
0.0
 42
-0.0230920160001649
  0
VERTEX
  5
FFA
  8
BRACKET
 62
     7
 10
174.13974231900011
 20
969.5119120119997
 30
0.0
  0
VERTEX
  5
FFB
  8
BRACKET
 62
     7
 10
174.13974231900011
 20
969.5119120119997
 30
0.0
  0
VERTEX
  5
FFC
  8
BRACKET
 62
     7
 10
174.1397423189994
 20
969.51191201199924
 30
0.0
 42
-0.0234667270000534
  0
VERTEX
  5
FFD
  8
BRACKET
 62
     7
 10
173.798669147
 20
969.34013433699965
 30
0.0
  0
VERTEX
  5
FFE
  8
BRACKET
 62
     7
 10
173.798669147
 20
969.34013433699965
 30
0.0
  0
VERTEX
  5
FFF
  8
BRACKET
 62
     7
 10
173.798669146999
 20
969.34013433699909
 30
0.0
 42
-0.0237997269997965
  0
VERTEX
  5
1000
  8
BRACKET
 62
     7
 10
173.4453275920003
 20
969.20233064299941
 30
0.0
  0
VERTEX
  5
1001
  8
BRACKET
 62
     7
 10
173.4453275920003
 20
969.20233064299941
 30
0.0
  0
VERTEX
  5
1002
  8
BRACKET
 62
     7
 10
173.4453275920003
 20
969.20233064299941
 30
0.0
 42
-0.0240762410004165
  0
VERTEX
  5
1003
  8
BRACKET
 62
     7
 10
173.0824526300002
 20
969.09956757500004
 30
0.0
  0
VERTEX
  5
1004
  8
BRACKET
 62
     7
 10
173.0824526300002
 20
969.09956757500004
 30
0.0
  0
VERTEX
  5
1005
  8
BRACKET
 62
     7
 10
173.0824526300002
 20
969.09956757500004
 30
0.0
 42
-0.0242831960004886
  0
VERTEX
  5
1006
  8
BRACKET
 62
     7
 10
172.7128530280001
 20
969.03264055
 30
0.0
  0
VERTEX
  5
1007
  8
BRACKET
 62
     7
 10
172.7128530280001
 20
969.03264055
 30
0.0
  0
SEQEND
  5
1008
  8
BRACKET
 62
     7
  0
POLYLINE
  5
301
  8
BRACKET
 62
     7
 66
     1
 10
0.0
 20
0.0
 30
0.0
 70
   128
  0
VERTEX
  5
1009
  8
BRACKET
 62
     7
 10
171.71449072199991
 20
969.03264055
 30
0.0
 42
-0.0243227860003547
  0
VERTEX
  5
100A
  8
BRACKET
 62
     7
 10
171.34489112000031
 20
969.09956757500004
 30
0.0
  0
VERTEX
  5
100B
  8
BRACKET
 62
     7
 10
171.34489112000031
 20
969.09956757500004
 30
0.0
  0
VERTEX
  5
100C
  8
BRACKET
 62
     7
 10
171.3448911200004
 20
969.09956757500004
 30
0.0
 42
-0.0241349579997098
  0
VERTEX
  5
100D
  8
BRACKET
 62
     7
 10
170.98201615800011
 20
969.20233064299941
 30
0.0
  0
VERTEX
  5
100E
  8
BRACKET
 62
     7
 10
170.98201615800011
 20
969.20233064299941
 30
0.0
  0
VERTEX
  5
100F
  8
BRACKET
 62
     7
 10
170.9820161579899
 20
969.20233064300282
 30
0.0
 42
-0.0238746989987103
  0
VERTEX
  5
1010
  8
BRACKET
 62
     7
 10
170.6286746030114
 20
969.34013433699431
 30
0.0
  0
VERTEX
  5
1011
  8
BRACKET
 62
     7
 10
170.62867460299981
 20
969.34013433699965
 30
0.0
  0
VERTEX
  5
1012
  8
BRACKET
 62
     7
 10
170.62867460299981
 20
969.34013433699965
 30
0.0
  0
VERTEX
  5
1013
  8
BRACKET
 62
     7
 10
170.6286746029939
 20
969.34013433700227
 30
0.0
 42
-0.0235544829992261
  0
VERTEX
  5
1014
  8
BRACKET
 62
     7
 10
170.28760143100041
 20
969.5119120119997
 30
0.0
  0
VERTEX
  5
1015
  8
BRACKET
 62
     7
 10
170.28760143100041
 20
969.5119120119997
 30
0.0
  0
VERTEX
  5
1016
  8
BRACKET
 62
     7
 10
170.28760143100041
 20
969.5119120119997
 30
0.0
 42
-0.0231887640001497
  0
VERTEX
  5
1017
  8
BRACKET
 62
     7
 10
169.9614366590003
 20
969.71633405299963
 30
0.0
  0
VERTEX
  5
1018
  8
BRACKET
 62
     7
 10
169.9614366590003
 20
969.71633405299963
 30
0.0
  0
VERTEX
  5
1019
  8
BRACKET
 62
     7
 10
169.96143665899959
 20
969.71633405299997
 30
0.0
 42
-0.0227928700000233
  0
VERTEX
  5
101A
  8
BRACKET
 62
     7
 10
169.6527049040001
 20
969.95181816899992
 30
0.0
  0
VERTEX
  5
101B
  8
BRACKET
 62
     7
 10
169.6527049040001
 20
969.95181816899992
 30
0.0
  0
VERTEX
  5
101C
  8
BRACKET
 62
     7
 10
169.6527049040001
 20
969.95181816899992
 30
0.0
 42
-0.0223820210004686
  0
VERTEX
  5
101D
  8
BRACKET
 62
     7
 10
169.36379584800031
 20
970.21654163899996
 30
0.0
  0
VERTEX
  5
101E
  8
BRACKET
 62
     7
 10
169.36379584800031
 20
970.21654163899996
 30
0.0
  0
VERTEX
  5
101F
  8
BRACKET
 62
     7
 10
169.36379584800031
 20
970.21654163899996
 30
0.0
 42
-0.0219705390002968
  0
VERTEX
  5
1020
  8
BRACKET
 62
     7
 10
169.0969457410001
 20
970.50845541699982
 30
0.0
  0
VERTEX
  5
1021
  8
BRACKET
 62
     7
 10
169.0969457410001
 20
970.50845541699982
 30
0.0
  0
VERTEX
  5
1022
  8
BRACKET
 62
     7
 10
169.09694574100001
 20
970.50845541699994
 30
0.0
 42
-0.0215713210000213
  0
VERTEX
  5
1023
  8
BRACKET
 62
     7
 10
168.8542200870001
 20
970.82529999899998
 30
0.0
  0
VERTEX
  5
1024
  8
BRACKET
 62
     7
 10
168.8542200870001
 20
970.82529999899998
 30
0.0
  0
VERTEX
  5
1025
  8
BRACKET
 62
     7
 10
168.8542200870001
 20
970.82529999899998
 30
0.0
 42
-0.021195538000142
  0
VERTEX
  5
1026
  8
BRACKET
 62
     7
 10
168.63749765900039
 20
971.16462290599952
 30
0.0
  0
VERTEX
  5
1027
  8
BRACKET
 62
     7
 10
168.63749765900039
 20
971.16462290599952
 30
0.0
  0
VERTEX
  5
1028
  8
BRACKET
 62
     7
 10
168.63749765900039
 20
971.16462290599952
 30
0.0
 42
-0.0208525440003331
  0
VERTEX
  5
1029
  8
BRACKET
 62
     7
 10
168.448455959
 20
971.52379767200011
 30
0.0
  0
VERTEX
  5
102A
  8
BRACKET
 62
     7
 10
168.448455959
 20
971.52379767200011
 30
0.0
  0
VERTEX
  5
102B
  8
BRACKET
 62
     7
 10
168.44845595900031
 20
971.52379767199966
 30
0.0
 42
-0.0205499240000226
  0
VERTEX
  5
102C
  8
BRACKET
 62
     7
 10
168.28855822800051
 20
971.9000441689999
 30
0.0
  0
VERTEX
  5
102D
  8
BRACKET
 62
     7
 10
168.28855822800051
 20
971.9000441689999
 30
0.0
  0
VERTEX
  5
102E
  8
BRACKET
 62
     7
 10
168.28855822800051
 20
971.9000441689999
 30
0.0
 42
-0.020293639000171
  0
VERTEX
  5
102F
  8
BRACKET
 62
     7
 10
168.15904212800021
 20
972.29045012899985
 30
0.0
  0
VERTEX
  5
1030
  8
BRACKET
 62
     7
 10
168.15904212800021
 20
972.29045012899985
 30
0.0
  0
VERTEX
  5
1031
  8
BRACKET
 62
     7
 10
168.15904212800021
 20
972.29045012899985
 30
0.0
 42
-0.0200882200001199
  0
VERTEX
  5
1032
  8
BRACKET
 62
     7
 10
168.0609101520003
 20
972.69199368599993
 30
0.0
  0
VERTEX
  5
1033
  8
BRACKET
 62
     7
 10
168.0609101520003
 20
972.69199368599993
 30
0.0
  0
VERTEX
  5
1034
  8
BRACKET
 62
     7
 10
168.0609101520003
 20
972.69199368599993
 30
0.0
 42
-0.0199369620005761
  0
VERTEX
  5
1035
  8
BRACKET
 62
     7
 10
167.9949218750001
 20
973.10156676499957
 30
0.0
  0
VERTEX
  5
1036
  8
BRACKET
 62
     7
 10
167.9949218750001
 20
973.10156676499957
 30
0.0
  0
SEQEND
  5
1037
  8
BRACKET
 62
     7
  0
CIRCLE
  5
331
  8
BRACKET
 62
     7
 10
400.0
 20
1020.0
 30
0.0
 40
4.600000000000362
  0
CIRCLE
  5
332
  8
BRACKET
 62
     7
 10
400.0
 20
879.99999999999966
 30
0.0
 40
4.600000000000362
  0
CIRCLE
  5
333
  8
BRACKET
 62
     7
 10
280.0
 20
1020.0
 30
0.0
 40
4.600000000000362
  0
CIRCLE
  5
334
  8
BRACKET
 62
     7
 10
520.0
 20
1020.0
 30
0.0
 40
4.5999999999999091
  0
CIRCLE
  5
335
  8
BRACKET
 62
     7
 10
280.0
 20
879.99999999999966
 30
0.0
 40
4.600000000000362
  0
CIRCLE
  5
336
  8
BRACKET
 62
     7
 10
520.0
 20
879.99999999999966
 30
0.0
 40
4.5999999999999091
  0
CIRCLE
  5
337
  8
BRACKET
 62
     7
 10
180.0
 20
1020.0
 30
0.0
 40
4.600000000000362
  0
CIRCLE
  5
338
  8
BRACKET
 62
     7
 10
180.0
 20
879.99999999999966
 30
0.0
 40
4.600000000000362
  0
CIRCLE
  5
339
  8
BRACKET
 62
     7
 10
620.0
 20
1020.0
 30
0.0
 40
4.5999999999999091
  0
CIRCLE
  5
33A
  8
BRACKET
 62
     7
 10
620.0
 20
879.99999999999966
 30
0.0
 40
4.5999999999999091
  0
CIRCLE
  5
33B
  8
BRACKET
 62
     7
 10
160.0000000000004
 20
1020.0
 30
0.0
 40
6.5
  0
CIRCLE
  5
33C
  8
BRACKET
 62
     7
 10
160.0000000000004
 20
879.99999999999966
 30
0.0
 40
6.5
  0
CIRCLE
  5
33D
  8
BRACKET
 62
     7
 10
640.0
 20
1020.0
 30
0.0
 40
6.5
  0
CIRCLE
  5
33E
  8
BRACKET
 62
     7
 10
640.0
 20
879.99999999999966
 30
0.0
 40
6.5
  0
LINE
  5
33F
  8
BRACKET
 62
     7
 10
139.65000000000001
 20
891.84193429799984
 30
0.0
 11
139.65000000000001
 21
1008.158065702
 31
0.0
  0
LINE
  5
340
  8
BRACKET
 62
     7
 10
137.05000000000021
 20
1008.158065702
 30
0.0
 11
139.65000000000001
 21
1008.158065702
 31
0.0
  0
LINE
  5
341
  8
BRACKET
 62
     7
 10
137.05000000000021
 20
891.84193429799984
 30
0.0
 11
139.65000000000001
 21
891.84193429799984
 31
0.0
  0
LINE
  5
342
  8
BRACKET
 62
     7
 10
660.35000000000025
 20
891.84193429799984
 30
0.0
 11
660.35000000000025
 21
1008.158065702
 31
0.0
  0
LINE
  5
343
  8
BRACKET
 62
     7
 10
662.95000000000005
 20
1008.158065702
 30
0.0
 11
660.35000000000025
 21
1008.158065702
 31
0.0
  0
LINE
  5
344
  8
BRACKET
 62
     7
 10
662.95000000000005
 20
891.84193429799984
 30
0.0
 11
660.35000000000025
 21
891.84193429799984
 31
0.0
  0
ARC
  5
345
  8
BRACKET
 62
     7
 10
204.4500000000001
 20
-12.5
 30
0.0
 40
10.0
 50
90.0
 51
180.0
  0
LINE
  5
346
  8
BRACKET
 62
     7
 10
194.44999999999999
 20
-87.49999147000004
 30
0.0
 11
194.44999999999999
 21
-12.5
 31
0.0
  0
ARC
  5
347
  8
BRACKET
 62
     7
 10
204.4500000000001
 20
-87.500000000000114
 30
0.0
 40
10.0
 50
179.9999511260001
 51
270.0
  0
LINE
  5
348
  8
BRACKET
 62
     7
 10
204.4500000000001
 20
-97.500000000000142
 30
0.0
 11
595.54999999999995
 21
-97.500000000000142
 31
0.0
  0
ARC
  5
349
  8
BRACKET
 62
     7
 10
595.54999999999995
 20
-87.500000000000114
 30
0.0
 40
10.0
 50
270.0
 51
0.0000378559998353
  0
LINE
  5
34A
  8
BRACKET
 62
     7
 10
605.54999999999995
 20
-87.499993393000182
 30
0.0
 11
605.54999999999995
 21
-12.5
 31
0.0
  0
ARC
  5
34B
  8
BRACKET
 62
     7
 10
595.54999999999995
 20
-12.5
 30
0.0
 40
10.0
 50
0.0
 51
89.999912573998131
  0
LINE
  5
34C
  8
BRACKET
 62
     7
 10
204.4500000000001
 20
-2.5
 30
0.0
 11
595.55001525899991
 21
-2.5
 31
0.0
  0
LINE
  5
34D
  8
BRACKET
 62
     7
 10
665.54999999999995
 20
-135.00000000000011
 30
0.0
 11
665.54999999999995
 21
35.0
 31
0.0
  0
LINE
  5
34E
  8
BRACKET
 62
     7
 10
662.95000000000005
 20
37.599999999999902
 30
0.0
 11
137.0499999999999
 21
37.599999999999902
 31
0.0
  0
LINE
  5
34F
  8
BRACKET
 62
     7
 10
662.95000000000005
 20
-137.60000000000019
 30
0.0
 11
137.0499999999999
 21
-137.60000000000019
 31
0.0
  0
LINE
  5
350
  8
BRACKET
 62
     7
 10
134.44999999999999
 20
-135.00000000000011
 30
0.0
 11
134.44999999999999
 21
35.0
 31
0.0
  0
LINE
  5
351
  8
BRACKET
 62
     7
 10
139.64999999999981
 20
35.0
 30
0.0
 11
139.64999999999981
 21
37.599999999999902
 31
0.0
  0
ARC
  5
352
  8
BRACKET
 62
     7
 10
137.0499999999999
 20
35.0
 30
0.0
 40
2.600000000000362
 50
270.0
 51
0.0
  0
LINE
  5
353
  8
BRACKET
 62
     7
 10
137.0499999999999
 20
32.39999999999965
 30
0.0
 11
134.44999999999999
 21
32.39999999999965
 31
0.0
  0
LINE
  5
354
  8
BRACKET
 62
     7
 10
137.0499999999999
 20
32.39999999999965
 30
0.0
 11
137.0499999999999
 21
37.599999999999902
 31
0.0
  0
LINE
  5
355
  8
BRACKET
 62
     7
 10
139.64999999999981
 20
35.0
 30
0.0
 11
134.44999999999999
 21
35.0
 31
0.0
  0
LINE
  5
356
  8
BRACKET
 62
     7
 10
660.35000000000014
 20
35.0
 30
0.0
 11
660.35000000000014
 21
37.599999999999902
 31
0.0
  0
ARC
  5
357
  8
BRACKET
 62
     7
 10
662.95000000000005
 20
35.0
 30
0.0
 40
2.5999999999999082
 50
180.0
 51
270.0
  0
LINE
  5
358
  8
BRACKET
 62
     7
 10
662.95000000000005
 20
32.39999999999965
 30
0.0
 11
665.54999999999995
 21
32.39999999999965
 31
0.0
  0
LINE
  5
359
  8
BRACKET
 62
     7
 10
662.95000000000005
 20
32.39999999999965
 30
0.0
 11
662.95000000000005
 21
37.599999999999902
 31
0.0
  0
LINE
  5
35A
  8
BRACKET
 62
     7
 10
660.35000000000014
 20
35.0
 30
0.0
 11
665.54999999999995
 21
35.0
 31
0.0
  0
LINE
  5
35B
  8
BRACKET
 62
     7
 10
139.64999999999981
 20
-134.99999147
 30
0.0
 11
139.64999999999981
 21
-137.59999147000019
 31
0.0
  0
ARC
  5
35C
  8
BRACKET
 62
     7
 10
137.0499999999999
 20
-134.99999147
 30
0.0
 40
2.5999999999999082
 50
0.0
 51
90.0
  0
LINE
  5
35D
  8
BRACKET
 62
     7
 10
137.0499999999999
 20
-132.39999147000009
 30
0.0
 11
134.44999999999999
 21
-132.39999147000009
 31
0.0
  0
LINE
  5
35E
  8
BRACKET
 62
     7
 10
137.0499999999999
 20
-132.39999147000009
 30
0.0
 11
137.0499999999999
 21
-137.59999147000019
 31
0.0
  0
LINE
  5
35F
  8
BRACKET
 62
     7
 10
139.64999999999981
 20
-134.99999147
 30
0.0
 11
134.44999999999999
 21
-134.99999147
 31
0.0
  0
LINE
  5
360
  8
BRACKET
 62
     7
 10
660.35000000000014
 20
-134.99999339300021
 30
0.0
 11
660.35000000000014
 21
-137.59999339300001
 31
0.0
  0
ARC
  5
361
  8
BRACKET
 62
     7
 10
662.95000000000005
 20
-134.99999339300021
 30
0.0
 40
2.6000000000001351
 50
90.0
 51
180.0
  0
LINE
  5
362
  8
BRACKET
 62
     7
 10
662.95000000000005
 20
-132.39999339299999
 30
0.0
 11
665.54999999999995
 21
-132.39999339299999
 31
0.0
  0
LINE
  5
363
  8
BRACKET
 62
     7
 10
662.95000000000005
 20
-132.39999339299999
 30
0.0
 11
662.95000000000005
 21
-137.59999339300001
 31
0.0
  0
LINE
  5
364
  8
BRACKET
 62
     7
 10
660.35000000000014
 20
-134.99999339300021
 30
0.0
 11
665.54999999999995
 21
-134.99999339300021
 31
0.0
  0
LINE
  5
365
  8
BRACKET
 62
     7
 10
660.35000000000014
 20
35.0
 30
0.0
 11
139.64999999999981
 21
35.0
 31
0.0
  0
LINE
  5
366
  8
BRACKET
 62
     7
 10
662.95000000000005
 20
-132.39999339299999
 30
0.0
 11
662.95000000000005
 21
32.39999999999965
 31
0.0
  0
LINE
  5
367
  8
BRACKET
 62
     7
 10
137.0499999999999
 20
-132.39999147000009
 30
0.0
 11
137.0499999999999
 21
32.39999999999965
 31
0.0
  0
LINE
  5
368
  8
BRACKET
 62
     7
 10
660.35000000000014
 20
-135.00000000000011
 30
0.0
 11
139.64999999999981
 21
-135.00000000000011
 31
0.0
  0
LINE
  5
369
  8
BRACKET
 62
     7
 10
154.44999999999999
 20
-44.999995735000169
 30
0.0
 11
159.44999999999999
 21
-44.999995735000169
 31
0.0
  0
LINE
  5
36A
  8
BRACKET
 62
     7
 10
154.44999999999999
 20
-44.999995735000169
 30
0.0
 11
164.44999999999999
 21
-34.999995735000091
 31
0.0
  0
LINE
  5
36B
  8
BRACKET
 62
     7
 10
159.44999999999999
 20
-49.999995735000191
 30
0.0
 11
159.44999999999999
 21
-44.999995735000169
 31
0.0
  0
LINE
  5
36C
  8
BRACKET
 62
     7
 10
164.44999999999999
 20
-34.999995735000091
 30
0.0
 11
174.44999999999999
 21
-44.999995735000169
 31
0.0
  0
LINE
  5
36D
  8
BRACKET
 62
     7
 10
169.44999999999999
 20
-49.999995735000191
 30
0.0
 11
169.44999999999999
 21
-44.999995735000169
 31
0.0
  0
LINE
  5
36E
  8
BRACKET
 62
     7
 10
169.44999999999999
 20
-44.999995735000169
 30
0.0
 11
174.44999999999999
 21
-44.999995735000169
 31
0.0
  0
LINE
  5
36F
  8
BRACKET
 62
     7
 10
159.44999999999999
 20
-49.999995735000191
 30
0.0
 11
169.44999999999999
 21
-49.999995735000191
 31
0.0
  0
LINE
  5
370
  8
BRACKET
 62
     7
 10
176.43242187499999
 20
-19.281245735000081
 30
0.0
 11
176.43242187499999
 21
-26.898433235000091
 31
0.0
  0
LINE
  5
371
  8
BRACKET
 62
     7
 10
167.99492187499999
 20
-26.898433235000091
 30
0.0
 11
167.99492187499999
 21
-19.281245735000081
 31
0.0
  0
LINE
  5
372
  8
BRACKET
 62
     7
 10
160.90507812499999
 20
-19.281245735000081
 30
0.0
 11
160.90507812499999
 21
-30.999995735000091
 31
0.0
  0
LINE
  5
373
  8
BRACKET
 62
     7
 10
155.63164062499999
 20
-19.281245735000081
 30
0.0
 11
159.90507812499999
 21
-19.281245735000081
 31
0.0
  0
LINE
  5
374
  8
BRACKET
 62
     7
 10
159.90507812499999
 20
-25.726558235000091
 30
0.0
 11
155.63164062499999
 21
-25.726558235000091
 31
0.0
  0
POLYLINE
  5
375
  8
BRACKET
 62
     7
 66
     1
 10
0.0
 20
0.0
 30
0.0
 70
   128
  0
VERTEX
  5
1038
  8
BRACKET
 62
     7
 10
155.63164062499999
 20
-25.726558235000091
 30
0.0
 42
-0.0243765490006955
  0
VERTEX
  5
1039
  8
BRACKET
 62
     7
 10
155.37759159500021
 20
-25.68706042200029
 30
0.0
  0
VERTEX
  5
103A
  8
BRACKET
 62
     7
 10
155.37759159500021
 20
-25.68706042200029
 30
0.0
  0
VERTEX
  5
103B
  8
BRACKET
 62
     7
 10
155.37759159500021
 20
-25.68706042200029
 30
0.0
 42
-0.0242086420009125
  0
VERTEX
  5
103C
  8
BRACKET
 62
     7
 10
155.12765409599999
 20
-25.622886477000069
 30
0.0
  0
VERTEX
  5
103D
  8
BRACKET
 62
     7
 10
155.12765409599999
 20
-25.622886477000069
 30
0.0
  0
VERTEX
  5
103E
  8
BRACKET
 62
     7
 10
155.12765409599999
 20
-25.622886477000069
 30
0.0
 42
-0.0239653980002744
  0
VERTEX
  5
103F
  8
BRACKET
 62
     7
 10
154.88376566700001
 20
-25.534533882000229
 30
0.0
  0
VERTEX
  5
1040
  8
BRACKET
 62
     7
 10
154.88376566700001
 20
-25.534533882000229
 30
0.0
  0
VERTEX
  5
1041
  8
BRACKET
 62
     7
 10
154.8837656669966
 20
-25.53453388199884
 30
0.0
 42
-0.0236586449993323
  0
VERTEX
  5
1042
  8
BRACKET
 62
     7
 10
154.6478169519998
 20
-25.42268755500027
 30
0.0
  0
VERTEX
  5
1043
  8
BRACKET
 62
     7
 10
154.6478169519998
 20
-25.42268755500027
 30
0.0
  0
VERTEX
  5
1044
  8
BRACKET
 62
     7
 10
154.64781695199511
 20
-25.42268755499774
 30
0.0
 42
-0.0233024819990176
  0
VERTEX
  5
1045
  8
BRACKET
 62
     7
 10
154.42163704900011
 20
-25.288214539000361
 30
0.0
  0
VERTEX
  5
1046
  8
BRACKET
 62
     7
 10
154.42163704900011
 20
-25.288214539000361
 30
0.0
  0
VERTEX
  5
1047
  8
BRACKET
 62
     7
 10
154.42163704899281
 20
-25.288214538995561
 30
0.0
 42
-0.0229121639986099
  0
VERTEX
  5
1048
  8
BRACKET
 62
     7
 10
154.20697932200639
 20
-25.13215728000532
 30
0.0
  0
VERTEX
  5
1049
  8
BRACKET
 62
     7
 10
154.206979322
 20
-25.132157280000229
 30
0.0
  0
VERTEX
  5
104A
  8
BRACKET
 62
     7
 10
154.206979322
 20
-25.132157280000229
 30
0.0
  0
VERTEX
  5
104B
  8
BRACKET
 62
     7
 10
154.2069793219984
 20
-25.132157279998921
 30
0.0
 42
-0.0225030649995837
  0
VERTEX
  5
104C
  8
BRACKET
 62
     7
 10
154.00550781999999
 20
-24.955725549000359
 30
0.0
  0
VERTEX
  5
104D
  8
BRACKET
 62
     7
 10
154.00550781999999
 20
-24.955725549000359
 30
0.0
  0
VERTEX
  5
104E
  8
BRACKET
 62
     7
 10
154.00550781999999
 20
-24.955725549000359
 30
0.0
 42
-0.0220898390002592
  0
VERTEX
  5
104F
  8
BRACKET
 62
     7
 10
153.81878436700001
 20
-24.760287060000341
 30
0.0
  0
VERTEX
  5
1050
  8
BRACKET
 62
     7
 10
153.81878436700001
 20
-24.760287060000341
 30
0.0
  0
VERTEX
  5
1051
  8
BRACKET
 62
     7
 10
153.81878436699779
 20
-24.76028705999784
 30
0.0
 42
-0.0216858179995006
  0
VERTEX
  5
1052
  8
BRACKET
 62
     7
 10
153.64825645899981
 20
-24.54735686999993
 30
0.0
  0
VERTEX
  5
1053
  8
BRACKET
 62
     7
 10
153.64825645899981
 20
-24.54735686999993
 30
0.0
  0
VERTEX
  5
1054
  8
BRACKET
 62
     7
 10
153.64825645899731
 20
-24.547356869996449
 30
0.0
 42
-0.0213026569992512
  0
VERTEX
  5
1055
  8
BRACKET
 62
     7
 10
153.49524604600009
 20
-24.318585634000101
 30
0.0
  0
VERTEX
  5
1056
  8
BRACKET
 62
     7
 10
153.49524604600009
 20
-24.318585634000101
 30
0.0
  0
VERTEX
  5
1057
  8
BRACKET
 62
     7
 10
153.49524604600009
 20
-24.318585634000101
 30
0.0
 42
-0.0209501920000542
  0
VERTEX
  5
1058
  8
BRACKET
 62
     7
 10
153.36093927700011
 20
-24.075746805000112
 30
0.0
  0
VERTEX
  5
1059
  8
BRACKET
 62
     7
 10
153.36093927700011
 20
-24.075746805000112
 30
0.0
  0
VERTEX
  5
105A
  8
BRACKET
 62
     7
 10
153.36093927700011
 20
-24.075746805000112
 30
0.0
 42
-0.0206364630009811
  0
VERTEX
  5
105B
  8
BRACKET
 62
     7
 10
153.24637731000001
 20
-23.820722894000031
 30
0.0
  0
VERTEX
  5
105C
  8
BRACKET
 62
     7
 10
153.24637731000001
 20
-23.820722894000031
 30
0.0
  0
VERTEX
  5
105D
  8
BRACKET
 62
     7
 10
153.2463773099991
 20
-23.820722893997761
 30
0.0
 42
-0.0203678369996189
  0
VERTEX
  5
105E
  8
BRACKET
 62
     7
 10
153.1524482410002
 20
-23.55549086800011
 30
0.0
  0
VERTEX
  5
105F
  8
BRACKET
 62
     7
 10
153.1524482410002
 20
-23.55549086800011
 30
0.0
  0
VERTEX
  5
1060
  8
BRACKET
 62
     7
 10
153.1524482410002
 20
-23.55549086800011
 30
0.0
 42
-0.0201491930004373
  0
VERTEX
  5
1061
  8
BRACKET
 62
     7
 10
153.07988021599999
 20
-23.282106829999979
 30
0.0
  0
VERTEX
  5
1062
  8
BRACKET
 62
     7
 10
153.07988021599999
 20
-23.282106829999979
 30
0.0
  0
VERTEX
  5
1063
  8
BRACKET
 62
     7
 10
153.07988021599951
 20
-23.282106829997851
 30
0.0
 42
-0.019984125999697
  0
VERTEX
  5
1064
  8
BRACKET
 62
     7
 10
153.02923578799999
 20
-23.002690077000349
 30
0.0
  0
VERTEX
  5
1065
  8
BRACKET
 62
     7
 10
153.02923578799999
 20
-23.002690077000349
 30
0.0
  0
SEQEND
  5
1066
  8
BRACKET
 62
     7
  0
POLYLINE
  5
3A5
  8
BRACKET
 62
     7
 66
     1
 10
0.0
 20
0.0
 30
0.0
 70
   128
  0
VERTEX
  5
1067
  8
BRACKET
 62
     7
 10
153.02923578800059
 20
-22.005113890995219
 30
0.0
 42
-0.019951543999342
  0
VERTEX
  5
1068
  8
BRACKET
 62
     7
 10
153.07988021599999
 20
-21.725697139000211
 30
0.0
  0
VERTEX
  5
1069
  8
BRACKET
 62
     7
 10
153.07988021599999
 20
-21.725697139000211
 30
0.0
  0
VERTEX
  5
106A
  8
BRACKET
 62
     7
 10
153.07988021599999
 20
-21.725697139000211
 30
0.0
 42
-0.0201027890000614
  0
VERTEX
  5
106B
  8
BRACKET
 62
     7
 10
153.1524482410002
 20
-21.452313101000058
 30
0.0
  0
VERTEX
  5
106C
  8
BRACKET
 62
     7
 10
153.1524482410002
 20
-21.452313101000058
 30
0.0
  0
VERTEX
  5
106D
  8
BRACKET
 62
     7
 10
153.15244824100199
 20
-21.452313100994299
 30
0.0
 42
-0.0203083289990155
  0
VERTEX
  5
106E
  8
BRACKET
 62
     7
 10
153.246377311
 20
-21.187081075000151
 30
0.0
  0
VERTEX
  5
106F
  8
BRACKET
 62
     7
 10
153.246377311
 20
-21.187081075000151
 30
0.0
  0
VERTEX
  5
1070
  8
BRACKET
 62
     7
 10
153.246377311
 20
-21.18708107499987
 30
0.0
 42
-0.0205648639999831
  0
VERTEX
  5
1071
  8
BRACKET
 62
     7
 10
153.36093927700011
 20
-20.932057164000071
 30
0.0
  0
VERTEX
  5
1072
  8
BRACKET
 62
     7
 10
153.36093927700011
 20
-20.932057164000071
 30
0.0
  0
VERTEX
  5
1073
  8
BRACKET
 62
     7
 10
153.3609392770004
 20
-20.932057163999531
 30
0.0
 42
-0.0208678529998715
  0
VERTEX
  5
1074
  8
BRACKET
 62
     7
 10
153.49524604600009
 20
-20.689218335000081
 30
0.0
  0
VERTEX
  5
1075
  8
BRACKET
 62
     7
 10
153.49524604600009
 20
-20.689218335000081
 30
0.0
  0
VERTEX
  5
1076
  8
BRACKET
 62
     7
 10
153.49524604600151
 20
-20.689218334997829
 30
0.0
 42
-0.021211318999532
  0
VERTEX
  5
1077
  8
BRACKET
 62
     7
 10
153.6482564599998
 20
-20.460447099000248
 30
0.0
  0
VERTEX
  5
1078
  8
BRACKET
 62
     7
 10
153.6482564599998
 20
-20.460447099000248
 30
0.0
  0
VERTEX
  5
1079
  8
BRACKET
 62
     7
 10
153.6482564599998
 20
-20.460447099000248
 30
0.0
 42
-0.0215876560007968
  0
VERTEX
  5
107A
  8
BRACKET
 62
     7
 10
153.81878436700001
 20
-20.2475169090003
 30
0.0
  0
VERTEX
  5
107B
  8
BRACKET
 62
     7
 10
153.81878436700001
 20
-20.2475169090003
 30
0.0
  0
VERTEX
  5
107C
  8
BRACKET
 62
     7
 10
153.81878436700001
 20
-20.2475169090003
 30
0.0
 42
-0.0219874850010217
  0
VERTEX
  5
107D
  8
BRACKET
 62
     7
 10
154.00550782100001
 20
-20.052078420000271
 30
0.0
  0
VERTEX
  5
107E
  8
BRACKET
 62
     7
 10
154.00550782100001
 20
-20.052078420000271
 30
0.0
  0
VERTEX
  5
107F
  8
BRACKET
 62
     7
 10
154.00550782100419
 20
-20.052078419996239
 30
0.0
 42
-0.0223995979991653
  0
VERTEX
  5
1080
  8
BRACKET
 62
     7
 10
154.20697932300001
 20
-19.87564668899995
 30
0.0
  0
VERTEX
  5
1081
  8
BRACKET
 62
     7
 10
154.20697932300001
 20
-19.87564668899995
 30
0.0
  0
VERTEX
  5
1082
  8
BRACKET
 62
     7
 10
154.20697932300061
 20
-19.875646688999439
 30
0.0
 42
-0.0228110599999131
  0
VERTEX
  5
1083
  8
BRACKET
 62
     7
 10
154.42163704900011
 20
-19.719589431000252
 30
0.0
  0
VERTEX
  5
1084
  8
BRACKET
 62
     7
 10
154.42163704900011
 20
-19.719589431000252
 30
0.0
  0
VERTEX
  5
1085
  8
BRACKET
 62
     7
 10
154.42163704900011
 20
-19.719589431000252
 30
0.0
 42
-0.0232074990007197
  0
VERTEX
  5
1086
  8
BRACKET
 62
     7
 10
154.6478169530003
 20
-19.58511641400036
 30
0.0
  0
VERTEX
  5
1087
  8
BRACKET
 62
     7
 10
154.6478169530003
 20
-19.58511641400036
 30
0.0
  0
VERTEX
  5
1088
  8
BRACKET
 62
     7
 10
154.6478169530003
 20
-19.58511641400036
 30
0.0
 42
-0.0235736520001856
  0
VERTEX
  5
1089
  8
BRACKET
 62
     7
 10
154.88376566700001
 20
-19.473270087999921
 30
0.0
  0
VERTEX
  5
108A
  8
BRACKET
 62
     7
 10
154.88376566700001
 20
-19.473270087999921
 30
0.0
  0
VERTEX
  5
108B
  8
BRACKET
 62
     7
 10
154.88376566699969
 20
-19.473270088000081
 30
0.0
 42
-0.0238941430000462
  0
VERTEX
  5
108C
  8
BRACKET
 62
     7
 10
155.12765409599999
 20
-19.384917493000071
 30
0.0
  0
VERTEX
  5
108D
  8
BRACKET
 62
     7
 10
155.12765409599999
 20
-19.384917493000071
 30
0.0
  0
VERTEX
  5
108E
  8
BRACKET
 62
     7
 10
155.12765409599999
 20
-19.384917493000071
 30
0.0
 42
-0.0241544810010461
  0
VERTEX
  5
108F
  8
BRACKET
 62
     7
 10
155.37759159500021
 20
-19.32074354800034
 30
0.0
  0
VERTEX
  5
1090
  8
BRACKET
 62
     7
 10
155.37759159500021
 20
-19.32074354800034
 30
0.0
  0
VERTEX
  5
1091
  8
BRACKET
 62
     7
 10
155.377591595003
 20
-19.32074354799974
 30
0.0
 42
-0.0243421659994326
  0
VERTEX
  5
1092
  8
BRACKET
 62
     7
 10
155.63164062499999
 20
-19.281245735000081
 30
0.0
  0
VERTEX
  5
1093
  8
BRACKET
 62
     7
 10
155.63164062499999
 20
-19.281245735000081
 30
0.0
  0
SEQEND
  5
1094
  8
BRACKET
 62
     7
  0
POLYLINE
  5
3D4
  8
BRACKET
 62
     7
 66
     1
 10
0.0
 20
0.0
 30
0.0
 70
   128
  0
VERTEX
  5
1095
  8
BRACKET
 62
     7
 10
176.43242187499999
 20
-26.898433235000091
 30
0.0
 42
-0.0199078940004603
  0
VERTEX
  5
1096
  8
BRACKET
 62
     7
 10
176.3664335979999
 20
-27.308006314000071
 30
0.0
  0
VERTEX
  5
1097
  8
BRACKET
 62
     7
 10
176.3664335979999
 20
-27.308006314000071
 30
0.0
  0
VERTEX
  5
1098
  8
BRACKET
 62
     7
 10
176.36643359799939
 20
-27.308006314002512
 30
0.0
 42
-0.0200452239997508
  0
VERTEX
  5
1099
  8
BRACKET
 62
     7
 10
176.26830162200011
 20
-27.709549871000039
 30
0.0
  0
VERTEX
  5
109A
  8
BRACKET
 62
     7
 10
176.26830162200011
 20
-27.709549871000039
 30
0.0
  0
VERTEX
  5
109B
  8
BRACKET
 62
     7
 10
176.2683016219986
 20
-27.709549871004668
 30
0.0
 42
-0.0202373669996092
  0
VERTEX
  5
109C
  8
BRACKET
 62
     7
 10
176.13878552199981
 20
-28.099955830999988
 30
0.0
  0
VERTEX
  5
109D
  8
BRACKET
 62
     7
 10
176.13878552199981
 20
-28.099955830999988
 30
0.0
  0
VERTEX
  5
109E
  8
BRACKET
 62
     7
 10
176.13878552199981
 20
-28.099955830999988
 30
0.0
 42
-0.0204813090002526
  0
VERTEX
  5
109F
  8
BRACKET
 62
     7
 10
175.97888779100009
 20
-28.47620232800001
 30
0.0
  0
VERTEX
  5
10A0
  8
BRACKET
 62
     7
 10
175.97888779100009
 20
-28.47620232800001
 30
0.0
  0
VERTEX
  5
10A1
  8
BRACKET
 62
     7
 10
175.97888779100009
 20
-28.47620232800001
 30
0.0
 42
-0.0207728450003046
  0
VERTEX
  5
10A2
  8
BRACKET
 62
     7
 10
175.78984609099979
 20
-28.835377094000251
 30
0.0
  0
VERTEX
  5
10A3
  8
BRACKET
 62
     7
 10
175.78984609099979
 20
-28.835377094000251
 30
0.0
  0
VERTEX
  5
10A4
  8
BRACKET
 62
     7
 10
175.78984609099979
 20
-28.835377094000251
 30
0.0
 42
-0.0211063900002519
  0
VERTEX
  5
10A5
  8
BRACKET
 62
     7
 10
175.5731236630001
 20
-29.174700001000009
 30
0.0
  0
VERTEX
  5
10A6
  8
BRACKET
 62
     7
 10
175.5731236630001
 20
-29.174700001000009
 30
0.0
  0
VERTEX
  5
10A7
  8
BRACKET
 62
     7
 10
175.5731236630001
 20
-29.174700001000009
 30
0.0
 42
-0.0214747810003149
  0
VERTEX
  5
10A8
  8
BRACKET
 62
     7
 10
175.33039800900019
 20
-29.491544583000181
 30
0.0
  0
VERTEX
  5
10A9
  8
BRACKET
 62
     7
 10
175.33039800900019
 20
-29.491544583000181
 30
0.0
  0
VERTEX
  5
10AA
  8
BRACKET
 62
     7
 10
175.33039800900019
 20
-29.491544583000181
 30
0.0
 42
-0.0218691170000844
  0
VERTEX
  5
10AB
  8
BRACKET
 62
     7
 10
175.06354790200001
 20
-29.783458361000161
 30
0.0
  0
VERTEX
  5
10AC
  8
BRACKET
 62
     7
 10
175.06354790200001
 20
-29.783458361000161
 30
0.0
  0
VERTEX
  5
10AD
  8
BRACKET
 62
     7
 10
175.06354790199759
 20
-29.783458361002459
 30
0.0
 42
-0.0222786789996621
  0
VERTEX
  5
10AE
  8
BRACKET
 62
     7
 10
174.77463884599979
 20
-30.048181830999969
 30
0.0
  0
VERTEX
  5
10AF
  8
BRACKET
 62
     7
 10
174.77463884599979
 20
-30.048181830999969
 30
0.0
  0
VERTEX
  5
10B0
  8
BRACKET
 62
     7
 10
174.77463884599979
 20
-30.048181830999969
 30
0.0
 42
-0.0226909800000111
  0
VERTEX
  5
10B1
  8
BRACKET
 62
     7
 10
174.46590709099991
 20
-30.283665947000369
 30
0.0
  0
VERTEX
  5
10B2
  8
BRACKET
 62
     7
 10
174.46590709099991
 20
-30.283665947000369
 30
0.0
  0
VERTEX
  5
10B3
  8
BRACKET
 62
     7
 10
174.46590709099991
 20
-30.283665947000369
 30
0.0
 42
-0.0230920160001679
  0
VERTEX
  5
10B4
  8
BRACKET
 62
     7
 10
174.13974231899991
 20
-30.488087988000188
 30
0.0
  0
VERTEX
  5
10B5
  8
BRACKET
 62
     7
 10
174.13974231899991
 20
-30.488087988000188
 30
0.0
  0
VERTEX
  5
10B6
  8
BRACKET
 62
     7
 10
174.13974231899991
 20
-30.488087988000188
 30
0.0
 42
-0.023466726999988
  0
VERTEX
  5
10B7
  8
BRACKET
 62
     7
 10
173.7986691469998
 20
-30.65986566300035
 30
0.0
  0
VERTEX
  5
10B8
  8
BRACKET
 62
     7
 10
173.7986691469998
 20
-30.65986566300035
 30
0.0
  0
VERTEX
  5
10B9
  8
BRACKET
 62
     7
 10
173.79866914699841
 20
-30.659865663000971
 30
0.0
 42
-0.0237997269998272
  0
VERTEX
  5
10BA
  8
BRACKET
 62
     7
 10
173.44532759200021
 20
-30.797669357000359
 30
0.0
  0
VERTEX
  5
10BB
  8
BRACKET
 62
     7
 10
173.44532759200021
 20
-30.797669357000359
 30
0.0
  0
VERTEX
  5
10BC
  8
BRACKET
 62
     7
 10
173.44532759200021
 20
-30.797669357000359
 30
0.0
 42
-0.0240762410004116
  0
VERTEX
  5
10BD
  8
BRACKET
 62
     7
 10
173.08245263000001
 20
-30.90043242499997
 30
0.0
  0
VERTEX
  5
10BE
  8
BRACKET
 62
     7
 10
173.08245263000001
 20
-30.90043242499997
 30
0.0
  0
VERTEX
  5
10BF
  8
BRACKET
 62
     7
 10
173.08245263000001
 20
-30.90043242499997
 30
0.0
 42
-0.0242831960004903
  0
VERTEX
  5
10C0
  8
BRACKET
 62
     7
 10
172.7128530279999
 20
-30.967359450000011
 30
0.0
  0
VERTEX
  5
10C1
  8
BRACKET
 62
     7
 10
172.7128530279999
 20
-30.967359450000011
 30
0.0
  0
SEQEND
  5
10C2
  8
BRACKET
 62
     7
  0
POLYLINE
  5
403
  8
BRACKET
 62
     7
 66
     1
 10
0.0
 20
0.0
 30
0.0
 70
   128
  0
VERTEX
  5
10C3
  8
BRACKET
 62
     7
 10
171.71449072199971
 20
-30.967359450000011
 30
0.0
 42
-0.0243227860003552
  0
VERTEX
  5
10C4
  8
BRACKET
 62
     7
 10
171.34489112
 20
-30.90043242499997
 30
0.0
  0
VERTEX
  5
10C5
  8
BRACKET
 62
     7
 10
171.34489112
 20
-30.90043242499997
 30
0.0
  0
VERTEX
  5
10C6
  8
BRACKET
 62
     7
 10
171.34489111999881
 20
-30.90043242499971
 30
0.0
 42
-0.024134957999851
  0
VERTEX
  5
10C7
  8
BRACKET
 62
     7
 10
170.98201615799979
 20
-30.797669357000359
 30
0.0
  0
VERTEX
  5
10C8
  8
BRACKET
 62
     7
 10
170.98201615799979
 20
-30.797669357000359
 30
0.0
  0
VERTEX
  5
10C9
  8
BRACKET
 62
     7
 10
170.98201615798979
 20
-30.797669356997009
 30
0.0
 42
-0.0238746989986779
  0
VERTEX
  5
10CA
  8
BRACKET
 62
     7
 10
170.62867460300939
 20
-30.659865663004641
 30
0.0
  0
VERTEX
  5
10CB
  8
BRACKET
 62
     7
 10
170.62867460299981
 20
-30.65986566300035
 30
0.0
  0
VERTEX
  5
10CC
  8
BRACKET
 62
     7
 10
170.62867460299981
 20
-30.65986566300035
 30
0.0
  0
VERTEX
  5
10CD
  8
BRACKET
 62
     7
 10
170.62867460299501
 20
-30.659865662998239
 30
0.0
 42
-0.0235544829993294
  0
VERTEX
  5
10CE
  8
BRACKET
 62
     7
 10
170.28760143100021
 20
-30.488087988000188
 30
0.0
  0
VERTEX
  5
10CF
  8
BRACKET
 62
     7
 10
170.28760143100021
 20
-30.488087988000188
 30
0.0
  0
VERTEX
  5
10D0
  8
BRACKET
 62
     7
 10
170.28760143100021
 20
-30.488087988000188
 30
0.0
 42
-0.0231887640001443
  0
VERTEX
  5
10D1
  8
BRACKET
 62
     7
 10
169.9614366590001
 20
-30.283665947000369
 30
0.0
  0
VERTEX
  5
10D2
  8
BRACKET
 62
     7
 10
169.9614366590001
 20
-30.283665947000369
 30
0.0
  0
VERTEX
  5
10D3
  8
BRACKET
 62
     7
 10
169.96143665899811
 20
-30.28366594699904
 30
0.0
 42
-0.0227928699997579
  0
VERTEX
  5
10D4
  8
BRACKET
 62
     7
 10
169.65270490399979
 20
-30.048181830999969
 30
0.0
  0
VERTEX
  5
10D5
  8
BRACKET
 62
     7
 10
169.65270490399979
 20
-30.048181830999969
 30
0.0
  0
VERTEX
  5
10D6
  8
BRACKET
 62
     7
 10
169.65270490399979
 20
-30.048181830999969
 30
0.0
 42
-0.0223820210004714
  0
VERTEX
  5
10D7
  8
BRACKET
 62
     7
 10
169.36379584800011
 20
-29.783458361000161
 30
0.0
  0
VERTEX
  5
10D8
  8
BRACKET
 62
     7
 10
169.36379584800011
 20
-29.783458361000161
 30
0.0
  0
VERTEX
  5
10D9
  8
BRACKET
 62
     7
 10
169.36379584800011
 20
-29.783458361000161
 30
0.0
 42
-0.0219705390002914
  0
VERTEX
  5
10DA
  8
BRACKET
 62
     7
 10
169.0969457409999
 20
-29.491544583000181
 30
0.0
  0
VERTEX
  5
10DB
  8
BRACKET
 62
     7
 10
169.0969457409999
 20
-29.491544583000181
 30
0.0
  0
VERTEX
  5
10DC
  8
BRACKET
 62
     7
 10
169.09694574099959
 20
-29.491544582999861
 30
0.0
 42
-0.0215713209998944
  0
VERTEX
  5
10DD
  8
BRACKET
 62
     7
 10
168.8542200869999
 20
-29.174700001000009
 30
0.0
  0
VERTEX
  5
10DE
  8
BRACKET
 62
     7
 10
168.8542200869999
 20
-29.174700001000009
 30
0.0
  0
VERTEX
  5
10DF
  8
BRACKET
 62
     7
 10
168.8542200869999
 20
-29.174700001000009
 30
0.0
 42
-0.0211955380001442
  0
VERTEX
  5
10E0
  8
BRACKET
 62
     7
 10
168.63749765900019
 20
-28.835377094000251
 30
0.0
  0
VERTEX
  5
10E1
  8
BRACKET
 62
     7
 10
168.63749765900019
 20
-28.835377094000251
 30
0.0
  0
VERTEX
  5
10E2
  8
BRACKET
 62
     7
 10
168.63749765900019
 20
-28.835377094000251
 30
0.0
 42
-0.0208525440003265
  0
VERTEX
  5
10E3
  8
BRACKET
 62
     7
 10
168.4484559589998
 20
-28.47620232800001
 30
0.0
  0
VERTEX
  5
10E4
  8
BRACKET
 62
     7
 10
168.4484559589998
 20
-28.47620232800001
 30
0.0
  0
VERTEX
  5
10E5
  8
BRACKET
 62
     7
 10
168.4484559589994
 20
-28.476202327999431
 30
0.0
 42
-0.0205499239998839
  0
VERTEX
  5
10E6
  8
BRACKET
 62
     7
 10
168.28855822800031
 20
-28.099955830999988
 30
0.0
  0
VERTEX
  5
10E7
  8
BRACKET
 62
     7
 10
168.28855822800031
 20
-28.099955830999988
 30
0.0
  0
VERTEX
  5
10E8
  8
BRACKET
 62
     7
 10
168.28855822800031
 20
-28.099955830999988
 30
0.0
 42
-0.020293638999984
  0
VERTEX
  5
10E9
  8
BRACKET
 62
     7
 10
168.15904212800001
 20
-27.709549871000039
 30
0.0
  0
VERTEX
  5
10EA
  8
BRACKET
 62
     7
 10
168.15904212800001
 20
-27.709549871000039
 30
0.0
  0
VERTEX
  5
10EB
  8
BRACKET
 62
     7
 10
168.15904212800001
 20
-27.709549871000039
 30
0.0
 42
-0.0200882200000576
  0
VERTEX
  5
10EC
  8
BRACKET
 62
     7
 10
168.0609101520001
 20
-27.308006314000071
 30
0.0
  0
VERTEX
  5
10ED
  8
BRACKET
 62
     7
 10
168.0609101520001
 20
-27.308006314000071
 30
0.0
  0
VERTEX
  5
10EE
  8
BRACKET
 62
     7
 10
168.0609101520001
 20
-27.308006314000071
 30
0.0
 42
-0.0199369620005774
  0
VERTEX
  5
10EF
  8
BRACKET
 62
     7
 10
167.99492187499999
 20
-26.898433235000091
 30
0.0
  0
VERTEX
  5
10F0
  8
BRACKET
 62
     7
 10
167.99492187499999
 20
-26.898433235000091
 30
0.0
  0
SEQEND
  5
10F1
  8
BRACKET
 62
     7
  0
CIRCLE
  5
433
  8
BRACKET
 62
     7
 10
399.99999999999977
 20
20.0
 30
0.0
 40
4.600000000000362
  0
CIRCLE
  5
434
  8
BRACKET
 62
     7
 10
399.99999999999977
 20
-120.0000000000001
 30
0.0
 40
4.600000000000362
  0
CIRCLE
  5
435
  8
BRACKET
 62
     7
 10
279.99999999999972
 20
20.0
 30
0.0
 40
4.600000000000362
  0
CIRCLE
  5
436
  8
BRACKET
 62
     7
 10
519.99999999999955
 20
20.0
 30
0.0
 40
4.5999999999999091
  0
CIRCLE
  5
437
  8
BRACKET
 62
     7
 10
279.99999999999972
 20
-120.0000000000001
 30
0.0
 40
4.600000000000362
  0
CIRCLE
  5
438
  8
BRACKET
 62
     7
 10
519.99999999999955
 20
-120.0000000000001
 30
0.0
 40
4.5999999999999091
  0
CIRCLE
  5
439
  8
BRACKET
 62
     7
 10
179.9999999999998
 20
20.0
 30
0.0
 40
4.600000000000362
  0
CIRCLE
  5
43A
  8
BRACKET
 62
     7
 10
179.9999999999998
 20
-120.0000000000001
 30
0.0
 40
4.600000000000362
  0
CIRCLE
  5
43B
  8
BRACKET
 62
     7
 10
619.99999999999955
 20
20.0
 30
0.0
 40
4.5999999999999091
  0
CIRCLE
  5
43C
  8
BRACKET
 62
     7
 10
619.99999999999955
 20
-120.0000000000001
 30
0.0
 40
4.5999999999999091
  0
CIRCLE
  5
43D
  8
BRACKET
 62
     7
 10
160.0000000000002
 20
20.0
 30
0.0
 40
6.5
  0
CIRCLE
  5
43E
  8
BRACKET
 62
     7
 10
160.0000000000002
 20
-120.0000000000001
 30
0.0
 40
6.5
  0
CIRCLE
  5
43F
  8
BRACKET
 62
     7
 10
639.99999999999955
 20
20.0
 30
0.0
 40
6.5
  0
CIRCLE
  5
440
  8
BRACKET
 62
     7
 10
639.99999999999955
 20
-120.0000000000001
 30
0.0
 40
6.5
  0
LINE
  5
441
  8
BRACKET
 62
     7
 10
139.64999999999981
 20
-108.158065702
 30
0.0
 11
139.64999999999981
 21
8.1580657019999272
 31
0.0
  0
LINE
  5
442
  8
BRACKET
 62
     7
 10
137.0499999999999
 20
8.1580657019999272
 30
0.0
 11
139.64999999999981
 21
8.1580657019999272
 31
0.0
  0
LINE
  5
443
  8
BRACKET
 62
     7
 10
137.0499999999999
 20
-108.158065702
 30
0.0
 11
139.64999999999981
 21
-108.158065702
 31
0.0
  0
LINE
  5
444
  8
BRACKET
 62
     7
 10
660.35000000000014
 20
-108.158065702
 30
0.0
 11
660.35000000000014
 21
8.1580657019999272
 31
0.0
  0
LINE
  5
445
  8
BRACKET
 62
     7
 10
662.95000000000005
 20
8.1580657019999272
 30
0.0
 11
660.35000000000014
 21
8.1580657019999272
 31
0.0
  0
LINE
  5
446
  8
BRACKET
 62
     7
 10
662.95000000000005
 20
-108.158065702
 30
0.0
 11
660.35000000000014
 21
-108.158065702
 31
0.0
  0
CIRCLE
  5
447
  8
BRACKET
 62
     7
 10
-160.0
 20
-50.0
 30
0.0
 40
3.100000000000362
  0
CIRCLE
  5
448
  8
BRACKET
 62
     7
 10
-150.013707436
 20
-48.429283421000036
 30
0.0
 40
3.100000000000362
  0
CIRCLE
  5
449
  8
BRACKET
 62
     7
 10
-140.06091729800019
 20
-46.510050330000013
 30
0.0
 40
3.100000000000362
  0
CIRCLE
  5
44A
  8
BRACKET
 62
     7
 10
-130.15075117699959
 20
-44.24304481300009
 30
0.0
 40
3.0999999999994521
  0
CIRCLE
  5
44B
  8
BRACKET
 62
     7
 10
-120.29231396900011
 20
-41.629223151000133
 30
0.0
 40
3.100000000000362
  0
CIRCLE
  5
44C
  8
BRACKET
 62
     7
 10
-160.3044241529997
 20
-43.027540580000043
 30
0.0
 40
3.0999999999994521
  0
CIRCLE
  5
44D
  8
BRACKET
 62
     7
 10
-150.4930294169998
 20
-40.592438306000062
 30
0.0
 40
3.0999999999999082
  0
CIRCLE
  5
44E
  8
BRACKET
 62
     7
 10
-140.74538483600011
 20
-37.813065659000138
 30
0.0
 40
3.100000000000362
  0
CIRCLE
  5
44F
  8
BRACKET
 62
     7
 10
-131.07051243800001
 20
-34.690958894000119
 30
0.0
 40
3.100000000000362
  0
CIRCLE
  5
450
  8
BRACKET
 62
     7
 10
-121.47739912899991
 20
-31.227864195000048
 30
0.0
 40
3.0999999999999082
  0
CIRCLE
  5
451
  8
BRACKET
 62
     7
 10
-161.21537975899989
 20
-36.108145787000012
 30
0.0
 40
3.0999999999999082
  0
CIRCLE
  5
452
  8
BRACKET
 62
     7
 10
-151.65355348999981
 20
-32.827190416000121
 30
0.0
 40
3.0999999999999082
  0
CIRCLE
  5
453
  8
BRACKET
 62
     7
 10
-142.18523992700011
 20
-29.20883091800011
 30
0.0
 40
3.100000000000362
  0
CIRCLE
  5
454
  8
BRACKET
 62
     7
 10
-132.81929287400001
 20
-25.25538402200004
 30
0.0
 40
3.0999999999999082
  0
CIRCLE
  5
455
  8
BRACKET
 62
     7
 10
-123.56451284699961
 20
-20.969372528000012
 30
0.0
 40
3.0999999999994521
  0
CIRCLE
  5
456
  8
BRACKET
 62
     7
 10
-162.72593389699981
 20
-29.294476391999972
 30
0.0
 40
3.0999999999999082
  0
CIRCLE
  5
457
  8
BRACKET
 62
     7
 10
-153.48644736599999
 20
-25.192637976000132
 30
0.0
 40
3.100000000000362
  0
CIRCLE
  5
458
  8
BRACKET
 62
     7
 10
-144.369524404
 20
-20.762829528000118
 30
0.0
 40
3.100000000000362
  0
CIRCLE
  5
459
  8
BRACKET
 62
     7
 10
-135.38378320799981
 20
-16.008130619000099
 30
0.0
 40
3.0999999999999082
  0
CIRCLE
  5
45A
  8
BRACKET
 62
     7
 10
-126.5377709280001
 20
-10.931821464999979
 30
0.0
 40
3.100000000000362
  0
CIRCLE
  5
45B
  8
BRACKET
 62
     7
 10
-164.82459033699979
 20
-22.638388534000111
 30
0.0
 40
3.0999999999999082
  0
CIRCLE
  5
45C
  8
BRACKET
 62
     7
 10
-155.97776161499991
 20
-17.746884541000099
 30
0.0
 40
3.0999999999999082
  0
CIRCLE
  5
45D
  8
BRACKET
 62
     7
 10
-147.28161454299971
 20
-12.539340658000009
 30
0.0
 40
3.0999999999994521
  0
CIRCLE
  5
45E
  8
BRACKET
 62
     7
 10
-138.74446611999969
 20
-7.0195758660000811
 30
0.0
 40
3.0999999999999082
  0
CIRCLE
  5
45F
  8
BRACKET
 62
     7
 10
-130.3745450830001
 20
-1.191602831000067
 30
0.0
 40
3.100000000000362
  0
CIRCLE
  5
460
  8
BRACKET
 62
     7
 10
-167.4953770369998
 20
-16.190539061000091
 30
0.0
 40
3.0999999999999082
  0
CIRCLE
  5
461
  8
BRACKET
 62
     7
 10
-159.1085358330001
 20
-10.546596789000089
 30
0.0
 40
3.100000000000362
  0
CIRCLE
  5
462
  8
BRACKET
 62
     7
 10
-150.8993475809998
 20
-4.6009500260000751
 30
0.0
 40
3.0999999999999082
  0
CIRCLE
  5
463
  8
BRACKET
 62
     7
 10
-142.87576478600019
 20
1.6418719059998921
 30
0.0
 40
3.100000000000362
  0
CIRCLE
  5
464
  8
BRACKET
 62
     7
 10
-135.0456351430002
 20
8.1771544299999732
 30
0.0
 40
3.100000000000362
  0
CIRCLE
  5
465
  8
BRACKET
 62
     7
 10
-170.71796769699981
 20
-10.0
 30
0.0
 40
3.100000000000362
  0
CIRCLE
  5
466
  8
BRACKET
 62
     7
 10
-162.854942937
 20
-3.6465732580001031
 30
0.0
 40
3.0999999999999082
  0
CIRCLE
  5
467
  8
BRACKET
 62
     7
 10
-155.19519038399989
 20
2.9919264229999909
 30
0.0
 40
3.0999999999999082
  0
CIRCLE
  5
468
  8
BRACKET
 62
     7
 10
-147.7462375260001
 20
9.9102938519999952
 30
0.0
 40
3.100000000000362
  0
CIRCLE
  5
469
  8
BRACKET
 62
     7
 10
-140.5154912930002
 20
17.10314841599984
 30
0.0
 40
3.100000000000362
  0
CIRCLE
  5
46A
  8
BRACKET
 62
     7
 10
-174.46783645699989
 20
-4.1138850920000323
 30
0.0
 40
3.100000000000362
  0
ARC
  5
46B
  8
BRACKET
 62
     7
 10
-303.58168877899971
 20
-103.35137160399999
 30
0.0
 40
3.6000000000001711
 50
219.99973690699809
 51
40.000455689999043
  0
ARC
  5
46C
  8
BRACKET
 62
     7
 10
-240.0
 20
-50.0
 30
0.0
 40
86.599999999999866
 50
179.99998573900001
 51
219.99998906299999
  0
ARC
  5
46D
  8
BRACKET
 62
     7
 10
-323.0
 20
-50.0
 30
0.0
 40
3.6000000000001111
 50
0.0004857020008206
 51
179.99965655600059
  0
ARC
  5
46E
  8
BRACKET
 62
     7
 10
-240.0
 20
-50.0
 30
0.0
 40
79.400000000000034
 50
179.99997796700001
 51
219.99997933899999
  0
CIRCLE
  5
46F
  8
BRACKET
 62
     7
 10
-167.1884705060001
 20
2.900672705999908
 30
0.0
 40
3.100000000000362
  0
CIRCLE
  5
470
  8
BRACKET
 62
     7
 10
-178.7164445500002
 20
1.423008774999968
 30
0.0
 40
3.100000000000362
  0
CIRCLE
  5
471
  8
BRACKET
 62
     7
 10
-160.13644899500011
 20
10.181502314999991
 30
0.0
 40
3.100000000000362
  0
CIRCLE
  5
472
  8
BRACKET
 62
     7
 10
-153.3188171029997
 20
17.72276228599992
 30
0.0
 40
3.0999999999994521
  0
CIRCLE
  5
473
  8
BRACKET
 62
     7
 10
-146.74248462499961
 20
25.51844692599991
 30
0.0
 40
3.0999999999994521
  0
ARC
  5
474
  8
BRACKET
 62
     7
 10
-240.0
 20
-50.0
 30
0.0
 40
3.599999999999655
 50
179.9996787380008
 51
0.0000607139994884
  0
LINE
  5
475
  8
BRACKET
 62
     7
 10
-254.9999961849999
 20
-135.0
 30
0.0
 11
-100.0
 21
-135.0
 31
0.0
  0
LINE
  5
476
  8
BRACKET
 62
     7
 10
-102.5999999999998
 20
-135.0
 30
0.0
 11
-102.5999999999998
 21
35.0
 31
0.0
  0
LINE
  5
477
  8
BRACKET
 62
     7
 10
-316.0
 20
10.0
 30
0.0
 11
-340.0
 21
-14.0
 31
0.0
  0
LINE
  5
478
  8
BRACKET
 62
     7
 10
-243.59999999999991
 20
-49.999979815000067
 30
0.0
 11
-243.59999999999991
 21
-12.64634331100012
 31
0.0
  0
LINE
  5
479
  8
BRACKET
 62
     7
 10
-266.24634331099969
 20
10.0
 30
0.0
 11
-243.59999999999991
 21
-12.64634331100012
 31
0.0
  0
LINE
  5
47A
  8
BRACKET
 62
     7
 10
-316.0
 20
10.0
 30
0.0
 11
-266.24634331099969
 21
10.0
 31
0.0
  0
LINE
  5
47B
  8
BRACKET
 62
     7
 10
-236.39999999999961
 20
-49.999996184999979
 30
0.0
 11
-236.39999999999961
 21
-12.64634331100012
 31
0.0
  0
LINE
  5
47C
  8
BRACKET
 62
     7
 10
-188.7536566889998
 20
35.0
 30
0.0
 11
-236.39999999999961
 21
-12.64634331100012
 31
0.0
  0
LINE
  5
47D
  8
BRACKET
 62
     7
 10
-188.7536566889998
 20
35.0
 30
0.0
 11
-100.0
 21
35.0
 31
0.0
  0
LINE
  5
47E
  8
BRACKET
 62
     7
 10
-340.0
 20
-49.999996184999979
 30
0.0
 11
-340.0
 21
-14.0
 31
0.0
  0
ARC
  5
47F
  8
BRACKET
 62
     7
 10
-255.0
 20
-50.0
 30
0.0
 40
85.000000000000071
 50
179.999997439
 51
270.00000257099998
  0
LINE
  5
480
  8
BRACKET
 62
     7
 10
-115.0
 20
35.0
 30
0.0
 11
-115.0
 21
37.600000000000023
 31
0.0
  0
LINE
  5
481
  8
BRACKET
 62
     7
 10
-115.0
 20
37.600000000000023
 30
0.0
 11
-102.5999999999998
 21
37.600000000000023
 31
0.0
  0
LINE
  5
482
  8
BRACKET
 62
     7
 10
-100.0
 20
-135.0
 30
0.0
 11
-100.0
 21
35.0
 31
0.0
  0
ARC
  5
483
  8
BRACKET
 62
     7
 10
-102.5999999999998
 20
35.0
 30
0.0
 40
2.5999999999999082
 50
0.0
 51
90.0
  0
LINE
  5
484
  8
BRACKET
 62
     7
 10
-115.0
 20
-135.0
 30
0.0
 11
-115.0
 21
-137.59999999999999
 31
0.0
  0
LINE
  5
485
  8
BRACKET
 62
     7
 10
-115.0
 20
-137.59999999999999
 30
0.0
 11
-102.5999999999998
 21
-137.59999999999999
 31
0.0
  0
ARC
  5
486
  8
BRACKET
 62
     7
 10
-102.5999999999998
 20
-135.0
 30
0.0
 40
2.6000000000000201
 50
270.0
 51
0.0
  0
LINE
  5
487
  8
BRACKET
 62
     7
 10
-187.69949999999969
 20
26.450004264999961
 30
0.0
 11
-185.19949999999969
 21
26.450004264999961
 31
0.0
  0
LINE
  5
488
  8
BRACKET
 62
     7
 10
-187.69949999999969
 20
26.450004264999961
 30
0.0
 11
-182.6994999999994
 21
31.450004264999961
 31
0.0
  0
LINE
  5
489
  8
BRACKET
 62
     7
 10
-185.19949999999969
 20
23.950004264999961
 30
0.0
 11
-185.19949999999969
 21
26.450004264999961
 31
0.0
  0
LINE
  5
48A
  8
BRACKET
 62
     7
 10
-182.6994999999994
 20
31.450004264999961
 30
0.0
 11
-177.69949999999969
 21
26.450004264999961
 31
0.0
  0
LINE
  5
48B
  8
BRACKET
 62
     7
 10
-180.19949999999969
 20
23.950004264999961
 30
0.0
 11
-180.19949999999969
 21
26.450004264999961
 31
0.0
  0
LINE
  5
48C
  8
BRACKET
 62
     7
 10
-180.19949999999969
 20
26.450004264999961
 30
0.0
 11
-177.69949999999969
 21
26.450004264999961
 31
0.0
  0
LINE
  5
48D
  8
BRACKET
 62
     7
 10
-185.19949999999969
 20
23.950004264999961
 30
0.0
 11
-180.19949999999969
 21
23.950004264999961
 31
0.0
  0
TEXT
  5
48E
  8
BRACKET
 62
     7
 10
-187.09949999999981
 20
15.250004265000021
 30
0.0
 40
5.0
  1
ＵＰ
 41
0.7
  0
TEXT
  5
48F
  8
BRACKET
 62
     7
 10
-187.83833343259221
 20
-3.3784292736893158
 30
0.0
 40
4.233333333333329
  1
40
 41
0.7
 11
-187.83833343259221
 21
0.8549040596440136
 31
0.0
 73
     3
  0
TEXT
  5
490
  8
BRACKET
 62
     7
 10
-183.8552633449944
 20
-8.5692672736731588
 30
0.0
 40
4.233333333333329
  1
35
 41
0.7
 11
-183.8552633449944
 21
-4.335933940339828
 31
0.0
 73
     3
  0
TEXT
  5
491
  8
BRACKET
 62
     7
 10
-180.3397613828316
 20
-14.087499999998821
 30
0.0
 40
4.233333333333329
  1
30
 41
0.7
 11
-180.3397613828316
 21
-9.8541666666654901
 31
0.0
 73
     3
  0
TEXT
  5
492
  8
BRACKET
 62
     7
 10
-177.31858263881691
 20
-19.891130369670218
 30
0.0
 40
4.233333333333329
  1
25
 41
0.7
 11
-177.31858263881691
 21
-15.657797036336889
 31
0.0
 73
     3
  0
TEXT
  5
493
  8
BRACKET
 62
     7
 10
-174.81472010769269
 20
-25.93598925065734
 30
0.0
 40
4.233333333333329
  1
20
 41
0.7
 11
-174.81472010769269
 21
-21.702655917324009
 31
0.0
 73
     3
  0
TEXT
  5
494
  8
BRACKET
 62
     7
 10
-172.84722969494641
 20
-32.17607161745773
 30
0.0
 40
4.233333333333329
  1
15
 41
0.7
 11
-172.84722969494641
 21
-27.942738284124399
 31
0.0
 73
     3
  0
TEXT
  5
495
  8
BRACKET
 62
     7
 10
-171.89998097647069
 20
-38.646565653477147
 30
0.0
 40
4.233333333333329
  1
10
 41
0.7
 11
-171.89998097647069
 21
-34.413232320143827
 31
0.0
 73
     3
  0
TEXT
  5
496
  8
BRACKET
 62
     7
 10
-167.93123097647069
 20
-45.050819293723833
 30
0.0
 40
4.233333333333329
  1
5
 41
0.7
 11
-167.93123097647069
 21
-40.817485960390513
 31
0.0
 73
     3
  0
TEXT
  5
497
  8
BRACKET
 62
     7
 10
-167.6458333333332
 20
-51.587499999999949
 30
0.0
 40
4.233333333333329
  1
0
 41
0.7
 11
-167.6458333333332
 21
-47.354166666666629
 31
0.0
 73
     3
  0
TEXT
  5
498
  8
BRACKET
 62
     7
 10
-149.7116240157431
 20
-56.387616754333393
 30
0.0
 40
4.233333333333329
  1
1
 41
0.7
 11
-149.7116240157431
 21
-52.154283421000059
 31
0.0
 73
     3
  0
TEXT
  5
499
  8
BRACKET
 62
     7
 10
-139.7588338777434
 20
-54.468383663333341
 30
0.0
 40
4.233333333333329
  1
2
 41
0.7
 11
-139.7588338777434
 21
-50.235050330000021
 31
0.0
 73
     3
  0
TEXT
  5
49A
  8
BRACKET
 62
     7
 10
-129.84866775674271
 20
-52.201378146333319
 30
0.0
 40
4.233333333333329
  1
3
 41
0.7
 11
-129.84866775674271
 21
-47.968044812999992
 31
0.0
 73
     3
  0
TEXT
  5
49B
  8
BRACKET
 62
     7
 10
-119.990230548743
 20
-49.587556484333369
 30
0.0
 40
4.233333333333329
  1
4
 41
0.7
 11
-119.990230548743
 21
-45.354223151000042
 31
0.0
 73
     3
  0
CIRCLE
  5
49C
  8
BRACKET
 62
     7
 10
-179.4183112209999
 20
-481.64862839599988
 30
0.0
 40
3.100000000000362
  0
CIRCLE
  5
49D
  8
BRACKET
 62
     7
 10
-169.4320186570001
 20
-480.07791181699992
 30
0.0
 40
3.100000000000362
  0
CIRCLE
  5
49E
  8
BRACKET
 62
     7
 10
-159.47922851900029
 20
-478.15867872600012
 30
0.0
 40
3.100000000000362
  0
CIRCLE
  5
49F
  8
BRACKET
 62
     7
 10
-149.56906239799969
 20
-475.89167320900009
 30
0.0
 40
3.0999999999994521
  0
CIRCLE
  5
4A0
  8
BRACKET
 62
     7
 10
-139.7106251900002
 20
-473.27785154699973
 30
0.0
 40
3.100000000000362
  0
CIRCLE
  5
4A1
  8
BRACKET
 62
     7
 10
-179.72273537399971
 20
-474.6761689760001
 30
0.0
 40
3.0999999999994521
  0
CIRCLE
  5
4A2
  8
BRACKET
 62
     7
 10
-169.9113406379999
 20
-472.24106670200013
 30
0.0
 40
3.0999999999999082
  0
CIRCLE
  5
4A3
  8
BRACKET
 62
     7
 10
-160.1636960570001
 20
-469.46169405500018
 30
0.0
 40
3.100000000000362
  0
CIRCLE
  5
4A4
  8
BRACKET
 62
     7
 10
-150.48882365900019
 20
-466.33958728999988
 30
0.0
 40
3.100000000000362
  0
CIRCLE
  5
4A5
  8
BRACKET
 62
     7
 10
-140.8957103499998
 20
-462.8764925910001
 30
0.0
 40
3.0999999999999082
  0
CIRCLE
  5
4A6
  8
BRACKET
 62
     7
 10
-180.63369098000001
 20
-467.75677418299989
 30
0.0
 40
3.0999999999999082
  0
CIRCLE
  5
4A7
  8
BRACKET
 62
     7
 10
-171.07186471099999
 20
-464.47581881199989
 30
0.0
 40
3.0999999999999082
  0
CIRCLE
  5
4A8
  8
BRACKET
 62
     7
 10
-161.60355114800021
 20
-460.8574593140001
 30
0.0
 40
3.100000000000362
  0
CIRCLE
  5
4A9
  8
BRACKET
 62
     7
 10
-152.23760409499999
 20
-456.90401241799998
 30
0.0
 40
3.0999999999999082
  0
CIRCLE
  5
4AA
  8
BRACKET
 62
     7
 10
-142.98282406799959
 20
-452.61800092399989
 30
0.0
 40
3.0999999999994521
  0
CIRCLE
  5
4AB
  8
BRACKET
 62
     7
 10
-182.14424511799959
 20
-460.94310478800003
 30
0.0
 40
3.0999999999999082
  0
CIRCLE
  5
4AC
  8
BRACKET
 62
     7
 10
-172.904758587
 20
-456.84126637200012
 30
0.0
 40
3.100000000000362
  0
CIRCLE
  5
4AD
  8
BRACKET
 62
     7
 10
-163.78783562500001
 20
-452.41145792399988
 30
0.0
 40
3.100000000000362
  0
CIRCLE
  5
4AE
  8
BRACKET
 62
     7
 10
-154.80209442899991
 20
-447.65675901500009
 30
0.0
 40
3.0999999999999082
  0
CIRCLE
  5
4AF
  8
BRACKET
 62
     7
 10
-145.95608214900011
 20
-442.58044986099981
 30
0.0
 40
3.100000000000362
  0
CIRCLE
  5
4B0
  8
BRACKET
 62
     7
 10
-184.2429015579998
 20
-454.28701692999999
 30
0.0
 40
3.0999999999999082
  0
CIRCLE
  5
4B1
  8
BRACKET
 62
     7
 10
-175.396072836
 20
-449.39551293699992
 30
0.0
 40
3.0999999999999082
  0
CIRCLE
  5
4B2
  8
BRACKET
 62
     7
 10
-166.69992576399969
 20
-444.18796905400001
 30
0.0
 40
3.0999999999994521
  0
CIRCLE
  5
4B3
  8
BRACKET
 62
     7
 10
-158.16277734099981
 20
-438.6682042619999
 30
0.0
 40
3.0999999999999082
  0
CIRCLE
  5
4B4
  8
BRACKET
 62
     7
 10
-149.7928563040002
 20
-432.84023122699989
 30
0.0
 40
3.100000000000362
  0
CIRCLE
  5
4B5
  8
BRACKET
 62
     7
 10
-186.91368825799989
 20
-447.83916745699997
 30
0.0
 40
3.0999999999999082
  0
CIRCLE
  5
4B6
  8
BRACKET
 62
     7
 10
-178.5268470540002
 20
-442.19522518500003
 30
0.0
 40
3.100000000000362
  0
CIRCLE
  5
4B7
  8
BRACKET
 62
     7
 10
-170.31765880199981
 20
-436.24957842200001
 30
0.0
 40
3.0999999999999082
  0
CIRCLE
  5
4B8
  8
BRACKET
 62
     7
 10
-162.29407600700031
 20
-430.0067564900001
 30
0.0
 40
3.100000000000362
  0
CIRCLE
  5
4B9
  8
BRACKET
 62
     7
 10
-154.46394636400029
 20
-423.47147396600008
 30
0.0
 40
3.100000000000362
  0
CIRCLE
  5
4BA
  8
BRACKET
 62
     7
 10
-190.13627891799999
 20
-441.64862839599999
 30
0.0
 40
3.100000000000362
  0
CIRCLE
  5
4BB
  8
BRACKET
 62
     7
 10
-182.2732541580001
 20
-435.29520165399998
 30
0.0
 40
3.0999999999999082
  0
CIRCLE
  5
4BC
  8
BRACKET
 62
     7
 10
-174.61350160500001
 20
-428.656701973
 30
0.0
 40
3.0999999999999082
  0
CIRCLE
  5
4BD
  8
BRACKET
 62
     7
 10
-167.16454874700011
 20
-421.738334544
 30
0.0
 40
3.100000000000362
  0
CIRCLE
  5
4BE
  8
BRACKET
 62
     7
 10
-159.93380251400021
 20
-414.5454799800001
 30
0.0
 40
3.100000000000362
  0
CIRCLE
  5
4BF
  8
BRACKET
 62
     7
 10
-193.88614767799999
 20
-435.76251348800002
 30
0.0
 40
3.100000000000362
  0
ARC
  5
4C0
  8
BRACKET
 62
     7
 10
-322.99999999999972
 20
-535.00000000000011
 30
0.0
 40
3.6000000000001711
 50
219.99973690699809
 51
40.000455689999043
  0
ARC
  5
4C1
  8
BRACKET
 62
     7
 10
-259.41831122100001
 20
-481.64862839599988
 30
0.0
 40
86.599999999999866
 50
179.99998573900001
 51
219.99998906299999
  0
ARC
  5
4C2
  8
BRACKET
 62
     7
 10
-342.41831122100012
 20
-481.64862839599988
 30
0.0
 40
3.6000000000001111
 50
0.0004857020008206
 51
179.99965655600059
  0
ARC
  5
4C3
  8
BRACKET
 62
     7
 10
-259.41831122100001
 20
-481.64862839599988
 30
0.0
 40
79.400000000000034
 50
179.99997796700001
 51
219.99997933899999
  0
CIRCLE
  5
4C4
  8
BRACKET
 62
     7
 10
-186.6067817270002
 20
-428.74795569000008
 30
0.0
 40
3.100000000000362
  0
CIRCLE
  5
4C5
  8
BRACKET
 62
     7
 10
-198.1347557710003
 20
-430.22561962100002
 30
0.0
 40
3.100000000000362
  0
CIRCLE
  5
4C6
  8
BRACKET
 62
     7
 10
-179.5547602160002
 20
-421.467126081
 30
0.0
 40
3.100000000000362
  0
CIRCLE
  5
4C7
  8
BRACKET
 62
     7
 10
-172.73712832399971
 20
-413.92586611000002
 30
0.0
 40
3.0999999999994521
  0
CIRCLE
  5
4C8
  8
BRACKET
 62
     7
 10
-166.16079584599959
 20
-406.13018147000008
 30
0.0
 40
3.0999999999994521
  0
ARC
  5
4C9
  8
BRACKET
 62
     7
 10
-259.41831122100001
 20
-481.64862839599988
 30
0.0
 40
3.599999999999655
 50
179.9996787380008
 51
0.0000607139994884
  0
LINE
  5
4CA
  8
BRACKET
 62
     7
 10
-274.41830740599988
 20
-566.64862839600016
 30
0.0
 11
-119.4183112210001
 21
-566.64862839600016
 31
0.0
  0
LINE
  5
4CB
  8
BRACKET
 62
     7
 10
-122.018311221
 20
-566.64862839600016
 30
0.0
 11
-122.018311221
 21
-396.64862839600011
 31
0.0
  0
LINE
  5
4CC
  8
BRACKET
 62
     7
 10
-335.41831122100012
 20
-421.64862839599999
 30
0.0
 11
-359.41831122100001
 21
-445.64862839599999
 31
0.0
  0
LINE
  5
4CD
  8
BRACKET
 62
     7
 10
-263.01831122099998
 20
-481.6486082109999
 30
0.0
 11
-263.01831122099998
 21
-444.29497170700017
 31
0.0
  0
LINE
  5
4CE
  8
BRACKET
 62
     7
 10
-285.66465453199982
 20
-421.64862839599999
 30
0.0
 11
-263.01831122099998
 21
-444.29497170700017
 31
0.0
  0
LINE
  5
4CF
  8
BRACKET
 62
     7
 10
-335.41831122100012
 20
-421.64862839599999
 30
0.0
 11
-285.66465453199982
 21
-421.64862839599999
 31
0.0
  0
LINE
  5
4D0
  8
BRACKET
 62
     7
 10
-255.8183112209997
 20
-481.64862458099998
 30
0.0
 11
-255.8183112209997
 21
-444.29497170700017
 31
0.0
  0
LINE
  5
4D1
  8
BRACKET
 62
     7
 10
-208.17196790999989
 20
-396.64862839600011
 30
0.0
 11
-255.8183112209997
 21
-444.29497170700017
 31
0.0
  0
LINE
  5
4D2
  8
BRACKET
 62
     7
 10
-208.17196790999989
 20
-396.64862839600011
 30
0.0
 11
-119.4183112210001
 21
-396.64862839600011
 31
0.0
  0
LINE
  5
4D3
  8
BRACKET
 62
     7
 10
-359.41831122100001
 20
-481.64862458099998
 30
0.0
 11
-359.41831122100001
 21
-445.64862839599999
 31
0.0
  0
ARC
  5
4D4
  8
BRACKET
 62
     7
 10
-274.41831122100012
 20
-481.64862839599988
 30
0.0
 40
85.000000000000071
 50
179.999997439
 51
270.00000257099998
  0
LINE
  5
4D5
  8
BRACKET
 62
     7
 10
-134.41831122100001
 20
-396.64862839600011
 30
0.0
 11
-134.41831122100001
 21
-394.04862839600003
 31
0.0
  0
LINE
  5
4D6
  8
BRACKET
 62
     7
 10
-134.41831122100001
 20
-394.04862839600003
 30
0.0
 11
-122.018311221
 21
-394.04862839600003
 31
0.0
  0
LINE
  5
4D7
  8
BRACKET
 62
     7
 10
-119.4183112210001
 20
-566.64862839600016
 30
0.0
 11
-119.4183112210001
 21
-396.64862839600011
 31
0.0
  0
ARC
  5
4D8
  8
BRACKET
 62
     7
 10
-122.018311221
 20
-396.64862839600011
 30
0.0
 40
2.5999999999999082
 50
0.0
 51
90.0
  0
LINE
  5
4D9
  8
BRACKET
 62
     7
 10
-134.41831122100001
 20
-566.64862839600016
 30
0.0
 11
-134.41831122100001
 21
-569.24862839600007
 31
0.0
  0
LINE
  5
4DA
  8
BRACKET
 62
     7
 10
-134.41831122100001
 20
-569.24862839600007
 30
0.0
 11
-122.018311221
 21
-569.24862839600007
 31
0.0
  0
ARC
  5
4DB
  8
BRACKET
 62
     7
 10
-122.018311221
 20
-566.64862839600016
 30
0.0
 40
2.6000000000000201
 50
270.0
 51
0.0
  0
LINE
  5
4DC
  8
BRACKET
 62
     7
 10
-207.11781122099981
 20
-405.1986241309998
 30
0.0
 11
-204.61781122099981
 21
-405.1986241309998
 31
0.0
  0
LINE
  5
4DD
  8
BRACKET
 62
     7
 10
-207.11781122099981
 20
-405.1986241309998
 30
0.0
 11
-202.11781122099981
 21
-400.19862413099997
 31
0.0
  0
LINE
  5
4DE
  8
BRACKET
 62
     7
 10
-204.61781122099981
 20
-407.69862413100009
 30
0.0
 11
-204.61781122099981
 21
-405.1986241309998
 31
0.0
  0
LINE
  5
4DF
  8
BRACKET
 62
     7
 10
-202.11781122099981
 20
-400.19862413099997
 30
0.0
 11
-197.11781122099981
 21
-405.1986241309998
 31
0.0
  0
LINE
  5
4E0
  8
BRACKET
 62
     7
 10
-199.61781122099981
 20
-407.69862413100009
 30
0.0
 11
-199.61781122099981
 21
-405.1986241309998
 31
0.0
  0
LINE
  5
4E1
  8
BRACKET
 62
     7
 10
-199.61781122099981
 20
-405.1986241309998
 30
0.0
 11
-197.11781122099981
 21
-405.1986241309998
 31
0.0
  0
LINE
  5
4E2
  8
BRACKET
 62
     7
 10
-204.61781122099981
 20
-407.69862413100009
 30
0.0
 11
-199.61781122099981
 21
-407.69862413100009
 31
0.0
  0
TEXT
  5
4E3
  8
BRACKET
 62
     7
 10
-206.5178112209999
 20
-416.39862413099991
 30
0.0
 40
5.0
  1
ＵＰ
 41
0.7
  0
TEXT
  5
4E4
  8
BRACKET
 62
     7
 10
-207.2566446535923
 20
-435.02705766968921
 30
0.0
 40
4.233333333333329
  1
40
 41
0.7
 11
-207.2566446535923
 21
-430.79372433635598
 31
0.0
 73
     3
  0
TEXT
  5
4E5
  8
BRACKET
 62
     7
 10
-203.27357456599449
 20
-440.21789566967323
 30
0.0
 40
4.233333333333329
  1
35
 41
0.7
 11
-203.27357456599449
 21
-435.98456233633988
 31
0.0
 73
     3
  0
TEXT
  5
4E6
  8
BRACKET
 62
     7
 10
-199.75807260383181
 20
-445.73612839599872
 30
0.0
 40
4.233333333333329
  1
30
 41
0.7
 11
-199.75807260383181
 21
-441.50279506266543
 31
0.0
 73
     3
  0
TEXT
  5
4E7
  8
BRACKET
 62
     7
 10
-196.736893859817
 20
-451.53975876567017
 30
0.0
 40
4.233333333333329
  1
25
 41
0.7
 11
-196.736893859817
 21
-447.30642543233682
 31
0.0
 73
     3
  0
TEXT
  5
4E8
  8
BRACKET
 62
     7
 10
-194.2330313286927
 20
-457.58461764665691
 30
0.0
 40
4.233333333333329
  1
20
 41
0.7
 11
-194.2330313286927
 21
-453.35128431332362
 31
0.0
 73
     3
  0
TEXT
  5
4E9
  8
BRACKET
 62
     7
 10
-192.2655409159465
 20
-463.82470001345757
 30
0.0
 40
4.233333333333329
  1
15
 41
0.7
 11
-192.2655409159465
 21
-459.59136668012428
 31
0.0
 73
     3
  0
TEXT
  5
4EA
  8
BRACKET
 62
     7
 10
-191.31829219747081
 20
-470.295194049477
 30
0.0
 40
4.233333333333329
  1
10
 41
0.7
 11
-191.31829219747081
 21
-466.06186071614371
 31
0.0
 73
     3
  0
TEXT
  5
4EB
  8
BRACKET
 62
     7
 10
-187.3495421974707
 20
-476.69944768972368
 30
0.0
 40
4.233333333333329
  1
5
 41
0.7
 11
-187.3495421974707
 21
-472.46611435639039
 31
0.0
 73
     3
  0
TEXT
  5
4EC
  8
BRACKET
 62
     7
 10
-187.0641445543333
 20
-483.23612839599957
 30
0.0
 40
4.233333333333329
  1
0
 41
0.7
 11
-187.0641445543333
 21
-479.00279506266628
 31
0.0
 73
     3
  0
TEXT
  5
4ED
  8
BRACKET
 62
     7
 10
-169.12993523674319
 20
-488.03624515033329
 30
0.0
 40
4.233333333333329
  1
1
 41
0.7
 11
-169.12993523674319
 21
-483.80291181699988
 31
0.0
 73
     3
  0
TEXT
  5
4EE
  8
BRACKET
 62
     7
 10
-159.17714509874341
 20
-486.11701205933338
 30
0.0
 40
4.233333333333329
  1
2
 41
0.7
 11
-159.17714509874341
 21
-481.88367872600008
 31
0.0
 73
     3
  0
TEXT
  5
4EF
  8
BRACKET
 62
     7
 10
-149.26697897774281
 20
-483.85000654233329
 30
0.0
 40
4.233333333333329
  1
3
 41
0.7
 11
-149.26697897774281
 21
-479.61667320899988
 31
0.0
 73
     3
  0
TEXT
  5
4F0
  8
BRACKET
 62
     7
 10
-139.4085417697431
 20
-481.23618488033333
 30
0.0
 40
4.233333333333329
  1
4
 41
0.7
 11
-139.4085417697431
 21
-477.00285154699992
 31
0.0
 73
     3
  0
CIRCLE
  5
4F1
  8
BRACKET
 62
     7
 10
-369.5
 20
-50.0
 30
0.0
 40
3.5999999999999082
  0
CIRCLE
  5
4F2
  8
BRACKET
 62
     7
 10
-240.0
 20
-50.0
 30
0.0
 40
3.600000000000362
  0
CIRCLE
  5
4F3
  8
BRACKET
 62
     7
 10
-323.0
 20
-50.0
 30
0.0
 40
3.600000000000362
  0
LINE
  5
4F4
  8
BRACKET
 62
     7
 10
-388.0
 20
-95.0
 30
0.0
 11
-388.0
 21
-5.0
 31
0.0
  0
LINE
  5
4F5
  8
BRACKET
 62
     7
 10
-331.13060943431083
 20
-87.803839846770629
 30
0.0
 11
-118.6190895340001
 21
-60.912977884000163
 31
0.0
  0
ARC
  5
4F6
  8
BRACKET
 62
     7
 10
-120.0
 20
-50.0
 30
0.0
 40
11.00000000000005
 50
277.21178609699871
 51
82.788213903001264
  0
LINE
  5
4F7
  8
BRACKET
 62
     7
 10
-337.4025224809775
 20
-11.40252248097738
 30
0.0
 11
-118.6190895340001
 21
-39.087022116000071
 31
0.0
  0
CIRCLE
  5
4F8
  8
BRACKET
 62
     7
 10
-160.0
 20
-50.0
 30
0.0
 40
2.100000000000362
  0
CIRCLE
  5
4F9
  8
BRACKET
 62
     7
 10
-150.0
 20
-50.0
 30
0.0
 40
2.100000000000362
  0
CIRCLE
  5
4FA
  8
BRACKET
 62
     7
 10
-140.0
 20
-50.0
 30
0.0
 40
2.100000000000362
  0
CIRCLE
  5
4FB
  8
BRACKET
 62
     7
 10
-130.0
 20
-50.0
 30
0.0
 40
2.100000000000362
  0
CIRCLE
  5
4FC
  8
BRACKET
 62
     7
 10
-120.0
 20
-50.0
 30
0.0
 40
2.100000000000362
  0
LINE
  5
4FD
  8
BRACKET
 62
     7
 10
-388.0
 20
-95.0
 30
0.0
 11
-331.13060943431083
 21
-87.803839846770629
 31
0.0
  0
LINE
  5
4FE
  8
BRACKET
 62
     7
 10
-388.0
 20
-5.0
 30
0.0
 11
-337.4025224809775
 21
-11.40252248097738
 31
0.0
  0
CIRCLE
  5
4FF
  8
BRACKET
 62
     7
 10
-358.6210666049999
 20
-564.88962385000013
 30
0.0
 40
3.5999999999999082
  0
CIRCLE
  5
500
  8
BRACKET
 62
     7
 10
-259.41831122100001
 20
-481.64862839599988
 30
0.0
 40
3.600000000000362
  0
CIRCLE
  5
501
  8
BRACKET
 62
     7
 10
-322.99999999999972
 20
-535.00000000000011
 30
0.0
 40
3.5999999999994521
  0
LINE
  5
502
  8
BRACKET
 62
     7
 10
-343.86744636700018
 20
-611.25319457000012
 30
0.0
 11
-401.71833123900001
 21
-542.30919468900015
 31
0.0
  0
LINE
  5
503
  8
BRACKET
 62
     7
 10
-299.17042473465079
 20
-562.96488062522792
 30
0.0
 11
-159.4204122899998
 21
-411.986309162
 31
0.0
  0
ARC
  5
504
  8
BRACKET
 62
     7
 10
-167.49297804699981
 20
-404.5141152330001
 30
0.0
 40
11.000000000000069
 50
317.21178609700058
 51
122.78821390300141
  0
LINE
  5
505
  8
BRACKET
 62
     7
 10
-353.98190711888822
 20
-511.55906483208872
 30
0.0
 11
-173.44986622600001
 21
-395.2666570300002
 31
0.0
  0
CIRCLE
  5
506
  8
BRACKET
 62
     7
 10
-198.1347557710003
 20
-430.22561962100002
 30
0.0
 40
2.100000000000362
  0
CIRCLE
  5
507
  8
BRACKET
 62
     7
 10
-190.4743113399997
 20
-423.79774352400011
 30
0.0
 40
2.0999999999994521
  0
CIRCLE
  5
508
  8
BRACKET
 62
     7
 10
-182.8138669090001
 20
-417.36986742699992
 30
0.0
 40
2.100000000000362
  0
CIRCLE
  5
509
  8
BRACKET
 62
     7
 10
-175.15342247800001
 20
-410.94199133000001
 30
0.0
 40
2.0999999999999082
  0
CIRCLE
  5
50A
  8
BRACKET
 62
     7
 10
-167.49297804699981
 20
-404.5141152330001
 30
0.0
 40
2.0999999999999082
  0
LINE
  5
50B
  8
BRACKET
 62
     7
 10
-343.86744636700018
 20
-611.25319457000012
 30
0.0
 11
-299.17042473465079
 21
-562.96488062522792
 31
0.0
  0
LINE
  5
50C
  8
BRACKET
 62
     7
 10
-401.71833123900001
 20
-542.30919468900015
 30
0.0
 11
-353.98190711888822
 21
-511.55906483208872
 31
0.0
  0
TEXT
  5
50D
  8
DATA
 62
     7
 10
474.99999999999989
 20
-719.04999999999995
 30
0.0
 40
19.050000000000001
  1
(CONTROL29AV 壁用)
 41
0.7
 11
474.99999999999989
 21
-700.0
 31
0.0
 73
     3
  0
TEXT
  5
50E
  8
DATA
 62
     7
 10
456.24999999999989
 20
-682.14374999999984
 30
0.0
 40
19.050000000000001
  1
JBL-29-1金具装着図
 41
0.7
 11
456.24999999999989
 21
-663.09374999999989
 31
0.0
 73
     3
  0
TEXT
  5
50F
  8
DATA
 62
     7
 10
-499.99999999999989
 20
-779.30570250000005
 30
0.0
 40
12.699999999999999
  1
仕様および外観は予告なく変更されることがありますので、ご了承ください。
 41
0.7
 11
-499.99999999999989
 21
-766.60570250000001
 31
0.0
 73
     3
  0
TEXT
  5
513
  8
DATA
 62
     7
 10
294.16666666666657
 20
642.06249999999989
 30
0.0
 40
21.166666666666671
  1
金具取付け面(壁)
 41
0.7
 11
294.16666666666657
 21
663.22916666666652
 31
0.0
 73
     3
  0
LINE
  5
514
  8
DATA
 62
     7
 10
275.0
 20
625.0
 30
0.0
 11
525.0
 21
625.0
 31
0.0
  0
ARC
  5
515
  8
DATA
 62
     7
 10
-240.0
 20
-50.0
 30
0.0
 40
130.0000000000002
 50
300.2580211450001
 51
64.302552199000019
  0
ARC
  5
517
  8
DATA
 62
     7
 10
-259.41831122100001
 20
-481.64862839599988
 30
0.0
 40
130.00000000000011
 50
340.25802114499999
 51
104.3025521989999
  0
LINE
  5
E7C
  8
DATA
  6
CONTINUOUS
 62
     7
 10
-390.0
 20
103.5
 30
0.0
 11
-175.34179999999989
 21
57.873100000000022
 31
0.0
  0
LINE
  5
E7D
  8
DATA
  6
CONTINUOUS
 62
     7
 10
-175.34179999999989
 20
-157.87309999999999
 30
0.0
 11
-390.0
 21
-203.5
 31
0.0
  0
LINE
  5
E7E
  8
DATA
  6
CONTINUOUS
 62
     7
 10
-390.0
 20
-203.5
 30
0.0
 11
-390.0
 21
103.5
 31
0.0
  0
LINE
  5
E7F
  8
DATA
  6
CONTINUOUS
 62
     7
 10
-430.49999999999972
 20
96.0
 30
0.0
 11
-391.0
 21
103.5
 31
0.0
  0
LINE
  5
E80
  8
DATA
  6
CONTINUOUS
 62
     7
 10
-430.49999999999972
 20
-196.0
 30
0.0
 11
-391.0
 21
-203.5
 31
0.0
  0
CIRCLE
  5
E81
  8
DATA
  6
CONTINUOUS
 62
     7
 10
-369.5
 20
-50.0
 30
0.0
 40
4.5
  0
CIRCLE
  5
E82
  8
DATA
  6
CONTINUOUS
 62
     7
 10
-323.0
 20
-50.0
 30
0.0
 40
4.5
  0
CIRCLE
  5
E83
  8
DATA
  6
CONTINUOUS
 62
     7
 10
-240.0
 20
-50.0
 30
0.0
 40
4.5
  0
LINE
  5
E84
  8
DATA
  6
CONTINUOUS
 62
     7
 10
-390.0
 20
9.5
 30
0.0
 11
-241.18240000000009
 21
-16.593199999999989
 31
0.0
  0
LINE
  5
E85
  8
DATA
  6
CONTINUOUS
 62
     7
 10
-241.18240000000009
 20
-83.406800000000004
 30
0.0
 11
-390.0
 21
-109.5
 31
0.0
  0
LINE
  5
E86
  8
DATA
  6
CONTINUOUS
 62
     7
 10
-220.5
 20
-58.78239999999991
 30
0.0
 11
-220.5
 21
-41.217599999999891
 31
0.0
  0
LINE
  5
E87
  8
DATA
  6
CONTINUOUS
 62
     7
 10
-391.0
 20
-203.5
 30
0.0
 11
-391.0
 21
103.5
 31
0.0
  0
LINE
  5
E88
  8
DATA
  6
CONTINUOUS
 62
     7
 10
-390.0
 20
102.5
 30
0.0
 11
-391.0
 21
102.5
 31
0.0
  0
LINE
  5
E89
  8
DATA
  6
CONTINUOUS
 62
     7
 10
-391.0
 20
-202.5
 30
0.0
 11
-390.0
 21
-202.5
 31
0.0
  0
LINE
  5
E8A
  8
DATA
  6
CONTINUOUS
 62
     7
 10
-159.5
 20
38.310100000000197
 30
0.0
 11
-159.5
 21
-138.31009999999989
 31
0.0
  0
LINE
  5
E8B
  8
DATA
  6
CONTINUOUS
 62
     7
 10
-154.5
 20
-64.5
 30
0.0
 11
-159.5
 21
-64.5
 31
0.0
  0
LINE
  5
E8C
  8
DATA
  6
CONTINUOUS
 62
     7
 10
-154.5
 20
-66.0
 30
0.0
 11
-159.5
 21
-66.0
 31
0.0
  0
LINE
  5
E8D
  8
DATA
  6
CONTINUOUS
 62
     7
 10
-154.5
 20
-53.5
 30
0.0
 11
-159.5
 21
-53.5
 31
0.0
  0
LINE
  5
E8E
  8
DATA
  6
CONTINUOUS
 62
     7
 10
-154.5
 20
-55.0
 30
0.0
 11
-159.5
 21
-55.0
 31
0.0
  0
LINE
  5
E8F
  8
DATA
  6
CONTINUOUS
 62
     7
 10
-154.5
 20
-45.0
 30
0.0
 11
-159.5
 21
-45.0
 31
0.0
  0
LINE
  5
E90
  8
DATA
  6
CONTINUOUS
 62
     7
 10
-154.5
 20
-46.5
 30
0.0
 11
-159.5
 21
-46.5
 31
0.0
  0
LINE
  5
E91
  8
DATA
  6
CONTINUOUS
 62
     7
 10
-154.5
 20
-34.0
 30
0.0
 11
-159.5
 21
-34.0
 31
0.0
  0
LINE
  5
E92
  8
DATA
  6
CONTINUOUS
 62
     7
 10
-154.5
 20
-35.5
 30
0.0
 11
-159.5
 21
-35.5
 31
0.0
  0
LINE
  5
E93
  8
DATA
  6
CONTINUOUS
 62
     7
 10
-154.5
 20
-35.5
 30
0.0
 11
-154.5
 21
-34.0
 31
0.0
  0
LINE
  5
E94
  8
DATA
  6
CONTINUOUS
 62
     7
 10
-154.5
 20
-46.5
 30
0.0
 11
-154.5
 21
-45.0
 31
0.0
  0
LINE
  5
E95
  8
DATA
  6
CONTINUOUS
 62
     7
 10
-154.5
 20
-55.0
 30
0.0
 11
-154.5
 21
-53.5
 31
0.0
  0
LINE
  5
E96
  8
DATA
  6
CONTINUOUS
 62
     7
 10
-154.5
 20
-66.0
 30
0.0
 11
-154.5
 21
-64.5
 31
0.0
  0
ARC
  5
E97
  8
DATA
  6
CONTINUOUS
 62
     7
 10
630.29999999999995
 20
-50.0
 30
0.0
 40
1070.8
 50
172.16350227200061
 51
187.83649772799939
  0
ARC
  5
E98
  8
DATA
  6
CONTINUOUS
 62
     7
 10
-179.5
 20
-138.31009999999989
 30
0.0
 40
20.000039906000019
 50
281.99987665899948
 51
0.0
  0
ARC
  5
E99
  8
DATA
  6
CONTINUOUS
 62
     7
 10
-179.5
 20
38.310100000000197
 30
0.0
 40
20.0
 50
0.0
 51
78.000123341000474
  0
ARC
  5
E9A
  8
DATA
  6
CONTINUOUS
 62
     7
 10
-245.5
 20
-41.217500000000001
 30
0.0
 40
24.999999999999911
 50
359.99977081699978
 51
80.054909782000024
  0
ARC
  5
E9B
  8
DATA
  6
CONTINUOUS
 62
     7
 10
-245.5
 20
-58.782499999999999
 30
0.0
 40
24.99995640499991
 50
279.94509021800002
 51
0.0002291830002263
  0
CIRCLE
  5
E9E
  8
DATA
  6
CONTINUOUS
 62
     7
 10
600.46749999999986
 20
-50.0
 30
0.0
 40
3.0
  0
LINE
  5
E9F
  8
DATA
  6
CONTINUOUS
 62
     7
 10
660.35010000000011
 20
-193.5
 30
0.0
 11
660.35010000000011
 21
93.499999999999986
 31
0.0
  0
LINE
  5
EA0
  8
DATA
  6
CONTINUOUS
 62
     7
 10
139.65010000000001
 20
-193.5
 30
0.0
 11
139.65010000000001
 21
93.499999999999986
 31
0.0
  0
LINE
  5
EA1
  8
DATA
  6
CONTINUOUS
 62
     7
 10
650.35009999999988
 20
-203.5
 30
0.0
 11
149.65010000000009
 21
-203.5
 31
0.0
  0
LINE
  5
EA2
  8
DATA
  6
CONTINUOUS
 62
     7
 10
650.35009999999988
 20
103.5
 30
0.0
 11
149.65010000000009
 21
103.5
 31
0.0
  0
ARC
  5
EA3
  8
DATA
  6
CONTINUOUS
 62
     7
 10
149.65010000000009
 20
-193.5
 30
0.0
 40
10.0
 50
180.0
 51
270.0
  0
ARC
  5
EA4
  8
DATA
  6
CONTINUOUS
 62
     7
 10
650.35009999999988
 20
-193.5
 30
0.0
 40
10.0
 50
270.0
 51
0.0
  0
ARC
  5
EA5
  8
DATA
  6
CONTINUOUS
 62
     7
 10
650.35009999999988
 20
93.499999999999986
 30
0.0
 40
10.0
 50
0.0
 51
90.0
  0
ARC
  5
EA6
  8
DATA
  6
CONTINUOUS
 62
     7
 10
149.65010000000009
 20
93.499999999999986
 30
0.0
 40
10.0
 50
90.0
 51
180.0
  0
LINE
  5
EA7
  8
DATA
  6
CONTINUOUS
 62
     7
 10
169.81620000000001
 20
-154.505
 30
0.0
 11
630.18380000000002
 21
-154.505
 31
0.0
  0
LINE
  5
EA8
  8
DATA
  6
CONTINUOUS
 62
     7
 10
169.81620000000001
 20
54.504999999999988
 30
0.0
 11
630.18380000000002
 21
54.504999999999988
 31
0.0
  0
LINE
  5
EA9
  8
DATA
  6
CONTINUOUS
 62
     7
 10
159.81620000000001
 20
-144.505
 30
0.0
 11
159.81620000000001
 21
44.504999999999988
 31
0.0
  0
LINE
  5
EAA
  8
DATA
  6
CONTINUOUS
 62
     7
 10
640.18380000000002
 20
-144.505
 30
0.0
 11
640.18380000000002
 21
44.504999999999988
 31
0.0
  0
LINE
  5
EAB
  8
DATA
  6
CONTINUOUS
 62
     7
 10
161.59119999999999
 20
-150.19259999999991
 30
0.0
 11
141.4249999999999
 21
-199.18759999999989
 31
0.0
  0
LINE
  5
EAC
  8
DATA
  6
CONTINUOUS
 62
     7
 10
476.46749999999992
 20
-95.750000000000014
 30
0.0
 11
383.96749999999997
 21
-95.750000000000014
 31
0.0
  0
CIRCLE
  5
EAD
  8
DATA
  6
CONTINUOUS
 62
     7
 10
429.46749999999992
 20
-82.0
 30
0.0
 40
2.249900000000252
  0
CIRCLE
  5
EAE
  8
DATA
  6
CONTINUOUS
 62
     7
 10
429.46749999999992
 20
-50.0
 30
0.0
 40
20.5
  0
LINE
  5
EAF
  8
DATA
  6
CONTINUOUS
 62
     7
 10
467.96749999999992
 20
-65.75
 30
0.0
 11
467.96749999999992
 21
-34.25
 31
0.0
  0
LINE
  5
EB0
  8
DATA
  6
CONTINUOUS
 62
     7
 10
473.96749999999997
 20
-65.75
 30
0.0
 11
473.96749999999997
 21
-34.25
 31
0.0
  0
LINE
  5
EB1
  8
DATA
  6
CONTINUOUS
 62
     7
 10
427.71749999999992
 20
-56.25
 30
0.0
 11
427.71749999999992
 21
-43.75
 31
0.0
  0
LINE
  5
EB2
  8
DATA
  6
CONTINUOUS
 62
     7
 10
431.21749999999992
 20
-56.25
 30
0.0
 11
431.21749999999992
 21
-43.75
 31
0.0
  0
ARC
  5
EB3
  8
DATA
  6
CONTINUOUS
 62
     7
 10
470.96749999999992
 20
-50.0
 30
0.0
 40
9.7499165949999433
 50
107.9203716389989
 51
252.07962836100111
  0
ARC
  5
EB4
  8
DATA
  6
CONTINUOUS
 62
     7
 10
470.96749999999992
 20
-50.0
 30
0.0
 40
9.7499165950000872
 50
287.92037163900119
 51
72.079628360998782
  0
LINE
  5
EB5
  8
DATA
  6
CONTINUOUS
 62
     7
 10
473.96749999999997
 20
-65.75
 30
0.0
 11
467.96749999999992
 21
-65.75
 31
0.0
  0
LINE
  5
EB6
  8
DATA
  6
CONTINUOUS
 62
     7
 10
431.21749999999992
 20
-56.25
 30
0.0
 11
427.71749999999992
 21
-56.25
 31
0.0
  0
LINE
  5
EB7
  8
DATA
  6
CONTINUOUS
 62
     7
 10
383.96749999999997
 20
-4.25
 30
0.0
 11
476.46749999999992
 21
-4.25
 31
0.0
  0
LINE
  5
EB8
  8
DATA
  6
CONTINUOUS
 62
     7
 10
431.21749999999992
 20
-43.75
 30
0.0
 11
427.71749999999992
 21
-43.75
 31
0.0
  0
LINE
  5
EB9
  8
DATA
  6
CONTINUOUS
 62
     7
 10
473.96749999999997
 20
-34.25
 30
0.0
 11
467.96749999999992
 21
-34.25
 31
0.0
  0
CIRCLE
  5
EBA
  8
DATA
  6
CONTINUOUS
 62
     7
 10
429.46749999999992
 20
-18.0
 30
0.0
 40
2.249900000000252
  0
LINE
  5
EBB
  8
DATA
  6
CONTINUOUS
 62
     7
 10
334.96749999999997
 20
-27.0
 30
0.0
 11
334.96749999999997
 21
-73.0
 31
0.0
  0
CIRCLE
  5
EBC
  8
DATA
  6
CONTINUOUS
 62
     7
 10
329.21749999999997
 20
-72.25
 30
0.0
 40
2.5
  0
LINE
  5
EBD
  8
DATA
  6
CONTINUOUS
 62
     7
 10
329.21749999999997
 20
-73.25
 30
0.0
 11
329.21749999999997
 21
-71.25
 31
0.0
  0
LINE
  5
EBE
  8
DATA
  6
CONTINUOUS
 62
     7
 10
278.96749999999992
 20
-73.0
 30
0.0
 11
278.96749999999992
 21
-27.0
 31
0.0
  0
CIRCLE
  5
EBF
  8
DATA
  6
CONTINUOUS
 62
     7
 10
284.71749999999997
 20
-72.25
 30
0.0
 40
2.5
  0
LINE
  5
EC0
  8
DATA
  6
CONTINUOUS
 62
     7
 10
284.71749999999997
 20
-73.25
 30
0.0
 11
284.71749999999997
 21
-71.25
 31
0.0
  0
LINE
  5
EC1
  8
DATA
  6
CONTINUOUS
 62
     7
 10
329.96749999999997
 20
-78.0
 30
0.0
 11
283.96749999999992
 21
-78.0
 31
0.0
  0
ARC
  5
EC2
  8
DATA
  6
CONTINUOUS
 62
     7
 10
329.96749999999997
 20
-73.0
 30
0.0
 40
5.0
 50
270.0
 51
0.0
  0
ARC
  5
EC3
  8
DATA
  6
CONTINUOUS
 62
     7
 10
283.96749999999992
 20
-73.0
 30
0.0
 40
5.0
 50
180.0
 51
270.0
  0
LINE
  5
EC4
  8
DATA
  6
CONTINUOUS
 62
     7
 10
283.96749999999992
 20
-22.0
 30
0.0
 11
329.96749999999997
 21
-22.0
 31
0.0
  0
LINE
  5
EC5
  8
DATA
  6
CONTINUOUS
 62
     7
 10
330.21749999999997
 20
-72.25
 30
0.0
 11
328.21749999999997
 21
-72.25
 31
0.0
  0
ARC
  5
EC6
  8
DATA
  6
CONTINUOUS
 62
     7
 10
329.96749999999997
 20
-26.9999
 30
0.0
 40
5.0
 50
0.0
 51
90.0
  0
CIRCLE
  5
EC7
  8
DATA
  6
CONTINUOUS
 62
     7
 10
329.21749999999997
 20
-27.75
 30
0.0
 40
2.5
  0
LINE
  5
EC8
  8
DATA
  6
CONTINUOUS
 62
     7
 10
329.21749999999997
 20
-28.75
 30
0.0
 11
329.21749999999997
 21
-26.75
 31
0.0
  0
LINE
  5
EC9
  8
DATA
  6
CONTINUOUS
 62
     7
 10
330.21749999999997
 20
-27.75
 30
0.0
 11
328.21749999999997
 21
-27.75
 31
0.0
  0
LINE
  5
ECA
  8
DATA
  6
CONTINUOUS
 62
     7
 10
290.96749999999997
 20
-69.0
 30
0.0
 11
290.96749999999997
 21
-31.0
 31
0.0
  0
LINE
  5
ECB
  8
DATA
  6
CONTINUOUS
 62
     7
 10
322.96749999999997
 20
-31.0
 30
0.0
 11
322.96749999999997
 21
-69.0
 31
0.0
  0
CIRCLE
  5
ECC
  8
DATA
  6
CONTINUOUS
 62
     7
 10
303.96749999999997
 20
-59.75
 30
0.0
 40
3.0
  0
LINE
  5
ECD
  8
DATA
  6
CONTINUOUS
 62
     7
 10
306.08880000000022
 20
-61.871299999999991
 30
0.0
 11
301.84620000000018
 21
-57.628700000000009
 31
0.0
  0
LINE
  5
ECE
  8
DATA
  6
CONTINUOUS
 62
     7
 10
305.02820000000003
 20
-58.689300000000003
 30
0.0
 11
302.90679999999998
 21
-60.810699999999997
 31
0.0
  0
LINE
  5
ECF
  8
DATA
  6
CONTINUOUS
 62
     7
 10
299.46749999999992
 20
-64.25
 30
0.0
 11
299.46749999999992
 21
-55.25
 31
0.0
  0
LINE
  5
ED0
  8
DATA
  6
CONTINUOUS
 62
     7
 10
308.46749999999997
 20
-55.25
 30
0.0
 11
308.46749999999997
 21
-64.25
 31
0.0
  0
CIRCLE
  5
ED1
  8
DATA
  6
CONTINUOUS
 62
     7
 10
319.46749999999997
 20
-59.75
 30
0.0
 40
2.5
  0
LINE
  5
ED2
  8
DATA
  6
CONTINUOUS
 62
     7
 10
319.46749999999997
 20
-61.75
 30
0.0
 11
319.46749999999997
 21
-57.75
 31
0.0
  0
LINE
  5
ED3
  8
DATA
  6
CONTINUOUS
 62
     7
 10
322.96749999999997
 20
-69.0
 30
0.0
 11
290.96749999999997
 21
-69.0
 31
0.0
  0
LINE
  5
ED4
  8
DATA
  6
CONTINUOUS
 62
     7
 10
311.96749999999997
 20
-66.0
 30
0.0
 11
295.96749999999997
 21
-66.0
 31
0.0
  0
LINE
  5
ED5
  8
DATA
  6
CONTINUOUS
 62
     7
 10
311.96749999999997
 20
-64.5
 30
0.0
 11
295.96749999999997
 21
-64.5
 31
0.0
  0
LINE
  5
ED6
  8
DATA
  6
CONTINUOUS
 62
     7
 10
295.96749999999997
 20
-66.0
 30
0.0
 11
295.96749999999997
 21
-64.5
 31
0.0
  0
LINE
  5
ED7
  8
DATA
  6
CONTINUOUS
 62
     7
 10
311.96749999999997
 20
-64.5
 30
0.0
 11
311.96749999999997
 21
-66.0
 31
0.0
  0
LINE
  5
ED8
  8
DATA
  6
CONTINUOUS
 62
     7
 10
308.46749999999997
 20
-64.25
 30
0.0
 11
299.46749999999992
 21
-64.25
 31
0.0
  0
LINE
  5
ED9
  8
DATA
  6
CONTINUOUS
 62
     7
 10
285.7174999999998
 20
-72.25
 30
0.0
 11
283.71749999999997
 21
-72.25
 31
0.0
  0
LINE
  5
EDA
  8
DATA
  6
CONTINUOUS
 62
     7
 10
311.96749999999997
 20
-55.0
 30
0.0
 11
295.96749999999997
 21
-55.0
 31
0.0
  0
LINE
  5
EDB
  8
DATA
  6
CONTINUOUS
 62
     7
 10
311.96749999999997
 20
-53.5
 30
0.0
 11
295.96749999999997
 21
-53.5
 31
0.0
  0
LINE
  5
EDC
  8
DATA
  6
CONTINUOUS
 62
     7
 10
295.96749999999997
 20
-55.0
 30
0.0
 11
295.96749999999997
 21
-53.5
 31
0.0
  0
LINE
  5
EDD
  8
DATA
  6
CONTINUOUS
 62
     7
 10
311.96749999999997
 20
-53.5
 30
0.0
 11
311.96749999999997
 21
-55.0
 31
0.0
  0
LINE
  5
EDE
  8
DATA
  6
CONTINUOUS
 62
     7
 10
299.46749999999992
 20
-55.25
 30
0.0
 11
308.46749999999997
 21
-55.25
 31
0.0
  0
LINE
  5
EDF
  8
DATA
  6
CONTINUOUS
 62
     7
 10
319.46749999999997
 20
-42.25
 30
0.0
 11
319.46749999999997
 21
-38.25
 31
0.0
  0
LINE
  5
EE0
  8
DATA
  6
CONTINUOUS
 62
     7
 10
321.46749999999997
 20
-40.24989999999999
 30
0.0
 11
317.46749999999997
 21
-40.24989999999999
 31
0.0
  0
LINE
  5
EE1
  8
DATA
  6
CONTINUOUS
 62
     7
 10
285.7174999999998
 20
-27.75
 30
0.0
 11
283.71749999999997
 21
-27.75
 31
0.0
  0
LINE
  5
EE2
  8
DATA
  6
CONTINUOUS
 62
     7
 10
284.71749999999997
 20
-28.75
 30
0.0
 11
284.71749999999997
 21
-26.75
 31
0.0
  0
CIRCLE
  5
EE3
  8
DATA
  6
CONTINUOUS
 62
     7
 10
284.71749999999997
 20
-27.75
 30
0.0
 40
2.5
  0
ARC
  5
EE4
  8
DATA
  6
CONTINUOUS
 62
     7
 10
283.96749999999992
 20
-26.9999
 30
0.0
 40
5.0
 50
90.0
 51
180.0
  0
LINE
  5
EE5
  8
DATA
  6
CONTINUOUS
 62
     7
 10
290.96749999999997
 20
-31.0
 30
0.0
 11
322.96749999999997
 21
-31.0
 31
0.0
  0
LINE
  5
EE6
  8
DATA
  6
CONTINUOUS
 62
     7
 10
295.96749999999997
 20
-34.0
 30
0.0
 11
311.96749999999997
 21
-34.0
 31
0.0
  0
LINE
  5
EE7
  8
DATA
  6
CONTINUOUS
 62
     7
 10
295.96749999999997
 20
-35.5
 30
0.0
 11
311.96749999999997
 21
-35.5
 31
0.0
  0
LINE
  5
EE8
  8
DATA
  6
CONTINUOUS
 62
     7
 10
295.96749999999997
 20
-45.0
 30
0.0
 11
311.96749999999997
 21
-45.0
 31
0.0
  0
LINE
  5
EE9
  8
DATA
  6
CONTINUOUS
 62
     7
 10
295.96749999999997
 20
-46.5
 30
0.0
 11
311.96749999999997
 21
-46.5
 31
0.0
  0
LINE
  5
EEA
  8
DATA
  6
CONTINUOUS
 62
     7
 10
295.96749999999997
 20
-46.5
 30
0.0
 11
295.96749999999997
 21
-45.0
 31
0.0
  0
LINE
  5
EEB
  8
DATA
  6
CONTINUOUS
 62
     7
 10
295.96749999999997
 20
-35.5
 30
0.0
 11
295.96749999999997
 21
-34.0
 31
0.0
  0
LINE
  5
EEC
  8
DATA
  6
CONTINUOUS
 62
     7
 10
311.96749999999997
 20
-34.0
 30
0.0
 11
311.96749999999997
 21
-35.5
 31
0.0
  0
LINE
  5
EED
  8
DATA
  6
CONTINUOUS
 62
     7
 10
311.96749999999997
 20
-45.0
 30
0.0
 11
311.96749999999997
 21
-46.5
 31
0.0
  0
CIRCLE
  5
EEE
  8
DATA
  6
CONTINUOUS
 62
     7
 10
303.96749999999997
 20
-40.25
 30
0.0
 40
3.0
  0
LINE
  5
EEF
  8
DATA
  6
CONTINUOUS
 62
     7
 10
306.08880000000022
 20
-42.371299999999991
 30
0.0
 11
301.84620000000018
 21
-38.128700000000009
 31
0.0
  0
LINE
  5
EF0
  8
DATA
  6
CONTINUOUS
 62
     7
 10
305.02820000000003
 20
-39.18930000000001
 30
0.0
 11
302.90679999999998
 21
-41.310699999999997
 31
0.0
  0
LINE
  5
EF1
  8
DATA
  6
CONTINUOUS
 62
     7
 10
308.46749999999997
 20
-44.75
 30
0.0
 11
299.46749999999992
 21
-44.75
 31
0.0
  0
LINE
  5
EF2
  8
DATA
  6
CONTINUOUS
 62
     7
 10
299.46749999999992
 20
-44.75
 30
0.0
 11
299.46749999999992
 21
-35.75
 31
0.0
  0
LINE
  5
EF3
  8
DATA
  6
CONTINUOUS
 62
     7
 10
299.46749999999992
 20
-35.75
 30
0.0
 11
308.46749999999997
 21
-35.75
 31
0.0
  0
LINE
  5
EF4
  8
DATA
  6
CONTINUOUS
 62
     7
 10
308.46749999999997
 20
-35.75
 30
0.0
 11
308.46749999999997
 21
-44.75
 31
0.0
  0
CIRCLE
  5
EF5
  8
DATA
  6
CONTINUOUS
 62
     7
 10
319.46749999999997
 20
-40.25
 30
0.0
 40
2.5
  0
LINE
  5
EF6
  8
DATA
  6
CONTINUOUS
 62
     7
 10
188.46749999999989
 20
-78.5
 30
0.0
 11
188.46749999999989
 21
-21.5
 31
0.0
  0
LINE
  5
EF7
  8
DATA
  6
CONTINUOUS
 62
     7
 10
259.46749999999997
 20
-78.5
 30
0.0
 11
259.46749999999997
 21
-21.5
 31
0.0
  0
LINE
  5
EF8
  8
DATA
  6
CONTINUOUS
 62
     7
 10
188.46749999999989
 20
-78.5
 30
0.0
 11
259.46749999999997
 21
-78.5
 31
0.0
  0
LINE
  5
EF9
  8
DATA
  6
CONTINUOUS
 62
     7
 10
259.46749999999997
 20
-21.5
 30
0.0
 11
188.46749999999989
 21
-21.5
 31
0.0
  0
LINE
  5
EFA
  8
DATA
  6
CONTINUOUS
 62
     7
 10
197.96749999999989
 20
-78.5
 30
0.0
 11
197.96749999999989
 21
-21.5
 31
0.0
  0
LINE
  5
EFB
  8
DATA
  6
CONTINUOUS
 62
     7
 10
247.4674999999998
 20
-78.5
 30
0.0
 11
247.4674999999998
 21
-21.5
 31
0.0
  0
LINE
  5
EFC
  8
DATA
  6
CONTINUOUS
 62
     7
 10
375.96749999999997
 20
-87.75
 30
0.0
 11
375.96749999999997
 21
-12.25
 31
0.0
  0
LINE
  5
EFD
  8
DATA
  6
CONTINUOUS
 62
     7
 10
484.46749999999992
 20
-87.75
 30
0.0
 11
484.46749999999992
 21
-12.25
 31
0.0
  0
ARC
  5
EFE
  8
DATA
  6
CONTINUOUS
 62
     7
 10
383.96749999999997
 20
-87.75
 30
0.0
 40
8.0
 50
180.0
 51
270.0
  0
ARC
  5
EFF
  8
DATA
  6
CONTINUOUS
 62
     7
 10
383.96749999999997
 20
-12.25
 30
0.0
 40
8.0
 50
90.0
 51
180.0
  0
ARC
  5
F00
  8
DATA
  6
CONTINUOUS
 62
     7
 10
476.46749999999992
 20
-12.25
 30
0.0
 40
8.0
 50
0.0
 51
90.0
  0
ARC
  5
F01
  8
DATA
  6
CONTINUOUS
 62
     7
 10
476.46749999999992
 20
-87.75
 30
0.0
 40
8.0
 50
270.0
 51
0.0
  0
CIRCLE
  5
F02
  8
DATA
  6
CONTINUOUS
 62
     7
 10
429.46749999999992
 20
-50.0
 30
0.0
 40
23.0
  0
LINE
  5
F03
  8
DATA
  6
CONTINUOUS
 62
     7
 10
612.9675000000002
 20
-86.0
 30
0.0
 11
587.96749999999986
 21
-86.0
 31
0.0
  0
LINE
  5
F04
  8
DATA
  6
CONTINUOUS
 62
     7
 10
612.9675000000002
 20
-14.0
 30
0.0
 11
612.9675000000002
 21
-86.0
 31
0.0
  0
LINE
  5
F05
  8
DATA
  6
CONTINUOUS
 62
     7
 10
587.96749999999986
 20
-14.0
 30
0.0
 11
612.9675000000002
 21
-14.0
 31
0.0
  0
LINE
  5
F06
  8
DATA
  6
CONTINUOUS
 62
     7
 10
587.96749999999986
 20
-86.0
 30
0.0
 11
587.96749999999986
 21
-14.0
 31
0.0
  0
LINE
  5
F07
  8
DATA
  6
CONTINUOUS
 62
     7
 10
600.46749999999986
 20
-47.0
 30
0.0
 11
600.46749999999986
 21
-45.75
 31
0.0
  0
LINE
  5
F08
  8
DATA
  6
CONTINUOUS
 62
     7
 10
600.46749999999986
 20
-54.25
 30
0.0
 11
600.46749999999986
 21
-53.0
 31
0.0
  0
LINE
  5
F09
  8
DATA
  6
CONTINUOUS
 62
     7
 10
597.46750000000009
 20
-50.0
 30
0.0
 11
587.96749999999986
 21
-50.0
 31
0.0
  0
LINE
  5
F0A
  8
DATA
  6
CONTINUOUS
 62
     7
 10
603.46749999999997
 20
-50.0
 30
0.0
 11
612.9675000000002
 21
-50.0
 31
0.0
  0
LINE
  5
F0B
  8
DATA
  6
CONTINUOUS
 62
     7
 10
598.96749999999997
 20
-47.401899999999927
 30
0.0
 11
598.01369999999997
 21
-45.75
 31
0.0
  0
LINE
  5
F0C
  8
DATA
  6
CONTINUOUS
 62
     7
 10
602.92130000000009
 20
-54.25
 30
0.0
 11
601.96750000000009
 21
-52.598099999999931
 31
0.0
  0
LINE
  5
F0D
  8
DATA
  6
CONTINUOUS
 62
     7
 10
597.86939999999993
 20
-48.5
 30
0.0
 11
595.74059999999974
 21
-47.270900000000012
 31
0.0
  0
LINE
  5
F0E
  8
DATA
  6
CONTINUOUS
 62
     7
 10
605.19439999999975
 20
-52.729099999999988
 30
0.0
 11
603.06560000000002
 21
-51.5
 31
0.0
  0
LINE
  5
F0F
  8
DATA
  6
CONTINUOUS
 62
     7
 10
601.96750000000009
 20
-47.401899999999927
 30
0.0
 11
602.92130000000009
 21
-45.75
 31
0.0
  0
LINE
  5
F10
  8
DATA
  6
CONTINUOUS
 62
     7
 10
598.01369999999997
 20
-54.25
 30
0.0
 11
598.96749999999997
 21
-52.598099999999931
 31
0.0
  0
LINE
  5
F11
  8
DATA
  6
CONTINUOUS
 62
     7
 10
603.46749999999997
 20
-50.5
 30
0.0
 11
607.46749999999997
 21
-50.5
 31
0.0
  0
LINE
  5
F12
  8
DATA
  6
CONTINUOUS
 62
     7
 10
593.46750000000009
 20
-49.5
 30
0.0
 11
597.46750000000009
 21
-49.5
 31
0.0
  0
LINE
  5
F13
  8
DATA
  6
CONTINUOUS
 62
     7
 10
593.46750000000009
 20
-49.5
 30
0.0
 11
593.46750000000009
 21
-45.75
 31
0.0
  0
LINE
  5
F14
  8
DATA
  6
CONTINUOUS
 62
     7
 10
595.74059999999974
 20
-47.270900000000012
 30
0.0
 11
595.74059999999974
 21
-45.75
 31
0.0
  0
LINE
  5
F15
  8
DATA
  6
CONTINUOUS
 62
     7
 10
607.46749999999997
 20
-50.5
 30
0.0
 11
607.46749999999997
 21
-54.25
 31
0.0
  0
LINE
  5
F16
  8
DATA
  6
CONTINUOUS
 62
     7
 10
605.19439999999975
 20
-52.729099999999988
 30
0.0
 11
605.19439999999975
 21
-54.25
 31
0.0
  0
ARC
  5
F17
  8
DATA
  6
CONTINUOUS
 62
     7
 10
169.81620000000001
 20
-144.505
 30
0.0
 40
10.0
 50
180.0
 51
270.0
  0
ARC
  5
F18
  8
DATA
  6
CONTINUOUS
 62
     7
 10
169.81620000000001
 20
44.504999999999988
 30
0.0
 40
10.0
 50
90.0
 51
180.0
  0
LINE
  5
F19
  8
DATA
  6
CONTINUOUS
 62
     7
 10
161.59119999999999
 20
50.192599999999992
 30
0.0
 11
141.4249999999999
 21
99.187599999999975
 31
0.0
  0
ARC
  5
F1A
  8
DATA
  6
CONTINUOUS
 62
     7
 10
630.18380000000002
 20
-144.505
 30
0.0
 40
10.0
 50
270.0
 51
0.0
  0
ARC
  5
F1B
  8
DATA
  6
CONTINUOUS
 62
     7
 10
630.18380000000002
 20
44.504999999999988
 30
0.0
 40
10.0
 50
0.0
 51
90.0
  0
LINE
  5
F1C
  8
DATA
  6
CONTINUOUS
 62
     7
 10
638.40900000000011
 20
-150.19259999999991
 30
0.0
 11
658.57520000000011
 21
-199.18759999999989
 31
0.0
  0
LINE
  5
F1D
  8
DATA
  6
CONTINUOUS
 62
     7
 10
638.40900000000011
 20
50.192599999999992
 30
0.0
 11
658.57520000000011
 21
99.187599999999975
 31
0.0
  0
ARC
  5
F1E
  8
DATA
  6
CONTINUOUS
 62
     7
 10
400.00000000000023
 20
366.49970000000002
 30
0.0
 40
4.5
 50
0.0000000009998646
 51
90.0
  0
ARC
  5
F1F
  8
DATA
  6
CONTINUOUS
 62
     7
 10
400.00000000000023
 20
366.49970000000002
 30
0.0
 40
4.5
 50
270.0
 51
0.0000000019997292
  0
ARC
  5
F20
  8
DATA
  6
CONTINUOUS
 62
     7
 10
400.00000000000023
 20
366.49970000000002
 30
0.0
 40
4.5
 50
179.9999999990001
 51
270.0
  0
ARC
  5
F21
  8
DATA
  6
CONTINUOUS
 62
     7
 10
400.00000000000023
 20
366.49970000000002
 30
0.0
 40
4.5
 50
90.0
 51
179.99999999800019
  0
ARC
  5
F22
  8
DATA
  6
CONTINUOUS
 62
     7
 10
400.00000000000023
 20
493.65890000000002
 30
0.0
 40
4.5
 50
0.0000000019997292
 51
90.0
  0
ARC
  5
F23
  8
DATA
  6
CONTINUOUS
 62
     7
 10
400.00000000000023
 20
493.65890000000002
 30
0.0
 40
4.5
 50
270.0
 51
0.0000000009998646
  0
ARC
  5
F24
  8
DATA
  6
CONTINUOUS
 62
     7
 10
400.00000000000023
 20
493.65890000000002
 30
0.0
 40
4.5
 50
179.9999999990001
 51
270.0
  0
ARC
  5
F25
  8
DATA
  6
CONTINUOUS
 62
     7
 10
400.00000000000023
 20
493.65890000000002
 30
0.0
 40
4.5
 50
90.0
 51
179.9999999990001
  0
LINE
  5
F26
  8
DATA
  6
CONTINUOUS
 62
     7
 10
144.8610000000001
 20
569.19999999999993
 30
0.0
 11
655.13900000000012
 21
569.19999999999993
 31
0.0
  0
LINE
  5
F27
  8
DATA
  6
CONTINUOUS
 62
     7
 10
660.35000000000014
 20
518.70000000000005
 30
0.0
 11
660.35000000000014
 21
349.19999999999999
 31
0.0
  0
LINE
  5
F28
  8
DATA
  6
CONTINUOUS
 62
     7
 10
139.65000000000009
 20
518.70000000000005
 30
0.0
 11
660.35000000000014
 21
518.70000000000005
 31
0.0
  0
LINE
  5
F29
  8
DATA
  6
CONTINUOUS
 62
     7
 10
658.13570000000004
 20
566.34230000000002
 30
0.0
 11
660.35000000000014
 21
519.70000000000005
 31
0.0
  0
LINE
  5
F2A
  8
DATA
  6
CONTINUOUS
 62
     7
 10
660.35000000000014
 20
518.70000000000005
 30
0.0
 11
640.18390000000011
 21
288.19999999999999
 31
0.0
  0
LINE
  5
F2B
  8
DATA
  6
CONTINUOUS
 62
     7
 10
139.65000000000009
 20
518.70000000000005
 30
0.0
 11
139.65000000000009
 21
349.19999999999999
 31
0.0
  0
LINE
  5
F2C
  8
DATA
  6
CONTINUOUS
 62
     7
 10
141.8642999999999
 20
566.34230000000002
 30
0.0
 11
139.65000000000009
 21
519.70000000000005
 31
0.0
  0
LINE
  5
F2D
  8
DATA
  6
CONTINUOUS
 62
     7
 10
139.64990000000009
 20
518.70229999999992
 30
0.0
 11
159.81630000000021
 21
288.19999999999999
 31
0.0
  0
LINE
  5
F2E
  8
DATA
  6
CONTINUOUS
 62
     7
 10
645.52070000000003
 20
349.19999999999999
 30
0.0
 11
660.35000000000014
 21
349.19999999999999
 31
0.0
  0
LINE
  5
F2F
  8
DATA
  6
CONTINUOUS
 62
     7
 10
139.65000000000009
 20
349.19999999999999
 30
0.0
 11
154.47950000000009
 21
349.19999999999999
 31
0.0
  0
LINE
  5
F30
  8
DATA
  6
CONTINUOUS
 62
     7
 10
139.65000000000009
 20
519.70000000000005
 30
0.0
 11
660.35000000000014
 21
519.70000000000005
 31
0.0
  0
LINE
  5
F31
  8
DATA
  6
CONTINUOUS
 62
     7
 10
659.35000000000014
 20
518.70000000000005
 30
0.0
 11
659.35000000000014
 21
519.70000000000005
 31
0.0
  0
LINE
  5
F32
  8
DATA
  6
CONTINUOUS
 62
     7
 10
140.65000000000009
 20
519.70000000000005
 30
0.0
 11
140.64990000000009
 21
518.70229999999992
 31
0.0
  0
LINE
  5
F33
  8
DATA
  6
CONTINUOUS
 62
     7
 10
640.18390000000011
 20
288.19999999999999
 30
0.0
 11
159.81630000000021
 21
288.19999999999999
 31
0.0
  0
LINE
  5
F34
  8
DATA
  6
CONTINUOUS
 62
     7
 10
488.03260000000012
 20
283.19999999999999
 30
0.0
 11
488.03260000000012
 21
288.19999999999999
 31
0.0
  0
LINE
  5
F35
  8
DATA
  6
CONTINUOUS
 62
     7
 10
488.03260000000012
 20
283.19999999999999
 30
0.0
 11
504.03260000000017
 21
283.19999999999999
 31
0.0
  0
LINE
  5
F36
  8
DATA
  6
CONTINUOUS
 62
     7
 10
504.03260000000017
 20
283.19999999999999
 30
0.0
 11
504.03260000000017
 21
288.19999999999999
 31
0.0
  0
LINE
  5
F37
  8
DATA
  6
CONTINUOUS
 62
     7
 10
641.5
 20
559.20000000000005
 30
0.0
 11
158.5000000000002
 21
559.20000000000005
 31
0.0
  0
LINE
  5
F38
  8
DATA
  6
CONTINUOUS
 62
     7
 10
641.5
 20
569.19999999999993
 30
0.0
 11
641.5
 21
559.20000000000005
 31
0.0
  0
LINE
  5
F39
  8
DATA
  6
CONTINUOUS
 62
     7
 10
158.5000000000002
 20
569.19999999999993
 30
0.0
 11
158.5000000000002
 21
559.20000000000005
 31
0.0
  0
ARC
  5
F3A
  8
DATA
  6
CONTINUOUS
 62
     7
 10
655.1391000000001
 20
566.19999999999993
 30
0.0
 40
2.999976807999956
 50
2.7187709879998021
 51
90.001909858999966
  0
ARC
  5
F3B
  8
DATA
  6
CONTINUOUS
 62
     7
 10
144.8609000000001
 20
566.19999999999993
 30
0.0
 40
3.0000000019999962
 50
89.998090140996766
 51
177.28122901200021
  0
LINE
  5
F3C
  8
DATA
  6
CONTINUOUS
 62
     7
 10
660.35000000000014
 20
350.19999999999999
 30
0.0
 11
662.95000000000005
 21
350.19999999999999
 31
0.0
  0
LINE
  5
F3D
  8
DATA
  6
CONTINUOUS
 62
     7
 10
137.0499999999999
 20
350.19999999999999
 30
0.0
 11
139.65000000000009
 21
350.19999999999999
 31
0.0
  0
LINE
  5
F3E
  8
DATA
  6
CONTINUOUS
 62
     7
 10
-472.99287577600012
 20
-460.47894782999981
 30
0.0
 11
-279.22674850800001
 21
-357.4515497540001
 31
0.0
  0
LINE
  5
F3F
  8
DATA
  6
CONTINUOUS
 62
     7
 10
-140.54776431100001
 20
-522.72272738799995
 30
0.0
 11
-275.65707960200001
 21
-695.65459186700014
 31
0.0
  0
LINE
  5
F40
  8
DATA
  6
CONTINUOUS
 62
     7
 10
-275.65707960200001
 20
-695.65459186700014
 30
0.0
 11
-472.99287577600012
 21
-460.47894782999981
 31
0.0
  0
LINE
  5
F41
  8
DATA
  6
CONTINUOUS
 62
     7
 10
-499.1967686499998
 20
-492.25717934599987
 30
0.0
 11
-473.758920219
 21
-461.12173544000012
 31
0.0
  0
LINE
  5
F42
  8
DATA
  6
CONTINUOUS
 62
     7
 10
-311.50278662099998
 20
-715.9421567359999
 30
0.0
 11
-276.42312404500012
 21
-696.29737947699971
 31
0.0
  0
CIRCLE
  5
F43
  8
DATA
  6
CONTINUOUS
 62
     7
 10
-358.62106660500001
 20
-564.88962385000013
 30
0.0
 40
4.5
  0
CIRCLE
  5
F44
  8
DATA
  6
CONTINUOUS
 62
     7
 10
-323.0
 20
-535.0
 30
0.0
 40
4.5
  0
CIRCLE
  5
F45
  8
DATA
  6
CONTINUOUS
 62
     7
 10
-259.41831122100001
 20
-481.64862839600011
 30
0.0
 40
4.5
  0
LINE
  5
F46
  8
DATA
  6
CONTINUOUS
 62
     7
 10
-412.57084046499989
 20
-532.48712548299989
 30
0.0
 11
-281.79755928999998
 21
-456.81756696299982
 31
0.0
  0
LINE
  5
F47
  8
DATA
  6
CONTINUOUS
 62
     7
 10
-238.850605051
 20
-507.99975396799999
 30
0.0
 11
-336.07911491300001
 21
-623.64641421399995
 31
0.0
  0
LINE
  5
F48
  8
DATA
  6
CONTINUOUS
 62
     7
 10
-238.83522667700009
 20
-475.8419787239996
 30
0.0
 11
-250.125662484
 21
-462.38656128999969
 31
0.0
  0
LINE
  5
F49
  8
DATA
  6
CONTINUOUS
 62
     7
 10
-276.42312404500012
 20
-696.29737947699971
 30
0.0
 11
-473.758920219
 21
-461.12173544000012
 31
0.0
  0
LINE
  5
F4A
  8
DATA
  6
CONTINUOUS
 62
     7
 10
-472.35008816599969
 20
-461.24499227299998
 30
0.0
 11
-473.11613260899998
 21
-461.88777988299978
 31
0.0
  0
LINE
  5
F4B
  8
DATA
  6
CONTINUOUS
 62
     7
 10
-277.06591165499998
 20
-695.53133503399988
 30
0.0
 11
-276.29986721199998
 21
-694.88854742399985
 31
0.0
  0
LINE
  5
F4C
  8
DATA
  6
CONTINUOUS
 62
     7
 10
-254.51637163999999
 20
-362.25476444000009
 30
0.0
 11
-140.98709546000001
 21
-497.5536871920001
 31
0.0
  0
LINE
  5
F4D
  8
DATA
  6
CONTINUOUS
 62
     7
 10
-184.601090994
 20
-437.79793219300001
 30
0.0
 11
-188.4313132100001
 21
-441.011870241
 31
0.0
  0
LINE
  5
F4E
  8
DATA
  6
CONTINUOUS
 62
     7
 10
-183.6369095790001
 20
-438.94699885699993
 30
0.0
 11
-187.467131795
 21
-442.16093690600019
 31
0.0
  0
LINE
  5
F4F
  8
DATA
  6
CONTINUOUS
 62
     7
 10
-191.671754701
 20
-429.3714433180001
 30
0.0
 11
-195.5019769160001
 21
-432.5853813669998
 31
0.0
  0
LINE
  5
F50
  8
DATA
  6
CONTINUOUS
 62
     7
 10
-190.70757328600001
 20
-430.52050998300001
 30
0.0
 11
-194.53779550199999
 21
-433.7344480320001
 31
0.0
  0
LINE
  5
F51
  8
DATA
  6
CONTINUOUS
 62
     7
 10
-197.13544938300021
 20
-422.86006555199992
 30
0.0
 11
-200.9656715980002
 21
-426.0740035999998
 31
0.0
  0
LINE
  5
F52
  8
DATA
  6
CONTINUOUS
 62
     7
 10
-196.171267968
 20
-424.00913221699977
 30
0.0
 11
-200.0014901840002
 21
-427.22307026499982
 31
0.0
  0
LINE
  5
F53
  8
DATA
  6
CONTINUOUS
 62
     7
 10
-204.2061130890001
 20
-414.43357667800001
 30
0.0
 11
-208.03633530499999
 21
-417.647514726
 31
0.0
  0
LINE
  5
F54
  8
DATA
  6
CONTINUOUS
 62
     7
 10
-203.2419316749999
 20
-415.58264334199993
 30
0.0
 11
-207.07215389100011
 21
-418.79658139100002
 31
0.0
  0
LINE
  5
F55
  8
DATA
  6
CONTINUOUS
 62
     7
 10
-203.2419316749999
 20
-415.58264334199993
 30
0.0
 11
-204.2061130890001
 21
-414.43357667800001
 31
0.0
  0
LINE
  5
F56
  8
DATA
  6
CONTINUOUS
 62
     7
 10
-196.171267968
 20
-424.00913221699977
 30
0.0
 11
-197.13544938300021
 21
-422.86006555199992
 31
0.0
  0
LINE
  5
F57
  8
DATA
  6
CONTINUOUS
 62
     7
 10
-190.70757328600001
 20
-430.52050998300001
 30
0.0
 11
-191.671754701
 21
-429.3714433180001
 31
0.0
  0
LINE
  5
F58
  8
DATA
  6
CONTINUOUS
 62
     7
 10
-183.6369095790001
 20
-438.94699885699993
 30
0.0
 11
-184.601090994
 21
-437.79793219300001
 31
0.0
  0
ARC
  5
F59
  8
DATA
  6
CONTINUOUS
 62
     7
 10
407.27016762499977
 20
77.769428314999914
 30
0.0
 40
1070.8
 50
212.16350227199959
 51
227.8364977279999
  0
ARC
  5
F5A
  8
DATA
  6
CONTINUOUS
 62
     7
 10
-156.3079843220001
 20
-510.40943938599997
 30
0.0
 40
20.000039906000008
 50
321.99987665899971
 51
39.999999999999567
  0
ARC
  5
F5B
  8
DATA
  6
CONTINUOUS
 62
     7
 10
-269.83726050300021
 20
-375.11051663299997
 30
0.0
 40
20.000000000000028
 50
39.999999999999567
 51
118.0001233410005
  0
ARC
  5
F5C
  8
DATA
  6
CONTINUOUS
 62
     7
 10
-269.27683784000021
 20
-478.45617492700012
 30
0.0
 40
25.000000000000028
 50
39.999770816999948
 51
120.0549097819997
  0
ARC
  5
F5D
  8
DATA
  6
CONTINUOUS
 62
     7
 10
-257.98627347600018
 20
-491.9117455709997
 30
0.0
 40
24.999956405000091
 50
319.94509021800002
 51
40.000229183000528
  0
ENDSEC
  0
EOF
