  0
SECTION
  2
HEADER
  9
$ACADVER
  1
AC1009
  9
$INSBASE
 10
0.0
 20
0.0
 30
0.0
  9
$EXTMIN
 10
-575.08239368898512
 20
-867.43496940499381
 30
-0.0000000349181948
  9
$EXTMAX
 10
775.08240626222323
 20
1138.079132544754
 30
0.0000000814935747
  9
$LIMMIN
 10
0.0
 20
0.0
  9
$LIMMAX
 10
0.0
 20
0.0
  9
$ORTHOMODE
 70
     0
  9
$REGENMODE
 70
     1
  9
$FILLMODE
 70
     1
  9
$QTEXTMODE
 70
     0
  9
$MIRRTEXT
 70
     1
  9
$DRAGMODE
 70
     2
  9
$LTSCALE
 40
38.100000000000001
  9
$OSMODE
 70
   231
  9
$ATTMODE
 70
     1
  9
$TEXTSIZE
 40
0.0
  9
$TRACEWID
 40
1.0
  9
$TEXTSTYLE
  7
STANDARD
  9
$CLAYER
  8
DATA
  9
$CELTYPE
  6
BYLAYER
  9
$CECOLOR
 62
   256
  9
$DIMSCALE
 40
1.0
  9
$DIMASZ
 40
0.18
  9
$DIMEXO
 40
0.0625
  9
$DIMDLI
 40
0.38
  9
$DIMRND
 40
0.0
  9
$DIMDLE
 40
0.0
  9
$DIMEXE
 40
0.18
  9
$DIMTP
 40
0.0
  9
$DIMTM
 40
0.0
  9
$DIMTXT
 40
0.18
  9
$DIMCEN
 40
0.09
  9
$DIMTSZ
 40
0.0
  9
$DIMTOL
 70
     0
  9
$DIMLIM
 70
     0
  9
$DIMTIH
 70
     1
  9
$DIMTOH
 70
     1
  9
$DIMSE1
 70
     0
  9
$DIMSE2
 70
     0
  9
$DIMTAD
 70
     0
  9
$DIMZIN
 70
     0
  9
$DIMBLK
  1

  9
$DIMASO
 70
     1
  9
$DIMSHO
 70
     1
  9
$DIMPOST
  1

  9
$DIMAPOST
  1

  9
$DIMALT
 70
     0
  9
$DIMALTD
 70
     2
  9
$DIMALTF
 40
25.399999999999999
  9
$DIMLFAC
 40
1.0
  9
$DIMTOFL
 70
     0
  9
$DIMTVP
 40
0.0
  9
$DIMTIX
 70
     0
  9
$DIMSOXD
 70
     0
  9
$DIMSAH
 70
     0
  9
$DIMBLK1
  1

  9
$DIMBLK2
  1

  9
$DIMSTYLE
  2
STANDARD
  9
$DIMCLRD
 70
     0
  9
$DIMCLRE
 70
     0
  9
$DIMCLRT
 70
     0
  9
$DIMTFAC
 40
1.0
  9
$DIMGAP
 40
0.09
  9
$LUNITS
 70
     2
  9
$LUPREC
 70
     4
  9
$SKETCHINC
 40
0.1
  9
$FILLETRAD
 40
0.0
  9
$AUNITS
 70
     0
  9
$AUPREC
 70
     0
  9
$MENU
  1
acad
  9
$ELEVATION
 40
0.0
  9
$PELEVATION
 40
0.0
  9
$THICKNESS
 40
0.0
  9
$LIMCHECK
 70
     0
  9
$BLIPMODE
 70
     0
  9
$CHAMFERA
 40
0.0
  9
$CHAMFERB
 40
0.0
  9
$SKPOLY
 70
     0
  9
$TDCREATE
 40
2452878.8834606479
  9
$TDUPDATE
 40
2455607.7403233559
  9
$TDINDWG
 40
0.0010982755
  9
$TDUSRTIMER
 40
0.0010982755
  9
$USRTIMER
 70
     1
  9
$ANGBASE
 50
0.0
  9
$ANGDIR
 70
     0
  9
$PDMODE
 70
     1
  9
$PDSIZE
 40
-2.0
  9
$PLINEWID
 40
0.0
  9
$COORDS
 70
     1
  9
$SPLFRAME
 70
     0
  9
$SPLINETYPE
 70
     6
  9
$SPLINESEGS
 70
     8
  9
$ATTDIA
 70
     0
  9
$ATTREQ
 70
     1
  9
$HANDLING
 70
     1
  9
$HANDSEED
  5
D20
  9
$SURFTAB1
 70
     6
  9
$SURFTAB2
 70
     6
  9
$SURFTYPE
 70
     6
  9
$SURFU
 70
     6
  9
$SURFV
 70
     6
  9
$UCSNAME
  2

  9
$UCSORG
 10
0.0
 20
0.0
 30
0.0
  9
$UCSXDIR
 10
1.0
 20
0.0
 30
0.0
  9
$UCSYDIR
 10
0.0
 20
1.0
 30
0.0
  9
$PUCSNAME
  2

  9
$PUCSORG
 10
0.0
 20
0.0
 30
0.0
  9
$PUCSXDIR
 10
1.0
 20
0.0
 30
0.0
  9
$PUCSYDIR
 10
0.0
 20
1.0
 30
0.0
  9
$USERI1
 70
     0
  9
$USERI2
 70
     0
  9
$USERI3
 70
     0
  9
$USERI4
 70
     0
  9
$USERI5
 70
     0
  9
$USERR1
 40
0.0
  9
$USERR2
 40
0.0
  9
$USERR3
 40
0.0
  9
$USERR4
 40
0.0
  9
$USERR5
 40
0.0
  9
$WORLDVIEW
 70
     1
  9
$SHADEDGE
 70
     3
  9
$SHADEDIF
 70
    70
  9
$TILEMODE
 70
     1
  9
$MAXACTVP
 70
    16
  9
$PLIMCHECK
 70
     0
  9
$PEXTMIN
 10
1.0000000000000000E+020
 20
1.0000000000000000E+020
 30
1.0000000000000000E+020
  9
$PEXTMAX
 10
-1.0000000000000000E+020
 20
-1.0000000000000000E+020
 30
-1.0000000000000000E+020
  9
$PLIMMIN
 10
0.0
 20
0.0
  9
$PLIMMAX
 10
12.0
 20
9.0
  9
$UNITMODE
 70
     0
  9
$VISRETAIN
 70
     0
  9
$PLINEGEN
 70
     1
  9
$PSLTSCALE
 70
     0
  0
ENDSEC
  0
SECTION
  2
TABLES
  0
TABLE
  2
VPORT
 70
     1
  0
VPORT
  2
*ACTIVE
 70
     0
 10
0.0
 20
0.0
 11
1.0
 21
1.0
 12
100.000006286619
 22
135.32208156988031
 13
0.0
 23
0.0
 14
1.0
 24
1.0
 15
0.0
 25
0.0
 16
0.0
 26
0.0
 36
1.0
 17
0.0
 27
0.0
 37
0.0
 40
2020.278622945697
 41
1.9619164619164611
 42
50.0
 43
0.0
 44
0.0
 50
0.0
 51
0.0
 71
     0
 72
   100
 73
     1
 74
     1
 75
     0
 76
     0
 77
     0
 78
     0
  0
ENDTAB
  0
TABLE
  2
LTYPE
 70
    11
  0
LTYPE
  2
CONTINUOUS
 70
     0
  3
Solid line
 72
    65
 73
     0
 40
0.0
  0
ENDTAB
  0
TABLE
  2
LAYER
 70
     6
  0
LAYER
  2
0
 70
     0
 62
     7
  6
CONTINUOUS
  0
LAYER
  2
DATA
 70
     0
 62
     7
  6
CONTINUOUS
  0
LAYER
  2
DEFPOINTS
 70
     0
 62
     7
  6
CONTINUOUS
  0
LAYER
  2
HIBINO-BASE
 70
     0
 62
     7
  6
CONTINUOUS
  0
LAYER
  2
DIMNSIONS
 70
     0
 62
     7
  6
CONTINUOUS
  0
LAYER
  2
BRACKET
 70
     0
 62
     7
  6
CONTINUOUS
  0
ENDTAB
  0
TABLE
  2
STYLE
 70
     2
  0
STYLE
  2
STANDARD
 70
     0
 40
0.0
 41
1.0
 50
0.0
 71
     0
 42
0.0
  3
txt
  4
BIGFONT.SHX
  0
ENDTAB
  0
TABLE
  2
VIEW
 70
     0
  0
ENDTAB
  0
TABLE
  2
UCS
 70
     0
  0
ENDTAB
  0
TABLE
  2
APPID
 70
     3
  0
APPID
  2
ACAD
 70
     0
  0
APPID
  2
ACADANNOTATIVE
 70
     0
  0
APPID
  2
ACAD_MLEADERVER
 70
     0
  0
ENDTAB
  0
TABLE
  2
DIMSTYLE
 70
     2
  0
DIMSTYLE
  2
STANDARD
 70
     0
  3

  4

  5

  6

  7

 40
1.0
 41
0.18
 42
0.0625
 43
0.38
 44
0.18
 45
0.0
 46
0.0
 47
0.0
 48
0.0
140
0.18
141
0.09
142
0.0
143
25.399999999999999
144
1.0
145
0.0
146
1.0
147
0.09
 71
     0
 72
     0
 73
     1
 74
     1
 75
     0
 76
     0
 77
     0
 78
     0
170
     0
171
     2
172
     0
173
     0
174
     0
175
     0
176
     0
177
     0
178
     0
  0
ENDTAB
  0
ENDSEC
  0
SECTION
  2
BLOCKS
  0
BLOCK
  8
0
  2
$MODEL_SPACE
 70
     0
 10
0.0
 20
0.0
 30
0.0
  3
$MODEL_SPACE
  1

  0
ENDBLK
  5
963
  8
0
  0
BLOCK
 67
     1
  8
0
  2
$PAPER_SPACE
 70
     0
 10
0.0
 20
0.0
 30
0.0
  3
$PAPER_SPACE
  1

  0
ENDBLK
  5
95F
 67
     1
  8
0
  0
ENDSEC
  0
SECTION
  2
ENTITIES
  0
LINE
  5
119
  8
HIBINO-BASE
 62
     7
 10
-574.99999999999989
 20
1137.9567975
 30
0.0
 11
775.0
 21
1137.9567975
 31
0.0
  0
LINE
  5
11A
  8
HIBINO-BASE
 62
     7
 10
775.0
 20
-812.04320250000012
 30
0.0
 11
-574.99999999999989
 21
-812.04320250000012
 31
0.0
  0
LINE
  5
11B
  8
HIBINO-BASE
 62
     7
 10
-574.99999999999989
 20
-812.04320250000012
 30
0.0
 11
-574.99999999999989
 21
1137.9567975
 31
0.0
  0
TEXT
  5
11C
  8
HIBINO-BASE
 62
     7
 10
-521.11999999999978
 20
-858.00308249999989
 30
0.0
 40
28.069379999999999
  1
Hibino Corporation
 41
0.7
 11
-521.11999999999978
 21
-829.93370249999975
 31
0.0
 73
     3
  0
LINE
  5
11D
  8
HIBINO-BASE
 62
     7
 10
775.0
 20
1137.9567975
 30
0.0
 11
775.0
 21
-812.04320250000012
 31
0.0
  0
LINE
  5
11E
  8
HIBINO-BASE
 62
     7
 10
100.0
 20
-643.29320250000001
 30
0.0
 11
775.0
 21
-643.29320250000001
 31
0.0
  0
LINE
  5
11F
  8
HIBINO-BASE
 62
     7
 10
100.0
 20
-812.04320250000012
 30
0.0
 11
100.0
 21
-643.29320250000001
 31
0.0
  0
TEXT
  5
120
  8
HIBINO-BASE
 62
     7
 10
106.75
 20
-661.15590250000002
 30
0.0
 40
12.699999999999999
  1
NOTE
 41
0.7
 11
106.75
 21
-648.45590249999998
 31
0.0
 73
     3
  0
LINE
  5
121
  8
HIBINO-BASE
 62
     7
 10
362.5
 20
-812.04320250000012
 30
0.0
 11
362.5
 21
-643.29320250000001
 31
0.0
  0
TEXT
  5
122
  8
HIBINO-BASE
 62
     7
 10
369.25
 20
-661.15590250000002
 30
0.0
 40
12.699999999999999
  1
TITLE
 41
0.7
 11
369.25
 21
-648.45590249999998
 31
0.0
 73
     3
  0
TEXT
  5
123
  8
HIBINO-BASE
 62
     7
 10
475.51292499999988
 20
-858.00308249999989
 30
0.0
 40
28.069379999999999
  1
ヒビノ株式会社
 41
0.7
 11
475.51292499999988
 21
-829.93370249999975
 31
0.0
 73
     3
  0
LINE
  5
124
  8
HIBINO-BASE
 62
     7
 10
100.0
 20
-737.04320250000001
 30
0.0
 11
775.0
 21
-737.04320250000001
 31
0.0
  0
TEXT
  5
125
  8
HIBINO-BASE
 62
     7
 10
463.0
 20
-754.4835025000001
 30
0.0
 40
12.699999999999999
  1
DRAWN
 41
0.7
 11
463.0
 21
-741.78350250000005
 31
0.0
 73
     3
  0
TEXT
  5
126
  8
HIBINO-BASE
 62
     7
 10
275.5
 20
-754.4835025000001
 30
0.0
 40
12.699999999999999
  1
DATE
 41
0.7
 11
275.5
 21
-741.78350250000005
 31
0.0
 73
     3
  0
TEXT
  5
127
  8
HIBINO-BASE
 62
     7
 10
200.5
 20
-754.4835025000001
 30
0.0
 40
12.699999999999999
  1
SCALE
 41
0.7
 11
200.5
 21
-741.78350250000005
 31
0.0
 73
     3
  0
TEXT
  5
128
  8
HIBINO-BASE
 62
     7
 10
369.25
 20
-754.4835025000001
 30
0.0
 40
12.699999999999999
  1
DESIGN
 41
0.7
 11
369.25
 21
-741.78350250000005
 31
0.0
 73
     3
  0
TEXT
  5
129
  8
HIBINO-BASE
 62
     7
 10
650.49999999999989
 20
-754.4835025000001
 30
0.0
 40
12.699999999999999
  1
DRAWING NO.
 41
0.7
 11
650.49999999999989
 21
-741.78350250000005
 31
0.0
 73
     3
  0
TEXT
  5
12A
  8
HIBINO-BASE
 62
     7
 10
556.74999999999989
 20
-754.4835025000001
 30
0.0
 40
12.699999999999999
  1
CHECK
 41
0.7
 11
556.74999999999989
 21
-741.78350250000005
 31
0.0
 73
     3
  0
LINE
  5
12B
  8
HIBINO-BASE
 62
     7
 10
207.8125
 20
-802.66820250000012
 30
0.0
 11
235.9375
 21
-774.54320250000001
 31
0.0
  0
TEXT
  5
12C
  8
HIBINO-BASE
 62
     7
 10
203.125
 20
-781.90777750000007
 30
0.0
 40
12.699999999999999
  1
1
 41
0.7
 11
203.125
 21
-769.20777750000002
 31
0.0
 73
     3
  0
LINE
  5
12D
  8
HIBINO-BASE
 62
     7
 10
193.75
 20
-812.04320250000012
 30
0.0
 11
193.75
 21
-737.04320250000001
 31
0.0
  0
LINE
  5
12E
  8
HIBINO-BASE
 62
     7
 10
268.75
 20
-812.04320250000012
 30
0.0
 11
268.75
 21
-737.04320250000001
 31
0.0
  0
LINE
  5
12F
  8
HIBINO-BASE
 62
     7
 10
456.24999999999989
 20
-737.04320250000001
 30
0.0
 11
456.24999999999989
 21
-812.04320250000012
 31
0.0
  0
LINE
  5
130
  8
HIBINO-BASE
 62
     7
 10
643.75
 20
-737.04320250000001
 30
0.0
 11
643.75
 21
-812.04320250000012
 31
0.0
  0
LINE
  5
131
  8
HIBINO-BASE
 62
     7
 10
549.99999999999989
 20
-812.04320250000012
 30
0.0
 11
549.99999999999989
 21
-737.04320250000001
 31
0.0
  0
TEXT
  5
132
  8
HIBINO-BASE
 62
     7
 10
275.17405000000002
 20
-789.61335249999979
 30
0.0
 40
12.699999999999999
  1
'03.08.
 41
0.7
 11
275.17405000000002
 21
-776.91335249999986
 31
0.0
 73
     3
  0
TEXT
  5
133
  8
HIBINO-BASE
 62
     7
 10
231.25
 20
-795.97027750000007
 30
0.0
 40
12.699999999999999
  1
7.5
 41
0.7
 11
231.25
 21
-783.27027750000002
 31
0.0
 73
     3
  0
TEXT
  5
134
  8
HIBINO-BASE
 62
     7
 10
467.5435750827595
 20
-789.61335249999979
 30
0.0
 40
12.699999999999999
  1
N.Sasaki
 41
0.7
 11
467.5435750827595
 21
-776.91335249999986
 31
0.0
 73
     3
  0
TEXT
  5
135
  8
HIBINO-BASE
 62
     7
 10
129.12500000000011
 20
-795.31820249999998
 30
0.0
 40
25.399999999999999
  1
A4
 41
0.7
 11
129.12500000000011
 21
-769.91820249999989
 31
0.0
 73
     3
  0
TEXT
  5
136
  8
HIBINO-BASE
 62
     7
 10
107.1874999999999
 20
-755.73661500000003
 30
0.0
 40
12.699999999999999
  1
PAPER SIZE
 41
0.7
 11
107.1874999999999
 21
-743.03661499999998
 31
0.0
 73
     3
  0
LINE
  5
137
  8
DIMNSIONS
 62
     7
 10
-303.0
 20
-203.5
 30
0.0
 11
-390.0
 21
-203.5
 31
0.0
  0
LINE
  5
138
  8
DIMNSIONS
 62
     7
 10
-303.0
 20
103.5
 30
0.0
 11
-390.0
 21
103.5
 31
0.0
  0
LINE
  5
139
  8
DIMNSIONS
 62
     7
 10
-375.0
 20
-203.5
 30
0.0
 11
-375.0
 21
103.5
 31
0.0
  0
LINE
  5
13A
  8
DIMNSIONS
 62
     7
 10
-375.0
 20
-203.5
 30
0.0
 11
-380.02529846362683
 21
-184.74533081054679
 31
0.0
  0
LINE
  5
13B
  8
DIMNSIONS
 62
     7
 10
-375.0
 20
-203.5
 30
0.0
 11
-369.97470153637317
 21
-184.74533081054679
 31
0.0
  0
LINE
  5
13C
  8
DIMNSIONS
 62
     7
 10
-375.0
 20
103.5
 30
0.0
 11
-369.97470153637317
 21
84.745330810546847
 31
0.0
  0
LINE
  5
13D
  8
DIMNSIONS
 62
     7
 10
-375.0
 20
103.5
 30
0.0
 11
-380.02529846362683
 21
84.745330810546847
 31
0.0
  0
TEXT
  5
13E
  8
DIMNSIONS
 62
     7
 10
-384.04166666666657
 20
-69.84375
 30
0.0
 40
21.166666666666671
  1
307
 50
90.0
 41
0.7
 11
-405.20833333333331
 21
-69.84375
 31
0.0
 73
     3
  0
LINE
  5
13F
  8
DIMNSIONS
 62
     7
 10
-287.60000000000008
 20
-337.59999999999991
 30
0.0
 11
-287.60000000000008
 21
-310.0
 31
0.0
  0
LINE
  5
140
  8
DIMNSIONS
 62
     7
 10
-112.40000000000011
 20
-337.59999999999991
 30
0.0
 11
-112.40000000000011
 21
-310.0
 31
0.0
  0
LINE
  5
141
  8
DIMNSIONS
 62
     7
 10
-287.60000000000008
 20
-325.0
 30
0.0
 11
-112.40000000000011
 21
-325.0
 31
0.0
  0
LINE
  5
142
  8
DIMNSIONS
 62
     7
 10
-287.60000000000008
 20
-325.0
 30
0.0
 11
-268.84533081054701
 21
-319.97470153637317
 31
0.0
  0
LINE
  5
143
  8
DIMNSIONS
 62
     7
 10
-287.60000000000008
 20
-325.0
 30
0.0
 11
-268.84533081054701
 21
-330.02529846362683
 31
0.0
  0
LINE
  5
144
  8
DIMNSIONS
 62
     7
 10
-112.40000000000011
 20
-325.0
 30
0.0
 11
-131.15466918945319
 21
-330.02529846362683
 31
0.0
  0
LINE
  5
145
  8
DIMNSIONS
 62
     7
 10
-112.40000000000011
 20
-325.0
 30
0.0
 11
-131.15466918945319
 21
-319.97470153637317
 31
0.0
  0
TEXT
  5
146
  8
DIMNSIONS
 62
     7
 10
-233.0729166666668
 20
-315.95833333333343
 30
0.0
 40
21.166666666666671
  1
175.2
 41
0.7
 11
-233.0729166666668
 21
-294.79166666666669
 31
0.0
 73
     3
  0
LINE
  5
147
  8
DIMNSIONS
 62
     7
 10
-300.0
 20
-350.0
 30
0.0
 11
-440.0
 21
-350.0
 31
0.0
  0
LINE
  5
148
  8
DIMNSIONS
 62
     7
 10
-234.9999961850001
 20
-570.0
 30
0.0
 11
-440.0
 21
-570.0
 31
0.0
  0
LINE
  5
149
  8
DIMNSIONS
 62
     7
 10
-425.0
 20
-350.0
 30
0.0
 11
-425.0
 21
-570.0
 31
0.0
  0
LINE
  5
14A
  8
DIMNSIONS
 62
     7
 10
-425.0
 20
-350.0
 30
0.0
 11
-419.97470153637312
 21
-368.75466918945312
 31
0.0
  0
LINE
  5
14B
  8
DIMNSIONS
 62
     7
 10
-425.0
 20
-350.0
 30
0.0
 11
-430.02529846362683
 21
-368.75466918945312
 31
0.0
  0
LINE
  5
14C
  8
DIMNSIONS
 62
     7
 10
-425.0
 20
-570.0
 30
0.0
 11
-430.02529846362683
 21
-551.24533081054676
 31
0.0
  0
LINE
  5
14D
  8
DIMNSIONS
 62
     7
 10
-425.0
 20
-570.0
 30
0.0
 11
-419.97470153637312
 21
-551.24533081054676
 31
0.0
  0
TEXT
  5
14E
  8
DIMNSIONS
 62
     7
 10
-434.04166666666657
 20
-479.84375
 30
0.0
 40
21.166666666666671
  1
220
 50
90.0
 41
0.7
 11
-455.20833333333331
 21
-479.84375
 31
0.0
 73
     3
  0
LINE
  5
14F
  8
DIMNSIONS
 62
     7
 10
-300.0
 20
-350.0
 30
0.0
 11
-490.0
 21
-350.0
 31
0.0
  0
LINE
  5
150
  8
DIMNSIONS
 62
     7
 10
-223.50278662324419
 20
-715.94215673416079
 30
0.0
 11
-490.0
 21
-715.94215673416079
 31
0.0
  0
LINE
  5
151
  8
DIMNSIONS
 62
     7
 10
-475.0
 20
-350.0
 30
0.0
 11
-475.0
 21
-715.94215673416079
 31
0.0
  0
LINE
  5
152
  8
DIMNSIONS
 62
     7
 10
-475.0
 20
-350.0
 30
0.0
 11
-469.97470153637317
 21
-368.75466918945312
 31
0.0
  0
LINE
  5
153
  8
DIMNSIONS
 62
     7
 10
-475.0
 20
-350.0
 30
0.0
 11
-480.02529846362683
 21
-368.75466918945312
 31
0.0
  0
LINE
  5
154
  8
DIMNSIONS
 62
     7
 10
-475.0
 20
-715.94215673416079
 30
0.0
 11
-480.02529846362683
 21
-697.18748754470766
 31
0.0
  0
LINE
  5
155
  8
DIMNSIONS
 62
     7
 10
-475.0
 20
-715.94215673416079
 30
0.0
 11
-469.97470153637317
 21
-697.18748754470766
 31
0.0
  0
TEXT
  5
156
  8
DIMNSIONS
 62
     7
 10
-484.04166666666657
 20
-552.81482836708039
 30
0.0
 40
21.166666666666671
  1
366
 50
90.0
 41
0.7
 11
-505.20833333333331
 21
-552.81482836708039
 31
0.0
 73
     3
  0
LINE
  5
157
  8
DIMNSIONS
 62
     7
 10
-396.19676864850578
 20
-477.25717934724219
 30
0.0
 11
-396.19676864850578
 21
-310.0
 31
0.0
  0
LINE
  5
158
  8
DIMNSIONS
 62
     7
 10
-287.60000000000008
 20
-337.59999999999991
 30
0.0
 11
-287.60000000000008
 21
-310.0
 31
0.0
  0
LINE
  5
159
  8
DIMNSIONS
 62
     7
 10
-396.19676864850578
 20
-325.0
 30
0.0
 11
-287.60000000000008
 21
-325.0
 31
0.0
  0
LINE
  5
15A
  8
DIMNSIONS
 62
     7
 10
-396.19676864850578
 20
-325.0
 30
0.0
 11
-377.4420994590526
 21
-319.97470153637317
 31
0.0
  0
LINE
  5
15B
  8
DIMNSIONS
 62
     7
 10
-396.19676864850578
 20
-325.0
 30
0.0
 11
-377.4420994590526
 21
-330.02529846362683
 31
0.0
  0
LINE
  5
15C
  8
DIMNSIONS
 62
     7
 10
-287.60000000000008
 20
-325.0
 30
0.0
 11
-306.35466918945332
 21
-330.02529846362683
 31
0.0
  0
LINE
  5
15D
  8
DIMNSIONS
 62
     7
 10
-287.60000000000008
 20
-325.0
 30
0.0
 11
-306.35466918945332
 21
-319.97470153637317
 31
0.0
  0
TEXT
  5
15E
  8
DIMNSIONS
 62
     7
 10
-374.97130099091959
 20
-315.95833333333343
 30
0.0
 40
21.166666666666671
  1
108.6
 41
0.7
 11
-374.97130099091959
 21
-294.79166666666669
 31
0.0
 73
     3
  0
LINE
  5
15F
  8
DIMNSIONS
 62
     7
 10
-112.40000000000011
 20
-337.59999999999991
 30
0.0
 11
-112.40000000000011
 21
-310.0
 31
0.0
  0
LINE
  5
160
  8
DIMNSIONS
 62
     7
 10
-33.307944416000041
 20
-495.40943938599997
 30
0.0
 11
-33.307944416000041
 21
-310.0
 31
0.0
  0
LINE
  5
161
  8
DIMNSIONS
 62
     7
 10
-112.40000000000011
 20
-325.0
 30
0.0
 11
-33.307944416000041
 21
-325.0
 31
0.0
  0
LINE
  5
162
  8
DIMNSIONS
 62
     7
 10
-112.40000000000011
 20
-325.0
 30
0.0
 11
-93.645330810546994
 21
-319.97470153637317
 31
0.0
  0
LINE
  5
163
  8
DIMNSIONS
 62
     7
 10
-112.40000000000011
 20
-325.0
 30
0.0
 11
-93.645330810546994
 21
-330.02529846362683
 31
0.0
  0
LINE
  5
164
  8
DIMNSIONS
 62
     7
 10
-33.307944416000041
 20
-325.0
 30
0.0
 11
-52.062613605453151
 21
-330.02529846362683
 31
0.0
  0
LINE
  5
165
  8
DIMNSIONS
 62
     7
 10
-33.307944416000041
 20
-325.0
 30
0.0
 11
-52.062613605453151
 21
-319.97470153637317
 31
0.0
  0
TEXT
  5
166
  8
DIMNSIONS
 62
     7
 10
-99.312305541333416
 20
-315.95833333333343
 30
0.0
 40
21.166666666666671
  1
79.1
 41
0.7
 11
-99.312305541333416
 21
-294.79166666666669
 31
0.0
 73
     3
  0
TEXT
  5
167
  8
DIMNSIONS
 62
     7
 10
-50.0
 20
-718.5932775
 30
0.0
 40
19.050000000000001
  1
(単位：mm)
 41
0.7
 11
-50.0
 21
-699.54327750000004
 31
0.0
 73
     3
  0
LINE
  5
168
  8
DIMNSIONS
 62
     7
 10
281.81202871128119
 20
425.1012129585917
 30
0.0
 11
325.0
 21
525.87315005886239
 31
0.0
  0
LINE
  5
169
  8
DIMNSIONS
 62
     7
 10
281.81202871128119
 20
425.1012129585917
 30
0.0
 11
284.84940131465203
 21
444.2784288337557
 31
0.0
  0
LINE
  5
16A
  8
DIMNSIONS
 62
     7
 10
281.81202871128119
 20
425.1012129585917
 30
0.0
 11
294.03107848414112
 21
440.1904827786567
 31
0.0
  0
LINE
  5
16B
  8
DIMNSIONS
 62
     7
 10
325.0
 20
525.87315005886239
 30
0.0
 11
445.83333333333331
 21
525.87315005886239
 31
0.0
  0
TEXT
  5
16C
  8
DIMNSIONS
 62
     7
 10
340.0
 20
534.91481672552925
 30
0.0
 40
21.166666666666671
  1
10-\U+03C69.2
 41
0.7
 11
340.0
 21
556.08148339219588
 31
0.0
 73
     3
  0
LINE
  5
16D
  8
DIMNSIONS
 62
     7
 10
159.7257590002659
 20
343.75
 30
0.0
 11
100.0
 21
300.0
 31
0.0
  0
LINE
  5
16E
  8
DIMNSIONS
 62
     7
 10
159.7257590002659
 20
343.75
 30
0.0
 11
149.95354932451309
 21
331.68232605834851
 31
0.0
  0
LINE
  5
16F
  8
DIMNSIONS
 62
     7
 10
159.7257590002659
 20
343.75
 30
0.0
 11
145.22894019913019
 21
338.18519263981881
 31
0.0
  0
LINE
  5
170
  8
DIMNSIONS
 62
     7
 10
-75.000000000000014
 20
300.0
 30
0.0
 11
100.0
 21
300.0
 31
0.0
  0
TEXT
  5
171
  8
DIMNSIONS
 62
     7
 10
-53.125001509984351
 20
315.125
 30
0.0
 40
15.0
  1
文字　スリット
 41
0.7
  0
TEXT
  5
172
  8
DIMNSIONS
 62
     7
 10
-53.125001509984351
 20
271.375
 30
0.0
 40
15.0
  1
矢印　穴抜き
 41
0.7
  0
LINE
  5
173
  8
DIMNSIONS
 62
     7
 10
160.91923877895101
 20
427.3078175078885
 30
0.0
 11
175.0
 21
525.87315005886239
 31
0.0
  0
LINE
  5
174
  8
DIMNSIONS
 62
     7
 10
160.91923877895101
 20
427.3078175078885
 30
0.0
 11
158.88968672007471
 21
446.61771547485512
 31
0.0
  0
LINE
  5
175
  8
DIMNSIONS
 62
     7
 10
160.91923877895101
 20
427.3078175078885
 30
0.0
 11
168.8165441211444
 21
445.0454557212052
 31
0.0
  0
LINE
  5
176
  8
DIMNSIONS
 62
     7
 10
175.0
 20
525.87315005886239
 30
0.0
 11
269.375
 21
525.87315005886239
 31
0.0
  0
TEXT
  5
177
  8
DIMNSIONS
 62
     7
 10
190.0
 20
534.91481672552914
 30
0.0
 40
21.166666666666671
  1
4-\U+03C613
 41
0.7
 11
190.0
 21
556.08148339219565
 31
0.0
 73
     3
  0
LINE
  5
178
  8
DIMNSIONS
 62
     7
 10
-233.89940000000001
 20
109.7491
 30
0.0
 11
-125.0
 21
200.0
 31
0.0
  0
LINE
  5
179
  8
DIMNSIONS
 62
     7
 10
-233.89940000000001
 20
109.7491
 30
0.0
 11
-224.7721560533432
 21
122.3116735519084
 31
0.0
  0
LINE
  5
17A
  8
DIMNSIONS
 62
     7
 10
-233.89940000000001
 20
109.7491
 30
0.0
 11
-219.71368809970329
 21
116.0649858595347
 31
0.0
  0
LINE
  5
17B
  8
DIMNSIONS
 62
     7
 10
-125.0
 20
200.0
 30
0.0
 11
100.0
 21
200.0
 31
0.0
  0
LINE
  5
17C
  8
DIMNSIONS
 62
     7
 10
-173.93822207500011
 20
60.802668223000069
 30
0.0
 11
-75.000000000000014
 21
125.0
 31
0.0
  0
LINE
  5
17D
  8
DIMNSIONS
 62
     7
 10
-173.93822207500011
 20
60.802668223000069
 30
0.0
 11
-163.3480186304044
 21
72.159271029780115
 31
0.0
  0
LINE
  5
17E
  8
DIMNSIONS
 62
     7
 10
-173.93822207500011
 20
60.802668223000069
 30
0.0
 11
-159.08853545734459
 21
65.342673032063402
 31
0.0
  0
LINE
  5
17F
  8
DIMNSIONS
 62
     7
 10
-75.000000000000014
 20
125.0
 30
0.0
 11
100.0
 21
125.0
 31
0.0
  0
TEXT
  5
180
  8
DIMNSIONS
 62
     7
 10
-53.125001509984351
 20
133.875
 30
0.0
 40
15.0
  1
角度固定ねじ
 41
0.7
  0
TEXT
  5
181
  8
DIMNSIONS
 62
     7
 10
-53.125001509984351
 20
102.625
 30
0.0
 40
15.0
  1
Ｍ６→Ｍ５変更
 41
0.7
  0
LINE
  5
182
  8
DIMNSIONS
 62
     7
 10
282.91289383518267
 20
1023.5602035763339
 30
0.0
 11
325.0
 21
1075.0
 31
0.0
  0
LINE
  5
183
  8
DIMNSIONS
 62
     7
 10
282.91289383518267
 20
1023.5602035763339
 30
0.0
 11
291.11856085085742
 21
1041.1573132788451
 31
0.0
  0
LINE
  5
184
  8
DIMNSIONS
 62
     7
 10
282.91289383518267
 20
1023.5602035763339
 30
0.0
 11
298.81776477700868
 21
1034.696914104052
 31
0.0
  0
LINE
  5
185
  8
DIMNSIONS
 62
     7
 10
325.0
 20
1075.0
 30
0.0
 11
445.83333333333331
 21
1075.0
 31
0.0
  0
TEXT
  5
186
  8
DIMNSIONS
 62
     7
 10
340.0
 20
1084.0416666666661
 30
0.0
 40
21.166666666666671
  1
10-\U+03C69.2
 41
0.7
 11
340.0
 21
1105.208333333333
 31
0.0
 73
     3
  0
LINE
  5
187
  8
DIMNSIONS
 62
     7
 10
161.71026313764861
 20
1026.2709648380439
 30
0.0
 11
175.0
 21
1075.0
 31
0.0
  0
LINE
  5
188
  8
DIMNSIONS
 62
     7
 10
161.71026313764861
 20
1026.2709648380439
 30
0.0
 11
162.04912363850991
 21
1045.6842699305651
 31
0.0
  0
LINE
  5
189
  8
DIMNSIONS
 62
     7
 10
161.71026313764861
 20
1026.2709648380439
 30
0.0
 11
171.7103774859942
 21
1042.9139499691551
 31
0.0
  0
LINE
  5
18A
  8
DIMNSIONS
 62
     7
 10
175.0
 20
1075.0
 30
0.0
 11
269.375
 21
1075.0
 31
0.0
  0
TEXT
  5
18B
  8
DIMNSIONS
 62
     7
 10
190.0
 20
1084.0416666666661
 30
0.0
 40
21.166666666666671
  1
4-\U+03C613
 41
0.7
 11
190.0
 21
1105.208333333333
 31
0.0
 73
     3
  0
LINE
  5
18C
  8
DIMNSIONS
 62
     7
 10
122.0499999999999
 20
1037.5999999999999
 30
0.0
 11
-65.000000000000014
 21
1037.5999999999999
 31
0.0
  0
LINE
  5
18D
  8
DIMNSIONS
 62
     7
 10
122.0499999999999
 20
862.39999999999998
 30
0.0
 11
-65.000000000000014
 21
862.39999999999998
 31
0.0
  0
LINE
  5
18E
  8
DIMNSIONS
 62
     7
 10
-50.0
 20
1037.5999999999999
 30
0.0
 11
-50.0
 21
862.39999999999998
 31
0.0
  0
LINE
  5
18F
  8
DIMNSIONS
 62
     7
 10
-50.0
 20
1037.5999999999999
 30
0.0
 11
-44.974701536373182
 21
1018.845330810547
 31
0.0
  0
LINE
  5
190
  8
DIMNSIONS
 62
     7
 10
-50.0
 20
1037.5999999999999
 30
0.0
 11
-55.025298463626832
 21
1018.845330810547
 31
0.0
  0
LINE
  5
191
  8
DIMNSIONS
 62
     7
 10
-50.0
 20
862.39999999999998
 30
0.0
 11
-55.025298463626832
 21
881.15466918945299
 31
0.0
  0
LINE
  5
192
  8
DIMNSIONS
 62
     7
 10
-50.0
 20
862.39999999999998
 30
0.0
 11
-44.974701536373182
 21
881.15466918945299
 31
0.0
  0
TEXT
  5
193
  8
DIMNSIONS
 62
     7
 10
-59.04166666666665
 20
916.92708333333314
 30
0.0
 40
21.166666666666671
  1
175.2
 50
90.0
 41
0.7
 11
-80.208333333333329
 21
916.92708333333314
 31
0.0
 73
     3
  0
LINE
  5
194
  8
DIMNSIONS
 62
     7
 10
138.5000000000002
 20
1020.0
 30
0.0
 11
-15.000000000000011
 21
1020.0
 31
0.0
  0
LINE
  5
195
  8
DIMNSIONS
 62
     7
 10
138.5000000000002
 20
880.0
 30
0.0
 11
-15.000000000000011
 21
880.0
 31
0.0
  0
LINE
  5
196
  8
DIMNSIONS
 62
     7
 10
-0.0000000000000142
 20
1020.0
 30
0.0
 11
-0.0000000000000142
 21
880.0
 31
0.0
  0
LINE
  5
197
  8
DIMNSIONS
 62
     7
 10
-0.0000000000000142
 20
1020.0
 30
0.0
 11
5.025298463626795
 21
1001.245330810547
 31
0.0
  0
LINE
  5
198
  8
DIMNSIONS
 62
     7
 10
-0.0000000000000142
 20
1020.0
 30
0.0
 11
-5.0252984636268403
 21
1001.245330810547
 31
0.0
  0
LINE
  5
199
  8
DIMNSIONS
 62
     7
 10
-0.0000000000000142
 20
880.0
 30
0.0
 11
-5.0252984636268403
 21
898.75466918945312
 31
0.0
  0
LINE
  5
19A
  8
DIMNSIONS
 62
     7
 10
-0.0000000000000142
 20
880.0
 30
0.0
 11
5.0252984636268092
 21
898.75466918945312
 31
0.0
  0
TEXT
  5
19B
  8
DIMNSIONS
 62
     7
 10
-9.0416666666666856
 20
930.15625000000011
 30
0.0
 40
21.166666666666671
  1
140
 50
90.0
 41
0.7
 11
-30.208333333333361
 21
930.15625000000011
 31
0.0
 73
     3
  0
LINE
  5
19C
  8
DIMNSIONS
 62
     7
 10
138.5000000000002
 20
1020.0
 30
0.0
 11
-15.000000000000011
 21
1020.0
 31
0.0
  0
LINE
  5
19D
  8
DIMNSIONS
 62
     7
 10
122.0499999999999
 20
1037.5999999999999
 30
0.0
 11
-15.000000000000011
 21
1037.5999999999999
 31
0.0
  0
LINE
  5
19E
  8
DIMNSIONS
 62
     7
 10
-0.0000000000000142
 20
1037.5999999999999
 30
0.0
 11
-0.0000000000000142
 21
1020.0
 31
0.0
  0
LINE
  5
19F
  8
DIMNSIONS
 62
     7
 10
-0.0000000000000142
 20
1020.0
 30
0.0
 11
-0.0000000000000142
 21
982.50000000000011
 31
0.0
  0
LINE
  5
1A0
  8
DIMNSIONS
 62
     7
 10
-0.0000000000000142
 20
1020.0
 30
0.0
 11
5.025298463626795
 21
1001.245330810547
 31
0.0
  0
LINE
  5
1A1
  8
DIMNSIONS
 62
     7
 10
-0.0000000000000142
 20
1020.0
 30
0.0
 11
-5.0252984636268403
 21
1001.245330810547
 31
0.0
  0
LINE
  5
1A2
  8
DIMNSIONS
 62
     7
 10
-0.0000000000000142
 20
1037.5999999999999
 30
0.0
 11
-0.0000000000000142
 21
1102.916670931666
 31
0.0
  0
LINE
  5
1A3
  8
DIMNSIONS
 62
     7
 10
-0.0000000000000142
 20
1037.5999999999999
 30
0.0
 11
-5.0252984636268403
 21
1056.354669189453
 31
0.0
  0
LINE
  5
1A4
  8
DIMNSIONS
 62
     7
 10
-0.0000000000000142
 20
1037.5999999999999
 30
0.0
 11
5.0252984636268092
 21
1056.354669189453
 31
0.0
  0
TEXT
  5
1A5
  8
DIMNSIONS
 62
     7
 10
-9.0416666666666856
 20
1050.0000042649999
 30
0.0
 40
21.166666666666671
  1
17.6
 50
90.0
 41
0.7
 11
-30.208333333333361
 21
1050.0000042649999
 31
0.0
 73
     3
  0
LINE
  5
1A6
  8
DIMNSIONS
 62
     7
 10
138.5000000000002
 20
880.0
 30
0.0
 11
-15.000000000000011
 21
880.0
 31
0.0
  0
LINE
  5
1A7
  8
DIMNSIONS
 62
     7
 10
122.0499999999999
 20
862.39999999999998
 30
0.0
 11
-15.000000000000011
 21
862.39999999999998
 31
0.0
  0
LINE
  5
1A8
  8
DIMNSIONS
 62
     7
 10
-0.0000000000000142
 20
862.39999999999998
 30
0.0
 11
-0.0000000000000142
 21
880.0
 31
0.0
  0
LINE
  5
1A9
  8
DIMNSIONS
 62
     7
 10
-0.0000000000000142
 20
880.0
 30
0.0
 11
-0.0000000000000142
 21
917.5
 31
0.0
  0
LINE
  5
1AA
  8
DIMNSIONS
 62
     7
 10
-0.0000000000000142
 20
880.0
 30
0.0
 11
-5.0252984636268403
 21
898.75466918945312
 31
0.0
  0
LINE
  5
1AB
  8
DIMNSIONS
 62
     7
 10
-0.0000000000000142
 20
880.0
 30
0.0
 11
5.0252984636268092
 21
898.75466918945312
 31
0.0
  0
LINE
  5
1AC
  8
DIMNSIONS
 62
     7
 10
-0.0000000000000142
 20
862.39999999999998
 30
0.0
 11
-0.0000000000000142
 21
790.73333333333323
 31
0.0
  0
LINE
  5
1AD
  8
DIMNSIONS
 62
     7
 10
-0.0000000000000142
 20
862.39999999999998
 30
0.0
 11
5.025298463626795
 21
843.64533081054685
 31
0.0
  0
LINE
  5
1AE
  8
DIMNSIONS
 62
     7
 10
-0.0000000000000142
 20
862.39999999999998
 30
0.0
 11
-5.0252984636268403
 21
843.64533081054685
 31
0.0
  0
TEXT
  5
1AF
  8
DIMNSIONS
 62
     7
 10
-9.0416666666666856
 20
790.73333333333323
 30
0.0
 40
21.166666666666671
  1
17.6
 50
90.0
 41
0.7
 11
-30.208333333333361
 21
790.73333333333323
 31
0.0
 73
     3
  0
LINE
  5
1B0
  8
DIMNSIONS
 62
     7
 10
134.44999999999999
 20
850.0
 30
0.0
 11
134.44999999999999
 21
685.0
 31
0.0
  0
LINE
  5
1B1
  8
DIMNSIONS
 62
     7
 10
665.55000000000007
 20
850.0
 30
0.0
 11
665.55000000000007
 21
685.0
 31
0.0
  0
LINE
  5
1B2
  8
DIMNSIONS
 62
     7
 10
134.44999999999999
 20
700.0
 30
0.0
 11
665.55000000000007
 21
700.0
 31
0.0
  0
LINE
  5
1B3
  8
DIMNSIONS
 62
     7
 10
134.44999999999999
 20
700.0
 30
0.0
 11
153.20466918945311
 21
705.02529846362665
 31
0.0
  0
LINE
  5
1B4
  8
DIMNSIONS
 62
     7
 10
134.44999999999999
 20
700.0
 30
0.0
 11
153.20466918945311
 21
694.97470153637335
 31
0.0
  0
LINE
  5
1B5
  8
DIMNSIONS
 62
     7
 10
665.55000000000007
 20
700.0
 30
0.0
 11
646.79533081054683
 21
694.97470153637335
 31
0.0
  0
LINE
  5
1B6
  8
DIMNSIONS
 62
     7
 10
665.55000000000007
 20
700.0
 30
0.0
 11
646.79533081054683
 21
705.02529846362665
 31
0.0
  0
TEXT
  5
1B7
  8
DIMNSIONS
 62
     7
 10
366.92708333333343
 20
709.04166666666652
 30
0.0
 40
21.166666666666671
  1
531.1
 41
0.7
 11
366.92708333333343
 21
730.20833333333314
 31
0.0
 73
     3
  0
LINE
  5
1B8
  8
DIMNSIONS
 62
     7
 10
134.44999999999999
 20
850.0
 30
0.0
 11
134.44999999999999
 21
735.0
 31
0.0
  0
LINE
  5
1B9
  8
DIMNSIONS
 62
     7
 10
160.0000000000002
 20
858.5
 30
0.0
 11
160.0000000000002
 21
735.0
 31
0.0
  0
LINE
  5
1BA
  8
DIMNSIONS
 62
     7
 10
160.0000000000002
 20
750.0
 30
0.0
 11
134.44999999999999
 21
750.0
 31
0.0
  0
LINE
  5
1BB
  8
DIMNSIONS
 62
     7
 10
134.44999999999999
 20
750.0
 30
0.0
 11
58.854166666666657
 21
750.0
 31
0.0
  0
LINE
  5
1BC
  8
DIMNSIONS
 62
     7
 10
134.44999999999999
 20
750.0
 30
0.0
 11
115.69533081054691
 21
744.97470153637312
 31
0.0
  0
LINE
  5
1BD
  8
DIMNSIONS
 62
     7
 10
134.44999999999999
 20
750.0
 30
0.0
 11
115.69533081054691
 21
755.02529846362665
 31
0.0
  0
LINE
  5
1BE
  8
DIMNSIONS
 62
     7
 10
160.0000000000002
 20
750.0
 30
0.0
 11
197.5000000000002
 21
750.0
 31
0.0
  0
LINE
  5
1BF
  8
DIMNSIONS
 62
     7
 10
160.0000000000002
 20
750.0
 30
0.0
 11
178.7546691894533
 21
755.02529846362665
 31
0.0
  0
LINE
  5
1C0
  8
DIMNSIONS
 62
     7
 10
160.0000000000002
 20
750.0
 30
0.0
 11
178.7546691894533
 21
744.97470153637312
 31
0.0
  0
TEXT
  5
1C1
  8
DIMNSIONS
 62
     7
 10
58.854166666666657
 20
759.04166666666652
 30
0.0
 40
21.166666666666671
  1
25.55
 41
0.7
 11
58.854166666666657
 21
780.20833333333314
 31
0.0
 73
     3
  0
LINE
  5
1C2
  8
DIMNSIONS
 62
     7
 10
160.0000000000002
 20
858.5
 30
0.0
 11
160.0000000000002
 21
735.0
 31
0.0
  0
LINE
  5
1C3
  8
DIMNSIONS
 62
     7
 10
640.0
 20
858.5
 30
0.0
 11
640.0
 21
735.0
 31
0.0
  0
LINE
  5
1C4
  8
DIMNSIONS
 62
     7
 10
160.0000000000002
 20
750.0
 30
0.0
 11
640.0
 21
750.0
 31
0.0
  0
LINE
  5
1C5
  8
DIMNSIONS
 62
     7
 10
160.0000000000002
 20
750.0
 30
0.0
 11
178.7546691894533
 21
755.02529846362665
 31
0.0
  0
LINE
  5
1C6
  8
DIMNSIONS
 62
     7
 10
160.0000000000002
 20
750.0
 30
0.0
 11
178.7546691894533
 21
744.97470153637312
 31
0.0
  0
LINE
  5
1C7
  8
DIMNSIONS
 62
     7
 10
640.0
 20
750.0
 30
0.0
 11
621.24533081054687
 21
744.97470153637312
 31
0.0
  0
LINE
  5
1C8
  8
DIMNSIONS
 62
     7
 10
640.0
 20
750.0
 30
0.0
 11
621.24533081054687
 21
755.02529846362665
 31
0.0
  0
TEXT
  5
1C9
  8
DIMNSIONS
 62
     7
 10
380.15625000000011
 20
759.04166666666652
 30
0.0
 40
21.166666666666671
  1
480
 41
0.7
 11
380.15625000000011
 21
780.20833333333314
 31
0.0
 73
     3
  0
LINE
  5
1CA
  8
DIMNSIONS
 62
     7
 10
134.44999999999999
 20
850.00000852999983
 30
0.0
 11
134.44999999999999
 21
785.0
 31
0.0
  0
LINE
  5
1CB
  8
DIMNSIONS
 62
     7
 10
180.0000000000002
 20
860.39999999999986
 30
0.0
 11
180.0000000000002
 21
785.0
 31
0.0
  0
LINE
  5
1CC
  8
DIMNSIONS
 62
     7
 10
134.44999999999999
 20
800.0
 30
0.0
 11
58.854166666666657
 21
800.0
 31
0.0
  0
LINE
  5
1CD
  8
DIMNSIONS
 62
     7
 10
134.44999999999999
 20
800.0
 30
0.0
 11
180.0000000000002
 21
800.0
 31
0.0
  0
LINE
  5
1CE
  8
DIMNSIONS
 62
     7
 10
134.44999999999999
 20
800.0
 30
0.0
 11
153.20466918945311
 21
805.02529846362665
 31
0.0
  0
LINE
  5
1CF
  8
DIMNSIONS
 62
     7
 10
134.44999999999999
 20
800.0
 30
0.0
 11
153.20466918945311
 21
794.97470153637312
 31
0.0
  0
LINE
  5
1D0
  8
DIMNSIONS
 62
     7
 10
180.0000000000002
 20
800.0
 30
0.0
 11
161.2453308105471
 21
794.97470153637312
 31
0.0
  0
LINE
  5
1D1
  8
DIMNSIONS
 62
     7
 10
180.0000000000002
 20
800.0
 30
0.0
 11
161.2453308105471
 21
805.02529846362688
 31
0.0
  0
TEXT
  5
1D2
  8
DIMNSIONS
 62
     7
 10
58.854166666666657
 20
809.04166666666663
 30
0.0
 40
21.166666666666671
  1
45.55
 41
0.7
 11
58.854166666666657
 21
830.20833333333314
 31
0.0
 73
     3
  0
LINE
  5
1D3
  8
DIMNSIONS
 62
     7
 10
180.0000000000002
 20
860.39999999999986
 30
0.0
 11
180.0000000000002
 21
785.0
 31
0.0
  0
LINE
  5
1D4
  8
DIMNSIONS
 62
     7
 10
280.00000000000028
 20
860.39999999999986
 30
0.0
 11
280.00000000000028
 21
785.0
 31
0.0
  0
LINE
  5
1D5
  8
DIMNSIONS
 62
     7
 10
180.0000000000002
 20
800.0
 30
0.0
 11
280.00000000000028
 21
800.0
 31
0.0
  0
LINE
  5
1D6
  8
DIMNSIONS
 62
     7
 10
180.0000000000002
 20
800.0
 30
0.0
 11
198.7546691894533
 21
805.02529846362665
 31
0.0
  0
LINE
  5
1D7
  8
DIMNSIONS
 62
     7
 10
180.0000000000002
 20
800.0
 30
0.0
 11
198.7546691894533
 21
794.97470153637312
 31
0.0
  0
LINE
  5
1D8
  8
DIMNSIONS
 62
     7
 10
280.00000000000028
 20
800.0
 30
0.0
 11
261.2453308105471
 21
794.97470153637312
 31
0.0
  0
LINE
  5
1D9
  8
DIMNSIONS
 62
     7
 10
280.00000000000028
 20
800.0
 30
0.0
 11
261.2453308105471
 21
805.02529846362688
 31
0.0
  0
TEXT
  5
1DA
  8
DIMNSIONS
 62
     7
 10
210.1562500000002
 20
809.04166666666663
 30
0.0
 40
21.166666666666671
  1
100
 41
0.7
 11
210.1562500000002
 21
830.20833333333314
 31
0.0
 73
     3
  0
LINE
  5
1DB
  8
DIMNSIONS
 62
     7
 10
280.00000000000028
 20
860.39999999999986
 30
0.0
 11
280.00000000000028
 21
785.0
 31
0.0
  0
LINE
  5
1DC
  8
DIMNSIONS
 62
     7
 10
400.00000000000011
 20
860.39999999999986
 30
0.0
 11
400.00000000000011
 21
785.0
 31
0.0
  0
LINE
  5
1DD
  8
DIMNSIONS
 62
     7
 10
280.00000000000028
 20
800.0
 30
0.0
 11
400.00000000000011
 21
800.0
 31
0.0
  0
LINE
  5
1DE
  8
DIMNSIONS
 62
     7
 10
280.00000000000028
 20
800.0
 30
0.0
 11
298.75466918945341
 21
805.02529846362665
 31
0.0
  0
LINE
  5
1DF
  8
DIMNSIONS
 62
     7
 10
280.00000000000028
 20
800.0
 30
0.0
 11
298.75466918945341
 21
794.97470153637312
 31
0.0
  0
LINE
  5
1E0
  8
DIMNSIONS
 62
     7
 10
400.00000000000011
 20
800.0
 30
0.0
 11
381.2453308105471
 21
794.97470153637312
 31
0.0
  0
LINE
  5
1E1
  8
DIMNSIONS
 62
     7
 10
400.00000000000011
 20
800.0
 30
0.0
 11
381.2453308105471
 21
805.02529846362688
 31
0.0
  0
TEXT
  5
1E2
  8
DIMNSIONS
 62
     7
 10
320.15625000000028
 20
809.04166666666663
 30
0.0
 40
21.166666666666671
  1
120
 41
0.7
 11
320.15625000000028
 21
830.20833333333314
 31
0.0
 73
     3
  0
LINE
  5
1E3
  8
DIMNSIONS
 62
     7
 10
400.00000000000011
 20
860.39999999999986
 30
0.0
 11
400.00000000000011
 21
785.0
 31
0.0
  0
LINE
  5
1E4
  8
DIMNSIONS
 62
     7
 10
520.0
 20
860.39999999999986
 30
0.0
 11
520.0
 21
785.0
 31
0.0
  0
LINE
  5
1E5
  8
DIMNSIONS
 62
     7
 10
400.00000000000011
 20
800.0
 30
0.0
 11
520.0
 21
800.0
 31
0.0
  0
LINE
  5
1E6
  8
DIMNSIONS
 62
     7
 10
400.00000000000011
 20
800.0
 30
0.0
 11
418.75466918945318
 21
805.02529846362665
 31
0.0
  0
LINE
  5
1E7
  8
DIMNSIONS
 62
     7
 10
400.00000000000011
 20
800.0
 30
0.0
 11
418.75466918945318
 21
794.97470153637312
 31
0.0
  0
LINE
  5
1E8
  8
DIMNSIONS
 62
     7
 10
520.0
 20
800.0
 30
0.0
 11
501.24533081054682
 21
794.97470153637312
 31
0.0
  0
LINE
  5
1E9
  8
DIMNSIONS
 62
     7
 10
520.0
 20
800.0
 30
0.0
 11
501.24533081054682
 21
805.02529846362688
 31
0.0
  0
TEXT
  5
1EA
  8
DIMNSIONS
 62
     7
 10
440.15625
 20
809.04166666666663
 30
0.0
 40
21.166666666666671
  1
120
 41
0.7
 11
440.15625
 21
830.20833333333314
 31
0.0
 73
     3
  0
LINE
  5
1EB
  8
DIMNSIONS
 62
     7
 10
520.0
 20
860.39999999999986
 30
0.0
 11
520.0
 21
785.0
 31
0.0
  0
LINE
  5
1EC
  8
DIMNSIONS
 62
     7
 10
620.0
 20
860.39999999999986
 30
0.0
 11
620.0
 21
785.0
 31
0.0
  0
LINE
  5
1ED
  8
DIMNSIONS
 62
     7
 10
520.0
 20
800.0
 30
0.0
 11
620.0
 21
800.0
 31
0.0
  0
LINE
  5
1EE
  8
DIMNSIONS
 62
     7
 10
520.0
 20
800.0
 30
0.0
 11
538.75466918945312
 21
805.02529846362665
 31
0.0
  0
LINE
  5
1EF
  8
DIMNSIONS
 62
     7
 10
520.0
 20
800.0
 30
0.0
 11
538.75466918945312
 21
794.97470153637312
 31
0.0
  0
LINE
  5
1F0
  8
DIMNSIONS
 62
     7
 10
620.0
 20
800.0
 30
0.0
 11
601.24533081054676
 21
794.97470153637312
 31
0.0
  0
LINE
  5
1F1
  8
DIMNSIONS
 62
     7
 10
620.0
 20
800.0
 30
0.0
 11
601.24533081054676
 21
805.02529846362688
 31
0.0
  0
TEXT
  5
1F2
  8
DIMNSIONS
 62
     7
 10
550.15625
 20
809.04166666666663
 30
0.0
 40
21.166666666666671
  1
100
 41
0.7
 11
550.15625
 21
830.20833333333314
 31
0.0
 73
     3
  0
TEXT
  5
1F3
  8
DIMNSIONS
 62
     7
 10
-115.62500381469729
 20
208.875
 30
0.0
 40
15.0
  1
文字・矢印　マーキング
 41
0.7
  0
LINE
  5
1F4
  8
DIMNSIONS
 62
     7
 10
-183.75
 20
-58.399999999999977
 30
0.0
 11
-400.0
 21
-175.0
 31
0.0
  0
LINE
  5
1F5
  8
DIMNSIONS
 62
     7
 10
-183.75
 20
-58.399999999999977
 30
0.0
 11
-195.1066028067801
 21
-68.990203444595693
 31
0.0
  0
LINE
  5
1F6
  8
DIMNSIONS
 62
     7
 10
-183.75
 20
-58.399999999999977
 30
0.0
 11
-198.88020825365899
 21
-61.893083810875311
 31
0.0
  0
LINE
  5
1F7
  8
DIMNSIONS
 62
     7
 10
-400.0
 20
-175.0
 30
0.0
 11
-475.0
 21
-175.0
 31
0.0
  0
TEXT
  5
1F8
  8
DIMNSIONS
 62
     7
 10
-465.6250017285347
 20
-166.125
 30
0.0
 40
15.0
  1
矢印穴
 41
0.7
  0
LINE
  5
1F9
  8
DIMNSIONS
 62
     7
 10
-287.60000000000008
 20
147.40000000000009
 30
0.0
 11
-287.60000000000008
 21
190.0
 31
0.0
  0
LINE
  5
1FA
  8
DIMNSIONS
 62
     7
 10
-112.40000000000011
 20
147.40000000000009
 30
0.0
 11
-112.40000000000011
 21
190.0
 31
0.0
  0
LINE
  5
1FB
  8
DIMNSIONS
 62
     7
 10
-287.60000000000008
 20
175.0
 30
0.0
 11
-112.40000000000011
 21
175.0
 31
0.0
  0
LINE
  5
1FC
  8
DIMNSIONS
 62
     7
 10
-287.60000000000008
 20
175.0
 30
0.0
 11
-268.84533081054701
 21
180.0252984636268
 31
0.0
  0
LINE
  5
1FD
  8
DIMNSIONS
 62
     7
 10
-287.60000000000008
 20
175.0
 30
0.0
 11
-268.84533081054701
 21
169.97470153637309
 31
0.0
  0
LINE
  5
1FE
  8
DIMNSIONS
 62
     7
 10
-112.40000000000011
 20
175.0
 30
0.0
 11
-131.15466918945319
 21
169.97470153637309
 31
0.0
  0
LINE
  5
1FF
  8
DIMNSIONS
 62
     7
 10
-112.40000000000011
 20
175.0
 30
0.0
 11
-131.15466918945319
 21
180.0252984636268
 31
0.0
  0
TEXT
  5
200
  8
DIMNSIONS
 62
     7
 10
-233.0729166666668
 20
184.0416666666666
 30
0.0
 40
21.166666666666671
  1
175.2
 41
0.7
 11
-233.0729166666668
 21
205.20833333333329
 31
0.0
 73
     3
  0
LINE
  5
201
  8
DIMNSIONS
 62
     7
 10
-300.0
 20
135.0
 30
0.0
 11
-440.0
 21
135.0
 31
0.0
  0
LINE
  5
202
  8
DIMNSIONS
 62
     7
 10
-234.9999961850001
 20
-85.0
 30
0.0
 11
-440.0
 21
-85.0
 31
0.0
  0
LINE
  5
203
  8
DIMNSIONS
 62
     7
 10
-425.0
 20
135.0
 30
0.0
 11
-425.0
 21
-85.0
 31
0.0
  0
LINE
  5
204
  8
DIMNSIONS
 62
     7
 10
-425.0
 20
135.0
 30
0.0
 11
-419.97470153637312
 21
116.2453308105469
 31
0.0
  0
LINE
  5
205
  8
DIMNSIONS
 62
     7
 10
-425.0
 20
135.0
 30
0.0
 11
-430.02529846362683
 21
116.2453308105469
 31
0.0
  0
LINE
  5
206
  8
DIMNSIONS
 62
     7
 10
-425.0
 20
-85.0
 30
0.0
 11
-430.02529846362683
 21
-66.245330810546889
 31
0.0
  0
LINE
  5
207
  8
DIMNSIONS
 62
     7
 10
-425.0
 20
-85.0
 30
0.0
 11
-419.97470153637312
 21
-66.245330810546889
 31
0.0
  0
TEXT
  5
208
  8
DIMNSIONS
 62
     7
 10
-434.04166666666657
 20
5.1562499999999973
 30
0.0
 40
21.166666666666671
  1
220
 50
90.0
 41
0.7
 11
-455.20833333333331
 21
5.15625
 31
0.0
 73
     3
  0
LINE
  5
209
  8
DIMNSIONS
 62
     7
 10
134.44999999999999
 20
-100.0
 30
0.0
 11
134.44999999999999
 21
-365.0
 31
0.0
  0
LINE
  5
20A
  8
DIMNSIONS
 62
     7
 10
665.55000000000007
 20
-100.0
 30
0.0
 11
665.55000000000007
 21
-365.0
 31
0.0
  0
LINE
  5
20B
  8
DIMNSIONS
 62
     7
 10
134.44999999999999
 20
-350.0
 30
0.0
 11
665.55000000000007
 21
-350.0
 31
0.0
  0
LINE
  5
20C
  8
DIMNSIONS
 62
     7
 10
134.44999999999999
 20
-350.0
 30
0.0
 11
153.20466918945311
 21
-344.97470153637317
 31
0.0
  0
LINE
  5
20D
  8
DIMNSIONS
 62
     7
 10
134.44999999999999
 20
-350.0
 30
0.0
 11
153.20466918945311
 21
-355.02529846362683
 31
0.0
  0
LINE
  5
20E
  8
DIMNSIONS
 62
     7
 10
665.55000000000007
 20
-350.0
 30
0.0
 11
646.79533081054683
 21
-355.02529846362683
 31
0.0
  0
LINE
  5
20F
  8
DIMNSIONS
 62
     7
 10
665.55000000000007
 20
-350.0
 30
0.0
 11
646.79533081054683
 21
-344.97470153637317
 31
0.0
  0
TEXT
  5
210
  8
DIMNSIONS
 62
     7
 10
366.92708333333343
 20
-340.95833333333343
 30
0.0
 40
21.166666666666671
  1
531.1
 41
0.7
 11
366.92708333333343
 21
-319.79166666666669
 31
0.0
 73
     3
  0
LINE
  5
211
  8
DIMNSIONS
 62
     7
 10
139.65010000000001
 20
-208.5
 30
0.0
 11
139.65010000000001
 21
-315.0
 31
0.0
  0
LINE
  5
212
  8
DIMNSIONS
 62
     7
 10
660.35010000000011
 20
-208.5
 30
0.0
 11
660.35010000000011
 21
-315.0
 31
0.0
  0
LINE
  5
213
  8
DIMNSIONS
 62
     7
 10
139.65010000000001
 20
-300.0
 30
0.0
 11
660.35010000000011
 21
-300.0
 31
0.0
  0
LINE
  5
214
  8
DIMNSIONS
 62
     7
 10
139.65010000000001
 20
-300.0
 30
0.0
 11
158.40476918945319
 21
-294.97470153637317
 31
0.0
  0
LINE
  5
215
  8
DIMNSIONS
 62
     7
 10
139.65010000000001
 20
-300.0
 30
0.0
 11
158.40476918945319
 21
-305.02529846362683
 31
0.0
  0
LINE
  5
216
  8
DIMNSIONS
 62
     7
 10
660.35010000000011
 20
-300.0
 30
0.0
 11
641.59543081054699
 21
-305.02529846362683
 31
0.0
  0
LINE
  5
217
  8
DIMNSIONS
 62
     7
 10
660.35010000000011
 20
-300.0
 30
0.0
 11
641.59543081054699
 21
-294.97470153637317
 31
0.0
  0
TEXT
  5
218
  8
DIMNSIONS
 62
     7
 10
366.9271833333334
 20
-290.95833333333343
 30
0.0
 40
21.166666666666671
  1
520.7
 41
0.7
 11
366.9271833333334
 21
-269.79166666666669
 31
0.0
 73
     3
  0
LINE
  5
219
  8
DIMNSIONS
 62
     7
 10
-56.499960094000038
 20
-153.31009999999981
 30
0.0
 11
-56.499960094000038
 21
-265.0
 31
0.0
  0
LINE
  5
21A
  8
DIMNSIONS
 62
     7
 10
-337.49999999999972
 20
-65.0
 30
0.0
 11
-337.49999999999972
 21
-265.0
 31
0.0
  0
LINE
  5
21B
  8
DIMNSIONS
 62
     7
 10
-56.499960094000038
 20
-250.0
 30
0.0
 11
-337.49999999999972
 21
-250.0
 31
0.0
  0
LINE
  5
21C
  8
DIMNSIONS
 62
     7
 10
-56.499960094000038
 20
-250.0
 30
0.0
 11
-75.254629283453156
 21
-255.0252984636268
 31
0.0
  0
LINE
  5
21D
  8
DIMNSIONS
 62
     7
 10
-56.499960094000038
 20
-250.0
 30
0.0
 11
-75.254629283453156
 21
-244.9747015363732
 31
0.0
  0
LINE
  5
21E
  8
DIMNSIONS
 62
     7
 10
-337.49999999999972
 20
-250.0
 30
0.0
 11
-318.7453308105467
 21
-244.9747015363732
 31
0.0
  0
LINE
  5
21F
  8
DIMNSIONS
 62
     7
 10
-337.49999999999972
 20
-250.0
 30
0.0
 11
-318.7453308105467
 21
-255.0252984636268
 31
0.0
  0
TEXT
  5
220
  8
DIMNSIONS
 62
     7
 10
-216.84373004699989
 20
-240.9583333333334
 30
0.0
 40
21.166666666666671
  1
281
 41
0.7
 11
-216.84373004699989
 21
-219.79166666666671
 31
0.0
 73
     3
  0
ARC
  5
221
  8
BRACKET
 62
     7
 10
204.4500000000001
 20
388.3731457938627
 30
0.0
 40
10.00000000000003
 50
90.0
 51
180.0
  0
LINE
  5
222
  8
BRACKET
 62
     7
 10
194.44999999999999
 20
313.37315432386248
 30
0.0
 11
194.44999999999999
 21
388.3731457938627
 31
0.0
  0
ARC
  5
223
  8
BRACKET
 62
     7
 10
204.4500000000001
 20
313.37314579386259
 30
0.0
 40
10.0
 50
179.9999511260001
 51
270.0
  0
LINE
  5
224
  8
BRACKET
 62
     7
 10
204.4500000000001
 20
303.37314579386259
 30
0.0
 11
595.55000000000007
 21
303.37314579386259
 31
0.0
  0
ARC
  5
225
  8
BRACKET
 62
     7
 10
595.55000000000007
 20
313.37314579386259
 30
0.0
 40
10.0
 50
270.0
 51
0.0000378559998353
  0
LINE
  5
226
  8
BRACKET
 62
     7
 10
605.55000000000018
 20
313.37315240186263
 30
0.0
 11
605.55000000000018
 21
388.3731457938627
 31
0.0
  0
ARC
  5
227
  8
BRACKET
 62
     7
 10
595.55000000000007
 20
388.3731457938627
 30
0.0
 40
10.0
 50
0.0
 51
89.999912573999396
  0
LINE
  5
228
  8
BRACKET
 62
     7
 10
204.4500000000001
 20
398.3731457938627
 30
0.0
 11
595.55001525899991
 21
398.3731457938627
 31
0.0
  0
LINE
  5
229
  8
BRACKET
 62
     7
 10
134.44999999999999
 20
435.8731457938627
 30
0.0
 11
134.44999999999999
 21
265.87314579386259
 31
0.0
  0
LINE
  5
22A
  8
BRACKET
 62
     7
 10
662.95000000000005
 20
263.27314579386262
 30
0.0
 11
137.0499999999999
 21
263.27314579386262
 31
0.0
  0
LINE
  5
22B
  8
BRACKET
 62
     7
 10
662.95000000000005
 20
438.47314579386261
 30
0.0
 11
137.0499999999999
 21
438.47314579386261
 31
0.0
  0
LINE
  5
22C
  8
BRACKET
 62
     7
 10
665.55000000000007
 20
435.8731457938627
 30
0.0
 11
665.55000000000007
 21
265.87314579386259
 31
0.0
  0
LINE
  5
22D
  8
BRACKET
 62
     7
 10
139.65000000000001
 20
435.87315658386251
 30
0.0
 11
139.65000000000001
 21
438.47314579386261
 31
0.0
  0
ARC
  5
22E
  8
BRACKET
 62
     7
 10
137.0499999999999
 20
435.8731457938627
 30
0.0
 40
2.600000000000021
 50
270.0
 51
0.0
  0
LINE
  5
22F
  8
BRACKET
 62
     7
 10
137.0499999999999
 20
433.27314579386262
 30
0.0
 11
134.44999999999999
 21
433.27314579386262
 31
0.0
  0
LINE
  5
230
  8
BRACKET
 62
     7
 10
139.65000000000001
 20
435.8731457938627
 30
0.0
 11
134.44999999999999
 21
435.8731457938627
 31
0.0
  0
LINE
  5
231
  8
BRACKET
 62
     7
 10
137.0499999999999
 20
438.47314579386261
 30
0.0
 11
137.0499999999999
 21
433.27314579386262
 31
0.0
  0
LINE
  5
232
  8
BRACKET
 62
     7
 10
660.35000000000014
 20
435.87315658386251
 30
0.0
 11
660.35000000000014
 21
438.47314579386261
 31
0.0
  0
ARC
  5
233
  8
BRACKET
 62
     7
 10
662.95000000000005
 20
435.8731457938627
 30
0.0
 40
2.5999999999999082
 50
180.0
 51
270.0
  0
LINE
  5
234
  8
BRACKET
 62
     7
 10
662.95000000000005
 20
433.27314579386262
 30
0.0
 11
665.55000000000007
 21
433.27314579386262
 31
0.0
  0
LINE
  5
235
  8
BRACKET
 62
     7
 10
660.35000000000014
 20
435.8731457938627
 30
0.0
 11
665.55000000000007
 21
435.8731457938627
 31
0.0
  0
LINE
  5
236
  8
BRACKET
 62
     7
 10
662.95000000000005
 20
438.47314579386261
 30
0.0
 11
662.95000000000005
 21
433.27314579386262
 31
0.0
  0
LINE
  5
237
  8
BRACKET
 62
     7
 10
139.65000000000001
 20
265.87314353486272
 30
0.0
 11
139.65000000000001
 21
263.27315432386263
 31
0.0
  0
ARC
  5
238
  8
BRACKET
 62
     7
 10
137.0499999999999
 20
265.87315432386259
 30
0.0
 40
2.6000000000001351
 50
0.0
 51
90.0
  0
LINE
  5
239
  8
BRACKET
 62
     7
 10
137.0499999999999
 20
268.47315432386262
 30
0.0
 11
134.44999999999999
 21
268.47315432386262
 31
0.0
  0
LINE
  5
23A
  8
BRACKET
 62
     7
 10
139.65000000000001
 20
265.87315432386259
 30
0.0
 11
134.44999999999999
 21
265.87315432386259
 31
0.0
  0
LINE
  5
23B
  8
BRACKET
 62
     7
 10
137.0499999999999
 20
263.27315432386263
 30
0.0
 11
137.0499999999999
 21
268.47315432386262
 31
0.0
  0
LINE
  5
23C
  8
BRACKET
 62
     7
 10
660.35000000000014
 20
265.87314161186248
 30
0.0
 11
660.35000000000014
 21
263.27315240186249
 31
0.0
  0
ARC
  5
23D
  8
BRACKET
 62
     7
 10
662.95000000000005
 20
265.87315240186263
 30
0.0
 40
2.600000000000021
 50
90.0
 51
180.0
  0
LINE
  5
23E
  8
BRACKET
 62
     7
 10
662.95000000000005
 20
268.47315240186259
 30
0.0
 11
665.55000000000007
 21
268.47315240186259
 31
0.0
  0
LINE
  5
23F
  8
BRACKET
 62
     7
 10
660.35000000000014
 20
265.87315240186263
 30
0.0
 11
665.55000000000007
 21
265.87315240186263
 31
0.0
  0
LINE
  5
240
  8
BRACKET
 62
     7
 10
662.95000000000005
 20
263.27315240186249
 30
0.0
 11
662.95000000000005
 21
268.47315240186259
 31
0.0
  0
LINE
  5
241
  8
BRACKET
 62
     7
 10
137.0499999999999
 20
433.27314579386262
 30
0.0
 11
137.0499999999999
 21
268.47315432386262
 31
0.0
  0
LINE
  5
242
  8
BRACKET
 62
     7
 10
660.35000000000014
 20
265.87314579386259
 30
0.0
 11
139.65000000000001
 21
265.87314579386259
 31
0.0
  0
LINE
  5
243
  8
BRACKET
 62
     7
 10
660.35000000000014
 20
435.8731457938627
 30
0.0
 11
139.65000000000001
 21
435.8731457938627
 31
0.0
  0
LINE
  5
244
  8
BRACKET
 62
     7
 10
662.95000000000005
 20
433.27314579386262
 30
0.0
 11
662.95000000000005
 21
268.47315240186259
 31
0.0
  0
LINE
  5
245
  8
BRACKET
 62
     7
 10
159.44999999999999
 20
355.87315005886268
 30
0.0
 11
164.44999999999999
 21
355.87315005886268
 31
0.0
  0
LINE
  5
246
  8
BRACKET
 62
     7
 10
159.44999999999999
 20
355.87315005886268
 30
0.0
 11
169.44999999999999
 21
365.87315005886262
 31
0.0
  0
LINE
  5
247
  8
BRACKET
 62
     7
 10
164.44999999999999
 20
350.87315005886268
 30
0.0
 11
164.44999999999999
 21
355.87315005886268
 31
0.0
  0
LINE
  5
248
  8
BRACKET
 62
     7
 10
169.44999999999999
 20
365.87315005886262
 30
0.0
 11
179.44999999999999
 21
355.87315005886268
 31
0.0
  0
LINE
  5
249
  8
BRACKET
 62
     7
 10
174.44999999999999
 20
350.87315005886268
 30
0.0
 11
174.44999999999999
 21
355.87315005886268
 31
0.0
  0
LINE
  5
24A
  8
BRACKET
 62
     7
 10
174.44999999999999
 20
355.87315005886268
 30
0.0
 11
179.44999999999999
 21
355.87315005886268
 31
0.0
  0
LINE
  5
24B
  8
BRACKET
 62
     7
 10
164.44999999999999
 20
350.87315005886268
 30
0.0
 11
174.44999999999999
 21
350.87315005886268
 31
0.0
  0
POLYLINE
  5
24C
  8
BRACKET
 62
     7
 66
     1
 10
0.0
 20
0.0
 30
0.0
  0
VERTEX
  5
A7C
  8
BRACKET
 62
     7
 10
184.2361328130001
 20
381.59190005886262
 30
0.0
  0
VERTEX
  5
A7D
  8
BRACKET
 62
     7
 10
187.92753906300021
 20
381.59190005886262
 30
0.0
  0
VERTEX
  5
A7E
  8
BRACKET
 62
     7
 10
187.92753906300021
 20
369.87315005886262
 30
0.0
  0
SEQEND
  5
A7F
  8
BRACKET
 62
     7
  0
LINE
  5
251
  8
BRACKET
 62
     7
 10
187.92753906300021
 20
376.31846255886262
 30
0.0
 11
185.02714843800021
 21
376.31846255886262
 31
0.0
  0
POLYLINE
  5
252
  8
BRACKET
 62
     7
 66
     1
 10
0.0
 20
0.0
 30
0.0
 70
   128
  0
VERTEX
  5
A80
  8
BRACKET
 62
     7
 10
177.04082031299961
 20
375.1465875588629
 30
0.0
 42
-0.0453664709995405
  0
VERTEX
  5
A81
  8
BRACKET
 62
     7
 10
176.91560379399991
 20
375.18534417186282
 30
0.0
  0
VERTEX
  5
A82
  8
BRACKET
 62
     7
 10
176.91560379399991
 20
375.18534417186282
 30
0.0
  0
VERTEX
  5
A83
  8
BRACKET
 62
     7
 10
176.91560379399991
 20
375.18534417186282
 30
0.0
 42
-0.0409557140004252
  0
VERTEX
  5
A84
  8
BRACKET
 62
     7
 10
176.79237096800011
 20
375.24808082086258
 30
0.0
  0
VERTEX
  5
A85
  8
BRACKET
 62
     7
 10
176.79237096800011
 20
375.24808082086258
 30
0.0
  0
VERTEX
  5
A86
  8
BRACKET
 62
     7
 10
176.79237096800011
 20
375.24808082086258
 30
0.0
 42
-0.0358330130002224
  0
VERTEX
  5
A87
  8
BRACKET
 62
     7
 10
176.6720499810001
 20
375.33432499486258
 30
0.0
  0
VERTEX
  5
A88
  8
BRACKET
 62
     7
 10
176.6720499810001
 20
375.33432499486258
 30
0.0
  0
VERTEX
  5
A89
  8
BRACKET
 62
     7
 10
176.6720499810001
 20
375.33432499486258
 30
0.0
 42
-0.0308550790000336
  0
VERTEX
  5
A8A
  8
BRACKET
 62
     7
 10
176.5555470490001
 20
375.44342713286278
 30
0.0
  0
VERTEX
  5
A8B
  8
BRACKET
 62
     7
 10
176.5555470490001
 20
375.44342713286278
 30
0.0
  0
VERTEX
  5
A8C
  8
BRACKET
 62
     7
 10
176.5555470490001
 20
375.44342713286278
 30
0.0
 42
-0.026463232000546
  0
VERTEX
  5
A8D
  8
BRACKET
 62
     7
 10
176.44373963200019
 20
375.57456551486263
 30
0.0
  0
VERTEX
  5
A8E
  8
BRACKET
 62
     7
 10
176.44373963200019
 20
375.57456551486263
 30
0.0
  0
VERTEX
  5
A8F
  8
BRACKET
 62
     7
 10
176.44373963199951
 20
375.57456551486342
 30
0.0
 42
-0.0227885949997111
  0
VERTEX
  5
A90
  8
BRACKET
 62
     7
 10
176.33746982600019
 20
375.72675245186258
 30
0.0
  0
VERTEX
  5
A91
  8
BRACKET
 62
     7
 10
176.33746982600019
 20
375.72675245186258
 30
0.0
  0
VERTEX
  5
A92
  8
BRACKET
 62
     7
 10
176.33746982600019
 20
375.72675245186258
 30
0.0
 42
-0.0197995050006722
  0
VERTEX
  5
A93
  8
BRACKET
 62
     7
 10
176.23753801700011
 20
375.89884172386257
 30
0.0
  0
VERTEX
  5
A94
  8
BRACKET
 62
     7
 10
176.23753801700011
 20
375.89884172386257
 30
0.0
  0
VERTEX
  5
A95
  8
BRACKET
 62
     7
 10
176.23753801700011
 20
375.89884172386257
 30
0.0
 42
-0.0174024370000804
  0
VERTEX
  5
A96
  8
BRACKET
 62
     7
 10
176.14469685899999
 20
376.08953721486262
 30
0.0
  0
VERTEX
  5
A97
  8
BRACKET
 62
     7
 10
176.14469685899999
 20
376.08953721486262
 30
0.0
  0
VERTEX
  5
A98
  8
BRACKET
 62
     7
 10
176.14469685899999
 20
376.08953721486262
 30
0.0
 42
-0.0154935200004944
  0
VERTEX
  5
A99
  8
BRACKET
 62
     7
 10
176.05964559800009
 20
376.29740266986249
 30
0.0
  0
VERTEX
  5
A9A
  8
BRACKET
 62
     7
 10
176.05964559800009
 20
376.29740266986249
 30
0.0
  0
VERTEX
  5
A9B
  8
BRACKET
 62
     7
 10
176.0596455979985
 20
376.2974026698667
 30
0.0
 42
-0.01397953999955
  0
VERTEX
  5
A9C
  8
BRACKET
 62
     7
 10
175.98302481199991
 20
376.52087251986262
 30
0.0
  0
VERTEX
  5
A9D
  8
BRACKET
 62
     7
 10
175.98302481199991
 20
376.52087251986262
 30
0.0
  0
VERTEX
  5
A9E
  8
BRACKET
 62
     7
 10
175.983024811999
 20
376.52087251986541
 30
0.0
 42
-0.0127839599997068
  0
VERTEX
  5
A9F
  8
BRACKET
 62
     7
 10
175.91541158100009
 20
376.75826366686272
 30
0.0
  0
VERTEX
  5
AA0
  8
BRACKET
 62
     7
 10
175.91541158100009
 20
376.75826366686272
 30
0.0
  0
VERTEX
  5
AA1
  8
BRACKET
 62
     7
 10
175.91541158100009
 20
376.75826366686272
 30
0.0
 42
-0.0118467010003056
  0
VERTEX
  5
AA2
  8
BRACKET
 62
     7
 10
175.8573151450002
 20
377.00778816086267
 30
0.0
  0
VERTEX
  5
AA3
  8
BRACKET
 62
     7
 10
175.8573151450002
 20
377.00778816086267
 30
0.0
  0
VERTEX
  5
AA4
  8
BRACKET
 62
     7
 10
175.85731514499989
 20
377.00778816086421
 30
0.0
 42
-0.0111218619999569
  0
VERTEX
  5
AA5
  8
BRACKET
 62
     7
 10
175.80917306800001
 20
377.26756667086261
 30
0.0
  0
VERTEX
  5
AA6
  8
BRACKET
 62
     7
 10
175.80917306800001
 20
377.26756667086261
 30
0.0
  0
VERTEX
  5
AA7
  8
BRACKET
 62
     7
 10
175.8091730679989
 20
377.26756667086948
 30
0.0
 42
-0.0105751219994598
  0
VERTEX
  5
AA8
  8
BRACKET
 62
     7
 10
175.7713479370002
 20
377.53564263286262
 30
0.0
  0
VERTEX
  5
AA9
  8
BRACKET
 62
     7
 10
175.7713479370002
 20
377.53564263286262
 30
0.0
  0
VERTEX
  5
AAA
  8
BRACKET
 62
     7
 10
175.7713479370002
 20
377.53564263286262
 30
0.0
 42
-0.0101814790000536
  0
VERTEX
  5
AAB
  8
BRACKET
 62
     7
 10
175.74412464000011
 20
377.80999699286252
 30
0.0
  0
VERTEX
  5
AAC
  8
BRACKET
 62
     7
 10
175.74412464000011
 20
377.80999699286252
 30
0.0
  0
VERTEX
  5
AAD
  8
BRACKET
 62
     7
 10
175.74412464000011
 20
377.80999699286252
 30
0.0
 42
-0.009923482000202
  0
VERTEX
  5
AAE
  8
BRACKET
 62
     7
 10
175.7277082120001
 20
378.0885634068627
 30
0.0
  0
VERTEX
  5
AAF
  8
BRACKET
 62
     7
 10
175.7277082120001
 20
378.0885634068627
 30
0.0
  0
VERTEX
  5
AB0
  8
BRACKET
 62
     7
 10
175.7277082120001
 20
378.0885634068627
 30
0.0
 42
-0.0097899730000894
  0
VERTEX
  5
AB1
  8
BRACKET
 62
     7
 10
175.72222229700009
 20
378.36924380886262
 30
0.0
  0
VERTEX
  5
AB2
  8
BRACKET
 62
     7
 10
175.72222229700009
 20
378.36924380886262
 30
0.0
  0
VERTEX
  5
AB3
  8
BRACKET
 62
     7
 10
175.72222229700009
 20
378.36924380886262
 30
0.0
 42
-0.0097752680000488
  0
VERTEX
  5
AB4
  8
BRACKET
 62
     7
 10
175.7277082120001
 20
378.6499242118627
 30
0.0
  0
VERTEX
  5
AB5
  8
BRACKET
 62
     7
 10
175.7277082120001
 20
378.6499242118627
 30
0.0
  0
VERTEX
  5
AB6
  8
BRACKET
 62
     7
 10
175.7277082120001
 20
378.6499242118627
 30
0.0
 42
-0.0098787450002216
  0
VERTEX
  5
AB7
  8
BRACKET
 62
     7
 10
175.74412464000011
 20
378.92849062586271
 30
0.0
  0
VERTEX
  5
AB8
  8
BRACKET
 62
     7
 10
175.74412464000011
 20
378.92849062586271
 30
0.0
  0
VERTEX
  5
AB9
  8
BRACKET
 62
     7
 10
175.74412464000011
 20
378.92849062586271
 30
0.0
 42
-0.0101047990006038
  0
VERTEX
  5
ABA
  8
BRACKET
 62
     7
 10
175.7713479370002
 20
379.20284498486262
 30
0.0
  0
VERTEX
  5
ABB
  8
BRACKET
 62
     7
 10
175.7713479370002
 20
379.20284498486262
 30
0.0
  0
VERTEX
  5
ABC
  8
BRACKET
 62
     7
 10
175.77134793700071
 20
379.20284498486672
 30
0.0
 42
-0.0104631579997391
  0
VERTEX
  5
ABD
  8
BRACKET
 62
     7
 10
175.80917306800001
 20
379.47092094786262
 30
0.0
  0
VERTEX
  5
ABE
  8
BRACKET
 62
     7
 10
175.80917306800001
 20
379.47092094786262
 30
0.0
  0
VERTEX
  5
ABF
  8
BRACKET
 62
     7
 10
175.80917306800001
 20
379.47092094786262
 30
0.0
 42
-0.0109696010002362
  0
VERTEX
  5
AC0
  8
BRACKET
 62
     7
 10
175.8573151450002
 20
379.73069945786278
 30
0.0
  0
VERTEX
  5
AC1
  8
BRACKET
 62
     7
 10
175.8573151450002
 20
379.73069945786278
 30
0.0
  0
VERTEX
  5
AC2
  8
BRACKET
 62
     7
 10
175.8573151450002
 20
379.73069945786278
 30
0.0
 42
-0.0116470960005248
  0
VERTEX
  5
AC3
  8
BRACKET
 62
     7
 10
175.91541158100009
 20
379.98022395186263
 30
0.0
  0
VERTEX
  5
AC4
  8
BRACKET
 62
     7
 10
175.91541158100009
 20
379.98022395186263
 30
0.0
  0
VERTEX
  5
AC5
  8
BRACKET
 62
     7
 10
175.91541158100131
 20
379.98022395186729
 30
0.0
 42
-0.0125274429995063
  0
VERTEX
  5
AC6
  8
BRACKET
 62
     7
 10
175.98302481199991
 20
380.21761509786262
 30
0.0
  0
VERTEX
  5
AC7
  8
BRACKET
 62
     7
 10
175.98302481199991
 20
380.21761509786262
 30
0.0
  0
VERTEX
  5
AC8
  8
BRACKET
 62
     7
 10
175.98302481200091
 20
380.21761509786569
 30
0.0
 42
-0.0136534089995408
  0
VERTEX
  5
AC9
  8
BRACKET
 62
     7
 10
176.05964559800009
 20
380.44108494786252
 30
0.0
  0
VERTEX
  5
ACA
  8
BRACKET
 62
     7
 10
176.05964559800009
 20
380.44108494786252
 30
0.0
  0
VERTEX
  5
ACB
  8
BRACKET
 62
     7
 10
176.0596455980008
 20
380.44108494786451
 30
0.0
 42
-0.0150812849996074
  0
VERTEX
  5
ACC
  8
BRACKET
 62
     7
 10
176.14469685899999
 20
380.64895040386278
 30
0.0
  0
VERTEX
  5
ACD
  8
BRACKET
 62
     7
 10
176.14469685899999
 20
380.64895040386278
 30
0.0
  0
VERTEX
  5
ACE
  8
BRACKET
 62
     7
 10
176.14469685899999
 20
380.64895040386278
 30
0.0
 42
-0.0168833470002286
  0
VERTEX
  5
ACF
  8
BRACKET
 62
     7
 10
176.23753801700011
 20
380.83964589386278
 30
0.0
  0
VERTEX
  5
AD0
  8
BRACKET
 62
     7
 10
176.23753801700011
 20
380.83964589386278
 30
0.0
  0
VERTEX
  5
AD1
  8
BRACKET
 62
     7
 10
176.23753801700011
 20
380.83964589386278
 30
0.0
 42
-0.0191488540002119
  0
VERTEX
  5
AD2
  8
BRACKET
 62
     7
 10
176.33746982600019
 20
381.01173516686282
 30
0.0
  0
VERTEX
  5
AD3
  8
BRACKET
 62
     7
 10
176.33746982600019
 20
381.01173516686282
 30
0.0
  0
VERTEX
  5
AD4
  8
BRACKET
 62
     7
 10
176.3374698260009
 20
381.0117351668639
 30
0.0
 42
-0.0219801889997404
  0
VERTEX
  5
AD5
  8
BRACKET
 62
     7
 10
176.44373963200019
 20
381.1639221038626
 30
0.0
  0
VERTEX
  5
AD6
  8
BRACKET
 62
     7
 10
176.44373963200019
 20
381.1639221038626
 30
0.0
  0
VERTEX
  5
AD7
  8
BRACKET
 62
     7
 10
176.4437396320001
 20
381.1639221038626
 30
0.0
 42
-0.0254767699999769
  0
VERTEX
  5
AD8
  8
BRACKET
 62
     7
 10
176.5555470490001
 20
381.29506048586268
 30
0.0
  0
VERTEX
  5
AD9
  8
BRACKET
 62
     7
 10
176.5555470490001
 20
381.29506048586268
 30
0.0
  0
VERTEX
  5
ADA
  8
BRACKET
 62
     7
 10
176.5555470490001
 20
381.29506048586268
 30
0.0
 42
-0.0296929790000289
  0
VERTEX
  5
ADB
  8
BRACKET
 62
     7
 10
176.6720499810001
 20
381.4041626238627
 30
0.0
  0
VERTEX
  5
ADC
  8
BRACKET
 62
     7
 10
176.6720499810001
 20
381.4041626238627
 30
0.0
  0
VERTEX
  5
ADD
  8
BRACKET
 62
     7
 10
176.6720499810005
 20
381.40416262386321
 30
0.0
 42
-0.0345509549996307
  0
VERTEX
  5
ADE
  8
BRACKET
 62
     7
 10
176.79237096800011
 20
381.4904067978627
 30
0.0
  0
VERTEX
  5
ADF
  8
BRACKET
 62
     7
 10
176.79237096800011
 20
381.4904067978627
 30
0.0
  0
VERTEX
  5
AE0
  8
BRACKET
 62
     7
 10
176.79237096800099
 20
381.4904067978631
 30
0.0
 42
-0.0397012469992918
  0
VERTEX
  5
AE1
  8
BRACKET
 62
     7
 10
176.91560379399991
 20
381.55314344686258
 30
0.0
  0
VERTEX
  5
AE2
  8
BRACKET
 62
     7
 10
176.91560379399991
 20
381.55314344686258
 30
0.0
  0
VERTEX
  5
AE3
  8
BRACKET
 62
     7
 10
176.91560379399991
 20
381.55314344686258
 30
0.0
 42
-0.0443911849999393
  0
VERTEX
  5
AE4
  8
BRACKET
 62
     7
 10
177.0408203130003
 20
381.59190005886262
 30
0.0
  0
VERTEX
  5
AE5
  8
BRACKET
 62
     7
 10
177.0408203130003
 20
381.59190005886262
 30
0.0
  0
VERTEX
  5
AE6
  8
BRACKET
 62
     7
 10
177.0408203130003
 20
381.59190005886262
 30
0.0
  0
SEQEND
  5
AE7
  8
BRACKET
 62
     7
  0
LINE
  5
2BB
  8
BRACKET
 62
     7
 10
179.94121093800021
 20
381.59190005886262
 30
0.0
 11
179.94121093800021
 21
369.87315005886262
 31
0.0
  0
POLYLINE
  5
2BC
  8
BRACKET
 62
     7
 66
     1
 10
0.0
 20
0.0
 30
0.0
 70
   128
  0
VERTEX
  5
AE8
  8
BRACKET
 62
     7
 10
171.5857421880001
 20
379.01377505886262
 30
0.0
 42
-0.0118612490001103
  0
VERTEX
  5
AE9
  8
BRACKET
 62
     7
 10
171.7061270239999
 20
378.45341842886262
 30
0.0
  0
VERTEX
  5
AEA
  8
BRACKET
 62
     7
 10
171.7061270239999
 20
378.45341842886262
 30
0.0
  0
VERTEX
  5
AEB
  8
BRACKET
 62
     7
 10
171.70612702400001
 20
378.45341842886171
 30
0.0
 42
-0.0111726709999856
  0
VERTEX
  5
AEC
  8
BRACKET
 62
     7
 10
171.80360095000009
 20
377.8714835878626
 30
0.0
  0
VERTEX
  5
AED
  8
BRACKET
 62
     7
 10
171.80360095000009
 20
377.8714835878626
 30
0.0
  0
VERTEX
  5
AEE
  8
BRACKET
 62
     7
 10
171.80360095000009
 20
377.8714835878626
 30
0.0
 42
-0.0106649060001843
  0
VERTEX
  5
AEF
  8
BRACKET
 62
     7
 10
171.87739094300011
 20
377.27258560686261
 30
0.0
  0
VERTEX
  5
AF0
  8
BRACKET
 62
     7
 10
171.87739094300011
 20
377.27258560686261
 30
0.0
  0
VERTEX
  5
AF1
  8
BRACKET
 62
     7
 10
171.87739094300059
 20
377.27258560685749
 30
0.0
 42
-0.0103138129998138
  0
VERTEX
  5
AF2
  8
BRACKET
 62
     7
 10
171.92691180500009
 20
376.66147408086272
 30
0.0
  0
VERTEX
  5
AF3
  8
BRACKET
 62
     7
 10
171.92691180500009
 20
376.66147408086272
 30
0.0
  0
VERTEX
  5
AF4
  8
BRACKET
 62
     7
 10
171.92691180500009
 20
376.66147408086272
 30
0.0
 42
-0.0101031870003611
  0
VERTEX
  5
AF5
  8
BRACKET
 62
     7
 10
171.95177080900001
 20
376.04299546786262
 30
0.0
  0
VERTEX
  5
AF6
  8
BRACKET
 62
     7
 10
171.95177080900001
 20
376.04299546786262
 30
0.0
  0
VERTEX
  5
AF7
  8
BRACKET
 62
     7
 10
171.95177080900001
 20
376.04299546786262
 30
0.0
 42
-0.010023512000259
  0
VERTEX
  5
AF8
  8
BRACKET
 62
     7
 10
171.95177080900001
 20
375.42205465086261
 30
0.0
  0
VERTEX
  5
AF9
  8
BRACKET
 62
     7
 10
171.95177080900001
 20
375.42205465086261
 30
0.0
  0
VERTEX
  5
AFA
  8
BRACKET
 62
     7
 10
171.95177080900001
 20
375.42205465086261
 30
0.0
 42
-0.0100712290001787
  0
VERTEX
  5
AFB
  8
BRACKET
 62
     7
 10
171.92691180500009
 20
374.80357603786263
 30
0.0
  0
VERTEX
  5
AFC
  8
BRACKET
 62
     7
 10
171.92691180500009
 20
374.80357603786263
 30
0.0
  0
VERTEX
  5
AFD
  8
BRACKET
 62
     7
 10
171.92691180499969
 20
374.80357603785637
 30
0.0
 42
-0.0102484669997537
  0
VERTEX
  5
AFE
  8
BRACKET
 62
     7
 10
171.87739094300011
 20
374.19246451186262
 30
0.0
  0
VERTEX
  5
AFF
  8
BRACKET
 62
     7
 10
171.87739094300011
 20
374.19246451186262
 30
0.0
  0
VERTEX
  5
B00
  8
BRACKET
 62
     7
 10
171.87739094299991
 20
374.1924645118612
 30
0.0
 42
-0.0105632009999424
  0
VERTEX
  5
B01
  8
BRACKET
 62
     7
 10
171.80360095000009
 20
373.59356652986258
 30
0.0
  0
VERTEX
  5
B02
  8
BRACKET
 62
     7
 10
171.80360095000009
 20
373.59356652986258
 30
0.0
  0
VERTEX
  5
B03
  8
BRACKET
 62
     7
 10
171.80360095000009
 20
373.59356652986258
 30
0.0
 42
-0.0110298720000423
  0
VERTEX
  5
B04
  8
BRACKET
 62
     7
 10
171.7061270239999
 20
373.01163168886262
 30
0.0
  0
VERTEX
  5
B05
  8
BRACKET
 62
     7
 10
171.7061270239999
 20
373.01163168886262
 30
0.0
  0
VERTEX
  5
B06
  8
BRACKET
 62
     7
 10
171.70612702399939
 20
373.01163168886012
 30
0.0
 42
-0.0116704869998847
  0
VERTEX
  5
B07
  8
BRACKET
 62
     7
 10
171.5857421880001
 20
372.45127505886262
 30
0.0
  0
VERTEX
  5
B08
  8
BRACKET
 62
     7
 10
171.5857421880001
 20
372.45127505886262
 30
0.0
  0
SEQEND
  5
B09
  8
BRACKET
 62
     7
  0
POLYLINE
  5
2DF
  8
BRACKET
 62
     7
 66
     1
 10
0.0
 20
0.0
 30
0.0
 70
   128
  0
VERTEX
  5
B0A
  8
BRACKET
 62
     7
 10
167.6306640630001
 20
372.45127505886262
 30
0.0
 42
-0.0120624300001878
  0
VERTEX
  5
B0B
  8
BRACKET
 62
     7
 10
167.5129407340001
 20
372.91421798586271
 30
0.0
  0
VERTEX
  5
B0C
  8
BRACKET
 62
     7
 10
167.5129407340001
 20
372.91421798586271
 30
0.0
  0
VERTEX
  5
B0D
  8
BRACKET
 62
     7
 10
167.5129407340001
 20
372.91421798586271
 30
0.0
 42
-0.0112713600001552
  0
VERTEX
  5
B0E
  8
BRACKET
 62
     7
 10
167.413486788
 20
373.39786011386252
 30
0.0
  0
VERTEX
  5
B0F
  8
BRACKET
 62
     7
 10
167.413486788
 20
373.39786011386252
 30
0.0
  0
VERTEX
  5
B10
  8
BRACKET
 62
     7
 10
167.4134867879998
 20
373.39786011386337
 30
0.0
 42
-0.0106649540000017
  0
VERTEX
  5
B11
  8
BRACKET
 62
     7
 10
167.33303266999991
 20
373.89864930886262
 30
0.0
  0
VERTEX
  5
B12
  8
BRACKET
 62
     7
 10
167.33303266999991
 20
373.89864930886262
 30
0.0
  0
VERTEX
  5
B13
  8
BRACKET
 62
     7
 10
167.3330326699994
 20
373.8986493088666
 30
0.0
 42
-0.0102157609998217
  0
VERTEX
  5
B14
  8
BRACKET
 62
     7
 10
167.27216927900011
 20
374.41290749786259
 30
0.0
  0
VERTEX
  5
B15
  8
BRACKET
 62
     7
 10
167.27216927900011
 20
374.41290749786259
 30
0.0
  0
VERTEX
  5
B16
  8
BRACKET
 62
     7
 10
167.2721692789994
 20
374.41290749786867
 30
0.0
 42
-0.0099041029997782
  0
VERTEX
  5
B17
  8
BRACKET
 62
     7
 10
167.23134362799999
 20
374.93685768686271
 30
0.0
  0
VERTEX
  5
B18
  8
BRACKET
 62
     7
 10
167.23134362799999
 20
374.93685768686271
 30
0.0
  0
VERTEX
  5
B19
  8
BRACKET
 62
     7
 10
167.23134362799991
 20
374.93685768686578
 30
0.0
 42
-0.0097166989999313
  0
VERTEX
  5
B1A
  8
BRACKET
 62
     7
 10
167.21085556599991
 20
375.46665169486249
 30
0.0
  0
VERTEX
  5
B1B
  8
BRACKET
 62
     7
 10
167.21085556599991
 20
375.46665169486249
 30
0.0
  0
VERTEX
  5
B1C
  8
BRACKET
 62
     7
 10
167.21085556599979
 20
375.46665169486693
 30
0.0
 42
-0.0096457199998541
  0
VERTEX
  5
B1D
  8
BRACKET
 62
     7
 10
167.21085556599991
 20
375.99839842386262
 30
0.0
  0
VERTEX
  5
B1E
  8
BRACKET
 62
     7
 10
167.21085556599991
 20
375.99839842386262
 30
0.0
  0
VERTEX
  5
B1F
  8
BRACKET
 62
     7
 10
167.21085556600011
 20
375.99839842387109
 30
0.0
 42
-0.0096882339997114
  0
VERTEX
  5
B20
  8
BRACKET
 62
     7
 10
167.23134362799999
 20
376.52819243186281
 30
0.0
  0
VERTEX
  5
B21
  8
BRACKET
 62
     7
 10
167.23134362799999
 20
376.52819243186281
 30
0.0
  0
VERTEX
  5
B22
  8
BRACKET
 62
     7
 10
167.23134362799999
 20
376.52819243186281
 30
0.0
 42
-0.0098459960000613
  0
VERTEX
  5
B23
  8
BRACKET
 62
     7
 10
167.27216927900011
 20
377.05214261986259
 30
0.0
  0
VERTEX
  5
B24
  8
BRACKET
 62
     7
 10
167.27216927900011
 20
377.05214261986259
 30
0.0
  0
VERTEX
  5
B25
  8
BRACKET
 62
     7
 10
167.27216927900079
 20
377.05214261987038
 30
0.0
 42
-0.0101255719997041
  0
VERTEX
  5
B26
  8
BRACKET
 62
     7
 10
167.33303266999991
 20
377.56640080986261
 30
0.0
  0
VERTEX
  5
B27
  8
BRACKET
 62
     7
 10
167.33303266999991
 20
377.56640080986261
 30
0.0
  0
VERTEX
  5
B28
  8
BRACKET
 62
     7
 10
167.3330326700007
 20
377.56640080986813
 30
0.0
 42
-0.0105388059997707
  0
VERTEX
  5
B29
  8
BRACKET
 62
     7
 10
167.413486788
 20
378.06719000386278
 30
0.0
  0
VERTEX
  5
B2A
  8
BRACKET
 62
     7
 10
167.413486788
 20
378.06719000386278
 30
0.0
  0
VERTEX
  5
B2B
  8
BRACKET
 62
     7
 10
167.413486788
 20
378.06719000386278
 30
0.0
 42
-0.0111036670001636
  0
VERTEX
  5
B2C
  8
BRACKET
 62
     7
 10
167.5129407340001
 20
378.55083213186282
 30
0.0
  0
VERTEX
  5
B2D
  8
BRACKET
 62
     7
 10
167.5129407340001
 20
378.55083213186282
 30
0.0
  0
VERTEX
  5
B2E
  8
BRACKET
 62
     7
 10
167.5129407340001
 20
378.55083213186282
 30
0.0
 42
-0.0118455080002639
  0
VERTEX
  5
B2F
  8
BRACKET
 62
     7
 10
167.6306640630001
 20
379.01377505886262
 30
0.0
  0
VERTEX
  5
B30
  8
BRACKET
 62
     7
 10
167.6306640630001
 20
379.01377505886262
 30
0.0
  0
SEQEND
  5
B31
  8
BRACKET
 62
     7
  0
LINE
  5
308
  8
BRACKET
 62
     7
 10
163.4412109380003
 20
369.87315005886262
 30
0.0
 11
163.4412109380003
 21
381.59190005886262
 31
0.0
  0
LINE
  5
309
  8
BRACKET
 62
     7
 10
159.2224609380003
 20
369.87315005886262
 30
0.0
 11
159.2224609380003
 21
381.59190005886262
 31
0.0
  0
LINE
  5
30A
  8
BRACKET
 62
     7
 10
155.1912109380003
 20
381.59190005886262
 30
0.0
 11
150.97246093800021
 21
381.59190005886262
 31
0.0
  0
LINE
  5
30B
  8
BRACKET
 62
     7
 10
177.0408203130003
 20
381.59190005886262
 30
0.0
 11
178.94121093800021
 21
381.59190005886262
 31
0.0
  0
LINE
  5
30C
  8
BRACKET
 62
     7
 10
178.94121093800021
 20
375.14658755886262
 30
0.0
 11
177.0408203130003
 21
375.14658755886262
 31
0.0
  0
LINE
  5
30D
  8
BRACKET
 62
     7
 10
162.4412109380003
 20
378.81412228186269
 30
0.0
 11
160.22246093800021
 21
372.65092783686271
 31
0.0
  0
LINE
  5
30E
  8
BRACKET
 62
     7
 10
153.08183593800021
 20
380.59190005886262
 30
0.0
 11
153.08183593800021
 21
369.87315005886262
 31
0.0
  0
POLYLINE
  5
30F
  8
BRACKET
 62
     7
 66
     1
 10
0.0
 20
0.0
 30
0.0
 70
   128
  0
VERTEX
  5
B32
  8
BRACKET
 62
     7
 10
170.09733262300011
 20
381.47349327886252
 30
0.0
 42
-0.0378228090000135
  0
VERTEX
  5
B33
  8
BRACKET
 62
     7
 10
170.281967221
 20
381.36442695986261
 30
0.0
  0
VERTEX
  5
B34
  8
BRACKET
 62
     7
 10
170.281967221
 20
381.36442695986261
 30
0.0
  0
VERTEX
  5
B35
  8
BRACKET
 62
     7
 10
170.281967221
 20
381.36442695986261
 30
0.0
 42
-0.0329632950005399
  0
VERTEX
  5
B36
  8
BRACKET
 62
     7
 10
170.46180976900021
 20
381.22117678986262
 30
0.0
  0
VERTEX
  5
B37
  8
BRACKET
 62
     7
 10
170.46180976900021
 20
381.22117678986262
 30
0.0
  0
VERTEX
  5
B38
  8
BRACKET
 62
     7
 10
170.46180976900021
 20
381.22117678986262
 30
0.0
 42
-0.0284318459999812
  0
VERTEX
  5
B39
  8
BRACKET
 62
     7
 10
170.6355811630001
 20
381.04476161486258
 30
0.0
  0
VERTEX
  5
B3A
  8
BRACKET
 62
     7
 10
170.6355811630001
 20
381.04476161486258
 30
0.0
  0
VERTEX
  5
B3B
  8
BRACKET
 62
     7
 10
170.6355811630003
 20
381.0447616148623
 30
0.0
 42
-0.024505643000002
  0
VERTEX
  5
B3C
  8
BRACKET
 62
     7
 10
170.80204547800011
 20
380.83643616386257
 30
0.0
  0
VERTEX
  5
B3D
  8
BRACKET
 62
     7
 10
170.80204547800011
 20
380.83643616386257
 30
0.0
  0
VERTEX
  5
B3E
  8
BRACKET
 62
     7
 10
170.80204547800011
 20
380.83643616386257
 30
0.0
 42
-0.0212395200003076
  0
VERTEX
  5
B3F
  8
BRACKET
 62
     7
 10
170.96001876200009
 20
380.59768211986261
 30
0.0
  0
VERTEX
  5
B40
  8
BRACKET
 62
     7
 10
170.96001876200009
 20
380.59768211986261
 30
0.0
  0
VERTEX
  5
B41
  8
BRACKET
 62
     7
 10
170.96001876200151
 20
380.59768211986022
 30
0.0
 42
-0.0185808099996012
  0
VERTEX
  5
B42
  8
BRACKET
 62
     7
 10
171.10837745200001
 20
380.33019758786247
 30
0.0
  0
VERTEX
  5
B43
  8
BRACKET
 62
     7
 10
171.10837745200001
 20
380.33019758786247
 30
0.0
  0
VERTEX
  5
B44
  8
BRACKET
 62
     7
 10
171.10837745200021
 20
380.33019758786202
 30
0.0
 42
-0.0164402349999418
  0
VERTEX
  5
B45
  8
BRACKET
 62
     7
 10
171.24606636900009
 20
380.03588501286282
 30
0.0
  0
VERTEX
  5
B46
  8
BRACKET
 62
     7
 10
171.24606636900009
 20
380.03588501286282
 30
0.0
  0
VERTEX
  5
B47
  8
BRACKET
 62
     7
 10
171.24606636900091
 20
380.03588501286072
 30
0.0
 42
-0.0147263959997478
  0
VERTEX
  5
B48
  8
BRACKET
 62
     7
 10
171.37210621899999
 20
379.71683764986261
 30
0.0
  0
VERTEX
  5
B49
  8
BRACKET
 62
     7
 10
171.37210621899999
 20
379.71683764986261
 30
0.0
  0
VERTEX
  5
B4A
  8
BRACKET
 62
     7
 10
171.37210621899999
 20
379.71683764986261
 30
0.0
 42
-0.0133592270001176
  0
VERTEX
  5
B4B
  8
BRACKET
 62
     7
 10
171.48560056200009
 20
379.37532467786269
 30
0.0
  0
VERTEX
  5
B4C
  8
BRACKET
 62
     7
 10
171.48560056200009
 20
379.37532467786269
 30
0.0
  0
VERTEX
  5
B4D
  8
BRACKET
 62
     7
 10
171.48560056200009
 20
379.37532467786269
 30
0.0
 42
-0.0122733900000955
  0
VERTEX
  5
B4E
  8
BRACKET
 62
     7
 10
171.5857421880001
 20
379.01377505886262
 30
0.0
  0
VERTEX
  5
B4F
  8
BRACKET
 62
     7
 10
171.5857421880001
 20
379.01377505886262
 30
0.0
  0
SEQEND
  5
B50
  8
BRACKET
 62
     7
  0
POLYLINE
  5
32F
  8
BRACKET
 62
     7
 66
     1
 10
0.0
 20
0.0
 30
0.0
 70
   128
  0
VERTEX
  5
B51
  8
BRACKET
 62
     7
 10
167.6306640630001
 20
379.01377505886262
 30
0.0
 42
-0.0120332960005286
  0
VERTEX
  5
B52
  8
BRACKET
 62
     7
 10
167.7307513060002
 20
379.3751457038627
 30
0.0
  0
VERTEX
  5
B53
  8
BRACKET
 62
     7
 10
167.7307513060002
 20
379.3751457038627
 30
0.0
  0
VERTEX
  5
B54
  8
BRACKET
 62
     7
 10
167.73075130600139
 20
379.37514570386668
 30
0.0
 42
-0.0130561769996738
  0
VERTEX
  5
B55
  8
BRACKET
 62
     7
 10
167.844178086
 20
379.71650133386282
 30
0.0
  0
VERTEX
  5
B56
  8
BRACKET
 62
     7
 10
167.844178086
 20
379.71650133386282
 30
0.0
  0
VERTEX
  5
B57
  8
BRACKET
 62
     7
 10
167.844178086
 20
379.71650133386282
 30
0.0
 42
-0.0143458650000455
  0
VERTEX
  5
B58
  8
BRACKET
 62
     7
 10
167.97013849000021
 20
380.03541657286257
 30
0.0
  0
VERTEX
  5
B59
  8
BRACKET
 62
     7
 10
167.97013849000021
 20
380.03541657286257
 30
0.0
  0
VERTEX
  5
B5A
  8
BRACKET
 62
     7
 10
167.9701384900014
 20
380.03541657286559
 30
0.0
 42
-0.0159639099996421
  0
VERTEX
  5
B5B
  8
BRACKET
 62
     7
 10
168.1077375540001
 20
380.32962548786247
 30
0.0
  0
VERTEX
  5
B5C
  8
BRACKET
 62
     7
 10
168.1077375540001
 20
380.32962548786247
 30
0.0
  0
VERTEX
  5
B5D
  8
BRACKET
 62
     7
 10
168.10773755400041
 20
380.3296254878631
 30
0.0
 42
-0.017986604999923
  0
VERTEX
  5
B5E
  8
BRACKET
 62
     7
 10
168.2559976190002
 20
380.59703768586257
 30
0.0
  0
VERTEX
  5
B5F
  8
BRACKET
 62
     7
 10
168.2559976190002
 20
380.59703768586257
 30
0.0
  0
VERTEX
  5
B60
  8
BRACKET
 62
     7
 10
168.25599761900159
 20
380.5970376858649
 30
0.0
 42
-0.0205030409996385
  0
VERTEX
  5
B61
  8
BRACKET
 62
     7
 10
168.413865278
 20
380.83575316986258
 30
0.0
  0
VERTEX
  5
B62
  8
BRACKET
 62
     7
 10
168.413865278
 20
380.83575316986258
 30
0.0
  0
VERTEX
  5
B63
  8
BRACKET
 62
     7
 10
168.41386527800159
 20
380.83575316986492
 30
0.0
 42
-0.0236050309994253
  0
VERTEX
  5
B64
  8
BRACKET
 62
     7
 10
168.58021886
 20
381.04407583486261
 30
0.0
  0
VERTEX
  5
B65
  8
BRACKET
 62
     7
 10
168.58021886
 20
381.04407583486261
 30
0.0
  0
VERTEX
  5
B66
  8
BRACKET
 62
     7
 10
168.58021886
 20
381.04407583486261
 30
0.0
 42
-0.0273593629999653
  0
VERTEX
  5
B67
  8
BRACKET
 62
     7
 10
168.753876402
 20
381.22052552186273
 30
0.0
  0
VERTEX
  5
B68
  8
BRACKET
 62
     7
 10
168.753876402
 20
381.22052552186273
 30
0.0
  0
VERTEX
  5
B69
  8
BRACKET
 62
     7
 10
168.7538764020008
 20
381.22052552186318
 30
0.0
 42
-0.0317477439997048
  0
VERTEX
  5
B6A
  8
BRACKET
 62
     7
 10
168.933604046
 20
381.36384853286262
 30
0.0
  0
VERTEX
  5
B6B
  8
BRACKET
 62
     7
 10
168.933604046
 20
381.36384853286262
 30
0.0
  0
VERTEX
  5
B6C
  8
BRACKET
 62
     7
 10
168.933604046
 20
381.36384853286262
 30
0.0
 42
-0.0365625240002117
  0
VERTEX
  5
B6D
  8
BRACKET
 62
     7
 10
169.118124803
 20
381.47302654086269
 30
0.0
  0
VERTEX
  5
B6E
  8
BRACKET
 62
     7
 10
169.118124803
 20
381.47302654086269
 30
0.0
  0
VERTEX
  5
B6F
  8
BRACKET
 62
     7
 10
169.118124803
 20
381.47302654086269
 30
0.0
  0
SEQEND
  5
B70
  8
BRACKET
 62
     7
  0
POLYLINE
  5
350
  8
BRACKET
 62
     7
 66
     1
 10
0.0
 20
0.0
 30
0.0
 70
   128
  0
VERTEX
  5
B71
  8
BRACKET
 62
     7
 10
169.11812480299861
 20
369.99202357786322
 30
0.0
 42
-0.0377798319994492
  0
VERTEX
  5
B72
  8
BRACKET
 62
     7
 10
168.933604046
 20
370.10120158486262
 30
0.0
  0
VERTEX
  5
B73
  8
BRACKET
 62
     7
 10
168.933604046
 20
370.10120158486262
 30
0.0
  0
VERTEX
  5
B74
  8
BRACKET
 62
     7
 10
168.93360404599909
 20
370.10120158486308
 30
0.0
 42
-0.0329256259997235
  0
VERTEX
  5
B75
  8
BRACKET
 62
     7
 10
168.753876402
 20
370.24452459686262
 30
0.0
  0
VERTEX
  5
B76
  8
BRACKET
 62
     7
 10
168.753876402
 20
370.24452459686262
 30
0.0
  0
VERTEX
  5
B77
  8
BRACKET
 62
     7
 10
168.7538764019998
 20
370.24452459686279
 30
0.0
 42
-0.0284009050000026
  0
VERTEX
  5
B78
  8
BRACKET
 62
     7
 10
168.58021886
 20
370.42097428386279
 30
0.0
  0
VERTEX
  5
B79
  8
BRACKET
 62
     7
 10
168.58021886
 20
370.42097428386279
 30
0.0
  0
VERTEX
  5
B7A
  8
BRACKET
 62
     7
 10
168.58021886
 20
370.42097428386279
 30
0.0
 42
-0.0244810790000355
  0
VERTEX
  5
B7B
  8
BRACKET
 62
     7
 10
168.413865278
 20
370.6292969488627
 30
0.0
  0
VERTEX
  5
B7C
  8
BRACKET
 62
     7
 10
168.413865278
 20
370.6292969488627
 30
0.0
  0
VERTEX
  5
B7D
  8
BRACKET
 62
     7
 10
168.41386527799739
 20
370.62929694886628
 30
0.0
 42
-0.0212202859992826
  0
VERTEX
  5
B7E
  8
BRACKET
 62
     7
 10
168.2559976190002
 20
370.86801243286283
 30
0.0
  0
VERTEX
  5
B7F
  8
BRACKET
 62
     7
 10
168.2559976190002
 20
370.86801243286283
 30
0.0
  0
VERTEX
  5
B80
  8
BRACKET
 62
     7
 10
168.2559976190002
 20
370.86801243286283
 30
0.0
 42
-0.018565755000285
  0
VERTEX
  5
B81
  8
BRACKET
 62
     7
 10
168.1077375540001
 20
371.13542463086259
 30
0.0
  0
VERTEX
  5
B82
  8
BRACKET
 62
     7
 10
168.1077375540001
 20
371.13542463086259
 30
0.0
  0
VERTEX
  5
B83
  8
BRACKET
 62
     7
 10
168.1077375539997
 20
371.13542463086333
 30
0.0
 42
-0.0164283489998347
  0
VERTEX
  5
B84
  8
BRACKET
 62
     7
 10
167.97013849000021
 20
371.42963354586271
 30
0.0
  0
VERTEX
  5
B85
  8
BRACKET
 62
     7
 10
167.97013849000021
 20
371.42963354586271
 30
0.0
  0
VERTEX
  5
B86
  8
BRACKET
 62
     7
 10
167.97013849000021
 20
371.42963354586271
 30
0.0
 42
-0.0147168660000521
  0
VERTEX
  5
B87
  8
BRACKET
 62
     7
 10
167.844178086
 20
371.74854878486258
 30
0.0
  0
VERTEX
  5
B88
  8
BRACKET
 62
     7
 10
167.844178086
 20
371.74854878486258
 30
0.0
  0
VERTEX
  5
B89
  8
BRACKET
 62
     7
 10
167.844178086
 20
371.74854878486258
 30
0.0
 42
-0.0133514270000136
  0
VERTEX
  5
B8A
  8
BRACKET
 62
     7
 10
167.7307513060002
 20
372.0899044148627
 30
0.0
  0
VERTEX
  5
B8B
  8
BRACKET
 62
     7
 10
167.7307513060002
 20
372.0899044148627
 30
0.0
  0
VERTEX
  5
B8C
  8
BRACKET
 62
     7
 10
167.7307513060002
 20
372.0899044148627
 30
0.0
 42
-0.0122668420003458
  0
VERTEX
  5
B8D
  8
BRACKET
 62
     7
 10
167.6306640630001
 20
372.45127505886262
 30
0.0
  0
VERTEX
  5
B8E
  8
BRACKET
 62
     7
 10
167.6306640630001
 20
372.45127505886262
 30
0.0
  0
VERTEX
  5
B8F
  8
BRACKET
 62
     7
 10
167.6306640630001
 20
372.45127505886262
 30
0.0
  0
SEQEND
  5
B90
  8
BRACKET
 62
     7
  0
POLYLINE
  5
371
  8
BRACKET
 62
     7
 66
     1
 10
0.0
 20
0.0
 30
0.0
 70
   128
  0
VERTEX
  5
B91
  8
BRACKET
 62
     7
 10
171.58574218799859
 20
372.45127505885642
 30
0.0
 42
-0.0120332959996118
  0
VERTEX
  5
B92
  8
BRACKET
 62
     7
 10
171.48565494400009
 20
372.0899044148627
 30
0.0
  0
VERTEX
  5
B93
  8
BRACKET
 62
     7
 10
171.48565494400009
 20
372.0899044148627
 30
0.0
  0
VERTEX
  5
B94
  8
BRACKET
 62
     7
 10
171.48565494400009
 20
372.0899044148627
 30
0.0
 42
-0.0130561770000413
  0
VERTEX
  5
B95
  8
BRACKET
 62
     7
 10
171.37222816400001
 20
371.74854878486258
 30
0.0
  0
VERTEX
  5
B96
  8
BRACKET
 62
     7
 10
171.37222816400001
 20
371.74854878486258
 30
0.0
  0
VERTEX
  5
B97
  8
BRACKET
 62
     7
 10
171.3722281639989
 20
371.74854878485951
 30
0.0
 42
-0.0143458649996911
  0
VERTEX
  5
B98
  8
BRACKET
 62
     7
 10
171.24626776000011
 20
371.42963354586271
 30
0.0
  0
VERTEX
  5
B99
  8
BRACKET
 62
     7
 10
171.24626776000011
 20
371.42963354586271
 30
0.0
  0
VERTEX
  5
B9A
  8
BRACKET
 62
     7
 10
171.24626776000011
 20
371.42963354586271
 30
0.0
 42
-0.0159639100003021
  0
VERTEX
  5
B9B
  8
BRACKET
 62
     7
 10
171.10866869600019
 20
371.13542463086259
 30
0.0
  0
VERTEX
  5
B9C
  8
BRACKET
 62
     7
 10
171.10866869600019
 20
371.13542463086259
 30
0.0
  0
VERTEX
  5
B9D
  8
BRACKET
 62
     7
 10
171.108668695999
 20
371.13542463086043
 30
0.0
 42
-0.0179866049997233
  0
VERTEX
  5
B9E
  8
BRACKET
 62
     7
 10
170.96040863100029
 20
370.86801243286283
 30
0.0
  0
VERTEX
  5
B9F
  8
BRACKET
 62
     7
 10
170.96040863100029
 20
370.86801243286283
 30
0.0
  0
VERTEX
  5
BA0
  8
BRACKET
 62
     7
 10
170.96040863100029
 20
370.86801243286283
 30
0.0
 42
-0.0205030410000392
  0
VERTEX
  5
BA1
  8
BRACKET
 62
     7
 10
170.80254097200009
 20
370.6292969488627
 30
0.0
  0
VERTEX
  5
BA2
  8
BRACKET
 62
     7
 10
170.80254097200009
 20
370.6292969488627
 30
0.0
  0
VERTEX
  5
BA3
  8
BRACKET
 62
     7
 10
170.80254097199941
 20
370.62929694886191
 30
0.0
 42
-0.0236050309997977
  0
VERTEX
  5
BA4
  8
BRACKET
 62
     7
 10
170.6361873900002
 20
370.42097428386279
 30
0.0
  0
VERTEX
  5
BA5
  8
BRACKET
 62
     7
 10
170.6361873900002
 20
370.42097428386279
 30
0.0
  0
VERTEX
  5
BA6
  8
BRACKET
 62
     7
 10
170.63618739000009
 20
370.42097428386251
 30
0.0
 42
-0.0273593629999258
  0
VERTEX
  5
BA7
  8
BRACKET
 62
     7
 10
170.46252984800009
 20
370.24452459686262
 30
0.0
  0
VERTEX
  5
BA8
  8
BRACKET
 62
     7
 10
170.46252984800009
 20
370.24452459686262
 30
0.0
  0
VERTEX
  5
BA9
  8
BRACKET
 62
     7
 10
170.46252984800009
 20
370.24452459686262
 30
0.0
 42
-0.0317477440001373
  0
VERTEX
  5
BAA
  8
BRACKET
 62
     7
 10
170.28280220400001
 20
370.10120158486262
 30
0.0
  0
VERTEX
  5
BAB
  8
BRACKET
 62
     7
 10
170.28280220400001
 20
370.10120158486262
 30
0.0
  0
VERTEX
  5
BAC
  8
BRACKET
 62
     7
 10
170.28280220400001
 20
370.10120158486262
 30
0.0
 42
-0.0365625239999846
  0
VERTEX
  5
BAD
  8
BRACKET
 62
     7
 10
170.09828144700009
 20
369.9920235778626
 30
0.0
  0
VERTEX
  5
BAE
  8
BRACKET
 62
     7
 10
170.09828144700009
 20
369.9920235778626
 30
0.0
  0
SEQEND
  5
BAF
  8
BRACKET
 62
     7
  0
LINE
  5
391
  8
BRACKET
 62
     7
 10
177.16816406300009
 20
374.14658755886262
 30
0.0
 11
175.45878906300021
 21
369.87315005886262
 31
0.0
  0
CIRCLE
  5
392
  8
BRACKET
 62
     7
 10
400.00000000000011
 20
420.87314579386248
 30
0.0
 40
4.5999999999999091
  0
CIRCLE
  5
393
  8
BRACKET
 62
     7
 10
400.00000000000011
 20
280.87314579386259
 30
0.0
 40
4.5999999999999091
  0
CIRCLE
  5
394
  8
BRACKET
 62
     7
 10
280.00000000000028
 20
420.87314579386248
 30
0.0
 40
4.5999999999999091
  0
CIRCLE
  5
395
  8
BRACKET
 62
     7
 10
280.00000000000028
 20
280.87314579386259
 30
0.0
 40
4.5999999999999091
  0
CIRCLE
  5
396
  8
BRACKET
 62
     7
 10
520.0
 20
280.87314579386259
 30
0.0
 40
4.5999999999999091
  0
CIRCLE
  5
397
  8
BRACKET
 62
     7
 10
520.0
 20
420.87314579386248
 30
0.0
 40
4.5999999999999091
  0
CIRCLE
  5
398
  8
BRACKET
 62
     7
 10
160.0000000000002
 20
420.87314579386248
 30
0.0
 40
6.5
  0
CIRCLE
  5
399
  8
BRACKET
 62
     7
 10
160.0000000000002
 20
280.87314579386259
 30
0.0
 40
6.5
  0
CIRCLE
  5
39A
  8
BRACKET
 62
     7
 10
640.0
 20
420.87314579386248
 30
0.0
 40
6.5
  0
CIRCLE
  5
39B
  8
BRACKET
 62
     7
 10
640.0
 20
280.87314579386259
 30
0.0
 40
6.5
  0
CIRCLE
  5
39C
  8
BRACKET
 62
     7
 10
620.0
 20
280.87314579386259
 30
0.0
 40
4.5999999999999091
  0
CIRCLE
  5
39D
  8
BRACKET
 62
     7
 10
620.0
 20
420.87314579386248
 30
0.0
 40
4.5999999999999091
  0
CIRCLE
  5
39E
  8
BRACKET
 62
     7
 10
180.0000000000002
 20
420.87314579386248
 30
0.0
 40
4.5999999999999091
  0
CIRCLE
  5
39F
  8
BRACKET
 62
     7
 10
180.0000000000002
 20
280.87314579386259
 30
0.0
 40
4.5999999999999091
  0
LINE
  5
3A0
  8
BRACKET
 62
     7
 10
137.0499999999999
 20
-85.0
 30
0.0
 11
134.44999999999999
 21
-85.0
 31
0.0
  0
LINE
  5
3A1
  8
BRACKET
 62
     7
 10
665.55000000000007
 20
-85.0
 30
0.0
 11
662.95000000000005
 21
-85.0
 31
0.0
  0
LINE
  5
3A2
  8
BRACKET
 62
     7
 10
662.95000000000005
 20
120.0
 30
0.0
 11
137.0499999999999
 21
120.0
 31
0.0
  0
LINE
  5
3A3
  8
BRACKET
 62
     7
 10
137.0499999999999
 20
-85.0
 30
0.0
 11
137.0499999999999
 21
135.0
 31
0.0
  0
LINE
  5
3A4
  8
BRACKET
 62
     7
 10
662.95000000000005
 20
-85.0
 30
0.0
 11
662.95000000000005
 21
135.0
 31
0.0
  0
LINE
  5
3A5
  8
BRACKET
 62
     7
 10
665.55000000000007
 20
-85.0
 30
0.0
 11
665.55000000000007
 21
132.40000000000001
 31
0.0
  0
ARC
  5
3A6
  8
BRACKET
 62
     7
 10
662.95000000000005
 20
132.40000000000001
 30
0.0
 40
2.5999999999999082
 50
0.0
 51
90.0
  0
LINE
  5
3A7
  8
BRACKET
 62
     7
 10
134.44999999999999
 20
-85.0
 30
0.0
 11
134.44999999999999
 21
132.40000000000001
 31
0.0
  0
LINE
  5
3A8
  8
BRACKET
 62
     7
 10
662.95000000000005
 20
135.0
 30
0.0
 11
137.0499999999999
 21
135.0
 31
0.0
  0
ARC
  5
3A9
  8
BRACKET
 62
     7
 10
137.0499999999999
 20
132.40000000000001
 30
0.0
 40
2.600000000000021
 50
90.0
 51
180.0
  0
LINE
  5
3AA
  8
BRACKET
 62
     7
 10
662.95000000000005
 20
132.40000000000001
 30
0.0
 11
137.0499999999999
 21
132.40000000000001
 31
0.0
  0
LINE
  5
3AB
  8
BRACKET
 62
     7
 10
137.0499999999999
 20
71.866188286000011
 30
0.0
 11
139.65000000000001
 21
71.866188286000011
 31
0.0
  0
LINE
  5
3AC
  8
BRACKET
 62
     7
 10
139.65000000000001
 20
-68.5
 30
0.0
 11
139.65000000000001
 21
71.866188286000011
 31
0.0
  0
LINE
  5
3AD
  8
BRACKET
 62
     7
 10
137.0499999999999
 20
-68.5
 30
0.0
 11
139.65000000000001
 21
-68.5
 31
0.0
  0
LINE
  5
3AE
  8
BRACKET
 62
     7
 10
662.95000000000005
 20
71.866188286000011
 30
0.0
 11
660.35000000000014
 21
71.866188286000011
 31
0.0
  0
LINE
  5
3AF
  8
BRACKET
 62
     7
 10
660.35000000000014
 20
-68.5
 30
0.0
 11
660.35000000000014
 21
71.866188286000011
 31
0.0
  0
LINE
  5
3B0
  8
BRACKET
 62
     7
 10
662.95000000000005
 20
-68.5
 30
0.0
 11
660.35000000000014
 21
-68.5
 31
0.0
  0
ARC
  5
3B1
  8
BRACKET
 62
     7
 10
-156.41831122100001
 20
-481.64862839599988
 30
0.0
 40
3.5999999999999241
 50
39.999736906999011
 51
220.00045569
  0
ARC
  5
3B2
  8
BRACKET
 62
     7
 10
-220.0
 20
-535.0
 30
0.0
 40
79.399999999999807
 50
359.99997796700001
 51
39.999979339000049
  0
CIRCLE
  5
3B3
  8
BRACKET
 62
     7
 10
-220.0
 20
-535.0
 30
0.0
 40
3.5999999999999082
  0
LINE
  5
3B4
  8
BRACKET
 62
     7
 10
-115.0
 20
-540.0
 30
0.0
 11
-115.0
 21
-539.34823888000005
 31
0.0
  0
LINE
  5
3B5
  8
BRACKET
 62
     7
 10
-115.0
 20
-352.59999999999991
 30
0.0
 11
-285.0
 21
-352.59999999999991
 31
0.0
  0
LINE
  5
3B6
  8
BRACKET
 62
     7
 10
-115.0
 20
-350.0
 30
0.0
 11
-285.0
 21
-350.0
 31
0.0
  0
LINE
  5
3B7
  8
BRACKET
 62
     7
 10
-285.0
 20
-365.0
 30
0.0
 11
-287.60000000000008
 21
-365.0
 31
0.0
  0
LINE
  5
3B8
  8
BRACKET
 62
     7
 10
-287.60000000000008
 20
-365.0
 30
0.0
 11
-287.60000000000008
 21
-352.59999999999991
 31
0.0
  0
ARC
  5
3B9
  8
BRACKET
 62
     7
 10
-285.0
 20
-352.59999999999991
 30
0.0
 40
2.5999999999999082
 50
90.0
 51
180.0
  0
LINE
  5
3BA
  8
BRACKET
 62
     7
 10
-115.0
 20
-365.0
 30
0.0
 11
-112.40000000000011
 21
-365.0
 31
0.0
  0
LINE
  5
3BB
  8
BRACKET
 62
     7
 10
-112.40000000000011
 20
-365.0
 30
0.0
 11
-112.40000000000011
 21
-352.59999999999991
 31
0.0
  0
ARC
  5
3BC
  8
BRACKET
 62
     7
 10
-115.0
 20
-352.59999999999991
 30
0.0
 40
2.5999999999999082
 50
0.0
 51
90.0
  0
LINE
  5
3BD
  8
BRACKET
 62
     7
 10
-269.22950000000009
 20
-383.46329573600002
 30
0.0
 11
-269.22950000000009
 21
-380.96329573600002
 31
0.0
  0
LINE
  5
3BE
  8
BRACKET
 62
     7
 10
-269.22950000000009
 20
-383.46329573600002
 30
0.0
 11
-274.2295000000002
 21
-378.46329573599991
 31
0.0
  0
LINE
  5
3BF
  8
BRACKET
 62
     7
 10
-266.72950000000009
 20
-380.96329573600002
 30
0.0
 11
-269.22950000000009
 21
-380.96329573600002
 31
0.0
  0
LINE
  5
3C0
  8
BRACKET
 62
     7
 10
-274.2295000000002
 20
-378.46329573599991
 30
0.0
 11
-269.22950000000009
 21
-373.46329573600002
 31
0.0
  0
LINE
  5
3C1
  8
BRACKET
 62
     7
 10
-266.72950000000009
 20
-375.96329573600002
 30
0.0
 11
-269.22950000000009
 21
-375.96329573600002
 31
0.0
  0
LINE
  5
3C2
  8
BRACKET
 62
     7
 10
-269.22950000000009
 20
-375.96329573600002
 30
0.0
 11
-269.22950000000009
 21
-373.46329573600002
 31
0.0
  0
LINE
  5
3C3
  8
BRACKET
 62
     7
 10
-266.72950000000009
 20
-380.96329573600002
 30
0.0
 11
-266.72950000000009
 21
-375.96329573600002
 31
0.0
  0
TEXT
  5
3C4
  8
BRACKET
 62
     7
 10
-263.2795000000001
 20
-381.28329573600013
 30
0.0
 40
5.0
  1
ＦＲＯＮＴ
 41
0.7
  0
LINE
  5
3C5
  8
BRACKET
 62
     7
 10
-285.0
 20
-443.83829031899978
 30
0.0
 11
-285.0
 21
-350.0
 31
0.0
  0
ARC
  5
3C6
  8
BRACKET
 62
     7
 10
-255.0
 20
-443.83829031899978
 30
0.0
 40
30.0
 50
180.0
 51
200.00000000000031
  0
LINE
  5
3C7
  8
BRACKET
 62
     7
 10
-248.1907798500001
 20
-550.26060093100023
 30
0.0
 11
-283.19077862400007
 21
-454.09889461900002
 31
0.0
  0
ARC
  5
3C8
  8
BRACKET
 62
     7
 10
-220.0
 20
-540.0
 30
0.0
 40
30.000000000000099
 50
199.99999315400021
 51
270.00000728599969
  0
LINE
  5
3C9
  8
BRACKET
 62
     7
 10
-219.9999961850001
 20
-570.0
 30
0.0
 11
-145.0
 21
-570.0
 31
0.0
  0
ARC
  5
3CA
  8
BRACKET
 62
     7
 10
-137.0
 20
-535.0
 30
0.0
 40
3.6000000000001111
 50
180.00048570200079
 51
0.0000607139976694
  0
ARC
  5
3CB
  8
BRACKET
 62
     7
 10
-145.0
 20
-540.0
 30
0.0
 40
30.0
 50
270.0
 51
0.0
  0
LINE
  5
3CC
  8
BRACKET
 62
     7
 10
-115.0
 20
-508.6346330670001
 30
0.0
 11
-115.0
 21
-350.0
 31
0.0
  0
ARC
  5
3CD
  8
BRACKET
 62
     7
 10
-120.0
 20
-508.6346330670001
 30
0.0
 40
4.9999999999998721
 50
280.00000000000011
 51
0.0
  0
LINE
  5
3CE
  8
BRACKET
 62
     7
 10
-115.0
 20
-540.0
 30
0.0
 11
-115.0
 21
-526.09997079100003
 31
0.0
  0
ARC
  5
3CF
  8
BRACKET
 62
     7
 10
-120.0
 20
-526.09997079100003
 30
0.0
 40
5.0
 50
0.0
 51
100.0000000000001
  0
LINE
  5
3D0
  8
BRACKET
 62
     7
 10
-135.414503895
 20
-516.42975905699996
 30
0.0
 11
-119.131759112
 21
-513.55867183199985
 31
0.0
  0
ARC
  5
3D1
  8
BRACKET
 62
     7
 10
-220.0
 20
-535.0
 30
0.0
 40
86.59999999999998
 50
12.382497231000031
 51
39.9999890630001
  0
LINE
  5
3D2
  8
BRACKET
 62
     7
 10
-134.16423701599999
 20
-523.52037487899997
 30
0.0
 11
-120.8682408880002
 21
-521.17593202600005
 31
0.0
  0
ARC
  5
3D3
  8
BRACKET
 62
     7
 10
-220.0
 20
-535.0
 30
0.0
 40
86.59999999999998
 50
0.0000025609999435
 51
7.6175027690000121
  0
CIRCLE
  5
3D4
  8
BRACKET
 62
     7
 10
-233.89185421299999
 20
-456.21537975899997
 30
0.0
 40
3.0999999999999082
  0
CIRCLE
  5
3D5
  8
BRACKET
 62
     7
 10
-237.17280958400011
 20
-446.6535534890001
 30
0.0
 40
3.100000000000136
  0
CIRCLE
  5
3D6
  8
BRACKET
 62
     7
 10
-240.7911690820001
 20
-437.18523992600001
 30
0.0
 40
3.100000000000136
  0
CIRCLE
  5
3D7
  8
BRACKET
 62
     7
 10
-244.74461597800001
 20
-427.81929287299999
 30
0.0
 40
3.0999999999999082
  0
CIRCLE
  5
3D8
  8
BRACKET
 62
     7
 10
-249.03062747200011
 20
-418.56451284699989
 30
0.0
 40
3.100000000000136
  0
CIRCLE
  5
3D9
  8
BRACKET
 62
     7
 10
-240.70552360799999
 20
-457.72593389699989
 30
0.0
 40
3.0999999999999082
  0
CIRCLE
  5
3DA
  8
BRACKET
 62
     7
 10
-244.80736202400001
 20
-448.486447365
 30
0.0
 40
3.0999999999999082
  0
CIRCLE
  5
3DB
  8
BRACKET
 62
     7
 10
-247.36161146600011
 20
-459.8245903369999
 30
0.0
 40
3.100000000000136
  0
CIRCLE
  5
3DC
  8
BRACKET
 62
     7
 10
-249.23717047200009
 20
-439.3695244029999
 30
0.0
 40
3.100000000000136
  0
CIRCLE
  5
3DD
  8
BRACKET
 62
     7
 10
-253.99186938099999
 20
-430.38378320699968
 30
0.0
 40
3.0999999999999082
  0
CIRCLE
  5
3DE
  8
BRACKET
 62
     7
 10
-259.06817853500002
 20
-421.5377709280001
 30
0.0
 40
3.0999999999999082
  0
CIRCLE
  5
3DF
  8
BRACKET
 62
     7
 10
-206.10814578700001
 20
-456.21537975899997
 30
0.0
 40
3.100000000000136
  0
CIRCLE
  5
3E0
  8
BRACKET
 62
     7
 10
-213.02754057999999
 20
-455.30442415200002
 30
0.0
 40
3.0999999999999082
  0
CIRCLE
  5
3E1
  8
BRACKET
 62
     7
 10
-213.7219173630001
 20
-445.21923547599999
 30
0.0
 40
3.100000000000136
  0
CIRCLE
  5
3E2
  8
BRACKET
 62
     7
 10
-214.76640437600011
 20
-435.13704652400008
 30
0.0
 40
3.100000000000136
  0
CIRCLE
  5
3E3
  8
BRACKET
 62
     7
 10
-216.161055363
 20
-425.06700902799997
 30
0.0
 40
3.0999999999999082
  0
CIRCLE
  5
3E4
  8
BRACKET
 62
     7
 10
-217.905711228
 20
-415.01827658100001
 30
0.0
 40
3.0999999999999082
  0
CIRCLE
  5
3E5
  8
BRACKET
 62
     7
 10
-220.0
 20
-455.0
 30
0.0
 40
3.0999999999999082
  0
CIRCLE
  5
3E6
  8
BRACKET
 62
     7
 10
-221.57071657900019
 20
-445.01370743599978
 30
0.0
 40
3.100000000000136
  0
CIRCLE
  5
3E7
  8
BRACKET
 62
     7
 10
-223.48994966999999
 20
-435.06091729799999
 30
0.0
 40
3.0999999999999082
  0
CIRCLE
  5
3E8
  8
BRACKET
 62
     7
 10
-225.7569551870001
 20
-425.1507511769999
 30
0.0
 40
3.100000000000136
  0
CIRCLE
  5
3E9
  8
BRACKET
 62
     7
 10
-228.37077684900009
 20
-415.29231396799997
 30
0.0
 40
3.0999999999999082
  0
CIRCLE
  5
3EA
  8
BRACKET
 62
     7
 10
-226.97245941999989
 20
-455.30442415200002
 30
0.0
 40
3.0999999999999082
  0
CIRCLE
  5
3EB
  8
BRACKET
 62
     7
 10
-229.40756169400021
 20
-445.4930294169996
 30
0.0
 40
3.100000000000136
  0
CIRCLE
  5
3EC
  8
BRACKET
 62
     7
 10
-232.1869343410001
 20
-435.74538483600008
 30
0.0
 40
3.100000000000136
  0
CIRCLE
  5
3ED
  8
BRACKET
 62
     7
 10
-235.309041106
 20
-426.07051243799998
 30
0.0
 40
3.0999999999999082
  0
CIRCLE
  5
3EE
  8
BRACKET
 62
     7
 10
-238.77213580500009
 20
-416.47739912799972
 30
0.0
 40
3.0999999999999082
  0
CIRCLE
  5
3EF
  8
BRACKET
 62
     7
 10
-186.92351730199979
 20
-419.64859648699968
 30
0.0
 40
3.0999999999999082
  0
CIRCLE
  5
3F0
  8
BRACKET
 62
     7
 10
-197.10292055500011
 20
-417.204737986
 30
0.0
 40
3.0999999999999082
  0
CIRCLE
  5
3F1
  8
BRACKET
 62
     7
 10
-206.59437222500009
 20
-425.81992331900011
 30
0.0
 40
3.100000000000136
  0
CIRCLE
  5
3F2
  8
BRACKET
 62
     7
 10
-207.456584408
 20
-415.65737255500022
 30
0.0
 40
3.0999999999999082
  0
CIRCLE
  5
3F3
  8
BRACKET
 62
     7
 10
-187.83911248000001
 20
-429.80647684399997
 30
0.0
 40
3.100000000000136
  0
CIRCLE
  5
3F4
  8
BRACKET
 62
     7
 10
-197.5048945660001
 20
-437.5629935209999
 30
0.0
 40
3.100000000000136
  0
CIRCLE
  5
3F5
  8
BRACKET
 62
     7
 10
-197.12971400999999
 20
-427.40376391900008
 30
0.0
 40
3.100000000000136
  0
CIRCLE
  5
3F6
  8
BRACKET
 62
     7
 10
-189.09830056300001
 20
-439.89434836999999
 30
0.0
 40
3.100000000000136
  0
CIRCLE
  5
3F7
  8
BRACKET
 62
     7
 10
-190.69886609900001
 20
-449.90332819600002
 30
0.0
 40
3.0999999999999082
  0
CIRCLE
  5
3F8
  8
BRACKET
 62
     7
 10
-192.63838853400009
 20
-459.8245903369999
 30
0.0
 40
3.100000000000136
  0
CIRCLE
  5
3F9
  8
BRACKET
 62
     7
 10
-199.29447639199989
 20
-457.72593389699989
 30
0.0
 40
3.0999999999999082
  0
CIRCLE
  5
3FA
  8
BRACKET
 62
     7
 10
-198.22702939600001
 20
-447.67338463499999
 30
0.0
 40
3.100000000000136
  0
CIRCLE
  5
3FB
  8
BRACKET
 62
     7
 10
-205.9208981460001
 20
-446.10804934599992
 30
0.0
 40
3.100000000000136
  0
CIRCLE
  5
3FC
  8
BRACKET
 62
     7
 10
-206.08268990400009
 20
-435.97319312500002
 30
0.0
 40
3.0999999999999082
  0
TEXT
  5
3FD
  8
BRACKET
 62
     7
 10
-246.97442741600949
 20
-468.75638677435938
 30
0.0
 40
4.2333333333333316
  1
4
 41
0.7
 11
-246.97442741600949
 21
-464.52305344102598
 31
0.0
 73
     3
  0
TEXT
  5
3FE
  8
BRACKET
 62
     7
 10
-246.97442741600949
 20
-474.04805344102613
 30
0.0
 40
4.2333333333333316
  1
0
 41
0.7
 11
-246.97442741600949
 21
-469.81472010769278
 31
0.0
 73
     3
  0
TEXT
  5
3FF
  8
BRACKET
 62
     7
 10
-240.73434504920959
 20
-466.78889636161023
 30
0.0
 40
4.2333333333333316
  1
3
 41
0.7
 11
-240.73434504920959
 21
-462.55556302827682
 31
0.0
 73
     3
  0
TEXT
  5
400
  8
BRACKET
 62
     7
 10
-240.73434504920959
 20
-472.08056302827703
 30
0.0
 40
4.2333333333333316
  1
5
 41
0.7
 11
-240.73434504920959
 21
-467.84722969494362
 31
0.0
 73
     3
  0
TEXT
  5
401
  8
BRACKET
 62
     7
 10
-234.34652999135969
 20
-465.37275185736422
 30
0.0
 40
4.2333333333333316
  1
3
 41
0.7
 11
-234.34652999135969
 21
-461.13941852403087
 31
0.0
 73
     3
  0
TEXT
  5
402
  8
BRACKET
 62
     7
 10
-234.34652999135969
 20
-470.66441852403108
 30
0.0
 40
4.2333333333333316
  1
0
 41
0.7
 11
-234.34652999135969
 21
-466.43108519069779
 31
0.0
 73
     3
  0
TEXT
  5
403
  8
BRACKET
 62
     7
 10
-227.85959737286251
 20
-464.51873097645159
 30
0.0
 40
4.2333333333333316
  1
2
 41
0.7
 11
-227.85959737286251
 21
-460.2853976431183
 31
0.0
 73
     3
  0
TEXT
  5
404
  8
BRACKET
 62
     7
 10
-227.85959737286251
 20
-469.81039764311822
 30
0.0
 40
4.2333333333333316
  1
5
 41
0.7
 11
-227.85959737286251
 21
-465.57706430978487
 31
0.0
 73
     3
  0
TEXT
  5
405
  8
BRACKET
 62
     7
 10
-221.3229166666666
 20
-464.23333333333329
 30
0.0
 40
4.2333333333333316
  1
2
 41
0.7
 11
-221.3229166666666
 21
-460.0
 31
0.0
 73
     3
  0
TEXT
  5
406
  8
BRACKET
 62
     7
 10
-221.3229166666666
 20
-469.52499999999992
 30
0.0
 40
4.2333333333333316
  1
0
 41
0.7
 11
-221.3229166666666
 21
-465.29166666666657
 31
0.0
 73
     3
  0
TEXT
  5
407
  8
BRACKET
 62
     7
 10
-214.7862359604708
 20
-464.51873097645188
 30
0.0
 40
4.2333333333333316
  1
1
 41
0.7
 11
-214.7862359604708
 21
-460.28539764311859
 31
0.0
 73
     3
  0
TEXT
  5
408
  8
BRACKET
 62
     7
 10
-214.7862359604708
 20
-469.81039764311879
 30
0.0
 40
4.2333333333333316
  1
5
 41
0.7
 11
-214.7862359604708
 21
-465.5770643097855
 31
0.0
 73
     3
  0
TEXT
  5
409
  8
BRACKET
 62
     7
 10
-208.2993033419736
 20
-465.37275185736422
 30
0.0
 40
4.2333333333333316
  1
1
 41
0.7
 11
-208.2993033419736
 21
-461.13941852403087
 31
0.0
 73
     3
  0
TEXT
  5
40A
  8
BRACKET
 62
     7
 10
-208.29930334197351
 20
-470.66441852403079
 30
0.0
 40
4.2333333333333316
  1
0
 41
0.7
 11
-208.29930334197351
 21
-466.43108519069739
 31
0.0
 73
     3
  0
TEXT
  5
40B
  8
BRACKET
 62
     7
 10
-201.91148828412381
 20
-466.78889636161063
 30
0.0
 40
4.2333333333333316
  1
5
 41
0.7
 11
-201.91148828412381
 21
-462.55556302827728
 31
0.0
 73
     3
  0
TEXT
  5
40C
  8
BRACKET
 62
     7
 10
-195.67140591732431
 20
-468.75638677436041
 30
0.0
 40
4.2333333333333316
  1
0
 41
0.7
 11
-195.67140591732431
 21
-464.523053441027
 31
0.0
 73
     3
  0
TEXT
  5
40D
  8
BRACKET
 62
     7
 10
-182.4273100340001
 20
-422.89245439400008
 30
0.0
 40
4.2333333333333316
  1
4
 41
0.7
 11
-182.4273100340001
 21
-418.65912106066679
 31
0.0
 73
     3
  0
TEXT
  5
40E
  8
BRACKET
 62
     7
 10
-183.34290521200001
 20
-433.05033475099992
 30
0.0
 40
4.2333333333333316
  1
3
 41
0.7
 11
-183.34290521200001
 21
-428.81700141766657
 31
0.0
 73
     3
  0
TEXT
  5
40F
  8
BRACKET
 62
     7
 10
-184.60209329400001
 20
-443.13820627699999
 30
0.0
 40
4.2333333333333316
  1
2
 41
0.7
 11
-184.60209329400001
 21
-438.9048729436667
 31
0.0
 73
     3
  0
TEXT
  5
410
  8
BRACKET
 62
     7
 10
-186.20265882999999
 20
-453.14718610300008
 30
0.0
 40
4.2333333333333316
  1
1
 41
0.7
 11
-186.20265882999999
 21
-448.91385276966679
 31
0.0
 73
     3
  0
ARC
  5
411
  8
BRACKET
 62
     7
 10
-156.41831122100001
 20
3.351371603999949
 30
0.0
 40
3.5999999999999961
 50
39.99973690700039
 51
220.0004556899994
  0
ARC
  5
412
  8
BRACKET
 62
     7
 10
-220.0
 20
-50.0
 30
0.0
 40
79.399999999999807
 50
359.99997796700001
 51
39.999979339000049
  0
CIRCLE
  5
413
  8
BRACKET
 62
     7
 10
-220.0
 20
-50.0
 30
0.0
 40
3.5999999999999082
  0
LINE
  5
414
  8
BRACKET
 62
     7
 10
-115.0
 20
-55.0
 30
0.0
 11
-115.0
 21
-54.348238880000039
 31
0.0
  0
LINE
  5
415
  8
BRACKET
 62
     7
 10
-115.0
 20
132.40000000000001
 30
0.0
 11
-285.0
 21
132.40000000000001
 31
0.0
  0
LINE
  5
416
  8
BRACKET
 62
     7
 10
-115.0
 20
135.0
 30
0.0
 11
-285.0
 21
135.0
 31
0.0
  0
LINE
  5
417
  8
BRACKET
 62
     7
 10
-285.0
 20
120.0
 30
0.0
 11
-287.60000000000008
 21
120.0
 31
0.0
  0
LINE
  5
418
  8
BRACKET
 62
     7
 10
-287.60000000000008
 20
120.0
 30
0.0
 11
-287.60000000000008
 21
132.40000000000001
 31
0.0
  0
ARC
  5
419
  8
BRACKET
 62
     7
 10
-285.0
 20
132.40000000000001
 30
0.0
 40
2.600000000000021
 50
90.0
 51
180.0
  0
LINE
  5
41A
  8
BRACKET
 62
     7
 10
-115.0
 20
120.0
 30
0.0
 11
-112.40000000000011
 21
120.0
 31
0.0
  0
LINE
  5
41B
  8
BRACKET
 62
     7
 10
-112.40000000000011
 20
120.0
 30
0.0
 11
-112.40000000000011
 21
132.40000000000001
 31
0.0
  0
ARC
  5
41C
  8
BRACKET
 62
     7
 10
-115.0
 20
132.40000000000001
 30
0.0
 40
2.5999999999999082
 50
0.0
 51
90.0
  0
LINE
  5
41D
  8
BRACKET
 62
     7
 10
-269.22950000000009
 20
101.53670426399979
 30
0.0
 11
-269.22950000000009
 21
104.03670426399989
 31
0.0
  0
LINE
  5
41E
  8
BRACKET
 62
     7
 10
-269.22950000000009
 20
101.53670426399979
 30
0.0
 11
-274.2295000000002
 21
106.53670426399989
 31
0.0
  0
LINE
  5
41F
  8
BRACKET
 62
     7
 10
-266.72950000000009
 20
104.03670426399989
 30
0.0
 11
-269.22950000000009
 21
104.03670426399989
 31
0.0
  0
LINE
  5
420
  8
BRACKET
 62
     7
 10
-274.2295000000002
 20
106.53670426399989
 30
0.0
 11
-269.22950000000009
 21
111.53670426399989
 31
0.0
  0
LINE
  5
421
  8
BRACKET
 62
     7
 10
-266.72950000000009
 20
109.03670426399979
 30
0.0
 11
-269.22950000000009
 21
109.03670426399979
 31
0.0
  0
LINE
  5
422
  8
BRACKET
 62
     7
 10
-269.22950000000009
 20
109.03670426399979
 30
0.0
 11
-269.22950000000009
 21
111.53670426399989
 31
0.0
  0
LINE
  5
423
  8
BRACKET
 62
     7
 10
-266.72950000000009
 20
104.03670426399989
 30
0.0
 11
-266.72950000000009
 21
109.03670426399979
 31
0.0
  0
TEXT
  5
424
  8
BRACKET
 62
     7
 10
-263.2795000000001
 20
103.7167042639999
 30
0.0
 40
5.0
  1
ＦＲＯＮＴ
 41
0.7
  0
LINE
  5
425
  8
BRACKET
 62
     7
 10
-285.0
 20
41.16170968099992
 30
0.0
 11
-285.0
 21
135.0
 31
0.0
  0
ARC
  5
426
  8
BRACKET
 62
     7
 10
-255.0
 20
41.16170968099992
 30
0.0
 40
30.0
 50
180.0
 51
200.00000000000011
  0
LINE
  5
427
  8
BRACKET
 62
     7
 10
-248.1907798500001
 20
-65.260600931000113
 30
0.0
 11
-283.19077862400007
 21
30.901105380999869
 31
0.0
  0
ARC
  5
428
  8
BRACKET
 62
     7
 10
-220.0
 20
-55.0
 30
0.0
 40
30.00000000000006
 50
199.9999931539999
 51
270.0000072859998
  0
LINE
  5
429
  8
BRACKET
 62
     7
 10
-219.9999961850001
 20
-85.0
 30
0.0
 11
-145.0
 21
-85.0
 31
0.0
  0
ARC
  5
42A
  8
BRACKET
 62
     7
 10
-137.0
 20
-50.0
 30
0.0
 40
3.6000000000001111
 50
180.00048570200079
 51
0.0000607139994599
  0
ARC
  5
42B
  8
BRACKET
 62
     7
 10
-145.0
 20
-55.0
 30
0.0
 40
30.0
 50
270.0
 51
0.0
  0
LINE
  5
42C
  8
BRACKET
 62
     7
 10
-115.0
 20
-23.634633066999989
 30
0.0
 11
-115.0
 21
135.0
 31
0.0
  0
ARC
  5
42D
  8
BRACKET
 62
     7
 10
-120.0
 20
-23.634633066999989
 30
0.0
 40
4.9999999999999831
 50
279.99999999999989
 51
0.0
  0
LINE
  5
42E
  8
BRACKET
 62
     7
 10
-115.0
 20
-55.0
 30
0.0
 11
-115.0
 21
-41.099970791000032
 31
0.0
  0
ARC
  5
42F
  8
BRACKET
 62
     7
 10
-120.0
 20
-41.099970791000032
 30
0.0
 40
5.0
 50
0.0
 51
99.999999999999844
  0
LINE
  5
430
  8
BRACKET
 62
     7
 10
-135.414503895
 20
-31.429759056999959
 30
0.0
 11
-119.131759112
 21
-28.558671831999959
 31
0.0
  0
ARC
  5
431
  8
BRACKET
 62
     7
 10
-220.0
 20
-50.0
 30
0.0
 40
86.59999999999998
 50
12.382497231000031
 51
39.999989063000079
  0
LINE
  5
432
  8
BRACKET
 62
     7
 10
-134.16423701599999
 20
-38.520374879000087
 30
0.0
 11
-120.8682408880002
 21
-36.175932026000048
 31
0.0
  0
ARC
  5
433
  8
BRACKET
 62
     7
 10
-220.0
 20
-50.0
 30
0.0
 40
86.59999999999998
 50
0.0000025610000187
 51
7.6175027690000103
  0
CIRCLE
  5
434
  8
BRACKET
 62
     7
 10
-233.89185421299999
 20
28.78462024099986
 30
0.0
 40
3.0999999999999082
  0
CIRCLE
  5
435
  8
BRACKET
 62
     7
 10
-237.17280958400011
 20
38.34644651099984
 30
0.0
 40
3.100000000000136
  0
CIRCLE
  5
436
  8
BRACKET
 62
     7
 10
-240.7911690820001
 20
47.814760073999857
 30
0.0
 40
3.100000000000136
  0
CIRCLE
  5
437
  8
BRACKET
 62
     7
 10
-244.74461597800001
 20
57.180707126999891
 30
0.0
 40
3.0999999999999082
  0
CIRCLE
  5
438
  8
BRACKET
 62
     7
 10
-249.03062747200011
 20
66.435487153000054
 30
0.0
 40
3.100000000000136
  0
CIRCLE
  5
439
  8
BRACKET
 62
     7
 10
-240.70552360799999
 20
27.274066102999999
 30
0.0
 40
3.0999999999999082
  0
CIRCLE
  5
43A
  8
BRACKET
 62
     7
 10
-244.80736202400001
 20
36.513552635000011
 30
0.0
 40
3.0999999999999082
  0
CIRCLE
  5
43B
  8
BRACKET
 62
     7
 10
-247.36161146600011
 20
25.175409662999989
 30
0.0
 40
3.100000000000136
  0
CIRCLE
  5
43C
  8
BRACKET
 62
     7
 10
-249.23717047200009
 20
45.630475596999979
 30
0.0
 40
3.100000000000136
  0
CIRCLE
  5
43D
  8
BRACKET
 62
     7
 10
-253.99186938099999
 20
54.616216793000021
 30
0.0
 40
3.0999999999999082
  0
CIRCLE
  5
43E
  8
BRACKET
 62
     7
 10
-259.06817853500002
 20
63.4622290719999
 30
0.0
 40
3.0999999999999082
  0
CIRCLE
  5
43F
  8
BRACKET
 62
     7
 10
-206.10814578700001
 20
28.78462024099986
 30
0.0
 40
3.100000000000136
  0
CIRCLE
  5
440
  8
BRACKET
 62
     7
 10
-213.02754057999999
 20
29.695575847999979
 30
0.0
 40
3.0999999999999082
  0
CIRCLE
  5
441
  8
BRACKET
 62
     7
 10
-213.7219173630001
 20
39.780764523999892
 30
0.0
 40
3.100000000000136
  0
CIRCLE
  5
442
  8
BRACKET
 62
     7
 10
-214.76640437600011
 20
49.862953475999909
 30
0.0
 40
3.100000000000136
  0
CIRCLE
  5
443
  8
BRACKET
 62
     7
 10
-216.161055363
 20
59.93299097199997
 30
0.0
 40
3.0999999999999082
  0
CIRCLE
  5
444
  8
BRACKET
 62
     7
 10
-217.905711228
 20
69.981723418999863
 30
0.0
 40
3.0999999999999082
  0
CIRCLE
  5
445
  8
BRACKET
 62
     7
 10
-220.0
 20
30.0
 30
0.0
 40
3.0999999999999082
  0
CIRCLE
  5
446
  8
BRACKET
 62
     7
 10
-221.57071657900019
 20
39.986292563999882
 30
0.0
 40
3.100000000000136
  0
CIRCLE
  5
447
  8
BRACKET
 62
     7
 10
-223.48994966999999
 20
49.939082701999951
 30
0.0
 40
3.0999999999999082
  0
CIRCLE
  5
448
  8
BRACKET
 62
     7
 10
-225.7569551870001
 20
59.849248823000039
 30
0.0
 40
3.100000000000136
  0
CIRCLE
  5
449
  8
BRACKET
 62
     7
 10
-228.37077684900009
 20
69.70768603199997
 30
0.0
 40
3.0999999999999082
  0
CIRCLE
  5
44A
  8
BRACKET
 62
     7
 10
-226.97245941999989
 20
29.695575847999979
 30
0.0
 40
3.0999999999999082
  0
CIRCLE
  5
44B
  8
BRACKET
 62
     7
 10
-229.40756169400021
 20
39.506970583000012
 30
0.0
 40
3.100000000000136
  0
CIRCLE
  5
44C
  8
BRACKET
 62
     7
 10
-232.1869343410001
 20
49.254615163999908
 30
0.0
 40
3.100000000000136
  0
CIRCLE
  5
44D
  8
BRACKET
 62
     7
 10
-235.309041106
 20
58.929487561999963
 30
0.0
 40
3.0999999999999082
  0
CIRCLE
  5
44E
  8
BRACKET
 62
     7
 10
-238.77213580500009
 20
68.522600871999998
 30
0.0
 40
3.0999999999999082
  0
CIRCLE
  5
44F
  8
BRACKET
 62
     7
 10
-186.92351730199979
 20
65.351403513000037
 30
0.0
 40
3.0999999999999082
  0
CIRCLE
  5
450
  8
BRACKET
 62
     7
 10
-197.10292055500011
 20
67.795262013999945
 30
0.0
 40
3.0999999999999082
  0
CIRCLE
  5
451
  8
BRACKET
 62
     7
 10
-206.59437222500009
 20
59.180076680999832
 30
0.0
 40
3.100000000000136
  0
CIRCLE
  5
452
  8
BRACKET
 62
     7
 10
-207.456584408
 20
69.342627444999934
 30
0.0
 40
3.0999999999999082
  0
CIRCLE
  5
453
  8
BRACKET
 62
     7
 10
-187.83911248000001
 20
55.193523155999841
 30
0.0
 40
3.100000000000136
  0
CIRCLE
  5
454
  8
BRACKET
 62
     7
 10
-197.5048945660001
 20
47.437006478999919
 30
0.0
 40
3.100000000000136
  0
CIRCLE
  5
455
  8
BRACKET
 62
     7
 10
-197.12971400999999
 20
57.596236080999923
 30
0.0
 40
3.100000000000136
  0
CIRCLE
  5
456
  8
BRACKET
 62
     7
 10
-189.09830056300001
 20
45.105651630000011
 30
0.0
 40
3.100000000000136
  0
CIRCLE
  5
457
  8
BRACKET
 62
     7
 10
-190.69886609900001
 20
35.096671803999932
 30
0.0
 40
3.0999999999999082
  0
CIRCLE
  5
458
  8
BRACKET
 62
     7
 10
-192.63838853400009
 20
25.175409662999989
 30
0.0
 40
3.100000000000136
  0
CIRCLE
  5
459
  8
BRACKET
 62
     7
 10
-199.29447639199989
 20
27.274066102999999
 30
0.0
 40
3.0999999999999082
  0
CIRCLE
  5
45A
  8
BRACKET
 62
     7
 10
-198.22702939600001
 20
37.326615364999952
 30
0.0
 40
3.100000000000136
  0
CIRCLE
  5
45B
  8
BRACKET
 62
     7
 10
-205.9208981460001
 20
38.89195065399997
 30
0.0
 40
3.100000000000136
  0
CIRCLE
  5
45C
  8
BRACKET
 62
     7
 10
-206.08268990400009
 20
49.02680687499992
 30
0.0
 40
3.0999999999999082
  0
TEXT
  5
45D
  8
BRACKET
 62
     7
 10
-246.97442741600949
 20
16.243613225640509
 30
0.0
 40
4.2333333333333316
  1
4
 41
0.7
 11
-246.97442741600949
 21
20.47694655897385
 31
0.0
 73
     3
  0
TEXT
  5
45E
  8
BRACKET
 62
     7
 10
-246.97442741600949
 20
10.95194655897382
 30
0.0
 40
4.2333333333333316
  1
0
 41
0.7
 11
-246.97442741600949
 21
15.185279892307159
 31
0.0
 73
     3
  0
TEXT
  5
45F
  8
BRACKET
 62
     7
 10
-240.73434504920959
 20
18.21110363838957
 30
0.0
 40
4.2333333333333316
  1
3
 41
0.7
 11
-240.73434504920959
 21
22.444436971722901
 31
0.0
 73
     3
  0
TEXT
  5
460
  8
BRACKET
 62
     7
 10
-240.73434504920959
 20
12.919436971722879
 30
0.0
 40
4.2333333333333316
  1
5
 41
0.7
 11
-240.73434504920959
 21
17.152770305056212
 31
0.0
 73
     3
  0
TEXT
  5
461
  8
BRACKET
 62
     7
 10
-234.34652999135969
 20
19.627248142635509
 30
0.0
 40
4.2333333333333316
  1
3
 41
0.7
 11
-234.34652999135969
 21
23.860581475968839
 31
0.0
 73
     3
  0
TEXT
  5
462
  8
BRACKET
 62
     7
 10
-234.34652999135969
 20
14.335581475968819
 30
0.0
 40
4.2333333333333316
  1
0
 41
0.7
 11
-234.34652999135969
 21
18.56891480930215
 31
0.0
 73
     3
  0
TEXT
  5
463
  8
BRACKET
 62
     7
 10
-227.85959737286251
 20
20.481269023548201
 30
0.0
 40
4.2333333333333316
  1
2
 41
0.7
 11
-227.85959737286251
 21
24.714602356881532
 31
0.0
 73
     3
  0
TEXT
  5
464
  8
BRACKET
 62
     7
 10
-227.85959737286251
 20
15.189602356881499
 30
0.0
 40
4.2333333333333316
  1
5
 41
0.7
 11
-227.85959737286251
 21
19.422935690214839
 31
0.0
 73
     3
  0
TEXT
  5
465
  8
BRACKET
 62
     7
 10
-221.3229166666666
 20
20.766666666666669
 30
0.0
 40
4.2333333333333316
  1
2
 41
0.7
 11
-221.3229166666666
 21
25.0
 31
0.0
 73
     3
  0
TEXT
  5
466
  8
BRACKET
 62
     7
 10
-221.3229166666666
 20
15.47499999999998
 30
0.0
 40
4.2333333333333316
  1
0
 41
0.7
 11
-221.3229166666666
 21
19.708333333333311
 31
0.0
 73
     3
  0
TEXT
  5
467
  8
BRACKET
 62
     7
 10
-214.7862359604708
 20
20.48126902354775
 30
0.0
 40
4.2333333333333316
  1
1
 41
0.7
 11
-214.7862359604708
 21
24.71460235688108
 31
0.0
 73
     3
  0
TEXT
  5
468
  8
BRACKET
 62
     7
 10
-214.7862359604708
 20
15.189602356881061
 30
0.0
 40
4.2333333333333316
  1
5
 41
0.7
 11
-214.7862359604708
 21
19.422935690214391
 31
0.0
 73
     3
  0
TEXT
  5
469
  8
BRACKET
 62
     7
 10
-208.2993033419736
 20
19.627248142635729
 30
0.0
 40
4.2333333333333316
  1
1
 41
0.7
 11
-208.2993033419736
 21
23.86058147596907
 31
0.0
 73
     3
  0
TEXT
  5
46A
  8
BRACKET
 62
     7
 10
-208.29930334197351
 20
14.33558147596905
 30
0.0
 40
4.2333333333333316
  1
0
 41
0.7
 11
-208.29930334197351
 21
18.568914809302381
 31
0.0
 73
     3
  0
TEXT
  5
46B
  8
BRACKET
 62
     7
 10
-201.91148828412381
 20
18.211103638389321
 30
0.0
 40
4.2333333333333316
  1
5
 41
0.7
 11
-201.91148828412381
 21
22.444436971722659
 31
0.0
 73
     3
  0
TEXT
  5
46C
  8
BRACKET
 62
     7
 10
-195.67140591732431
 20
16.243613225639599
 30
0.0
 40
4.2333333333333316
  1
0
 41
0.7
 11
-195.67140591732431
 21
20.476946558972941
 31
0.0
 73
     3
  0
TEXT
  5
46D
  8
BRACKET
 62
     7
 10
-182.4273100340001
 20
62.107545605999867
 30
0.0
 40
4.2333333333333316
  1
4
 41
0.7
 11
-182.4273100340001
 21
66.340878939333209
 31
0.0
 73
     3
  0
TEXT
  5
46E
  8
BRACKET
 62
     7
 10
-183.34290521200001
 20
51.949665248999906
 30
0.0
 40
4.2333333333333316
  1
3
 41
0.7
 11
-183.34290521200001
 21
56.182998582333241
 31
0.0
 73
     3
  0
TEXT
  5
46F
  8
BRACKET
 62
     7
 10
-184.60209329400001
 20
41.861793722999963
 30
0.0
 40
4.2333333333333316
  1
2
 41
0.7
 11
-184.60209329400001
 21
46.095127056333297
 31
0.0
 73
     3
  0
TEXT
  5
470
  8
BRACKET
 62
     7
 10
-186.20265882999999
 20
31.85281389699988
 30
0.0
 40
4.2333333333333316
  1
1
 41
0.7
 11
-186.20265882999999
 21
36.086147230333211
 31
0.0
 73
     3
  0
ARC
  5
471
  8
BRACKET
 62
     7
 10
204.4500000000001
 20
987.5
 30
0.0
 40
10.0
 50
90.0
 51
180.0
  0
LINE
  5
472
  8
BRACKET
 62
     7
 10
194.44999999999999
 20
912.50000852999995
 30
0.0
 11
194.44999999999999
 21
987.5
 31
0.0
  0
ARC
  5
473
  8
BRACKET
 62
     7
 10
204.4500000000001
 20
912.5
 30
0.0
 40
10.0
 50
179.9999511260001
 51
270.0
  0
LINE
  5
474
  8
BRACKET
 62
     7
 10
204.4500000000001
 20
902.5
 30
0.0
 11
595.55000000000007
 21
902.5
 31
0.0
  0
ARC
  5
475
  8
BRACKET
 62
     7
 10
595.55000000000007
 20
912.5
 30
0.0
 40
10.0
 50
270.0
 51
0.0000378559998353
  0
LINE
  5
476
  8
BRACKET
 62
     7
 10
605.55000000000018
 20
912.50000660800004
 30
0.0
 11
605.55000000000018
 21
987.5
 31
0.0
  0
ARC
  5
477
  8
BRACKET
 62
     7
 10
595.55000000000007
 20
987.5
 30
0.0
 40
10.0
 50
0.0
 51
89.999912573999396
  0
LINE
  5
478
  8
BRACKET
 62
     7
 10
204.4500000000001
 20
997.49999999999989
 30
0.0
 11
595.55001525899991
 21
997.49999999999989
 31
0.0
  0
LINE
  5
479
  8
BRACKET
 62
     7
 10
134.44999999999999
 20
1035.0
 30
0.0
 11
134.44999999999999
 21
865.0
 31
0.0
  0
LINE
  5
47A
  8
BRACKET
 62
     7
 10
662.95000000000005
 20
862.39999999999998
 30
0.0
 11
137.0499999999999
 21
862.39999999999998
 31
0.0
  0
LINE
  5
47B
  8
BRACKET
 62
     7
 10
662.95000000000005
 20
1037.5999999999999
 30
0.0
 11
137.0499999999999
 21
1037.5999999999999
 31
0.0
  0
LINE
  5
47C
  8
BRACKET
 62
     7
 10
665.55000000000007
 20
1035.0
 30
0.0
 11
665.55000000000007
 21
865.0
 31
0.0
  0
LINE
  5
47D
  8
BRACKET
 62
     7
 10
139.65000000000001
 20
1035.00001079
 30
0.0
 11
139.65000000000001
 21
1037.5999999999999
 31
0.0
  0
ARC
  5
47E
  8
BRACKET
 62
     7
 10
137.0499999999999
 20
1035.0
 30
0.0
 40
2.600000000000021
 50
270.0
 51
0.0
  0
LINE
  5
47F
  8
BRACKET
 62
     7
 10
137.0499999999999
 20
1032.4000000000001
 30
0.0
 11
134.44999999999999
 21
1032.4000000000001
 31
0.0
  0
LINE
  5
480
  8
BRACKET
 62
     7
 10
139.65000000000001
 20
1035.0
 30
0.0
 11
134.44999999999999
 21
1035.0
 31
0.0
  0
LINE
  5
481
  8
BRACKET
 62
     7
 10
137.0499999999999
 20
1037.5999999999999
 30
0.0
 11
137.0499999999999
 21
1032.4000000000001
 31
0.0
  0
LINE
  5
482
  8
BRACKET
 62
     7
 10
660.35000000000014
 20
1035.00001079
 30
0.0
 11
660.35000000000014
 21
1037.5999999999999
 31
0.0
  0
ARC
  5
483
  8
BRACKET
 62
     7
 10
662.95000000000005
 20
1035.0
 30
0.0
 40
2.5999999999999082
 50
180.0
 51
270.0
  0
LINE
  5
484
  8
BRACKET
 62
     7
 10
662.95000000000005
 20
1032.4000000000001
 30
0.0
 11
665.55000000000007
 21
1032.4000000000001
 31
0.0
  0
LINE
  5
485
  8
BRACKET
 62
     7
 10
660.35000000000014
 20
1035.0
 30
0.0
 11
665.55000000000007
 21
1035.0
 31
0.0
  0
LINE
  5
486
  8
BRACKET
 62
     7
 10
662.95000000000005
 20
1037.5999999999999
 30
0.0
 11
662.95000000000005
 21
1032.4000000000001
 31
0.0
  0
LINE
  5
487
  8
BRACKET
 62
     7
 10
139.65000000000001
 20
864.99999774100013
 30
0.0
 11
139.65000000000001
 21
862.40000852999981
 31
0.0
  0
ARC
  5
488
  8
BRACKET
 62
     7
 10
137.0499999999999
 20
865.00000852999983
 30
0.0
 40
2.6000000000001351
 50
0.0
 51
90.0
  0
LINE
  5
489
  8
BRACKET
 62
     7
 10
137.0499999999999
 20
867.60000852999985
 30
0.0
 11
134.44999999999999
 21
867.60000852999985
 31
0.0
  0
LINE
  5
48A
  8
BRACKET
 62
     7
 10
139.65000000000001
 20
865.00000852999983
 30
0.0
 11
134.44999999999999
 21
865.00000852999983
 31
0.0
  0
LINE
  5
48B
  8
BRACKET
 62
     7
 10
137.0499999999999
 20
862.40000852999981
 30
0.0
 11
137.0499999999999
 21
867.60000852999985
 31
0.0
  0
LINE
  5
48C
  8
BRACKET
 62
     7
 10
660.35000000000014
 20
864.99999581799955
 30
0.0
 11
660.35000000000014
 21
862.40000660799979
 31
0.0
  0
ARC
  5
48D
  8
BRACKET
 62
     7
 10
662.95000000000005
 20
865.00000660799981
 30
0.0
 40
2.600000000000021
 50
90.0
 51
180.0
  0
LINE
  5
48E
  8
BRACKET
 62
     7
 10
662.95000000000005
 20
867.60000660799983
 30
0.0
 11
665.55000000000007
 21
867.60000660799983
 31
0.0
  0
LINE
  5
48F
  8
BRACKET
 62
     7
 10
660.35000000000014
 20
865.00000660799981
 30
0.0
 11
665.55000000000007
 21
865.00000660799981
 31
0.0
  0
LINE
  5
490
  8
BRACKET
 62
     7
 10
662.95000000000005
 20
862.40000660799979
 30
0.0
 11
662.95000000000005
 21
867.60000660799983
 31
0.0
  0
LINE
  5
491
  8
BRACKET
 62
     7
 10
137.0499999999999
 20
1032.4000000000001
 30
0.0
 11
137.0499999999999
 21
867.60000852999985
 31
0.0
  0
LINE
  5
492
  8
BRACKET
 62
     7
 10
660.35000000000014
 20
865.0
 30
0.0
 11
139.65000000000001
 21
865.0
 31
0.0
  0
LINE
  5
493
  8
BRACKET
 62
     7
 10
660.35000000000014
 20
1035.0
 30
0.0
 11
139.65000000000001
 21
1035.0
 31
0.0
  0
LINE
  5
494
  8
BRACKET
 62
     7
 10
662.95000000000005
 20
1032.4000000000001
 30
0.0
 11
662.95000000000005
 21
867.60000660799983
 31
0.0
  0
LINE
  5
495
  8
BRACKET
 62
     7
 10
159.44999999999999
 20
955.00000426499992
 30
0.0
 11
164.44999999999999
 21
955.00000426499992
 31
0.0
  0
LINE
  5
496
  8
BRACKET
 62
     7
 10
159.44999999999999
 20
955.00000426499992
 30
0.0
 11
169.44999999999999
 21
965.00000426500014
 31
0.0
  0
LINE
  5
497
  8
BRACKET
 62
     7
 10
164.44999999999999
 20
950.00000426500003
 30
0.0
 11
164.44999999999999
 21
955.00000426499992
 31
0.0
  0
LINE
  5
498
  8
BRACKET
 62
     7
 10
169.44999999999999
 20
965.00000426500014
 30
0.0
 11
179.44999999999999
 21
955.00000426499992
 31
0.0
  0
LINE
  5
499
  8
BRACKET
 62
     7
 10
174.44999999999999
 20
950.00000426500003
 30
0.0
 11
174.44999999999999
 21
955.00000426499992
 31
0.0
  0
LINE
  5
49A
  8
BRACKET
 62
     7
 10
174.44999999999999
 20
955.00000426499992
 30
0.0
 11
179.44999999999999
 21
955.00000426499992
 31
0.0
  0
LINE
  5
49B
  8
BRACKET
 62
     7
 10
164.44999999999999
 20
950.00000426500003
 30
0.0
 11
174.44999999999999
 21
950.00000426500003
 31
0.0
  0
POLYLINE
  5
49C
  8
BRACKET
 62
     7
 66
     1
 10
0.0
 20
0.0
 30
0.0
  0
VERTEX
  5
BB0
  8
BRACKET
 62
     7
 10
184.2361328130001
 20
980.71875426500003
 30
0.0
  0
VERTEX
  5
BB1
  8
BRACKET
 62
     7
 10
187.92753906300021
 20
980.71875426500003
 30
0.0
  0
VERTEX
  5
BB2
  8
BRACKET
 62
     7
 10
187.92753906300021
 20
969.00000426500003
 30
0.0
  0
SEQEND
  5
BB3
  8
BRACKET
 62
     7
  0
LINE
  5
4A1
  8
BRACKET
 62
     7
 10
187.92753906300021
 20
975.44531676500003
 30
0.0
 11
185.02714843800021
 21
975.44531676500003
 31
0.0
  0
POLYLINE
  5
4A2
  8
BRACKET
 62
     7
 66
     1
 10
0.0
 20
0.0
 30
0.0
 70
   128
  0
VERTEX
  5
BB4
  8
BRACKET
 62
     7
 10
177.04082031299851
 20
974.27344176500014
 30
0.0
 42
-0.0453664709994504
  0
VERTEX
  5
BB5
  8
BRACKET
 62
     7
 10
176.91560379399991
 20
974.31219837799995
 30
0.0
  0
VERTEX
  5
BB6
  8
BRACKET
 62
     7
 10
176.91560379399991
 20
974.31219837799995
 30
0.0
  0
VERTEX
  5
BB7
  8
BRACKET
 62
     7
 10
176.91560379399991
 20
974.31219837799995
 30
0.0
 42
-0.0409557140004338
  0
VERTEX
  5
BB8
  8
BRACKET
 62
     7
 10
176.79237096800011
 20
974.37493502699999
 30
0.0
  0
VERTEX
  5
BB9
  8
BRACKET
 62
     7
 10
176.79237096800011
 20
974.37493502699999
 30
0.0
  0
VERTEX
  5
BBA
  8
BRACKET
 62
     7
 10
176.79237096800011
 20
974.37493502699999
 30
0.0
 42
-0.0358330130002557
  0
VERTEX
  5
BBB
  8
BRACKET
 62
     7
 10
176.6720499810001
 20
974.46117920100005
 30
0.0
  0
VERTEX
  5
BBC
  8
BRACKET
 62
     7
 10
176.6720499810001
 20
974.46117920100005
 30
0.0
  0
VERTEX
  5
BBD
  8
BRACKET
 62
     7
 10
176.6720499810001
 20
974.46117920100005
 30
0.0
 42
-0.0308550790000485
  0
VERTEX
  5
BBE
  8
BRACKET
 62
     7
 10
176.5555470490001
 20
974.57028133899996
 30
0.0
  0
VERTEX
  5
BBF
  8
BRACKET
 62
     7
 10
176.5555470490001
 20
974.57028133899996
 30
0.0
  0
VERTEX
  5
BC0
  8
BRACKET
 62
     7
 10
176.5555470490001
 20
974.57028133899996
 30
0.0
 42
-0.026463232000566
  0
VERTEX
  5
BC1
  8
BRACKET
 62
     7
 10
176.44373963200019
 20
974.70141972099987
 30
0.0
  0
VERTEX
  5
BC2
  8
BRACKET
 62
     7
 10
176.44373963200019
 20
974.70141972099987
 30
0.0
  0
VERTEX
  5
BC3
  8
BRACKET
 62
     7
 10
176.44373963199979
 20
974.70141972100032
 30
0.0
 42
-0.0227885949994017
  0
VERTEX
  5
BC4
  8
BRACKET
 62
     7
 10
176.33746982600019
 20
974.85360665799988
 30
0.0
  0
VERTEX
  5
BC5
  8
BRACKET
 62
     7
 10
176.33746982600019
 20
974.85360665799988
 30
0.0
  0
VERTEX
  5
BC6
  8
BRACKET
 62
     7
 10
176.33746982600019
 20
974.85360665799988
 30
0.0
 42
-0.0197995050006722
  0
VERTEX
  5
BC7
  8
BRACKET
 62
     7
 10
176.23753801700011
 20
975.02569592999987
 30
0.0
  0
VERTEX
  5
BC8
  8
BRACKET
 62
     7
 10
176.23753801700011
 20
975.02569592999987
 30
0.0
  0
VERTEX
  5
BC9
  8
BRACKET
 62
     7
 10
176.23753801700011
 20
975.02569592999987
 30
0.0
 42
-0.0174024370000892
  0
VERTEX
  5
BCA
  8
BRACKET
 62
     7
 10
176.14469685899999
 20
975.21639142099991
 30
0.0
  0
VERTEX
  5
BCB
  8
BRACKET
 62
     7
 10
176.14469685899999
 20
975.21639142099991
 30
0.0
  0
VERTEX
  5
BCC
  8
BRACKET
 62
     7
 10
176.14469685899999
 20
975.21639142099991
 30
0.0
 42
-0.0154935200004939
  0
VERTEX
  5
BCD
  8
BRACKET
 62
     7
 10
176.05964559800009
 20
975.42425687599996
 30
0.0
  0
VERTEX
  5
BCE
  8
BRACKET
 62
     7
 10
176.05964559800009
 20
975.42425687599996
 30
0.0
  0
VERTEX
  5
BCF
  8
BRACKET
 62
     7
 10
176.0596455979985
 20
975.4242568760036
 30
0.0
 42
-0.0139795399991863
  0
VERTEX
  5
BD0
  8
BRACKET
 62
     7
 10
175.98302481199991
 20
975.64772672599986
 30
0.0
  0
VERTEX
  5
BD1
  8
BRACKET
 62
     7
 10
175.98302481199991
 20
975.64772672599986
 30
0.0
  0
VERTEX
  5
BD2
  8
BRACKET
 62
     7
 10
175.98302481199909
 20
975.6477267260027
 30
0.0
 42
-0.0127839600000164
  0
VERTEX
  5
BD3
  8
BRACKET
 62
     7
 10
175.91541158100009
 20
975.8851178729999
 30
0.0
  0
VERTEX
  5
BD4
  8
BRACKET
 62
     7
 10
175.91541158100009
 20
975.8851178729999
 30
0.0
  0
VERTEX
  5
BD5
  8
BRACKET
 62
     7
 10
175.91541158100009
 20
975.8851178729999
 30
0.0
 42
-0.0118467010003027
  0
VERTEX
  5
BD6
  8
BRACKET
 62
     7
 10
175.8573151450002
 20
976.13464236699997
 30
0.0
  0
VERTEX
  5
BD7
  8
BRACKET
 62
     7
 10
175.8573151450002
 20
976.13464236699997
 30
0.0
  0
VERTEX
  5
BD8
  8
BRACKET
 62
     7
 10
175.8573151449998
 20
976.13464236700167
 30
0.0
 42
-0.0111218619998065
  0
VERTEX
  5
BD9
  8
BRACKET
 62
     7
 10
175.80917306800001
 20
976.39442087700002
 30
0.0
  0
VERTEX
  5
BDA
  8
BRACKET
 62
     7
 10
175.80917306800001
 20
976.39442087700002
 30
0.0
  0
VERTEX
  5
BDB
  8
BRACKET
 62
     7
 10
175.80917306799921
 20
976.39442087700525
 30
0.0
 42
-0.0105751219996837
  0
VERTEX
  5
BDC
  8
BRACKET
 62
     7
 10
175.7713479370002
 20
976.66249683899991
 30
0.0
  0
VERTEX
  5
BDD
  8
BRACKET
 62
     7
 10
175.7713479370002
 20
976.66249683899991
 30
0.0
  0
VERTEX
  5
BDE
  8
BRACKET
 62
     7
 10
175.7713479370002
 20
976.66249683899923
 30
0.0
 42
-0.0101814789999091
  0
VERTEX
  5
BDF
  8
BRACKET
 62
     7
 10
175.74412464000011
 20
976.93685119899965
 30
0.0
  0
VERTEX
  5
BE0
  8
BRACKET
 62
     7
 10
175.74412464000011
 20
976.93685119899965
 30
0.0
  0
VERTEX
  5
BE1
  8
BRACKET
 62
     7
 10
175.74412464000011
 20
976.93685119899965
 30
0.0
 42
-0.0099234820002048
  0
VERTEX
  5
BE2
  8
BRACKET
 62
     7
 10
175.7277082120001
 20
977.21541761299989
 30
0.0
  0
VERTEX
  5
BE3
  8
BRACKET
 62
     7
 10
175.7277082120001
 20
977.21541761299989
 30
0.0
  0
VERTEX
  5
BE4
  8
BRACKET
 62
     7
 10
175.7277082120001
 20
977.21541761299989
 30
0.0
 42
-0.0097899730000937
  0
VERTEX
  5
BE5
  8
BRACKET
 62
     7
 10
175.72222229700009
 20
977.49609801500003
 30
0.0
  0
VERTEX
  5
BE6
  8
BRACKET
 62
     7
 10
175.72222229700009
 20
977.49609801500003
 30
0.0
  0
VERTEX
  5
BE7
  8
BRACKET
 62
     7
 10
175.72222229700009
 20
977.49609801500003
 30
0.0
 42
-0.0097752680000396
  0
VERTEX
  5
BE8
  8
BRACKET
 62
     7
 10
175.7277082120001
 20
977.77677841799994
 30
0.0
  0
VERTEX
  5
BE9
  8
BRACKET
 62
     7
 10
175.7277082120001
 20
977.77677841799994
 30
0.0
  0
VERTEX
  5
BEA
  8
BRACKET
 62
     7
 10
175.7277082120001
 20
977.77677841799994
 30
0.0
 42
-0.0098787450002223
  0
VERTEX
  5
BEB
  8
BRACKET
 62
     7
 10
175.74412464000011
 20
978.05534483199995
 30
0.0
  0
VERTEX
  5
BEC
  8
BRACKET
 62
     7
 10
175.74412464000011
 20
978.05534483199995
 30
0.0
  0
VERTEX
  5
BED
  8
BRACKET
 62
     7
 10
175.74412464000011
 20
978.05534483199995
 30
0.0
 42
-0.0101047990006038
  0
VERTEX
  5
BEE
  8
BRACKET
 62
     7
 10
175.7713479370002
 20
978.32969919100015
 30
0.0
  0
VERTEX
  5
BEF
  8
BRACKET
 62
     7
 10
175.7713479370002
 20
978.32969919100015
 30
0.0
  0
VERTEX
  5
BF0
  8
BRACKET
 62
     7
 10
175.77134793700051
 20
978.32969919100344
 30
0.0
 42
-0.0104631579994027
  0
VERTEX
  5
BF1
  8
BRACKET
 62
     7
 10
175.80917306800001
 20
978.59777515399992
 30
0.0
  0
VERTEX
  5
BF2
  8
BRACKET
 62
     7
 10
175.80917306800001
 20
978.59777515399992
 30
0.0
  0
VERTEX
  5
BF3
  8
BRACKET
 62
     7
 10
175.80917306800001
 20
978.59777515399992
 30
0.0
 42
-0.0109696010002407
  0
VERTEX
  5
BF4
  8
BRACKET
 62
     7
 10
175.8573151450002
 20
978.85755366399985
 30
0.0
  0
VERTEX
  5
BF5
  8
BRACKET
 62
     7
 10
175.8573151450002
 20
978.85755366399985
 30
0.0
  0
VERTEX
  5
BF6
  8
BRACKET
 62
     7
 10
175.8573151450002
 20
978.85755366399985
 30
0.0
 42
-0.0116470960005248
  0
VERTEX
  5
BF7
  8
BRACKET
 62
     7
 10
175.91541158100009
 20
979.10707815800004
 30
0.0
  0
VERTEX
  5
BF8
  8
BRACKET
 62
     7
 10
175.91541158100009
 20
979.10707815800004
 30
0.0
  0
VERTEX
  5
BF9
  8
BRACKET
 62
     7
 10
175.91541158100111
 20
979.10707815800333
 30
0.0
 42
-0.0125274429999003
  0
VERTEX
  5
BFA
  8
BRACKET
 62
     7
 10
175.98302481199991
 20
979.34446930399986
 30
0.0
  0
VERTEX
  5
BFB
  8
BRACKET
 62
     7
 10
175.98302481199991
 20
979.34446930399986
 30
0.0
  0
VERTEX
  5
BFC
  8
BRACKET
 62
     7
 10
175.9830248120013
 20
979.34446930400395
 30
0.0
 42
-0.0136534089994828
  0
VERTEX
  5
BFD
  8
BRACKET
 62
     7
 10
176.05964559800009
 20
979.56793915399965
 30
0.0
  0
VERTEX
  5
BFE
  8
BRACKET
 62
     7
 10
176.05964559800009
 20
979.56793915399965
 30
0.0
  0
VERTEX
  5
BFF
  8
BRACKET
 62
     7
 10
176.0596455980008
 20
979.56793915400192
 30
0.0
 42
-0.0150812849996936
  0
VERTEX
  5
C00
  8
BRACKET
 62
     7
 10
176.14469685899999
 20
979.77580461000002
 30
0.0
  0
VERTEX
  5
C01
  8
BRACKET
 62
     7
 10
176.14469685899999
 20
979.77580461000002
 30
0.0
  0
VERTEX
  5
C02
  8
BRACKET
 62
     7
 10
176.14469685899999
 20
979.77580461000002
 30
0.0
 42
-0.0168833470002286
  0
VERTEX
  5
C03
  8
BRACKET
 62
     7
 10
176.23753801700011
 20
979.96650009999985
 30
0.0
  0
VERTEX
  5
C04
  8
BRACKET
 62
     7
 10
176.23753801700011
 20
979.96650009999985
 30
0.0
  0
VERTEX
  5
C05
  8
BRACKET
 62
     7
 10
176.23753801700011
 20
979.96650009999985
 30
0.0
 42
-0.0191488540002213
  0
VERTEX
  5
C06
  8
BRACKET
 62
     7
 10
176.33746982600019
 20
980.13858937299995
 30
0.0
  0
VERTEX
  5
C07
  8
BRACKET
 62
     7
 10
176.33746982600019
 20
980.13858937299995
 30
0.0
  0
VERTEX
  5
C08
  8
BRACKET
 62
     7
 10
176.33746982600019
 20
980.13858937299995
 30
0.0
 42
-0.021980189000089
  0
VERTEX
  5
C09
  8
BRACKET
 62
     7
 10
176.44373963200019
 20
980.29077630999996
 30
0.0
  0
VERTEX
  5
C0A
  8
BRACKET
 62
     7
 10
176.44373963200019
 20
980.29077630999996
 30
0.0
  0
VERTEX
  5
C0B
  8
BRACKET
 62
     7
 10
176.4437396320001
 20
980.29077630999996
 30
0.0
 42
-0.0254767700002571
  0
VERTEX
  5
C0C
  8
BRACKET
 62
     7
 10
176.5555470490001
 20
980.42191469199986
 30
0.0
  0
VERTEX
  5
C0D
  8
BRACKET
 62
     7
 10
176.5555470490001
 20
980.42191469199986
 30
0.0
  0
VERTEX
  5
C0E
  8
BRACKET
 62
     7
 10
176.5555470490001
 20
980.42191469199986
 30
0.0
 42
-0.0296929790000275
  0
VERTEX
  5
C0F
  8
BRACKET
 62
     7
 10
176.6720499810001
 20
980.53101683
 30
0.0
  0
VERTEX
  5
C10
  8
BRACKET
 62
     7
 10
176.6720499810001
 20
980.53101683
 30
0.0
  0
VERTEX
  5
C11
  8
BRACKET
 62
     7
 10
176.67204998100021
 20
980.53101683
 30
0.0
 42
-0.0345509549996822
  0
VERTEX
  5
C12
  8
BRACKET
 62
     7
 10
176.79237096800011
 20
980.61726100399994
 30
0.0
  0
VERTEX
  5
C13
  8
BRACKET
 62
     7
 10
176.79237096800011
 20
980.61726100399994
 30
0.0
  0
VERTEX
  5
C14
  8
BRACKET
 62
     7
 10
176.79237096800111
 20
980.61726100400062
 30
0.0
 42
-0.0397012469995556
  0
VERTEX
  5
C15
  8
BRACKET
 62
     7
 10
176.91560379399991
 20
980.67999765299987
 30
0.0
  0
VERTEX
  5
C16
  8
BRACKET
 62
     7
 10
176.91560379399991
 20
980.67999765299987
 30
0.0
  0
VERTEX
  5
C17
  8
BRACKET
 62
     7
 10
176.91560379400059
 20
980.67999765300033
 30
0.0
 42
-0.0443911849995336
  0
VERTEX
  5
C18
  8
BRACKET
 62
     7
 10
177.0408203130003
 20
980.71875426500003
 30
0.0
  0
VERTEX
  5
C19
  8
BRACKET
 62
     7
 10
177.0408203130003
 20
980.71875426500003
 30
0.0
  0
VERTEX
  5
C1A
  8
BRACKET
 62
     7
 10
177.0408203130003
 20
980.71875426500003
 30
0.0
  0
SEQEND
  5
C1B
  8
BRACKET
 62
     7
  0
LINE
  5
50B
  8
BRACKET
 62
     7
 10
179.94121093800021
 20
980.71875426500003
 30
0.0
 11
179.94121093800021
 21
969.00000426500003
 31
0.0
  0
POLYLINE
  5
50C
  8
BRACKET
 62
     7
 66
     1
 10
0.0
 20
0.0
 30
0.0
 70
   128
  0
VERTEX
  5
C1C
  8
BRACKET
 62
     7
 10
171.5857421880001
 20
978.14062926500003
 30
0.0
 42
-0.011861249000108
  0
VERTEX
  5
C1D
  8
BRACKET
 62
     7
 10
171.7061270239999
 20
977.58027263500014
 30
0.0
  0
VERTEX
  5
C1E
  8
BRACKET
 62
     7
 10
171.7061270239999
 20
977.58027263500014
 30
0.0
  0
VERTEX
  5
C1F
  8
BRACKET
 62
     7
 10
171.7061270240001
 20
977.58027263499878
 30
0.0
 42
-0.0111726709999253
  0
VERTEX
  5
C20
  8
BRACKET
 62
     7
 10
171.80360095000009
 20
976.99833779399989
 30
0.0
  0
VERTEX
  5
C21
  8
BRACKET
 62
     7
 10
171.80360095000009
 20
976.99833779399989
 30
0.0
  0
VERTEX
  5
C22
  8
BRACKET
 62
     7
 10
171.80360095000009
 20
976.99833779399989
 30
0.0
 42
-0.0106649060001817
  0
VERTEX
  5
C23
  8
BRACKET
 62
     7
 10
171.87739094300011
 20
976.39943981299996
 30
0.0
  0
VERTEX
  5
C24
  8
BRACKET
 62
     7
 10
171.87739094300011
 20
976.39943981299996
 30
0.0
  0
VERTEX
  5
C25
  8
BRACKET
 62
     7
 10
171.87739094300071
 20
976.39943981299382
 30
0.0
 42
-0.0103138129998576
  0
VERTEX
  5
C26
  8
BRACKET
 62
     7
 10
171.92691180500009
 20
975.78832828700001
 30
0.0
  0
VERTEX
  5
C27
  8
BRACKET
 62
     7
 10
171.92691180500009
 20
975.78832828700001
 30
0.0
  0
VERTEX
  5
C28
  8
BRACKET
 62
     7
 10
171.92691180500009
 20
975.78832828700001
 30
0.0
 42
-0.0101031870003625
  0
VERTEX
  5
C29
  8
BRACKET
 62
     7
 10
171.95177080900001
 20
975.16984967399992
 30
0.0
  0
VERTEX
  5
C2A
  8
BRACKET
 62
     7
 10
171.95177080900001
 20
975.16984967399992
 30
0.0
  0
VERTEX
  5
C2B
  8
BRACKET
 62
     7
 10
171.95177080900001
 20
975.16984967399992
 30
0.0
 42
-0.0100235120002597
  0
VERTEX
  5
C2C
  8
BRACKET
 62
     7
 10
171.95177080900001
 20
974.54890885699979
 30
0.0
  0
VERTEX
  5
C2D
  8
BRACKET
 62
     7
 10
171.95177080900001
 20
974.54890885699979
 30
0.0
  0
VERTEX
  5
C2E
  8
BRACKET
 62
     7
 10
171.95177080900001
 20
974.54890885699979
 30
0.0
 42
-0.010071229000178
  0
VERTEX
  5
C2F
  8
BRACKET
 62
     7
 10
171.92691180500009
 20
973.93043024399992
 30
0.0
  0
VERTEX
  5
C30
  8
BRACKET
 62
     7
 10
171.92691180500009
 20
973.93043024399992
 30
0.0
  0
VERTEX
  5
C31
  8
BRACKET
 62
     7
 10
171.92691180499969
 20
973.93043024399356
 30
0.0
 42
-0.0102484669997957
  0
VERTEX
  5
C32
  8
BRACKET
 62
     7
 10
171.87739094300011
 20
973.31931871799986
 30
0.0
  0
VERTEX
  5
C33
  8
BRACKET
 62
     7
 10
171.87739094300011
 20
973.31931871799986
 30
0.0
  0
VERTEX
  5
C34
  8
BRACKET
 62
     7
 10
171.87739094299999
 20
973.31931871799884
 30
0.0
 42
-0.010563200999903
  0
VERTEX
  5
C35
  8
BRACKET
 62
     7
 10
171.80360095000009
 20
972.72042073600005
 30
0.0
  0
VERTEX
  5
C36
  8
BRACKET
 62
     7
 10
171.80360095000009
 20
972.72042073600005
 30
0.0
  0
VERTEX
  5
C37
  8
BRACKET
 62
     7
 10
171.80360095000009
 20
972.72042073600005
 30
0.0
 42
-0.0110298720000379
  0
VERTEX
  5
C38
  8
BRACKET
 62
     7
 10
171.7061270239999
 20
972.13848589500014
 30
0.0
  0
VERTEX
  5
C39
  8
BRACKET
 62
     7
 10
171.7061270239999
 20
972.13848589500014
 30
0.0
  0
VERTEX
  5
C3A
  8
BRACKET
 62
     7
 10
171.7061270239993
 20
972.13848589499685
 30
0.0
 42
-0.0116704869997973
  0
VERTEX
  5
C3B
  8
BRACKET
 62
     7
 10
171.5857421880001
 20
971.57812926500003
 30
0.0
  0
VERTEX
  5
C3C
  8
BRACKET
 62
     7
 10
171.5857421880001
 20
971.57812926500003
 30
0.0
  0
SEQEND
  5
C3D
  8
BRACKET
 62
     7
  0
POLYLINE
  5
52F
  8
BRACKET
 62
     7
 66
     1
 10
0.0
 20
0.0
 30
0.0
 70
   128
  0
VERTEX
  5
C3E
  8
BRACKET
 62
     7
 10
167.6306640630001
 20
971.57812926500003
 30
0.0
 42
-0.0120624300001918
  0
VERTEX
  5
C3F
  8
BRACKET
 62
     7
 10
167.5129407340001
 20
972.041072192
 30
0.0
  0
VERTEX
  5
C40
  8
BRACKET
 62
     7
 10
167.5129407340001
 20
972.041072192
 30
0.0
  0
VERTEX
  5
C41
  8
BRACKET
 62
     7
 10
167.5129407340001
 20
972.041072192
 30
0.0
 42
-0.0112713600001558
  0
VERTEX
  5
C42
  8
BRACKET
 62
     7
 10
167.413486788
 20
972.52471431999982
 30
0.0
  0
VERTEX
  5
C43
  8
BRACKET
 62
     7
 10
167.413486788
 20
972.52471431999982
 30
0.0
  0
VERTEX
  5
C44
  8
BRACKET
 62
     7
 10
167.41348678799969
 20
972.52471432000107
 30
0.0
 42
-0.0106649539999685
  0
VERTEX
  5
C45
  8
BRACKET
 62
     7
 10
167.33303266999991
 20
973.02550351499985
 30
0.0
  0
VERTEX
  5
C46
  8
BRACKET
 62
     7
 10
167.33303266999991
 20
973.02550351499985
 30
0.0
  0
VERTEX
  5
C47
  8
BRACKET
 62
     7
 10
167.33303266999951
 20
973.02550351500315
 30
0.0
 42
-0.0102157609998638
  0
VERTEX
  5
C48
  8
BRACKET
 62
     7
 10
167.27216927900011
 20
973.53976170399994
 30
0.0
  0
VERTEX
  5
C49
  8
BRACKET
 62
     7
 10
167.27216927900011
 20
973.53976170399994
 30
0.0
  0
VERTEX
  5
C4A
  8
BRACKET
 62
     7
 10
167.27216927899951
 20
973.53976170400574
 30
0.0
 42
-0.0099041029997453
  0
VERTEX
  5
C4B
  8
BRACKET
 62
     7
 10
167.23134362799999
 20
974.06371189299989
 30
0.0
  0
VERTEX
  5
C4C
  8
BRACKET
 62
     7
 10
167.23134362799999
 20
974.06371189299989
 30
0.0
  0
VERTEX
  5
C4D
  8
BRACKET
 62
     7
 10
167.23134362799979
 20
974.06371189300444
 30
0.0
 42
-0.009716698999707
  0
VERTEX
  5
C4E
  8
BRACKET
 62
     7
 10
167.21085556599991
 20
974.59350590099984
 30
0.0
  0
VERTEX
  5
C4F
  8
BRACKET
 62
     7
 10
167.21085556599991
 20
974.59350590099984
 30
0.0
  0
VERTEX
  5
C50
  8
BRACKET
 62
     7
 10
167.21085556599979
 20
974.59350590100485
 30
0.0
 42
-0.009645719999785
  0
VERTEX
  5
C51
  8
BRACKET
 62
     7
 10
167.21085556599991
 20
975.12525262999998
 30
0.0
  0
VERTEX
  5
C52
  8
BRACKET
 62
     7
 10
167.21085556599991
 20
975.12525262999998
 30
0.0
  0
VERTEX
  5
C53
  8
BRACKET
 62
     7
 10
167.21085556600011
 20
975.12525263000794
 30
0.0
 42
-0.0096882339996685
  0
VERTEX
  5
C54
  8
BRACKET
 62
     7
 10
167.23134362799999
 20
975.65504663800004
 30
0.0
  0
VERTEX
  5
C55
  8
BRACKET
 62
     7
 10
167.23134362799999
 20
975.65504663800004
 30
0.0
  0
VERTEX
  5
C56
  8
BRACKET
 62
     7
 10
167.23134362799999
 20
975.65504663800004
 30
0.0
 42
-0.009845996000062
  0
VERTEX
  5
C57
  8
BRACKET
 62
     7
 10
167.27216927900011
 20
976.17899682599955
 30
0.0
  0
VERTEX
  5
C58
  8
BRACKET
 62
     7
 10
167.27216927900011
 20
976.17899682599955
 30
0.0
  0
VERTEX
  5
C59
  8
BRACKET
 62
     7
 10
167.27216927900079
 20
976.17899682600762
 30
0.0
 42
-0.010125571999737
  0
VERTEX
  5
C5A
  8
BRACKET
 62
     7
 10
167.33303266999991
 20
976.69325501599985
 30
0.0
  0
VERTEX
  5
C5B
  8
BRACKET
 62
     7
 10
167.33303266999991
 20
976.69325501599985
 30
0.0
  0
VERTEX
  5
C5C
  8
BRACKET
 62
     7
 10
167.3330326700007
 20
976.69325501600554
 30
0.0
 42
-0.010538805999799
  0
VERTEX
  5
C5D
  8
BRACKET
 62
     7
 10
167.413486788
 20
977.19404421000002
 30
0.0
  0
VERTEX
  5
C5E
  8
BRACKET
 62
     7
 10
167.413486788
 20
977.19404421000002
 30
0.0
  0
VERTEX
  5
C5F
  8
BRACKET
 62
     7
 10
167.413486788
 20
977.19404421000002
 30
0.0
 42
-0.011103667000158
  0
VERTEX
  5
C60
  8
BRACKET
 62
     7
 10
167.5129407340001
 20
977.67768633799994
 30
0.0
  0
VERTEX
  5
C61
  8
BRACKET
 62
     7
 10
167.5129407340001
 20
977.67768633799994
 30
0.0
  0
VERTEX
  5
C62
  8
BRACKET
 62
     7
 10
167.5129407340001
 20
977.67768633799994
 30
0.0
 42
-0.0118455080002639
  0
VERTEX
  5
C63
  8
BRACKET
 62
     7
 10
167.6306640630001
 20
978.14062926500003
 30
0.0
  0
VERTEX
  5
C64
  8
BRACKET
 62
     7
 10
167.6306640630001
 20
978.14062926500003
 30
0.0
  0
SEQEND
  5
C65
  8
BRACKET
 62
     7
  0
LINE
  5
558
  8
BRACKET
 62
     7
 10
163.4412109380003
 20
969.00000426500003
 30
0.0
 11
163.4412109380003
 21
980.71875426500003
 31
0.0
  0
LINE
  5
559
  8
BRACKET
 62
     7
 10
159.2224609380003
 20
969.00000426500003
 30
0.0
 11
159.2224609380003
 21
980.71875426500003
 31
0.0
  0
LINE
  5
55A
  8
BRACKET
 62
     7
 10
155.1912109380003
 20
980.71875426500003
 30
0.0
 11
150.97246093800021
 21
980.71875426500003
 31
0.0
  0
LINE
  5
55B
  8
BRACKET
 62
     7
 10
177.0408203130003
 20
980.71875426500003
 30
0.0
 11
178.94121093800021
 21
980.71875426500003
 31
0.0
  0
LINE
  5
55C
  8
BRACKET
 62
     7
 10
178.94121093800021
 20
974.27344176500003
 30
0.0
 11
177.0408203130003
 21
974.27344176500003
 31
0.0
  0
LINE
  5
55D
  8
BRACKET
 62
     7
 10
162.4412109380003
 20
977.94097648800005
 30
0.0
 11
160.22246093800021
 21
971.77778204299989
 31
0.0
  0
LINE
  5
55E
  8
BRACKET
 62
     7
 10
153.08183593800021
 20
979.71875426500003
 30
0.0
 11
153.08183593800021
 21
969.00000426500003
 31
0.0
  0
POLYLINE
  5
55F
  8
BRACKET
 62
     7
 66
     1
 10
0.0
 20
0.0
 30
0.0
 70
   128
  0
VERTEX
  5
C66
  8
BRACKET
 62
     7
 10
170.09733262300099
 20
980.60034748499982
 30
0.0
 42
-0.0378228089996058
  0
VERTEX
  5
C67
  8
BRACKET
 62
     7
 10
170.281967221
 20
980.49128116600014
 30
0.0
  0
VERTEX
  5
C68
  8
BRACKET
 62
     7
 10
170.281967221
 20
980.49128116600014
 30
0.0
  0
VERTEX
  5
C69
  8
BRACKET
 62
     7
 10
170.281967221
 20
980.49128116600014
 30
0.0
 42
-0.0329632950005618
  0
VERTEX
  5
C6A
  8
BRACKET
 62
     7
 10
170.46180976900021
 20
980.34803099600015
 30
0.0
  0
VERTEX
  5
C6B
  8
BRACKET
 62
     7
 10
170.46180976900021
 20
980.34803099600015
 30
0.0
  0
VERTEX
  5
C6C
  8
BRACKET
 62
     7
 10
170.4618097689999
 20
980.34803099600015
 30
0.0
 42
-0.0284318460001409
  0
VERTEX
  5
C6D
  8
BRACKET
 62
     7
 10
170.6355811630001
 20
980.17161582099982
 30
0.0
  0
VERTEX
  5
C6E
  8
BRACKET
 62
     7
 10
170.6355811630001
 20
980.17161582099982
 30
0.0
  0
VERTEX
  5
C6F
  8
BRACKET
 62
     7
 10
170.63558116300101
 20
980.17161582099857
 30
0.0
 42
-0.0245056430000597
  0
VERTEX
  5
C70
  8
BRACKET
 62
     7
 10
170.80204547800011
 20
979.96329036999987
 30
0.0
  0
VERTEX
  5
C71
  8
BRACKET
 62
     7
 10
170.80204547800011
 20
979.96329036999987
 30
0.0
  0
VERTEX
  5
C72
  8
BRACKET
 62
     7
 10
170.80204547800011
 20
979.96329036999987
 30
0.0
 42
-0.0212395200003148
  0
VERTEX
  5
C73
  8
BRACKET
 62
     7
 10
170.96001876200009
 20
979.72453632600002
 30
0.0
  0
VERTEX
  5
C74
  8
BRACKET
 62
     7
 10
170.96001876200009
 20
979.72453632600002
 30
0.0
  0
VERTEX
  5
C75
  8
BRACKET
 62
     7
 10
170.96001876200171
 20
979.72453632599706
 30
0.0
 42
-0.0185808099996846
  0
VERTEX
  5
C76
  8
BRACKET
 62
     7
 10
171.10837745200001
 20
979.45705179399965
 30
0.0
  0
VERTEX
  5
C77
  8
BRACKET
 62
     7
 10
171.10837745200001
 20
979.45705179399965
 30
0.0
  0
VERTEX
  5
C78
  8
BRACKET
 62
     7
 10
171.10837745200001
 20
979.45705179399965
 30
0.0
 42
-0.0164402350000534
  0
VERTEX
  5
C79
  8
BRACKET
 62
     7
 10
171.24606636900009
 20
979.16273921899995
 30
0.0
  0
VERTEX
  5
C7A
  8
BRACKET
 62
     7
 10
171.24606636900009
 20
979.16273921899995
 30
0.0
  0
VERTEX
  5
C7B
  8
BRACKET
 62
     7
 10
171.2460663690006
 20
979.16273921899847
 30
0.0
 42
-0.0147263959997709
  0
VERTEX
  5
C7C
  8
BRACKET
 62
     7
 10
171.37210621899999
 20
978.84369185599996
 30
0.0
  0
VERTEX
  5
C7D
  8
BRACKET
 62
     7
 10
171.37210621899999
 20
978.84369185599996
 30
0.0
  0
VERTEX
  5
C7E
  8
BRACKET
 62
     7
 10
171.37210621899999
 20
978.84369185599996
 30
0.0
 42
-0.0133592270001223
  0
VERTEX
  5
C7F
  8
BRACKET
 62
     7
 10
171.48560056200009
 20
978.50217888399993
 30
0.0
  0
VERTEX
  5
C80
  8
BRACKET
 62
     7
 10
171.48560056200009
 20
978.50217888399993
 30
0.0
  0
VERTEX
  5
C81
  8
BRACKET
 62
     7
 10
171.48560056200009
 20
978.50217888399993
 30
0.0
 42
-0.0122733900000967
  0
VERTEX
  5
C82
  8
BRACKET
 62
     7
 10
171.5857421880001
 20
978.14062926500003
 30
0.0
  0
VERTEX
  5
C83
  8
BRACKET
 62
     7
 10
171.5857421880001
 20
978.14062926500003
 30
0.0
  0
SEQEND
  5
C84
  8
BRACKET
 62
     7
  0
POLYLINE
  5
57F
  8
BRACKET
 62
     7
 66
     1
 10
0.0
 20
0.0
 30
0.0
 70
   128
  0
VERTEX
  5
C85
  8
BRACKET
 62
     7
 10
167.6306640630001
 20
978.14062926500003
 30
0.0
 42
-0.0120332960005228
  0
VERTEX
  5
C86
  8
BRACKET
 62
     7
 10
167.7307513060002
 20
978.50199990999988
 30
0.0
  0
VERTEX
  5
C87
  8
BRACKET
 62
     7
 10
167.7307513060002
 20
978.50199990999988
 30
0.0
  0
VERTEX
  5
C88
  8
BRACKET
 62
     7
 10
167.73075130600131
 20
978.50199991000341
 30
0.0
 42
-0.0130561769997386
  0
VERTEX
  5
C89
  8
BRACKET
 62
     7
 10
167.844178086
 20
978.84335553999995
 30
0.0
  0
VERTEX
  5
C8A
  8
BRACKET
 62
     7
 10
167.844178086
 20
978.84335553999995
 30
0.0
  0
VERTEX
  5
C8B
  8
BRACKET
 62
     7
 10
167.844178086
 20
978.84335553999995
 30
0.0
 42
-0.0143458650000542
  0
VERTEX
  5
C8C
  8
BRACKET
 62
     7
 10
167.97013849000021
 20
979.16227077899987
 30
0.0
  0
VERTEX
  5
C8D
  8
BRACKET
 62
     7
 10
167.97013849000021
 20
979.16227077899987
 30
0.0
  0
VERTEX
  5
C8E
  8
BRACKET
 62
     7
 10
167.9701384900018
 20
979.16227077900396
 30
0.0
 42
-0.0159639099996003
  0
VERTEX
  5
C8F
  8
BRACKET
 62
     7
 10
168.1077375540001
 20
979.45647969399988
 30
0.0
  0
VERTEX
  5
C90
  8
BRACKET
 62
     7
 10
168.1077375540001
 20
979.45647969399988
 30
0.0
  0
VERTEX
  5
C91
  8
BRACKET
 62
     7
 10
168.10773755400081
 20
979.45647969400147
 30
0.0
 42
-0.0179866049999018
  0
VERTEX
  5
C92
  8
BRACKET
 62
     7
 10
168.2559976190002
 20
979.72389189199987
 30
0.0
  0
VERTEX
  5
C93
  8
BRACKET
 62
     7
 10
168.2559976190002
 20
979.72389189199987
 30
0.0
  0
VERTEX
  5
C94
  8
BRACKET
 62
     7
 10
168.2559976190019
 20
979.72389189200283
 30
0.0
 42
-0.0205030409995955
  0
VERTEX
  5
C95
  8
BRACKET
 62
     7
 10
168.413865278
 20
979.96260737599982
 30
0.0
  0
VERTEX
  5
C96
  8
BRACKET
 62
     7
 10
168.413865278
 20
979.96260737599982
 30
0.0
  0
VERTEX
  5
C97
  8
BRACKET
 62
     7
 10
168.41386527800131
 20
979.96260737600164
 30
0.0
 42
-0.0236050309995369
  0
VERTEX
  5
C98
  8
BRACKET
 62
     7
 10
168.58021886
 20
980.17093004099991
 30
0.0
  0
VERTEX
  5
C99
  8
BRACKET
 62
     7
 10
168.58021886
 20
980.17093004099991
 30
0.0
  0
VERTEX
  5
C9A
  8
BRACKET
 62
     7
 10
168.5802188600002
 20
980.17093004099991
 30
0.0
 42
-0.0273593629999396
  0
VERTEX
  5
C9B
  8
BRACKET
 62
     7
 10
168.753876402
 20
980.34737972799996
 30
0.0
  0
VERTEX
  5
C9C
  8
BRACKET
 62
     7
 10
168.753876402
 20
980.34737972799996
 30
0.0
  0
VERTEX
  5
C9D
  8
BRACKET
 62
     7
 10
168.75387640200071
 20
980.34737972800042
 30
0.0
 42
-0.0317477439998117
  0
VERTEX
  5
C9E
  8
BRACKET
 62
     7
 10
168.933604046
 20
980.49070273899986
 30
0.0
  0
VERTEX
  5
C9F
  8
BRACKET
 62
     7
 10
168.933604046
 20
980.49070273899986
 30
0.0
  0
VERTEX
  5
CA0
  8
BRACKET
 62
     7
 10
168.9336040460002
 20
980.49070273899986
 30
0.0
 42
-0.0365625240002466
  0
VERTEX
  5
CA1
  8
BRACKET
 62
     7
 10
169.118124803
 20
980.59988074699993
 30
0.0
  0
VERTEX
  5
CA2
  8
BRACKET
 62
     7
 10
169.118124803
 20
980.59988074699993
 30
0.0
  0
VERTEX
  5
CA3
  8
BRACKET
 62
     7
 10
169.118124803
 20
980.59988074699993
 30
0.0
  0
SEQEND
  5
CA4
  8
BRACKET
 62
     7
  0
POLYLINE
  5
5A0
  8
BRACKET
 62
     7
 66
     1
 10
0.0
 20
0.0
 30
0.0
 70
   128
  0
VERTEX
  5
CA5
  8
BRACKET
 62
     7
 10
169.11812480299841
 20
969.11887778400069
 30
0.0
 42
-0.0377798319991461
  0
VERTEX
  5
CA6
  8
BRACKET
 62
     7
 10
168.933604046
 20
969.22805579099986
 30
0.0
  0
VERTEX
  5
CA7
  8
BRACKET
 62
     7
 10
168.933604046
 20
969.22805579099986
 30
0.0
  0
VERTEX
  5
CA8
  8
BRACKET
 62
     7
 10
168.93360404599909
 20
969.2280557910002
 30
0.0
 42
-0.0329256259999779
  0
VERTEX
  5
CA9
  8
BRACKET
 62
     7
 10
168.753876402
 20
969.37137880299986
 30
0.0
  0
VERTEX
  5
CAA
  8
BRACKET
 62
     7
 10
168.753876402
 20
969.37137880299986
 30
0.0
  0
VERTEX
  5
CAB
  8
BRACKET
 62
     7
 10
168.753876402
 20
969.37137880299986
 30
0.0
 42
-0.0284009050000109
  0
VERTEX
  5
CAC
  8
BRACKET
 62
     7
 10
168.58021886
 20
969.54782849000003
 30
0.0
  0
VERTEX
  5
CAD
  8
BRACKET
 62
     7
 10
168.58021886
 20
969.54782849000003
 30
0.0
  0
VERTEX
  5
CAE
  8
BRACKET
 62
     7
 10
168.5802188600002
 20
969.54782848999957
 30
0.0
 42
-0.0244810789998434
  0
VERTEX
  5
CAF
  8
BRACKET
 62
     7
 10
168.413865278
 20
969.756151155
 30
0.0
  0
VERTEX
  5
CB0
  8
BRACKET
 62
     7
 10
168.413865278
 20
969.756151155
 30
0.0
  0
VERTEX
  5
CB1
  8
BRACKET
 62
     7
 10
168.41386527799671
 20
969.75615115500455
 30
0.0
 42
-0.0212202859994664
  0
VERTEX
  5
CB2
  8
BRACKET
 62
     7
 10
168.2559976190002
 20
969.99486663899995
 30
0.0
  0
VERTEX
  5
CB3
  8
BRACKET
 62
     7
 10
168.2559976190002
 20
969.99486663899995
 30
0.0
  0
VERTEX
  5
CB4
  8
BRACKET
 62
     7
 10
168.2559976190002
 20
969.99486663899995
 30
0.0
 42
-0.0185657550002937
  0
VERTEX
  5
CB5
  8
BRACKET
 62
     7
 10
168.1077375540001
 20
970.26227883700005
 30
0.0
  0
VERTEX
  5
CB6
  8
BRACKET
 62
     7
 10
168.1077375540001
 20
970.26227883700005
 30
0.0
  0
VERTEX
  5
CB7
  8
BRACKET
 62
     7
 10
168.1077375539999
 20
970.26227883700028
 30
0.0
 42
-0.0164283490001696
  0
VERTEX
  5
CB8
  8
BRACKET
 62
     7
 10
167.97013849000021
 20
970.55648775199995
 30
0.0
  0
VERTEX
  5
CB9
  8
BRACKET
 62
     7
 10
167.97013849000021
 20
970.55648775199995
 30
0.0
  0
VERTEX
  5
CBA
  8
BRACKET
 62
     7
 10
167.97013849000021
 20
970.55648775199995
 30
0.0
 42
-0.0147168660000445
  0
VERTEX
  5
CBB
  8
BRACKET
 62
     7
 10
167.844178086
 20
970.87540299099965
 30
0.0
  0
VERTEX
  5
CBC
  8
BRACKET
 62
     7
 10
167.844178086
 20
970.87540299099965
 30
0.0
  0
VERTEX
  5
CBD
  8
BRACKET
 62
     7
 10
167.844178086
 20
970.87540299099965
 30
0.0
 42
-0.0133514270000183
  0
VERTEX
  5
CBE
  8
BRACKET
 62
     7
 10
167.7307513060002
 20
971.21675862099983
 30
0.0
  0
VERTEX
  5
CBF
  8
BRACKET
 62
     7
 10
167.7307513060002
 20
971.21675862099983
 30
0.0
  0
VERTEX
  5
CC0
  8
BRACKET
 62
     7
 10
167.7307513060002
 20
971.21675862099983
 30
0.0
 42
-0.0122668420003379
  0
VERTEX
  5
CC1
  8
BRACKET
 62
     7
 10
167.6306640630001
 20
971.57812926500003
 30
0.0
  0
VERTEX
  5
CC2
  8
BRACKET
 62
     7
 10
167.6306640630001
 20
971.57812926500003
 30
0.0
  0
VERTEX
  5
CC3
  8
BRACKET
 62
     7
 10
167.6306640630001
 20
971.57812926500003
 30
0.0
  0
SEQEND
  5
CC4
  8
BRACKET
 62
     7
  0
POLYLINE
  5
5C1
  8
BRACKET
 62
     7
 66
     1
 10
0.0
 20
0.0
 30
0.0
 70
   128
  0
VERTEX
  5
CC5
  8
BRACKET
 62
     7
 10
171.58574218799879
 20
971.57812926499435
 30
0.0
 42
-0.012033295999718
  0
VERTEX
  5
CC6
  8
BRACKET
 62
     7
 10
171.48565494400009
 20
971.21675862099983
 30
0.0
  0
VERTEX
  5
CC7
  8
BRACKET
 62
     7
 10
171.48565494400009
 20
971.21675862099983
 30
0.0
  0
VERTEX
  5
CC8
  8
BRACKET
 62
     7
 10
171.48565494400009
 20
971.21675862099983
 30
0.0
 42
-0.0130561770000381
  0
VERTEX
  5
CC9
  8
BRACKET
 62
     7
 10
171.37222816400001
 20
970.87540299099965
 30
0.0
  0
VERTEX
  5
CCA
  8
BRACKET
 62
     7
 10
171.37222816400001
 20
970.87540299099965
 30
0.0
  0
VERTEX
  5
CCB
  8
BRACKET
 62
     7
 10
171.37222816399901
 20
970.87540299099715
 30
0.0
 42
-0.0143458649996079
  0
VERTEX
  5
CCC
  8
BRACKET
 62
     7
 10
171.24626776000011
 20
970.55648775199995
 30
0.0
  0
VERTEX
  5
CCD
  8
BRACKET
 62
     7
 10
171.24626776000011
 20
970.55648775199995
 30
0.0
  0
VERTEX
  5
CCE
  8
BRACKET
 62
     7
 10
171.24626776000011
 20
970.55648775199995
 30
0.0
 42
-0.0159639100002908
  0
VERTEX
  5
CCF
  8
BRACKET
 62
     7
 10
171.10866869600019
 20
970.26227883700005
 30
0.0
  0
VERTEX
  5
CD0
  8
BRACKET
 62
     7
 10
171.10866869600019
 20
970.26227883700005
 30
0.0
  0
VERTEX
  5
CD1
  8
BRACKET
 62
     7
 10
171.10866869599869
 20
970.26227883699676
 30
0.0
 42
-0.0179866049994344
  0
VERTEX
  5
CD2
  8
BRACKET
 62
     7
 10
170.96040863100029
 20
969.99486663899995
 30
0.0
  0
VERTEX
  5
CD3
  8
BRACKET
 62
     7
 10
170.96040863100029
 20
969.99486663899995
 30
0.0
  0
VERTEX
  5
CD4
  8
BRACKET
 62
     7
 10
170.96040863100029
 20
969.99486663899995
 30
0.0
 42
-0.0205030410000395
  0
VERTEX
  5
CD5
  8
BRACKET
 62
     7
 10
170.80254097200009
 20
969.756151155
 30
0.0
  0
VERTEX
  5
CD6
  8
BRACKET
 62
     7
 10
170.80254097200009
 20
969.756151155
 30
0.0
  0
VERTEX
  5
CD7
  8
BRACKET
 62
     7
 10
170.80254097200009
 20
969.756151155
 30
0.0
 42
-0.0236050310000493
  0
VERTEX
  5
CD8
  8
BRACKET
 62
     7
 10
170.6361873900002
 20
969.54782849000003
 30
0.0
  0
VERTEX
  5
CD9
  8
BRACKET
 62
     7
 10
170.6361873900002
 20
969.54782849000003
 30
0.0
  0
VERTEX
  5
CDA
  8
BRACKET
 62
     7
 10
170.63618739000029
 20
969.54782849000003
 30
0.0
 42
-0.0273593629998785
  0
VERTEX
  5
CDB
  8
BRACKET
 62
     7
 10
170.46252984800009
 20
969.37137880299986
 30
0.0
  0
VERTEX
  5
CDC
  8
BRACKET
 62
     7
 10
170.46252984800009
 20
969.37137880299986
 30
0.0
  0
VERTEX
  5
CDD
  8
BRACKET
 62
     7
 10
170.46252984800009
 20
969.37137880299986
 30
0.0
 42
-0.031747744000147
  0
VERTEX
  5
CDE
  8
BRACKET
 62
     7
 10
170.28280220400001
 20
969.22805579099986
 30
0.0
  0
VERTEX
  5
CDF
  8
BRACKET
 62
     7
 10
170.28280220400001
 20
969.22805579099986
 30
0.0
  0
VERTEX
  5
CE0
  8
BRACKET
 62
     7
 10
170.28280220400001
 20
969.22805579099986
 30
0.0
 42
-0.0365625240000037
  0
VERTEX
  5
CE1
  8
BRACKET
 62
     7
 10
170.09828144700009
 20
969.11887778399966
 30
0.0
  0
VERTEX
  5
CE2
  8
BRACKET
 62
     7
 10
170.09828144700009
 20
969.11887778399966
 30
0.0
  0
SEQEND
  5
CE3
  8
BRACKET
 62
     7
  0
LINE
  5
5E1
  8
BRACKET
 62
     7
 10
177.16816406300009
 20
973.27344176500003
 30
0.0
 11
175.45878906300021
 21
969.00000426500003
 31
0.0
  0
CIRCLE
  5
5E2
  8
BRACKET
 62
     7
 10
400.00000000000011
 20
1020.0
 30
0.0
 40
4.5999999999999091
  0
CIRCLE
  5
5E3
  8
BRACKET
 62
     7
 10
400.00000000000011
 20
880.0
 30
0.0
 40
4.5999999999999091
  0
CIRCLE
  5
5E4
  8
BRACKET
 62
     7
 10
280.00000000000028
 20
1020.0
 30
0.0
 40
4.5999999999999091
  0
CIRCLE
  5
5E5
  8
BRACKET
 62
     7
 10
280.00000000000028
 20
880.0
 30
0.0
 40
4.5999999999999091
  0
CIRCLE
  5
5E6
  8
BRACKET
 62
     7
 10
520.0
 20
880.0
 30
0.0
 40
4.5999999999999091
  0
CIRCLE
  5
5E7
  8
BRACKET
 62
     7
 10
520.0
 20
1020.0
 30
0.0
 40
4.5999999999999091
  0
CIRCLE
  5
5E8
  8
BRACKET
 62
     7
 10
160.0000000000002
 20
1020.0
 30
0.0
 40
6.5
  0
CIRCLE
  5
5E9
  8
BRACKET
 62
     7
 10
160.0000000000002
 20
880.0
 30
0.0
 40
6.5
  0
CIRCLE
  5
5EA
  8
BRACKET
 62
     7
 10
640.0
 20
1020.0
 30
0.0
 40
6.5
  0
CIRCLE
  5
5EB
  8
BRACKET
 62
     7
 10
640.0
 20
880.0
 30
0.0
 40
6.5
  0
CIRCLE
  5
5EC
  8
BRACKET
 62
     7
 10
620.0
 20
880.0
 30
0.0
 40
4.5999999999999091
  0
CIRCLE
  5
5ED
  8
BRACKET
 62
     7
 10
620.0
 20
1020.0
 30
0.0
 40
4.5999999999999091
  0
CIRCLE
  5
5EE
  8
BRACKET
 62
     7
 10
180.0000000000002
 20
1020.0
 30
0.0
 40
4.5999999999999091
  0
CIRCLE
  5
5EF
  8
BRACKET
 62
     7
 10
180.0000000000002
 20
880.0
 30
0.0
 40
4.5999999999999091
  0
LINE
  5
5F0
  8
BRACKET
 62
     7
 10
-136.48831477499991
 20
-62.804661837000033
 30
0.0
 11
-236.153608733548
 21
-80.279654366376093
 31
0.0
  0
CIRCLE
  5
5F1
  8
BRACKET
 62
     7
 10
-266.5
 20
-50.0
 30
0.0
 40
3.5999999999999082
  0
CIRCLE
  5
5F2
  8
BRACKET
 62
     7
 10
-137.0
 20
-50.0
 30
0.0
 40
3.5999999999999082
  0
CIRCLE
  5
5F3
  8
BRACKET
 62
     7
 10
-220.0
 20
-50.0
 30
0.0
 40
3.5999999999999082
  0
CIRCLE
  5
5F4
  8
BRACKET
 62
     7
 10
-192.63838853400009
 20
25.175409663000089
 30
0.0
 40
2.1000000000001351
  0
CIRCLE
  5
5F5
  8
BRACKET
 62
     7
 10
-189.21818710100001
 20
34.57233587099995
 30
0.0
 40
2.0999999999999082
  0
CIRCLE
  5
5F6
  8
BRACKET
 62
     7
 10
-185.79798566700009
 20
43.969262079000032
 30
0.0
 40
2.1000000000001351
  0
CIRCLE
  5
5F7
  8
BRACKET
 62
     7
 10
-182.37778423399999
 20
53.366188286000003
 30
0.0
 40
2.0999999999999082
  0
CIRCLE
  5
5F8
  8
BRACKET
 62
     7
 10
-178.9575828009998
 20
62.763114493999957
 30
0.0
 40
2.0999999999999082
  0
ARC
  5
5F9
  8
BRACKET
 62
     7
 10
-138.73345068399999
 20
-50.0
 30
0.0
 40
13.00000000000002
 50
279.94500069700001
 51
80.054999303000017
  0
LINE
  5
5FA
  8
BRACKET
 62
     7
 10
-284.0
 20
-88.668886933999943
 30
0.0
 11
-284.0
 21
-11.33111306599994
 31
0.0
  0
LINE
  5
5FB
  8
BRACKET
 62
     7
 10
-284.0
 20
-11.33111306599994
 30
0.0
 11
-270.29705269600009
 21
-13.73374383400005
 31
0.0
  0
ARC
  5
5FC
  8
BRACKET
 62
     7
 10
-261.66194305300007
 20
35.514960530000053
 30
0.0
 40
50.000000000000021
 50
264.140209211132
 51
330.000005354
  0
ARC
  5
5FD
  8
BRACKET
 62
     7
 10
-128.969814353
 20
12.24914887400007
 30
0.0
 40
49.999999999999822
 50
169.99999391200001
 51
260.05503242299989
  0
LINE
  5
5FE
  8
BRACKET
 62
     7
 10
-137.60492399500001
 20
-36.999555489000052
 30
0.0
 11
-136.48831477499991
 21
-37.195338162999981
 31
0.0
  0
LINE
  5
5FF
  8
BRACKET
 62
     7
 10
-185.88578603100021
 20
66.763114493999979
 30
0.0
 11
-218.3606705280001
 21
10.514964576000001
 31
0.0
  0
ARC
  5
600
  8
BRACKET
 62
     7
 10
-178.9575828009998
 20
62.763114493999957
 30
0.0
 40
7.9999999999998908
 50
350.00005381099999
 51
150.0000000000002
  0
LINE
  5
601
  8
BRACKET
 62
     7
 10
-171.079119472
 20
61.373936471999968
 30
0.0
 11
-178.21020108100009
 21
20.931562989999978
 31
0.0
  0
LINE
  5
602
  8
BRACKET
 62
     7
 10
-188.5
 20
-50.0
 30
0.0
 11
-183.5
 21
-50.0
 31
0.0
  0
LINE
  5
603
  8
BRACKET
 62
     7
 10
-188.5
 20
-50.0
 30
0.0
 11
-178.5
 21
-40.0
 31
0.0
  0
LINE
  5
604
  8
BRACKET
 62
     7
 10
-183.5
 20
-55.0
 30
0.0
 11
-183.5
 21
-50.0
 31
0.0
  0
LINE
  5
605
  8
BRACKET
 62
     7
 10
-178.5
 20
-40.0
 30
0.0
 11
-168.5
 21
-50.0
 31
0.0
  0
LINE
  5
606
  8
BRACKET
 62
     7
 10
-173.5
 20
-55.0
 30
0.0
 11
-173.5
 21
-50.0
 31
0.0
  0
LINE
  5
607
  8
BRACKET
 62
     7
 10
-173.5
 20
-50.0
 30
0.0
 11
-168.5
 21
-50.0
 31
0.0
  0
LINE
  5
608
  8
BRACKET
 62
     7
 10
-183.5
 20
-55.0
 30
0.0
 11
-173.5
 21
-55.0
 31
0.0
  0
CIRCLE
  5
609
  8
BRACKET
 62
     7
 10
-203.0239509310002
 20
-20.078025430000029
 30
0.0
 40
18.0
  0
LINE
  5
60A
  8
BRACKET
 62
     7
 10
-236.153608733548
 20
-80.279654366376093
 30
0.0
 11
-284.0
 21
-88.668886933999943
 31
0.0
  0
ARC
  5
60B
  8
BRACKET
 62
     7
 10
-261.66194305300007
 20
35.514960530000053
 30
0.0
 40
50.0
 50
260.05503242300028
 51
264.14020921113178
  0
CIRCLE
  5
60C
  8
BRACKET
 62
     7
 10
-255.6210666050001
 20
-564.88962385000013
 30
0.0
 40
3.600000000000136
  0
CIRCLE
  5
60D
  8
BRACKET
 62
     7
 10
-156.41831122100001
 20
-481.64862839599988
 30
0.0
 40
3.5999999999999082
  0
CIRCLE
  5
60E
  8
BRACKET
 62
     7
 10
-220.0
 20
-535.0
 30
0.0
 40
3.5999999999999082
  0
CIRCLE
  5
60F
  8
BRACKET
 62
     7
 10
-247.36161146600011
 20
-459.8245903369999
 30
0.0
 40
2.1000000000001351
  0
CIRCLE
  5
610
  8
BRACKET
 62
     7
 10
-250.78181289899999
 20
-450.42766412900022
 30
0.0
 40
2.0999999999999082
  0
CIRCLE
  5
611
  8
BRACKET
 62
     7
 10
-254.20201433300011
 20
-441.03073792099991
 30
0.0
 40
2.1000000000001351
  0
CIRCLE
  5
612
  8
BRACKET
 62
     7
 10
-257.62221576600012
 20
-431.63381171299989
 30
0.0
 40
2.1000000000001351
  0
CIRCLE
  5
613
  8
BRACKET
 62
     7
 10
-261.042417199
 20
-422.23688550499992
 30
0.0
 40
2.0999999999999082
  0
ARC
  5
614
  8
BRACKET
 62
     7
 10
-157.746211485
 20
-482.76286901700001
 30
0.0
 40
12.99999999999998
 50
319.94500069699922
 51
120.0549993030006
  0
LINE
  5
615
  8
BRACKET
 62
     7
 10
-147.79565962300009
 20
-491.1286635190001
 30
0.0
 11
-214.10576750257661
 21
-570.0
 31
0.0
  0
LINE
  5
616
  8
BRACKET
 62
     7
 10
-244.17096295799999
 20
-605.76049297700001
 30
0.0
 11
-293.88272576100007
 21
-546.51632106199997
 31
0.0
  0
LINE
  5
617
  8
BRACKET
 62
     7
 10
-293.88272576100007
 20
-546.51632106199997
 30
0.0
 11
-281.8412778359999
 21
-539.54875826699993
 31
0.0
  0
ARC
  5
618
  8
BRACKET
 62
     7
 10
-306.88285703700012
 20
-496.27152047300001
 30
0.0
 40
50.000000000000099
 50
337.2011225323144
 51
10.00000535399988
  0
ARC
  5
619
  8
BRACKET
 62
     7
 10
-190.27981373899999
 20
-428.80130997400011
 30
0.0
 40
50.000000000000021
 50
209.99999391199989
 51
300.05503242299989
  0
LINE
  5
61A
  8
BRACKET
 62
     7
 10
-165.23823453800011
 20
-472.07854776900001
 30
0.0
 11
-164.25701557300019
 21
-471.51078342699992
 31
0.0
  0
LINE
  5
61B
  8
BRACKET
 62
     7
 10
-268.92087922299987
 20
-423.62607092699989
 30
0.0
 11
-257.64247019800013
 21
-487.58910698800003
 31
0.0
  0
ARC
  5
61C
  8
BRACKET
 62
     7
 10
-261.042417199
 20
-422.23688550499992
 30
0.0
 40
7.9999999999999147
 50
30.000053811000122
 51
190.0000000000019
  0
LINE
  5
61D
  8
BRACKET
 62
     7
 10
-254.11421772600011
 20
-418.2368789979999
 30
0.0
 11
-233.5810865840001
 21
-453.8013053730001
 31
0.0
  0
LINE
  5
61E
  8
BRACKET
 62
     7
 10
-195.869600042
 20
-514.75219029499999
 30
0.0
 11
-192.03937782599991
 21
-511.53825224600001
 31
0.0
  0
LINE
  5
61F
  8
BRACKET
 62
     7
 10
-195.869600042
 20
-514.75219029499999
 30
0.0
 11
-194.63703170700001
 21
-500.663869766
 31
0.0
  0
LINE
  5
620
  8
BRACKET
 62
     7
 10
-188.82543977800009
 20
-515.36847446199999
 30
0.0
 11
-192.03937782599991
 21
-511.53825224600001
 31
0.0
  0
LINE
  5
621
  8
BRACKET
 62
     7
 10
-194.63703170700001
 20
-500.663869766
 30
0.0
 11
-180.54871117900001
 21
-501.89643810099989
 31
0.0
  0
LINE
  5
622
  8
BRACKET
 62
     7
 10
-181.164995347
 20
-508.94059836500003
 30
0.0
 11
-184.3789333950001
 21
-505.1103761490001
 31
0.0
  0
LINE
  5
623
  8
BRACKET
 62
     7
 10
-184.3789333950001
 20
-505.1103761490001
 30
0.0
 11
-180.54871117900001
 21
-501.89643810099989
 31
0.0
  0
LINE
  5
624
  8
BRACKET
 62
     7
 10
-188.82543977800009
 20
-515.36847446199999
 30
0.0
 11
-181.164995347
 21
-508.94059836500003
 31
0.0
  0
CIRCLE
  5
625
  8
BRACKET
 62
     7
 10
-226.229066456
 20
-501.16644365000002
 30
0.0
 40
18.0
  0
LINE
  5
626
  8
BRACKET
 62
     7
 10
-214.10576750257661
 20
-570.0
 30
0.0
 11
-244.17096295799999
 21
-605.76049297700001
 31
0.0
  0
ARC
  5
627
  8
BRACKET
 62
     7
 10
-306.88285703700012
 20
-496.27152047300001
 30
0.0
 40
50.000000000000021
 50
300.05503242300028
 51
337.2011225323144
  0
TEXT
  5
628
  8
DATA
 62
     7
 10
474.99999999999989
 20
-719.04999999999995
 30
0.0
 40
19.050000000000001
  1
(CONTROL29AV 天井用)
 41
0.7
 11
474.99999999999989
 21
-700.0
 31
0.0
 73
     3
  0
TEXT
  5
629
  8
DATA
 62
     7
 10
456.24999999999989
 20
-682.14374999999984
 30
0.0
 40
19.050000000000001
  1
JBL-29-2金具装着図
 41
0.7
 11
456.24999999999989
 21
-663.09374999999989
 31
0.0
 73
     3
  0
TEXT
  5
62A
  8
DATA
 62
     7
 10
-499.99999999999989
 20
-779.30570250000005
 30
0.0
 40
12.699999999999999
  1
仕様および外観は予告なく変更されることがありますので、ご了承ください。
 41
0.7
 11
-499.99999999999989
 21
-766.60570250000001
 31
0.0
 73
     3
  0
ARC
  5
62B
  8
DATA
 62
     7
 10
-220.0
 20
-50.0
 30
0.0
 40
189.9999999999998
 50
23.48963880300002
 51
71.608199513000017
  0
ARC
  5
62C
  8
DATA
 62
     7
 10
-220.0
 20
-535.0
 30
0.0
 40
189.9999999999998
 50
23.48963880300002
 51
71.608199513000017
  0
TEXT
  5
631
  8
DATA
 62
     7
 10
280.9375
 20
642.06249999999989
 30
0.0
 40
21.166666666666671
  1
金具取付け面(天井)
 41
0.7
 11
280.9375
 21
663.22916666666652
 31
0.0
 73
     3
  0
LINE
  5
632
  8
DATA
 62
     7
 10
275.0
 20
625.0
 30
0.0
 11
525.0
 21
625.0
 31
0.0
  0
LINE
  5
984
  8
DATA
  6
CONTINUOUS
 62
     7
 10
-369.99287577600012
 20
-460.47894782999981
 30
0.0
 11
-176.2267485080001
 21
-357.4515497540001
 31
0.0
  0
LINE
  5
985
  8
DATA
  6
CONTINUOUS
 62
     7
 10
-37.547764311000009
 20
-522.72272738799995
 30
0.0
 11
-172.65707960200001
 21
-695.65459186700014
 31
0.0
  0
LINE
  5
986
  8
DATA
  6
CONTINUOUS
 62
     7
 10
-172.65707960200001
 20
-695.65459186700014
 30
0.0
 11
-369.99287577600012
 21
-460.47894782999981
 31
0.0
  0
LINE
  5
987
  8
DATA
  6
CONTINUOUS
 62
     7
 10
-396.19676865000008
 20
-492.25717934599987
 30
0.0
 11
-370.75892021899989
 21
-461.12173544000012
 31
0.0
  0
LINE
  5
988
  8
DATA
  6
CONTINUOUS
 62
     7
 10
-208.50278662100001
 20
-715.9421567359999
 30
0.0
 11
-173.42312404500001
 21
-696.29737947699994
 31
0.0
  0
CIRCLE
  5
989
  8
DATA
  6
CONTINUOUS
 62
     7
 10
-255.6210666050001
 20
-564.88962385000013
 30
0.0
 40
4.5
  0
CIRCLE
  5
98A
  8
DATA
  6
CONTINUOUS
 62
     7
 10
-220.0
 20
-535.0
 30
0.0
 40
4.5
  0
CIRCLE
  5
98B
  8
DATA
  6
CONTINUOUS
 62
     7
 10
-156.4183112210001
 20
-481.64862839600011
 30
0.0
 40
4.5
  0
LINE
  5
98C
  8
DATA
  6
CONTINUOUS
 62
     7
 10
-309.57084046500012
 20
-532.48712548299989
 30
0.0
 11
-178.79755929000001
 21
-456.81756696299982
 31
0.0
  0
LINE
  5
98D
  8
DATA
  6
CONTINUOUS
 62
     7
 10
-135.85060505099989
 20
-507.99975396799999
 30
0.0
 11
-233.07911491300001
 21
-623.64641421399995
 31
0.0
  0
LINE
  5
98E
  8
DATA
  6
CONTINUOUS
 62
     7
 10
-135.83522667700001
 20
-475.84197872399989
 30
0.0
 11
-147.125662484
 21
-462.38656128999969
 31
0.0
  0
LINE
  5
98F
  8
DATA
  6
CONTINUOUS
 62
     7
 10
-173.42312404500001
 20
-696.29737947699994
 30
0.0
 11
-370.75892021899989
 21
-461.12173544000012
 31
0.0
  0
LINE
  5
990
  8
DATA
  6
CONTINUOUS
 62
     7
 10
-369.35008816599992
 20
-461.24499227299998
 30
0.0
 11
-370.11613260899998
 21
-461.88777988299978
 31
0.0
  0
LINE
  5
991
  8
DATA
  6
CONTINUOUS
 62
     7
 10
-174.06591165500001
 20
-695.53133503399988
 30
0.0
 11
-173.29986721200001
 21
-694.88854742399985
 31
0.0
  0
LINE
  5
992
  8
DATA
  6
CONTINUOUS
 62
     7
 10
-151.51637163999999
 20
-362.25476444000009
 30
0.0
 11
-37.98709546000007
 21
-497.5536871920001
 31
0.0
  0
LINE
  5
993
  8
DATA
  6
CONTINUOUS
 62
     7
 10
-81.601090994000003
 20
-437.79793219300001
 30
0.0
 11
-85.43131321000007
 21
-441.011870241
 31
0.0
  0
LINE
  5
994
  8
DATA
  6
CONTINUOUS
 62
     7
 10
-80.636909579000019
 20
-438.94699885699993
 30
0.0
 11
-84.467131795000086
 21
-442.16093690600019
 31
0.0
  0
LINE
  5
995
  8
DATA
  6
CONTINUOUS
 62
     7
 10
-88.671754700999983
 20
-429.3714433180001
 30
0.0
 11
-92.501976916000103
 21
-432.58538136700002
 31
0.0
  0
LINE
  5
996
  8
DATA
  6
CONTINUOUS
 62
     7
 10
-87.707573285999985
 20
-430.52050998300001
 30
0.0
 11
-91.53779550200008
 21
-433.7344480320001
 31
0.0
  0
LINE
  5
997
  8
DATA
  6
CONTINUOUS
 62
     7
 10
-94.135449383000093
 20
-422.86006555199992
 30
0.0
 11
-97.965671598000185
 21
-426.0740035999998
 31
0.0
  0
LINE
  5
998
  8
DATA
  6
CONTINUOUS
 62
     7
 10
-93.171267968000095
 20
-424.009132217
 30
0.0
 11
-97.001490184000204
 21
-427.22307026499982
 31
0.0
  0
LINE
  5
999
  8
DATA
  6
CONTINUOUS
 62
     7
 10
-101.2061130890002
 20
-414.43357667800001
 30
0.0
 11
-105.03633530499999
 21
-417.647514726
 31
0.0
  0
LINE
  5
99A
  8
DATA
  6
CONTINUOUS
 62
     7
 10
-100.2419316749999
 20
-415.58264334199993
 30
0.0
 11
-104.0721538909999
 21
-418.79658139100002
 31
0.0
  0
LINE
  5
99B
  8
DATA
  6
CONTINUOUS
 62
     7
 10
-100.2419316749999
 20
-415.58264334199993
 30
0.0
 11
-101.2061130890002
 21
-414.43357667800001
 31
0.0
  0
LINE
  5
99C
  8
DATA
  6
CONTINUOUS
 62
     7
 10
-93.171267968000095
 20
-424.009132217
 30
0.0
 11
-94.135449383000093
 21
-422.86006555199992
 31
0.0
  0
LINE
  5
99D
  8
DATA
  6
CONTINUOUS
 62
     7
 10
-87.707573285999985
 20
-430.52050998300001
 30
0.0
 11
-88.671754700999983
 21
-429.3714433180001
 31
0.0
  0
LINE
  5
99E
  8
DATA
  6
CONTINUOUS
 62
     7
 10
-80.636909579000019
 20
-438.94699885699993
 30
0.0
 11
-81.601090994000003
 21
-437.79793219300001
 31
0.0
  0
ARC
  5
99F
  8
DATA
  6
CONTINUOUS
 62
     7
 10
510.27016762499971
 20
77.769428314999914
 30
0.0
 40
1070.8
 50
212.16350227199959
 51
227.8364977279999
  0
ARC
  5
9A0
  8
DATA
  6
CONTINUOUS
 62
     7
 10
-53.30798432200001
 20
-510.40943938599997
 30
0.0
 40
20.000039906000008
 50
321.99987665899971
 51
39.999999999999567
  0
ARC
  5
9A1
  8
DATA
  6
CONTINUOUS
 62
     7
 10
-166.8372605030001
 20
-375.11051663299997
 30
0.0
 40
20.000000000000028
 50
39.999999999999567
 51
118.0001233410005
  0
ARC
  5
9A2
  8
DATA
  6
CONTINUOUS
 62
     7
 10
-166.2768378400001
 20
-478.45617492700012
 30
0.0
 40
25.000000000000028
 50
39.999770816999948
 51
120.0549097819997
  0
ARC
  5
9A3
  8
DATA
  6
CONTINUOUS
 62
     7
 10
-154.98627347600021
 20
-491.9117455710001
 30
0.0
 40
24.999956405000091
 50
319.94509021800002
 51
40.000229183000528
  0
LINE
  5
9A6
  8
DATA
  6
CONTINUOUS
 62
     7
 10
-287.0
 20
103.5
 30
0.0
 11
-72.341799999999893
 21
57.873100000000022
 31
0.0
  0
LINE
  5
9A7
  8
DATA
  6
CONTINUOUS
 62
     7
 10
-72.341799999999893
 20
-157.87309999999999
 30
0.0
 11
-287.0
 21
-203.5
 31
0.0
  0
LINE
  5
9A8
  8
DATA
  6
CONTINUOUS
 62
     7
 10
-287.0
 20
-203.5
 30
0.0
 11
-287.0
 21
103.5
 31
0.0
  0
LINE
  5
9A9
  8
DATA
  6
CONTINUOUS
 62
     7
 10
-327.5
 20
96.0
 30
0.0
 11
-288.0
 21
103.5
 31
0.0
  0
LINE
  5
9AA
  8
DATA
  6
CONTINUOUS
 62
     7
 10
-327.5
 20
-196.0
 30
0.0
 11
-288.0
 21
-203.5
 31
0.0
  0
CIRCLE
  5
9AB
  8
DATA
  6
CONTINUOUS
 62
     7
 10
-266.5
 20
-50.0
 30
0.0
 40
4.5
  0
CIRCLE
  5
9AC
  8
DATA
  6
CONTINUOUS
 62
     7
 10
-220.0
 20
-50.0
 30
0.0
 40
4.5
  0
CIRCLE
  5
9AD
  8
DATA
  6
CONTINUOUS
 62
     7
 10
-137.0
 20
-50.0
 30
0.0
 40
4.5
  0
LINE
  5
9AE
  8
DATA
  6
CONTINUOUS
 62
     7
 10
-287.0
 20
9.5
 30
0.0
 11
-138.18240000000009
 21
-16.593199999999989
 31
0.0
  0
LINE
  5
9AF
  8
DATA
  6
CONTINUOUS
 62
     7
 10
-138.18240000000009
 20
-83.406800000000004
 30
0.0
 11
-287.0
 21
-109.5
 31
0.0
  0
LINE
  5
9B0
  8
DATA
  6
CONTINUOUS
 62
     7
 10
-117.5
 20
-58.78239999999991
 30
0.0
 11
-117.5
 21
-41.217599999999891
 31
0.0
  0
LINE
  5
9B1
  8
DATA
  6
CONTINUOUS
 62
     7
 10
-288.0
 20
-203.5
 30
0.0
 11
-288.0
 21
103.5
 31
0.0
  0
LINE
  5
9B2
  8
DATA
  6
CONTINUOUS
 62
     7
 10
-287.0
 20
102.5
 30
0.0
 11
-288.0
 21
102.5
 31
0.0
  0
LINE
  5
9B3
  8
DATA
  6
CONTINUOUS
 62
     7
 10
-288.0
 20
-202.5
 30
0.0
 11
-287.0
 21
-202.5
 31
0.0
  0
LINE
  5
9B4
  8
DATA
  6
CONTINUOUS
 62
     7
 10
-56.5
 20
38.310100000000133
 30
0.0
 11
-56.5
 21
-138.31009999999989
 31
0.0
  0
LINE
  5
9B5
  8
DATA
  6
CONTINUOUS
 62
     7
 10
-51.5
 20
-64.5
 30
0.0
 11
-56.5
 21
-64.5
 31
0.0
  0
LINE
  5
9B6
  8
DATA
  6
CONTINUOUS
 62
     7
 10
-51.5
 20
-66.0
 30
0.0
 11
-56.5
 21
-66.0
 31
0.0
  0
LINE
  5
9B7
  8
DATA
  6
CONTINUOUS
 62
     7
 10
-51.5
 20
-53.5
 30
0.0
 11
-56.5
 21
-53.5
 31
0.0
  0
LINE
  5
9B8
  8
DATA
  6
CONTINUOUS
 62
     7
 10
-51.5
 20
-55.0
 30
0.0
 11
-56.5
 21
-55.0
 31
0.0
  0
LINE
  5
9B9
  8
DATA
  6
CONTINUOUS
 62
     7
 10
-51.5
 20
-45.0
 30
0.0
 11
-56.5
 21
-45.0
 31
0.0
  0
LINE
  5
9BA
  8
DATA
  6
CONTINUOUS
 62
     7
 10
-51.5
 20
-46.5
 30
0.0
 11
-56.5
 21
-46.5
 31
0.0
  0
LINE
  5
9BB
  8
DATA
  6
CONTINUOUS
 62
     7
 10
-51.5
 20
-34.0
 30
0.0
 11
-56.5
 21
-34.0
 31
0.0
  0
LINE
  5
9BC
  8
DATA
  6
CONTINUOUS
 62
     7
 10
-51.5
 20
-35.5
 30
0.0
 11
-56.5
 21
-35.5
 31
0.0
  0
LINE
  5
9BD
  8
DATA
  6
CONTINUOUS
 62
     7
 10
-51.5
 20
-35.5
 30
0.0
 11
-51.5
 21
-34.0
 31
0.0
  0
LINE
  5
9BE
  8
DATA
  6
CONTINUOUS
 62
     7
 10
-51.5
 20
-46.5
 30
0.0
 11
-51.5
 21
-45.0
 31
0.0
  0
LINE
  5
9BF
  8
DATA
  6
CONTINUOUS
 62
     7
 10
-51.5
 20
-55.0
 30
0.0
 11
-51.5
 21
-53.5
 31
0.0
  0
LINE
  5
9C0
  8
DATA
  6
CONTINUOUS
 62
     7
 10
-51.5
 20
-66.0
 30
0.0
 11
-51.5
 21
-64.5
 31
0.0
  0
ARC
  5
9C1
  8
DATA
  6
CONTINUOUS
 62
     7
 10
733.29999999999995
 20
-50.0
 30
0.0
 40
1070.8
 50
172.16350227200061
 51
187.83649772799939
  0
ARC
  5
9C2
  8
DATA
  6
CONTINUOUS
 62
     7
 10
-76.5
 20
-138.31009999999989
 30
0.0
 40
20.000039906000019
 50
281.99987665899948
 51
0.0
  0
ARC
  5
9C3
  8
DATA
  6
CONTINUOUS
 62
     7
 10
-76.5
 20
38.310100000000133
 30
0.0
 40
20.0
 50
0.0
 51
78.000123341000474
  0
ARC
  5
9C4
  8
DATA
  6
CONTINUOUS
 62
     7
 10
-142.5
 20
-41.217500000000001
 30
0.0
 40
24.999999999999911
 50
359.99977081699978
 51
80.054909782000024
  0
ARC
  5
9C5
  8
DATA
  6
CONTINUOUS
 62
     7
 10
-142.5
 20
-58.782499999999999
 30
0.0
 40
24.99995640499991
 50
279.94509021800002
 51
0.0002291830002263
  0
CIRCLE
  5
9C6
  8
DATA
  6
CONTINUOUS
 62
     7
 10
600.4675000000002
 20
-50.0
 30
0.0
 40
3.0
  0
LINE
  5
9C7
  8
DATA
  6
CONTINUOUS
 62
     7
 10
660.35010000000011
 20
-193.5
 30
0.0
 11
660.35010000000011
 21
93.499999999999986
 31
0.0
  0
LINE
  5
9C8
  8
DATA
  6
CONTINUOUS
 62
     7
 10
139.65010000000001
 20
-193.5
 30
0.0
 11
139.65010000000001
 21
93.499999999999986
 31
0.0
  0
LINE
  5
9C9
  8
DATA
  6
CONTINUOUS
 62
     7
 10
650.35009999999988
 20
-203.5
 30
0.0
 11
149.65010000000009
 21
-203.5
 31
0.0
  0
LINE
  5
9CA
  8
DATA
  6
CONTINUOUS
 62
     7
 10
650.35009999999988
 20
103.5
 30
0.0
 11
149.65010000000009
 21
103.5
 31
0.0
  0
ARC
  5
9CB
  8
DATA
  6
CONTINUOUS
 62
     7
 10
149.65010000000009
 20
-193.5
 30
0.0
 40
10.0
 50
180.0
 51
270.0
  0
ARC
  5
9CC
  8
DATA
  6
CONTINUOUS
 62
     7
 10
650.35009999999988
 20
-193.5
 30
0.0
 40
10.0
 50
270.0
 51
0.0
  0
ARC
  5
9CD
  8
DATA
  6
CONTINUOUS
 62
     7
 10
650.35009999999988
 20
93.499999999999986
 30
0.0
 40
10.0
 50
0.0
 51
90.0
  0
ARC
  5
9CE
  8
DATA
  6
CONTINUOUS
 62
     7
 10
149.65010000000009
 20
93.499999999999986
 30
0.0
 40
10.0
 50
90.0
 51
180.0
  0
LINE
  5
9CF
  8
DATA
  6
CONTINUOUS
 62
     7
 10
169.81620000000001
 20
-154.505
 30
0.0
 11
630.18380000000002
 21
-154.505
 31
0.0
  0
LINE
  5
9D0
  8
DATA
  6
CONTINUOUS
 62
     7
 10
169.81620000000001
 20
54.504999999999988
 30
0.0
 11
630.18380000000002
 21
54.504999999999988
 31
0.0
  0
LINE
  5
9D1
  8
DATA
  6
CONTINUOUS
 62
     7
 10
159.81620000000001
 20
-144.505
 30
0.0
 11
159.81620000000001
 21
44.504999999999988
 31
0.0
  0
LINE
  5
9D2
  8
DATA
  6
CONTINUOUS
 62
     7
 10
640.18380000000002
 20
-144.505
 30
0.0
 11
640.18380000000002
 21
44.504999999999988
 31
0.0
  0
LINE
  5
9D3
  8
DATA
  6
CONTINUOUS
 62
     7
 10
161.59119999999999
 20
-150.19259999999991
 30
0.0
 11
141.4249999999999
 21
-199.18759999999989
 31
0.0
  0
LINE
  5
9D4
  8
DATA
  6
CONTINUOUS
 62
     7
 10
476.46749999999992
 20
-95.750000000000014
 30
0.0
 11
383.96749999999997
 21
-95.750000000000014
 31
0.0
  0
CIRCLE
  5
9D5
  8
DATA
  6
CONTINUOUS
 62
     7
 10
429.46749999999992
 20
-82.0
 30
0.0
 40
2.249900000000252
  0
CIRCLE
  5
9D6
  8
DATA
  6
CONTINUOUS
 62
     7
 10
429.46749999999992
 20
-50.0
 30
0.0
 40
20.5
  0
LINE
  5
9D7
  8
DATA
  6
CONTINUOUS
 62
     7
 10
467.96749999999992
 20
-65.75
 30
0.0
 11
467.96749999999992
 21
-34.25
 31
0.0
  0
LINE
  5
9D8
  8
DATA
  6
CONTINUOUS
 62
     7
 10
473.96749999999997
 20
-65.75
 30
0.0
 11
473.96749999999997
 21
-34.25
 31
0.0
  0
LINE
  5
9D9
  8
DATA
  6
CONTINUOUS
 62
     7
 10
427.71749999999992
 20
-56.25
 30
0.0
 11
427.71749999999992
 21
-43.75
 31
0.0
  0
LINE
  5
9DA
  8
DATA
  6
CONTINUOUS
 62
     7
 10
431.21749999999992
 20
-56.25
 30
0.0
 11
431.21749999999992
 21
-43.75
 31
0.0
  0
ARC
  5
9DB
  8
DATA
  6
CONTINUOUS
 62
     7
 10
470.96749999999992
 20
-50.0
 30
0.0
 40
9.7499165949999433
 50
107.9203716389989
 51
252.07962836100111
  0
ARC
  5
9DC
  8
DATA
  6
CONTINUOUS
 62
     7
 10
470.96749999999992
 20
-50.0
 30
0.0
 40
9.7499165950000872
 50
287.92037163900119
 51
72.079628360998782
  0
LINE
  5
9DD
  8
DATA
  6
CONTINUOUS
 62
     7
 10
473.96749999999997
 20
-65.75
 30
0.0
 11
467.96749999999992
 21
-65.75
 31
0.0
  0
LINE
  5
9DE
  8
DATA
  6
CONTINUOUS
 62
     7
 10
431.21749999999992
 20
-56.25
 30
0.0
 11
427.71749999999992
 21
-56.25
 31
0.0
  0
LINE
  5
9DF
  8
DATA
  6
CONTINUOUS
 62
     7
 10
383.96749999999997
 20
-4.25
 30
0.0
 11
476.46749999999992
 21
-4.25
 31
0.0
  0
LINE
  5
9E0
  8
DATA
  6
CONTINUOUS
 62
     7
 10
431.21749999999992
 20
-43.75
 30
0.0
 11
427.71749999999992
 21
-43.75
 31
0.0
  0
LINE
  5
9E1
  8
DATA
  6
CONTINUOUS
 62
     7
 10
473.96749999999997
 20
-34.25
 30
0.0
 11
467.96749999999992
 21
-34.25
 31
0.0
  0
CIRCLE
  5
9E2
  8
DATA
  6
CONTINUOUS
 62
     7
 10
429.46749999999992
 20
-18.0
 30
0.0
 40
2.249900000000252
  0
LINE
  5
9E3
  8
DATA
  6
CONTINUOUS
 62
     7
 10
334.96749999999997
 20
-27.0
 30
0.0
 11
334.96749999999997
 21
-73.0
 31
0.0
  0
CIRCLE
  5
9E4
  8
DATA
  6
CONTINUOUS
 62
     7
 10
329.21749999999997
 20
-72.25
 30
0.0
 40
2.5
  0
LINE
  5
9E5
  8
DATA
  6
CONTINUOUS
 62
     7
 10
329.21749999999997
 20
-73.25
 30
0.0
 11
329.21749999999997
 21
-71.25
 31
0.0
  0
LINE
  5
9E6
  8
DATA
  6
CONTINUOUS
 62
     7
 10
278.96749999999992
 20
-73.0
 30
0.0
 11
278.96749999999992
 21
-27.0
 31
0.0
  0
CIRCLE
  5
9E7
  8
DATA
  6
CONTINUOUS
 62
     7
 10
284.71749999999997
 20
-72.25
 30
0.0
 40
2.5
  0
LINE
  5
9E8
  8
DATA
  6
CONTINUOUS
 62
     7
 10
284.71749999999997
 20
-73.25
 30
0.0
 11
284.71749999999997
 21
-71.25
 31
0.0
  0
LINE
  5
9E9
  8
DATA
  6
CONTINUOUS
 62
     7
 10
329.96749999999997
 20
-78.0
 30
0.0
 11
283.96749999999992
 21
-78.0
 31
0.0
  0
ARC
  5
9EA
  8
DATA
  6
CONTINUOUS
 62
     7
 10
329.96749999999997
 20
-73.0
 30
0.0
 40
5.0
 50
270.0
 51
0.0
  0
ARC
  5
9EB
  8
DATA
  6
CONTINUOUS
 62
     7
 10
283.96749999999992
 20
-73.0
 30
0.0
 40
5.0
 50
180.0
 51
270.0
  0
LINE
  5
9EC
  8
DATA
  6
CONTINUOUS
 62
     7
 10
283.96749999999992
 20
-22.0
 30
0.0
 11
329.96749999999997
 21
-22.0
 31
0.0
  0
LINE
  5
9ED
  8
DATA
  6
CONTINUOUS
 62
     7
 10
330.21749999999997
 20
-72.25
 30
0.0
 11
328.21749999999997
 21
-72.25
 31
0.0
  0
ARC
  5
9EE
  8
DATA
  6
CONTINUOUS
 62
     7
 10
329.96749999999997
 20
-26.9999
 30
0.0
 40
5.0
 50
0.0
 51
90.0
  0
CIRCLE
  5
9EF
  8
DATA
  6
CONTINUOUS
 62
     7
 10
329.21749999999997
 20
-27.75
 30
0.0
 40
2.5
  0
LINE
  5
9F0
  8
DATA
  6
CONTINUOUS
 62
     7
 10
329.21749999999997
 20
-28.75
 30
0.0
 11
329.21749999999997
 21
-26.75
 31
0.0
  0
LINE
  5
9F1
  8
DATA
  6
CONTINUOUS
 62
     7
 10
330.21749999999997
 20
-27.75
 30
0.0
 11
328.21749999999997
 21
-27.75
 31
0.0
  0
LINE
  5
9F2
  8
DATA
  6
CONTINUOUS
 62
     7
 10
290.96749999999997
 20
-69.0
 30
0.0
 11
290.96749999999997
 21
-31.0
 31
0.0
  0
LINE
  5
9F3
  8
DATA
  6
CONTINUOUS
 62
     7
 10
322.96749999999997
 20
-31.0
 30
0.0
 11
322.96749999999997
 21
-69.0
 31
0.0
  0
CIRCLE
  5
9F4
  8
DATA
  6
CONTINUOUS
 62
     7
 10
303.96749999999997
 20
-59.75
 30
0.0
 40
3.0
  0
LINE
  5
9F5
  8
DATA
  6
CONTINUOUS
 62
     7
 10
306.08880000000022
 20
-61.871299999999991
 30
0.0
 11
301.84620000000018
 21
-57.628700000000009
 31
0.0
  0
LINE
  5
9F6
  8
DATA
  6
CONTINUOUS
 62
     7
 10
305.02820000000003
 20
-58.689300000000003
 30
0.0
 11
302.90679999999998
 21
-60.810699999999997
 31
0.0
  0
LINE
  5
9F7
  8
DATA
  6
CONTINUOUS
 62
     7
 10
299.46749999999992
 20
-64.25
 30
0.0
 11
299.46749999999992
 21
-55.25
 31
0.0
  0
LINE
  5
9F8
  8
DATA
  6
CONTINUOUS
 62
     7
 10
308.46749999999997
 20
-55.25
 30
0.0
 11
308.46749999999997
 21
-64.25
 31
0.0
  0
CIRCLE
  5
9F9
  8
DATA
  6
CONTINUOUS
 62
     7
 10
319.46749999999997
 20
-59.75
 30
0.0
 40
2.5
  0
LINE
  5
9FA
  8
DATA
  6
CONTINUOUS
 62
     7
 10
319.46749999999997
 20
-61.75
 30
0.0
 11
319.46749999999997
 21
-57.75
 31
0.0
  0
LINE
  5
9FB
  8
DATA
  6
CONTINUOUS
 62
     7
 10
322.96749999999997
 20
-69.0
 30
0.0
 11
290.96749999999997
 21
-69.0
 31
0.0
  0
LINE
  5
9FC
  8
DATA
  6
CONTINUOUS
 62
     7
 10
311.96749999999997
 20
-66.0
 30
0.0
 11
295.96749999999997
 21
-66.0
 31
0.0
  0
LINE
  5
9FD
  8
DATA
  6
CONTINUOUS
 62
     7
 10
311.96749999999997
 20
-64.5
 30
0.0
 11
295.96749999999997
 21
-64.5
 31
0.0
  0
LINE
  5
9FE
  8
DATA
  6
CONTINUOUS
 62
     7
 10
295.96749999999997
 20
-66.0
 30
0.0
 11
295.96749999999997
 21
-64.5
 31
0.0
  0
LINE
  5
9FF
  8
DATA
  6
CONTINUOUS
 62
     7
 10
311.96749999999997
 20
-64.5
 30
0.0
 11
311.96749999999997
 21
-66.0
 31
0.0
  0
LINE
  5
A00
  8
DATA
  6
CONTINUOUS
 62
     7
 10
308.46749999999997
 20
-64.25
 30
0.0
 11
299.46749999999992
 21
-64.25
 31
0.0
  0
LINE
  5
A01
  8
DATA
  6
CONTINUOUS
 62
     7
 10
285.7174999999998
 20
-72.25
 30
0.0
 11
283.71749999999997
 21
-72.25
 31
0.0
  0
LINE
  5
A02
  8
DATA
  6
CONTINUOUS
 62
     7
 10
311.96749999999997
 20
-55.0
 30
0.0
 11
295.96749999999997
 21
-55.0
 31
0.0
  0
LINE
  5
A03
  8
DATA
  6
CONTINUOUS
 62
     7
 10
311.96749999999997
 20
-53.5
 30
0.0
 11
295.96749999999997
 21
-53.5
 31
0.0
  0
LINE
  5
A04
  8
DATA
  6
CONTINUOUS
 62
     7
 10
295.96749999999997
 20
-55.0
 30
0.0
 11
295.96749999999997
 21
-53.5
 31
0.0
  0
LINE
  5
A05
  8
DATA
  6
CONTINUOUS
 62
     7
 10
311.96749999999997
 20
-53.5
 30
0.0
 11
311.96749999999997
 21
-55.0
 31
0.0
  0
LINE
  5
A06
  8
DATA
  6
CONTINUOUS
 62
     7
 10
299.46749999999992
 20
-55.25
 30
0.0
 11
308.46749999999997
 21
-55.25
 31
0.0
  0
LINE
  5
A07
  8
DATA
  6
CONTINUOUS
 62
     7
 10
319.46749999999997
 20
-42.25
 30
0.0
 11
319.46749999999997
 21
-38.25
 31
0.0
  0
LINE
  5
A08
  8
DATA
  6
CONTINUOUS
 62
     7
 10
321.46749999999997
 20
-40.24989999999999
 30
0.0
 11
317.46749999999997
 21
-40.24989999999999
 31
0.0
  0
LINE
  5
A09
  8
DATA
  6
CONTINUOUS
 62
     7
 10
285.7174999999998
 20
-27.75
 30
0.0
 11
283.71749999999997
 21
-27.75
 31
0.0
  0
LINE
  5
A0A
  8
DATA
  6
CONTINUOUS
 62
     7
 10
284.71749999999997
 20
-28.75
 30
0.0
 11
284.71749999999997
 21
-26.75
 31
0.0
  0
CIRCLE
  5
A0B
  8
DATA
  6
CONTINUOUS
 62
     7
 10
284.71749999999997
 20
-27.75
 30
0.0
 40
2.5
  0
ARC
  5
A0C
  8
DATA
  6
CONTINUOUS
 62
     7
 10
283.96749999999992
 20
-26.9999
 30
0.0
 40
5.0
 50
90.0
 51
180.0
  0
LINE
  5
A0D
  8
DATA
  6
CONTINUOUS
 62
     7
 10
290.96749999999997
 20
-31.0
 30
0.0
 11
322.96749999999997
 21
-31.0
 31
0.0
  0
LINE
  5
A0E
  8
DATA
  6
CONTINUOUS
 62
     7
 10
295.96749999999997
 20
-34.0
 30
0.0
 11
311.96749999999997
 21
-34.0
 31
0.0
  0
LINE
  5
A0F
  8
DATA
  6
CONTINUOUS
 62
     7
 10
295.96749999999997
 20
-35.5
 30
0.0
 11
311.96749999999997
 21
-35.5
 31
0.0
  0
LINE
  5
A10
  8
DATA
  6
CONTINUOUS
 62
     7
 10
295.96749999999997
 20
-45.0
 30
0.0
 11
311.96749999999997
 21
-45.0
 31
0.0
  0
LINE
  5
A11
  8
DATA
  6
CONTINUOUS
 62
     7
 10
295.96749999999997
 20
-46.5
 30
0.0
 11
311.96749999999997
 21
-46.5
 31
0.0
  0
LINE
  5
A12
  8
DATA
  6
CONTINUOUS
 62
     7
 10
295.96749999999997
 20
-46.5
 30
0.0
 11
295.96749999999997
 21
-45.0
 31
0.0
  0
LINE
  5
A13
  8
DATA
  6
CONTINUOUS
 62
     7
 10
295.96749999999997
 20
-35.5
 30
0.0
 11
295.96749999999997
 21
-34.0
 31
0.0
  0
LINE
  5
A14
  8
DATA
  6
CONTINUOUS
 62
     7
 10
311.96749999999997
 20
-34.0
 30
0.0
 11
311.96749999999997
 21
-35.5
 31
0.0
  0
LINE
  5
A15
  8
DATA
  6
CONTINUOUS
 62
     7
 10
311.96749999999997
 20
-45.0
 30
0.0
 11
311.96749999999997
 21
-46.5
 31
0.0
  0
CIRCLE
  5
A16
  8
DATA
  6
CONTINUOUS
 62
     7
 10
303.96749999999997
 20
-40.25
 30
0.0
 40
3.0
  0
LINE
  5
A17
  8
DATA
  6
CONTINUOUS
 62
     7
 10
306.08880000000022
 20
-42.371299999999991
 30
0.0
 11
301.84620000000018
 21
-38.128700000000009
 31
0.0
  0
LINE
  5
A18
  8
DATA
  6
CONTINUOUS
 62
     7
 10
305.02820000000003
 20
-39.18930000000001
 30
0.0
 11
302.90679999999998
 21
-41.310699999999997
 31
0.0
  0
LINE
  5
A19
  8
DATA
  6
CONTINUOUS
 62
     7
 10
308.46749999999997
 20
-44.75
 30
0.0
 11
299.46749999999992
 21
-44.75
 31
0.0
  0
LINE
  5
A1A
  8
DATA
  6
CONTINUOUS
 62
     7
 10
299.46749999999992
 20
-44.75
 30
0.0
 11
299.46749999999992
 21
-35.75
 31
0.0
  0
LINE
  5
A1B
  8
DATA
  6
CONTINUOUS
 62
     7
 10
299.46749999999992
 20
-35.75
 30
0.0
 11
308.46749999999997
 21
-35.75
 31
0.0
  0
LINE
  5
A1C
  8
DATA
  6
CONTINUOUS
 62
     7
 10
308.46749999999997
 20
-35.75
 30
0.0
 11
308.46749999999997
 21
-44.75
 31
0.0
  0
CIRCLE
  5
A1D
  8
DATA
  6
CONTINUOUS
 62
     7
 10
319.46749999999997
 20
-40.25
 30
0.0
 40
2.5
  0
LINE
  5
A1E
  8
DATA
  6
CONTINUOUS
 62
     7
 10
188.46749999999989
 20
-78.5
 30
0.0
 11
188.46749999999989
 21
-21.5
 31
0.0
  0
LINE
  5
A1F
  8
DATA
  6
CONTINUOUS
 62
     7
 10
259.46749999999997
 20
-78.5
 30
0.0
 11
259.46749999999997
 21
-21.5
 31
0.0
  0
LINE
  5
A20
  8
DATA
  6
CONTINUOUS
 62
     7
 10
188.46749999999989
 20
-78.5
 30
0.0
 11
259.46749999999997
 21
-78.5
 31
0.0
  0
LINE
  5
A21
  8
DATA
  6
CONTINUOUS
 62
     7
 10
259.46749999999997
 20
-21.5
 30
0.0
 11
188.46749999999989
 21
-21.5
 31
0.0
  0
LINE
  5
A22
  8
DATA
  6
CONTINUOUS
 62
     7
 10
197.9675
 20
-78.5
 30
0.0
 11
197.9675
 21
-21.5
 31
0.0
  0
LINE
  5
A23
  8
DATA
  6
CONTINUOUS
 62
     7
 10
247.46749999999989
 20
-78.5
 30
0.0
 11
247.46749999999989
 21
-21.5
 31
0.0
  0
LINE
  5
A24
  8
DATA
  6
CONTINUOUS
 62
     7
 10
375.96749999999997
 20
-87.75
 30
0.0
 11
375.96749999999997
 21
-12.25
 31
0.0
  0
LINE
  5
A25
  8
DATA
  6
CONTINUOUS
 62
     7
 10
484.46749999999992
 20
-87.75
 30
0.0
 11
484.46749999999992
 21
-12.25
 31
0.0
  0
ARC
  5
A26
  8
DATA
  6
CONTINUOUS
 62
     7
 10
383.96749999999997
 20
-87.75
 30
0.0
 40
8.0
 50
180.0
 51
270.0
  0
ARC
  5
A27
  8
DATA
  6
CONTINUOUS
 62
     7
 10
383.96749999999997
 20
-12.25
 30
0.0
 40
8.0
 50
90.0
 51
180.0
  0
ARC
  5
A28
  8
DATA
  6
CONTINUOUS
 62
     7
 10
476.46749999999992
 20
-12.25
 30
0.0
 40
8.0
 50
0.0
 51
90.0
  0
ARC
  5
A29
  8
DATA
  6
CONTINUOUS
 62
     7
 10
476.46749999999992
 20
-87.75
 30
0.0
 40
8.0
 50
270.0
 51
0.0
  0
CIRCLE
  5
A2A
  8
DATA
  6
CONTINUOUS
 62
     7
 10
429.46749999999992
 20
-50.0
 30
0.0
 40
23.0
  0
LINE
  5
A2B
  8
DATA
  6
CONTINUOUS
 62
     7
 10
612.9675000000002
 20
-86.0
 30
0.0
 11
587.9675000000002
 21
-86.0
 31
0.0
  0
LINE
  5
A2C
  8
DATA
  6
CONTINUOUS
 62
     7
 10
612.9675000000002
 20
-14.0
 30
0.0
 11
612.9675000000002
 21
-86.0
 31
0.0
  0
LINE
  5
A2D
  8
DATA
  6
CONTINUOUS
 62
     7
 10
587.9675000000002
 20
-14.0
 30
0.0
 11
612.9675000000002
 21
-14.0
 31
0.0
  0
LINE
  5
A2E
  8
DATA
  6
CONTINUOUS
 62
     7
 10
587.9675000000002
 20
-86.0
 30
0.0
 11
587.9675000000002
 21
-14.0
 31
0.0
  0
LINE
  5
A2F
  8
DATA
  6
CONTINUOUS
 62
     7
 10
600.4675000000002
 20
-47.0
 30
0.0
 11
600.4675000000002
 21
-45.75
 31
0.0
  0
LINE
  5
A30
  8
DATA
  6
CONTINUOUS
 62
     7
 10
600.4675000000002
 20
-54.25
 30
0.0
 11
600.4675000000002
 21
-53.0
 31
0.0
  0
LINE
  5
A31
  8
DATA
  6
CONTINUOUS
 62
     7
 10
597.4675000000002
 20
-50.0
 30
0.0
 11
587.9675000000002
 21
-50.0
 31
0.0
  0
LINE
  5
A32
  8
DATA
  6
CONTINUOUS
 62
     7
 10
603.46749999999997
 20
-50.0
 30
0.0
 11
612.9675000000002
 21
-50.0
 31
0.0
  0
LINE
  5
A33
  8
DATA
  6
CONTINUOUS
 62
     7
 10
598.96749999999997
 20
-47.401899999999927
 30
0.0
 11
598.01369999999997
 21
-45.75
 31
0.0
  0
LINE
  5
A34
  8
DATA
  6
CONTINUOUS
 62
     7
 10
602.9213000000002
 20
-54.25
 30
0.0
 11
601.9675000000002
 21
-52.598099999999931
 31
0.0
  0
LINE
  5
A35
  8
DATA
  6
CONTINUOUS
 62
     7
 10
597.86940000000004
 20
-48.5
 30
0.0
 11
595.74059999999986
 21
-47.270900000000012
 31
0.0
  0
LINE
  5
A36
  8
DATA
  6
CONTINUOUS
 62
     7
 10
605.19439999999986
 20
-52.729099999999988
 30
0.0
 11
603.06560000000013
 21
-51.5
 31
0.0
  0
LINE
  5
A37
  8
DATA
  6
CONTINUOUS
 62
     7
 10
601.9675000000002
 20
-47.401899999999927
 30
0.0
 11
602.9213000000002
 21
-45.75
 31
0.0
  0
LINE
  5
A38
  8
DATA
  6
CONTINUOUS
 62
     7
 10
598.01369999999997
 20
-54.25
 30
0.0
 11
598.96749999999997
 21
-52.598099999999931
 31
0.0
  0
LINE
  5
A39
  8
DATA
  6
CONTINUOUS
 62
     7
 10
603.46749999999997
 20
-50.5
 30
0.0
 11
607.46749999999997
 21
-50.5
 31
0.0
  0
LINE
  5
A3A
  8
DATA
  6
CONTINUOUS
 62
     7
 10
593.4675000000002
 20
-49.5
 30
0.0
 11
597.4675000000002
 21
-49.5
 31
0.0
  0
LINE
  5
A3B
  8
DATA
  6
CONTINUOUS
 62
     7
 10
593.4675000000002
 20
-49.5
 30
0.0
 11
593.4675000000002
 21
-45.75
 31
0.0
  0
LINE
  5
A3C
  8
DATA
  6
CONTINUOUS
 62
     7
 10
595.74059999999986
 20
-47.270900000000012
 30
0.0
 11
595.74059999999986
 21
-45.75
 31
0.0
  0
LINE
  5
A3D
  8
DATA
  6
CONTINUOUS
 62
     7
 10
607.46749999999997
 20
-50.5
 30
0.0
 11
607.46749999999997
 21
-54.25
 31
0.0
  0
LINE
  5
A3E
  8
DATA
  6
CONTINUOUS
 62
     7
 10
605.19439999999986
 20
-52.729099999999988
 30
0.0
 11
605.19439999999986
 21
-54.25
 31
0.0
  0
ARC
  5
A3F
  8
DATA
  6
CONTINUOUS
 62
     7
 10
169.81620000000001
 20
-144.505
 30
0.0
 40
10.0
 50
180.0
 51
270.0
  0
ARC
  5
A40
  8
DATA
  6
CONTINUOUS
 62
     7
 10
169.81620000000001
 20
44.504999999999988
 30
0.0
 40
10.0
 50
90.0
 51
180.0
  0
LINE
  5
A41
  8
DATA
  6
CONTINUOUS
 62
     7
 10
161.59119999999999
 20
50.192599999999992
 30
0.0
 11
141.4249999999999
 21
99.187599999999975
 31
0.0
  0
ARC
  5
A42
  8
DATA
  6
CONTINUOUS
 62
     7
 10
630.18380000000002
 20
-144.505
 30
0.0
 40
10.0
 50
270.0
 51
0.0
  0
ARC
  5
A43
  8
DATA
  6
CONTINUOUS
 62
     7
 10
630.18380000000002
 20
44.504999999999988
 30
0.0
 40
10.0
 50
0.0
 51
90.0
  0
LINE
  5
A44
  8
DATA
  6
CONTINUOUS
 62
     7
 10
638.40900000000011
 20
-150.19259999999991
 30
0.0
 11
658.57520000000011
 21
-199.18759999999989
 31
0.0
  0
LINE
  5
A45
  8
DATA
  6
CONTINUOUS
 62
     7
 10
638.40900000000011
 20
50.192599999999992
 30
0.0
 11
658.57520000000011
 21
99.187599999999975
 31
0.0
  0
ARC
  5
A46
  8
DATA
  6
CONTINUOUS
 62
     7
 10
400.00000000000023
 20
285.67284579386268
 30
0.0
 40
4.5
 50
0.0000000009998646
 51
90.0
  0
ARC
  5
A47
  8
DATA
  6
CONTINUOUS
 62
     7
 10
400.00000000000023
 20
285.67284579386268
 30
0.0
 40
4.5
 50
270.0
 51
0.0000000019997292
  0
ARC
  5
A48
  8
DATA
  6
CONTINUOUS
 62
     7
 10
400.00000000000023
 20
285.67284579386268
 30
0.0
 40
4.5
 50
179.9999999990001
 51
270.0
  0
ARC
  5
A49
  8
DATA
  6
CONTINUOUS
 62
     7
 10
400.00000000000023
 20
285.67284579386268
 30
0.0
 40
4.5
 50
90.0
 51
179.99999999800019
  0
ARC
  5
A4A
  8
DATA
  6
CONTINUOUS
 62
     7
 10
400.00000000000023
 20
412.83204579386268
 30
0.0
 40
4.5
 50
0.0000000019997292
 51
90.0
  0
ARC
  5
A4B
  8
DATA
  6
CONTINUOUS
 62
     7
 10
400.00000000000023
 20
412.83204579386268
 30
0.0
 40
4.5
 50
270.0
 51
0.0000000009998646
  0
ARC
  5
A4C
  8
DATA
  6
CONTINUOUS
 62
     7
 10
400.00000000000023
 20
412.83204579386268
 30
0.0
 40
4.5
 50
179.9999999990001
 51
270.0
  0
ARC
  5
A4D
  8
DATA
  6
CONTINUOUS
 62
     7
 10
400.00000000000023
 20
412.83204579386268
 30
0.0
 40
4.5
 50
90.0
 51
179.9999999990001
  0
LINE
  5
A4E
  8
DATA
  6
CONTINUOUS
 62
     7
 10
144.8610000000001
 20
488.3731457938627
 30
0.0
 11
655.13900000000012
 21
488.3731457938627
 31
0.0
  0
LINE
  5
A4F
  8
DATA
  6
CONTINUOUS
 62
     7
 10
660.35000000000014
 20
437.87314579386259
 30
0.0
 11
660.35000000000014
 21
268.37314579386259
 31
0.0
  0
LINE
  5
A50
  8
DATA
  6
CONTINUOUS
 62
     7
 10
139.65000000000009
 20
437.87314579386259
 30
0.0
 11
660.35000000000014
 21
437.87314579386259
 31
0.0
  0
LINE
  5
A51
  8
DATA
  6
CONTINUOUS
 62
     7
 10
658.13570000000004
 20
485.51544579386268
 30
0.0
 11
660.35000000000014
 21
438.8731457938627
 31
0.0
  0
LINE
  5
A52
  8
DATA
  6
CONTINUOUS
 62
     7
 10
660.35000000000014
 20
437.87314579386259
 30
0.0
 11
640.18390000000011
 21
207.3731457938627
 31
0.0
  0
LINE
  5
A53
  8
DATA
  6
CONTINUOUS
 62
     7
 10
139.65000000000009
 20
437.87314579386259
 30
0.0
 11
139.65000000000009
 21
268.37314579386259
 31
0.0
  0
LINE
  5
A54
  8
DATA
  6
CONTINUOUS
 62
     7
 10
141.8642999999999
 20
485.51544579386268
 30
0.0
 11
139.65000000000009
 21
438.8731457938627
 31
0.0
  0
LINE
  5
A55
  8
DATA
  6
CONTINUOUS
 62
     7
 10
139.64990000000009
 20
437.8754457938627
 30
0.0
 11
159.81630000000021
 21
207.3731457938627
 31
0.0
  0
LINE
  5
A56
  8
DATA
  6
CONTINUOUS
 62
     7
 10
645.52070000000003
 20
268.37314579386259
 30
0.0
 11
660.35000000000014
 21
268.37314579386259
 31
0.0
  0
LINE
  5
A57
  8
DATA
  6
CONTINUOUS
 62
     7
 10
139.65000000000009
 20
268.37314579386259
 30
0.0
 11
154.47950000000009
 21
268.37314579386259
 31
0.0
  0
LINE
  5
A58
  8
DATA
  6
CONTINUOUS
 62
     7
 10
139.65000000000009
 20
438.8731457938627
 30
0.0
 11
660.35000000000014
 21
438.8731457938627
 31
0.0
  0
LINE
  5
A59
  8
DATA
  6
CONTINUOUS
 62
     7
 10
659.35000000000014
 20
437.87314579386259
 30
0.0
 11
659.35000000000014
 21
438.8731457938627
 31
0.0
  0
LINE
  5
A5A
  8
DATA
  6
CONTINUOUS
 62
     7
 10
140.65000000000009
 20
438.8731457938627
 30
0.0
 11
140.64990000000009
 21
437.8754457938627
 31
0.0
  0
LINE
  5
A5B
  8
DATA
  6
CONTINUOUS
 62
     7
 10
640.18390000000011
 20
207.3731457938627
 30
0.0
 11
159.81630000000021
 21
207.3731457938627
 31
0.0
  0
LINE
  5
A5C
  8
DATA
  6
CONTINUOUS
 62
     7
 10
488.03260000000012
 20
202.37314579386259
 30
0.0
 11
488.03260000000012
 21
207.3731457938627
 31
0.0
  0
LINE
  5
A5D
  8
DATA
  6
CONTINUOUS
 62
     7
 10
488.03260000000012
 20
202.37314579386259
 30
0.0
 11
504.03260000000017
 21
202.37314579386259
 31
0.0
  0
LINE
  5
A5E
  8
DATA
  6
CONTINUOUS
 62
     7
 10
504.03260000000017
 20
202.37314579386259
 30
0.0
 11
504.03260000000017
 21
207.3731457938627
 31
0.0
  0
LINE
  5
A5F
  8
DATA
  6
CONTINUOUS
 62
     7
 10
641.5
 20
478.37314579386259
 30
0.0
 11
158.5000000000002
 21
478.37314579386259
 31
0.0
  0
LINE
  5
A60
  8
DATA
  6
CONTINUOUS
 62
     7
 10
641.5
 20
488.3731457938627
 30
0.0
 11
641.5
 21
478.37314579386259
 31
0.0
  0
LINE
  5
A61
  8
DATA
  6
CONTINUOUS
 62
     7
 10
158.5000000000002
 20
488.3731457938627
 30
0.0
 11
158.5000000000002
 21
478.37314579386259
 31
0.0
  0
ARC
  5
A62
  8
DATA
  6
CONTINUOUS
 62
     7
 10
655.1391000000001
 20
485.3731457938627
 30
0.0
 40
2.9999768079999569
 50
2.7187709879998021
 51
90.001909858999966
  0
ARC
  5
A63
  8
DATA
  6
CONTINUOUS
 62
     7
 10
144.8609000000001
 20
485.3731457938627
 30
0.0
 40
3.0000000019999962
 50
89.998090140996766
 51
177.28122901200021
  0
LINE
  5
A64
  8
DATA
  6
CONTINUOUS
 62
     7
 10
660.35000000000014
 20
269.37314579386259
 30
0.0
 11
662.95000000000005
 21
269.37314579386259
 31
0.0
  0
LINE
  5
A65
  8
DATA
  6
CONTINUOUS
 62
     7
 10
137.0499999999999
 20
269.37314579386259
 30
0.0
 11
139.65000000000009
 21
269.37314579386259
 31
0.0
  0
ENDSEC
  0
EOF
