  0
SECTION
  2
HEADER
  9
$ACADVER
  1
AC1009
  9
$INSBASE
 10
0.0
 20
0.0
 30
0.0
  9
$EXTMIN
 10
-25.041195587302362
 20
-482.1643522966674
 30
-0.0015258207003583
  9
$EXTMAX
 10
1325.04120187373
 20
1525.061130677562
 30
0.0000000349246037
  9
$LIMMIN
 10
0.0
 20
0.0
  9
$LIMMAX
 10
0.0
 20
0.0
  9
$ORTHOMODE
 70
     0
  9
$REGENMODE
 70
     1
  9
$FILLMODE
 70
     1
  9
$QTEXTMODE
 70
     0
  9
$MIRRTEXT
 70
     1
  9
$DRAGMODE
 70
     2
  9
$LTSCALE
 40
19.050000000000001
  9
$OSMODE
 70
   167
  9
$ATTMODE
 70
     1
  9
$TEXTSIZE
 40
0.0
  9
$TRACEWID
 40
1.0
  9
$TEXTSTYLE
  7
STANDARD
  9
$CLAYER
  8
SP
  9
$CELTYPE
  6
BYLAYER
  9
$CECOLOR
 62
   256
  9
$DIMSCALE
 40
1.0
  9
$DIMASZ
 40
0.18
  9
$DIMEXO
 40
0.0625
  9
$DIMDLI
 40
0.38
  9
$DIMRND
 40
0.0
  9
$DIMDLE
 40
0.0
  9
$DIMEXE
 40
0.18
  9
$DIMTP
 40
0.0
  9
$DIMTM
 40
0.0
  9
$DIMTXT
 40
0.18
  9
$DIMCEN
 40
0.09
  9
$DIMTSZ
 40
0.0
  9
$DIMTOL
 70
     0
  9
$DIMLIM
 70
     0
  9
$DIMTIH
 70
     1
  9
$DIMTOH
 70
     1
  9
$DIMSE1
 70
     0
  9
$DIMSE2
 70
     0
  9
$DIMTAD
 70
     0
  9
$DIMZIN
 70
     0
  9
$DIMBLK
  1

  9
$DIMASO
 70
     1
  9
$DIMSHO
 70
     1
  9
$DIMPOST
  1

  9
$DIMAPOST
  1

  9
$DIMALT
 70
     0
  9
$DIMALTD
 70
     2
  9
$DIMALTF
 40
25.399999999999999
  9
$DIMLFAC
 40
1.0
  9
$DIMTOFL
 70
     0
  9
$DIMTVP
 40
0.0
  9
$DIMTIX
 70
     0
  9
$DIMSOXD
 70
     0
  9
$DIMSAH
 70
     0
  9
$DIMBLK1
  1

  9
$DIMBLK2
  1

  9
$DIMSTYLE
  2
STANDARD
  9
$DIMCLRD
 70
     0
  9
$DIMCLRE
 70
     0
  9
$DIMCLRT
 70
     0
  9
$DIMTFAC
 40
1.0
  9
$DIMGAP
 40
0.09
  9
$LUNITS
 70
     2
  9
$LUPREC
 70
     4
  9
$SKETCHINC
 40
0.1
  9
$FILLETRAD
 40
0.0
  9
$AUNITS
 70
     0
  9
$AUPREC
 70
     0
  9
$MENU
  1
acad
  9
$ELEVATION
 40
0.0
  9
$PELEVATION
 40
0.0
  9
$THICKNESS
 40
0.0
  9
$LIMCHECK
 70
     0
  9
$BLIPMODE
 70
     0
  9
$CHAMFERA
 40
0.0
  9
$CHAMFERB
 40
0.0
  9
$SKPOLY
 70
     0
  9
$TDCREATE
 40
2453085.7852430558
  9
$TDUPDATE
 40
2453085.7938028011
  9
$TDINDWG
 40
0.0005658681
  9
$TDUSRTIMER
 40
0.0005656829
  9
$USRTIMER
 70
     1
  9
$ANGBASE
 50
0.0
  9
$ANGDIR
 70
     0
  9
$PDMODE
 70
     1
  9
$PDSIZE
 40
-2.0
  9
$PLINEWID
 40
0.0
  9
$COORDS
 70
     2
  9
$SPLFRAME
 70
     0
  9
$SPLINETYPE
 70
     6
  9
$SPLINESEGS
 70
     8
  9
$ATTDIA
 70
     0
  9
$ATTREQ
 70
     1
  9
$HANDLING
 70
     1
  9
$HANDSEED
  5
3BE
  9
$SURFTAB1
 70
     6
  9
$SURFTAB2
 70
     6
  9
$SURFTYPE
 70
     6
  9
$SURFU
 70
     6
  9
$SURFV
 70
     6
  9
$UCSNAME
  2

  9
$UCSORG
 10
0.0
 20
0.0
 30
0.0
  9
$UCSXDIR
 10
1.0
 20
0.0
 30
0.0
  9
$UCSYDIR
 10
0.0
 20
1.0
 30
0.0
  9
$PUCSNAME
  2

  9
$PUCSORG
 10
0.0
 20
0.0
 30
0.0
  9
$PUCSXDIR
 10
1.0
 20
0.0
 30
0.0
  9
$PUCSYDIR
 10
0.0
 20
1.0
 30
0.0
  9
$USERI1
 70
     0
  9
$USERI2
 70
     0
  9
$USERI3
 70
     0
  9
$USERI4
 70
     0
  9
$USERI5
 70
     0
  9
$USERR1
 40
0.0
  9
$USERR2
 40
0.0
  9
$USERR3
 40
0.0
  9
$USERR4
 40
0.0
  9
$USERR5
 40
0.0
  9
$WORLDVIEW
 70
     1
  9
$SHADEDGE
 70
     3
  9
$SHADEDIF
 70
    70
  9
$TILEMODE
 70
     1
  9
$MAXACTVP
 70
    16
  9
$PLIMCHECK
 70
     0
  9
$PEXTMIN
 10
1.0000000000000000E+020
 20
1.0000000000000000E+020
 30
1.0000000000000000E+020
  9
$PEXTMAX
 10
-1.0000000000000000E+020
 20
-1.0000000000000000E+020
 30
-1.0000000000000000E+020
  9
$PLIMMIN
 10
0.0
 20
0.0
  9
$PLIMMAX
 10
12.0
 20
9.0
  9
$UNITMODE
 70
     0
  9
$VISRETAIN
 70
     0
  9
$PLINEGEN
 70
     1
  9
$PSLTSCALE
 70
     0
  0
ENDSEC
  0
SECTION
  2
TABLES
  0
TABLE
  2
VPORT
 70
     2
  0
VPORT
  2
*ACTIVE
 70
     0
 10
0.0
 20
0.0
 11
1.0
 21
1.0
 12
650.00000314321414
 22
521.44838919044707
 13
0.0
 23
0.0
 14
1.0
 24
1.0
 15
0.0
 25
0.0
 16
0.0
 26
0.0
 36
1.0
 17
0.0
 27
0.0
 37
0.0
 40
2023.2193115238249
 41
1.603723404255319
 42
50.0
 43
0.0
 44
0.0
 50
0.0
 51
0.0
 71
     0
 72
   100
 73
     1
 74
     1
 75
     0
 76
     0
 77
     0
 78
     0
  0
ENDTAB
  0
TABLE
  2
LTYPE
 70
    14
  0
LTYPE
  2
CONTINUOUS
 70
     0
  3
Solid line
 72
    65
 73
     0
 40
0.0
  0
ENDTAB
  0
TABLE
  2
LAYER
 70
     6
  0
LAYER
  2
0
 70
     0
 62
     7
  6
CONTINUOUS
  0
LAYER
  2
SP
 70
     0
 62
     7
  6
CONTINUOUS
  0
LAYER
  2
DEFPOINTS
 70
     0
 62
     7
  6
CONTINUOUS
  0
LAYER
  2
BASE
 70
     0
 62
     7
  6
CONTINUOUS
  0
LAYER
  2
BRACKET
 70
     0
 62
     7
  6
CONTINUOUS
  0
LAYER
  2
SP_100_
 70
     0
 62
     7
  6
CONTINUOUS
  0
ENDTAB
  0
TABLE
  2
STYLE
 70
     2
  0
STYLE
  2
STANDARD
 70
     0
 40
0.0
 41
1.0
 50
0.0
 71
     0
 42
0.0
  3
txt
  4
BIGFONT.SHX
  0
ENDTAB
  0
TABLE
  2
VIEW
 70
     0
  0
ENDTAB
  0
TABLE
  2
UCS
 70
     0
  0
ENDTAB
  0
TABLE
  2
APPID
 70
     1
  0
APPID
  2
ACAD
 70
     0
  0
ENDTAB
  0
TABLE
  2
DIMSTYLE
 70
     1
  0
DIMSTYLE
  2
STANDARD
 70
     0
  3

  4

  5

  6

  7

 40
1.0
 41
0.18
 42
0.0625
 43
0.38
 44
0.18
 45
0.0
 46
0.0
 47
0.0
 48
0.0
140
0.18
141
0.09
142
0.0
143
25.399999999999999
144
1.0
145
0.0
146
1.0
147
0.09
 71
     0
 72
     0
 73
     1
 74
     1
 75
     0
 76
     0
 77
     0
 78
     0
170
     0
171
     2
172
     0
173
     0
174
     0
175
     0
176
     0
177
     0
178
     0
  0
ENDTAB
  0
ENDSEC
  0
SECTION
  2
BLOCKS
  0
BLOCK
  8
0
  2
$MODEL_SPACE
 70
     0
 10
0.0
 20
0.0
 30
0.0
  3
$MODEL_SPACE
  1

  0
ENDBLK
  5
37E
  8
0
  0
BLOCK
 67
     1
  8
0
  2
$PAPER_SPACE
 70
     0
 10
0.0
 20
0.0
 30
0.0
  3
$PAPER_SPACE
  1

  0
ENDBLK
  5
37A
 67
     1
  8
0
  0
ENDSEC
  0
SECTION
  2
ENTITIES
  0
LINE
  5
30
  8
BASE
 62
     7
 10
-24.999999999999659
 20
1525.0
 30
0.0
 11
1325.0
 21
1525.0
 31
0.0
  0
LINE
  5
31
  8
BASE
 62
     7
 10
1325.0
 20
-425.0
 30
0.0
 11
-24.999999999999659
 21
-425.0
 31
0.0
  0
LINE
  5
32
  8
BASE
 62
     7
 10
-24.999999999999659
 20
-425.0
 30
0.0
 11
-24.999999999999659
 21
1525.0
 31
0.0
  0
TEXT
  5
33
  8
BASE
 62
     7
 10
28.88000000000034
 20
-473.06508349999967
 30
0.0
 40
27.00033134765625
  1
Hibino Corporation
 41
0.8
 11
28.88000000000034
 21
-446.06475215234349
 31
0.0
 73
     3
  0
LINE
  5
34
  8
BASE
 62
     7
 10
1325.0
 20
1525.0
 30
0.0
 11
1325.0
 21
-425.0
 31
0.0
  0
LINE
  5
35
  8
BASE
 62
     7
 10
650.0
 20
-256.24999999999989
 30
0.0
 11
1325.0
 21
-256.24999999999989
 31
0.0
  0
LINE
  5
36
  8
BASE
 62
     7
 10
650.0
 20
-425.0
 30
0.0
 11
650.0
 21
-256.24999999999989
 31
0.0
  0
TEXT
  5
37
  8
BASE
 62
     7
 10
656.75000000000011
 20
-275.06519999999989
 30
0.0
 40
12.21630859375
  1
NOTE
 41
0.8
 11
656.75000000000011
 21
-262.84889140624989
 31
0.0
 73
     3
  0
LINE
  5
38
  8
BASE
 62
     7
 10
912.50000000000011
 20
-425.0
 30
0.0
 11
912.50000000000011
 21
-256.24999999999989
 31
0.0
  0
TEXT
  5
39
  8
BASE
 62
     7
 10
919.25
 20
-275.06519999999989
 30
0.0
 40
12.21630859375
  1
TITLE
 41
0.8
 11
919.25
 21
-262.84889140624989
 31
0.0
 73
     3
  0
TEXT
  5
3A
  8
BASE
 62
     7
 10
1025.512925
 20
-473.06508349999967
 30
0.0
 40
27.00033134765625
  1
ヒビノ株式会社
 41
0.8
 11
1025.512925
 21
-446.06475215234349
 31
0.0
 73
     3
  0
LINE
  5
3B
  8
BASE
 62
     7
 10
650.0
 20
-349.99999999999977
 30
0.0
 11
1325.0
 21
-349.99999999999977
 31
0.0
  0
TEXT
  5
3C
  8
BASE
 62
     7
 10
1013.0
 20
-368.39280000000002
 30
0.0
 40
12.21630859375
  1
DRAWN
 41
0.8
 11
1013.0
 21
-356.17649140625002
 31
0.0
 73
     3
  0
TEXT
  5
3D
  8
BASE
 62
     7
 10
825.5
 20
-368.39280000000002
 30
0.0
 40
12.21630859375
  1
DATE
 41
0.8
 11
825.5
 21
-356.17649140625002
 31
0.0
 73
     3
  0
TEXT
  5
3E
  8
BASE
 62
     7
 10
750.50000000000011
 20
-368.39280000000002
 30
0.0
 40
12.21630859375
  1
SCALE
 41
0.8
 11
750.50000000000011
 21
-356.17649140625002
 31
0.0
 73
     3
  0
TEXT
  5
3F
  8
BASE
 62
     7
 10
919.25
 20
-368.39280000000002
 30
0.0
 40
12.21630859375
  1
DESIGN
 41
0.8
 11
919.25
 21
-356.17649140625002
 31
0.0
 73
     3
  0
TEXT
  5
40
  8
BASE
 62
     7
 10
1200.5
 20
-368.39280000000002
 30
0.0
 40
12.21630859375
  1
DRAWING NO.
 41
0.8
 11
1200.5
 21
-356.17649140625002
 31
0.0
 73
     3
  0
TEXT
  5
41
  8
BASE
 62
     7
 10
1106.75
 20
-368.39280000000002
 30
0.0
 40
12.21630859375
  1
CHECK
 41
0.8
 11
1106.75
 21
-356.17649140625002
 31
0.0
 73
     3
  0
LINE
  5
42
  8
BASE
 62
     7
 10
757.8125
 20
-415.625
 30
0.0
 11
785.9375
 21
-387.49999999999977
 31
0.0
  0
TEXT
  5
43
  8
BASE
 62
     7
 10
753.125
 20
-395.81707499999982
 30
0.0
 40
12.21630859375
  1
1
 41
0.8
 11
753.125
 21
-383.60076640624982
 31
0.0
 73
     3
  0
LINE
  5
44
  8
BASE
 62
     7
 10
743.75
 20
-425.0
 30
0.0
 11
743.75
 21
-349.99999999999977
 31
0.0
  0
LINE
  5
45
  8
BASE
 62
     7
 10
818.75000000000011
 20
-425.0
 30
0.0
 11
818.75000000000011
 21
-349.99999999999977
 31
0.0
  0
LINE
  5
46
  8
BASE
 62
     7
 10
1006.25
 20
-349.99999999999977
 30
0.0
 11
1006.25
 21
-425.0
 31
0.0
  0
LINE
  5
47
  8
BASE
 62
     7
 10
1193.75
 20
-349.99999999999977
 30
0.0
 11
1193.75
 21
-425.0
 31
0.0
  0
LINE
  5
48
  8
BASE
 62
     7
 10
1100.0
 20
-425.0
 30
0.0
 11
1100.0
 21
-349.99999999999977
 31
0.0
  0
TEXT
  5
49
  8
BASE
 62
     7
 10
825.17405000000031
 20
-403.52265
 30
0.0
 40
12.21630859375
  1
'04.03.
 41
0.8
 11
825.17405000000031
 21
-391.30634140625
 31
0.0
 73
     3
  0
TEXT
  5
4A
  8
BASE
 62
     7
 10
781.25
 20
-409.87957499999982
 30
0.0
 40
12.21630859375
  1
20
 41
0.8
 11
781.25
 21
-397.66326640624982
 31
0.0
 73
     3
  0
TEXT
  5
4B
  8
BASE
 62
     7
 10
1017.543575082759
 20
-403.52265
 30
0.0
 40
12.21630859375
  1
N.Sasaki
 41
0.8
 11
1017.543575082759
 21
-391.30634140625
 31
0.0
 73
     3
  0
TEXT
  5
4C
  8
BASE
 62
     7
 10
679.12500000000034
 20
-410.17999999999972
 30
0.0
 40
24.4326171875
  1
A4
 41
0.8
 11
679.12500000000034
 21
-385.74738281249972
 31
0.0
 73
     3
  0
TEXT
  5
4D
  8
BASE
 62
     7
 10
657.18750000000011
 20
-369.64591249999978
 30
0.0
 40
12.21630859375
  1
PAPER SIZE
 41
0.8
 11
657.18750000000011
 21
-357.42960390624978
 31
0.0
 73
     3
  0
TEXT
  5
4E
  8
BASE
 62
     7
 10
500.00000000000011
 20
-332.97882499999992
 30
0.0
 40
18.324462890625
  1
(単位：mm)
 41
0.8
 11
500.00000000000011
 21
-314.65436210937492
 31
0.0
 73
     3
  0
LINE
  5
4F
  8
BRACKET
 62
     7
 10
989.98020399999984
 20
900.0
 30
0.0
 11
989.98020399999984
 21
835.0
 31
0.0
  0
LINE
  5
50
  8
BRACKET
 62
     7
 10
1049.980204
 20
900.0
 30
0.0
 11
1049.980204
 21
835.0
 31
0.0
  0
LINE
  5
51
  8
BRACKET
 62
     7
 10
989.98020399999984
 20
850.0
 30
0.0
 11
1049.980204
 21
850.0
 31
0.0
  0
LINE
  5
52
  8
BRACKET
 62
     7
 10
989.98020399999984
 20
850.0
 30
0.0
 11
1013.792704
 21
856.38054014476631
 31
0.0
  0
LINE
  5
53
  8
BRACKET
 62
     7
 10
989.98020399999984
 20
850.0
 30
0.0
 11
1013.792704
 21
843.6194598552338
 31
0.0
  0
LINE
  5
54
  8
BRACKET
 62
     7
 10
1049.980204
 20
850.0
 30
0.0
 11
1026.167704
 21
843.6194598552338
 31
0.0
  0
LINE
  5
55
  8
BRACKET
 62
     7
 10
1049.980204
 20
850.0
 30
0.0
 11
1026.167704
 21
856.38054014476631
 31
0.0
  0
TEXT
  5
56
  8
BRACKET
 62
     7
 10
1006.751037333333
 20
857.45416666666677
 30
0.0
 40
20.360514322916671
  1
60
 41
0.8
 11
1006.751037333333
 21
877.81468098958328
 31
0.0
 73
     3
  0
LINE
  5
57
  8
BRACKET
 62
     7
 10
1049.980204
 20
900.0
 30
0.0
 11
1049.980204
 21
835.0
 31
0.0
  0
LINE
  5
58
  8
BRACKET
 62
     7
 10
1109.980204
 20
900.0
 30
0.0
 11
1109.980204
 21
835.0
 31
0.0
  0
LINE
  5
59
  8
BRACKET
 62
     7
 10
1049.980204
 20
850.0
 30
0.0
 11
1109.980204
 21
850.0
 31
0.0
  0
LINE
  5
5A
  8
BRACKET
 62
     7
 10
1049.980204
 20
850.0
 30
0.0
 11
1073.792704
 21
856.38054014476631
 31
0.0
  0
LINE
  5
5B
  8
BRACKET
 62
     7
 10
1049.980204
 20
850.0
 30
0.0
 11
1073.792704
 21
843.6194598552338
 31
0.0
  0
LINE
  5
5C
  8
BRACKET
 62
     7
 10
1109.980204
 20
850.0
 30
0.0
 11
1086.167704
 21
843.6194598552338
 31
0.0
  0
LINE
  5
5D
  8
BRACKET
 62
     7
 10
1109.980204
 20
850.0
 30
0.0
 11
1086.167704
 21
856.38054014476631
 31
0.0
  0
TEXT
  5
5E
  8
BRACKET
 62
     7
 10
1066.751037333333
 20
857.45416666666677
 30
0.0
 40
20.360514322916671
  1
60
 41
0.8
 11
1066.751037333333
 21
877.81468098958328
 31
0.0
 73
     3
  0
LINE
  5
5F
  8
BRACKET
 62
     7
 10
1124.980204
 20
895.0
 30
0.0
 11
1124.980204
 21
785.0
 31
0.0
  0
LINE
  5
60
  8
BRACKET
 62
     7
 10
974.98020399999996
 20
895.0
 30
0.0
 11
974.98020399999996
 21
785.0
 31
0.0
  0
LINE
  5
61
  8
BRACKET
 62
     7
 10
1124.980204
 20
800.0
 30
0.0
 11
974.98020399999996
 21
800.0
 31
0.0
  0
LINE
  5
62
  8
BRACKET
 62
     7
 10
1124.980204
 20
800.0
 30
0.0
 11
1101.167704
 21
793.61945985523391
 31
0.0
  0
LINE
  5
63
  8
BRACKET
 62
     7
 10
1124.980204
 20
800.0
 30
0.0
 11
1101.167704
 21
806.38054014476631
 31
0.0
  0
LINE
  5
64
  8
BRACKET
 62
     7
 10
974.98020399999996
 20
800.0
 30
0.0
 11
998.79270399999996
 21
806.38054014476631
 31
0.0
  0
LINE
  5
65
  8
BRACKET
 62
     7
 10
974.98020399999996
 20
800.0
 30
0.0
 11
998.79270399999996
 21
793.61945985523391
 31
0.0
  0
TEXT
  5
66
  8
BRACKET
 62
     7
 10
1030.136454
 20
807.45416666666677
 30
0.0
 40
20.360514322916671
  1
150
 41
0.8
 11
1030.136454
 21
827.81468098958328
 31
0.0
 73
     3
  0
LINE
  5
67
  8
BRACKET
 62
     7
 10
1113.8692912965259
 20
911.11091270347367
 30
0.0
 11
1174.980204
 21
850.0
 31
0.0
  0
LINE
  5
68
  8
BRACKET
 62
     7
 10
1113.8692912965259
 20
911.11091270347367
 30
0.0
 11
1135.2189947275269
 21
898.78465568046624
 31
0.0
  0
LINE
  5
69
  8
BRACKET
 62
     7
 10
1113.8692912965259
 20
911.11091270347367
 30
0.0
 11
1126.1955483195329
 21
889.761209272472
 31
0.0
  0
LINE
  5
6A
  8
BRACKET
 62
     7
 10
1174.980204
 20
850.0
 30
0.0
 11
1299.355204
 21
850.0
 31
0.0
  0
TEXT
  5
6B
  8
BRACKET
 62
     7
 10
1219.980204
 20
857.45416666666677
 30
0.0
 40
20.360514322916671
  1
8-φ11
 41
0.8
 11
1219.980204
 21
877.81468098958328
 31
0.0
 73
     3
  0
LINE
  5
6C
  8
BRACKET
 62
     7
 10
974.98020399999996
 20
1035.0
 30
0.0
 11
910.0
 21
1035.0
 31
0.0
  0
LINE
  5
6D
  8
BRACKET
 62
     7
 10
974.98020399999996
 20
975.0
 30
0.0
 11
910.0
 21
975.0
 31
0.0
  0
LINE
  5
6E
  8
BRACKET
 62
     7
 10
925.0
 20
1035.0
 30
0.0
 11
925.0
 21
975.0
 31
0.0
  0
LINE
  5
6F
  8
BRACKET
 62
     7
 10
925.0
 20
1035.0
 30
0.0
 11
931.38054014476631
 21
1011.1875
 31
0.0
  0
LINE
  5
70
  8
BRACKET
 62
     7
 10
925.0
 20
1035.0
 30
0.0
 11
918.6194598552338
 21
1011.1875
 31
0.0
  0
LINE
  5
71
  8
BRACKET
 62
     7
 10
925.0
 20
975.0
 30
0.0
 11
918.6194598552338
 21
998.8125
 31
0.0
  0
LINE
  5
72
  8
BRACKET
 62
     7
 10
925.0
 20
975.0
 30
0.0
 11
931.38054014476631
 21
998.8125
 31
0.0
  0
TEXT
  5
73
  8
BRACKET
 62
     7
 10
917.54583333333335
 20
991.77083333333314
 30
0.0
 40
20.360514322916671
  1
60
 50
90.0
 41
0.8
 11
897.18531901041661
 21
991.77083333333314
 31
0.0
 73
     3
  0
LINE
  5
74
  8
BRACKET
 62
     7
 10
974.98020399999996
 20
975.0
 30
0.0
 11
910.0
 21
975.0
 31
0.0
  0
LINE
  5
75
  8
BRACKET
 62
     7
 10
974.98020399999996
 20
915.0
 30
0.0
 11
910.0
 21
915.0
 31
0.0
  0
LINE
  5
76
  8
BRACKET
 62
     7
 10
925.0
 20
975.0
 30
0.0
 11
925.0
 21
915.0
 31
0.0
  0
LINE
  5
77
  8
BRACKET
 62
     7
 10
925.0
 20
975.0
 30
0.0
 11
931.38054014476631
 21
951.18749999999989
 31
0.0
  0
LINE
  5
78
  8
BRACKET
 62
     7
 10
925.0
 20
975.0
 30
0.0
 11
918.6194598552338
 21
951.18749999999989
 31
0.0
  0
LINE
  5
79
  8
BRACKET
 62
     7
 10
925.0
 20
915.0
 30
0.0
 11
918.6194598552338
 21
938.8125
 31
0.0
  0
LINE
  5
7A
  8
BRACKET
 62
     7
 10
925.0
 20
915.0
 30
0.0
 11
931.38054014476631
 21
938.8125
 31
0.0
  0
TEXT
  5
7B
  8
BRACKET
 62
     7
 10
917.54583333333335
 20
931.77083333333314
 30
0.0
 40
20.360514322916671
  1
60
 50
90.0
 41
0.8
 11
897.18531901041661
 21
931.77083333333314
 31
0.0
 73
     3
  0
LINE
  5
7C
  8
BRACKET
 62
     7
 10
969.98020399999984
 20
900.0
 30
0.0
 11
860.0
 21
900.0
 31
0.0
  0
LINE
  5
7D
  8
BRACKET
 62
     7
 10
969.98020399999984
 20
1050.0
 30
0.0
 11
860.0
 21
1050.0
 31
0.0
  0
LINE
  5
7E
  8
BRACKET
 62
     7
 10
875.0
 20
900.0
 30
0.0
 11
875.0
 21
1050.0
 31
0.0
  0
LINE
  5
7F
  8
BRACKET
 62
     7
 10
875.0
 20
900.0
 30
0.0
 11
868.6194598552338
 21
923.8125
 31
0.0
  0
LINE
  5
80
  8
BRACKET
 62
     7
 10
875.0
 20
900.0
 30
0.0
 11
881.38054014476631
 21
923.8125
 31
0.0
  0
LINE
  5
81
  8
BRACKET
 62
     7
 10
875.0
 20
1050.0
 30
0.0
 11
881.38054014476631
 21
1026.1875
 31
0.0
  0
LINE
  5
82
  8
BRACKET
 62
     7
 10
875.0
 20
1050.0
 30
0.0
 11
868.6194598552338
 21
1026.1875
 31
0.0
  0
TEXT
  5
83
  8
BRACKET
 62
     7
 10
867.54583333333335
 20
955.15625000000011
 30
0.0
 40
20.360514322916671
  1
150
 50
90.0
 41
0.8
 11
847.18531901041661
 21
955.15625000000011
 31
0.0
 73
     3
  0
LINE
  5
84
  8
BRACKET
 62
     7
 10
1074.980204
 20
572.0
 30
0.0
 11
1024.980204
 21
572.0
 31
0.0
  0
LINE
  5
85
  8
BRACKET
 62
     7
 10
999.98020399999996
 20
596.79999999999995
 30
0.0
 11
999.98020399999996
 21
593.59999999999991
 31
0.0
  0
LINE
  5
86
  8
BRACKET
 62
     7
 10
999.98020399999996
 20
593.59999999999991
 30
0.0
 11
1021.780203999999
 21
593.59999999999991
 31
0.0
  0
LINE
  5
87
  8
BRACKET
 62
     7
 10
1078.180204
 20
593.59999999999991
 30
0.0
 11
1099.980204
 21
593.59999999999991
 31
0.0
  0
LINE
  5
88
  8
BRACKET
 62
     7
 10
1099.980204
 20
593.59999999999991
 30
0.0
 11
1099.980204
 21
596.79999999999995
 31
0.0
  0
LINE
  5
89
  8
BRACKET
 62
     7
 10
1074.980204
 20
572.0
 30
0.0
 11
1074.980204
 21
593.79999999999995
 31
0.0
  0
ARC
  5
8A
  8
BRACKET
 62
     7
 10
1077.980204
 20
593.79999999999995
 30
0.0
 40
3.0
 50
90.0
 51
180.0
  0
LINE
  5
8B
  8
BRACKET
 62
     7
 10
1077.980204
 20
596.79999999999995
 30
0.0
 11
1099.980204
 21
596.79999999999995
 31
0.0
  0
LINE
  5
8C
  8
BRACKET
 62
     7
 10
1078.180204
 20
593.59999999999991
 30
0.0
 11
1078.180204
 21
571.79999999999995
 31
0.0
  0
ARC
  5
8D
  8
BRACKET
 62
     7
 10
1075.180204
 20
571.79999999999995
 30
0.0
 40
3.0
 50
270.0
 51
0.0
  0
LINE
  5
8E
  8
BRACKET
 62
     7
 10
1075.180204
 20
568.79999999999995
 30
0.0
 11
1024.780203999999
 21
568.79999999999995
 31
0.0
  0
ARC
  5
8F
  8
BRACKET
 62
     7
 10
1024.780203999999
 20
571.79999999999995
 30
0.0
 40
3.0
 50
180.0
 51
270.0
  0
LINE
  5
90
  8
BRACKET
 62
     7
 10
1021.780203999999
 20
571.79999999999995
 30
0.0
 11
1021.780203999999
 21
593.59999999999991
 31
0.0
  0
LINE
  5
91
  8
BRACKET
 62
     7
 10
999.98020399999996
 20
596.79999999999995
 30
0.0
 11
1021.980204
 21
596.79999999999995
 31
0.0
  0
ARC
  5
92
  8
BRACKET
 62
     7
 10
1021.980204
 20
593.79999999999995
 30
0.0
 40
3.0
 50
0.0
 51
90.0
  0
LINE
  5
93
  8
BRACKET
 62
     7
 10
1024.980204
 20
593.79999999999995
 30
0.0
 11
1024.980204
 21
572.0
 31
0.0
  0
LINE
  5
94
  8
BRACKET
 62
     7
 10
974.98020399999996
 20
600.0
 30
0.0
 11
974.98020399999996
 21
596.79999999999995
 31
0.0
  0
LINE
  5
95
  8
BRACKET
 62
     7
 10
974.98020399999996
 20
596.79999999999995
 30
0.0
 11
1124.980204
 21
596.79999999999995
 31
0.0
  0
LINE
  5
96
  8
BRACKET
 62
     7
 10
1124.980204
 20
596.79999999999995
 30
0.0
 11
1124.980204
 21
600.0
 31
0.0
  0
LINE
  5
97
  8
BRACKET
 62
     7
 10
1124.980204
 20
600.0
 30
0.0
 11
974.98020399999996
 21
600.0
 31
0.0
  0
ARC
  5
98
  8
BRACKET
 62
     7
 10
1005.480204
 20
592.60000000000002
 30
0.0
 40
1.0
 50
180.0
 51
270.0
  0
LINE
  5
99
  8
BRACKET
 62
     7
 10
1004.480204
 20
592.60000000000002
 30
0.0
 11
1004.480204
 21
593.59999999999991
 31
0.0
  0
LINE
  5
9A
  8
BRACKET
 62
     7
 10
1015.480204
 20
593.59999999999991
 30
0.0
 11
1015.480204
 21
592.60000000000002
 31
0.0
  0
ARC
  5
9B
  8
BRACKET
 62
     7
 10
1014.480204
 20
592.60000000000002
 30
0.0
 40
1.0
 50
270.0
 51
0.0
  0
LINE
  5
9C
  8
BRACKET
 62
     7
 10
1014.480204
 20
591.60000000000002
 30
0.0
 11
1005.480204
 21
591.60000000000002
 31
0.0
  0
ARC
  5
9D
  8
BRACKET
 62
     7
 10
1085.480204
 20
592.60000000000002
 30
0.0
 40
1.0
 50
180.0
 51
270.0
  0
LINE
  5
9E
  8
BRACKET
 62
     7
 10
1084.480204
 20
592.60000000000002
 30
0.0
 11
1084.480204
 21
593.59999999999991
 31
0.0
  0
LINE
  5
9F
  8
BRACKET
 62
     7
 10
1095.480204
 20
593.59999999999991
 30
0.0
 11
1095.480204
 21
592.60000000000002
 31
0.0
  0
ARC
  5
A0
  8
BRACKET
 62
     7
 10
1094.480204
 20
592.60000000000002
 30
0.0
 40
1.0
 50
270.0
 51
0.0
  0
LINE
  5
A1
  8
BRACKET
 62
     7
 10
1094.480204
 20
591.60000000000002
 30
0.0
 11
1085.480204
 21
591.60000000000002
 31
0.0
  0
LINE
  5
A2
  8
BRACKET
 62
     7
 10
1078.180204
 20
590.29999999999995
 30
0.0
 11
1079.180204
 21
590.29999999999995
 31
0.0
  0
LINE
  5
A3
  8
BRACKET
 62
     7
 10
1079.180204
 20
590.29999999999995
 30
0.0
 11
1079.180204
 21
572.29999999999995
 31
0.0
  0
LINE
  5
A4
  8
BRACKET
 62
     7
 10
1079.180204
 20
572.29999999999995
 30
0.0
 11
1078.180204
 21
572.29999999999995
 31
0.0
  0
LINE
  5
A5
  8
BRACKET
 62
     7
 10
1079.180204
 20
588.79999999999995
 30
0.0
 11
1084.1802039999991
 21
588.79999999999995
 31
0.0
  0
LINE
  5
A6
  8
BRACKET
 62
     7
 10
1084.1802039999991
 20
588.79999999999995
 30
0.0
 11
1084.680204
 21
588.29999999999995
 31
0.0
  0
LINE
  5
A7
  8
BRACKET
 62
     7
 10
1084.680204
 20
588.29999999999995
 30
0.0
 11
1084.680204
 21
574.29999999999995
 31
0.0
  0
LINE
  5
A8
  8
BRACKET
 62
     7
 10
1084.680204
 20
574.29999999999995
 30
0.0
 11
1084.1802039999991
 21
573.79999999999995
 31
0.0
  0
LINE
  5
A9
  8
BRACKET
 62
     7
 10
1084.1802039999991
 20
573.79999999999995
 30
0.0
 11
1079.180204
 21
573.79999999999995
 31
0.0
  0
LINE
  5
AA
  8
BRACKET
 62
     7
 10
1021.780203999999
 20
590.29999999999995
 30
0.0
 11
1020.780204
 21
590.29999999999995
 31
0.0
  0
LINE
  5
AB
  8
BRACKET
 62
     7
 10
1020.780204
 20
590.29999999999995
 30
0.0
 11
1020.780204
 21
572.29999999999995
 31
0.0
  0
LINE
  5
AC
  8
BRACKET
 62
     7
 10
1020.780204
 20
572.29999999999995
 30
0.0
 11
1021.780203999999
 21
572.29999999999995
 31
0.0
  0
LINE
  5
AD
  8
BRACKET
 62
     7
 10
1020.780204
 20
588.79999999999995
 30
0.0
 11
1015.780203999999
 21
588.79999999999995
 31
0.0
  0
LINE
  5
AE
  8
BRACKET
 62
     7
 10
1015.780203999999
 20
588.79999999999995
 30
0.0
 11
1015.280203999999
 21
588.29999999999995
 31
0.0
  0
LINE
  5
AF
  8
BRACKET
 62
     7
 10
1015.280203999999
 20
574.29999999999995
 30
0.0
 11
1015.780203999999
 21
573.79999999999995
 31
0.0
  0
LINE
  5
B0
  8
BRACKET
 62
     7
 10
1015.780203999999
 20
573.79999999999995
 30
0.0
 11
1020.780204
 21
573.79999999999995
 31
0.0
  0
LINE
  5
B1
  8
BRACKET
 62
     7
 10
1015.280203999999
 20
588.29999999999995
 30
0.0
 11
1013.280203999999
 21
587.79999999999995
 31
0.0
  0
LINE
  5
B2
  8
BRACKET
 62
     7
 10
1013.280203999999
 20
587.79999999999995
 30
0.0
 11
1013.280203999999
 21
574.79999999999995
 31
0.0
  0
LINE
  5
B3
  8
BRACKET
 62
     7
 10
1013.280203999999
 20
574.79999999999995
 30
0.0
 11
1015.280203999999
 21
574.29999999999995
 31
0.0
  0
LINE
  5
B4
  8
BRACKET
 62
     7
 10
1013.180204
 20
585.29999999999995
 30
0.0
 11
1009.680204
 21
585.29999999999995
 31
0.0
  0
LINE
  5
B5
  8
BRACKET
 62
     7
 10
1009.680204
 20
585.29999999999995
 30
0.0
 11
1009.180204
 21
584.79999999999995
 31
0.0
  0
LINE
  5
B6
  8
BRACKET
 62
     7
 10
1009.180204
 20
584.79999999999995
 30
0.0
 11
1009.180204
 21
577.79999999999995
 31
0.0
  0
LINE
  5
B7
  8
BRACKET
 62
     7
 10
1009.180204
 20
577.79999999999995
 30
0.0
 11
1009.680204
 21
577.29999999999995
 31
0.0
  0
LINE
  5
B8
  8
BRACKET
 62
     7
 10
1009.680204
 20
577.29999999999995
 30
0.0
 11
1013.180204
 21
577.29999999999995
 31
0.0
  0
LINE
  5
B9
  8
BRACKET
 62
     7
 10
1068.7802039999999
 20
572.0
 30
0.0
 11
1070.7802039999999
 21
573.0
 31
0.0
  0
LINE
  5
BA
  8
BRACKET
 62
     7
 10
1031.1802039999991
 20
572.0
 30
0.0
 11
1029.180204
 21
573.0
 31
0.0
  0
LINE
  5
BB
  8
BRACKET
 62
     7
 10
1073.980204
 20
568.79999999999995
 30
0.0
 11
1073.980204
 21
564.79999999999995
 31
0.0
  0
LINE
  5
BC
  8
BRACKET
 62
     7
 10
1073.980204
 20
564.79999999999995
 30
0.0
 11
1025.980204
 21
564.79999999999995
 31
0.0
  0
LINE
  5
BD
  8
BRACKET
 62
     7
 10
1025.980204
 20
564.79999999999995
 30
0.0
 11
1025.980204
 21
568.79999999999995
 31
0.0
  0
LINE
  5
BE
  8
BRACKET
 62
     7
 10
1068.7802039999999
 20
564.79999999999995
 30
0.0
 11
1070.7802039999999
 21
563.79999999999995
 31
0.0
  0
LINE
  5
BF
  8
BRACKET
 62
     7
 10
1070.7802039999999
 20
563.79999999999995
 30
0.0
 11
1070.7802039999999
 21
551.79999999999995
 31
0.0
  0
LINE
  5
C0
  8
BRACKET
 62
     7
 10
1070.7802039999999
 20
551.79999999999995
 30
0.0
 11
1068.7802039999999
 21
550.79999999999995
 31
0.0
  0
LINE
  5
C1
  8
BRACKET
 62
     7
 10
1068.7802039999999
 20
550.79999999999995
 30
0.0
 11
1031.1802039999991
 21
550.79999999999995
 31
0.0
  0
LINE
  5
C2
  8
BRACKET
 62
     7
 10
1031.1802039999991
 20
550.79999999999995
 30
0.0
 11
1029.180204
 21
551.79999999999995
 31
0.0
  0
LINE
  5
C3
  8
BRACKET
 62
     7
 10
1029.180204
 20
551.79999999999995
 30
0.0
 11
1029.180204
 21
563.79999999999995
 31
0.0
  0
LINE
  5
C4
  8
BRACKET
 62
     7
 10
1029.180204
 20
563.79999999999995
 30
0.0
 11
1031.1802039999991
 21
564.79999999999995
 31
0.0
  0
LINE
  5
C5
  8
BRACKET
 62
     7
 10
1066.980204
 20
487.19999999999982
 30
0.0
 11
1065.980204
 21
486.19999999999987
 31
0.0
  0
LINE
  5
C6
  8
BRACKET
 62
     7
 10
1065.980204
 20
486.19999999999987
 30
0.0
 11
1033.980204
 21
486.19999999999987
 31
0.0
  0
LINE
  5
C7
  8
BRACKET
 62
     7
 10
1033.980204
 20
486.19999999999987
 30
0.0
 11
1032.980204
 21
487.19999999999982
 31
0.0
  0
LINE
  5
C8
  8
BRACKET
 62
     7
 10
1029.980204
 20
513.19999999999993
 30
0.0
 11
1032.980204
 21
513.19999999999993
 31
0.0
  0
LINE
  5
C9
  8
BRACKET
 62
     7
 10
1061.980204
 20
550.79999999999995
 30
0.0
 11
1061.980204
 21
547.19999999999993
 31
0.0
  0
LINE
  5
CA
  8
BRACKET
 62
     7
 10
1061.980204
 20
547.19999999999993
 30
0.0
 11
1060.980204
 21
546.19999999999993
 31
0.0
  0
LINE
  5
CB
  8
BRACKET
 62
     7
 10
1038.980204
 20
546.19999999999993
 30
0.0
 11
1037.980204
 21
547.19999999999993
 31
0.0
  0
LINE
  5
CC
  8
BRACKET
 62
     7
 10
1037.980204
 20
547.19999999999993
 30
0.0
 11
1037.980204
 21
550.79999999999995
 31
0.0
  0
LINE
  5
CD
  8
BRACKET
 62
     7
 10
1013.480204
 20
504.19999999999987
 30
0.0
 11
1019.480204
 21
504.19999999999987
 31
0.0
  0
LINE
  5
CE
  8
BRACKET
 62
     7
 10
1013.480204
 20
504.19999999999987
 30
0.0
 11
1012.980204
 21
503.69999999999987
 31
0.0
  0
LINE
  5
CF
  8
BRACKET
 62
     7
 10
1012.980204
 20
503.69999999999987
 30
0.0
 11
1012.980204
 21
496.69999999999987
 31
0.0
  0
LINE
  5
D0
  8
BRACKET
 62
     7
 10
1012.980204
 20
496.69999999999987
 30
0.0
 11
1013.480204
 21
496.19999999999987
 31
0.0
  0
LINE
  5
D1
  8
BRACKET
 62
     7
 10
1013.480204
 20
496.19999999999987
 30
0.0
 11
1019.480204
 21
496.19999999999987
 31
0.0
  0
LINE
  5
D2
  8
BRACKET
 62
     7
 10
1009.180204
 20
584.79999999999995
 30
0.0
 11
1013.180204
 21
584.79999999999995
 31
0.0
  0
LINE
  5
D3
  8
BRACKET
 62
     7
 10
1009.680204
 20
585.29999999999995
 30
0.0
 11
1009.680204
 21
577.29999999999995
 31
0.0
  0
LINE
  5
D4
  8
BRACKET
 62
     7
 10
1009.180204
 20
577.79999999999995
 30
0.0
 11
1013.180204
 21
577.79999999999995
 31
0.0
  0
LINE
  5
D5
  8
BRACKET
 62
     7
 10
1019.480204
 20
503.69999999999987
 30
0.0
 11
1012.980204
 21
503.69999999999987
 31
0.0
  0
LINE
  5
D6
  8
BRACKET
 62
     7
 10
1013.480204
 20
504.19999999999987
 30
0.0
 11
1013.480204
 21
496.19999999999987
 31
0.0
  0
LINE
  5
D7
  8
BRACKET
 62
     7
 10
1012.980204
 20
496.69999999999987
 30
0.0
 11
1019.480204
 21
496.69999999999987
 31
0.0
  0
LINE
  5
D8
  8
BRACKET
 62
     7
 10
1037.980204
 20
547.19999999999993
 30
0.0
 11
1061.980204
 21
547.19999999999993
 31
0.0
  0
LINE
  5
D9
  8
BRACKET
 62
     7
 10
1059.980204
 20
572.0
 30
0.0
 11
1061.980204
 21
573.0
 31
0.0
  0
LINE
  5
DA
  8
BRACKET
 62
     7
 10
1059.980204
 20
550.79999999999995
 30
0.0
 11
1061.980204
 21
551.79999999999995
 31
0.0
  0
LINE
  5
DB
  8
BRACKET
 62
     7
 10
1061.980204
 20
551.79999999999995
 30
0.0
 11
1063.980204
 21
550.79999999999995
 31
0.0
  0
LINE
  5
DC
  8
BRACKET
 62
     7
 10
1061.980204
 20
551.79999999999995
 30
0.0
 11
1061.980204
 21
563.79999999999995
 31
0.0
  0
LINE
  5
DD
  8
BRACKET
 62
     7
 10
1061.980204
 20
563.79999999999995
 30
0.0
 11
1063.980204
 21
564.79999999999995
 31
0.0
  0
LINE
  5
DE
  8
BRACKET
 62
     7
 10
1059.980204
 20
564.79999999999995
 30
0.0
 11
1061.980204
 21
563.79999999999995
 31
0.0
  0
LINE
  5
DF
  8
BRACKET
 62
     7
 10
1035.980204
 20
564.79999999999995
 30
0.0
 11
1037.980204
 21
563.79999999999995
 31
0.0
  0
LINE
  5
E0
  8
BRACKET
 62
     7
 10
1037.980204
 20
563.79999999999995
 30
0.0
 11
1037.980204
 21
551.79999999999995
 31
0.0
  0
LINE
  5
E1
  8
BRACKET
 62
     7
 10
1037.980204
 20
551.79999999999995
 30
0.0
 11
1035.980204
 21
550.79999999999995
 31
0.0
  0
LINE
  5
E2
  8
BRACKET
 62
     7
 10
1039.980204
 20
550.79999999999995
 30
0.0
 11
1037.980204
 21
551.79999999999995
 31
0.0
  0
LINE
  5
E3
  8
BRACKET
 62
     7
 10
1039.980204
 20
564.79999999999995
 30
0.0
 11
1037.980204
 21
563.79999999999995
 31
0.0
  0
LINE
  5
E4
  8
BRACKET
 62
     7
 10
1039.980204
 20
572.0
 30
0.0
 11
1037.980204
 21
573.0
 31
0.0
  0
LINE
  5
E5
  8
BRACKET
 62
     7
 10
1020.780204
 20
576.79999999999995
 30
0.0
 11
1015.780203999999
 21
576.79999999999995
 31
0.0
  0
LINE
  5
E6
  8
BRACKET
 62
     7
 10
1015.780203999999
 20
576.79999999999995
 30
0.0
 11
1015.280203999999
 21
575.79999999999995
 31
0.0
  0
LINE
  5
E7
  8
BRACKET
 62
     7
 10
1015.280203999999
 20
577.79999999999995
 30
0.0
 11
1015.780203999999
 21
576.79999999999995
 31
0.0
  0
LINE
  5
E8
  8
BRACKET
 62
     7
 10
1020.780204
 20
585.79999999999995
 30
0.0
 11
1015.780203999999
 21
585.79999999999995
 31
0.0
  0
LINE
  5
E9
  8
BRACKET
 62
     7
 10
1015.280203999999
 20
588.29999999999995
 30
0.0
 11
1015.280203999999
 21
574.29999999999995
 31
0.0
  0
LINE
  5
EA
  8
BRACKET
 62
     7
 10
1015.780203999999
 20
585.79999999999995
 30
0.0
 11
1015.280203999999
 21
584.79999999999995
 31
0.0
  0
LINE
  5
EB
  8
BRACKET
 62
     7
 10
1015.280203999999
 20
586.79999999999995
 30
0.0
 11
1015.780203999999
 21
585.79999999999995
 31
0.0
  0
LINE
  5
EC
  8
BRACKET
 62
     7
 10
1060.980204
 20
543.19999999999993
 30
0.0
 11
1060.980204
 21
546.19999999999993
 31
0.0
  0
LINE
  5
ED
  8
BRACKET
 62
     7
 10
1038.980204
 20
546.19999999999993
 30
0.0
 11
1038.980204
 21
543.19999999999993
 31
0.0
  0
LINE
  5
EE
  8
BRACKET
 62
     7
 10
1038.980204
 20
550.79999999999995
 30
0.0
 11
1038.980204
 21
546.19999999999993
 31
0.0
  0
LINE
  5
EF
  8
BRACKET
 62
     7
 10
1060.980204
 20
546.19999999999993
 30
0.0
 11
1060.980204
 21
550.79999999999995
 31
0.0
  0
LINE
  5
F0
  8
BRACKET
 62
     7
 10
1060.980204
 20
546.19999999999993
 30
0.0
 11
1038.980204
 21
546.19999999999993
 31
0.0
  0
ARC
  5
F1
  8
BRACKET
 62
     7
 10
1026.3802039999989
 20
500.19999999999987
 30
0.0
 40
14.60000000000012
 50
296.80000000000092
 51
63.199999999999072
  0
ARC
  5
F2
  8
BRACKET
 62
     7
 10
1073.5802040000001
 20
500.19999999999987
 30
0.0
 40
14.59999999999992
 50
116.7999999999993
 51
243.20000000000061
  0
LINE
  5
F3
  8
BRACKET
 62
     7
 10
1066.980204
 20
487.19999999999982
 30
0.0
 11
1032.980204
 21
487.19999999999982
 31
0.0
  0
LINE
  5
F4
  8
BRACKET
 62
     7
 10
1079.180204
 20
576.79999999999995
 30
0.0
 11
1084.1802039999991
 21
576.79999999999995
 31
0.0
  0
LINE
  5
F5
  8
BRACKET
 62
     7
 10
1084.1802039999991
 20
576.79999999999995
 30
0.0
 11
1084.680204
 21
575.79999999999995
 31
0.0
  0
LINE
  5
F6
  8
BRACKET
 62
     7
 10
1084.680204
 20
577.79999999999995
 30
0.0
 11
1084.1802039999991
 21
576.79999999999995
 31
0.0
  0
LINE
  5
F7
  8
BRACKET
 62
     7
 10
1079.180204
 20
585.79999999999995
 30
0.0
 11
1084.1802039999991
 21
585.79999999999995
 31
0.0
  0
LINE
  5
F8
  8
BRACKET
 62
     7
 10
1084.1802039999991
 20
585.79999999999995
 30
0.0
 11
1084.680204
 21
586.79999999999995
 31
0.0
  0
LINE
  5
F9
  8
BRACKET
 62
     7
 10
1084.680204
 20
584.79999999999995
 30
0.0
 11
1084.1802039999991
 21
585.79999999999995
 31
0.0
  0
LINE
  5
FA
  8
BRACKET
 62
     7
 10
1069.980204
 20
487.19999999999982
 30
0.0
 11
1066.980204
 21
487.19999999999982
 31
0.0
  0
LINE
  5
FB
  8
BRACKET
 62
     7
 10
1066.980204
 20
513.19999999999993
 30
0.0
 11
1069.980204
 21
513.19999999999993
 31
0.0
  0
LINE
  5
FC
  8
BRACKET
 62
     7
 10
1069.980204
 20
513.19999999999993
 30
0.0
 11
1069.980204
 21
487.19999999999982
 31
0.0
  0
LINE
  5
FD
  8
BRACKET
 62
     7
 10
1032.980204
 20
487.19999999999982
 30
0.0
 11
1029.980204
 21
487.19999999999982
 31
0.0
  0
LINE
  5
FE
  8
BRACKET
 62
     7
 10
1029.980204
 20
487.19999999999982
 30
0.0
 11
1029.980204
 21
513.19999999999993
 31
0.0
  0
LINE
  5
FF
  8
BRACKET
 62
     7
 10
1029.180204
 20
577.29999999999995
 30
0.0
 11
1024.980204
 21
577.29999999999995
 31
0.0
  0
LINE
  5
100
  8
BRACKET
 62
     7
 10
1074.980204
 20
577.29999999999995
 30
0.0
 11
1070.7802039999999
 21
577.29999999999995
 31
0.0
  0
LINE
  5
101
  8
BRACKET
 62
     7
 10
1061.980204
 20
573.0
 30
0.0
 11
1063.646870666
 21
572.0
 31
0.0
  0
LINE
  5
102
  8
BRACKET
 62
     7
 10
1036.3135373330001
 20
572.0
 30
0.0
 11
1037.980204
 21
573.0
 31
0.0
  0
LINE
  5
103
  8
BRACKET
 62
     7
 10
1068.7802039999999
 20
586.0
 30
0.0
 11
1031.1802039999991
 21
586.0
 31
0.0
  0
LINE
  5
104
  8
BRACKET
 62
     7
 10
1037.980204
 20
585.0
 30
0.0
 11
1035.980204
 21
586.0
 31
0.0
  0
LINE
  5
105
  8
BRACKET
 62
     7
 10
1031.1802039999991
 20
586.0
 30
0.0
 11
1029.180204
 21
585.0
 31
0.0
  0
LINE
  5
106
  8
BRACKET
 62
     7
 10
1059.980204
 20
586.0
 30
0.0
 11
1061.980204
 21
585.0
 31
0.0
  0
LINE
  5
107
  8
BRACKET
 62
     7
 10
1029.180204
 20
573.0
 30
0.0
 11
1029.180204
 21
585.0
 31
0.0
  0
LINE
  5
108
  8
BRACKET
 62
     7
 10
1070.7802039999999
 20
585.0
 30
0.0
 11
1068.7802039999999
 21
586.0
 31
0.0
  0
LINE
  5
109
  8
BRACKET
 62
     7
 10
1070.7802039999999
 20
573.0
 30
0.0
 11
1070.7802039999999
 21
585.0
 31
0.0
  0
LINE
  5
10A
  8
BRACKET
 62
     7
 10
1061.980204
 20
585.0
 30
0.0
 11
1063.980204
 21
586.0
 31
0.0
  0
LINE
  5
10B
  8
BRACKET
 62
     7
 10
1061.980204
 20
585.0
 30
0.0
 11
1061.980204
 21
573.0
 31
0.0
  0
LINE
  5
10C
  8
BRACKET
 62
     7
 10
1039.980204
 20
586.0
 30
0.0
 11
1037.980204
 21
585.0
 31
0.0
  0
LINE
  5
10D
  8
BRACKET
 62
     7
 10
1037.980204
 20
585.0
 30
0.0
 11
1037.980204
 21
573.0
 31
0.0
  0
LINE
  5
10E
  8
BRACKET
 62
     7
 10
1070.180204
 20
585.29999999999995
 30
0.0
 11
1074.980204
 21
585.29999999999995
 31
0.0
  0
LINE
  5
10F
  8
BRACKET
 62
     7
 10
1024.980204
 20
585.29999999999995
 30
0.0
 11
1029.780203999999
 21
585.29999999999995
 31
0.0
  0
LINE
  5
110
  8
BRACKET
 62
     7
 10
1076.1802039999991
 20
509.19999999999987
 30
0.0
 11
1076.1802039999991
 21
491.19999999999987
 31
0.0
  0
LINE
  5
111
  8
BRACKET
 62
     7
 10
1076.1802039999991
 20
507.69999999999987
 30
0.0
 11
1081.180204
 21
507.69999999999987
 31
0.0
  0
LINE
  5
112
  8
BRACKET
 62
     7
 10
1081.180204
 20
507.69999999999987
 30
0.0
 11
1081.6802039999991
 21
507.19999999999987
 31
0.0
  0
LINE
  5
113
  8
BRACKET
 62
     7
 10
1081.6802039999991
 20
507.19999999999987
 30
0.0
 11
1081.6802039999991
 21
493.19999999999987
 31
0.0
  0
LINE
  5
114
  8
BRACKET
 62
     7
 10
1081.6802039999991
 20
493.19999999999987
 30
0.0
 11
1081.180204
 21
492.69999999999987
 31
0.0
  0
LINE
  5
115
  8
BRACKET
 62
     7
 10
1081.180204
 20
492.69999999999987
 30
0.0
 11
1076.1802039999991
 21
492.69999999999987
 31
0.0
  0
LINE
  5
116
  8
BRACKET
 62
     7
 10
1076.1802039999991
 20
495.69999999999987
 30
0.0
 11
1081.180204
 21
495.69999999999987
 31
0.0
  0
LINE
  5
117
  8
BRACKET
 62
     7
 10
1081.180204
 20
495.69999999999987
 30
0.0
 11
1081.6802039999991
 21
494.69999999999987
 31
0.0
  0
LINE
  5
118
  8
BRACKET
 62
     7
 10
1081.6802039999991
 20
496.69999999999987
 30
0.0
 11
1081.180204
 21
495.69999999999987
 31
0.0
  0
LINE
  5
119
  8
BRACKET
 62
     7
 10
1076.1802039999991
 20
504.69999999999987
 30
0.0
 11
1081.180204
 21
504.69999999999987
 31
0.0
  0
LINE
  5
11A
  8
BRACKET
 62
     7
 10
1081.180204
 20
504.69999999999987
 30
0.0
 11
1081.6802039999991
 21
505.69999999999987
 31
0.0
  0
LINE
  5
11B
  8
BRACKET
 62
     7
 10
1081.6802039999991
 20
503.69999999999987
 30
0.0
 11
1081.180204
 21
504.69999999999987
 31
0.0
  0
LINE
  5
11C
  8
BRACKET
 62
     7
 10
1075.180204
 20
509.19999999999987
 30
0.0
 11
1076.1802039999991
 21
509.19999999999987
 31
0.0
  0
LINE
  5
11D
  8
BRACKET
 62
     7
 10
1075.180204
 20
509.19999999999987
 30
0.0
 11
1075.180204
 21
491.19999999999987
 31
0.0
  0
LINE
  5
11E
  8
BRACKET
 62
     7
 10
1076.1802039999991
 20
491.19999999999987
 30
0.0
 11
1075.180204
 21
491.19999999999987
 31
0.0
  0
POLYLINE
  5
11F
  8
BRACKET
 62
     7
 66
     1
 10
0.0
 20
0.0
 30
0.0
  0
VERTEX
  5
39E
  8
BRACKET
 62
     7
 10
1024.780203999999
 20
491.19999999999987
 30
0.0
  0
VERTEX
  5
39F
  8
BRACKET
 62
     7
 10
1023.780203999999
 20
491.19999999999987
 30
0.0
  0
VERTEX
  5
3A0
  8
BRACKET
 62
     7
 10
1023.780203999999
 20
509.19999999999987
 30
0.0
  0
VERTEX
  5
3A1
  8
BRACKET
 62
     7
 10
1024.780203999999
 20
509.19999999999987
 30
0.0
  0
SEQEND
  5
3A2
  8
BRACKET
 62
     7
  0
LINE
  5
125
  8
BRACKET
 62
     7
 10
1023.780203999999
 20
507.69999999999987
 30
0.0
 11
1018.780204
 21
507.69999999999987
 31
0.0
  0
LINE
  5
126
  8
BRACKET
 62
     7
 10
1018.780204
 20
507.69999999999987
 30
0.0
 11
1018.280203999999
 21
507.19999999999987
 31
0.0
  0
LINE
  5
127
  8
BRACKET
 62
     7
 10
1018.280203999999
 20
493.19999999999987
 30
0.0
 11
1018.780204
 21
492.69999999999987
 31
0.0
  0
LINE
  5
128
  8
BRACKET
 62
     7
 10
1018.780204
 20
492.69999999999987
 30
0.0
 11
1023.780203999999
 21
492.69999999999987
 31
0.0
  0
LINE
  5
129
  8
BRACKET
 62
     7
 10
1018.280203999999
 20
507.19999999999987
 30
0.0
 11
1016.280204
 21
506.69999999999987
 31
0.0
  0
LINE
  5
12A
  8
BRACKET
 62
     7
 10
1016.280204
 20
506.69999999999987
 30
0.0
 11
1016.280204
 21
493.69999999999987
 31
0.0
  0
LINE
  5
12B
  8
BRACKET
 62
     7
 10
1016.280204
 20
493.69999999999987
 30
0.0
 11
1018.280203999999
 21
493.19999999999987
 31
0.0
  0
LINE
  5
12C
  8
BRACKET
 62
     7
 10
1018.280203999999
 20
507.19999999999987
 30
0.0
 11
1018.280203999999
 21
493.19999999999987
 31
0.0
  0
LINE
  5
12D
  8
BRACKET
 62
     7
 10
1023.780203999999
 20
495.69999999999987
 30
0.0
 11
1018.780204
 21
495.69999999999987
 31
0.0
  0
LINE
  5
12E
  8
BRACKET
 62
     7
 10
1018.780204
 20
495.69999999999987
 30
0.0
 11
1018.280203999999
 21
494.69999999999987
 31
0.0
  0
LINE
  5
12F
  8
BRACKET
 62
     7
 10
1018.280203999999
 20
496.69999999999987
 30
0.0
 11
1018.780204
 21
495.69999999999987
 31
0.0
  0
LINE
  5
130
  8
BRACKET
 62
     7
 10
1023.780203999999
 20
504.69999999999987
 30
0.0
 11
1018.780204
 21
504.69999999999987
 31
0.0
  0
LINE
  5
131
  8
BRACKET
 62
     7
 10
1018.780204
 20
504.69999999999987
 30
0.0
 11
1018.280203999999
 21
503.69999999999987
 31
0.0
  0
LINE
  5
132
  8
BRACKET
 62
     7
 10
1018.280203999999
 20
505.69999999999987
 30
0.0
 11
1018.780204
 21
504.69999999999987
 31
0.0
  0
LINE
  5
133
  8
BRACKET
 62
     7
 10
1024.780203999999
 20
509.19999999999987
 30
0.0
 11
1024.780203999999
 21
491.19999999999987
 31
0.0
  0
LINE
  5
134
  8
BRACKET
 62
     7
 10
1066.980204
 20
542.19999999999993
 30
0.0
 11
1069.980204
 21
542.19999999999993
 31
0.0
  0
ARC
  5
135
  8
BRACKET
 62
     7
 10
1073.5802040000001
 20
529.19999999999993
 30
0.0
 40
14.59999999999992
 50
116.7999999999993
 51
243.20000000000061
  0
LINE
  5
136
  8
BRACKET
 62
     7
 10
1069.980204
 20
516.19999999999993
 30
0.0
 11
1066.980204
 21
516.19999999999993
 31
0.0
  0
LINE
  5
137
  8
BRACKET
 62
     7
 10
1069.980204
 20
542.19999999999993
 30
0.0
 11
1069.980204
 21
516.19999999999993
 31
0.0
  0
LINE
  5
138
  8
BRACKET
 62
     7
 10
1076.1802039999991
 20
538.19999999999993
 30
0.0
 11
1076.1802039999991
 21
520.19999999999993
 31
0.0
  0
LINE
  5
139
  8
BRACKET
 62
     7
 10
1076.1802039999991
 20
536.69999999999993
 30
0.0
 11
1081.180204
 21
536.69999999999993
 31
0.0
  0
LINE
  5
13A
  8
BRACKET
 62
     7
 10
1081.180204
 20
536.69999999999993
 30
0.0
 11
1081.6802039999991
 21
536.19999999999993
 31
0.0
  0
LINE
  5
13B
  8
BRACKET
 62
     7
 10
1081.6802039999991
 20
536.19999999999993
 30
0.0
 11
1081.6802039999991
 21
522.19999999999993
 31
0.0
  0
LINE
  5
13C
  8
BRACKET
 62
     7
 10
1081.6802039999991
 20
522.19999999999993
 30
0.0
 11
1081.180204
 21
521.69999999999993
 31
0.0
  0
LINE
  5
13D
  8
BRACKET
 62
     7
 10
1081.180204
 20
521.69999999999993
 30
0.0
 11
1076.1802039999991
 21
521.69999999999993
 31
0.0
  0
LINE
  5
13E
  8
BRACKET
 62
     7
 10
1076.1802039999991
 20
524.69999999999982
 30
0.0
 11
1081.180204
 21
524.69999999999982
 31
0.0
  0
LINE
  5
13F
  8
BRACKET
 62
     7
 10
1081.180204
 20
524.69999999999982
 30
0.0
 11
1081.6802039999991
 21
523.69999999999993
 31
0.0
  0
LINE
  5
140
  8
BRACKET
 62
     7
 10
1081.6802039999991
 20
525.69999999999993
 30
0.0
 11
1081.180204
 21
524.69999999999982
 31
0.0
  0
LINE
  5
141
  8
BRACKET
 62
     7
 10
1076.1802039999991
 20
533.69999999999993
 30
0.0
 11
1081.180204
 21
533.69999999999993
 31
0.0
  0
LINE
  5
142
  8
BRACKET
 62
     7
 10
1081.180204
 20
533.69999999999993
 30
0.0
 11
1081.6802039999991
 21
534.69999999999993
 31
0.0
  0
LINE
  5
143
  8
BRACKET
 62
     7
 10
1081.6802039999991
 20
532.69999999999993
 30
0.0
 11
1081.180204
 21
533.69999999999993
 31
0.0
  0
LINE
  5
144
  8
BRACKET
 62
     7
 10
1075.180204
 20
538.19999999999993
 30
0.0
 11
1076.1802039999991
 21
538.19999999999993
 31
0.0
  0
LINE
  5
145
  8
BRACKET
 62
     7
 10
1075.180204
 20
538.19999999999993
 30
0.0
 11
1075.180204
 21
520.19999999999993
 31
0.0
  0
LINE
  5
146
  8
BRACKET
 62
     7
 10
1076.1802039999991
 20
520.19999999999993
 30
0.0
 11
1075.180204
 21
520.19999999999993
 31
0.0
  0
LINE
  5
147
  8
BRACKET
 62
     7
 10
1032.980204
 20
516.19999999999993
 30
0.0
 11
1029.980204
 21
516.19999999999993
 31
0.0
  0
LINE
  5
148
  8
BRACKET
 62
     7
 10
1029.980204
 20
542.19999999999993
 30
0.0
 11
1032.980204
 21
542.19999999999993
 31
0.0
  0
LINE
  5
149
  8
BRACKET
 62
     7
 10
1013.480204
 20
533.19999999999993
 30
0.0
 11
1019.480204
 21
533.19999999999993
 31
0.0
  0
LINE
  5
14A
  8
BRACKET
 62
     7
 10
1013.480204
 20
533.19999999999993
 30
0.0
 11
1012.980204
 21
532.69999999999993
 31
0.0
  0
LINE
  5
14B
  8
BRACKET
 62
     7
 10
1012.980204
 20
532.69999999999993
 30
0.0
 11
1012.980204
 21
525.69999999999993
 31
0.0
  0
LINE
  5
14C
  8
BRACKET
 62
     7
 10
1012.980204
 20
525.69999999999993
 30
0.0
 11
1013.480204
 21
525.19999999999993
 31
0.0
  0
LINE
  5
14D
  8
BRACKET
 62
     7
 10
1013.480204
 20
525.19999999999993
 30
0.0
 11
1019.480204
 21
525.19999999999993
 31
0.0
  0
LINE
  5
14E
  8
BRACKET
 62
     7
 10
1012.980204
 20
532.69999999999993
 30
0.0
 11
1019.480204
 21
532.69999999999993
 31
0.0
  0
LINE
  5
14F
  8
BRACKET
 62
     7
 10
1013.480204
 20
533.19999999999993
 30
0.0
 11
1013.480204
 21
525.19999999999993
 31
0.0
  0
LINE
  5
150
  8
BRACKET
 62
     7
 10
1012.980204
 20
525.69999999999993
 30
0.0
 11
1019.480204
 21
525.69999999999993
 31
0.0
  0
ARC
  5
151
  8
BRACKET
 62
     7
 10
1026.3802039999989
 20
529.19999999999993
 30
0.0
 40
14.60000000000012
 50
296.80000000000092
 51
63.199999999999072
  0
LINE
  5
152
  8
BRACKET
 62
     7
 10
1029.980204
 20
516.19999999999993
 30
0.0
 11
1029.980204
 21
542.19999999999993
 31
0.0
  0
POLYLINE
  5
153
  8
BRACKET
 62
     7
 66
     1
 10
0.0
 20
0.0
 30
0.0
  0
VERTEX
  5
3A3
  8
BRACKET
 62
     7
 10
1024.780203999999
 20
520.19999999999993
 30
0.0
  0
VERTEX
  5
3A4
  8
BRACKET
 62
     7
 10
1023.780203999999
 20
520.19999999999993
 30
0.0
  0
VERTEX
  5
3A5
  8
BRACKET
 62
     7
 10
1023.780203999999
 20
538.19999999999993
 30
0.0
  0
VERTEX
  5
3A6
  8
BRACKET
 62
     7
 10
1024.780203999999
 20
538.19999999999993
 30
0.0
  0
SEQEND
  5
3A7
  8
BRACKET
 62
     7
  0
LINE
  5
159
  8
BRACKET
 62
     7
 10
1023.780203999999
 20
536.69999999999993
 30
0.0
 11
1018.780204
 21
536.69999999999993
 31
0.0
  0
LINE
  5
15A
  8
BRACKET
 62
     7
 10
1018.780204
 20
536.69999999999993
 30
0.0
 11
1018.280203999999
 21
536.19999999999993
 31
0.0
  0
LINE
  5
15B
  8
BRACKET
 62
     7
 10
1018.280203999999
 20
522.19999999999993
 30
0.0
 11
1018.780204
 21
521.69999999999993
 31
0.0
  0
LINE
  5
15C
  8
BRACKET
 62
     7
 10
1018.780204
 20
521.69999999999993
 30
0.0
 11
1023.780203999999
 21
521.69999999999993
 31
0.0
  0
LINE
  5
15D
  8
BRACKET
 62
     7
 10
1018.280203999999
 20
536.19999999999993
 30
0.0
 11
1016.280204
 21
535.69999999999993
 31
0.0
  0
LINE
  5
15E
  8
BRACKET
 62
     7
 10
1016.280204
 20
535.69999999999993
 30
0.0
 11
1016.280204
 21
522.69999999999993
 31
0.0
  0
LINE
  5
15F
  8
BRACKET
 62
     7
 10
1016.280204
 20
522.69999999999993
 30
0.0
 11
1018.280203999999
 21
522.19999999999993
 31
0.0
  0
LINE
  5
160
  8
BRACKET
 62
     7
 10
1018.280203999999
 20
536.19999999999993
 30
0.0
 11
1018.280203999999
 21
522.19999999999993
 31
0.0
  0
LINE
  5
161
  8
BRACKET
 62
     7
 10
1023.780203999999
 20
524.69999999999982
 30
0.0
 11
1018.780204
 21
524.69999999999982
 31
0.0
  0
LINE
  5
162
  8
BRACKET
 62
     7
 10
1018.780204
 20
524.69999999999982
 30
0.0
 11
1018.280203999999
 21
523.69999999999993
 31
0.0
  0
LINE
  5
163
  8
BRACKET
 62
     7
 10
1018.280203999999
 20
525.69999999999993
 30
0.0
 11
1018.780204
 21
524.69999999999982
 31
0.0
  0
LINE
  5
164
  8
BRACKET
 62
     7
 10
1023.780203999999
 20
533.69999999999993
 30
0.0
 11
1018.780204
 21
533.69999999999993
 31
0.0
  0
LINE
  5
165
  8
BRACKET
 62
     7
 10
1018.780204
 20
533.69999999999993
 30
0.0
 11
1018.280203999999
 21
532.69999999999993
 31
0.0
  0
LINE
  5
166
  8
BRACKET
 62
     7
 10
1018.280203999999
 20
534.69999999999993
 30
0.0
 11
1018.780204
 21
533.69999999999993
 31
0.0
  0
LINE
  5
167
  8
BRACKET
 62
     7
 10
1024.780203999999
 20
538.19999999999993
 30
0.0
 11
1024.780203999999
 21
520.19999999999993
 31
0.0
  0
LINE
  5
168
  8
BRACKET
 62
     7
 10
1066.980204
 20
516.16824705099987
 30
0.0
 11
1066.980204
 21
513.19999999999993
 31
0.0
  0
LINE
  5
169
  8
BRACKET
 62
     7
 10
1032.980204
 20
516.19999999999993
 30
0.0
 11
1032.980204
 21
513.19999999999993
 31
0.0
  0
LINE
  5
16A
  8
BRACKET
 62
     7
 10
1032.980204
 20
542.19999999999993
 30
0.0
 11
1033.980204
 21
543.19999999999993
 31
0.0
  0
LINE
  5
16B
  8
BRACKET
 62
     7
 10
1033.980204
 20
543.19999999999993
 30
0.0
 11
1065.980204
 21
543.19999999999993
 31
0.0
  0
LINE
  5
16C
  8
BRACKET
 62
     7
 10
1066.980204
 20
542.19999999999993
 30
0.0
 11
1065.980204
 21
543.19999999999993
 31
0.0
  0
LINE
  5
16D
  8
BRACKET
 62
     7
 10
1066.980204
 20
542.19999999999993
 30
0.0
 11
1032.980204
 21
542.19999999999993
 31
0.0
  0
LINE
  5
16E
  8
BRACKET
 62
     7
 10
974.98020399999996
 20
1040.0
 30
0.0
 11
974.98020399999996
 21
910.0
 31
0.0
  0
ARC
  5
16F
  8
BRACKET
 62
     7
 10
984.98020399999996
 20
910.0
 30
0.0
 40
10.0
 50
180.0
 51
270.0
  0
LINE
  5
170
  8
BRACKET
 62
     7
 10
984.98020399999996
 20
900.0
 30
0.0
 11
1114.980204
 21
900.0
 31
0.0
  0
ARC
  5
171
  8
BRACKET
 62
     7
 10
1114.980204
 20
910.0
 30
0.0
 40
10.0
 50
270.0
 51
0.0
  0
LINE
  5
172
  8
BRACKET
 62
     7
 10
1124.980204
 20
910.0
 30
0.0
 11
1124.980204
 21
1040.0
 31
0.0
  0
ARC
  5
173
  8
BRACKET
 62
     7
 10
1114.980204
 20
1040.0
 30
0.0
 40
10.0
 50
0.0
 51
90.0
  0
LINE
  5
174
  8
BRACKET
 62
     7
 10
1114.980204
 20
1050.0
 30
0.0
 11
984.98020399999996
 21
1050.0
 31
0.0
  0
ARC
  5
175
  8
BRACKET
 62
     7
 10
984.98020399999996
 20
1040.0
 30
0.0
 40
10.0
 50
90.0
 51
180.0
  0
CIRCLE
  5
176
  8
BRACKET
 62
     7
 10
1109.980204
 20
975.0
 30
0.0
 40
5.5
  0
CIRCLE
  5
177
  8
BRACKET
 62
     7
 10
1109.980204
 20
915.0
 30
0.0
 40
5.5
  0
CIRCLE
  5
178
  8
BRACKET
 62
     7
 10
1109.980204
 20
1035.0
 30
0.0
 40
5.5
  0
CIRCLE
  5
179
  8
BRACKET
 62
     7
 10
1049.980204
 20
1035.0
 30
0.0
 40
5.5
  0
CIRCLE
  5
17A
  8
BRACKET
 62
     7
 10
989.98020399999984
 20
1035.0
 30
0.0
 40
5.5
  0
CIRCLE
  5
17B
  8
BRACKET
 62
     7
 10
989.98020399999984
 20
975.0
 30
0.0
 40
5.5
  0
CIRCLE
  5
17C
  8
BRACKET
 62
     7
 10
989.98020399999984
 20
915.0
 30
0.0
 40
5.5
  0
CIRCLE
  5
17D
  8
BRACKET
 62
     7
 10
1049.980204
 20
915.0
 30
0.0
 40
5.5
  0
LINE
  5
17E
  8
BRACKET
 62
     7
 10
291.50000012800012
 20
523.99999960199989
 30
0.0
 11
291.49999960100018
 21
369.00000046699989
 31
0.0
  0
LINE
  5
17F
  8
BRACKET
 62
     7
 10
293.50000012800001
 20
523.99999959499985
 30
0.0
 11
293.49999960100018
 21
369.00000046699989
 31
0.0
  0
LINE
  5
180
  8
BRACKET
 62
     7
 10
289.90000012800027
 20
369.00000046699989
 30
0.0
 11
289.90000012800027
 21
523.99999960800005
 31
0.0
  0
LINE
  5
181
  8
BRACKET
 62
     7
 10
293.50000012800001
 20
523.99999960099979
 30
0.0
 11
289.90000012800027
 21
523.99999961299989
 31
0.0
  0
LINE
  5
182
  8
BRACKET
 62
     7
 10
338.00913589100008
 20
540.19999999999993
 30
0.0
 11
293.5000001260002
 21
523.9999995999998
 31
0.0
  0
LINE
  5
183
  8
BRACKET
 62
     7
 10
301.49999960100018
 20
369.00000046699989
 30
0.0
 11
289.90000012800027
 21
369.00000046699989
 31
0.0
  0
LINE
  5
184
  8
BRACKET
 62
     7
 10
376.50000013200003
 20
540.19999999999993
 30
0.0
 11
338.00913589100008
 21
540.19999999999993
 31
0.0
  0
ARC
  5
185
  8
BRACKET
 62
     7
 10
376.50000013200003
 20
525.19999999999993
 30
0.0
 40
15.0
 50
0.0
 51
90.0
  0
LINE
  5
186
  8
BRACKET
 62
     7
 10
301.49999960100018
 20
369.00000046699989
 30
0.0
 11
378.62131996600021
 21
380.01733159599991
 31
0.0
  0
LINE
  5
187
  8
BRACKET
 62
     7
 10
391.50000013200003
 20
525.19999994899979
 30
0.0
 11
391.49999968900011
 21
394.86657395899999
 31
0.0
  0
ARC
  5
188
  8
BRACKET
 62
     7
 10
376.49999968900022
 20
394.86657401000002
 30
0.0
 40
14.999999999999959
 50
278.13010209799887
 51
0.0
  0
CIRCLE
  5
189
  8
BRACKET
 62
     7
 10
377.09525230700012
 20
391.526878657
 30
0.0
 40
3.0999999999999082
  0
CIRCLE
  5
18A
  8
BRACKET
 62
     7
 10
373.39490965200019
 20
398.86551326199998
 30
0.0
 40
3.0999999999999082
  0
CIRCLE
  5
18B
  8
BRACKET
 62
     7
 10
369.95952231899997
 20
406.29783033000001
 30
0.0
 40
3.100000000000136
  0
CIRCLE
  5
18C
  8
BRACKET
 62
     7
 10
366.79119159300001
 20
413.81680785699979
 30
0.0
 40
3.100000000000136
  0
CIRCLE
  5
18D
  8
BRACKET
 62
     7
 10
363.8918542130001
 20
421.4153797589999
 30
0.0
 40
3.0999999999999082
  0
CIRCLE
  5
18E
  8
BRACKET
 62
     7
 10
367.5206600850002
 20
389.57890585300009
 30
0.0
 40
3.0999999999999082
  0
CIRCLE
  5
18F
  8
BRACKET
 62
     7
 10
364.47400250000021
 20
397.21212085100001
 30
0.0
 40
3.0999999999999082
  0
CIRCLE
  5
190
  8
BRACKET
 62
     7
 10
361.69945696700017
 20
404.91556944199988
 30
0.0
 40
3.0999999999999082
  0
CIRCLE
  5
191
  8
BRACKET
 62
     7
 10
359.19850476800008
 20
412.68207320800002
 30
0.0
 40
3.0999999999999082
  0
CIRCLE
  5
192
  8
BRACKET
 62
     7
 10
356.97245942000018
 20
420.504424153
 30
0.0
 40
3.0999999999999082
  0
CIRCLE
  5
193
  8
BRACKET
 62
     7
 10
357.81272505900017
 20
388.472826371
 30
0.0
 40
3.0999999999999082
  0
CIRCLE
  5
194
  8
BRACKET
 62
     7
 10
355.44293944900022
 20
396.34252838599991
 30
0.0
 40
3.100000000000136
  0
CIRCLE
  5
195
  8
BRACKET
 62
     7
 10
353.3503516830001
 20
404.25848060599981
 30
0.0
 40
3.0999999999999082
  0
CIRCLE
  5
196
  8
BRACKET
 62
     7
 10
351.53581176600022
 20
412.21340282599988
 30
0.0
 40
3.100000000000136
  0
CIRCLE
  5
197
  8
BRACKET
 62
     7
 10
350.0
 20
420.19999999999987
 30
0.0
 40
3.0999999999999082
  0
CIRCLE
  5
198
  8
BRACKET
 62
     7
 10
348.04533047900009
 20
388.21705814199998
 30
0.0
 40
3.100000000000136
  0
CIRCLE
  5
199
  8
BRACKET
 62
     7
 10
346.37045234300018
 20
396.26335398999993
 30
0.0
 40
3.0999999999999082
  0
CIRCLE
  5
19A
  8
BRACKET
 62
     7
 10
344.97574820100021
 20
404.33156466399998
 30
0.0
 40
3.0999999999999082
  0
CIRCLE
  5
19B
  8
BRACKET
 62
     7
 10
343.86143031100022
 20
412.4143635769999
 30
0.0
 40
3.100000000000136
  0
CIRCLE
  5
19C
  8
BRACKET
 62
     7
 10
343.02754058000022
 20
420.504424153
 30
0.0
 40
3.100000000000136
  0
CIRCLE
  5
19D
  8
BRACKET
 62
     7
 10
337.32558828600003
 20
396.975200229
 30
0.0
 40
3.100000000000136
  0
CIRCLE
  5
19E
  8
BRACKET
 62
     7
 10
336.63938230800011
 20
405.13426540099988
 30
0.0
 40
3.100000000000136
  0
CIRCLE
  5
19F
  8
BRACKET
 62
     7
 10
336.23376707600022
 20
413.28342602800001
 30
0.0
 40
3.100000000000136
  0
CIRCLE
  5
1A0
  8
BRACKET
 62
     7
 10
336.10814578700013
 20
421.4153797589999
 30
0.0
 40
3.0999999999999082
  0
CIRCLE
  5
1A1
  8
BRACKET
 62
     7
 10
338.29281211400018
 20
388.8135477190001
 30
0.0
 40
3.100000000000136
  0
CIRCLE
  5
1A2
  8
BRACKET
 62
     7
 10
328.62939251800009
 20
390.25775545400001
 30
0.0
 40
3.100000000000136
  0
ARC
  5
1A3
  8
BRACKET
 62
     7
 10
350.0
 20
500.19999999999987
 30
0.0
 40
33.499999999999872
 50
355.0
 51
75.634773729986932
  0
ARC
  5
1A4
  8
BRACKET
 62
     7
 10
378.88964624500011
 20
497.67248346000002
 30
0.0
 40
4.499999999999841
 50
174.99993157299971
 51
355.00000000000011
  0
ARC
  5
1A5
  8
BRACKET
 62
     7
 10
350.0
 20
500.19999999999987
 30
0.0
 40
24.500000000000171
 50
355.0000125680001
 51
73.185915114881894
  0
LINE
  5
1A6
  8
BRACKET
 62
     7
 10
999.98020399999996
 20
369.00000046699989
 30
0.0
 11
1099.980204
 21
369.00000046699989
 31
0.0
  0
LINE
  5
1A7
  8
BRACKET
 62
     7
 10
999.98020277100022
 20
523.99999821899985
 30
0.0
 11
999.98020224399988
 21
368.99999908400002
 31
0.0
  0
LINE
  5
1A8
  8
BRACKET
 62
     7
 10
1099.980202771
 20
523.99999787899992
 30
0.0
 11
1099.9802022440001
 21
368.99999874399998
 31
0.0
  0
CIRCLE
  5
1A9
  8
BRACKET
 62
     7
 10
1015.001
 20
383.00000046699989
 30
0.0
 40
3.6000000000003629
  0
CIRCLE
  5
1AA
  8
BRACKET
 62
     7
 10
1084.8510000000001
 20
383.00000046699989
 30
0.0
 40
3.5999999999999082
  0
CIRCLE
  5
1AB
  8
BRACKET
 62
     7
 10
1084.8510000000001
 20
509.99999995100001
 30
0.0
 40
3.5999999999999082
  0
CIRCLE
  5
1AC
  8
BRACKET
 62
     7
 10
1015.001
 20
509.99999995100001
 30
0.0
 40
3.6000000000003629
  0
LINE
  5
1AD
  8
BRACKET
 62
     7
 10
999.98020399999996
 20
523.99999959499985
 30
0.0
 11
1019.480204
 21
523.99999959499985
 31
0.0
  0
LINE
  5
1AE
  8
BRACKET
 62
     7
 10
1078.480204
 20
523.99999959499985
 30
0.0
 11
1099.980204
 21
523.99999959499985
 31
0.0
  0
POLYLINE
  5
1AF
  8
BRACKET
 62
     7
 66
     1
 10
0.0
 20
0.0
 30
0.0
  0
VERTEX
  5
3A8
  8
BRACKET
 62
     7
 10
1026.7802039999999
 20
540.19999999999993
 30
0.0
  0
VERTEX
  5
3A9
  8
BRACKET
 62
     7
 10
1024.780203999999
 20
540.19999999999993
 30
0.0
  0
VERTEX
  5
3AA
  8
BRACKET
 62
     7
 10
1026.7802039999999
 20
540.19999999999993
 30
0.0
  0
SEQEND
  5
3AB
  8
BRACKET
 62
     7
  0
LINE
  5
1B4
  8
BRACKET
 62
     7
 10
1026.7802039999999
 20
369.00000046699989
 30
0.0
 11
1026.7802039999999
 21
540.19999999999993
 31
0.0
  0
LINE
  5
1B5
  8
BRACKET
 62
     7
 10
1024.780203999999
 20
540.19999999999993
 30
0.0
 11
1024.780203999999
 21
369.00000046699989
 31
0.0
  0
LINE
  5
1B6
  8
BRACKET
 62
     7
 10
1073.180204
 20
540.19999999999993
 30
0.0
 11
1075.180204
 21
540.19999999999993
 31
0.0
  0
LINE
  5
1B7
  8
BRACKET
 62
     7
 10
1073.180204
 20
540.19999999999993
 30
0.0
 11
1075.180204
 21
540.19999999999993
 31
0.0
  0
LINE
  5
1B8
  8
BRACKET
 62
     7
 10
1075.180204
 20
540.19999999999993
 30
0.0
 11
1075.180204
 21
369.00000046699989
 31
0.0
  0
LINE
  5
1B9
  8
BRACKET
 62
     7
 10
1073.180204
 20
369.00000046699989
 30
0.0
 11
1073.180204
 21
540.19999999999993
 31
0.0
  0
LINE
  5
1BA
  8
BRACKET
 62
     7
 10
1026.7802039999999
 20
377.72371693500003
 30
0.0
 11
1029.980204
 21
377.72371693500003
 31
0.0
  0
LINE
  5
1BB
  8
BRACKET
 62
     7
 10
1069.980204
 20
377.72371693500003
 30
0.0
 11
1073.180204
 21
377.72371693500003
 31
0.0
  0
LINE
  5
1BC
  8
BRACKET
 62
     7
 10
1073.180204
 20
377.72371693500003
 30
0.0
 11
1073.180204
 21
545.29999999999995
 31
0.0
  0
LINE
  5
1BD
  8
BRACKET
 62
     7
 10
1069.980204
 20
545.29999999999995
 30
0.0
 11
1073.180204
 21
545.29999999999995
 31
0.0
  0
LINE
  5
1BE
  8
BRACKET
 62
     7
 10
1069.980204
 20
377.72371693500003
 30
0.0
 11
1069.980204
 21
545.29999999999995
 31
0.0
  0
LINE
  5
1BF
  8
BRACKET
 62
     7
 10
1029.980204
 20
377.72371693500003
 30
0.0
 11
1029.980204
 21
545.29999999999995
 31
0.0
  0
LINE
  5
1C0
  8
BRACKET
 62
     7
 10
1026.7802039999999
 20
545.29999999999995
 30
0.0
 11
1029.980204
 21
545.29999999999995
 31
0.0
  0
LINE
  5
1C1
  8
BRACKET
 62
     7
 10
1026.7802039999999
 20
377.72371693500003
 30
0.0
 11
1026.7802039999999
 21
545.29999999999995
 31
0.0
  0
ARC
  5
1C2
  8
BRACKET
 62
     7
 10
350.0
 20
530.09999999999991
 30
0.0
 40
15.000000000000011
 50
89.999970858000225
 51
137.67514267381131
  0
ARC
  5
1C3
  8
BRACKET
 62
     7
 10
377.09525230700012
 20
391.526878657
 30
0.0
 40
15.00000000000014
 50
238.84268196672889
 51
14.000028279656959
  0
ARC
  5
1C4
  8
BRACKET
 62
     7
 10
350.0
 20
500.19999999999987
 30
0.0
 40
44.899999999999963
 50
62.982598098334172
 51
89.999990264000019
  0
ARC
  5
1C5
  8
BRACKET
 62
     7
 10
378.88118220600018
 20
507.93868944899998
 30
0.0
 40
14.99999999999997
 50
327.272832171537
 51
14.99999999999994
  0
ARC
  5
1C6
  8
BRACKET
 62
     7
 10
350.0
 20
500.19999999999987
 30
0.0
 40
44.899999999999928
 50
15.00000000000002
 51
22.440540267282731
  0
POLYLINE
  5
1C7
  8
BRACKET
 62
     7
 66
     1
 10
0.0
 20
0.0
 30
0.0
  0
VERTEX
  5
3AC
  8
BRACKET
 62
     7
 10
374.00000000000011
 20
568.79999999999995
 30
0.0
  0
VERTEX
  5
3AD
  8
BRACKET
 62
     7
 10
374.00000000000011
 20
564.79999999999995
 30
0.0
  0
VERTEX
  5
3AE
  8
BRACKET
 62
     7
 10
326.00000000000011
 20
564.79999999999995
 30
0.0
  0
VERTEX
  5
3AF
  8
BRACKET
 62
     7
 10
326.00000000000011
 20
568.79999999999995
 30
0.0
  0
SEQEND
  5
3B0
  8
BRACKET
 62
     7
  0
LINE
  5
1CD
  8
BRACKET
 62
     7
 10
368.8000000000003
 20
564.79999999999995
 30
0.0
 11
370.8000000000003
 21
563.79999999999995
 31
0.0
  0
LINE
  5
1CE
  8
BRACKET
 62
     7
 10
370.8000000000003
 20
563.79999999999995
 30
0.0
 11
370.8000000000003
 21
551.79999999999995
 31
0.0
  0
LINE
  5
1CF
  8
BRACKET
 62
     7
 10
370.8000000000003
 20
551.79999999999995
 30
0.0
 11
368.8000000000003
 21
550.79999999999995
 31
0.0
  0
LINE
  5
1D0
  8
BRACKET
 62
     7
 10
368.8000000000003
 20
550.79999999999995
 30
0.0
 11
331.20000000000022
 21
550.79999999999995
 31
0.0
  0
LINE
  5
1D1
  8
BRACKET
 62
     7
 10
331.20000000000022
 20
550.79999999999995
 30
0.0
 11
329.20000000000022
 21
551.79999999999995
 31
0.0
  0
LINE
  5
1D2
  8
BRACKET
 62
     7
 10
329.20000000000022
 20
551.79999999999995
 30
0.0
 11
329.20000000000022
 21
563.79999999999995
 31
0.0
  0
LINE
  5
1D3
  8
BRACKET
 62
     7
 10
329.20000000000022
 20
563.79999999999995
 30
0.0
 11
331.20000000000022
 21
564.79999999999995
 31
0.0
  0
LINE
  5
1D4
  8
BRACKET
 62
     7
 10
362.0
 20
550.79999999999995
 30
0.0
 11
362.0
 21
547.19999999999993
 31
0.0
  0
LINE
  5
1D5
  8
BRACKET
 62
     7
 10
362.0
 20
547.19999999999993
 30
0.0
 11
361.00000000000011
 21
546.19999999999993
 31
0.0
  0
LINE
  5
1D6
  8
BRACKET
 62
     7
 10
339.00000000000011
 20
546.19999999999993
 30
0.0
 11
338.00000000000011
 21
547.19999999999993
 31
0.0
  0
LINE
  5
1D7
  8
BRACKET
 62
     7
 10
338.00000000000011
 20
547.19999999999993
 30
0.0
 11
338.00000000000011
 21
550.79999999999995
 31
0.0
  0
LINE
  5
1D8
  8
BRACKET
 62
     7
 10
333.0
 20
543.19999999999993
 30
0.0
 11
342.69315389514747
 21
543.19999999999993
 31
0.0
  0
LINE
  5
1D9
  8
BRACKET
 62
     7
 10
362.92323488914451
 20
543.19999999999993
 30
0.0
 11
367.00000000000011
 21
543.19999999999993
 31
0.0
  0
LINE
  5
1DA
  8
BRACKET
 62
     7
 10
336.00000000000011
 20
564.79999999999995
 30
0.0
 11
338.00000000000011
 21
563.79999999999995
 31
0.0
  0
LINE
  5
1DB
  8
BRACKET
 62
     7
 10
338.00000000000011
 20
563.79999999999995
 30
0.0
 11
338.00000000000011
 21
551.79999999999995
 31
0.0
  0
LINE
  5
1DC
  8
BRACKET
 62
     7
 10
338.00000000000011
 20
551.79999999999995
 30
0.0
 11
336.00000000000011
 21
550.79999999999995
 31
0.0
  0
LINE
  5
1DD
  8
BRACKET
 62
     7
 10
340.00000000000011
 20
550.79999999999995
 30
0.0
 11
338.00000000000011
 21
551.79999999999995
 31
0.0
  0
LINE
  5
1DE
  8
BRACKET
 62
     7
 10
360.0
 20
550.79999999999995
 30
0.0
 11
362.0
 21
551.79999999999995
 31
0.0
  0
LINE
  5
1DF
  8
BRACKET
 62
     7
 10
362.0
 20
551.79999999999995
 30
0.0
 11
364.00000000000011
 21
550.79999999999995
 31
0.0
  0
LINE
  5
1E0
  8
BRACKET
 62
     7
 10
362.0
 20
551.79999999999995
 30
0.0
 11
362.0
 21
563.79999999999995
 31
0.0
  0
LINE
  5
1E1
  8
BRACKET
 62
     7
 10
362.0
 20
563.79999999999995
 30
0.0
 11
364.00000000000011
 21
564.79999999999995
 31
0.0
  0
LINE
  5
1E2
  8
BRACKET
 62
     7
 10
360.0
 20
564.79999999999995
 30
0.0
 11
362.0
 21
563.79999999999995
 31
0.0
  0
LINE
  5
1E3
  8
BRACKET
 62
     7
 10
340.00000000000011
 20
564.79999999999995
 30
0.0
 11
338.00000000000011
 21
563.79999999999995
 31
0.0
  0
LINE
  5
1E4
  8
BRACKET
 62
     7
 10
361.00000000000011
 20
543.73171257830302
 30
0.0
 11
361.00000000000011
 21
546.19999999999993
 31
0.0
  0
LINE
  5
1E5
  8
BRACKET
 62
     7
 10
339.00000000000011
 20
546.19999999999993
 30
0.0
 11
339.00000000000011
 21
543.19999999999993
 31
0.0
  0
LINE
  5
1E6
  8
BRACKET
 62
     7
 10
339.00000000000011
 20
550.79999999999995
 30
0.0
 11
339.00000000000011
 21
546.19999999999993
 31
0.0
  0
LINE
  5
1E7
  8
BRACKET
 62
     7
 10
361.00000000000011
 20
546.19999999999993
 30
0.0
 11
361.00000000000011
 21
550.79999999999995
 31
0.0
  0
LINE
  5
1E8
  8
BRACKET
 62
     7
 10
338.00000000000011
 20
547.19999999999993
 30
0.0
 11
362.0
 21
547.19999999999993
 31
0.0
  0
LINE
  5
1E9
  8
BRACKET
 62
     7
 10
361.00000000000011
 20
546.19999999999993
 30
0.0
 11
339.00000000000011
 21
546.19999999999993
 31
0.0
  0
LINE
  5
1EA
  8
BRACKET
 62
     7
 10
367.00000000000011
 20
543.19999999999993
 30
0.0
 11
367.00000000000011
 21
541.75730982631069
 31
0.0
  0
LINE
  5
1EB
  8
BRACKET
 62
     7
 10
333.0
 20
538.37682365556805
 30
0.0
 11
333.0
 21
543.19999999999993
 31
0.0
  0
LINE
  5
1EC
  8
BRACKET
 62
     7
 10
425.0
 20
600.0
 30
0.0
 11
425.0
 21
596.79999999999995
 31
0.0
  0
LINE
  5
1ED
  8
BRACKET
 62
     7
 10
425.0
 20
596.79999999999995
 30
0.0
 11
275.0
 21
596.79999999999995
 31
0.0
  0
LINE
  5
1EE
  8
BRACKET
 62
     7
 10
275.0
 20
596.79999999999995
 30
0.0
 11
275.0
 21
600.0
 31
0.0
  0
LINE
  5
1EF
  8
BRACKET
 62
     7
 10
275.0
 20
600.0
 30
0.0
 11
425.0
 21
600.0
 31
0.0
  0
LINE
  5
1F0
  8
BRACKET
 62
     7
 10
390.00000000000011
 20
596.79999999999995
 30
0.0
 11
390.00000000000011
 21
568.79999999999995
 31
0.0
  0
LINE
  5
1F1
  8
BRACKET
 62
     7
 10
390.00000000000011
 20
568.79999999999995
 30
0.0
 11
310.0
 21
568.79999999999995
 31
0.0
  0
LINE
  5
1F2
  8
BRACKET
 62
     7
 10
310.0
 20
568.79999999999995
 30
0.0
 11
310.0
 21
596.79999999999995
 31
0.0
  0
LINE
  5
1F3
  8
BRACKET
 62
     7
 10
310.0
 20
593.59999999999991
 30
0.0
 11
390.00000000000011
 21
593.59999999999991
 31
0.0
  0
ARC
  5
1F4
  8
BRACKET
 62
     7
 10
326.50000000000011
 20
592.60000000000002
 30
0.0
 40
1.0
 50
270.0
 51
0.0
  0
LINE
  5
1F5
  8
BRACKET
 62
     7
 10
327.50000000000011
 20
592.60000000000002
 30
0.0
 11
327.50000000000011
 21
593.59999999999991
 31
0.0
  0
LINE
  5
1F6
  8
BRACKET
 62
     7
 10
316.5
 20
593.59999999999991
 30
0.0
 11
316.5
 21
592.60000000000002
 31
0.0
  0
ARC
  5
1F7
  8
BRACKET
 62
     7
 10
317.50000000000011
 20
592.60000000000002
 30
0.0
 40
1.0
 50
180.0
 51
270.0
  0
LINE
  5
1F8
  8
BRACKET
 62
     7
 10
317.50000000000011
 20
591.60000000000002
 30
0.0
 11
326.50000000000011
 21
591.60000000000002
 31
0.0
  0
ARC
  5
1F9
  8
BRACKET
 62
     7
 10
382.50000000000011
 20
592.60000000000002
 30
0.0
 40
1.0
 50
270.0
 51
0.0
  0
LINE
  5
1FA
  8
BRACKET
 62
     7
 10
383.50000000000011
 20
592.60000000000002
 30
0.0
 11
383.50000000000011
 21
593.59999999999991
 31
0.0
  0
LINE
  5
1FB
  8
BRACKET
 62
     7
 10
372.5
 20
593.59999999999991
 30
0.0
 11
372.5
 21
592.60000000000002
 31
0.0
  0
ARC
  5
1FC
  8
BRACKET
 62
     7
 10
373.50000000000011
 20
592.60000000000002
 30
0.0
 40
1.0
 50
180.0
 51
270.0
  0
LINE
  5
1FD
  8
BRACKET
 62
     7
 10
373.50000000000011
 20
591.60000000000002
 30
0.0
 11
382.50000000000011
 21
591.60000000000002
 31
0.0
  0
CIRCLE
  5
1FE
  8
BRACKET
 62
     7
 10
322.00000000000011
 20
581.29999999999995
 30
0.0
 40
4.0
  0
CIRCLE
  5
1FF
  8
BRACKET
 62
     7
 10
322.00000000000011
 20
581.29999999999995
 30
0.0
 40
3.5
  0
CIRCLE
  5
200
  8
BRACKET
 62
     7
 10
322.00000000000011
 20
581.29999999999995
 30
0.0
 40
6.5
  0
LINE
  5
201
  8
BRACKET
 62
     7
 10
314.5
 20
581.29999999999995
 30
0.0
 11
318.20000000000022
 21
587.79999999999995
 31
0.0
  0
LINE
  5
202
  8
BRACKET
 62
     7
 10
318.20000000000022
 20
587.79999999999995
 30
0.0
 11
325.8000000000003
 21
587.79999999999995
 31
0.0
  0
LINE
  5
203
  8
BRACKET
 62
     7
 10
318.20000000000022
 20
574.79999999999995
 30
0.0
 11
314.5
 21
581.29999999999995
 31
0.0
  0
LINE
  5
204
  8
BRACKET
 62
     7
 10
325.8000000000003
 20
574.79999999999995
 30
0.0
 11
318.20000000000022
 21
574.79999999999995
 31
0.0
  0
LINE
  5
205
  8
BRACKET
 62
     7
 10
325.8000000000003
 20
587.79999999999995
 30
0.0
 11
329.50000000000011
 21
581.29999999999995
 31
0.0
  0
LINE
  5
206
  8
BRACKET
 62
     7
 10
329.50000000000011
 20
581.29999999999995
 30
0.0
 11
325.8000000000003
 21
574.79999999999995
 31
0.0
  0
CIRCLE
  5
207
  8
BRACKET
 62
     7
 10
322.00000000000011
 20
581.29999999999995
 30
0.0
 40
9.0
  0
CIRCLE
  5
208
  8
BRACKET
 62
     7
 10
350.0
 20
500.19999999999987
 30
0.0
 40
4.0
  0
CIRCLE
  5
209
  8
BRACKET
 62
     7
 10
350.0
 20
500.19999999999987
 30
0.0
 40
3.5
  0
CIRCLE
  5
20A
  8
BRACKET
 62
     7
 10
350.0
 20
500.19999999999987
 30
0.0
 40
6.5
  0
CIRCLE
  5
20B
  8
BRACKET
 62
     7
 10
350.0
 20
500.19999999999987
 30
0.0
 40
9.0
  0
LINE
  5
20C
  8
BRACKET
 62
     7
 10
357.50000000000011
 20
500.19999999999987
 30
0.0
 11
353.8000000000003
 21
506.69999999999987
 31
0.0
  0
LINE
  5
20D
  8
BRACKET
 62
     7
 10
353.8000000000003
 20
506.69999999999987
 30
0.0
 11
346.2000000000001
 21
506.69999999999987
 31
0.0
  0
LINE
  5
20E
  8
BRACKET
 62
     7
 10
353.8000000000003
 20
493.69999999999987
 30
0.0
 11
357.50000000000011
 21
500.19999999999987
 31
0.0
  0
LINE
  5
20F
  8
BRACKET
 62
     7
 10
346.2000000000001
 20
493.69999999999987
 30
0.0
 11
353.8000000000003
 21
493.69999999999987
 31
0.0
  0
LINE
  5
210
  8
BRACKET
 62
     7
 10
342.50000000000011
 20
500.19999999999987
 30
0.0
 11
346.2000000000001
 21
493.69999999999987
 31
0.0
  0
LINE
  5
211
  8
BRACKET
 62
     7
 10
346.2000000000001
 20
506.69999999999987
 30
0.0
 11
342.50000000000011
 21
500.19999999999987
 31
0.0
  0
CIRCLE
  5
212
  8
BRACKET
 62
     7
 10
350.0
 20
529.19999999999993
 30
0.0
 40
4.0
  0
CIRCLE
  5
213
  8
BRACKET
 62
     7
 10
350.0
 20
529.19999999999993
 30
0.0
 40
3.5
  0
CIRCLE
  5
214
  8
BRACKET
 62
     7
 10
350.0
 20
529.19999999999993
 30
0.0
 40
6.5
  0
CIRCLE
  5
215
  8
BRACKET
 62
     7
 10
350.0
 20
529.19999999999993
 30
0.0
 40
9.0
  0
LINE
  5
216
  8
BRACKET
 62
     7
 10
357.50000000000011
 20
529.19999999999993
 30
0.0
 11
353.8000000000003
 21
535.69999999999993
 31
0.0
  0
LINE
  5
217
  8
BRACKET
 62
     7
 10
353.8000000000003
 20
535.69999999999993
 30
0.0
 11
346.2000000000001
 21
535.69999999999993
 31
0.0
  0
LINE
  5
218
  8
BRACKET
 62
     7
 10
353.8000000000003
 20
522.69999999999993
 30
0.0
 11
357.50000000000011
 21
529.19999999999993
 31
0.0
  0
LINE
  5
219
  8
BRACKET
 62
     7
 10
346.2000000000001
 20
522.69999999999993
 30
0.0
 11
353.8000000000003
 21
522.69999999999993
 31
0.0
  0
LINE
  5
21A
  8
BRACKET
 62
     7
 10
346.2000000000001
 20
535.69999999999993
 30
0.0
 11
342.50000000000011
 21
529.19999999999993
 31
0.0
  0
LINE
  5
21B
  8
BRACKET
 62
     7
 10
342.50000000000011
 20
529.19999999999993
 30
0.0
 11
346.2000000000001
 21
522.69999999999993
 31
0.0
  0
LINE
  5
21C
  8
BRACKET
 62
     7
 10
367.00000000000011
 20
529.06607004772184
 30
0.0
 11
367.00000000000011
 21
517.84227876437751
 31
0.0
  0
LINE
  5
21D
  8
SP_100_
 62
     7
 10
331.60669870935033
 20
233.3012447983416
 30
0.0
 11
722.10335487371754
 21
302.15634115655718
 31
0.0
  0
LINE
  5
21E
  8
SP_100_
 62
     7
 10
293.04556556961069
 20
277.27320721340192
 30
0.0
 11
743.29967024679172
 21
356.66515404272309
 31
0.0
  0
LINE
  5
21F
  8
SP_100_
 62
     7
 10
369.3601509916478
 20
489.28527736295757
 30
0.0
 11
704.34833740652266
 21
430.21782187941932
 31
0.0
  0
LINE
  5
220
  8
SP_100_
 62
     7
 10
288.85951219008092
 20
321.72157728882098
 30
0.0
 11
728.94966498497593
 21
399.3213451706718
 31
0.0
  0
LINE
  5
221
  8
SP_100_
 62
     7
 10
289.46157783421882
 20
342.64398324969733
 30
0.0
 11
720.3293443421677
 21
418.61759560264392
 31
0.0
  0
LINE
  5
222
  8
SP_100_
 62
     7
 10
745.16277730920751
 20
331.82520034452858
 30
0.0
 11
743.29967024679172
 21
356.66515404272309
 31
0.0
  0
ARC
  5
223
  8
SP_100_
 62
     7
 10
717.02715448750826
 20
329.89732466203338
 30
0.0
 40
28.201595277786751
 50
280.3695806049468
 51
3.9198262575555991
  0
ARC
  5
224
  8
SP_100_
 62
     7
 10
700.44125340901667
 20
408.05964743664367
 30
0.0
 40
22.5
 50
25.673031120102699
 51
79.999999999999872
  0
ARC
  5
225
  8
SP_100_
 62
     7
 10
408.84477396282551
 20
267.89274433841371
 30
0.0
 40
346.03557385481002
 50
14.864932554603749
 51
25.6730311201032
  0
ARC
  5
226
  8
SP_100_
 62
     7
 10
556.36741724282683
 20
324.49360351068572
 30
0.0
 40
267.5222671014206
 50
144.72952511701041
 51
190.1665516682032
  0
LINE
  5
227
  8
SP_100_
 62
     7
 10
299.7905821353707
 20
253.294065878071
 30
0.0
 11
293.04556556961069
 21
277.27320721340192
 31
0.0
  0
ARC
  5
228
  8
SP_100_
 62
     7
 10
326.88879159939057
 20
261.10540507542788
 30
0.0
 40
28.20159527778678
 50
196.08017374244471
 51
279.63041939505302
  0
ARC
  5
229
  8
SP_100_
 62
     7
 10
363.28246477330492
 20
454.81700600752998
 30
0.0
 40
35.0
 50
79.999999999999915
 51
136.36118664058409
  0
ARC
  5
22A
  8
SP_100_
 62
     7
 10
332.9572993655288
 20
342.07104429988459
 30
0.0
 40
6.132812500000302
 50
210.35102168609461
 51
349.64897831391232
  0
ARC
  5
22B
  8
SP_100_
 62
     7
 10
333.69801737338958
 20
337.87022372844092
 30
0.0
 40
6.1328125000006084
 50
30.351021686091091
 51
169.64897831391289
  0
ARC
  5
22C
  8
SP_100_
 62
     7
 10
448.67221034446328
 20
362.47470517574891
 30
0.0
 40
6.132812500000302
 50
210.35102168609461
 51
349.64897831391249
  0
ARC
  5
22D
  8
SP_100_
 62
     7
 10
449.41292835232417
 20
358.27388460430529
 30
0.0
 40
6.1328125000005844
 50
30.351021686091212
 51
169.64897831391349
  0
ARC
  5
22E
  8
SP_100_
 62
     7
 10
564.38712132339765
 20
382.87836605161323
 30
0.0
 40
6.1328125000003286
 50
210.35102168609509
 51
349.64897831391249
  0
ARC
  5
22F
  8
SP_100_
 62
     7
 10
565.12783933125843
 20
378.67754548016961
 30
0.0
 40
6.1328125000005604
 50
30.351021686091361
 51
169.64897831391349
  0
ARC
  5
230
  8
SP_100_
 62
     7
 10
680.10203230233151
 20
403.2820269274776
 30
0.0
 40
6.1328125000003286
 50
210.35102168609509
 51
349.64897831391232
  0
ARC
  5
231
  8
SP_100_
 62
     7
 10
680.84275031019263
 20
399.08120635603382
 30
0.0
 40
6.1328125000005604
 50
30.351021686091361
 51
169.6489783139136
  0
ARC
  5
232
  8
SP_100_
 62
     7
 10
350.0
 20
500.19999999999987
 30
0.0
 40
432.81490865052717
 50
235.1084332526562
 51
335.10843325265711
  0
LINE
  5
233
  8
SP_100_
 62
     7
 10
440.0
 20
600.0
 30
0.0
 11
815.0
 21
600.0
 31
0.0
  0
LINE
  5
234
  8
SP_100_
 62
     7
 10
365.00000000000011
 20
67.385091349472702
 30
0.0
 11
815.0
 21
67.385091349472702
 31
0.0
  0
LINE
  5
235
  8
SP_100_
 62
     7
 10
800.0
 20
600.0
 30
0.0
 11
800.0
 21
67.385091349472702
 31
0.0
  0
LINE
  5
236
  8
SP_100_
 62
     7
 10
800.0
 20
600.0
 30
0.0
 11
806.38054014476631
 21
576.18749999999989
 31
0.0
  0
LINE
  5
237
  8
SP_100_
 62
     7
 10
800.0
 20
600.0
 30
0.0
 11
793.61945985523391
 21
576.18749999999989
 31
0.0
  0
LINE
  5
238
  8
SP_100_
 62
     7
 10
800.0
 20
67.385091349472702
 30
0.0
 11
793.61945985523391
 21
91.197591349472688
 31
0.0
  0
LINE
  5
239
  8
SP_100_
 62
     7
 10
800.0
 20
67.385091349472702
 30
0.0
 11
806.38054014476631
 21
91.197591349472688
 31
0.0
  0
TEXT
  5
23A
  8
SP_100_
 62
     7
 10
792.54583333333323
 20
300.61962900806969
 30
0.0
 40
20.360514322916671
  1
532.6
 50
90.0
 41
0.8
 11
772.18531901041661
 21
300.61962900806969
 31
0.0
 73
     3
  0
LINE
  5
23B
  8
SP_100_
 62
     7
 10
275.0
 20
611.79999999999995
 30
0.0
 11
275.0
 21
765.0
 31
0.0
  0
LINE
  5
23C
  8
SP_100_
 62
     7
 10
745.22874976529499
 20
344.89732466203338
 30
0.0
 11
745.22874976529499
 21
765.0
 31
0.0
  0
LINE
  5
23D
  8
SP_100_
 62
     7
 10
275.0
 20
750.0
 30
0.0
 11
745.22874976529499
 21
750.0
 31
0.0
  0
LINE
  5
23E
  8
SP_100_
 62
     7
 10
275.0
 20
750.0
 30
0.0
 11
298.81250000000011
 21
756.3805401447662
 31
0.0
  0
LINE
  5
23F
  8
SP_100_
 62
     7
 10
275.0
 20
750.0
 30
0.0
 11
298.81250000000011
 21
743.61945985523391
 31
0.0
  0
LINE
  5
240
  8
SP_100_
 62
     7
 10
745.22874976529499
 20
750.0
 30
0.0
 11
721.41624976529488
 21
743.61945985523391
 31
0.0
  0
LINE
  5
241
  8
SP_100_
 62
     7
 10
745.22874976529499
 20
750.0
 30
0.0
 11
721.41624976529488
 21
756.3805401447662
 31
0.0
  0
TEXT
  5
242
  8
SP_100_
 62
     7
 10
477.04145821598081
 20
757.45416666666665
 30
0.0
 40
20.360514322916671
  1
470.2
 41
0.8
 11
477.04145821598081
 21
777.81468098958339
 31
0.0
 73
     3
  0
LINE
  5
243
  8
SP_100_
 62
     7
 10
312.68988158069152
 20
481.44537695346361
 30
0.0
 11
325.38475738239202
 21
459.45720689649659
 31
0.0
  0
LINE
  5
244
  8
SP_100_
 62
     7
 10
487.6287134214283
 20
475.21946441477718
 30
0.0
 11
488.86405124981712
 21
468.21351544754953
 31
0.0
  0
LINE
  5
245
  8
SP_100_
 62
     7
 10
306.00601314841663
 20
519.35147847814085
 30
0.0
 11
312.68988158069152
 21
481.44537695346361
 31
0.0
  0
ARC
  5
246
  8
SP_100_
 62
     7
 10
320.77812944359971
 20
521.95620114314477
 30
0.0
 40
15.000000000000011
 50
99.999999999999844
 51
190.0
  0
LINE
  5
247
  8
SP_100_
 62
     7
 10
487.6287134214283
 20
475.21946441477718
 30
0.0
 11
463.38678356743662
 21
549.25599915946339
 31
0.0
  0
LINE
  5
248
  8
SP_100_
 62
     7
 10
318.17340682882087
 20
536.72831744718394
 30
0.0
 11
446.52677529734171
 21
559.36047892316549
 31
0.0
  0
ARC
  5
249
  8
SP_100_
 62
     7
 10
449.13149791212061
 20
544.58836261912631
 30
0.0
 40
14.999999999999959
 50
18.130102097998961
 51
100.0000000000001
  0
CIRCLE
  5
24A
  8
SP_100_
 62
     7
 10
452.31709125608671
 20
545.75450402434456
 30
0.0
 40
3.0999999999999241
  0
CIRCLE
  5
24B
  8
SP_100_
 62
     7
 10
445.73250475934287
 20
540.83603736317696
 30
0.0
 40
3.0999999999999091
  0
CIRCLE
  5
24C
  8
SP_100_
 62
     7
 10
439.00965003788713
 20
536.16223296833766
 30
0.0
 40
3.1000000000001049
  0
CIRCLE
  5
24D
  8
SP_100_
 62
     7
 10
432.15507753138911
 20
531.73637955978393
 30
0.0
 40
3.1000000000001431
  0
CIRCLE
  5
24E
  8
SP_100_
 62
     7
 10
425.17540966295729
 20
527.56161146570844
 30
0.0
 40
3.0999999999999202
  0
CIRCLE
  5
24F
  8
SP_100_
 62
     7
 10
455.89808046737687
 20
536.66363329974797
 30
0.0
 40
3.0999999999999091
  0
CIRCLE
  5
250
  8
SP_100_
 62
     7
 10
448.90987769454802
 20
532.33776741512395
 30
0.0
 40
3.0999999999999091
  0
CIRCLE
  5
251
  8
SP_100_
 62
     7
 10
441.80525657285961
 20
528.26768365356213
 30
0.0
 40
3.0999999999999091
  0
CIRCLE
  5
252
  8
SP_100_
 62
     7
 10
434.59102924209282
 20
524.45608731226469
 30
0.0
 40
3.0999999999999091
  0
CIRCLE
  5
253
  8
SP_100_
 62
     7
 10
427.27406610275841
 20
520.90552360832714
 30
0.0
 40
3.0999999999998811
  0
CIRCLE
  5
254
  8
SP_100_
 62
     7
 10
458.67312134287232
 20
527.29525230680838
 30
0.0
 40
3.0999999999999091
  0
CIRCLE
  5
255
  8
SP_100_
 62
     7
 10
451.33448673724229
 20
523.5949096514172
 30
0.0
 40
3.100000000000116
  0
CIRCLE
  5
256
  8
SP_100_
 62
     7
 10
443.90216967068602
 20
520.15952231810036
 30
0.0
 40
3.0999999999999091
  0
CIRCLE
  5
257
  8
SP_100_
 62
     7
 10
436.38319214371188
 20
516.99119159270367
 30
0.0
 40
3.1000000000001342
  0
CIRCLE
  5
258
  8
SP_100_
 62
     7
 10
428.78462024097678
 20
514.0918542133544
 30
0.0
 40
3.0999999999999091
  0
CIRCLE
  5
259
  8
SP_100_
 62
     7
 10
460.62109414713649
 20
517.72066008456602
 30
0.0
 40
3.1000000000001111
  0
CIRCLE
  5
25A
  8
SP_100_
 62
     7
 10
452.9878791491268
 20
514.6740024999084
 30
0.0
 40
3.0999999999999091
  0
CIRCLE
  5
25B
  8
SP_100_
 62
     7
 10
445.28443055707839
 20
511.89945696713539
 30
0.0
 40
3.0999999999999091
  0
CIRCLE
  5
25C
  8
SP_100_
 62
     7
 10
437.51792679245762
 20
509.39850476805259
 30
0.0
 40
3.1000000000001431
  0
CIRCLE
  5
25D
  8
SP_100_
 62
     7
 10
429.69557584703762
 20
507.17245941956901
 30
0.0
 40
3.100000000000116
  0
CIRCLE
  5
25E
  8
SP_100_
 62
     7
 10
453.85747161475018
 20
505.64293944945172
 30
0.0
 40
3.1000000000001431
  0
CIRCLE
  5
25F
  8
SP_100_
 62
     7
 10
445.94151939361649
 20
503.55035168357063
 30
0.0
 40
3.1000000000001342
  0
CIRCLE
  5
260
  8
SP_100_
 62
     7
 10
437.98659717347579
 20
501.7358117659636
 30
0.0
 40
3.1000000000001049
  0
CIRCLE
  5
261
  8
SP_100_
 62
     7
 10
429.99999999996157
 20
500.20000000035287
 30
0.0
 40
3.0999999999999091
  0
CIRCLE
  5
262
  8
SP_100_
 62
     7
 10
461.72717362886141
 20
508.01272505927659
 30
0.0
 40
3.1000000000001391
  0
CIRCLE
  5
263
  8
SP_100_
 62
     7
 10
461.9829418573496
 20
498.24533047917049
 30
0.0
 40
3.1000000000001431
  0
ARC
  5
264
  8
SP_100_
 62
     7
 10
321.11881779395702
 20
507.9386894485653
 30
0.0
 40
14.999999999999959
 50
164.9999708580001
 51
220.6729572408984
  0
ARC
  5
265
  8
SP_100_
 62
     7
 10
349.99999999956918
 20
530.10000000007085
 30
0.0
 40
14.999999999999959
 50
63.47685818236242
 51
90.0
  0
ARC
  5
266
  8
SP_100_
 62
     7
 10
350.0
 20
500.19999999999987
 30
0.0
 40
44.899999999999928
 50
90.000000000000057
 51
122.4405402672827
  0
ARC
  5
267
  8
SP_100_
 62
     7
 10
350.0
 20
500.19999999999987
 30
0.0
 40
44.899999999999899
 50
162.9825980983359
 51
164.9999902640001
  0
LINE
  5
268
  8
SP_100_
 62
     7
 10
90.349999858500951
 20
143.1396516551651
 30
0.0
 11
90.349999858500951
 21
-83.896688427008371
 31
0.0
  0
LINE
  5
269
  8
SP_100_
 62
     7
 10
356.22689253465478
 20
237.64244924001531
 30
0.0
 11
360.83519763288422
 21
238.4550177641695
 31
0.0
  0
ARC
  5
26A
  8
SP_100_
 62
     7
 10
90.349999858500951
 20
190.76117951427941
 30
0.0
 40
259.6578679412878
 50
270.0
 51
10.000000000000229
  0
LINE
  5
26B
  8
SP_100_
 62
     7
 10
346.06308133770102
 20
235.85029509916549
 30
0.0
 11
356.8700321912865
 21
213.69276224830051
 31
0.0
  0
LINE
  5
26C
  8
SP_100_
 62
     7
 10
346.06308133770102
 20
235.85029509916549
 30
0.0
 11
344.34340888892359
 21
211.2578333383355
 31
0.0
  0
LINE
  5
26D
  8
SP_100_
 62
     7
 10
90.349999858500951
 20
-68.896688427008371
 30
0.0
 11
114.16249985850089
 21
-62.516148282242291
 31
0.0
  0
LINE
  5
26E
  8
SP_100_
 62
     7
 10
90.349999858500951
 20
-68.896688427008371
 30
0.0
 11
114.16249985850089
 21
-75.277228571774458
 31
0.0
  0
TEXT
  5
26F
  8
SP_100_
 62
     7
 10
369.92422755972871
 20
121.3293491115997
 30
0.0
 40
20.360514322916671
  1
100°
 50
82.645508683513398
 41
0.8
 11
349.73121615727121
 21
123.9356556925525
 31
0.0
 73
     3
  0
LINE
  5
270
  8
SP
 62
     7
 10
90.349999858499686
 20
564.66034817686148
 30
0.0
 11
90.349999858500951
 21
168.1396516551651
 31
0.0
  0
LINE
  5
271
  8
SP
 62
     7
 10
140.3499998585001
 20
594.99999991599918
 30
0.0
 11
140.34999985850089
 21
137.79999991599951
 31
0.0
  0
LINE
  5
272
  8
SP
 62
     7
 10
335.88924158600679
 20
483.02929489960081
 30
0.0
 11
219.54906536422169
 21
163.38728775487189
 31
0.0
  0
LINE
  5
273
  8
SP
 62
     7
 10
184.84999985850061
 20
591.40407927482113
 30
0.0
 11
184.84999985850041
 21
144.52482649802101
 31
0.0
  0
LINE
  5
274
  8
SP
 62
     7
 10
205.34999985850001
 20
587.17802269313779
 30
0.0
 11
205.34999985850001
 21
149.66342637719299
 31
0.0
  0
LINE
  5
275
  8
SP
 62
     7
 10
289.99999985849979
 20
523.99999991600032
 30
0.0
 11
289.99999985850042
 21
365.49999991599952
 31
0.0
  0
LINE
  5
276
  8
SP
 62
     7
 10
115.56389572586779
 20
140.2786103292629
 30
0.0
 11
140.34999985850089
 21
137.79999991599951
 31
0.0
  0
ARC
  5
277
  8
SP
 62
     7
 10
118.55100843741489
 20
168.3215619189333
 30
0.0
 40
28.201595277786652
 50
180.3695806049468
 51
263.91982625755571
  0
ARC
  5
278
  8
SP
 62
     7
 10
198.40598139653801
 20
171.08274097969971
 30
0.0
 40
22.500000000000071
 50
285.67303112010279
 51
339.99999999999972
  0
ARC
  5
279
  8
SP
 62
     7
 10
111.0037257796137
 20
482.58894198159851
 30
0.0
 40
346.03557385481002
 50
274.8649325546038
 51
285.67303112010319
  0
LINE
  5
27A
  8
SP
 62
     7
 10
289.99999985850042
 20
365.49999991599952
 30
0.0
 11
293.11207655768391
 21
365.4999999159993
 31
0.0
  0
ARC
  5
27B
  8
SP
 62
     7
 10
284.5485712870335
 20
382.99999991599918
 30
0.0
 40
8.9514285714533184
 50
307.51730069588427
 51
52.48269930413354
  0
ARC
  5
27C
  8
SP
 62
     7
 10
141.12765254943841
 20
327.4788630849514
 30
0.0
 40
267.52226710142071
 50
44.729525117010454
 51
90.166551668203226
  0
LINE
  5
27D
  8
SP
 62
     7
 10
115.5638957259133
 20
592.52138950274082
 30
0.0
 11
140.3499998585001
 21
594.99999991599918
 31
0.0
  0
ARC
  5
27E
  8
SP
 62
     7
 10
118.55100843741469
 20
564.4784379130657
 30
0.0
 40
28.20159527778679
 50
96.080173742444728
 51
179.63041939505311
  0
ARC
  5
27F
  8
SP
 62
     7
 10
302.99999985849968
 20
494.9999999159993
 30
0.0
 40
34.999999999999979
 50
340.0
 51
36.361186640584208
  0
LINE
  5
280
  8
SP
 62
     7
 10
269.49999985849968
 20
549.0739999159988
 30
0.0
 11
277.49999985850002
 21
549.0739999159988
 31
0.0
  0
LINE
  5
281
  8
SP
 62
     7
 10
277.49999985850002
 20
548.92599991599889
 30
0.0
 11
277.49999985849928
 21
534.07399991599925
 31
0.0
  0
LINE
  5
282
  8
SP
 62
     7
 10
269.49999985849962
 20
534.07399991599902
 30
0.0
 11
277.49999985849928
 21
534.07399991599925
 31
0.0
  0
LINE
  5
283
  8
SP
 62
     7
 10
277.49999985850019
 20
544.79999991599868
 30
0.0
 11
286.99999985849951
 21
544.79999991599925
 31
0.0
  0
LINE
  5
284
  8
SP
 62
     7
 10
277.49999985849979
 20
538.19999991599855
 30
0.0
 11
286.99999985850019
 21
538.19999991599911
 31
0.0
  0
LINE
  5
285
  8
SP
 62
     7
 10
277.49999985849979
 20
548.09999991599886
 30
0.0
 11
286.9999998584999
 21
548.09999991599886
 31
0.0
  0
LINE
  5
286
  8
SP
 62
     7
 10
286.99999985849968
 20
534.89999991599927
 30
0.0
 11
277.49999985849928
 21
534.89999991599882
 31
0.0
  0
LINE
  5
287
  8
SP
 62
     7
 10
286.9999998584999
 20
548.09999991599886
 30
0.0
 11
286.99999985849968
 21
534.89999991599927
 31
0.0
  0
LINE
  5
288
  8
SP
 62
     7
 10
264.4999998584999
 20
549.09999991599875
 30
0.0
 11
269.49999985849979
 21
549.09999991599875
 31
0.0
  0
LINE
  5
289
  8
SP
 62
     7
 10
264.4999998584999
 20
533.89999991599871
 30
0.0
 11
269.49999985850002
 21
533.89999991599871
 31
0.0
  0
LINE
  5
28A
  8
SP
 62
     7
 10
269.49999985849979
 20
549.09999991599875
 30
0.0
 11
269.49999985849979
 21
533.89999991599859
 31
0.0
  0
LINE
  5
28B
  8
SP
 62
     7
 10
264.4999998585003
 20
563.86272387231588
 30
0.0
 11
264.49999985849968
 21
523.99999991600055
 31
0.0
  0
LINE
  5
28C
  8
SP
 62
     7
 10
264.49999985849968
 20
523.99999991600055
 30
0.0
 11
289.99999985849979
 21
523.99999991600032
 31
0.0
  0
ARC
  5
28D
  8
SP
 62
     7
 10
284.54857128703378
 20
509.99999991599958
 30
0.0
 40
8.9514285714533273
 50
307.51730069588427
 51
52.482699304132787
  0
ARC
  5
28E
  8
SP
 62
     7
 10
197.23281235850149
 20
544.44258871079307
 30
0.0
 40
6.1328125000002762
 50
110.3510216860945
 51
249.64897831391229
  0
ARC
  5
28F
  8
SP
 62
     7
 10
192.9671873585005
 20
544.44258871079296
 30
0.0
 40
6.132812500000596
 50
290.3510216860912
 51
69.648978313912323
  0
ARC
  5
290
  8
SP
 62
     7
 10
197.23281235850149
 20
426.94258871079307
 30
0.0
 40
6.1328125000002887
 50
110.3510216860945
 51
249.64897831391241
  0
ARC
  5
291
  8
SP
 62
     7
 10
192.96718735850041
 20
426.94258871079279
 30
0.0
 40
6.1328125000006359
 50
290.35102168609211
 51
69.648978313912394
  0
ARC
  5
292
  8
SP
 62
     7
 10
197.2328123585016
 20
309.44258871079319
 30
0.0
 40
6.1328125000003553
 50
110.35102168609539
 51
249.64897831391261
  0
ARC
  5
293
  8
SP
 62
     7
 10
192.96718735850061
 20
309.4425887107929
 30
0.0
 40
6.132812500000556
 50
290.35102168609143
 51
69.648978313913389
  0
ARC
  5
294
  8
SP
 62
     7
 10
197.2328123585016
 20
191.94258871079339
 30
0.0
 40
6.1328125000003553
 50
110.35102168609539
 51
249.64897831391261
  0
ARC
  5
295
  8
SP
 62
     7
 10
192.96718735850061
 20
191.94258871079339
 30
0.0
 40
6.1328125000006093
 50
290.35102168609109
 51
69.648978313913432
  0
LINE
  5
296
  8
SP
 62
     7
 10
35.0
 20
600.0
 30
0.0
 11
10.0
 21
600.0
 31
0.0
  0
LINE
  5
297
  8
SP
 62
     7
 10
125.34999985850079
 20
137.79999991599959
 30
0.0
 11
10.0
 21
137.79999991599959
 31
0.0
  0
LINE
  5
298
  8
SP
 62
     7
 10
25.0
 20
600.0
 30
0.0
 11
25.0
 21
137.79999991599959
 31
0.0
  0
LINE
  5
299
  8
SP
 62
     7
 10
25.0
 20
600.0
 30
0.0
 11
31.380540144766091
 21
576.18749999999989
 31
0.0
  0
LINE
  5
29A
  8
SP
 62
     7
 10
25.0
 20
600.0
 30
0.0
 11
18.61945985523392
 21
576.18749999999989
 31
0.0
  0
LINE
  5
29B
  8
SP
 62
     7
 10
25.0
 20
137.79999991599959
 30
0.0
 11
18.61945985523392
 21
161.61249991599959
 31
0.0
  0
LINE
  5
29C
  8
SP
 62
     7
 10
25.0
 20
137.79999991599959
 30
0.0
 11
31.380540144766091
 21
161.61249991599959
 31
0.0
  0
TEXT
  5
29D
  8
SP
 62
     7
 10
17.545833333333391
 20
335.82708329133311
 30
0.0
 40
20.360514322916671
  1
462.2
 50
90.0
 41
0.8
 11
-2.8146809895832798
 21
335.82708329133311
 31
0.0
 73
     3
  0
ARC
  5
29E
  8
SP
 62
     7
 10
1084.8510000000001
 20
1040.4514291749999
 30
0.0
 40
8.9514290000001608
 50
217.51730099999989
 51
322.48269899999912
  0
ARC
  5
29F
  8
SP
 62
     7
 10
1015.001
 20
1040.4514291749999
 30
0.0
 40
8.9514289999999814
 50
217.5173010000008
 51
322.48269900000031
  0
ARC
  5
2A0
  8
SP
 62
     7
 10
1229.9944740000001
 20
992.99999987199988
 30
0.0
 40
6.0
 50
270.0
 51
350.729073766
  0
ARC
  5
2A1
  8
SP
 62
     7
 10
869.98676599999999
 20
992.99999987199988
 30
0.0
 40
5.999999999999984
 50
184.50264523100009
 51
270.0
  0
LINE
  5
2A2
  8
SP
 62
     7
 10
997.04813275499998
 20
986.99999987199999
 30
0.0
 11
869.98676599999999
 21
986.99999987199999
 31
0.0
  0
LINE
  5
2A3
  8
SP
 62
     7
 10
999.0
 20
1048.633854871
 30
0.0
 11
997.04813275499998
 21
986.99999987199999
 31
0.0
  0
LINE
  5
2A4
  8
SP
 62
     7
 10
1229.9944740000001
 20
986.99999987199999
 30
0.0
 11
1102.9518672449999
 21
986.99999987199999
 31
0.0
  0
LINE
  5
2A5
  8
SP
 62
     7
 10
1102.9518672449999
 20
986.99999987199999
 30
0.0
 11
1101.0
 21
1048.633854871
 31
0.0
  0
LINE
  5
2A6
  8
SP
 62
     7
 10
1047.1279999999999
 20
1026.133854871
 30
0.0
 11
1033.9280000000001
 21
1026.133854871
 31
0.0
  0
LINE
  5
2A7
  8
SP
 62
     7
 10
1065.924
 20
1026.133854871
 30
0.0
 11
1052.7239999999999
 21
1026.133854871
 31
0.0
  0
LINE
  5
2A8
  8
SP
 62
     7
 10
1033.1020000000001
 20
1043.633854871
 30
0.0
 11
1033.1020000000001
 21
1035.633854871
 31
0.0
  0
LINE
  5
2A9
  8
SP
 62
     7
 10
1033.9280000000001
 20
1034.999999871
 30
0.0
 11
999.0
 21
1034.999999871
 31
0.0
  0
LINE
  5
2AA
  8
SP
 62
     7
 10
1051.8979999999999
 20
1043.633854871
 30
0.0
 11
1051.8979999999999
 21
1035.633854871
 31
0.0
  0
LINE
  5
2AB
  8
SP
 62
     7
 10
1048.1020000000001
 20
1043.633854871
 30
0.0
 11
1048.1020000000001
 21
1035.633854871
 31
0.0
  0
LINE
  5
2AC
  8
SP
 62
     7
 10
1052.7239999999999
 20
1034.999999871
 30
0.0
 11
1047.1279999999999
 21
1034.999999871
 31
0.0
  0
LINE
  5
2AD
  8
SP
 62
     7
 10
1047.954
 20
1035.633854871
 30
0.0
 11
1033.1020000000001
 21
1035.633854871
 31
0.0
  0
LINE
  5
2AE
  8
SP
 62
     7
 10
1033.25
 20
1048.633854871
 30
0.0
 11
1033.25
 21
1043.633854871
 31
0.0
  0
LINE
  5
2AF
  8
SP
 62
     7
 10
1066.8979999999999
 20
1043.633854871
 30
0.0
 11
1066.8979999999999
 21
1035.633854871
 31
0.0
  0
LINE
  5
2B0
  8
SP
 62
     7
 10
1066.75
 20
1048.633854871
 30
0.0
 11
1066.75
 21
1043.633854871
 31
0.0
  0
LINE
  5
2B1
  8
SP
 62
     7
 10
1101.0
 20
1034.999999871
 30
0.0
 11
1065.924
 21
1034.999999871
 31
0.0
  0
LINE
  5
2B2
  8
SP
 62
     7
 10
1066.75
 20
1035.633854871
 30
0.0
 11
1051.8979999999999
 21
1035.633854871
 31
0.0
  0
LINE
  5
2B3
  8
SP
 62
     7
 10
1066.8979999999999
 20
1043.633854871
 30
0.0
 11
1033.1020000000001
 21
1043.633854871
 31
0.0
  0
LINE
  5
2B4
  8
SP
 62
     7
 10
1101.0
 20
1048.633854871
 30
0.0
 11
999.0
 21
1048.633854871
 31
0.0
  0
LINE
  5
2B5
  8
SP
 62
     7
 10
1037.2280000000001
 20
1035.633854871
 30
0.0
 11
1037.2280000000001
 21
1026.133854871
 31
0.0
  0
LINE
  5
2B6
  8
SP
 62
     7
 10
1033.9280000000001
 20
1026.133854871
 30
0.0
 11
1033.9280000000001
 21
1035.633854871
 31
0.0
  0
LINE
  5
2B7
  8
SP
 62
     7
 10
1056.0239999999999
 20
1035.633854871
 30
0.0
 11
1056.0239999999999
 21
1026.133854871
 31
0.0
  0
LINE
  5
2B8
  8
SP
 62
     7
 10
1052.7239999999999
 20
1026.133854871
 30
0.0
 11
1052.7239999999999
 21
1035.633854871
 31
0.0
  0
LINE
  5
2B9
  8
SP
 62
     7
 10
1043.828
 20
1035.633854871
 30
0.0
 11
1043.828
 21
1026.133854871
 31
0.0
  0
LINE
  5
2BA
  8
SP
 62
     7
 10
1047.1279999999999
 20
1035.633854871
 30
0.0
 11
1047.1279999999999
 21
1026.133854871
 31
0.0
  0
LINE
  5
2BB
  8
SP
 62
     7
 10
1062.624
 20
1035.633854871
 30
0.0
 11
1062.624
 21
1026.133854871
 31
0.0
  0
LINE
  5
2BC
  8
SP
 62
     7
 10
1065.924
 20
1035.633854871
 30
0.0
 11
1065.924
 21
1026.133854871
 31
0.0
  0
ARC
  5
2BD
  8
SP
 62
     7
 10
1248.9026449999999
 20
1131.476484882
 30
0.0
 40
2.000000000000171
 50
127.62060299999899
 51
175.4978395219994
  0
LINE
  5
2BE
  8
SP
 62
     7
 10
852.2795330590003
 20
1133.05992352
 30
0.0
 11
826.91472799999985
 21
1152.6079878820001
 31
0.0
  0
ARC
  5
2BF
  8
SP
 62
     7
 10
851.05776300000002
 20
1131.476484882
 30
0.0
 40
1.9999999999999101
 50
4.5022732670049237
 51
52.346476064998683
  0
ARC
  5
2C0
  8
SP
 62
     7
 10
828.1355880000001
 20
1154.192127882
 30
0.0
 40
2.000000000000095
 50
186.41083999999969
 51
232.3793969999991
  0
ARC
  5
2C1
  8
SP
 62
     7
 10
848.68577100899995
 20
1102.1101921070001
 30
0.0
 40
32.057116990999972
 50
349.05972031099981
 51
359.99993883099989
  0
ARC
  5
2C2
  8
SP
 62
     7
 10
861.11062238900013
 20
1099.708496535
 30
0.0
 40
19.402273118999961
 50
334.98310535800039
 51
349.05968072700068
  0
ARC
  5
2C3
  8
SP
 62
     7
 10
868.91521045800005
 20
1096.066346372
 30
0.0
 40
10.789674628999929
 50
311.59222986699967
 51
334.98314804399979
  0
ARC
  5
2C4
  8
SP
 62
     7
 10
873.74289020100002
 20
1090.6273032659999
 30
0.0
 40
3.517145385000056
 50
269.99996413999889
 51
311.59234938700052
  0
ARC
  5
2C5
  8
SP
 62
     7
 10
873.74288529800003
 20
1090.6273045810001
 30
0.0
 40
3.517146700000108
 50
228.4076587469994
 51
270.00004400699811
  0
ARC
  5
2C6
  8
SP
 62
     7
 10
878.57056454100007
 20
1096.066346372
 30
0.0
 40
10.789674628999951
 50
205.01685195699949
 51
228.40777013499931
  0
ARC
  5
2C7
  8
SP
 62
     7
 10
886.37515261199974
 20
1099.708496535
 30
0.0
 40
19.402273120000022
 50
190.94031927299949
 51
205.01689464099951
  0
ARC
  5
2C8
  8
SP
 62
     7
 10
898.80000448999988
 20
1102.1101868860001
 30
0.0
 40
32.057116489999927
 50
180.00005184200029
 51
190.9402703560001
  0
LINE
  5
2C9
  8
SP
 62
     7
 10
880.74288799999988
 20
1171.1101578820001
 30
0.0
 11
866.74288800000011
 21
1171.1101578820001
 31
0.0
  0
LINE
  5
2CA
  8
SP
 62
     7
 10
877.74288799999999
 20
1171.1101578820001
 30
0.0
 11
877.74288799999999
 21
1169.1101578820001
 31
0.0
  0
LINE
  5
2CB
  8
SP
 62
     7
 10
869.74288799999999
 20
1171.1101578820001
 30
0.0
 11
869.74288799999999
 21
1169.1101578820001
 31
0.0
  0
LINE
  5
2CC
  8
SP
 62
     7
 10
877.74288799999999
 20
1169.1101578820001
 30
0.0
 11
869.74288799999999
 21
1169.1101578820001
 31
0.0
  0
ARC
  5
2CD
  8
SP
 62
     7
 10
873.74288799999988
 20
1176.6101578820001
 30
0.0
 40
8.4999999999998934
 50
241.92751300000069
 51
298.07248700000088
  0
LINE
  5
2CE
  8
SP
 62
     7
 10
826.14809500000013
 20
1153.9688138819999
 30
0.0
 11
821.38020400000005
 21
1196.403041882
 31
0.0
  0
LINE
  5
2CF
  8
SP
 62
     7
 10
880.74288799999988
 20
1171.1101578820001
 30
0.0
 11
880.74288799999988
 21
1102.1101578820001
 31
0.0
  0
LINE
  5
2D0
  8
SP
 62
     7
 10
866.74288800000011
 20
1171.1101578820001
 30
0.0
 11
866.74288800000011
 21
1102.1101578820001
 31
0.0
  0
ARC
  5
2D1
  8
SP
 62
     7
 10
966.18577100800007
 20
1102.1101921070001
 30
0.0
 40
32.057116991999962
 50
349.05972031199968
 51
359.99993883099989
  0
ARC
  5
2D2
  8
SP
 62
     7
 10
978.61062238900001
 20
1099.708496535
 30
0.0
 40
19.40227311799973
 50
334.98310535700051
 51
349.05968072700011
  0
ARC
  5
2D3
  8
SP
 62
     7
 10
986.41521045899992
 20
1096.066346372
 30
0.0
 40
10.7896746280001
 50
311.59222986499952
 51
334.98314804400059
  0
ARC
  5
2D4
  8
SP
 62
     7
 10
991.24289020100014
 20
1090.6273032680001
 30
0.0
 40
3.517145386000045
 50
269.99996413699859
 51
311.59234936699528
  0
ARC
  5
2D5
  8
SP
 62
     7
 10
991.24288529799992
 20
1090.6273045810001
 30
0.0
 40
3.5171466999999499
 50
228.40765873699769
 51
270.00004400599812
  0
ARC
  5
2D6
  8
SP
 62
     7
 10
996.07056454199994
 20
1096.066346372
 30
0.0
 40
10.78967463000007
 50
205.01685195600001
 51
228.40777013199931
  0
ARC
  5
2D7
  8
SP
 62
     7
 10
1003.875152612
 20
1099.708496535
 30
0.0
 40
19.402273119999968
 50
190.94031927399999
 51
205.0168946419997
  0
ARC
  5
2D8
  8
SP
 62
     7
 10
1016.300004492
 20
1102.1101868860001
 30
0.0
 40
32.05711649299991
 50
180.00005184200029
 51
190.9402703560001
  0
ARC
  5
2D9
  8
SP
 62
     7
 10
1083.6857710080001
 20
1102.1101921070001
 30
0.0
 40
32.057116991999962
 50
349.05972031199968
 51
359.99993881999978
  0
ARC
  5
2DA
  8
SP
 62
     7
 10
1096.1106223879999
 20
1099.708496535
 30
0.0
 40
19.402273119000061
 50
334.98310535899998
 51
349.0596807280005
  0
ARC
  5
2DB
  8
SP
 62
     7
 10
1103.915210458
 20
1096.066346372
 30
0.0
 40
10.78967462799995
 50
311.59222986799978
 51
334.98314804599988
  0
ARC
  5
2DC
  8
SP
 62
     7
 10
1108.7428902009999
 20
1090.6273032669999
 30
0.0
 40
3.517145385000056
 50
269.99996413399839
 51
311.59234937399623
  0
ARC
  5
2DD
  8
SP
 62
     7
 10
1108.7428852989999
 20
1090.6273045820001
 30
0.0
 40
3.5171467010000561
 50
228.4076587519985
 51
270.0000440020014
  0
ARC
  5
2DE
  8
SP
 62
     7
 10
1113.5705645410001
 20
1096.066346372
 30
0.0
 40
10.78967462800002
 50
205.0168519550005
 51
228.40777013399989
  0
ARC
  5
2DF
  8
SP
 62
     7
 10
1121.375152611
 20
1099.708496535
 30
0.0
 40
19.402273119000029
 50
190.94031927299929
 51
205.0168946419995
  0
ARC
  5
2E0
  8
SP
 62
     7
 10
1133.800004491
 20
1102.1101868860001
 30
0.0
 40
32.057116491000151
 50
180.0000518279999
 51
190.94027035600021
  0
LINE
  5
2E1
  8
SP
 62
     7
 10
998.24288799999999
 20
1171.1101578820001
 30
0.0
 11
984.24288800000011
 21
1171.1101578820001
 31
0.0
  0
LINE
  5
2E2
  8
SP
 62
     7
 10
995.24288800000011
 20
1171.1101578820001
 30
0.0
 11
995.24288800000011
 21
1169.1101578820001
 31
0.0
  0
LINE
  5
2E3
  8
SP
 62
     7
 10
987.24288800000011
 20
1171.1101578820001
 30
0.0
 11
987.24288800000011
 21
1169.1101578820001
 31
0.0
  0
LINE
  5
2E4
  8
SP
 62
     7
 10
995.24288800000011
 20
1169.1101578820001
 30
0.0
 11
987.24288800000011
 21
1169.1101578820001
 31
0.0
  0
LINE
  5
2E5
  8
SP
 62
     7
 10
1115.742888
 20
1171.1101578820001
 30
0.0
 11
1101.742888
 21
1171.1101578820001
 31
0.0
  0
LINE
  5
2E6
  8
SP
 62
     7
 10
1112.742888
 20
1171.1101578820001
 30
0.0
 11
1112.742888
 21
1169.1101578820001
 31
0.0
  0
LINE
  5
2E7
  8
SP
 62
     7
 10
1104.742888
 20
1171.1101578820001
 30
0.0
 11
1104.742888
 21
1169.1101578820001
 31
0.0
  0
LINE
  5
2E8
  8
SP
 62
     7
 10
1112.742888
 20
1169.1101578820001
 30
0.0
 11
1104.742888
 21
1169.1101578820001
 31
0.0
  0
ARC
  5
2E9
  8
SP
 62
     7
 10
991.24288800000011
 20
1176.6101578820001
 30
0.0
 40
8.4999999999998934
 50
241.92751300000069
 51
298.07248700000059
  0
ARC
  5
2EA
  8
SP
 62
     7
 10
1108.742888
 20
1176.6101578820001
 30
0.0
 40
8.5
 50
241.92751299999941
 51
298.07248700000059
  0
LINE
  5
2EB
  8
SP
 62
     7
 10
984.24288800000011
 20
1171.1101578820001
 30
0.0
 11
984.24288800000011
 21
1102.1101578820001
 31
0.0
  0
LINE
  5
2EC
  8
SP
 62
     7
 10
998.24288799999999
 20
1171.1101578820001
 30
0.0
 11
998.24288799999999
 21
1102.1101578820001
 31
0.0
  0
LINE
  5
2ED
  8
SP
 62
     7
 10
1101.742888
 20
1171.1101578820001
 30
0.0
 11
1101.742888
 21
1102.1101578820001
 31
0.0
  0
LINE
  5
2EE
  8
SP
 62
     7
 10
1115.742888
 20
1171.1101578820001
 30
0.0
 11
1115.742888
 21
1102.1101578820001
 31
0.0
  0
LINE
  5
2EF
  8
SP
 62
     7
 10
1219.242888
 20
1171.1101578820001
 30
0.0
 11
1219.242888
 21
1102.1101578820001
 31
0.0
  0
ARC
  5
2F0
  8
SP
 62
     7
 10
1271.82482
 20
1154.192127882
 30
0.0
 40
2.000000000000171
 50
307.62060299999899
 51
353.58916000000079
  0
LINE
  5
2F1
  8
SP
 62
     7
 10
1273.0456799999999
 20
1152.6079878820001
 30
0.0
 11
1247.681785
 21
1133.060624882
 31
0.0
  0
LINE
  5
2F2
  8
SP
 62
     7
 10
1230.242888
 20
1171.1101578820001
 30
0.0
 11
1230.242888
 21
1169.1101578820001
 31
0.0
  0
LINE
  5
2F3
  8
SP
 62
     7
 10
1222.242888
 20
1171.1101578820001
 30
0.0
 11
1222.242888
 21
1169.1101578820001
 31
0.0
  0
LINE
  5
2F4
  8
SP
 62
     7
 10
1230.242888
 20
1169.1101578820001
 30
0.0
 11
1222.242888
 21
1169.1101578820001
 31
0.0
  0
ARC
  5
2F5
  8
SP
 62
     7
 10
1226.242888
 20
1176.6101578820001
 30
0.0
 40
8.5
 50
241.92751299999941
 51
298.07248700000059
  0
LINE
  5
2F6
  8
SP
 62
     7
 10
1278.5802040000001
 20
1196.403041882
 30
0.0
 11
1273.8123129999999
 21
1153.9688138819999
 31
0.0
  0
LINE
  5
2F7
  8
SP
 62
     7
 10
1233.242888
 20
1171.1101578820001
 30
0.0
 11
1233.242888
 21
1102.1101578820001
 31
0.0
  0
ARC
  5
2F8
  8
SP
 62
     7
 10
1201.1857710070001
 20
1102.1101921070001
 30
0.0
 40
32.057116992999909
 50
349.05972031200002
 51
359.99993883099961
  0
ARC
  5
2F9
  8
SP
 62
     7
 10
1213.6106223879999
 20
1099.708496535
 30
0.0
 40
19.402273119000061
 50
334.98310535899998
 51
349.05968072700068
  0
ARC
  5
2FA
  8
SP
 62
     7
 10
1221.4152104570001
 20
1096.066346372
 30
0.0
 40
10.78967462900011
 50
311.5922298700001
 51
334.98314804700021
  0
ARC
  5
2FB
  8
SP
 62
     7
 10
1226.2428902009999
 20
1090.6273032669999
 30
0.0
 40
3.517145385000056
 50
269.99996413699859
 51
311.59234938000083
  0
ARC
  5
2FC
  8
SP
 62
     7
 10
1226.2428852979999
 20
1090.6273045820001
 30
0.0
 40
3.517146701000176
 50
228.4076587530007
 51
270.00004400300151
  0
ARC
  5
2FD
  8
SP
 62
     7
 10
1231.0705645420001
 20
1096.066346372
 30
0.0
 40
10.78967463000007
 50
205.0168519550007
 51
228.40777013099921
  0
ARC
  5
2FE
  8
SP
 62
     7
 10
1238.875152612
 20
1099.708496535
 30
0.0
 40
19.402273120000022
 50
190.94031927299949
 51
205.01689464099951
  0
ARC
  5
2FF
  8
SP
 62
     7
 10
1251.300004491
 20
1102.1101868860001
 30
0.0
 40
32.057116491999913
 50
180.00005184200029
 51
190.9402703559999
  0
LINE
  5
300
  8
SP
 62
     7
 10
1233.242888
 20
1171.1101578820001
 30
0.0
 11
1219.242888
 21
1171.1101578820001
 31
0.0
  0
LINE
  5
301
  8
SP
 62
     7
 10
1278.5802040000001
 20
1196.403041882
 30
0.0
 11
821.38020400000005
 21
1196.403041882
 31
0.0
  0
LINE
  5
302
  8
SP
 62
     7
 10
826.85699799999998
 20
1218.9910188819999
 30
0.0
 11
821.38020400000005
 21
1196.403041882
 31
0.0
  0
ARC
  5
303
  8
SP
 62
     7
 10
846.38020400000005
 20
1214.649999882
 30
0.0
 40
20.0
 50
90.0
 51
167.46411999999941
  0
LINE
  5
304
  8
SP
 62
     7
 10
1278.5802040000001
 20
1196.403041882
 30
0.0
 11
1273.1034099999999
 21
1218.9910188819999
 31
0.0
  0
ARC
  5
305
  8
SP
 62
     7
 10
1253.5802040000001
 20
1214.649999882
 30
0.0
 40
20.0
 50
12.535880000000651
 51
90.0
  0
LINE
  5
306
  8
SP
 62
     7
 10
1253.5802040000001
 20
1234.649999882
 30
0.0
 11
846.38020400000005
 21
1234.649999882
 31
0.0
  0
LINE
  5
307
  8
SP
 62
     7
 10
1246.908816251
 20
1130.794942405
 30
0.0
 11
1235.9160995540001
 21
991.19484578000015
 31
0.0
  0
LINE
  5
308
  8
SP
 62
     7
 10
853.05159144000004
 20
1130.7949463299999
 30
0.0
 11
864.00528373699979
 21
991.69043327500003
 31
0.0
  0
LINE
  5
309
  8
SP
 62
     7
 10
50.0
 20
600.0
 30
0.0
 11
1300.0
 21
600.0
 31
0.0
  0
LINE
  5
30A
  8
SP
 62
     7
 10
449.99999999999989
 20
600.0
 30
0.0
 11
549.99998999999968
 21
700.0
 31
0.0
  0
LINE
  5
30B
  8
SP
 62
     7
 10
400.00000999999992
 20
600.0
 30
0.0
 11
499.9999899999998
 21
700.0
 31
0.0
  0
LINE
  5
30C
  8
SP
 62
     7
 10
349.99999999999977
 20
600.0
 30
0.0
 11
449.99999999999989
 21
700.0
 31
0.0
  0
LINE
  5
30D
  8
SP
 62
     7
 10
300.0000099999998
 20
600.0
 30
0.0
 11
400.00000999999992
 21
700.0
 31
0.0
  0
LINE
  5
30E
  8
SP
 62
     7
 10
250.0000099999998
 20
600.0
 30
0.0
 11
349.99999999999977
 21
700.0
 31
0.0
  0
LINE
  5
30F
  8
SP
 62
     7
 10
200.0000099999998
 20
600.0
 30
0.0
 11
300.0000099999998
 21
700.0
 31
0.0
  0
LINE
  5
310
  8
SP
 62
     7
 10
150.0
 20
600.0
 30
0.0
 11
250.0000099999998
 21
700.0
 31
0.0
  0
LINE
  5
311
  8
SP
 62
     7
 10
100.0
 20
600.0
 30
0.0
 11
200.0000099999998
 21
700.0
 31
0.0
  0
LINE
  5
312
  8
SP
 62
     7
 10
50.0
 20
600.0
 30
0.0
 11
150.0
 21
700.0
 31
0.0
  0
LINE
  5
313
  8
SP
 62
     7
 10
499.9999899999998
 20
600.0
 30
0.0
 11
599.99998999999968
 21
700.0
 31
0.0
  0
LINE
  5
314
  8
SP
 62
     7
 10
549.99998999999968
 20
600.0
 30
0.0
 11
649.99999999999989
 21
700.0
 31
0.0
  0
LINE
  5
315
  8
SP
 62
     7
 10
599.99998999999968
 20
600.0
 30
0.0
 11
699.99998999999968
 21
700.0
 31
0.0
  0
LINE
  5
316
  8
SP
 62
     7
 10
649.99999999999989
 20
600.0
 30
0.0
 11
749.99998999999968
 21
700.0
 31
0.0
  0
LINE
  5
317
  8
SP
 62
     7
 10
699.99998999999968
 20
600.0
 30
0.0
 11
799.99998999999968
 21
700.0
 31
0.0
  0
LINE
  5
318
  8
SP
 62
     7
 10
749.99998999999968
 20
600.0
 30
0.0
 11
850.0
 21
700.0
 31
0.0
  0
LINE
  5
319
  8
SP
 62
     7
 10
799.99998999999968
 20
600.0
 30
0.0
 11
899.99999999999955
 21
700.0
 31
0.0
  0
LINE
  5
31A
  8
SP
 62
     7
 10
850.0
 20
600.0
 30
0.0
 11
949.99999999999955
 21
700.0
 31
0.0
  0
LINE
  5
31B
  8
SP
 62
     7
 10
899.99999999999955
 20
600.0
 30
0.0
 11
999.99998999999968
 21
700.0
 31
0.0
  0
LINE
  5
31C
  8
SP
 62
     7
 10
90.349999858500368
 20
153.13965165513719
 30
0.0
 11
90.349999858500368
 21
10.0
 31
0.0
  0
LINE
  5
31D
  8
SP
 62
     7
 10
425.0
 20
581.79999999999995
 30
0.0
 11
425.0
 21
10.0
 31
0.0
  0
LINE
  5
31E
  8
SP
 62
     7
 10
90.349999858500368
 20
25.0
 30
0.0
 11
425.0
 21
25.0
 31
0.0
  0
LINE
  5
31F
  8
SP
 62
     7
 10
90.349999858500368
 20
25.0
 30
0.0
 11
114.1624998585003
 21
31.380540144766091
 31
0.0
  0
LINE
  5
320
  8
SP
 62
     7
 10
90.349999858500368
 20
25.0
 30
0.0
 11
114.1624998585003
 21
18.61945985523392
 31
0.0
  0
LINE
  5
321
  8
SP
 62
     7
 10
425.0
 20
25.0
 30
0.0
 11
401.18749999999989
 21
18.61945985523392
 31
0.0
  0
LINE
  5
322
  8
SP
 62
     7
 10
425.0
 20
25.0
 30
0.0
 11
401.18749999999989
 21
31.380540144766091
 31
0.0
  0
TEXT
  5
323
  8
SP
 62
     7
 10
224.60208326258351
 20
32.454166666666673
 30
0.0
 40
20.360514322916671
  1
334.7
 41
0.8
 11
224.60208326258351
 21
52.814680989583337
 31
0.0
 73
     3
  0
LINE
  5
324
  8
SP
 62
     7
 10
821.38020399900756
 20
153.24165646781009
 30
0.0
 11
821.38020399900756
 21
10.0
 31
0.0
  0
LINE
  5
325
  8
SP
 62
     7
 10
1278.5802039999919
 20
153.24165646781009
 30
0.0
 11
1278.5802039999919
 21
10.0
 31
0.0
  0
LINE
  5
326
  8
SP
 62
     7
 10
821.38020399900756
 20
25.0
 30
0.0
 11
1278.5802039999919
 21
25.0
 31
0.0
  0
LINE
  5
327
  8
SP
 62
     7
 10
821.38020399900756
 20
25.0
 30
0.0
 11
845.19270399900756
 21
31.380540144766091
 31
0.0
  0
LINE
  5
328
  8
SP
 62
     7
 10
821.38020399900756
 20
25.0
 30
0.0
 11
845.19270399900756
 21
18.61945985523392
 31
0.0
  0
LINE
  5
329
  8
SP
 62
     7
 10
1278.5802039999919
 20
25.0
 30
0.0
 11
1254.7677039999919
 21
18.61945985523392
 31
0.0
  0
LINE
  5
32A
  8
SP
 62
     7
 10
1278.5802039999919
 20
25.0
 30
0.0
 11
1254.7677039999919
 21
31.380540144766091
 31
0.0
  0
TEXT
  5
32B
  8
SP
 62
     7
 10
1016.907287332833
 20
32.454166666666673
 30
0.0
 40
20.360514322916671
  1
457.2
 41
0.8
 11
1016.907287332833
 21
52.814680989583337
 31
0.0
 73
     3
  0
LINE
  5
32C
  8
SP
 62
     7
 10
1102.9518672449999
 20
365.5000001320098
 30
0.0
 11
1102.9518672449999
 21
563.86272387400982
 31
0.0
  0
LINE
  5
32D
  8
SP
 62
     7
 10
997.04813275499998
 20
563.86272387400982
 30
0.0
 11
1102.9518672449999
 21
563.86272387400982
 31
0.0
  0
LINE
  5
32E
  8
SP
 62
     7
 10
997.04813275499998
 20
523.99999960800972
 30
0.0
 11
1102.9518672449999
 21
523.99999960800972
 31
0.0
  0
LINE
  5
32F
  8
SP
 62
     7
 10
999.0
 20
365.5000001320098
 30
0.0
 11
999.0
 21
563.86272387400982
 31
0.0
  0
LINE
  5
330
  8
SP
 62
     7
 10
1101.0
 20
365.5000001320098
 30
0.0
 11
1101.0
 21
563.86272387400982
 31
0.0
  0
LINE
  5
331
  8
SP
 62
     7
 10
997.04813275499998
 20
365.5000001320098
 30
0.0
 11
1102.9518672449999
 21
365.5000001320098
 31
0.0
  0
LINE
  5
332
  8
SP
 62
     7
 10
997.04813275499998
 20
365.5000001320098
 30
0.0
 11
997.04813275499998
 21
563.86272387400982
 31
0.0
  0
ARC
  5
333
  8
SP
 62
     7
 10
1252.0469209739999
 20
564.86402258900978
 30
0.0
 40
26.533283026000099
 50
0.0000429269999038
 51
23.787570716999731
  0
ARC
  5
334
  8
SP
 62
     7
 10
1250.3645610870001
 20
564.12242273900961
 30
0.0
 40
28.371843639000069
 50
23.78761994299996
 51
46.780653448000059
  0
ARC
  5
335
  8
SP
 62
     7
 10
1249.2814427379999
 20
562.96981349400949
 30
0.0
 40
29.953505241999789
 50
46.780634496000303
 51
68.73225500900034
  0
ARC
  5
336
  8
SP
 62
     7
 10
1248.5801789059999
 20
561.16811906900978
 30
0.0
 40
31.88686339900001
 50
68.732287280999913
 51
89.99995491099962
  0
ARC
  5
337
  8
SP
 62
     7
 10
851.38022909300003
 20
561.16811906900978
 30
0.0
 40
31.886863399000031
 50
90.000045088999954
 51
111.267712719
  0
ARC
  5
338
  8
SP
 62
     7
 10
850.67896526100014
 20
562.96981349400949
 30
0.0
 40
29.953505241999931
 50
111.2677449909998
 51
133.219365504
  0
ARC
  5
339
  8
SP
 62
     7
 10
849.59584691199996
 20
564.12242273900961
 30
0.0
 40
28.37184363900014
 50
133.2193465520001
 51
156.21238005699999
  0
ARC
  5
33A
  8
SP
 62
     7
 10
847.91348702499999
 20
564.86402258900978
 30
0.0
 40
26.533283025999911
 50
156.21242928300001
 51
179.9999570730001
  0
LINE
  5
33B
  8
SP
 62
     7
 10
1278.5802040000001
 20
168.24165646800969
 30
0.0
 11
1278.5802040000001
 21
564.86404246800976
 31
0.0
  0
ARC
  5
33C
  8
SP
 62
     7
 10
1252.0469209739999
 20
168.2416763470097
 30
0.0
 40
26.533283026000021
 50
336.21242928300012
 51
359.99995707300008
  0
ARC
  5
33D
  8
SP
 62
     7
 10
1250.3645610870001
 20
168.98327619800969
 30
0.0
 40
28.371843639000019
 50
313.21934655199999
 51
336.21238005700002
  0
ARC
  5
33E
  8
SP
 62
     7
 10
1249.2814427379999
 20
170.13588544200971
 30
0.0
 40
29.953505241999931
 50
291.26774499099957
 51
313.21936550399982
  0
ARC
  5
33F
  8
SP
 62
     7
 10
1248.5801789059999
 20
171.9375798670097
 30
0.0
 40
31.886863399000031
 50
270.00004508900042
 51
291.26771271900049
  0
LINE
  5
340
  8
SP
 62
     7
 10
821.38020400000005
 20
168.24165646800969
 30
0.0
 11
821.38020400000005
 21
564.86404246800976
 31
0.0
  0
ARC
  5
341
  8
SP
 62
     7
 10
851.38022909300003
 20
171.93757986800969
 30
0.0
 40
31.88686339900001
 50
248.7322872809998
 51
269.99995491099997
  0
ARC
  5
342
  8
SP
 62
     7
 10
850.67896526100014
 20
170.13588544200971
 30
0.0
 40
29.95350524199992
 50
226.7806344960002
 51
248.7322550090002
  0
ARC
  5
343
  8
SP
 62
     7
 10
849.59584691199996
 20
168.9832761970097
 30
0.0
 40
28.371843639000051
 50
203.7876199429999
 51
226.7806534479999
  0
ARC
  5
344
  8
SP
 62
     7
 10
847.91348702499999
 20
168.2416763470097
 30
0.0
 40
26.533283025999879
 50
180.0000429269999
 51
203.78757071699999
  0
LINE
  5
345
  8
SP
 62
     7
 10
852.05217500000003
 20
593.05498246800948
 30
0.0
 11
1249.2521750000001
 21
593.05498246800948
 31
0.0
  0
LINE
  5
346
  8
SP
 62
     7
 10
851.38020399999994
 20
140.05071646800971
 30
0.0
 11
1248.5802040000001
 21
140.05071646800971
 31
0.0
  0
TEXT
  5
347
  8
SP
 62
     7
 10
81.25
 20
1209.2249999999999
 30
0.0
 40
20.360514322916671
  1
重量
 41
0.8
 11
81.25
 21
1229.5855143229171
 31
0.0
 73
     3
  0
POLYLINE
  5
348
  8
SP
 62
     7
 66
     1
 10
0.0
 20
0.0
 30
0.0
 70
     1
  0
VERTEX
  5
3B1
  8
SP
 62
     7
 10
50.0
 20
1250.0
 30
0.0
  0
VERTEX
  5
3B2
  8
SP
 62
     7
 10
456.25
 20
1250.0
 30
0.0
  0
VERTEX
  5
3B3
  8
SP
 62
     7
 10
456.25
 20
1093.75
 30
0.0
  0
VERTEX
  5
3B4
  8
SP
 62
     7
 10
50.0
 20
1093.75
 30
0.0
  0
SEQEND
  5
3B5
  8
SP
 62
     7
  0
TEXT
  5
34E
  8
SP
 62
     7
 10
112.5
 20
1162.3499999999999
 30
0.0
 40
20.360514322916671
  1
JBL-2+8330A：約10.2kg
 41
0.8
 11
112.5
 21
1182.710514322916
 31
0.0
 73
     3
  0
TEXT
  5
34F
  8
SP
 62
     7
 10
112.5
 20
1115.4749999999999
 30
0.0
 40
20.360514322916671
  1
JBL-2+8340A：約11.0kg
 41
0.8
 11
112.5
 21
1135.835514322916
 31
0.0
 73
     3
  0
TEXT
  5
350
  8
SP
 62
     7
 10
1025.0
 20
-287.14332499999989
 30
0.0
 40
18.324462890625
  1
JBL
 41
0.8
 11
1025.0
 21
-268.81886210937489
 31
0.0
 73
     3
  0
TEXT
  5
351
  8
SP
 62
     7
 10
50.000000000000341
 20
-393.21499999999992
 30
0.0
 40
12.21630859375
  1
仕様および外観は予告なく変更されることがありますので、ご了承ください。
 41
0.8
 11
50.000000000000341
 21
-380.99869140624992
 31
0.0
 73
     3
  0
TEXT
  5
352
  8
SP
 62
     7
 10
950.0
 20
-336.96749166666649
 30
0.0
 40
14.252360026041661
  1
JBL-2金具 特型(天井取付け用)装着外観図
 41
0.8
 11
950.0
 21
-322.71513164062492
 31
0.0
 73
     3
  0
TEXT
  5
353
  8
SP
 62
     7
 10
1006.25
 20
-313.22048749999999
 30
0.0
 40
12.21630859375
  1
8330A & 8340A用
 41
0.8
 11
1006.25
 21
-301.00417890624999
 31
0.0
 73
     3
  0
LINE
  5
354
  8
SP
 62
     7
 10
949.99999999999955
 20
600.0
 30
0.0
 11
1049.99999
 21
700.0
 31
0.0
  0
LINE
  5
355
  8
SP
 62
     7
 10
999.99999999999955
 20
600.0
 30
0.0
 11
1099.99999
 21
700.0
 31
0.0
  0
LINE
  5
356
  8
SP
 62
     7
 10
1050.0
 20
600.0
 30
0.0
 11
1149.99999
 21
700.0
 31
0.0
  0
LINE
  5
357
  8
SP
 62
     7
 10
1100.0
 20
600.0
 30
0.0
 11
1199.99999
 21
700.0
 31
0.0
  0
LINE
  5
358
  8
SP
 62
     7
 10
1150.0
 20
600.0
 30
0.0
 11
1249.99999
 21
700.0
 31
0.0
  0
LINE
  5
359
  8
SP
 62
     7
 10
1200.0
 20
600.0
 30
0.0
 11
1299.99999
 21
700.0
 31
0.0
  0
LINE
  5
35A
  8
SP
 62
     7
 10
1250.0
 20
600.0
 30
0.0
 11
1300.0
 21
650.00000500000067
 31
0.0
  0
ENDSEC
  0
EOF
