  0
SECTION
  2
HEADER
  9
$ACADVER
  1
AC1009
  9
$INSBASE
 10
0.0
 20
0.0
 30
0.0
  9
$EXTMIN
 10
-720.08788660158461
 20
-1057.940925074545
 30
-0.0000000349181948
  9
$EXTMAX
 10
720.0879000130376
 20
1083.0669204123319
 30
0.0000000814935747
  9
$LIMMIN
 10
0.0
 20
0.0
  9
$LIMMAX
 10
0.0
 20
0.0
  9
$ORTHOMODE
 70
     0
  9
$REGENMODE
 70
     1
  9
$FILLMODE
 70
     1
  9
$QTEXTMODE
 70
     0
  9
$MIRRTEXT
 70
     1
  9
$DRAGMODE
 70
     2
  9
$LTSCALE
 40
101.59999999999999
  9
$OSMODE
 70
   231
  9
$ATTMODE
 70
     1
  9
$TEXTSIZE
 40
0.0
  9
$TRACEWID
 40
1.0
  9
$TEXTSTYLE
  7
STANDARD
  9
$CLAYER
  8
DATA
  9
$CELTYPE
  6
BYLAYER
  9
$CECOLOR
 62
   256
  9
$DIMSCALE
 40
1.0
  9
$DIMASZ
 40
0.18
  9
$DIMEXO
 40
0.0625
  9
$DIMDLI
 40
0.38
  9
$DIMRND
 40
0.0
  9
$DIMDLE
 40
0.0
  9
$DIMEXE
 40
0.18
  9
$DIMTP
 40
0.0
  9
$DIMTM
 40
0.0
  9
$DIMTXT
 40
0.18
  9
$DIMCEN
 40
0.09
  9
$DIMTSZ
 40
0.0
  9
$DIMTOL
 70
     0
  9
$DIMLIM
 70
     0
  9
$DIMTIH
 70
     1
  9
$DIMTOH
 70
     1
  9
$DIMSE1
 70
     0
  9
$DIMSE2
 70
     0
  9
$DIMTAD
 70
     0
  9
$DIMZIN
 70
     0
  9
$DIMBLK
  1

  9
$DIMASO
 70
     1
  9
$DIMSHO
 70
     1
  9
$DIMPOST
  1

  9
$DIMAPOST
  1

  9
$DIMALT
 70
     0
  9
$DIMALTD
 70
     2
  9
$DIMALTF
 40
25.399999999999999
  9
$DIMLFAC
 40
1.0
  9
$DIMTOFL
 70
     0
  9
$DIMTVP
 40
0.0
  9
$DIMTIX
 70
     0
  9
$DIMSOXD
 70
     0
  9
$DIMSAH
 70
     0
  9
$DIMBLK1
  1

  9
$DIMBLK2
  1

  9
$DIMSTYLE
  2
STANDARD
  9
$DIMCLRD
 70
     0
  9
$DIMCLRE
 70
     0
  9
$DIMCLRT
 70
     0
  9
$DIMTFAC
 40
1.0
  9
$DIMGAP
 40
0.09
  9
$LUNITS
 70
     2
  9
$LUPREC
 70
     4
  9
$SKETCHINC
 40
0.1
  9
$FILLETRAD
 40
0.0
  9
$AUNITS
 70
     0
  9
$AUPREC
 70
     0
  9
$MENU
  1
acad
  9
$ELEVATION
 40
0.0
  9
$PELEVATION
 40
0.0
  9
$THICKNESS
 40
0.0
  9
$LIMCHECK
 70
     0
  9
$BLIPMODE
 70
     0
  9
$CHAMFERA
 40
0.0
  9
$CHAMFERB
 40
0.0
  9
$SKPOLY
 70
     0
  9
$TDCREATE
 40
2456675.792557871
  9
$TDUPDATE
 40
2456675.7946922341
  9
$TDINDWG
 40
0.0007001273
  9
$TDUSRTIMER
 40
0.0007
  9
$USRTIMER
 70
     1
  9
$ANGBASE
 50
0.0
  9
$ANGDIR
 70
     0
  9
$PDMODE
 70
     1
  9
$PDSIZE
 40
-2.0
  9
$PLINEWID
 40
0.0
  9
$COORDS
 70
     2
  9
$SPLFRAME
 70
     0
  9
$SPLINETYPE
 70
     6
  9
$SPLINESEGS
 70
     8
  9
$ATTDIA
 70
     0
  9
$ATTREQ
 70
     1
  9
$HANDLING
 70
     1
  9
$HANDSEED
  5
603
  9
$SURFTAB1
 70
     6
  9
$SURFTAB2
 70
     6
  9
$SURFTYPE
 70
     6
  9
$SURFU
 70
     6
  9
$SURFV
 70
     6
  9
$UCSNAME
  2

  9
$UCSORG
 10
0.0
 20
0.0
 30
0.0
  9
$UCSXDIR
 10
1.0
 20
0.0
 30
0.0
  9
$UCSYDIR
 10
0.0
 20
1.0
 30
0.0
  9
$PUCSNAME
  2

  9
$PUCSORG
 10
0.0
 20
0.0
 30
0.0
  9
$PUCSXDIR
 10
1.0
 20
0.0
 30
0.0
  9
$PUCSYDIR
 10
0.0
 20
1.0
 30
0.0
  9
$USERI1
 70
     0
  9
$USERI2
 70
     0
  9
$USERI3
 70
     0
  9
$USERI4
 70
     0
  9
$USERI5
 70
     0
  9
$USERR1
 40
0.0
  9
$USERR2
 40
0.0
  9
$USERR3
 40
0.0
  9
$USERR4
 40
0.0
  9
$USERR5
 40
0.0
  9
$WORLDVIEW
 70
     1
  9
$SHADEDGE
 70
     3
  9
$SHADEDIF
 70
    70
  9
$TILEMODE
 70
     1
  9
$MAXACTVP
 70
    64
  9
$PLIMCHECK
 70
     0
  9
$PEXTMIN
 10
1.0000000000000000E+020
 20
1.0000000000000000E+020
 30
1.0000000000000000E+020
  9
$PEXTMAX
 10
-1.0000000000000000E+020
 20
-1.0000000000000000E+020
 30
-1.0000000000000000E+020
  9
$PLIMMIN
 10
0.0
 20
0.0
  9
$PLIMMAX
 10
12.0
 20
9.0
  9
$UNITMODE
 70
     0
  9
$VISRETAIN
 70
     0
  9
$PLINEGEN
 70
     1
  9
$PSLTSCALE
 70
     0
  0
ENDSEC
  0
SECTION
  2
TABLES
  0
TABLE
  2
VPORT
 70
     1
  0
VPORT
  2
*ACTIVE
 70
     0
 10
0.0
 20
0.0
 11
1.0
 21
1.0
 12
0.000006705726264
 22
12.562997668893781
 13
0.0
 23
0.0
 14
1.0
 24
1.0
 15
0.0
 25
0.0
 16
0.0
 26
0.0
 36
1.0
 17
0.0
 27
0.0
 37
0.0
 40
2157.8661749788998
 41
2.1787122207621552
 42
50.0
 43
0.0
 44
0.0
 50
0.0
 51
0.0
 71
     0
 72
  2000
 73
     1
 74
     1
 75
     0
 76
     0
 77
     0
 78
     0
  0
ENDTAB
  0
TABLE
  2
LTYPE
 70
     1
  0
LTYPE
  2
CONTINUOUS
 70
     0
  3
Solid line
 72
    65
 73
     0
 40
0.0
  0
ENDTAB
  0
TABLE
  2
LAYER
 70
     5
  0
LAYER
  2
0
 70
     0
 62
     7
  6
CONTINUOUS
  0
LAYER
  2
DATA
 70
     0
 62
     7
  6
CONTINUOUS
  0
LAYER
  2
HIBINO-BASE
 70
     0
 62
     7
  6
CONTINUOUS
  0
LAYER
  2
SPEC
 70
     0
 62
     7
  6
CONTINUOUS
  0
LAYER
  2
DIMNSIONS
 70
     0
 62
     7
  6
CONTINUOUS
  0
ENDTAB
  0
TABLE
  2
STYLE
 70
     2
  0
STYLE
  2
STANDARD
 70
     0
 40
0.0
 41
1.0
 50
0.0
 71
     0
 42
0.0
  3
txt
  4
BIGFONT.SHX
  0
ENDTAB
  0
TABLE
  2
VIEW
 70
     0
  0
ENDTAB
  0
TABLE
  2
UCS
 70
     0
  0
ENDTAB
  0
TABLE
  2
APPID
 70
     4
  0
APPID
  2
ACAD
 70
     0
  0
APPID
  2
ACADANNOTATIVE
 70
     0
  0
APPID
  2
ACAD_NAV_VCDISPLAY
 70
     0
  0
APPID
  2
ACAD_MLEADERVER
 70
     0
  0
ENDTAB
  0
TABLE
  2
DIMSTYLE
 70
     2
  0
DIMSTYLE
  2
STANDARD
 70
     0
  3

  4

  5

  6

  7

 40
1.0
 41
0.18
 42
0.0625
 43
0.38
 44
0.18
 45
0.0
 46
0.0
 47
0.0
 48
0.0
140
0.18
141
0.09
142
0.0
143
25.399999999999999
144
1.0
145
0.0
146
1.0
147
0.09
 71
     0
 72
     0
 73
     1
 74
     1
 75
     0
 76
     0
 77
     0
 78
     0
170
     0
171
     2
172
     0
173
     0
174
     0
175
     0
176
     0
177
     0
178
     0
  0
ENDTAB
  0
ENDSEC
  0
SECTION
  2
BLOCKS
  0
BLOCK
  8
0
  2
$MODEL_SPACE
 70
     0
 10
0.0
 20
0.0
 30
0.0
  3
$MODEL_SPACE
  1

  0
ENDBLK
  5
58C
  8
0
  0
BLOCK
 67
     1
  8
0
  2
$PAPER_SPACE
 70
     0
 10
0.0
 20
0.0
 30
0.0
  3
$PAPER_SPACE
  1

  0
ENDBLK
  5
588
 67
     1
  8
0
  0
ENDSEC
  0
SECTION
  2
ENTITIES
  0
LINE
  5
2E
  8
HIBINO-BASE
  6
CONTINUOUS
 62
     7
 10
-720.0
 20
1082.9363699999999
 30
0.0
 11
720.0
 21
1082.9363699999999
 31
0.0
  0
LINE
  5
2F
  8
HIBINO-BASE
  6
CONTINUOUS
 62
     7
 10
720.0
 20
-997.06362999999999
 30
0.0
 11
-720.0
 21
-997.06362999999999
 31
0.0
  0
LINE
  5
30
  8
HIBINO-BASE
  6
CONTINUOUS
 62
     7
 10
-720.0
 20
-997.06362999999999
 30
0.0
 11
-720.0
 21
1082.9363699999999
 31
0.0
  0
LINE
  5
31
  8
HIBINO-BASE
  6
CONTINUOUS
 62
     7
 10
720.0
 20
1082.9363699999999
 30
0.0
 11
720.0
 21
-997.06362999999999
 31
0.0
  0
LINE
  5
32
  8
HIBINO-BASE
  6
CONTINUOUS
 62
     7
 10
0.0
 20
-817.0636300000001
 30
0.0
 11
720.0
 21
-817.0636300000001
 31
0.0
  0
LINE
  5
33
  8
HIBINO-BASE
  6
CONTINUOUS
 62
     7
 10
0.0
 20
-997.06362999999999
 30
0.0
 11
0.0
 21
-817.0636300000001
 31
0.0
  0
TEXT
  5
34
  8
HIBINO-BASE
 62
     7
 10
7.2000000000000428
 20
-837.13317666666649
 30
0.0
 40
13.03072916666666
  1
NOTE
 41
0.7
 11
7.2000000000000437
 21
-824.1024474999997
 31
0.0
 73
     3
  0
LINE
  5
35
  8
HIBINO-BASE
  6
CONTINUOUS
 62
     7
 10
280.0
 20
-997.06362999999999
 30
0.0
 11
280.0
 21
-817.0636300000001
 31
0.0
  0
TEXT
  5
36
  8
HIBINO-BASE
 62
     7
 10
287.19999999999982
 20
-837.13317666666649
 30
0.0
 40
13.03072916666666
  1
TITLE
 41
0.7
 11
287.19999999999982
 21
-824.1024474999997
 31
0.0
 73
     3
  0
LINE
  5
37
  8
HIBINO-BASE
  6
CONTINUOUS
 62
     7
 10
0.0
 20
-917.06362999999988
 30
0.0
 11
720.0
 21
-917.06362999999988
 31
0.0
  0
TEXT
  5
38
  8
HIBINO-BASE
 62
     7
 10
387.19999999999987
 20
-936.68261666666672
 30
0.0
 40
13.03072916666666
  1
DRAWN
 41
0.7
 11
387.19999999999987
 21
-923.65188749999993
 31
0.0
 73
     3
  0
TEXT
  5
39
  8
HIBINO-BASE
 62
     7
 10
187.1999999999997
 20
-936.68261666666672
 30
0.0
 40
13.03072916666666
  1
DATE
 41
0.7
 11
187.1999999999997
 21
-923.65188749999993
 31
0.0
 73
     3
  0
TEXT
  5
3A
  8
HIBINO-BASE
 62
     7
 10
107.1999999999998
 20
-936.68261666666672
 30
0.0
 40
13.03072916666666
  1
SCALE
 41
0.7
 11
107.1999999999998
 21
-923.65188749999993
 31
0.0
 73
     3
  0
TEXT
  5
3B
  8
HIBINO-BASE
 62
     7
 10
287.19999999999982
 20
-936.68261666666672
 30
0.0
 40
13.03072916666666
  1
DESIGN
 41
0.7
 11
287.19999999999982
 21
-923.65188749999993
 31
0.0
 73
     3
  0
TEXT
  5
3C
  8
HIBINO-BASE
 62
     7
 10
587.19999999999982
 20
-936.68261666666672
 30
0.0
 40
13.03072916666666
  1
DRAWING NO.
 41
0.7
 11
587.19999999999982
 21
-923.65188749999993
 31
0.0
 73
     3
  0
TEXT
  5
3D
  8
HIBINO-BASE
 62
     7
 10
487.19999999999982
 20
-936.68261666666672
 30
0.0
 40
13.03072916666666
  1
CHECK
 41
0.7
 11
487.19999999999982
 21
-923.65188749999993
 31
0.0
 73
     3
  0
LINE
  5
3E
  8
HIBINO-BASE
  6
CONTINUOUS
 62
     7
 10
115.0
 20
-987.06362999999988
 30
0.0
 11
145.0
 21
-957.06363000000022
 31
0.0
  0
TEXT
  5
3F
  8
HIBINO-BASE
 62
     7
 10
110.0
 20
-965.93517666666673
 30
0.0
 40
13.03072916666666
  1
1
 41
0.7
 11
110.0
 21
-952.90444749999995
 31
0.0
 73
     3
  0
LINE
  5
40
  8
HIBINO-BASE
  6
CONTINUOUS
 62
     7
 10
100.0
 20
-997.06362999999999
 30
0.0
 11
100.0
 21
-917.06362999999988
 31
0.0
  0
LINE
  5
41
  8
HIBINO-BASE
  6
CONTINUOUS
 62
     7
 10
180.0
 20
-997.06362999999999
 30
0.0
 11
180.0
 21
-917.06362999999988
 31
0.0
  0
LINE
  5
42
  8
HIBINO-BASE
  6
CONTINUOUS
 62
     7
 10
380.0
 20
-917.06362999999988
 30
0.0
 11
380.0
 21
-997.06362999999999
 31
0.0
  0
LINE
  5
43
  8
HIBINO-BASE
  6
CONTINUOUS
 62
     7
 10
580.0
 20
-917.06362999999988
 30
0.0
 11
580.0
 21
-997.06362999999999
 31
0.0
  0
LINE
  5
44
  8
HIBINO-BASE
  6
CONTINUOUS
 62
     7
 10
480.0
 20
-997.06362999999999
 30
0.0
 11
480.0
 21
-917.06362999999988
 31
0.0
  0
TEXT
  5
45
  8
HIBINO-BASE
 62
     7
 10
186.85231999999999
 20
-974.15445666666665
 30
0.0
 40
13.03072916666666
  1
'14.01.
 41
0.7
 11
186.85231999999999
 21
-961.12372749999997
 31
0.0
 73
     3
  0
TEXT
  5
46
  8
HIBINO-BASE
 62
     7
 10
140.0
 20
-980.93517666666651
 30
0.0
 40
13.03072916666666
  1
8
 41
0.7
 11
140.0
 21
-967.90444749999995
 31
0.0
 73
     3
  0
TEXT
  5
47
  8
HIBINO-BASE
 62
     7
 10
392.04648008827689
 20
-974.15445666666665
 30
0.0
 40
13.03072916666666
  1
N.Sasaki
 41
0.7
 11
392.04648008827689
 21
-961.12372749999997
 31
0.0
 73
     3
  0
TEXT
  5
48
  8
HIBINO-BASE
 62
     7
 10
31.066666666666841
 20
-981.25562999999966
 30
0.0
 40
26.061458333333331
  1
A4
 41
0.7
 11
31.066666666666841
 21
-955.19417166666642
 31
0.0
 73
     3
  0
TEXT
  5
49
  8
HIBINO-BASE
 62
     7
 10
7.6666666666667389
 20
-938.01926999999955
 30
0.0
 40
13.03072916666666
  1
PAPER SIZE
 41
0.7
 11
7.6666666666667398
 21
-924.98854083333299
 31
0.0
 73
     3
  0
TEXT
  5
4A
  8
HIBINO-BASE
 62
     7
 10
-662.52799999999979
 20
-1048.3330524
 30
0.0
 40
28.8003534375
  1
Hibino Corporation
 41
0.7
 11
-662.52799999999979
 21
-1019.5326989625
 31
0.0
 73
     3
  0
TEXT
  5
4B
  8
HIBINO-BASE
 62
     7
 10
400.54712000000001
 20
-1048.3330524
 30
0.0
 40
28.8003534375
  1
ヒビノ株式会社
 41
0.7
 11
400.54712000000001
 21
-1019.5326989625
 31
0.0
 73
     3
  0
LINE
  5
4C
  8
SPEC
  6
CONTINUOUS
 62
     7
 10
-659.99999999999955
 20
1002.93637
 30
0.0
 11
520.00000000000011
 21
1002.93637
 31
0.0
  0
LINE
  5
4D
  8
SPEC
  6
CONTINUOUS
 62
     7
 10
-659.99999999999955
 20
972.93637000000001
 30
0.0
 11
520.00000000000011
 21
972.93637000000001
 31
0.0
  0
LINE
  5
4E
  8
SPEC
  6
CONTINUOUS
 62
     7
 10
-659.99999999999955
 20
1002.93637
 30
0.0
 11
-659.99999999999955
 21
582.93636999999978
 31
0.0
  0
TEXT
  5
4F
  8
SPEC
 62
     7
 10
-649.99999999999955
 20
1014.082529999999
 30
0.0
 40
19.546093750000001
  1
仕様
 41
0.7
 11
-649.99999999999955
 21
1033.628623749999
 31
0.0
 73
     3
  0
LINE
  5
50
  8
SPEC
  6
CONTINUOUS
 62
     7
 10
-249.99999999999969
 20
1002.93637
 30
0.0
 11
-249.99999999999969
 21
582.93636999999978
 31
0.0
  0
LINE
  5
51
  8
SPEC
  6
CONTINUOUS
 62
     7
 10
520.00000000000011
 20
1002.93637
 30
0.0
 11
520.00000000000011
 21
582.93636999999978
 31
0.0
  0
TEXT
  5
52
  8
SPEC
 62
     7
 10
-652.79999999999961
 20
589.23971222222178
 30
0.0
 40
15.2025173611111
  1
付属品
 41
0.7
 11
-652.79999999999961
 21
604.44222958333285
 31
0.0
 73
     3
  0
TEXT
  5
53
  8
SPEC
 62
     7
 10
-652.79999999999961
 20
649.23971222222167
 30
0.0
 40
15.2025173611111
  1
寸法(W\U+00D7H\U+00D7D)
 41
0.7
 11
-652.79999999999961
 21
664.44222958333285
 31
0.0
 73
     3
  0
TEXT
  5
54
  8
SPEC
 62
     7
 10
-652.79999999999961
 20
619.23971222222178
 30
0.0
 40
15.2025173611111
  1
質量
 41
0.7
 11
-652.79999999999961
 21
634.44222958333296
 31
0.0
 73
     3
  0
TEXT
  5
55
  8
SPEC
 62
     7
 10
-242.7999999999997
 20
649.23971222222167
 30
0.0
 40
15.2025173611111
  1
187\U+00D7298\U+00D7242mm(除突起部)
 41
0.7
 11
-242.7999999999997
 21
664.44222958333285
 31
0.0
 73
     3
  0
TEXT
  5
56
  8
SPEC
 62
     7
 10
-242.7999999999997
 20
619.23971222222178
 30
0.0
 40
15.2025173611111
  1
4.9kg
 41
0.7
 11
-242.7999999999997
 21
634.44222958333296
 31
0.0
 73
     3
  0
LINE
  5
57
  8
SPEC
  6
CONTINUOUS
 62
     7
 10
-659.99999999999955
 20
942.9363699999999
 30
0.0
 11
520.00000000000011
 21
942.9363699999999
 31
0.0
  0
LINE
  5
58
  8
SPEC
  6
CONTINUOUS
 62
     7
 10
-659.99999999999955
 20
912.93636999999967
 30
0.0
 11
520.00000000000011
 21
912.93636999999967
 31
0.0
  0
LINE
  5
59
  8
SPEC
  6
CONTINUOUS
 62
     7
 10
-659.99999999999955
 20
882.93636999999956
 30
0.0
 11
520.00000000000011
 21
882.93636999999956
 31
0.0
  0
LINE
  5
5A
  8
SPEC
  6
CONTINUOUS
 62
     7
 10
-659.99999999999955
 20
852.93636999999967
 30
0.0
 11
520.00000000000011
 21
852.93636999999967
 31
0.0
  0
LINE
  5
5B
  8
SPEC
  6
CONTINUOUS
 62
     7
 10
-659.99999999999955
 20
822.93636999999956
 30
0.0
 11
520.00000000000011
 21
822.93636999999956
 31
0.0
  0
LINE
  5
5C
  8
SPEC
  6
CONTINUOUS
 62
     7
 10
-659.99999999999955
 20
792.93636999999967
 30
0.0
 11
520.00000000000011
 21
792.93636999999967
 31
0.0
  0
LINE
  5
5D
  8
SPEC
  6
CONTINUOUS
 62
     7
 10
-659.99999999999955
 20
762.93636999999967
 30
0.0
 11
520.00000000000011
 21
762.93636999999967
 31
0.0
  0
LINE
  5
5E
  8
SPEC
  6
CONTINUOUS
 62
     7
 10
-659.99999999999955
 20
732.93636999999956
 30
0.0
 11
520.00000000000011
 21
732.93636999999956
 31
0.0
  0
LINE
  5
5F
  8
SPEC
  6
CONTINUOUS
 62
     7
 10
-659.99999999999955
 20
702.93636999999956
 30
0.0
 11
520.00000000000011
 21
702.93636999999956
 31
0.0
  0
LINE
  5
60
  8
SPEC
  6
CONTINUOUS
 62
     7
 10
-659.99999999999955
 20
672.93636999999956
 30
0.0
 11
520.00000000000011
 21
672.93636999999956
 31
0.0
  0
LINE
  5
61
  8
SPEC
  6
CONTINUOUS
 62
     7
 10
-659.99999999999955
 20
642.93636999999967
 30
0.0
 11
520.00000000000011
 21
642.93636999999967
 31
0.0
  0
LINE
  5
62
  8
SPEC
  6
CONTINUOUS
 62
     7
 10
-659.99999999999955
 20
612.93636999999978
 30
0.0
 11
520.00000000000011
 21
612.93636999999978
 31
0.0
  0
LINE
  5
63
  8
SPEC
  6
CONTINUOUS
 62
     7
 10
-659.99999999999955
 20
582.93636999999978
 30
0.0
 11
520.00000000000011
 21
582.93636999999978
 31
0.0
  0
TEXT
  5
64
  8
SPEC
 62
     7
 10
-242.7999999999999
 20
979.23971222222167
 30
0.0
 40
15.2025173611111
  1
2-Wayバイアンプ
 41
0.7
 11
-242.7999999999999
 21
994.44222958333285
 31
0.0
 73
     3
  0
TEXT
  5
65
  8
SPEC
 62
     7
 10
-652.79999999999961
 20
979.23971222222167
 30
0.0
 40
15.2025173611111
  1
形式
 41
0.7
 11
-652.79999999999961
 21
994.44222958333285
 31
0.0
 73
     3
  0
TEXT
  5
66
  8
SPEC
 62
     7
 10
-652.79999999999961
 20
949.23971222222178
 30
0.0
 40
15.2025173611111
  1
周波数レンジ(-10dB)
 41
0.7
 11
-652.79999999999961
 21
964.44222958333285
 31
0.0
 73
     3
  0
TEXT
  5
67
  8
SPEC
 62
     7
 10
-242.7999999999999
 20
949.23971222222178
 30
0.0
 40
15.2025173611111
  1
43Hz～24kHz
 41
0.7
 11
-242.7999999999999
 21
964.44222958333285
 31
0.0
 73
     3
  0
TEXT
  5
68
  8
SPEC
 62
     7
 10
-242.7999999999999
 20
919.23971222222167
 30
0.0
 40
15.2025173611111
  1
108dB SPL
 41
0.7
 11
-242.7999999999999
 21
934.44222958333285
 31
0.0
 73
     3
  0
TEXT
  5
69
  8
SPEC
 62
     7
 10
-652.79999999999961
 20
919.23971222222167
 30
0.0
 40
15.2025173611111
  1
最大音圧レベル(1m)
 41
0.7
 11
-652.79999999999961
 21
934.44222958333285
 31
0.0
 73
     3
  0
TEXT
  5
6A
  8
SPEC
 62
     7
 10
-242.7999999999999
 20
889.23971222222224
 30
0.0
 40
15.2025173611111
  1
LF:130mm、HF:25mm
 41
0.7
 11
-242.7999999999999
 21
904.4422295833333
 31
0.0
 73
     3
  0
TEXT
  5
6B
  8
SPEC
 62
     7
 10
-652.79999999999961
 20
889.23971222222178
 30
0.0
 40
15.2025173611111
  1
ドライバー構成
 41
0.7
 11
-652.79999999999961
 21
904.44222958333285
 31
0.0
 73
     3
  0
TEXT
  5
6C
  8
SPEC
 62
     7
 10
-242.7999999999999
 20
859.23971222222212
 30
0.0
 40
15.2025173611111
  1
1,675Hz
 41
0.7
 11
-242.7999999999999
 21
874.4422295833333
 31
0.0
 73
     3
  0
TEXT
  5
6D
  8
SPEC
 62
     7
 10
-652.79999999999961
 20
859.23971222222178
 30
0.0
 40
15.2025173611111
  1
クロスオーバー周波数
 41
0.7
 11
-652.79999999999961
 21
874.44222958333285
 31
0.0
 73
     3
  0
TEXT
  5
6E
  8
SPEC
 62
     7
 10
-242.7999999999999
 20
829.23971222222224
 30
0.0
 40
15.2025173611111
  1
LF:41W、HF:41W
 41
0.7
 11
-242.7999999999999
 21
844.44222958333319
 31
0.0
 73
     3
  0
TEXT
  5
6F
  8
SPEC
 62
     7
 10
-652.79999999999961
 20
829.2397122222219
 30
0.0
 40
15.2025173611111
  1
パワーアンプ出力
 41
0.7
 11
-652.79999999999961
 21
844.44222958333296
 31
0.0
 73
     3
  0
TEXT
  5
70
  8
SPEC
 62
     7
 10
-652.79999999999961
 20
799.23971222222224
 30
0.0
 40
15.2025173611111
  1
入力端子・形式
 41
0.7
 11
-652.79999999999961
 21
814.4422295833333
 31
0.0
 73
     3
  0
TEXT
  5
71
  8
SPEC
 62
     7
 10
-242.7999999999999
 20
799.23971222222167
 30
0.0
 40
15.2025173611111
  1
XLR\U+00D71、標準フォーン(3P)\U+00D7、電子バランス
 41
0.7
 11
-242.7999999999999
 21
814.44222958333285
 31
0.0
 73
     3
  0
TEXT
  5
72
  8
SPEC
 62
     7
 10
-652.79999999999961
 20
769.23971222222224
 30
0.0
 40
15.2025173611111
  1
入力感度(-10dBV、1m)
 41
0.7
 11
-652.79999999999961
 21
784.4422295833333
 31
0.0
 73
     3
  0
TEXT
  5
73
  8
SPEC
 62
     7
 10
-242.7999999999999
 20
769.23971222222224
 30
0.0
 40
15.2025173611111
  1
92dB SPL
 41
0.7
 11
-242.7999999999999
 21
784.4422295833333
 31
0.0
 73
     3
  0
TEXT
  5
74
  8
SPEC
 62
     7
 10
-652.79999999999961
 20
739.23971222222224
 30
0.0
 40
15.2025173611111
  1
最大入力レベル(+4dBu)
 41
0.7
 11
-652.79999999999961
 21
754.44222958333319
 31
0.0
 73
     3
  0
TEXT
  5
75
  8
SPEC
 62
     7
 10
-242.7999999999999
 20
739.23971222222178
 30
0.0
 40
15.2025173611111
  1
+23dBu
 41
0.7
 11
-242.7999999999999
 21
754.44222958333285
 31
0.0
 73
     3
  0
TEXT
  5
76
  8
SPEC
 62
     7
 10
-652.79999999999961
 20
709.23971222222224
 30
0.0
 40
15.2025173611111
  1
電源
 41
0.7
 11
-652.79999999999961
 21
724.4422295833333
 31
0.0
 73
     3
  0
TEXT
  5
77
  8
SPEC
 62
     7
 10
-242.7999999999999
 20
709.23971222222224
 30
0.0
 40
15.2025173611111
  1
AC100V、50/60Hz
 41
0.7
 11
-242.7999999999999
 21
724.4422295833333
 31
0.0
 73
     3
  0
TEXT
  5
78
  8
SPEC
 62
     7
 10
-242.7999999999997
 20
679.23971222222178
 30
0.0
 40
15.2025173611111
  1
15W
 41
0.7
 11
-242.7999999999997
 21
694.44222958333285
 31
0.0
 73
     3
  0
TEXT
  5
79
  8
SPEC
 62
     7
 10
-652.79999999999961
 20
679.23971222222224
 30
0.0
 40
15.2025173611111
  1
消費電力(1/8出力時、ピンクノイズ)
 41
0.7
 11
-652.79999999999961
 21
694.4422295833333
 31
0.0
 73
     3
  0
TEXT
  5
7A
  8
SPEC
 62
     7
 10
-242.7999999999997
 20
589.23971222222178
 30
0.0
 40
15.2025173611111
  1
電源ケーブル、ゴム足\U+00D7 4(1 シート)
 41
0.7
 11
-242.7999999999997
 21
604.44222958333285
 31
0.0
 73
     3
  0
LINE
  5
7B
  8
DIMNSIONS
  6
CONTINUOUS
 62
     7
 10
-492.49999999999989
 20
-461.0
 30
0.0
 11
-492.49999999999989
 21
-541.0
 31
0.0
  0
LINE
  5
7C
  8
DIMNSIONS
  6
CONTINUOUS
 62
     7
 10
-305.5
 20
-461.0
 30
0.0
 11
-305.5
 21
-541.0
 31
0.0
  0
LINE
  5
7D
  8
DIMNSIONS
  6
CONTINUOUS
 62
     7
 10
-492.49999999999989
 20
-525.0
 30
0.0
 11
-305.5
 21
-525.0
 31
0.0
  0
LINE
  5
7E
  8
DIMNSIONS
  6
CONTINUOUS
 62
     7
 10
-492.49999999999989
 20
-525.0
 30
0.0
 11
-472.49501953125002
 21
-519.63968163879804
 31
0.0
  0
LINE
  5
7F
  8
DIMNSIONS
  6
CONTINUOUS
 62
     7
 10
-492.49999999999989
 20
-525.0
 30
0.0
 11
-472.49501953125002
 21
-530.36031836120173
 31
0.0
  0
LINE
  5
80
  8
DIMNSIONS
  6
CONTINUOUS
 62
     7
 10
-305.5
 20
-525.0
 30
0.0
 11
-325.50498046874998
 21
-530.36031836120173
 31
0.0
  0
LINE
  5
81
  8
DIMNSIONS
  6
CONTINUOUS
 62
     7
 10
-305.5
 20
-525.0
 30
0.0
 11
-325.50498046874998
 21
-519.63968163879804
 31
0.0
  0
TEXT
  5
82
  8
DIMNSIONS
 62
     7
 10
-420.16666666666657
 20
-517.04888888888888
 30
0.0
 40
21.717881944444461
  1
187
 41
0.7
 11
-420.16666666666657
 21
-495.33100694444443
 31
0.0
 73
     3
  0
TEXT
  5
83
  8
DIMNSIONS
 62
     7
 10
-160.0
 20
-898.90770999999995
 30
0.0
 40
19.546093750000001
  1
(単位：mm)
 41
0.7
 11
-160.0
 21
-879.36161624999988
 31
0.0
 73
     3
  0
LINE
  5
84
  8
DIMNSIONS
  6
CONTINUOUS
 62
     7
 10
-509.49999999999989
 20
192.0000000000002
 30
0.0
 11
-591.0
 21
192.0000000000002
 31
0.0
  0
LINE
  5
85
  8
DIMNSIONS
  6
CONTINUOUS
 62
     7
 10
-416.00000000000011
 20
-50.0
 30
0.0
 11
-591.0
 21
-50.0
 31
0.0
  0
LINE
  5
86
  8
DIMNSIONS
  6
CONTINUOUS
 62
     7
 10
-575.0
 20
192.0000000000002
 30
0.0
 11
-575.0
 21
-50.0
 31
0.0
  0
LINE
  5
87
  8
DIMNSIONS
  6
CONTINUOUS
 62
     7
 10
-575.0
 20
192.0000000000002
 30
0.0
 11
-569.63968163879815
 21
171.99501953125019
 31
0.0
  0
LINE
  5
88
  8
DIMNSIONS
  6
CONTINUOUS
 62
     7
 10
-575.0
 20
192.0000000000002
 30
0.0
 11
-580.36031836120185
 21
171.99501953125019
 31
0.0
  0
LINE
  5
89
  8
DIMNSIONS
  6
CONTINUOUS
 62
     7
 10
-575.0
 20
-50.0
 30
0.0
 11
-580.36031836120185
 21
-29.995019531250001
 31
0.0
  0
LINE
  5
8A
  8
DIMNSIONS
  6
CONTINUOUS
 62
     7
 10
-575.0
 20
-50.0
 30
0.0
 11
-569.63968163879815
 21
-29.995019531250001
 31
0.0
  0
TEXT
  5
8B
  8
DIMNSIONS
 62
     7
 10
-582.95111234751005
 20
49.833326604631303
 30
0.0
 40
21.717888740500278
  1
242
 50
90.0
 41
0.7
 11
-604.66900108801042
 21
49.833326604631303
 31
0.0
 73
     3
  0
LINE
  5
8C
  8
DIMNSIONS
  6
CONTINUOUS
 62
     7
 10
-509.49999999999989
 20
192.0000000000002
 30
0.0
 11
-591.0
 21
192.0000000000002
 31
0.0
  0
LINE
  5
8D
  8
DIMNSIONS
  6
CONTINUOUS
 62
     7
 10
-452.50000000004633
 20
206.00000000000031
 30
0.0
 11
-591.0
 21
206.00000000000031
 31
0.0
  0
LINE
  5
8E
  8
DIMNSIONS
  6
CONTINUOUS
 62
     7
 10
-575.0
 20
206.00000000000031
 30
0.0
 11
-575.0
 21
192.0000000000002
 31
0.0
  0
LINE
  5
8F
  8
DIMNSIONS
  6
CONTINUOUS
 62
     7
 10
-575.0
 20
192.0000000000002
 30
0.0
 11
-575.0
 21
152.0000000000002
 31
0.0
  0
LINE
  5
90
  8
DIMNSIONS
  6
CONTINUOUS
 62
     7
 10
-575.0
 20
192.0000000000002
 30
0.0
 11
-569.63968163879815
 21
171.99501953125019
 31
0.0
  0
LINE
  5
91
  8
DIMNSIONS
  6
CONTINUOUS
 62
     7
 10
-575.0
 20
192.0000000000002
 30
0.0
 11
-580.36031836120185
 21
171.99501953125019
 31
0.0
  0
LINE
  5
92
  8
DIMNSIONS
  6
CONTINUOUS
 62
     7
 10
-575.0
 20
206.00000000000031
 30
0.0
 11
-575.0
 21
262.44446059342982
 31
0.0
  0
LINE
  5
93
  8
DIMNSIONS
  6
CONTINUOUS
 62
     7
 10
-575.0
 20
206.00000000000031
 30
0.0
 11
-580.36031836120185
 21
226.00498046875029
 31
0.0
  0
LINE
  5
94
  8
DIMNSIONS
  6
CONTINUOUS
 62
     7
 10
-575.0
 20
206.00000000000031
 30
0.0
 11
-569.63968163879815
 21
226.00498046875029
 31
0.0
  0
TEXT
  5
95
  8
DIMNSIONS
 62
     7
 10
-582.95111234751005
 20
206.00000000010019
 30
0.0
 40
21.717888740500278
  1
14.0
 50
90.0
 41
0.7
 11
-604.66900108801042
 21
206.00000000010019
 31
0.0
 73
     3
  0
LINE
  5
96
  8
DIMNSIONS
  6
CONTINUOUS
 62
     7
 10
-504.49999999999989
 20
-151.99999999999969
 30
0.0
 11
-591.0
 21
-151.99999999999969
 31
0.0
  0
LINE
  5
97
  8
DIMNSIONS
  6
CONTINUOUS
 62
     7
 10
-504.49999999999989
 20
-450.0
 30
0.0
 11
-591.0
 21
-450.0
 31
0.0
  0
LINE
  5
98
  8
DIMNSIONS
  6
CONTINUOUS
 62
     7
 10
-575.0
 20
-151.99999999999969
 30
0.0
 11
-575.0
 21
-450.0
 31
0.0
  0
LINE
  5
99
  8
DIMNSIONS
  6
CONTINUOUS
 62
     7
 10
-575.0
 20
-151.99999999999969
 30
0.0
 11
-569.63968163879815
 21
-172.00498046874969
 31
0.0
  0
LINE
  5
9A
  8
DIMNSIONS
  6
CONTINUOUS
 62
     7
 10
-575.0
 20
-151.99999999999969
 30
0.0
 11
-580.36031836120185
 21
-172.00498046874969
 31
0.0
  0
LINE
  5
9B
  8
DIMNSIONS
  6
CONTINUOUS
 62
     7
 10
-575.0
 20
-450.0
 30
0.0
 11
-580.36031836120185
 21
-429.99501953125002
 31
0.0
  0
LINE
  5
9C
  8
DIMNSIONS
  6
CONTINUOUS
 62
     7
 10
-575.0
 20
-450.0
 30
0.0
 11
-569.63968163879815
 21
-429.99501953125002
 31
0.0
  0
TEXT
  5
9D
  8
DIMNSIONS
 62
     7
 10
-582.95111234751005
 20
-322.1666733953686
 30
0.0
 40
21.717888740500278
  1
298
 50
90.0
 41
0.7
 11
-604.66900108801042
 21
-322.1666733953686
 31
0.0
 73
     3
  0
LINE
  5
9E
  8
DATA
  6
CONTINUOUS
 62
     7
 10
-452.5
 20
-840.10721883726899
 30
0.0
 11
-460.5
 21
-840.10721883726899
 31
0.0
  0
LINE
  5
9F
  8
DATA
  6
CONTINUOUS
 62
     7
 10
-452.5
 20
-840.80096612223826
 30
0.0
 11
-452.5
 21
-840.10721883726899
 31
0.0
  0
ARC
  5
A0
  8
DATA
  6
CONTINUOUS
 62
     7
 10
-453.0
 20
-840.80096612223826
 30
0.0
 40
0.4999999999999217
 50
295.94447977237439
 51
0.0
  0
ARC
  5
A1
  8
DATA
  6
CONTINUOUS
 62
     7
 10
-456.5
 20
-833.60721883727024
 30
0.0
 40
8.4999999999989235
 50
251.50225541622569
 51
295.94447977237371
  0
ARC
  5
A2
  8
DATA
  6
CONTINUOUS
 62
     7
 10
-459.49928571428597
 20
-837.34494205155499
 30
0.0
 40
4.3337053571425139
 50
219.59775270905249
 51
320.40224729095519
  0
LINE
  5
A3
  8
DATA
  6
CONTINUOUS
 62
     7
 10
-456.15999999999991
 20
-840.10721883726899
 30
0.0
 11
-462.83857142857119
 21
-840.10721883726899
 31
0.0
  0
LINE
  5
A4
  8
DATA
  6
CONTINUOUS
 62
     7
 10
-493.5
 20
-429.99999999999977
 30
0.0
 11
-493.5
 21
-156.99999999999969
 31
0.0
  0
LINE
  5
A5
  8
DATA
  6
CONTINUOUS
 62
     7
 10
-493.5
 20
-445.0
 30
0.0
 11
-493.5
 21
-429.99999999999977
 31
0.0
  0
LINE
  5
A6
  8
DATA
  6
CONTINUOUS
 62
     7
 10
-478.5
 20
-339.4999999999996
 30
0.0
 11
-478.5
 21
-166.99999999999969
 31
0.0
  0
LINE
  5
A7
  8
DATA
  6
CONTINUOUS
 62
     7
 10
-468.5
 20
-249.99999999999969
 30
0.0
 11
-468.5
 21
-169.99999999999969
 31
0.0
  0
LINE
  5
A8
  8
DATA
  6
CONTINUOUS
 62
     7
 10
-473.5
 20
-450.0
 30
0.0
 11
-326.5
 21
-450.0
 31
0.0
  0
LINE
  5
A9
  8
DATA
  6
CONTINUOUS
 62
     7
 10
-326.5
 20
-450.0
 30
0.0
 11
-311.5
 21
-450.0
 31
0.0
  0
LINE
  5
AA
  8
DATA
  6
CONTINUOUS
 62
     7
 10
-488.49999999999989
 20
-450.0
 30
0.0
 11
-473.5
 21
-450.0
 31
0.0
  0
LINE
  5
AB
  8
DATA
  6
CONTINUOUS
 62
     7
 10
-306.5
 20
-429.99999999999977
 30
0.0
 11
-306.5
 21
-156.99999999999969
 31
0.0
  0
LINE
  5
AC
  8
DATA
  6
CONTINUOUS
 62
     7
 10
-306.5
 20
-445.0
 30
0.0
 11
-306.5
 21
-429.99999999999977
 31
0.0
  0
LINE
  5
AD
  8
DATA
  6
CONTINUOUS
 62
     7
 10
-321.5
 20
-339.4999999999996
 30
0.0
 11
-321.5
 21
-166.99999999999969
 31
0.0
  0
LINE
  5
AE
  8
DATA
  6
CONTINUOUS
 62
     7
 10
-331.5
 20
-249.99999999999969
 30
0.0
 11
-331.5
 21
-169.99999999999969
 31
0.0
  0
LINE
  5
AF
  8
DATA
  6
CONTINUOUS
 62
     7
 10
-311.5
 20
-151.99999999999969
 30
0.0
 11
-488.49999999999989
 21
-151.99999999999969
 31
0.0
  0
LINE
  5
B0
  8
DATA
  6
CONTINUOUS
 62
     7
 10
-321.5
 20
-166.99999999999969
 30
0.0
 11
-478.5
 21
-166.99999999999969
 31
0.0
  0
LINE
  5
B1
  8
DATA
  6
CONTINUOUS
 62
     7
 10
-331.5
 20
-169.99999999999969
 30
0.0
 11
-468.5
 21
-169.99999999999969
 31
0.0
  0
LINE
  5
B2
  8
DATA
  6
CONTINUOUS
 62
     7
 10
-331.5
 20
-249.99999999999969
 30
0.0
 11
-468.5
 21
-249.99999999999969
 31
0.0
  0
ARC
  5
B3
  8
DATA
  6
CONTINUOUS
 62
     7
 10
-488.49999999999989
 20
-445.0
 30
0.0
 40
5.0
 50
180.0
 51
270.0
  0
ARC
  5
B4
  8
DATA
  6
CONTINUOUS
 62
     7
 10
-311.5
 20
-445.0
 30
0.0
 40
5.0
 50
270.0
 51
0.0
  0
ARC
  5
B5
  8
DATA
  6
CONTINUOUS
 62
     7
 10
-311.5
 20
-156.99999999999969
 30
0.0
 40
5.0
 50
0.0
 51
90.0
  0
ARC
  5
B6
  8
DATA
  6
CONTINUOUS
 62
     7
 10
-488.49999999999989
 20
-156.99999999999969
 30
0.0
 40
5.0
 50
90.0
 51
180.0
  0
ARC
  5
B7
  8
DATA
  6
CONTINUOUS
 62
     7
 10
-473.5
 20
-429.99999999999977
 30
0.0
 40
20.0
 50
180.0
 51
270.0
  0
ARC
  5
B8
  8
DATA
  6
CONTINUOUS
 62
     7
 10
-326.5
 20
-429.99999999999977
 30
0.0
 40
20.000000000000231
 50
270.0
 51
0.0
  0
LINE
  5
B9
  8
DATA
  6
CONTINUOUS
 62
     7
 10
-478.5
 20
-166.99999999999969
 30
0.0
 11
-492.03553390593231
 21
-153.46446609406641
 31
0.0
  0
LINE
  5
BA
  8
DATA
  6
CONTINUOUS
 62
     7
 10
-321.5
 20
-166.99999999999969
 30
0.0
 11
-307.96446609406712
 21
-153.46446609406681
 31
0.0
  0
ARC
  5
BB
  8
DATA
  6
CONTINUOUS
 62
     7
 10
-400.0
 20
-339.4999999999996
 30
0.0
 40
78.5
 50
180.0
 51
0.0
  0
CIRCLE
  5
BC
  8
DATA
  6
CONTINUOUS
 62
     7
 10
-400.0
 20
-339.50330765278341
 30
0.0
 40
75.0
  0
ARC
  5
BD
  8
DATA
  6
CONTINUOUS
 62
     7
 10
-400.0000000000627
 20
-339.5033076527269
 30
0.0
 40
60.999999999914969
 50
137.80001047818519
 51
222.19998952181481
  0
ARC
  5
BE
  8
DATA
  6
CONTINUOUS
 62
     7
 10
-400.0000000000627
 20
-339.5033076527269
 30
0.0
 40
60.999999999914849
 50
227.8064659014627
 51
312.19353409853761
  0
ARC
  5
BF
  8
DATA
  6
CONTINUOUS
 62
     7
 10
-400.0000000000627
 20
-339.5033076527269
 30
0.0
 40
60.999999999915282
 50
317.80001047818558
 51
42.19998952181453
  0
ARC
  5
C0
  8
DATA
  6
CONTINUOUS
 62
     7
 10
-400.0000000000627
 20
-339.5033076527269
 30
0.0
 40
60.999999999915239
 50
47.806465901462431
 51
132.19353409853699
  0
CIRCLE
  5
C1
  8
DATA
  6
CONTINUOUS
 62
     7
 10
-400.0
 20
-339.50330765278341
 30
0.0
 40
51.499999999999908
  0
CIRCLE
  5
C2
  8
DATA
  6
CONTINUOUS
 62
     7
 10
-400.0
 20
-339.50330765278341
 30
0.0
 40
47.999999999999851
  0
CIRCLE
  5
C3
  8
DATA
  6
CONTINUOUS
 62
     7
 10
-400.0
 20
-339.50330765278341
 30
0.0
 40
23.0
  0
CIRCLE
  5
C4
  8
DATA
  6
CONTINUOUS
 62
     7
 10
-400.0
 20
-339.50330765278341
 30
0.0
 40
20.0
  0
CIRCLE
  5
C5
  8
DATA
  6
CONTINUOUS
 62
     7
 10
-447.2700926155311
 20
-292.22330306537287
 30
0.0
 40
4.3499999999993104
  0
CIRCLE
  5
C6
  8
DATA
  6
CONTINUOUS
 62
     7
 10
-447.2700926155311
 20
-292.22330306537287
 30
0.0
 40
3.249999999999992
  0
LINE
  5
C7
  8
DATA
  6
CONTINUOUS
 62
     7
 10
-448.69404103645053
 20
-296.33364014334632
 30
0.0
 11
-445.18908786694283
 21
-298.52835996820841
 31
0.0
  0
LINE
  5
C8
  8
DATA
  6
CONTINUOUS
 62
     7
 10
-440.96985604270873
 20
-294.3096034912557
 30
0.0
 11
-443.15653940828253
 21
-290.8086723675832
 31
0.0
  0
ARC
  5
C9
  8
DATA
  6
CONTINUOUS
 62
     7
 10
-446.87452643255062
 20
-292.6234996452381
 30
0.0
 40
6.1406904002911151
 50
285.93046386507319
 51
344.06308071166541
  0
CIRCLE
  5
CA
  8
DATA
  6
CONTINUOUS
 62
     7
 10
-447.2700926155311
 20
-292.22330306537287
 30
0.0
 40
3.9999999999998721
  0
CIRCLE
  5
CB
  8
DATA
  6
CONTINUOUS
 62
     7
 10
-352.72990738459367
 20
-292.22330306537287
 30
0.0
 40
4.3500000000000307
  0
CIRCLE
  5
CC
  8
DATA
  6
CONTINUOUS
 62
     7
 10
-352.72990738459367
 20
-292.22330306537287
 30
0.0
 40
3.249999999999992
  0
LINE
  5
CD
  8
DATA
  6
CONTINUOUS
 62
     7
 10
-351.30595896367453
 20
-296.33364014334632
 30
0.0
 11
-354.81091213318223
 21
-298.52835996820841
 31
0.0
  0
LINE
  5
CE
  8
DATA
  6
CONTINUOUS
 62
     7
 10
-359.03014395741639
 20
-294.3096034912557
 30
0.0
 11
-356.84346059184281
 21
-290.8086723675832
 31
0.0
  0
ARC
  5
CF
  8
DATA
  6
CONTINUOUS
 62
     7
 10
-353.12547356757523
 20
-292.6234996452381
 30
0.0
 40
6.1406904002907714
 50
195.9369192883369
 51
254.06953613493491
  0
CIRCLE
  5
D0
  8
DATA
  6
CONTINUOUS
 62
     7
 10
-352.72990738459367
 20
-292.22330306537287
 30
0.0
 40
3.9999999999998721
  0
CIRCLE
  5
D1
  8
DATA
  6
CONTINUOUS
 62
     7
 10
-447.2700926155311
 20
-386.78331224008048
 30
0.0
 40
4.3499999999993104
  0
CIRCLE
  5
D2
  8
DATA
  6
CONTINUOUS
 62
     7
 10
-447.2700926155311
 20
-386.78331224008048
 30
0.0
 40
3.249999999999992
  0
LINE
  5
D3
  8
DATA
  6
CONTINUOUS
 62
     7
 10
-448.69404103645053
 20
-382.67297516210709
 30
0.0
 11
-445.18908786694283
 21
-380.47825533724517
 31
0.0
  0
LINE
  5
D4
  8
DATA
  6
CONTINUOUS
 62
     7
 10
-440.96985604270873
 20
-384.69701181419759
 30
0.0
 11
-443.15653940828253
 21
-388.19794293787032
 31
0.0
  0
ARC
  5
D5
  8
DATA
  6
CONTINUOUS
 62
     7
 10
-446.87452643255062
 20
-386.38311566021548
 30
0.0
 40
6.1406904002916463
 50
15.936919288334639
 51
74.069536134926906
  0
CIRCLE
  5
D6
  8
DATA
  6
CONTINUOUS
 62
     7
 10
-447.2700926155311
 20
-386.78331224008048
 30
0.0
 40
3.9999999999998881
  0
CIRCLE
  5
D7
  8
DATA
  6
CONTINUOUS
 62
     7
 10
-352.72990738459367
 20
-386.78331224008048
 30
0.0
 40
4.3500000000000307
  0
CIRCLE
  5
D8
  8
DATA
  6
CONTINUOUS
 62
     7
 10
-352.72990738459367
 20
-386.78331224008048
 30
0.0
 40
3.249999999999992
  0
LINE
  5
D9
  8
DATA
  6
CONTINUOUS
 62
     7
 10
-351.30595896367453
 20
-382.67297516210709
 30
0.0
 11
-354.81091213318223
 21
-380.47825533724517
 31
0.0
  0
LINE
  5
DA
  8
DATA
  6
CONTINUOUS
 62
     7
 10
-359.03014395741639
 20
-384.69701181419759
 30
0.0
 11
-356.84346059184281
 21
-388.19794293787032
 31
0.0
  0
ARC
  5
DB
  8
DATA
  6
CONTINUOUS
 62
     7
 10
-353.12547356757523
 20
-386.38311566021548
 30
0.0
 40
6.1406904002908638
 50
105.93046386506479
 51
164.06308071166299
  0
CIRCLE
  5
DC
  8
DATA
  6
CONTINUOUS
 62
     7
 10
-352.72990738459367
 20
-386.78331224008048
 30
0.0
 40
3.9999999999998881
  0
LINE
  5
DD
  8
DATA
  6
CONTINUOUS
 62
     7
 10
-468.5
 20
-169.99999999999969
 30
0.0
 11
-414.68035332170621
 21
-201.4275309070326
 31
0.0
  0
LINE
  5
DE
  8
DATA
  6
CONTINUOUS
 62
     7
 10
-385.3196466782947
 20
-218.57246909296671
 30
0.0
 11
-331.5
 21
-249.99999999999969
 31
0.0
  0
LINE
  5
DF
  8
DATA
  6
CONTINUOUS
 62
     7
 10
-331.5
 20
-169.99999999999969
 30
0.0
 11
-385.31964667829283
 21
-201.42753090703241
 31
0.0
  0
LINE
  5
E0
  8
DATA
  6
CONTINUOUS
 62
     7
 10
-414.68035332170621
 20
-218.57246909296691
 30
0.0
 11
-468.5
 21
-249.99999999999969
 31
0.0
  0
CIRCLE
  5
E1
  8
DATA
  6
CONTINUOUS
 62
     7
 10
-400.0
 20
-209.99999999999969
 30
0.0
 40
13.5
  0
CIRCLE
  5
E2
  8
DATA
  6
CONTINUOUS
 62
     7
 10
-400.0
 20
-209.99999999999969
 30
0.0
 40
17.0
  0
LINE
  5
E3
  8
DATA
  6
CONTINUOUS
 62
     7
 10
-407.0
 20
-258.0033076527838
 30
0.0
 11
-407.0
 21
-256.0033076527838
 31
0.0
  0
LINE
  5
E4
  8
DATA
  6
CONTINUOUS
 62
     7
 10
-403.5
 20
-258.0033076527838
 30
0.0
 11
-403.5
 21
-256.0033076527838
 31
0.0
  0
LINE
  5
E5
  8
DATA
  6
CONTINUOUS
 62
     7
 10
-393.0
 20
-258.0033076527838
 30
0.0
 11
-407.0
 21
-258.0033076527838
 31
0.0
  0
LINE
  5
E6
  8
DATA
  6
CONTINUOUS
 62
     7
 10
-393.0
 20
-256.0033076527838
 30
0.0
 11
-393.0
 21
-258.0033076527838
 31
0.0
  0
LINE
  5
E7
  8
DATA
  6
CONTINUOUS
 62
     7
 10
-396.5
 20
-256.0033076527838
 30
0.0
 11
-396.5
 21
-258.0033076527838
 31
0.0
  0
LINE
  5
E8
  8
DATA
  6
CONTINUOUS
 62
     7
 10
-407.0
 20
-256.0033076527838
 30
0.0
 11
-393.0
 21
-256.0033076527838
 31
0.0
  0
LINE
  5
E9
  8
DATA
  6
CONTINUOUS
 62
     7
 10
-414.0
 20
-444.0
 30
0.0
 11
-414.0
 21
-424.99999999999977
 31
0.0
  0
LINE
  5
EA
  8
DATA
  6
CONTINUOUS
 62
     7
 10
-386.0
 20
-444.0
 30
0.0
 11
-414.0
 21
-444.0
 31
0.0
  0
LINE
  5
EB
  8
DATA
  6
CONTINUOUS
 62
     7
 10
-386.0
 20
-424.99999999999977
 30
0.0
 11
-386.0
 21
-444.0
 31
0.0
  0
LINE
  5
EC
  8
DATA
  6
CONTINUOUS
 62
     7
 10
-414.0
 20
-424.99999999999977
 30
0.0
 11
-386.0
 21
-424.99999999999977
 31
0.0
  0
LINE
  5
ED
  8
DATA
  6
CONTINUOUS
 62
     7
 10
-409.49999999999989
 20
-444.0
 30
0.0
 11
-409.49999999999989
 21
-424.99999999999977
 31
0.0
  0
LINE
  5
EE
  8
DATA
  6
CONTINUOUS
 62
     7
 10
-390.5
 20
-424.99999999999977
 30
0.0
 11
-390.5
 21
-444.0
 31
0.0
  0
LINE
  5
EF
  8
DATA
  6
CONTINUOUS
 62
     7
 10
-306.5
 20
-637.10721883726933
 30
0.0
 11
-306.5
 21
-840.10721883726899
 31
0.0
  0
LINE
  5
F0
  8
DATA
  6
CONTINUOUS
 62
     7
 10
-493.5
 20
-637.10721883726933
 30
0.0
 11
-306.5
 21
-637.10721883726933
 31
0.0
  0
LINE
  5
F1
  8
DATA
  6
CONTINUOUS
 62
     7
 10
-493.5
 20
-840.10721883726899
 30
0.0
 11
-493.5
 21
-637.10721883726933
 31
0.0
  0
LINE
  5
F2
  8
DATA
  6
CONTINUOUS
 62
     7
 10
-306.5
 20
-840.10721883726899
 30
0.0
 11
-493.5
 21
-840.10721883726899
 31
0.0
  0
LINE
  5
F3
  8
DATA
  6
CONTINUOUS
 62
     7
 10
-307.5
 20
-636.10721883726933
 30
0.0
 11
-307.5
 21
-637.10721883726933
 31
0.0
  0
LINE
  5
F4
  8
DATA
  6
CONTINUOUS
 62
     7
 10
-492.49999999999989
 20
-636.10721883726933
 30
0.0
 11
-307.5
 21
-636.10721883726933
 31
0.0
  0
LINE
  5
F5
  8
DATA
  6
CONTINUOUS
 62
     7
 10
-492.49999999999989
 20
-637.10721883726933
 30
0.0
 11
-492.49999999999989
 21
-636.10721883726933
 31
0.0
  0
LINE
  5
F6
  8
DATA
  6
CONTINUOUS
 62
     7
 10
-307.5
 20
-637.10721883726933
 30
0.0
 11
-492.49999999999989
 21
-637.10721883726933
 31
0.0
  0
LINE
  5
F7
  8
DATA
  6
CONTINUOUS
 62
     7
 10
-306.5
 20
-614.10721883726933
 30
0.0
 11
-306.5
 21
-636.10721883726933
 31
0.0
  0
LINE
  5
F8
  8
DATA
  6
CONTINUOUS
 62
     7
 10
-493.5
 20
-636.10721883726933
 30
0.0
 11
-493.5
 21
-614.10721883726933
 31
0.0
  0
LINE
  5
F9
  8
DATA
  6
CONTINUOUS
 62
     7
 10
-490.5
 20
-636.10721883726933
 30
0.0
 11
-473.5
 21
-610.2177692258216
 31
0.0
  0
LINE
  5
FA
  8
DATA
  6
CONTINUOUS
 62
     7
 10
-306.5
 20
-636.10721883726933
 30
0.0
 11
-493.5
 21
-636.10721883726933
 31
0.0
  0
ARC
  5
FB
  8
DATA
  6
CONTINUOUS
 62
     7
 10
-327.5
 20
-836.59159383726899
 30
0.0
 40
5.515625
 50
219.5977527090497
 51
320.40224729095007
  0
LINE
  5
FC
  8
DATA
  6
CONTINUOUS
 62
     7
 10
-339.5
 20
-840.10721883726899
 30
0.0
 11
-339.5
 21
-840.80096612223826
 31
0.0
  0
LINE
  5
FD
  8
DATA
  6
CONTINUOUS
 62
     7
 10
-347.5
 20
-840.10721883726899
 30
0.0
 11
-339.5
 21
-840.10721883726899
 31
0.0
  0
LINE
  5
FE
  8
DATA
  6
CONTINUOUS
 62
     7
 10
-347.5
 20
-840.80096612223826
 30
0.0
 11
-347.5
 21
-840.10721883726899
 31
0.0
  0
ARC
  5
FF
  8
DATA
  6
CONTINUOUS
 62
     7
 10
-340.0
 20
-840.80096612223826
 30
0.0
 40
0.4999999999999217
 50
295.94447977237439
 51
0.0
  0
ARC
  5
100
  8
DATA
  6
CONTINUOUS
 62
     7
 10
-347.0
 20
-840.80096612223826
 30
0.0
 40
0.5
 50
180.0
 51
244.05552022762549
  0
ARC
  5
101
  8
DATA
  6
CONTINUOUS
 62
     7
 10
-343.5
 20
-833.60721883727024
 30
0.0
 40
8.4999999999990727
 50
244.05552022762689
 51
295.94447977237292
  0
LINE
  5
102
  8
DATA
  6
CONTINUOUS
 62
     7
 10
-364.0
 20
-840.10721883726899
 30
0.0
 11
-356.0
 21
-840.10721883726899
 31
0.0
  0
ARC
  5
103
  8
DATA
  6
CONTINUOUS
 62
     7
 10
-472.5
 20
-836.59159383726899
 30
0.0
 40
5.515625
 50
219.5977527090497
 51
320.40224729095007
  0
LINE
  5
104
  8
DATA
  6
CONTINUOUS
 62
     7
 10
-452.5
 20
-840.10721883726899
 30
0.0
 11
-460.5
 21
-840.10721883726899
 31
0.0
  0
ARC
  5
105
  8
DATA
  6
CONTINUOUS
 62
     7
 10
-360.0
 20
-836.59159383726899
 30
0.0
 40
5.515625
 50
219.5977527090497
 51
320.40224729095007
  0
LINE
  5
106
  8
DATA
  6
CONTINUOUS
 62
     7
 10
-436.0
 20
-840.10721883726899
 30
0.0
 11
-444.0
 21
-840.10721883726899
 31
0.0
  0
ARC
  5
107
  8
DATA
  6
CONTINUOUS
 62
     7
 10
-440.0
 20
-836.59159383726899
 30
0.0
 40
5.515625
 50
219.5977527090497
 51
320.40224729095007
  0
LINE
  5
108
  8
DATA
  6
CONTINUOUS
 62
     7
 10
-430.00000000004638
 20
-840.10721883726899
 30
0.0
 11
-430.00000000004638
 21
-854.10721883726933
 31
0.0
  0
LINE
  5
109
  8
DATA
  6
CONTINUOUS
 62
     7
 10
-423.50000000004633
 20
-854.10721883726933
 30
0.0
 11
-436.50000000004621
 21
-854.10721883726933
 31
0.0
  0
LINE
  5
10A
  8
DATA
  6
CONTINUOUS
 62
     7
 10
-423.00000000004638
 20
-853.10943767453875
 30
0.0
 11
-437.00000000004633
 21
-853.10943767453875
 31
0.0
  0
LINE
  5
10B
  8
DATA
  6
CONTINUOUS
 62
     7
 10
-423.50000000004633
 20
-854.10721883726933
 30
0.0
 11
-423.00000000004638
 21
-853.10943767453875
 31
0.0
  0
LINE
  5
10C
  8
DATA
  6
CONTINUOUS
 62
     7
 10
-436.50000000004621
 20
-854.10721883726933
 30
0.0
 11
-437.07606922294048
 21
-853.10943767453875
 31
0.0
  0
LINE
  5
10D
  8
DATA
  6
CONTINUOUS
 62
     7
 10
-423.00000000004638
 20
-853.10943767453875
 30
0.0
 11
-422.50000000004638
 21
-840.10721883726899
 31
0.0
  0
LINE
  5
10E
  8
DATA
  6
CONTINUOUS
 62
     7
 10
-437.00000000004633
 20
-853.10943767453875
 30
0.0
 11
-437.44717555112481
 21
-841.48088892693613
 31
0.0
  0
LINE
  5
10F
  8
DATA
  6
CONTINUOUS
 62
     7
 10
-422.50000000004638
 20
-840.10721883726899
 30
0.0
 11
-437.50000000004633
 21
-840.10721883726899
 31
0.0
  0
LINE
  5
110
  8
DATA
  6
CONTINUOUS
 62
     7
 10
-390.5
 20
-601.00000000000011
 30
0.0
 11
-409.49999999999989
 21
-601.00000000000011
 31
0.0
  0
LINE
  5
111
  8
DATA
  6
CONTINUOUS
 62
     7
 10
-409.49999999999989
 20
-601.00000000000011
 30
0.0
 11
-409.49999999999989
 21
-604.08550383403065
 31
0.0
  0
LINE
  5
112
  8
DATA
  6
CONTINUOUS
 62
     7
 10
-390.5
 20
-601.00000000000011
 30
0.0
 11
-390.5
 21
-604.11757201359273
 31
0.0
  0
LINE
  5
113
  8
DATA
  6
CONTINUOUS
 62
     7
 10
-306.5
 20
-614.10721883726933
 30
0.0
 11
-318.5
 21
-608.33000000000015
 31
0.0
  0
LINE
  5
114
  8
DATA
  6
CONTINUOUS
 62
     7
 10
-493.5
 20
-614.10721883726933
 30
0.0
 11
-481.5
 21
-608.33000000000015
 31
0.0
  0
ARC
  5
115
  8
DATA
  6
CONTINUOUS
 62
     7
 10
-400.0
 20
-1002.859477791108
 30
0.0
 40
402.85947779110847
 50
78.328289053698896
 51
101.6717109463011
  0
ARC
  5
116
  8
DATA
  6
CONTINUOUS
 62
     7
 10
-400.0
 20
-1041.5291568839791
 30
0.0
 40
437.52915688397923
 50
77.660727091397703
 51
102.3392729086023
  0
LINE
  5
117
  8
DATA
  6
CONTINUOUS
 62
     7
 10
-309.5
 20
-636.10721883726933
 30
0.0
 11
-326.5
 21
-610.2177692258216
 31
0.0
  0
LINE
  5
118
  8
DATA
  6
CONTINUOUS
 62
     7
 10
-401.0
 20
-840.10721883726899
 30
0.0
 11
-384.0
 21
-840.10721883726899
 31
0.0
  0
LINE
  5
119
  8
DATA
  6
CONTINUOUS
 62
     7
 10
-401.0
 20
-842.10721883726944
 30
0.0
 11
-401.0
 21
-840.10721883726899
 31
0.0
  0
LINE
  5
11A
  8
DATA
  6
CONTINUOUS
 62
     7
 10
-384.0
 20
-842.10721883726944
 30
0.0
 11
-401.0
 21
-842.10721883726944
 31
0.0
  0
LINE
  5
11B
  8
DATA
  6
CONTINUOUS
 62
     7
 10
-384.0
 20
-840.10721883726899
 30
0.0
 11
-384.0
 21
-842.10721883726944
 31
0.0
  0
LINE
  5
11C
  8
DATA
  6
CONTINUOUS
 62
     7
 10
-400.0
 20
-842.10721883726944
 30
0.0
 11
-385.0
 21
-842.10721883726944
 31
0.0
  0
LINE
  5
11D
  8
DATA
  6
CONTINUOUS
 62
     7
 10
-400.0
 20
-846.10721883726933
 30
0.0
 11
-400.0
 21
-842.10721883726944
 31
0.0
  0
LINE
  5
11E
  8
DATA
  6
CONTINUOUS
 62
     7
 10
-385.0
 20
-846.10721883726933
 30
0.0
 11
-400.0
 21
-846.10721883726933
 31
0.0
  0
LINE
  5
11F
  8
DATA
  6
CONTINUOUS
 62
     7
 10
-385.0
 20
-842.10721883726944
 30
0.0
 11
-385.0
 21
-846.10721883726933
 31
0.0
  0
LINE
  5
120
  8
DATA
  6
CONTINUOUS
 62
     7
 10
-397.75
 20
-846.10721883726933
 30
0.0
 11
-387.25
 21
-846.10721883726933
 31
0.0
  0
LINE
  5
121
  8
DATA
  6
CONTINUOUS
 62
     7
 10
-397.75
 20
-848.10721883726899
 30
0.0
 11
-397.75
 21
-846.10721883726933
 31
0.0
  0
LINE
  5
122
  8
DATA
  6
CONTINUOUS
 62
     7
 10
-387.25
 20
-848.10721883726899
 30
0.0
 11
-397.75
 21
-848.10721883726899
 31
0.0
  0
LINE
  5
123
  8
DATA
  6
CONTINUOUS
 62
     7
 10
-387.25
 20
-846.10721883726933
 30
0.0
 11
-387.25
 21
-848.10721883726899
 31
0.0
  0
LINE
  5
124
  8
DATA
  6
CONTINUOUS
 62
     7
 10
-306.5
 20
-10.999999999999771
 30
0.0
 11
-306.5
 21
192.0000000000002
 31
0.0
  0
LINE
  5
125
  8
DATA
  6
CONTINUOUS
 62
     7
 10
-493.5
 20
-10.999999999999771
 30
0.0
 11
-306.5
 21
-10.999999999999771
 31
0.0
  0
LINE
  5
126
  8
DATA
  6
CONTINUOUS
 62
     7
 10
-493.5
 20
192.0000000000002
 30
0.0
 11
-493.5
 21
-10.999999999999771
 31
0.0
  0
LINE
  5
127
  8
DATA
  6
CONTINUOUS
 62
     7
 10
-306.5
 20
192.0000000000002
 30
0.0
 11
-493.5
 21
192.0000000000002
 31
0.0
  0
LINE
  5
128
  8
DATA
  6
CONTINUOUS
 62
     7
 10
-307.5
 20
-11.999999999999771
 30
0.0
 11
-307.5
 21
-10.999999999999771
 31
0.0
  0
LINE
  5
129
  8
DATA
  6
CONTINUOUS
 62
     7
 10
-492.49999999999989
 20
-11.999999999999771
 30
0.0
 11
-307.5
 21
-11.999999999999771
 31
0.0
  0
LINE
  5
12A
  8
DATA
  6
CONTINUOUS
 62
     7
 10
-492.49999999999989
 20
-10.999999999999771
 30
0.0
 11
-492.49999999999989
 21
-11.999999999999771
 31
0.0
  0
LINE
  5
12B
  8
DATA
  6
CONTINUOUS
 62
     7
 10
-307.5
 20
-10.999999999999771
 30
0.0
 11
-492.49999999999989
 21
-10.999999999999771
 31
0.0
  0
LINE
  5
12C
  8
DATA
  6
CONTINUOUS
 62
     7
 10
-306.5
 20
-33.999999999999773
 30
0.0
 11
-306.5
 21
-11.999999999999771
 31
0.0
  0
LINE
  5
12D
  8
DATA
  6
CONTINUOUS
 62
     7
 10
-493.5
 20
-11.999999999999771
 30
0.0
 11
-493.5
 21
-33.999999999999773
 31
0.0
  0
LINE
  5
12E
  8
DATA
  6
CONTINUOUS
 62
     7
 10
-306.5
 20
-11.999999999999771
 30
0.0
 11
-493.5
 21
-11.999999999999771
 31
0.0
  0
ARC
  5
12F
  8
DATA
  6
CONTINUOUS
 62
     7
 10
-400.0
 20
357.87499999998892
 30
0.0
 40
402.8749999999888
 50
256.58032638448572
 51
283.41967361551428
  0
LINE
  5
130
  8
DATA
  6
CONTINUOUS
 62
     7
 10
-493.5
 20
-33.999999999999773
 30
0.0
 11
-481.5
 21
-41.669999999999852
 31
0.0
  0
LINE
  5
131
  8
DATA
  6
CONTINUOUS
 62
     7
 10
-306.5
 20
-33.999999999999773
 30
0.0
 11
-318.5
 21
-41.669999999999852
 31
0.0
  0
ARC
  5
132
  8
DATA
  6
CONTINUOUS
 62
     7
 10
-400.0
 20
352.8594777911087
 30
0.0
 40
402.85947779110859
 50
258.32828905369888
 51
281.67171094630112
  0
ARC
  5
133
  8
DATA
  6
CONTINUOUS
 62
     7
 10
-327.5
 20
188.4843750000002
 30
0.0
 40
5.515625
 50
39.59775270904985
 51
140.4022472909501
  0
LINE
  5
134
  8
DATA
  6
CONTINUOUS
 62
     7
 10
-347.5
 20
192.0000000000002
 30
0.0
 11
-339.5
 21
192.0000000000002
 31
0.0
  0
LINE
  5
135
  8
DATA
  6
CONTINUOUS
 62
     7
 10
-347.5
 20
192.69374728496931
 30
0.0
 11
-347.5
 21
192.0000000000002
 31
0.0
  0
ARC
  5
136
  8
DATA
  6
CONTINUOUS
 62
     7
 10
-347.0
 20
192.69374728496931
 30
0.0
 40
0.4999999999999217
 50
115.94447977237439
 51
180.0
  0
ARC
  5
137
  8
DATA
  6
CONTINUOUS
 62
     7
 10
-343.5
 20
185.50000000000131
 30
0.0
 40
8.4999999999989235
 50
71.502255416225694
 51
115.9444797723737
  0
LINE
  5
138
  8
DATA
  6
CONTINUOUS
 62
     7
 10
-364.0
 20
192.0000000000002
 30
0.0
 11
-356.0
 21
192.0000000000002
 31
0.0
  0
ARC
  5
139
  8
DATA
  6
CONTINUOUS
 62
     7
 10
-472.5
 20
188.4843750000002
 30
0.0
 40
5.515625
 50
39.59775270904985
 51
140.4022472909501
  0
LINE
  5
13A
  8
DATA
  6
CONTINUOUS
 62
     7
 10
-460.5
 20
192.0000000000002
 30
0.0
 11
-460.5
 21
192.69374728496931
 31
0.0
  0
LINE
  5
13B
  8
DATA
  6
CONTINUOUS
 62
     7
 10
-452.5
 20
192.0000000000002
 30
0.0
 11
-460.5
 21
192.0000000000002
 31
0.0
  0
LINE
  5
13C
  8
DATA
  6
CONTINUOUS
 62
     7
 10
-452.5
 20
192.69374728496931
 30
0.0
 11
-452.5
 21
192.0000000000002
 31
0.0
  0
ARC
  5
13D
  8
DATA
  6
CONTINUOUS
 62
     7
 10
-460.0
 20
192.69374728496931
 30
0.0
 40
0.4999999999999217
 50
115.94447977237439
 51
180.0
  0
ARC
  5
13E
  8
DATA
  6
CONTINUOUS
 62
     7
 10
-453.0
 20
192.69374728496931
 30
0.0
 40
0.5
 50
0.0
 51
64.055520227625621
  0
ARC
  5
13F
  8
DATA
  6
CONTINUOUS
 62
     7
 10
-456.5
 20
185.50000000000131
 30
0.0
 40
8.499999999998872
 50
64.055520227626289
 51
115.9444797723737
  0
ARC
  5
140
  8
DATA
  6
CONTINUOUS
 62
     7
 10
-360.0
 20
188.4843750000002
 30
0.0
 40
5.515625
 50
39.59775270904985
 51
140.4022472909501
  0
LINE
  5
141
  8
DATA
  6
CONTINUOUS
 62
     7
 10
-436.0
 20
192.0000000000002
 30
0.0
 11
-444.0
 21
192.0000000000002
 31
0.0
  0
ARC
  5
142
  8
DATA
  6
CONTINUOUS
 62
     7
 10
-440.0
 20
188.4843750000002
 30
0.0
 40
5.515625
 50
39.59775270904985
 51
140.4022472909501
  0
LINE
  5
143
  8
DATA
  6
CONTINUOUS
 62
     7
 10
-430.00000000004638
 20
192.0000000000002
 30
0.0
 11
-430.00000000004638
 21
206.00000000000031
 31
0.0
  0
LINE
  5
144
  8
DATA
  6
CONTINUOUS
 62
     7
 10
-423.50000000004633
 20
206.00000000000031
 30
0.0
 11
-436.50000000004621
 21
206.00000000000031
 31
0.0
  0
LINE
  5
145
  8
DATA
  6
CONTINUOUS
 62
     7
 10
-423.00000000004638
 20
205.0022188372696
 30
0.0
 11
-437.00000000004633
 21
205.0022188372696
 31
0.0
  0
LINE
  5
146
  8
DATA
  6
CONTINUOUS
 62
     7
 10
-423.50000000004633
 20
206.00000000000031
 30
0.0
 11
-423.00000000004638
 21
205.0022188372696
 31
0.0
  0
LINE
  5
147
  8
DATA
  6
CONTINUOUS
 62
     7
 10
-436.50000000004621
 20
206.00000000000031
 30
0.0
 11
-437.07606922294048
 21
205.0022188372696
 31
0.0
  0
LINE
  5
148
  8
DATA
  6
CONTINUOUS
 62
     7
 10
-423.00000000004638
 20
205.0022188372696
 30
0.0
 11
-422.50000000004638
 21
192.0000000000002
 31
0.0
  0
LINE
  5
149
  8
DATA
  6
CONTINUOUS
 62
     7
 10
-437.00000000004633
 20
205.0022188372696
 30
0.0
 11
-437.44717555112481
 21
193.37367008966751
 31
0.0
  0
LINE
  5
14A
  8
DATA
  6
CONTINUOUS
 62
     7
 10
-422.50000000004638
 20
192.0000000000002
 30
0.0
 11
-437.50000000004633
 21
192.0000000000002
 31
0.0
  0
LINE
  5
14B
  8
DATA
  6
CONTINUOUS
 62
     7
 10
-384.0
 20
192.0000000000002
 30
0.0
 11
-401.0
 21
192.0000000000002
 31
0.0
  0
LINE
  5
14C
  8
DATA
  6
CONTINUOUS
 62
     7
 10
-384.0
 20
194.0000000000002
 30
0.0
 11
-384.0
 21
192.0000000000002
 31
0.0
  0
LINE
  5
14D
  8
DATA
  6
CONTINUOUS
 62
     7
 10
-401.0
 20
194.0000000000002
 30
0.0
 11
-384.0
 21
194.0000000000002
 31
0.0
  0
LINE
  5
14E
  8
DATA
  6
CONTINUOUS
 62
     7
 10
-401.0
 20
192.0000000000002
 30
0.0
 11
-401.0
 21
194.0000000000002
 31
0.0
  0
LINE
  5
14F
  8
DATA
  6
CONTINUOUS
 62
     7
 10
-385.0
 20
194.0000000000002
 30
0.0
 11
-400.0
 21
194.0000000000002
 31
0.0
  0
LINE
  5
150
  8
DATA
  6
CONTINUOUS
 62
     7
 10
-385.0
 20
198.0000000000002
 30
0.0
 11
-385.0
 21
194.0000000000002
 31
0.0
  0
LINE
  5
151
  8
DATA
  6
CONTINUOUS
 62
     7
 10
-400.0
 20
198.0000000000002
 30
0.0
 11
-385.0
 21
198.0000000000002
 31
0.0
  0
LINE
  5
152
  8
DATA
  6
CONTINUOUS
 62
     7
 10
-400.0
 20
194.0000000000002
 30
0.0
 11
-400.0
 21
198.0000000000002
 31
0.0
  0
LINE
  5
153
  8
DATA
  6
CONTINUOUS
 62
     7
 10
-387.25
 20
198.0000000000002
 30
0.0
 11
-397.75
 21
198.0000000000002
 31
0.0
  0
LINE
  5
154
  8
DATA
  6
CONTINUOUS
 62
     7
 10
-387.25
 20
200.00000000000031
 30
0.0
 11
-387.25
 21
198.0000000000002
 31
0.0
  0
LINE
  5
155
  8
DATA
  6
CONTINUOUS
 62
     7
 10
-397.75
 20
200.00000000000031
 30
0.0
 11
-387.25
 21
200.00000000000031
 31
0.0
  0
LINE
  5
156
  8
DATA
  6
CONTINUOUS
 62
     7
 10
-397.75
 20
198.0000000000002
 30
0.0
 11
-397.75
 21
200.00000000000031
 31
0.0
  0
LINE
  5
157
  8
DATA
  6
CONTINUOUS
 62
     7
 10
-161.02830498037011
 20
-450.0
 30
0.0
 11
-161.02830498037011
 21
-151.99999999999969
 31
0.0
  0
LINE
  5
158
  8
DATA
  6
CONTINUOUS
 62
     7
 10
41.971695019629813
 20
-450.0
 30
0.0
 11
-161.02830498037011
 21
-450.0
 31
0.0
  0
LINE
  5
159
  8
DATA
  6
CONTINUOUS
 62
     7
 10
41.971695019629813
 20
-151.99999999999969
 30
0.0
 11
41.971695019629813
 21
-450.0
 31
0.0
  0
LINE
  5
15A
  8
DATA
  6
CONTINUOUS
 62
     7
 10
-161.02830498037011
 20
-151.99999999999969
 30
0.0
 11
41.971695019629813
 21
-151.99999999999969
 31
0.0
  0
LINE
  5
15B
  8
DATA
  6
CONTINUOUS
 62
     7
 10
-162.02830498037019
 20
-449.0
 30
0.0
 11
-162.02830498037019
 21
-152.99999999999969
 31
0.0
  0
LINE
  5
15C
  8
DATA
  6
CONTINUOUS
 62
     7
 10
-161.02830498037011
 20
-449.0
 30
0.0
 11
-162.02830498037019
 21
-449.0
 31
0.0
  0
LINE
  5
15D
  8
DATA
  6
CONTINUOUS
 62
     7
 10
-161.02830498037011
 20
-152.99999999999969
 30
0.0
 11
-161.02830498037011
 21
-449.0
 31
0.0
  0
LINE
  5
15E
  8
DATA
  6
CONTINUOUS
 62
     7
 10
-162.02830498037019
 20
-152.99999999999969
 30
0.0
 11
-161.02830498037011
 21
-152.99999999999969
 31
0.0
  0
LINE
  5
15F
  8
DATA
  6
CONTINUOUS
 62
     7
 10
-162.02830498037019
 20
-151.99999999999969
 30
0.0
 11
-184.02830498037011
 21
-151.99999999999969
 31
0.0
  0
LINE
  5
160
  8
DATA
  6
CONTINUOUS
 62
     7
 10
-195.484153136359
 20
-153.3675444679661
 30
0.0
 11
-199.9256715764713
 21
-166.69209978830321
 31
0.0
  0
LINE
  5
161
  8
DATA
  6
CONTINUOUS
 62
     7
 10
-200.02830498037011
 20
-167.32455532033691
 30
0.0
 11
-200.02830498037011
 21
-169.99999999999969
 31
0.0
  0
LINE
  5
162
  8
DATA
  6
CONTINUOUS
 62
     7
 10
-184.02830498037011
 20
-153.99999999999969
 30
0.0
 11
-184.02830498037011
 21
-431.19999999999982
 31
0.0
  0
LINE
  5
163
  8
DATA
  6
CONTINUOUS
 62
     7
 10
-190.02830498037011
 20
-166.99999999999969
 30
0.0
 11
-190.02830498037011
 21
-340.79999999999973
 31
0.0
  0
LINE
  5
164
  8
DATA
  6
CONTINUOUS
 62
     7
 10
-193.5867865402578
 20
-151.99999999999969
 30
0.0
 11
-186.02830498037011
 21
-151.99999999999969
 31
0.0
  0
LINE
  5
165
  8
DATA
  6
CONTINUOUS
 62
     7
 10
-186.02830498037011
 20
-151.99999999999969
 30
0.0
 11
-184.02830498037011
 21
-151.99999999999969
 31
0.0
  0
ARC
  5
166
  8
DATA
  6
CONTINUOUS
 62
     7
 10
-186.02830498037011
 20
-153.99999999999969
 30
0.0
 40
2.0
 50
0.0
 51
90.0
  0
LINE
  5
167
  8
DATA
  6
CONTINUOUS
 62
     7
 10
-184.37697588312901
 20
-152.87167725689659
 30
0.0
 11
-190.02830498037011
 21
-166.99999999999969
 31
0.0
  0
LINE
  5
168
  8
DATA
  6
CONTINUOUS
 62
     7
 10
-190.02830498037011
 20
-166.99999999999969
 30
0.0
 11
-200.00179524992839
 21
-166.99999999999969
 31
0.0
  0
LINE
  5
169
  8
DATA
  6
CONTINUOUS
 62
     7
 10
-192.02830498037011
 20
-169.99999999999969
 30
0.0
 11
-192.02830498037011
 21
-249.99999999999969
 31
0.0
  0
ARC
  5
16A
  8
DATA
  6
CONTINUOUS
 62
     7
 10
-184.0739946355433
 20
-170.16896551724159
 30
0.0
 40
15.955205041774439
 50
179.39322672720709
 51
240.0965358666771
  0
ARC
  5
16B
  8
DATA
  6
CONTINUOUS
 62
     7
 10
-184.0739946355433
 20
-245.8310344827579
 30
0.0
 40
15.95520504177439
 50
119.9034641333229
 51
180.60677327279279
  0
LINE
  5
16C
  8
DATA
  6
CONTINUOUS
 62
     7
 10
-200.02830498037011
 20
-245.99999999999969
 30
0.0
 11
-200.02830498037011
 21
-264.2949372668935
 31
0.0
  0
ARC
  5
16D
  8
DATA
  6
CONTINUOUS
 62
     7
 10
-563.84830928790757
 20
-341.25085763997208
 30
0.0
 40
371.826817165428
 50
348.13474584382971
 51
11.87983657389287
  0
LINE
  5
16E
  8
DATA
  6
CONTINUOUS
 62
     7
 10
-186.02830498037011
 20
-450.0
 30
0.0
 11
-195.20702668635931
 21
-450.0
 31
0.0
  0
LINE
  5
16F
  8
DATA
  6
CONTINUOUS
 62
     7
 10
-162.02830498037019
 20
-450.0
 30
0.0
 11
-186.02830498037011
 21
-450.0
 31
0.0
  0
LINE
  5
170
  8
DATA
  6
CONTINUOUS
 62
     7
 10
-199.52830498037011
 20
-444.0
 30
0.0
 11
-199.52830498037011
 21
-424.99999999999977
 31
0.0
  0
LINE
  5
171
  8
DATA
  6
CONTINUOUS
 62
     7
 10
-197.590776990834
 20
-444.0
 30
0.0
 11
-199.52830498037011
 21
-444.0
 31
0.0
  0
LINE
  5
172
  8
DATA
  6
CONTINUOUS
 62
     7
 10
-199.52830498037011
 20
-424.99999999999977
 30
0.0
 11
-199.37193835730341
 21
-424.99999999999977
 31
0.0
  0
LINE
  5
173
  8
DATA
  6
CONTINUOUS
 62
     7
 10
-200.0
 20
-418.3003424418016
 30
0.0
 11
-197.198296001724
 21
-448.18667220919809
 31
0.0
  0
LINE
  5
174
  8
DATA
  6
CONTINUOUS
 62
     7
 10
-162.02830498037019
 20
-450.0
 30
0.0
 11
-162.02830498037019
 21
-151.99999999999969
 31
0.0
  0
LINE
  5
175
  8
DATA
  6
CONTINUOUS
 62
     7
 10
-184.02830498037011
 20
-429.99999999999977
 30
0.0
 11
-162.02830498037019
 21
-448.0
 31
0.0
  0
LINE
  5
176
  8
DATA
  6
CONTINUOUS
 62
     7
 10
-184.02830498037011
 20
-431.19999999999982
 30
0.0
 11
-184.8283049803704
 21
-441.30000000000001
 31
0.0
  0
ARC
  5
177
  8
DATA
  6
CONTINUOUS
 62
     7
 10
-561.80109032663768
 20
-334.46138506837377
 30
0.0
 40
371.82681716542862
 50
346.74925738534699
 51
0.9767812846387753
  0
ARC
  5
178
  8
DATA
  6
CONTINUOUS
 62
     7
 10
-198.02830498037011
 20
-167.32455532033649
 30
0.0
 40
2.0000000000000111
 50
161.5650511770892
 51
180.00000000000969
  0
ARC
  5
179
  8
DATA
  6
CONTINUOUS
 62
     7
 10
-193.5867865402578
 20
-153.99999999999969
 30
0.0
 40
2.0
 50
90.0
 51
161.56505117707999
  0
ARC
  5
17A
  8
DATA
  6
CONTINUOUS
 62
     7
 10
-198.02830498037011
 20
-264.2949372668935
 30
0.0
 40
2.0
 50
180.0
 51
191.87983657389299
  0
ARC
  5
17B
  8
DATA
  6
CONTINUOUS
 62
     7
 10
-198.02830498037011
 20
-264.2949372668935
 30
0.0
 40
2.0
 50
180.0
 51
191.87983657389299
  0
ARC
  5
17C
  8
DATA
  6
CONTINUOUS
 62
     7
 10
-195.20702668635931
 20
-448.0
 30
0.0
 40
1.99999999999994
 50
185.355560091039
 51
270.0
  0
LINE
  5
17D
  8
DATA
  6
CONTINUOUS
 62
     7
 10
-184.8283049803704
 20
-441.30000000000001
 30
0.0
 11
-185.6283049803705
 21
-445.0
 31
0.0
  0
LINE
  5
17E
  8
DATA
  6
CONTINUOUS
 62
     7
 10
-185.6283049803705
 20
-445.0
 30
0.0
 11
-186.42830498037071
 21
-447.5
 31
0.0
  0
LINE
  5
17F
  8
DATA
  6
CONTINUOUS
 62
     7
 10
-186.42830498037071
 20
-447.5
 30
0.0
 11
-187.22830498037081
 21
-448.74999999999989
 31
0.0
  0
LINE
  5
180
  8
DATA
  6
CONTINUOUS
 62
     7
 10
-187.22830498037081
 20
-448.74999999999989
 30
0.0
 11
-188.00330498037101
 21
-449.52500000000009
 31
0.0
  0
LINE
  5
181
  8
DATA
  6
CONTINUOUS
 62
     7
 10
-188.00330498037101
 20
-449.52500000000009
 30
0.0
 11
-188.82830498037109
 21
-450.0
 31
0.0
  0
ARC
  5
182
  8
DATA
  6
CONTINUOUS
 62
     7
 10
-198.0087306776426
 20
-418.11367023194822
 30
0.0
 40
2.0000000070232322
 50
168.13474590339681
 51
185.3555600910388
  0
LINE
  5
183
  8
DATA
  6
CONTINUOUS
 62
     7
 10
-192.02830498037011
 20
-169.99999999999969
 30
0.0
 11
-200.02830498037011
 21
-169.99999999999969
 31
0.0
  0
LINE
  5
184
  8
DATA
  6
CONTINUOUS
 62
     7
 10
-192.02830498037011
 20
-249.99999999999969
 30
0.0
 11
-200.02830498037011
 21
-249.99999999999969
 31
0.0
  0
ARC
  5
185
  8
DATA
  6
CONTINUOUS
 62
     7
 10
38.456070019629813
 20
-429.99999999999977
 30
0.0
 40
5.515625000000087
 50
309.59775270904908
 51
50.402247290950129
  0
LINE
  5
186
  8
DATA
  6
CONTINUOUS
 62
     7
 10
41.971695019629813
 20
-403.99999999999972
 30
0.0
 11
42.665442304598841
 21
-403.99999999999972
 31
0.0
  0
LINE
  5
187
  8
DATA
  6
CONTINUOUS
 62
     7
 10
41.971695019629813
 20
-411.99999999999972
 30
0.0
 11
41.971695019629813
 21
-403.99999999999972
 31
0.0
  0
LINE
  5
188
  8
DATA
  6
CONTINUOUS
 62
     7
 10
42.665442304598841
 20
-411.99999999999972
 30
0.0
 11
41.971695019629813
 21
-411.99999999999972
 31
0.0
  0
ARC
  5
189
  8
DATA
  6
CONTINUOUS
 62
     7
 10
42.665442304598841
 20
-404.49999999999972
 30
0.0
 40
0.4999999999999217
 50
25.944479772374368
 51
90.0
  0
ARC
  5
18A
  8
DATA
  6
CONTINUOUS
 62
     7
 10
42.665442304598841
 20
-411.49999999999972
 30
0.0
 40
0.5
 50
270.0
 51
334.05552022762561
  0
ARC
  5
18B
  8
DATA
  6
CONTINUOUS
 62
     7
 10
35.471695019630722
 20
-407.99999999999972
 30
0.0
 40
8.499999999999126
 50
334.05552022762629
 51
25.944479772373029
  0
LINE
  5
18C
  8
DATA
  6
CONTINUOUS
 62
     7
 10
41.971695019629813
 20
-425.74999999999972
 30
0.0
 11
41.971695019629813
 21
-434.24999999999989
 31
0.0
  0
ARC
  5
18D
  8
DATA
  6
CONTINUOUS
 62
     7
 10
38.456070019629813
 20
-368.9999999999996
 30
0.0
 40
5.515625
 50
309.59775270904993
 51
24.389757300945359
  0
LINE
  5
18E
  8
DATA
  6
CONTINUOUS
 62
     7
 10
41.971695019629813
 20
-364.7499999999996
 30
0.0
 11
41.971695019629813
 21
-373.2499999999996
 31
0.0
  0
ARC
  5
18F
  8
DATA
  6
CONTINUOUS
 62
     7
 10
38.456070019629813
 20
-232.99999999999969
 30
0.0
 40
5.515625
 50
309.59775270904993
 51
50.402247290950193
  0
LINE
  5
190
  8
DATA
  6
CONTINUOUS
 62
     7
 10
41.971695019629813
 20
-228.74999999999969
 30
0.0
 11
41.971695019629813
 21
-237.24999999999969
 31
0.0
  0
ARC
  5
191
  8
DATA
  6
CONTINUOUS
 62
     7
 10
38.456070019629813
 20
-171.99999999999969
 30
0.0
 40
5.515625
 50
309.59775270904993
 51
50.402247290950193
  0
LINE
  5
192
  8
DATA
  6
CONTINUOUS
 62
     7
 10
41.971695019629813
 20
-167.74999999999969
 30
0.0
 11
41.971695019629813
 21
-176.24999999999969
 31
0.0
  0
LINE
  5
193
  8
DATA
  6
CONTINUOUS
 62
     7
 10
41.971695019629813
 20
-346.99999999999949
 30
0.0
 11
42.665442304598841
 21
-346.99999999999949
 31
0.0
  0
LINE
  5
194
  8
DATA
  6
CONTINUOUS
 62
     7
 10
41.971695019629813
 20
-354.99999999999949
 30
0.0
 11
41.971695019629813
 21
-346.99999999999949
 31
0.0
  0
LINE
  5
195
  8
DATA
  6
CONTINUOUS
 62
     7
 10
42.665442304598841
 20
-354.99999999999949
 30
0.0
 11
41.971695019629813
 21
-354.99999999999949
 31
0.0
  0
ARC
  5
196
  8
DATA
  6
CONTINUOUS
 62
     7
 10
42.665442304598841
 20
-347.4999999999996
 30
0.0
 40
0.4999999999999217
 50
25.944479772374368
 51
90.0
  0
ARC
  5
197
  8
DATA
  6
CONTINUOUS
 62
     7
 10
42.665442304598841
 20
-354.49999999999949
 30
0.0
 40
0.5
 50
270.0
 51
334.05552022762561
  0
ARC
  5
198
  8
DATA
  6
CONTINUOUS
 62
     7
 10
35.471695019630722
 20
-350.99999999999949
 30
0.0
 40
8.4999999999990727
 50
334.05552022762708
 51
25.944479772372969
  0
LINE
  5
199
  8
DATA
  6
CONTINUOUS
 62
     7
 10
41.971695019629813
 20
-290.99999999999972
 30
0.0
 11
42.665442304598841
 21
-290.99999999999972
 31
0.0
  0
LINE
  5
19A
  8
DATA
  6
CONTINUOUS
 62
     7
 10
41.971695019629813
 20
-298.9999999999996
 30
0.0
 11
41.971695019629813
 21
-290.99999999999972
 31
0.0
  0
LINE
  5
19B
  8
DATA
  6
CONTINUOUS
 62
     7
 10
42.665442304598841
 20
-298.9999999999996
 30
0.0
 11
41.971695019629813
 21
-298.9999999999996
 31
0.0
  0
ARC
  5
19C
  8
DATA
  6
CONTINUOUS
 62
     7
 10
42.665442304598841
 20
-291.49999999999972
 30
0.0
 40
0.4999999999999217
 50
25.944479772374368
 51
90.0
  0
ARC
  5
19D
  8
DATA
  6
CONTINUOUS
 62
     7
 10
42.665442304598841
 20
-298.4999999999996
 30
0.0
 40
0.5
 50
270.0
 51
334.05552022762561
  0
ARC
  5
19E
  8
DATA
  6
CONTINUOUS
 62
     7
 10
35.471695019630722
 20
-294.99999999999972
 30
0.0
 40
8.4999999999990248
 50
334.05552022762771
 51
25.944479772373029
  0
LINE
  5
19F
  8
DATA
  6
CONTINUOUS
 62
     7
 10
41.971695019629813
 20
-361.57142857142821
 30
0.0
 11
42.56633554960306
 21
-361.57142857142821
 31
0.0
  0
LINE
  5
1A0
  8
DATA
  6
CONTINUOUS
 62
     7
 10
41.971695019629813
 20
-368.4285714285711
 30
0.0
 11
41.971695019629813
 21
-361.57142857142821
 31
0.0
  0
LINE
  5
1A1
  8
DATA
  6
CONTINUOUS
 62
     7
 10
42.56633554960306
 20
-368.4285714285711
 30
0.0
 11
41.971695019629813
 21
-368.4285714285711
 31
0.0
  0
ARC
  5
1A2
  8
DATA
  6
CONTINUOUS
 62
     7
 10
42.56633554960306
 20
-361.9999999999996
 30
0.0
 40
0.4285714285715367
 50
25.944479772362971
 51
90.0
  0
ARC
  5
1A3
  8
DATA
  6
CONTINUOUS
 62
     7
 10
42.56633554960306
 20
-367.9999999999996
 30
0.0
 40
0.4285714285715585
 50
270.0
 51
334.05552022763709
  0
ARC
  5
1A4
  8
DATA
  6
CONTINUOUS
 62
     7
 10
36.400266448201812
 20
-364.9999999999996
 30
0.0
 40
7.2857142857136692
 50
334.05552022762771
 51
25.94447977237235
  0
LINE
  5
1A5
  8
DATA
  6
CONTINUOUS
 62
     7
 10
41.971695019629813
 20
-249.57142857142841
 30
0.0
 11
42.56633554960306
 21
-249.57142857142841
 31
0.0
  0
LINE
  5
1A6
  8
DATA
  6
CONTINUOUS
 62
     7
 10
41.971695019629813
 20
-256.42857142857122
 30
0.0
 11
41.971695019629813
 21
-249.57142857142841
 31
0.0
  0
LINE
  5
1A7
  8
DATA
  6
CONTINUOUS
 62
     7
 10
42.56633554960306
 20
-256.42857142857122
 30
0.0
 11
41.971695019629813
 21
-256.42857142857122
 31
0.0
  0
ARC
  5
1A8
  8
DATA
  6
CONTINUOUS
 62
     7
 10
42.56633554960306
 20
-249.99999999999969
 30
0.0
 40
0.4285714285715367
 50
25.944479772362971
 51
90.0
  0
ARC
  5
1A9
  8
DATA
  6
CONTINUOUS
 62
     7
 10
42.56633554960306
 20
-255.99999999999969
 30
0.0
 40
0.4285714285714449
 50
270.0
 51
334.05552022763709
  0
ARC
  5
1AA
  8
DATA
  6
CONTINUOUS
 62
     7
 10
36.400266448201812
 20
-252.9999999999998
 30
0.0
 40
7.2857142857136692
 50
334.05552022762771
 51
25.94447977237235
  0
ARC
  5
1AB
  8
DATA
  6
CONTINUOUS
 62
     7
 10
39.209418233915599
 20
-197.99999999999969
 30
0.0
 40
4.3337053571427768
 50
309.59775270904959
 51
50.402247290950392
  0
LINE
  5
1AC
  8
DATA
  6
CONTINUOUS
 62
     7
 10
41.971695019629813
 20
-194.66071428571411
 30
0.0
 11
41.971695019629813
 21
-201.33928571428541
 31
0.0
  0
LINE
  5
1AD
  8
DATA
  6
CONTINUOUS
 62
     7
 10
43.83829528497246
 20
-349.50000000000921
 30
0.0
 11
55.971695019629813
 21
-349.50000000000921
 31
0.0
  0
LINE
  5
1AE
  8
DATA
  6
CONTINUOUS
 62
     7
 10
55.971695019629813
 20
-343.00000000000921
 30
0.0
 11
55.971695019629813
 21
-356.00000000000909
 31
0.0
  0
LINE
  5
1AF
  8
DATA
  6
CONTINUOUS
 62
     7
 10
54.973913856899337
 20
-342.50000000000921
 30
0.0
 11
54.973913856899337
 21
-356.50000000000909
 31
0.0
  0
LINE
  5
1B0
  8
DATA
  6
CONTINUOUS
 62
     7
 10
55.971695019629813
 20
-343.00000000000921
 30
0.0
 11
54.973913856899337
 21
-342.50000000000921
 31
0.0
  0
LINE
  5
1B1
  8
DATA
  6
CONTINUOUS
 62
     7
 10
55.971695019629813
 20
-356.00000000000909
 30
0.0
 11
54.973913856899337
 21
-356.57606922290393
 31
0.0
  0
LINE
  5
1B2
  8
DATA
  6
CONTINUOUS
 62
     7
 10
54.973913856899337
 20
-342.50000000000921
 30
0.0
 11
41.971695019629813
 21
-342.00000000000921
 31
0.0
  0
LINE
  5
1B3
  8
DATA
  6
CONTINUOUS
 62
     7
 10
54.973913856899337
 20
-356.50000000000909
 30
0.0
 11
41.971695019629813
 21
-357.00000000000921
 31
0.0
  0
LINE
  5
1B4
  8
DATA
  6
CONTINUOUS
 62
     7
 10
41.971695019629813
 20
-342.20000000000942
 30
0.0
 11
41.971695019629813
 21
-357.20000000000948
 31
0.0
  0
LINE
  5
1B5
  8
DATA
  6
CONTINUOUS
 62
     7
 10
41.971695019629813
 20
-380.9999999999996
 30
0.0
 11
45.971695019629813
 21
-380.9999999999996
 31
0.0
  0
LINE
  5
1B6
  8
DATA
  6
CONTINUOUS
 62
     7
 10
41.971695019629813
 20
-395.9999999999996
 30
0.0
 11
45.971695019629813
 21
-380.9999999999996
 31
0.0
  0
LINE
  5
1B7
  8
DATA
  6
CONTINUOUS
 62
     7
 10
45.971695019629813
 20
-380.9999999999996
 30
0.0
 11
41.971695019629813
 21
-376.9999999999996
 31
0.0
  0
LINE
  5
1B8
  8
DATA
  6
CONTINUOUS
 62
     7
 10
41.971695019629813
 20
-329.9999999999996
 30
0.0
 11
41.971695019629813
 21
-312.9999999999996
 31
0.0
  0
LINE
  5
1B9
  8
DATA
  6
CONTINUOUS
 62
     7
 10
43.971695019629813
 20
-329.9999999999996
 30
0.0
 11
41.971695019629813
 21
-329.9999999999996
 31
0.0
  0
LINE
  5
1BA
  8
DATA
  6
CONTINUOUS
 62
     7
 10
43.971695019629813
 20
-312.9999999999996
 30
0.0
 11
43.971695019629813
 21
-329.9999999999996
 31
0.0
  0
LINE
  5
1BB
  8
DATA
  6
CONTINUOUS
 62
     7
 10
41.971695019629813
 20
-312.9999999999996
 30
0.0
 11
43.971695019629813
 21
-312.9999999999996
 31
0.0
  0
LINE
  5
1BC
  8
DATA
  6
CONTINUOUS
 62
     7
 10
43.971695019629813
 20
-328.9999999999996
 30
0.0
 11
43.971695019629813
 21
-313.9999999999996
 31
0.0
  0
LINE
  5
1BD
  8
DATA
  6
CONTINUOUS
 62
     7
 10
47.971695019629813
 20
-328.9999999999996
 30
0.0
 11
43.971695019629813
 21
-328.9999999999996
 31
0.0
  0
LINE
  5
1BE
  8
DATA
  6
CONTINUOUS
 62
     7
 10
47.971695019629813
 20
-313.9999999999996
 30
0.0
 11
47.971695019629813
 21
-328.9999999999996
 31
0.0
  0
LINE
  5
1BF
  8
DATA
  6
CONTINUOUS
 62
     7
 10
43.971695019629813
 20
-313.9999999999996
 30
0.0
 11
47.971695019629813
 21
-313.9999999999996
 31
0.0
  0
LINE
  5
1C0
  8
DATA
  6
CONTINUOUS
 62
     7
 10
47.971695019629813
 20
-326.7499999999996
 30
0.0
 11
47.971695019629813
 21
-316.2499999999996
 31
0.0
  0
LINE
  5
1C1
  8
DATA
  6
CONTINUOUS
 62
     7
 10
49.971695019629813
 20
-326.7499999999996
 30
0.0
 11
47.971695019629813
 21
-326.7499999999996
 31
0.0
  0
LINE
  5
1C2
  8
DATA
  6
CONTINUOUS
 62
     7
 10
49.971695019629813
 20
-316.2499999999996
 30
0.0
 11
49.971695019629813
 21
-326.7499999999996
 31
0.0
  0
LINE
  5
1C3
  8
DATA
  6
CONTINUOUS
 62
     7
 10
47.971695019629813
 20
-316.2499999999996
 30
0.0
 11
49.971695019629813
 21
-316.2499999999996
 31
0.0
  0
LINE
  5
1C4
  8
DATA
  6
CONTINUOUS
 62
     7
 10
156.5
 20
-445.0
 30
0.0
 11
156.5
 21
-156.9999999999996
 31
0.0
  0
LINE
  5
1C5
  8
DATA
  6
CONTINUOUS
 62
     7
 10
171.5
 20
-434.9999999999996
 30
0.0
 11
171.5
 21
-166.9999999999996
 31
0.0
  0
LINE
  5
1C6
  8
DATA
  6
CONTINUOUS
 62
     7
 10
161.5
 20
-450.0
 30
0.0
 11
338.5
 21
-450.0
 31
0.0
  0
LINE
  5
1C7
  8
DATA
  6
CONTINUOUS
 62
     7
 10
171.5
 20
-434.9999999999996
 30
0.0
 11
328.5
 21
-434.9999999999996
 31
0.0
  0
LINE
  5
1C8
  8
DATA
  6
CONTINUOUS
 62
     7
 10
343.5
 20
-445.0
 30
0.0
 11
343.5
 21
-156.9999999999996
 31
0.0
  0
LINE
  5
1C9
  8
DATA
  6
CONTINUOUS
 62
     7
 10
328.5
 20
-434.9999999999996
 30
0.0
 11
328.5
 21
-166.9999999999996
 31
0.0
  0
LINE
  5
1CA
  8
DATA
  6
CONTINUOUS
 62
     7
 10
338.5
 20
-151.9999999999996
 30
0.0
 11
161.5
 21
-151.9999999999996
 31
0.0
  0
LINE
  5
1CB
  8
DATA
  6
CONTINUOUS
 62
     7
 10
328.5
 20
-166.9999999999996
 30
0.0
 11
171.5
 21
-166.9999999999996
 31
0.0
  0
LINE
  5
1CC
  8
DATA
  6
CONTINUOUS
 62
     7
 10
157.96446609406709
 20
-153.46446609406681
 30
0.0
 11
171.5
 21
-166.9999999999996
 31
0.0
  0
LINE
  5
1CD
  8
DATA
  6
CONTINUOUS
 62
     7
 10
342.03553390593288
 20
-153.46446609406681
 30
0.0
 11
328.5
 21
-166.9999999999996
 31
0.0
  0
LINE
  5
1CE
  8
DATA
  6
CONTINUOUS
 62
     7
 10
157.96446609406709
 20
-448.53553390593282
 30
0.0
 11
171.5
 21
-434.9999999999996
 31
0.0
  0
LINE
  5
1CF
  8
DATA
  6
CONTINUOUS
 62
     7
 10
342.03553390593288
 20
-448.53553390593282
 30
0.0
 11
328.5
 21
-434.9999999999996
 31
0.0
  0
ARC
  5
1D0
  8
DATA
  6
CONTINUOUS
 62
     7
 10
161.5
 20
-445.0
 30
0.0
 40
5.0
 50
180.0
 51
270.0
  0
ARC
  5
1D1
  8
DATA
  6
CONTINUOUS
 62
     7
 10
338.5
 20
-445.0
 30
0.0
 40
5.0
 50
270.0
 51
0.0
  0
ARC
  5
1D2
  8
DATA
  6
CONTINUOUS
 62
     7
 10
338.5
 20
-156.9999999999996
 30
0.0
 40
5.0
 50
0.0
 51
90.0
  0
ARC
  5
1D3
  8
DATA
  6
CONTINUOUS
 62
     7
 10
161.5
 20
-156.9999999999996
 30
0.0
 40
5.0
 50
90.0
 51
180.0
  0
CIRCLE
  5
1D4
  8
DATA
  6
CONTINUOUS
 62
     7
 10
290.0
 20
-429.99999999999977
 30
0.0
 40
4.25
  0
LINE
  5
1D5
  8
DATA
  6
CONTINUOUS
 62
     7
 10
290.0
 20
-432.49999999999972
 30
0.0
 11
290.0
 21
-427.49999999999972
 31
0.0
  0
LINE
  5
1D6
  8
DATA
  6
CONTINUOUS
 62
     7
 10
287.5
 20
-429.99999999999977
 30
0.0
 11
292.5
 21
-429.99999999999977
 31
0.0
  0
CIRCLE
  5
1D7
  8
DATA
  6
CONTINUOUS
 62
     7
 10
291.0
 20
-407.9999999999996
 30
0.0
 40
4.0
  0
LINE
  5
1D8
  8
DATA
  6
CONTINUOUS
 62
     7
 10
291.0
 20
-410.49999999999949
 30
0.0
 11
291.0
 21
-405.4999999999996
 31
0.0
  0
LINE
  5
1D9
  8
DATA
  6
CONTINUOUS
 62
     7
 10
288.5
 20
-407.9999999999996
 30
0.0
 11
293.5
 21
-407.9999999999996
 31
0.0
  0
CIRCLE
  5
1DA
  8
DATA
  6
CONTINUOUS
 62
     7
 10
291.0
 20
-407.9999999999996
 30
0.0
 40
3.5
  0
CIRCLE
  5
1DB
  8
DATA
  6
CONTINUOUS
 62
     7
 10
322.5
 20
-368.9999999999996
 30
0.0
 40
4.25
  0
LINE
  5
1DC
  8
DATA
  6
CONTINUOUS
 62
     7
 10
322.5
 20
-371.4999999999996
 30
0.0
 11
322.5
 21
-366.4999999999996
 31
0.0
  0
LINE
  5
1DD
  8
DATA
  6
CONTINUOUS
 62
     7
 10
320.0
 20
-368.9999999999996
 30
0.0
 11
325.0
 21
-368.9999999999996
 31
0.0
  0
CIRCLE
  5
1DE
  8
DATA
  6
CONTINUOUS
 62
     7
 10
306.5
 20
-350.99999999999949
 30
0.0
 40
4.0
  0
LINE
  5
1DF
  8
DATA
  6
CONTINUOUS
 62
     7
 10
306.5
 20
-353.4999999999996
 30
0.0
 11
306.5
 21
-348.49999999999949
 31
0.0
  0
LINE
  5
1E0
  8
DATA
  6
CONTINUOUS
 62
     7
 10
304.0
 20
-350.99999999999949
 30
0.0
 11
309.0
 21
-350.99999999999949
 31
0.0
  0
CIRCLE
  5
1E1
  8
DATA
  6
CONTINUOUS
 62
     7
 10
306.5
 20
-350.99999999999949
 30
0.0
 40
3.5
  0
CIRCLE
  5
1E2
  8
DATA
  6
CONTINUOUS
 62
     7
 10
291.0
 20
-294.9999999999996
 30
0.0
 40
3.0
  0
LINE
  5
1E3
  8
DATA
  6
CONTINUOUS
 62
     7
 10
291.0
 20
-297.4999999999996
 30
0.0
 11
291.0
 21
-292.4999999999996
 31
0.0
  0
LINE
  5
1E4
  8
DATA
  6
CONTINUOUS
 62
     7
 10
288.5
 20
-294.9999999999996
 30
0.0
 11
293.5
 21
-294.9999999999996
 31
0.0
  0
CIRCLE
  5
1E5
  8
DATA
  6
CONTINUOUS
 62
     7
 10
291.0
 20
-294.9999999999996
 30
0.0
 40
3.5
  0
CIRCLE
  5
1E6
  8
DATA
  6
CONTINUOUS
 62
     7
 10
322.5
 20
-232.99999999999969
 30
0.0
 40
4.25
  0
LINE
  5
1E7
  8
DATA
  6
CONTINUOUS
 62
     7
 10
322.5
 20
-230.49999999999969
 30
0.0
 11
322.5
 21
-235.49999999999969
 31
0.0
  0
LINE
  5
1E8
  8
DATA
  6
CONTINUOUS
 62
     7
 10
320.0
 20
-232.99999999999969
 30
0.0
 11
325.0
 21
-232.99999999999969
 31
0.0
  0
CIRCLE
  5
1E9
  8
DATA
  6
CONTINUOUS
 62
     7
 10
304.5
 20
-252.9999999999998
 30
0.0
 40
3.0
  0
LINE
  5
1EA
  8
DATA
  6
CONTINUOUS
 62
     7
 10
304.5
 20
-254.9999999999998
 30
0.0
 11
304.5
 21
-250.9999999999998
 31
0.0
  0
LINE
  5
1EB
  8
DATA
  6
CONTINUOUS
 62
     7
 10
302.5
 20
-252.9999999999998
 30
0.0
 11
306.5
 21
-252.9999999999998
 31
0.0
  0
CIRCLE
  5
1EC
  8
DATA
  6
CONTINUOUS
 62
     7
 10
304.5
 20
-252.9999999999998
 30
0.0
 40
2.5
  0
CIRCLE
  5
1ED
  8
DATA
  6
CONTINUOUS
 62
     7
 10
283.0
 20
-197.99999999999969
 30
0.0
 40
2.75
  0
LINE
  5
1EE
  8
DATA
  6
CONTINUOUS
 62
     7
 10
283.0
 20
-199.99999999999969
 30
0.0
 11
283.0
 21
-195.99999999999969
 31
0.0
  0
LINE
  5
1EF
  8
DATA
  6
CONTINUOUS
 62
     7
 10
281.0
 20
-197.99999999999969
 30
0.0
 11
285.0
 21
-197.99999999999969
 31
0.0
  0
CIRCLE
  5
1F0
  8
DATA
  6
CONTINUOUS
 62
     7
 10
283.0
 20
-197.99999999999969
 30
0.0
 40
2.75
  0
LINE
  5
1F1
  8
DATA
  6
CONTINUOUS
 62
     7
 10
283.0
 20
-199.99999999999969
 30
0.0
 11
283.0
 21
-195.99999999999969
 31
0.0
  0
LINE
  5
1F2
  8
DATA
  6
CONTINUOUS
 62
     7
 10
281.0
 20
-197.99999999999969
 30
0.0
 11
285.0
 21
-197.99999999999969
 31
0.0
  0
CIRCLE
  5
1F3
  8
DATA
  6
CONTINUOUS
 62
     7
 10
250.0
 20
-253.99999999999969
 30
0.0
 40
2.75
  0
LINE
  5
1F4
  8
DATA
  6
CONTINUOUS
 62
     7
 10
250.0
 20
-255.99999999999969
 30
0.0
 11
250.0
 21
-251.99999999999969
 31
0.0
  0
LINE
  5
1F5
  8
DATA
  6
CONTINUOUS
 62
     7
 10
248.0
 20
-253.99999999999969
 30
0.0
 11
252.0
 21
-253.99999999999969
 31
0.0
  0
CIRCLE
  5
1F6
  8
DATA
  6
CONTINUOUS
 62
     7
 10
290.0
 20
-171.9999999999996
 30
0.0
 40
4.25
  0
LINE
  5
1F7
  8
DATA
  6
CONTINUOUS
 62
     7
 10
290.0
 20
-169.4999999999996
 30
0.0
 11
290.0
 21
-174.49999999999949
 31
0.0
  0
LINE
  5
1F8
  8
DATA
  6
CONTINUOUS
 62
     7
 10
287.5
 20
-171.9999999999996
 30
0.0
 11
292.5
 21
-171.9999999999996
 31
0.0
  0
CIRCLE
  5
1F9
  8
DATA
  6
CONTINUOUS
 62
     7
 10
210.0
 20
-429.99999999999977
 30
0.0
 40
4.25
  0
LINE
  5
1FA
  8
DATA
  6
CONTINUOUS
 62
     7
 10
210.0
 20
-432.49999999999972
 30
0.0
 11
210.0
 21
-427.49999999999972
 31
0.0
  0
LINE
  5
1FB
  8
DATA
  6
CONTINUOUS
 62
     7
 10
212.5
 20
-429.99999999999977
 30
0.0
 11
207.5
 21
-429.99999999999977
 31
0.0
  0
CIRCLE
  5
1FC
  8
DATA
  6
CONTINUOUS
 62
     7
 10
209.0
 20
-407.9999999999996
 30
0.0
 40
4.0
  0
LINE
  5
1FD
  8
DATA
  6
CONTINUOUS
 62
     7
 10
209.0
 20
-410.49999999999949
 30
0.0
 11
209.0
 21
-405.4999999999996
 31
0.0
  0
LINE
  5
1FE
  8
DATA
  6
CONTINUOUS
 62
     7
 10
211.5
 20
-407.9999999999996
 30
0.0
 11
206.5
 21
-407.9999999999996
 31
0.0
  0
CIRCLE
  5
1FF
  8
DATA
  6
CONTINUOUS
 62
     7
 10
209.0
 20
-407.9999999999996
 30
0.0
 40
3.5
  0
CIRCLE
  5
200
  8
DATA
  6
CONTINUOUS
 62
     7
 10
177.5
 20
-368.9999999999996
 30
0.0
 40
4.25
  0
LINE
  5
201
  8
DATA
  6
CONTINUOUS
 62
     7
 10
177.5
 20
-371.4999999999996
 30
0.0
 11
177.5
 21
-366.4999999999996
 31
0.0
  0
LINE
  5
202
  8
DATA
  6
CONTINUOUS
 62
     7
 10
180.0
 20
-368.9999999999996
 30
0.0
 11
175.0
 21
-368.9999999999996
 31
0.0
  0
CIRCLE
  5
203
  8
DATA
  6
CONTINUOUS
 62
     7
 10
193.5
 20
-350.99999999999949
 30
0.0
 40
4.0
  0
LINE
  5
204
  8
DATA
  6
CONTINUOUS
 62
     7
 10
193.5
 20
-353.4999999999996
 30
0.0
 11
193.5
 21
-348.49999999999949
 31
0.0
  0
LINE
  5
205
  8
DATA
  6
CONTINUOUS
 62
     7
 10
196.0
 20
-350.99999999999949
 30
0.0
 11
191.0
 21
-350.99999999999949
 31
0.0
  0
CIRCLE
  5
206
  8
DATA
  6
CONTINUOUS
 62
     7
 10
193.5
 20
-350.99999999999949
 30
0.0
 40
3.5
  0
CIRCLE
  5
207
  8
DATA
  6
CONTINUOUS
 62
     7
 10
209.0
 20
-294.9999999999996
 30
0.0
 40
3.0
  0
LINE
  5
208
  8
DATA
  6
CONTINUOUS
 62
     7
 10
209.0
 20
-297.4999999999996
 30
0.0
 11
209.0
 21
-292.4999999999996
 31
0.0
  0
LINE
  5
209
  8
DATA
  6
CONTINUOUS
 62
     7
 10
211.5
 20
-294.9999999999996
 30
0.0
 11
206.5
 21
-294.9999999999996
 31
0.0
  0
CIRCLE
  5
20A
  8
DATA
  6
CONTINUOUS
 62
     7
 10
209.0
 20
-294.9999999999996
 30
0.0
 40
3.5
  0
CIRCLE
  5
20B
  8
DATA
  6
CONTINUOUS
 62
     7
 10
177.5
 20
-232.99999999999969
 30
0.0
 40
4.25
  0
LINE
  5
20C
  8
DATA
  6
CONTINUOUS
 62
     7
 10
177.5
 20
-230.49999999999969
 30
0.0
 11
177.5
 21
-235.49999999999969
 31
0.0
  0
LINE
  5
20D
  8
DATA
  6
CONTINUOUS
 62
     7
 10
180.0
 20
-232.99999999999969
 30
0.0
 11
175.0
 21
-232.99999999999969
 31
0.0
  0
CIRCLE
  5
20E
  8
DATA
  6
CONTINUOUS
 62
     7
 10
195.5
 20
-252.9999999999998
 30
0.0
 40
3.0
  0
LINE
  5
20F
  8
DATA
  6
CONTINUOUS
 62
     7
 10
195.5
 20
-254.9999999999998
 30
0.0
 11
195.5
 21
-250.9999999999998
 31
0.0
  0
LINE
  5
210
  8
DATA
  6
CONTINUOUS
 62
     7
 10
197.5
 20
-252.9999999999998
 30
0.0
 11
193.5
 21
-252.9999999999998
 31
0.0
  0
CIRCLE
  5
211
  8
DATA
  6
CONTINUOUS
 62
     7
 10
195.5
 20
-252.9999999999998
 30
0.0
 40
2.5
  0
CIRCLE
  5
212
  8
DATA
  6
CONTINUOUS
 62
     7
 10
217.0
 20
-197.99999999999969
 30
0.0
 40
2.75
  0
LINE
  5
213
  8
DATA
  6
CONTINUOUS
 62
     7
 10
217.0
 20
-199.99999999999969
 30
0.0
 11
217.0
 21
-195.99999999999969
 31
0.0
  0
LINE
  5
214
  8
DATA
  6
CONTINUOUS
 62
     7
 10
219.0
 20
-197.99999999999969
 30
0.0
 11
215.0
 21
-197.99999999999969
 31
0.0
  0
CIRCLE
  5
215
  8
DATA
  6
CONTINUOUS
 62
     7
 10
217.0
 20
-197.99999999999969
 30
0.0
 40
2.75
  0
LINE
  5
216
  8
DATA
  6
CONTINUOUS
 62
     7
 10
217.0
 20
-199.99999999999969
 30
0.0
 11
217.0
 21
-195.99999999999969
 31
0.0
  0
LINE
  5
217
  8
DATA
  6
CONTINUOUS
 62
     7
 10
219.0
 20
-197.99999999999969
 30
0.0
 11
215.0
 21
-197.99999999999969
 31
0.0
  0
CIRCLE
  5
218
  8
DATA
  6
CONTINUOUS
 62
     7
 10
210.0
 20
-171.9999999999996
 30
0.0
 40
4.25
  0
LINE
  5
219
  8
DATA
  6
CONTINUOUS
 62
     7
 10
210.0
 20
-169.4999999999996
 30
0.0
 11
210.0
 21
-174.49999999999949
 31
0.0
  0
LINE
  5
21A
  8
DATA
  6
CONTINUOUS
 62
     7
 10
212.5
 20
-171.9999999999996
 30
0.0
 11
207.5
 21
-171.9999999999996
 31
0.0
  0
CIRCLE
  5
21B
  8
DATA
  6
CONTINUOUS
 62
     7
 10
190.5
 20
-364.9999999999996
 30
0.0
 40
3.0
  0
LINE
  5
21C
  8
DATA
  6
CONTINUOUS
 62
     7
 10
190.5
 20
-366.9999999999996
 30
0.0
 11
190.5
 21
-362.9999999999996
 31
0.0
  0
LINE
  5
21D
  8
DATA
  6
CONTINUOUS
 62
     7
 10
192.5
 20
-364.9999999999996
 30
0.0
 11
188.5
 21
-364.9999999999996
 31
0.0
  0
CIRCLE
  5
21E
  8
DATA
  6
CONTINUOUS
 62
     7
 10
190.5
 20
-364.9999999999996
 30
0.0
 40
2.5
  0
CIRCLE
  5
21F
  8
DATA
  6
CONTINUOUS
 62
     7
 10
250.0
 20
-216.49999999999969
 30
0.0
 40
34.50000000000005
  0
CIRCLE
  5
220
  8
DATA
  6
CONTINUOUS
 62
     7
 10
250.0
 20
-216.49999999999969
 30
0.0
 40
30.499999999999972
  0
CIRCLE
  5
221
  8
DATA
  6
CONTINUOUS
 62
     7
 10
250.0
 20
-216.49999999999969
 30
0.0
 40
20.499999999999812
  0
LINE
  5
222
  8
DATA
  6
CONTINUOUS
 62
     7
 10
205.0
 20
-398.4999999999996
 30
0.0
 11
205.0
 21
-369.4999999999996
 31
0.0
  0
LINE
  5
223
  8
DATA
  6
CONTINUOUS
 62
     7
 10
206.5
 20
-399.9999999999996
 30
0.0
 11
293.5
 21
-399.9999999999996
 31
0.0
  0
LINE
  5
224
  8
DATA
  6
CONTINUOUS
 62
     7
 10
295.0
 20
-398.4999999999996
 30
0.0
 11
295.0
 21
-369.4999999999996
 31
0.0
  0
LINE
  5
225
  8
DATA
  6
CONTINUOUS
 62
     7
 10
206.5
 20
-367.9999999999996
 30
0.0
 11
293.5
 21
-367.9999999999996
 31
0.0
  0
LINE
  5
226
  8
DATA
  6
CONTINUOUS
 62
     7
 10
205.0
 20
-370.9999999999996
 30
0.0
 11
295.0
 21
-370.9999999999996
 31
0.0
  0
LINE
  5
227
  8
DATA
  6
CONTINUOUS
 62
     7
 10
218.0
 20
-391.9999999999996
 30
0.0
 11
218.0
 21
-379.9999999999996
 31
0.0
  0
LINE
  5
228
  8
DATA
  6
CONTINUOUS
 62
     7
 10
221.0
 20
-390.9999999999996
 30
0.0
 11
221.0
 21
-384.24264068711852
 31
0.0
  0
LINE
  5
229
  8
DATA
  6
CONTINUOUS
 62
     7
 10
243.0
 20
-396.9999999999996
 30
0.0
 11
223.0
 21
-396.9999999999996
 31
0.0
  0
LINE
  5
22A
  8
DATA
  6
CONTINUOUS
 62
     7
 10
242.0
 20
-393.9999999999996
 30
0.0
 11
224.0
 21
-393.9999999999996
 31
0.0
  0
LINE
  5
22B
  8
DATA
  6
CONTINUOUS
 62
     7
 10
248.0
 20
-379.9999999999996
 30
0.0
 11
248.0
 21
-391.9999999999996
 31
0.0
  0
LINE
  5
22C
  8
DATA
  6
CONTINUOUS
 62
     7
 10
245.0
 20
-384.24264068711852
 30
0.0
 11
245.0
 21
-390.9999999999996
 31
0.0
  0
LINE
  5
22D
  8
DATA
  6
CONTINUOUS
 62
     7
 10
223.0
 20
-374.9999999999996
 30
0.0
 11
243.0
 21
-374.9999999999996
 31
0.0
  0
LINE
  5
22E
  8
DATA
  6
CONTINUOUS
 62
     7
 10
227.24264068711909
 20
-377.9999999999996
 30
0.0
 11
238.75735931288079
 21
-377.9999999999996
 31
0.0
  0
LINE
  5
22F
  8
DATA
  6
CONTINUOUS
 62
     7
 10
225.1213203435596
 20
-378.87867965644
 30
0.0
 11
221.8786796564404
 21
-382.12132034355909
 31
0.0
  0
LINE
  5
230
  8
DATA
  6
CONTINUOUS
 62
     7
 10
240.8786796564404
 20
-378.87867965644
 30
0.0
 11
244.1213203435596
 21
-382.12132034355909
 31
0.0
  0
ARC
  5
231
  8
DATA
  6
CONTINUOUS
 62
     7
 10
223.0
 20
-379.9999999999996
 30
0.0
 40
5.0
 50
90.0
 51
180.0
  0
ARC
  5
232
  8
DATA
  6
CONTINUOUS
 62
     7
 10
243.0
 20
-379.9999999999996
 30
0.0
 40
5.0
 50
0.0
 51
90.0
  0
ARC
  5
233
  8
DATA
  6
CONTINUOUS
 62
     7
 10
243.0
 20
-391.9999999999996
 30
0.0
 40
5.0
 50
270.0
 51
0.0
  0
ARC
  5
234
  8
DATA
  6
CONTINUOUS
 62
     7
 10
223.0
 20
-391.9999999999996
 30
0.0
 40
5.0
 50
180.0
 51
270.0
  0
ARC
  5
235
  8
DATA
  6
CONTINUOUS
 62
     7
 10
224.0
 20
-390.9999999999996
 30
0.0
 40
3.0
 50
180.0
 51
270.0
  0
ARC
  5
236
  8
DATA
  6
CONTINUOUS
 62
     7
 10
242.0
 20
-390.9999999999996
 30
0.0
 40
3.0
 50
270.0
 51
0.0
  0
ARC
  5
237
  8
DATA
  6
CONTINUOUS
 62
     7
 10
242.0000000000004
 20
-384.24264068711921
 30
0.0
 40
2.9999999999995439
 50
0.0000000000130276
 51
45.000000000015348
  0
ARC
  5
238
  8
DATA
  6
CONTINUOUS
 62
     7
 10
238.75735931288139
 20
-380.9999999999996
 30
0.0
 40
2.9999999999995421
 50
45.00000000000616
 51
90.000000000008683
  0
ARC
  5
239
  8
DATA
  6
CONTINUOUS
 62
     7
 10
227.24264068711909
 20
-380.9999999999996
 30
0.0
 40
3.0
 50
90.0
 51
135.0
  0
ARC
  5
23A
  8
DATA
  6
CONTINUOUS
 62
     7
 10
224.0
 20
-384.2426406871183
 30
0.0
 40
2.9999999999995421
 50
135.0000000000062
 51
180.0000000000087
  0
LINE
  5
23B
  8
DATA
  6
CONTINUOUS
 62
     7
 10
273.0
 20
-395.9999999999996
 30
0.0
 11
288.0
 21
-395.9999999999996
 31
0.0
  0
LINE
  5
23C
  8
DATA
  6
CONTINUOUS
 62
     7
 10
275.0
 20
-393.9999999999996
 30
0.0
 11
286.0
 21
-393.9999999999996
 31
0.0
  0
LINE
  5
23D
  8
DATA
  6
CONTINUOUS
 62
     7
 10
288.0
 20
-395.9999999999996
 30
0.0
 11
288.0
 21
-374.9999999999996
 31
0.0
  0
LINE
  5
23E
  8
DATA
  6
CONTINUOUS
 62
     7
 10
286.0
 20
-393.9999999999996
 30
0.0
 11
286.0
 21
-376.9999999999996
 31
0.0
  0
LINE
  5
23F
  8
DATA
  6
CONTINUOUS
 62
     7
 10
288.0
 20
-374.9999999999996
 30
0.0
 11
273.0
 21
-374.9999999999996
 31
0.0
  0
LINE
  5
240
  8
DATA
  6
CONTINUOUS
 62
     7
 10
286.0
 20
-376.9999999999996
 30
0.0
 11
275.0
 21
-376.9999999999996
 31
0.0
  0
LINE
  5
241
  8
DATA
  6
CONTINUOUS
 62
     7
 10
286.0
 20
-380.9999999999996
 30
0.0
 11
275.0
 21
-380.9999999999996
 31
0.0
  0
LINE
  5
242
  8
DATA
  6
CONTINUOUS
 62
     7
 10
273.0
 20
-374.9999999999996
 30
0.0
 11
273.0
 21
-395.9999999999996
 31
0.0
  0
LINE
  5
243
  8
DATA
  6
CONTINUOUS
 62
     7
 10
275.0
 20
-376.9999999999996
 30
0.0
 11
275.0
 21
-393.9999999999996
 31
0.0
  0
LINE
  5
244
  8
DATA
  6
CONTINUOUS
 62
     7
 10
232.5
 20
-383.9999999999996
 30
0.0
 11
232.5
 21
-379.9999999999996
 31
0.0
  0
LINE
  5
245
  8
DATA
  6
CONTINUOUS
 62
     7
 10
233.5
 20
-383.9999999999996
 30
0.0
 11
232.5
 21
-383.9999999999996
 31
0.0
  0
LINE
  5
246
  8
DATA
  6
CONTINUOUS
 62
     7
 10
233.5
 20
-379.9999999999996
 30
0.0
 11
233.5
 21
-383.9999999999996
 31
0.0
  0
LINE
  5
247
  8
DATA
  6
CONTINUOUS
 62
     7
 10
232.5
 20
-379.9999999999996
 30
0.0
 11
233.5
 21
-379.9999999999996
 31
0.0
  0
LINE
  5
248
  8
DATA
  6
CONTINUOUS
 62
     7
 10
224.39999999999961
 20
-389.29999999999973
 30
0.0
 11
224.39999999999961
 21
-385.29999999999973
 31
0.0
  0
LINE
  5
249
  8
DATA
  6
CONTINUOUS
 62
     7
 10
225.39999999999961
 20
-389.29999999999973
 30
0.0
 11
224.39999999999961
 21
-389.29999999999973
 31
0.0
  0
LINE
  5
24A
  8
DATA
  6
CONTINUOUS
 62
     7
 10
225.39999999999961
 20
-385.29999999999973
 30
0.0
 11
225.39999999999961
 21
-389.29999999999973
 31
0.0
  0
LINE
  5
24B
  8
DATA
  6
CONTINUOUS
 62
     7
 10
224.39999999999961
 20
-385.29999999999973
 30
0.0
 11
225.39999999999961
 21
-385.29999999999973
 31
0.0
  0
LINE
  5
24C
  8
DATA
  6
CONTINUOUS
 62
     7
 10
241.60000000000039
 20
-389.29999999999973
 30
0.0
 11
241.60000000000039
 21
-385.29999999999973
 31
0.0
  0
LINE
  5
24D
  8
DATA
  6
CONTINUOUS
 62
     7
 10
240.60000000000039
 20
-389.29999999999973
 30
0.0
 11
241.60000000000039
 21
-389.29999999999973
 31
0.0
  0
LINE
  5
24E
  8
DATA
  6
CONTINUOUS
 62
     7
 10
240.60000000000039
 20
-385.29999999999973
 30
0.0
 11
240.60000000000039
 21
-389.29999999999973
 31
0.0
  0
LINE
  5
24F
  8
DATA
  6
CONTINUOUS
 62
     7
 10
241.60000000000039
 20
-385.29999999999973
 30
0.0
 11
240.60000000000039
 21
-385.29999999999973
 31
0.0
  0
TEXT
  5
250
  8
DATA
 62
     7
 10
216.4435084364149
 20
-370.72852647569403
 30
0.0
 40
2.0360514322916661
  1
Power AC～100-240V 50/60Hz
 41
0.7
 72
     1
 11
233.0
 21
-370.9999999999996
 31
0.0
 73
     1
  0
TEXT
  5
251
  8
DATA
 62
     7
 10
275.3216425238715
 20
-370.72852647569403
 30
0.0
 40
2.0360514322916661
  1
127W Max
 41
0.7
 72
     1
 11
280.5
 21
-370.9999999999996
 31
0.0
 73
     1
  0
TEXT
  5
252
  8
DATA
 62
     7
 10
278.12460666232641
 20
-385.55083333333278
 30
0.0
 40
4.072102864583333
  1
ON
 41
0.7
 72
     1
 11
280.5
 21
-381.47873046874952
 31
0.0
 73
     3
  0
TEXT
  5
253
  8
DATA
 62
     7
 10
276.69937065972221
 20
-393.4570529513885
 30
0.0
 40
4.072102864583333
  1
OFF
 41
0.7
 72
     1
 11
280.5
 21
-393.9999999999996
 31
0.0
 73
     1
  0
LINE
  5
254
  8
DATA
  6
CONTINUOUS
 62
     7
 10
269.0
 20
-364.9999999999996
 30
0.0
 11
269.0
 21
-333.9999999999996
 31
0.0
  0
LINE
  5
255
  8
DATA
  6
CONTINUOUS
 62
     7
 10
293.5
 20
-366.4999999999996
 30
0.0
 11
270.5
 21
-366.4999999999996
 31
0.0
  0
LINE
  5
256
  8
DATA
  6
CONTINUOUS
 62
     7
 10
295.0
 20
-333.9999999999996
 30
0.0
 11
295.0
 21
-364.9999999999996
 31
0.0
  0
LINE
  5
257
  8
DATA
  6
CONTINUOUS
 62
     7
 10
270.5
 20
-332.4999999999996
 30
0.0
 11
293.5
 21
-332.4999999999996
 31
0.0
  0
LINE
  5
258
  8
DATA
  6
CONTINUOUS
 62
     7
 10
269.0
 20
-335.4999999999996
 30
0.0
 11
295.0
 21
-335.4999999999996
 31
0.0
  0
LINE
  5
259
  8
DATA
  6
CONTINUOUS
 62
     7
 10
266.5
 20
-366.4999999999996
 30
0.0
 11
206.5
 21
-366.4999999999996
 31
0.0
  0
LINE
  5
25A
  8
DATA
  6
CONTINUOUS
 62
     7
 10
205.0
 20
-364.9999999999996
 30
0.0
 11
205.0
 21
-345.99999999999949
 31
0.0
  0
LINE
  5
25B
  8
DATA
  6
CONTINUOUS
 62
     7
 10
268.0
 20
-364.9999999999996
 30
0.0
 11
268.0
 21
-354.99999999999949
 31
0.0
  0
LINE
  5
25C
  8
DATA
  6
CONTINUOUS
 62
     7
 10
266.5
 20
-353.4999999999996
 30
0.0
 11
237.5
 21
-353.4999999999996
 31
0.0
  0
LINE
  5
25D
  8
DATA
  6
CONTINUOUS
 62
     7
 10
206.5
 20
-344.49999999999949
 30
0.0
 11
234.5
 21
-344.49999999999949
 31
0.0
  0
LINE
  5
25E
  8
DATA
  6
CONTINUOUS
 62
     7
 10
206.5
 20
-343.4999999999996
 30
0.0
 11
234.5
 21
-343.4999999999996
 31
0.0
  0
LINE
  5
25F
  8
DATA
  6
CONTINUOUS
 62
     7
 10
236.0
 20
-351.9999999999996
 30
0.0
 11
236.0
 21
-345.99999999999949
 31
0.0
  0
LINE
  5
260
  8
DATA
  6
CONTINUOUS
 62
     7
 10
253.0
 20
-350.49999999999949
 30
0.0
 11
253.0
 21
-333.9999999999996
 31
0.0
  0
LINE
  5
261
  8
DATA
  6
CONTINUOUS
 62
     7
 10
266.5
 20
-351.9999999999996
 30
0.0
 11
254.5
 21
-351.9999999999996
 31
0.0
  0
LINE
  5
262
  8
DATA
  6
CONTINUOUS
 62
     7
 10
268.0
 20
-333.9999999999996
 30
0.0
 11
268.0
 21
-350.49999999999949
 31
0.0
  0
LINE
  5
263
  8
DATA
  6
CONTINUOUS
 62
     7
 10
254.5
 20
-332.4999999999996
 30
0.0
 11
266.5
 21
-332.4999999999996
 31
0.0
  0
LINE
  5
264
  8
DATA
  6
CONTINUOUS
 62
     7
 10
253.0
 20
-335.4999999999996
 30
0.0
 11
268.0
 21
-335.4999999999996
 31
0.0
  0
LINE
  5
265
  8
DATA
  6
CONTINUOUS
 62
     7
 10
252.0
 20
-350.49999999999949
 30
0.0
 11
252.0
 21
-333.9999999999996
 31
0.0
  0
LINE
  5
266
  8
DATA
  6
CONTINUOUS
 62
     7
 10
238.5
 20
-351.9999999999996
 30
0.0
 11
250.5
 21
-351.9999999999996
 31
0.0
  0
LINE
  5
267
  8
DATA
  6
CONTINUOUS
 62
     7
 10
237.0
 20
-333.9999999999996
 30
0.0
 11
237.0
 21
-350.49999999999949
 31
0.0
  0
LINE
  5
268
  8
DATA
  6
CONTINUOUS
 62
     7
 10
250.5
 20
-332.4999999999996
 30
0.0
 11
238.5
 21
-332.4999999999996
 31
0.0
  0
LINE
  5
269
  8
DATA
  6
CONTINUOUS
 62
     7
 10
252.0
 20
-335.4999999999996
 30
0.0
 11
237.0
 21
-335.4999999999996
 31
0.0
  0
TEXT
  5
26A
  8
DATA
 62
     7
 10
256.27179985894099
 20
-335.22852647569403
 30
0.0
 40
2.0360514322916661
  1
HF TRIM
 41
0.7
 72
     1
 11
260.5
 21
-335.4999999999996
 31
0.0
 73
     1
  0
TEXT
  5
26B
  8
DATA
 62
     7
 10
278.08060099283853
 20
-335.22852647569403
 30
0.0
 40
2.0360514322916661
  1
Volume
 41
0.7
 72
     1
 11
282.0
 21
-335.4999999999996
 31
0.0
 73
     1
  0
TEXT
  5
26C
  8
DATA
 62
     7
 10
240.27179985894099
 20
-335.22852647569403
 30
0.0
 40
2.0360514322916661
  1
LF TRIM
 41
0.7
 72
     1
 11
244.5
 21
-335.4999999999996
 31
0.0
 73
     1
  0
LINE
  5
26D
  8
DATA
  6
CONTINUOUS
 62
     7
 10
205.0
 20
-341.9999999999996
 30
0.0
 11
205.0
 21
-305.9999999999996
 31
0.0
  0
LINE
  5
26E
  8
DATA
  6
CONTINUOUS
 62
     7
 10
206.5
 20
-304.4999999999996
 30
0.0
 11
266.5
 21
-304.4999999999996
 31
0.0
  0
LINE
  5
26F
  8
DATA
  6
CONTINUOUS
 62
     7
 10
205.0
 20
-307.4999999999996
 30
0.0
 11
268.0
 21
-307.4999999999996
 31
0.0
  0
LINE
  5
270
  8
DATA
  6
CONTINUOUS
 62
     7
 10
236.0
 20
-332.4999999999996
 30
0.0
 11
236.0
 21
-341.9999999999996
 31
0.0
  0
LINE
  5
271
  8
DATA
  6
CONTINUOUS
 62
     7
 10
266.5
 20
-330.9999999999996
 30
0.0
 11
237.5
 21
-330.9999999999996
 31
0.0
  0
LINE
  5
272
  8
DATA
  6
CONTINUOUS
 62
     7
 10
268.0
 20
-305.9999999999996
 30
0.0
 11
268.0
 21
-329.4999999999996
 31
0.0
  0
LINE
  5
273
  8
DATA
  6
CONTINUOUS
 62
     7
 10
269.0
 20
-329.4999999999996
 30
0.0
 11
269.0
 21
-305.9999999999996
 31
0.0
  0
LINE
  5
274
  8
DATA
  6
CONTINUOUS
 62
     7
 10
293.5
 20
-330.9999999999996
 30
0.0
 11
270.5
 21
-330.9999999999996
 31
0.0
  0
LINE
  5
275
  8
DATA
  6
CONTINUOUS
 62
     7
 10
295.0
 20
-305.9999999999996
 30
0.0
 11
295.0
 21
-329.4999999999996
 31
0.0
  0
LINE
  5
276
  8
DATA
  6
CONTINUOUS
 62
     7
 10
270.5
 20
-304.4999999999996
 30
0.0
 11
293.5
 21
-304.4999999999996
 31
0.0
  0
LINE
  5
277
  8
DATA
  6
CONTINUOUS
 62
     7
 10
269.0
 20
-307.4999999999996
 30
0.0
 11
295.0
 21
-307.4999999999996
 31
0.0
  0
TEXT
  5
278
  8
DATA
 62
     7
 10
272.07085584852427
 20
-307.22852647569403
 30
0.0
 40
2.0360514322916661
  1
Input Sensitivity
 41
0.7
 72
     1
 11
282.0
 21
-307.4999999999996
 31
0.0
 73
     1
  0
TEXT
  5
279
  8
DATA
 62
     7
 10
227.68729071723089
 20
-307.22852647569403
 30
0.0
 40
2.0360514322916661
  1
Blanced Input 
 41
0.7
 72
     1
 11
236.5
 21
-307.4999999999996
 31
0.0
 73
     1
  0
LINE
  5
27A
  8
DATA
  6
CONTINUOUS
 62
     7
 10
241.0
 20
-342.9999999999996
 30
0.0
 11
241.0
 21
-340.4999999999996
 31
0.0
  0
LINE
  5
27B
  8
DATA
  6
CONTINUOUS
 62
     7
 10
248.0
 20
-342.9999999999996
 30
0.0
 11
241.0
 21
-342.9999999999996
 31
0.0
  0
LINE
  5
27C
  8
DATA
  6
CONTINUOUS
 62
     7
 10
248.0
 20
-340.4999999999996
 30
0.0
 11
248.0
 21
-342.9999999999996
 31
0.0
  0
LINE
  5
27D
  8
DATA
  6
CONTINUOUS
 62
     7
 10
241.0
 20
-340.4999999999996
 30
0.0
 11
248.0
 21
-340.4999999999996
 31
0.0
  0
LINE
  5
27E
  8
DATA
  6
CONTINUOUS
 62
     7
 10
243.5
 20
-342.9999999999996
 30
0.0
 11
243.5
 21
-340.4999999999996
 31
0.0
  0
LINE
  5
27F
  8
DATA
  6
CONTINUOUS
 62
     7
 10
244.09999999999991
 20
-342.9999999999996
 30
0.0
 11
244.09999999999991
 21
-340.4999999999996
 31
0.0
  0
LINE
  5
280
  8
DATA
  6
CONTINUOUS
 62
     7
 10
245.5
 20
-342.9999999999996
 30
0.0
 11
243.5
 21
-342.9999999999996
 31
0.0
  0
LINE
  5
281
  8
DATA
  6
CONTINUOUS
 62
     7
 10
245.5
 20
-340.4999999999996
 30
0.0
 11
245.5
 21
-342.9999999999996
 31
0.0
  0
LINE
  5
282
  8
DATA
  6
CONTINUOUS
 62
     7
 10
244.90000000000009
 20
-340.4999999999996
 30
0.0
 11
244.90000000000009
 21
-342.9999999999996
 31
0.0
  0
LINE
  5
283
  8
DATA
  6
CONTINUOUS
 62
     7
 10
243.5
 20
-340.4999999999996
 30
0.0
 11
245.5
 21
-340.4999999999996
 31
0.0
  0
LINE
  5
284
  8
DATA
  6
CONTINUOUS
 62
     7
 10
260.0
 20
-342.9999999999996
 30
0.0
 11
260.0
 21
-340.4999999999996
 31
0.0
  0
LINE
  5
285
  8
DATA
  6
CONTINUOUS
 62
     7
 10
267.0
 20
-342.9999999999996
 30
0.0
 11
260.0
 21
-342.9999999999996
 31
0.0
  0
LINE
  5
286
  8
DATA
  6
CONTINUOUS
 62
     7
 10
267.0
 20
-340.4999999999996
 30
0.0
 11
267.0
 21
-342.9999999999996
 31
0.0
  0
LINE
  5
287
  8
DATA
  6
CONTINUOUS
 62
     7
 10
260.0
 20
-340.4999999999996
 30
0.0
 11
267.0
 21
-340.4999999999996
 31
0.0
  0
LINE
  5
288
  8
DATA
  6
CONTINUOUS
 62
     7
 10
262.5
 20
-342.9999999999996
 30
0.0
 11
262.5
 21
-340.4999999999996
 31
0.0
  0
LINE
  5
289
  8
DATA
  6
CONTINUOUS
 62
     7
 10
263.09999999999991
 20
-342.9999999999996
 30
0.0
 11
263.09999999999991
 21
-340.4999999999996
 31
0.0
  0
LINE
  5
28A
  8
DATA
  6
CONTINUOUS
 62
     7
 10
264.5
 20
-342.9999999999996
 30
0.0
 11
262.5
 21
-342.9999999999996
 31
0.0
  0
LINE
  5
28B
  8
DATA
  6
CONTINUOUS
 62
     7
 10
264.5
 20
-340.4999999999996
 30
0.0
 11
264.5
 21
-342.9999999999996
 31
0.0
  0
LINE
  5
28C
  8
DATA
  6
CONTINUOUS
 62
     7
 10
263.90000000000009
 20
-340.4999999999996
 30
0.0
 11
263.90000000000009
 21
-342.9999999999996
 31
0.0
  0
LINE
  5
28D
  8
DATA
  6
CONTINUOUS
 62
     7
 10
262.5
 20
-340.4999999999996
 30
0.0
 11
264.5
 21
-340.4999999999996
 31
0.0
  0
LINE
  5
28E
  8
DATA
  6
CONTINUOUS
 62
     7
 10
281.0
 20
-313.9999999999996
 30
0.0
 11
281.0
 21
-311.4999999999996
 31
0.0
  0
LINE
  5
28F
  8
DATA
  6
CONTINUOUS
 62
     7
 10
288.0
 20
-313.9999999999996
 30
0.0
 11
281.0
 21
-313.9999999999996
 31
0.0
  0
LINE
  5
290
  8
DATA
  6
CONTINUOUS
 62
     7
 10
288.0
 20
-311.4999999999996
 30
0.0
 11
288.0
 21
-313.9999999999996
 31
0.0
  0
LINE
  5
291
  8
DATA
  6
CONTINUOUS
 62
     7
 10
281.0
 20
-311.4999999999996
 30
0.0
 11
288.0
 21
-311.4999999999996
 31
0.0
  0
ARC
  5
292
  8
DATA
  6
CONTINUOUS
 62
     7
 10
279.99999999997641
 20
-349.50000000002319
 30
0.0
 40
7.0000000000330633
 50
21.876302269096492
 51
38.147761665057409
  0
ARC
  5
293
  8
DATA
  6
CONTINUOUS
 62
     7
 10
279.99999999997641
 20
-349.50000000002319
 30
0.0
 40
7.0000000000337117
 50
291.85393379007718
 51
308.14776166516009
  0
ARC
  5
294
  8
DATA
  6
CONTINUOUS
 62
     7
 10
279.99999999997641
 20
-349.50000000002319
 30
0.0
 40
7.0000000000339986
 50
261.87630226883289
 51
278.1460662094691
  0
ARC
  5
295
  8
DATA
  6
CONTINUOUS
 62
     7
 10
279.99999999997641
 20
-349.50000000002319
 30
0.0
 40
7.0000000000338547
 50
218.14776166495901
 51
231.92483788699849
  0
ARC
  5
296
  8
DATA
  6
CONTINUOUS
 62
     7
 10
279.99999999997641
 20
-349.50000000002319
 30
0.0
 40
7.000000000033995
 50
171.85393379052809
 51
188.12369773116319
  0
ARC
  5
297
  8
DATA
  6
CONTINUOUS
 62
     7
 10
279.99999999997641
 20
-349.50000000002319
 30
0.0
 40
7.0000000000336353
 50
141.8522383348384
 51
158.146066209921
  0
ARC
  5
298
  8
DATA
  6
CONTINUOUS
 62
     7
 10
279.99999999997641
 20
-349.50000000002319
 30
0.0
 40
7.0000000000331291
 50
81.876302268843133
 51
104.9999999997632
  0
ARC
  5
299
  8
DATA
  6
CONTINUOUS
 62
     7
 10
279.99999999997641
 20
-349.50000000002319
 30
0.0
 40
7.0000000000333182
 50
51.852238334938221
 51
68.123697730903515
  0
ARC
  5
29A
  8
DATA
  6
CONTINUOUS
 62
     7
 10
279.99999999995958
 20
-349.50000000004002
 30
0.0
 40
6.4999999999434124
 50
229.41172578580941
 51
220.58827421419161
  0
ARC
  5
29B
  8
DATA
  6
CONTINUOUS
 62
     7
 10
285.30330085889909
 20
-344.19669914110051
 30
0.0
 40
0.9999999999997136
 50
168.3670129692313
 51
281.63298703076612
  0
ARC
  5
29C
  8
DATA
  6
CONTINUOUS
 62
     7
 10
281.93989805541793
 20
-342.2602018956768
 30
0.0
 40
1.0000000000004381
 50
198.06170338760441
 51
311.93829661209952
  0
ARC
  5
29D
  8
DATA
  6
CONTINUOUS
 62
     7
 10
287.23979810432269
 20
-347.56010194458167
 30
0.0
 40
1.0000000000004341
 50
138.06170338790051
 51
251.93829661237081
  0
ARC
  5
29E
  8
DATA
  6
CONTINUOUS
 62
     7
 10
278.06010194453438
 20
-356.7397981043701
 30
0.0
 40
1.0000000000000751
 50
18.061703387624931
 51
131.9382966120713
  0
ARC
  5
29F
  8
DATA
  6
CONTINUOUS
 62
     7
 10
272.76020189562962
 20
-351.43989805546522
 30
0.0
 40
1.000000000000469
 50
318.06170338793743
 51
71.938296612395561
  0
ARC
  5
2A0
  8
DATA
  6
CONTINUOUS
 62
     7
 10
274.69669914110091
 20
-344.19669914110051
 30
0.0
 40
1.0000000000000271
 50
258.36701296604281
 51
11.63298703185708
  0
ARC
  5
2A1
  8
DATA
  6
CONTINUOUS
 62
     7
 10
272.7558819484006
 20
-347.55894441825779
 30
0.0
 40
1.000000000000093
 50
288.34558253069792
 51
41.654417469720173
  0
LINE
  5
2A2
  8
DATA
  6
CONTINUOUS
 62
     7
 10
276.81801948461322
 20
-351.97487373419972
 30
0.0
 11
274.70934219482621
 21
-354.08355102398667
 31
0.0
  0
LINE
  5
2A3
  8
DATA
  6
CONTINUOUS
 62
     7
 10
277.52512626579983
 20
-352.68198051538627
 30
0.0
 11
276.81801948461322
 21
-351.97487373419972
 31
0.0
  0
LINE
  5
2A4
  8
DATA
  6
CONTINUOUS
 62
     7
 10
275.41644897601242
 20
-354.79065780517328
 30
0.0
 11
277.52512626579983
 21
-352.68198051538627
 31
0.0
  0
ARC
  5
2A5
  8
DATA
  6
CONTINUOUS
 62
     7
 10
280.00000000003172
 20
-349.50000000000921
 30
0.0
 40
7.000000000033598
 50
105.0000000002367
 51
128.12369773115191
  0
ARC
  5
2A6
  8
DATA
  6
CONTINUOUS
 62
     7
 10
285.30330085889852
 20
-354.80330085889909
 30
0.0
 40
1.0000000000004461
 50
78.367012968122651
 51
191.63298703396239
  0
ARC
  5
2A7
  8
DATA
  6
CONTINUOUS
 62
     7
 10
281.94105558174169
 20
-356.74411805159889
 30
0.0
 40
0.9999999999998127
 50
48.345582530306856
 51
161.6544174692732
  0
ARC
  5
2A8
  8
DATA
  6
CONTINUOUS
 62
     7
 10
279.99999999997641
 20
-349.50000000002319
 30
0.0
 40
7.0000000000328404
 50
345.00000000023942
 51
8.1236977311605187
  0
ARC
  5
2A9
  8
DATA
  6
CONTINUOUS
 62
     7
 10
279.99999999999
 20
-349.49999999996732
 30
0.0
 40
7.000000000033638
 50
321.87630226884693
 51
344.99999999976012
  0
ARC
  5
2AA
  8
DATA
  6
CONTINUOUS
 62
     7
 10
280.00000000004638
 20
-349.49999999995362
 30
0.0
 40
7.0000000000333182
 50
231.85223833493819
 51
248.123697730907
  0
ARC
  5
2AB
  8
DATA
  6
CONTINUOUS
 62
     7
 10
280.00000000004638
 20
-349.49999999995362
 30
0.0
 40
7.0000000000339071
 50
201.87630226909371
 51
218.14776166505499
  0
LINE
  5
2AC
  8
DATA
  6
CONTINUOUS
 62
     7
 10
275.40404431008392
 20
-354.0959556899179
 30
0.0
 11
275.40380592230838
 21
-354.09619407769333
 31
0.0
  0
LINE
  5
2AD
  8
DATA
  6
CONTINUOUS
 62
     7
 10
274.69669914110227
 20
-354.80330085889949
 30
0.0
 11
273.9895923599388
 21
-355.51040764006308
 31
0.0
  0
LINE
  5
2AE
  8
DATA
  6
CONTINUOUS
 62
     7
 10
272.7555563028468
 20
-351.44114283832403
 30
0.0
 11
271.78963047658681
 21
-351.69996188341878
 31
0.0
  0
LINE
  5
2AF
  8
DATA
  6
CONTINUOUS
 62
     7
 10
275.40720673230493
 20
-344.90720673225701
 30
0.0
 11
275.40380592238671
 21
-344.90380592233851
 31
0.0
  0
LINE
  5
2B0
  8
DATA
  6
CONTINUOUS
 62
     7
 10
274.69669914112501
 20
-344.19669914107681
 30
0.0
 11
273.9895923599388
 21
-343.48959235989048
 31
0.0
  0
LINE
  5
2B1
  8
DATA
  6
CONTINUOUS
 62
     7
 10
272.75555630285862
 20
-347.55885716163277
 30
0.0
 11
271.78963047658681
 21
-347.30003811653501
 31
0.0
  0
LINE
  5
2B2
  8
DATA
  6
CONTINUOUS
 62
     7
 10
278.31767620686293
 20
-343.22148212923048
 30
0.0
 11
278.31767620576147
 21
-343.22148212511962
 31
0.0
  0
LINE
  5
2B3
  8
DATA
  6
CONTINUOUS
 62
     7
 10
278.05885716172497
 20
-342.25555630283412
 30
0.0
 11
277.80003811661209
 21
-341.28963047653042
 31
0.0
  0
LINE
  5
2B4
  8
DATA
  6
CONTINUOUS
 62
     7
 10
284.59279327040798
 20
-354.09279327037967
 30
0.0
 11
284.59619407772198
 21
-354.09619407769361
 31
0.0
  0
LINE
  5
2B5
  8
DATA
  6
CONTINUOUS
 62
     7
 10
285.30330085891268
 20
-354.80330085888431
 30
0.0
 11
286.01040764009122
 21
-355.51040764006308
 31
0.0
  0
LINE
  5
2B6
  8
DATA
  6
CONTINUOUS
 62
     7
 10
286.2781922246445
 20
-351.18223653657168
 30
0.0
 11
286.27851787084001
 21
-351.18232379320671
 31
0.0
  0
LINE
  5
2B7
  8
DATA
  6
CONTINUOUS
 62
     7
 10
287.24444369715548
 20
-351.44114283831641
 30
0.0
 11
288.2103695234614
 21
-351.69996188342338
 31
0.0
  0
LINE
  5
2B8
  8
DATA
  6
CONTINUOUS
 62
     7
 10
295.0
 20
-353.51923788651771
 30
0.0
 11
295.3099243467118
 21
-353.60228186493401
 31
0.0
  0
LINE
  5
2B9
  8
DATA
  6
CONTINUOUS
 62
     7
 10
285.30330085889
 20
-344.19669914109181
 30
0.0
 11
286.01040764009122
 21
-343.48959235989048
 31
0.0
  0
LINE
  5
2BA
  8
DATA
  6
CONTINUOUS
 62
     7
 10
287.2444436971432
 20
-347.55885716164039
 30
0.0
 11
288.2103695234614
 21
-347.30003811653017
 31
0.0
  0
LINE
  5
2BB
  8
DATA
  6
CONTINUOUS
 62
     7
 10
295.0
 20
-345.48076211343601
 30
0.0
 11
295.3099243467118
 21
-345.39771813501972
 31
0.0
  0
LINE
  5
2BC
  8
DATA
  6
CONTINUOUS
 62
     7
 10
281.68107900728182
 20
-343.22612773339961
 30
0.0
 11
281.6823237931676
 21
-343.22148212923048
 31
0.0
  0
LINE
  5
2BD
  8
DATA
  6
CONTINUOUS
 62
     7
 10
281.94114283830368
 20
-342.25555630283952
 30
0.0
 11
282.19996188341793
 21
-341.28963047653042
 31
0.0
  0
TEXT
  5
2BE
  8
DATA
 62
     7
 10
273.51451369240408
 20
-357.78582430672969
 30
0.0
 40
2.0360514322916661
  1
1
 41
0.7
 72
     2
 11
273.9895923599388
 21
-355.74977287443801
 31
0.0
 73
     3
  0
TEXT
  5
2BF
  8
DATA
 62
     7
 10
270.83947314151737
 20
-352.71798759956459
 30
0.0
 40
2.0360514322916661
  1
2
 41
0.7
 72
     2
 11
271.78963047658681
 21
-351.69996188341878
 31
0.0
 73
     2
  0
TEXT
  5
2C0
  8
DATA
 62
     7
 10
270.83947314151737
 20
-348.31806383268082
 30
0.0
 40
2.0360514322916661
  1
3
 41
0.7
 72
     2
 11
271.78963047658681
 21
-347.30003811653501
 31
0.0
 73
     2
  0
TEXT
  5
2C1
  8
DATA
 62
     7
 10
273.03943502486942
 20
-344.13720140936982
 30
0.0
 40
2.0360514322916661
  1
4
 41
0.7
 72
     2
 11
273.9895923599388
 21
-343.11917569322401
 31
0.0
 73
     2
  0
TEXT
  5
2C2
  8
DATA
 62
     7
 10
276.97174675493659
 20
-341.16806383278509
 30
0.0
 40
2.0360514322916661
  1
5
 41
0.7
 72
     2
 11
277.92190409000608
 21
-340.15003811663928
 31
0.0
 73
     2
  0
TEXT
  5
2C3
  8
DATA
 62
     7
 10
282.57272121501512
 20
-340.98473952600972
 30
0.0
 40
2.0360514322916661
  1
6
 41
0.7
 72
     2
 11
283.5228785500845
 21
-339.9667138098639
 31
0.0
 73
     2
  0
TEXT
  5
2C4
  8
DATA
 62
     7
 10
286.3831669716883
 20
-344.50761807603629
 30
0.0
 40
2.0360514322916661
  1
7
 41
0.7
 72
     2
 11
287.33332430675767
 21
-343.48959235989048
 31
0.0
 73
     2
  0
TEXT
  5
2C5
  8
DATA
 62
     7
 10
288.58312885505848
 20
-348.31806383267599
 30
0.0
 40
2.0360514322916661
  1
8
 41
0.7
 72
     2
 11
289.53328619012802
 21
-347.30003811653017
 31
0.0
 73
     2
  0
TEXT
  5
2C6
  8
DATA
 62
     7
 10
288.58312885505848
 20
-352.7179875995692
 30
0.0
 40
2.0360514322916661
  1
9
 41
0.7
 72
     2
 11
289.53328619012802
 21
-351.69996188342338
 31
0.0
 73
     2
  0
TEXT
  5
2C7
  8
DATA
 62
     7
 10
285.67054897038622
 20
-357.85135002287552
 30
0.0
 40
2.0360514322916661
  1
10
 41
0.7
 72
     2
 11
287.33332430675767
 21
-356.83332430672959
 31
0.0
 73
     2
  0
TEXT
  5
2C8
  8
DATA
 62
     7
 10
269.90337056473999
 20
-360.53060078242419
 30
0.0
 40
2.0360514322916661
  1
Min
 41
0.7
 72
     1
 11
271.3286065673442
 21
-360.80207430672982
 31
0.0
 73
     1
  0
TEXT
  5
2C9
  8
DATA
 62
     7
 10
287.35537291786881
 20
-360.53060078242407
 30
0.0
 40
2.0360514322916661
  1
Max
 41
0.7
 72
     1
 11
289.25568758800767
 21
-360.80207430672959
 31
0.0
 73
     1
  0
CIRCLE
  5
2CA
  8
DATA
  6
CONTINUOUS
 62
     7
 10
288.0
 20
-315.4999999999996
 30
0.0
 40
0.4999999999998443
  0
LINE
  5
2CB
  8
DATA
  6
CONTINUOUS
 62
     7
 10
288.25
 20
-315.93301270189158
 30
0.0
 11
289.40000000000009
 21
-317.92487113059588
 31
0.0
  0
CIRCLE
  5
2CC
  8
DATA
  6
CONTINUOUS
 62
     7
 10
281.0
 20
-315.4999999999996
 30
0.0
 40
0.4999999999998443
  0
LINE
  5
2CD
  8
DATA
  6
CONTINUOUS
 62
     7
 10
280.75
 20
-315.93301270189158
 30
0.0
 11
279.59999999999991
 21
-317.92487113059588
 31
0.0
  0
TEXT
  5
2CE
  8
DATA
 62
     7
 10
285.48060099283862
 20
-320.2002877972626
 30
0.0
 40
2.0360514322916661
  1
-10dBV
 41
0.7
 72
     1
 11
289.40000000000009
 21
-318.16423636497092
 31
0.0
 73
     3
  0
TEXT
  5
2CF
  8
DATA
 62
     7
 10
276.27444932725678
 20
-320.2002877972626
 30
0.0
 40
2.0360514322916661
  1
+4dBu
 41
0.7
 72
     1
 11
279.59999999999991
 21
-318.16423636497092
 31
0.0
 73
     3
  0
CIRCLE
  5
2D0
  8
DATA
  6
CONTINUOUS
 62
     7
 10
267.0
 20
-343.4999999999996
 30
0.0
 40
0.4999999999998443
  0
LINE
  5
2D1
  8
DATA
  6
CONTINUOUS
 62
     7
 10
266.64644660940672
 20
-343.85355339059242
 30
0.0
 11
264.36000000000013
 21
-346.13999999999947
 31
0.0
  0
TEXT
  5
2D2
  8
DATA
 62
     7
 10
262.62636091400958
 20
-348.41541666666609
 30
0.0
 40
2.0360514322916661
  1
+2dB
 41
0.7
 72
     1
 11
265.23929358545053
 21
-346.3793652343744
 31
0.0
 73
     3
  0
TEXT
  5
2D3
  8
DATA
 62
     7
 10
253.6601188092844
 20
-348.41541666666609
 30
0.0
 40
2.0360514322916661
  1
-2dB
 41
0.7
 72
     1
 11
256.27305148072543
 21
-346.3793652343744
 31
0.0
 73
     3
  0
TEXT
  5
2D4
  8
DATA
 62
     7
 10
260.50369099934909
 20
-348.41541666666609
 30
0.0
 40
2.0360514322916661
  1
0
 41
0.7
 72
     1
 11
260.86000000000013
 21
-346.3793652343744
 31
0.0
 73
     3
  0
CIRCLE
  5
2D5
  8
DATA
  6
CONTINUOUS
 62
     7
 10
263.5
 20
-343.4999999999996
 30
0.0
 40
0.4999999999998443
  0
LINE
  5
2D6
  8
DATA
  6
CONTINUOUS
 62
     7
 10
263.14644660940672
 20
-343.85355339059242
 30
0.0
 11
260.86000000000013
 21
-346.13999999999947
 31
0.0
  0
CIRCLE
  5
2D7
  8
DATA
  6
CONTINUOUS
 62
     7
 10
260.0
 20
-343.4999999999996
 30
0.0
 40
0.4999999999998443
  0
LINE
  5
2D8
  8
DATA
  6
CONTINUOUS
 62
     7
 10
259.64644660940672
 20
-343.85355339059242
 30
0.0
 11
257.36000000000013
 21
-346.13999999999947
 31
0.0
  0
CIRCLE
  5
2D9
  8
DATA
  6
CONTINUOUS
 62
     7
 10
248.0
 20
-343.4999999999996
 30
0.0
 40
0.4999999999998443
  0
CIRCLE
  5
2DA
  8
DATA
  6
CONTINUOUS
 62
     7
 10
244.5
 20
-343.4999999999996
 30
0.0
 40
0.4999999999998443
  0
CIRCLE
  5
2DB
  8
DATA
  6
CONTINUOUS
 62
     7
 10
241.0
 20
-343.4999999999996
 30
0.0
 40
0.4999999999998443
  0
LINE
  5
2DC
  8
DATA
  6
CONTINUOUS
 62
     7
 10
248.25
 20
-343.93301270189158
 30
0.0
 11
249.67431578065001
 21
-346.39999999999958
 31
0.0
  0
TEXT
  5
2DD
  8
DATA
 62
     7
 10
246.22706732855909
 20
-348.67541666666631
 30
0.0
 40
2.0360514322916661
  1
+2dB
 41
0.7
 72
     1
 11
248.84000000000009
 21
-346.63936523437462
 31
0.0
 73
     3
  0
TEXT
  5
2DE
  8
DATA
 62
     7
 10
237.30011880928421
 20
-348.67541666666631
 30
0.0
 40
2.0360514322916661
  1
-2dB
 41
0.7
 72
     1
 11
239.91305148072519
 21
-346.63936523437462
 31
0.0
 73
     3
  0
TEXT
  5
2DF
  8
DATA
 62
     7
 10
244.14369099934899
 20
-348.67541666666631
 30
0.0
 40
2.0360514322916661
  1
0
 41
0.7
 72
     1
 11
244.5
 21
-346.63936523437462
 31
0.0
 73
     3
  0
LINE
  5
2E0
  8
DATA
  6
CONTINUOUS
 62
     7
 10
244.5
 20
-343.99999999999932
 30
0.0
 11
244.5
 21
-346.39999999999958
 31
0.0
  0
LINE
  5
2E1
  8
DATA
  6
CONTINUOUS
 62
     7
 10
240.75
 20
-343.93301270189158
 30
0.0
 11
239.32568421934999
 21
-346.39999999999958
 31
0.0
  0
ARC
  5
2E2
  8
DATA
  6
CONTINUOUS
 62
     7
 10
206.5
 20
-305.9999999999996
 30
0.0
 40
1.5
 50
90.0
 51
180.0
  0
ARC
  5
2E3
  8
DATA
  6
CONTINUOUS
 62
     7
 10
266.5
 20
-305.9999999999996
 30
0.0
 40
1.5
 50
0.0
 51
90.0
  0
ARC
  5
2E4
  8
DATA
  6
CONTINUOUS
 62
     7
 10
270.5
 20
-305.9999999999996
 30
0.0
 40
1.5
 50
90.0
 51
180.0
  0
ARC
  5
2E5
  8
DATA
  6
CONTINUOUS
 62
     7
 10
293.5
 20
-305.9999999999996
 30
0.0
 40
1.5
 50
0.0
 51
90.0
  0
ARC
  5
2E6
  8
DATA
  6
CONTINUOUS
 62
     7
 10
270.5
 20
-329.4999999999996
 30
0.0
 40
1.5
 50
180.0
 51
270.0
  0
ARC
  5
2E7
  8
DATA
  6
CONTINUOUS
 62
     7
 10
293.5
 20
-329.4999999999996
 30
0.0
 40
1.5
 50
270.0
 51
0.0
  0
ARC
  5
2E8
  8
DATA
  6
CONTINUOUS
 62
     7
 10
293.5
 20
-333.9999999999996
 30
0.0
 40
1.5
 50
0.0
 51
90.0
  0
ARC
  5
2E9
  8
DATA
  6
CONTINUOUS
 62
     7
 10
270.5
 20
-333.9999999999996
 30
0.0
 40
1.5
 50
90.0
 51
180.0
  0
ARC
  5
2EA
  8
DATA
  6
CONTINUOUS
 62
     7
 10
266.5
 20
-329.4999999999996
 30
0.0
 40
1.5
 50
270.0
 51
0.0
  0
ARC
  5
2EB
  8
DATA
  6
CONTINUOUS
 62
     7
 10
266.5
 20
-333.9999999999996
 30
0.0
 40
1.5
 50
0.0
 51
90.0
  0
ARC
  5
2EC
  8
DATA
  6
CONTINUOUS
 62
     7
 10
254.5
 20
-333.9999999999996
 30
0.0
 40
1.5
 50
90.0
 51
180.0
  0
ARC
  5
2ED
  8
DATA
  6
CONTINUOUS
 62
     7
 10
250.5
 20
-333.9999999999996
 30
0.0
 40
1.5
 50
0.0
 51
90.0
  0
ARC
  5
2EE
  8
DATA
  6
CONTINUOUS
 62
     7
 10
238.5
 20
-333.9999999999996
 30
0.0
 40
1.5
 50
90.0
 51
180.0
  0
ARC
  5
2EF
  8
DATA
  6
CONTINUOUS
 62
     7
 10
237.5
 20
-332.4999999999996
 30
0.0
 40
1.5
 50
90.0
 51
180.0
  0
ARC
  5
2F0
  8
DATA
  6
CONTINUOUS
 62
     7
 10
238.5
 20
-350.49999999999949
 30
0.0
 40
1.5
 50
180.0
 51
270.0
  0
ARC
  5
2F1
  8
DATA
  6
CONTINUOUS
 62
     7
 10
250.5
 20
-350.49999999999949
 30
0.0
 40
1.5
 50
270.0
 51
0.0
  0
ARC
  5
2F2
  8
DATA
  6
CONTINUOUS
 62
     7
 10
254.5
 20
-350.49999999999949
 30
0.0
 40
1.5
 50
180.0
 51
270.0
  0
ARC
  5
2F3
  8
DATA
  6
CONTINUOUS
 62
     7
 10
266.5
 20
-350.49999999999949
 30
0.0
 40
1.5
 50
270.0
 51
0.0
  0
ARC
  5
2F4
  8
DATA
  6
CONTINUOUS
 62
     7
 10
237.5
 20
-351.9999999999996
 30
0.0
 40
1.5
 50
180.0
 51
270.0
  0
ARC
  5
2F5
  8
DATA
  6
CONTINUOUS
 62
     7
 10
234.5
 20
-345.99999999999949
 30
0.0
 40
1.5
 50
0.0
 51
90.0
  0
ARC
  5
2F6
  8
DATA
  6
CONTINUOUS
 62
     7
 10
234.5
 20
-341.9999999999996
 30
0.0
 40
1.5
 50
270.0
 51
0.0
  0
ARC
  5
2F7
  8
DATA
  6
CONTINUOUS
 62
     7
 10
206.5
 20
-341.9999999999996
 30
0.0
 40
1.5
 50
180.0
 51
270.0
  0
ARC
  5
2F8
  8
DATA
  6
CONTINUOUS
 62
     7
 10
206.5
 20
-345.99999999999949
 30
0.0
 40
1.5
 50
90.0
 51
180.0
  0
ARC
  5
2F9
  8
DATA
  6
CONTINUOUS
 62
     7
 10
206.5
 20
-364.9999999999996
 30
0.0
 40
1.5
 50
180.0
 51
270.0
  0
ARC
  5
2FA
  8
DATA
  6
CONTINUOUS
 62
     7
 10
206.5
 20
-369.4999999999996
 30
0.0
 40
1.5
 50
90.0
 51
180.0
  0
ARC
  5
2FB
  8
DATA
  6
CONTINUOUS
 62
     7
 10
206.5
 20
-398.4999999999996
 30
0.0
 40
1.5
 50
180.0
 51
270.0
  0
ARC
  5
2FC
  8
DATA
  6
CONTINUOUS
 62
     7
 10
293.5
 20
-398.4999999999996
 30
0.0
 40
1.5
 50
270.0
 51
0.0
  0
ARC
  5
2FD
  8
DATA
  6
CONTINUOUS
 62
     7
 10
293.5
 20
-369.4999999999996
 30
0.0
 40
1.5
 50
0.0
 51
90.0
  0
ARC
  5
2FE
  8
DATA
  6
CONTINUOUS
 62
     7
 10
270.5
 20
-364.9999999999996
 30
0.0
 40
1.5
 50
180.0
 51
270.0
  0
ARC
  5
2FF
  8
DATA
  6
CONTINUOUS
 62
     7
 10
266.5
 20
-354.99999999999949
 30
0.0
 40
1.5
 50
0.0
 51
90.0
  0
ARC
  5
300
  8
DATA
  6
CONTINUOUS
 62
     7
 10
266.5
 20
-364.9999999999996
 30
0.0
 40
1.5
 50
270.0
 51
0.0
  0
ARC
  5
301
  8
DATA
  6
CONTINUOUS
 62
     7
 10
293.5
 20
-364.9999999999996
 30
0.0
 40
1.5
 50
270.0
 51
0.0
  0
CIRCLE
  5
302
  8
DATA
  6
CONTINUOUS
 62
     7
 10
244.0
 20
-321.4999999999996
 30
0.0
 40
8.5000000000000373
  0
CIRCLE
  5
303
  8
DATA
  6
CONTINUOUS
 62
     7
 10
244.0
 20
-321.4999999999996
 30
0.0
 40
5.2500000000001643
  0
CIRCLE
  5
304
  8
DATA
  6
CONTINUOUS
 62
     7
 10
244.0
 20
-321.4999999999996
 30
0.0
 40
4.500000000000119
  0
CIRCLE
  5
305
  8
DATA
  6
CONTINUOUS
 62
     7
 10
244.0
 20
-321.4999999999996
 30
0.0
 40
3.4999999999998752
  0
POLYLINE
  5
306
  8
DATA
  6
CONTINUOUS
 62
     7
 66
     1
 10
0.0
 20
0.0
 30
0.0
 70
     1
  0
VERTEX
  5
5B5
  8
DATA
  6
CONTINUOUS
 62
     7
 10
252.5
 20
-321.4999999999996
 30
0.0
  0
VERTEX
  5
5B6
  8
DATA
  6
CONTINUOUS
 62
     7
 10
248.25
 20
-314.13878406783181
 30
0.0
  0
VERTEX
  5
5B7
  8
DATA
  6
CONTINUOUS
 62
     7
 10
239.75
 20
-314.13878406783181
 30
0.0
  0
VERTEX
  5
5B8
  8
DATA
  6
CONTINUOUS
 62
     7
 10
235.5
 20
-321.4999999999996
 30
0.0
  0
VERTEX
  5
5B9
  8
DATA
  6
CONTINUOUS
 62
     7
 10
239.75
 20
-328.86121593216723
 30
0.0
  0
VERTEX
  5
5BA
  8
DATA
  6
CONTINUOUS
 62
     7
 10
248.25
 20
-328.86121593216723
 30
0.0
  0
SEQEND
  5
5BB
  8
DATA
  6
CONTINUOUS
 62
     7
  0
CIRCLE
  5
30F
  8
DATA
  6
CONTINUOUS
 62
     7
 10
224.0832352928937
 20
-324.49950980283268
 30
0.0
 40
1.813725490014177
  0
CIRCLE
  5
310
  8
DATA
  6
CONTINUOUS
 62
     7
 10
220.00235294036071
 20
-320.91740196005333
 30
0.0
 40
1.813725490015474
  0
CIRCLE
  5
311
  8
DATA
  6
CONTINUOUS
 62
     7
 10
215.9214705878276
 20
-324.49950980283268
 30
0.0
 40
1.813725490014805
  0
CIRCLE
  5
312
  8
DATA
  6
CONTINUOUS
 62
     7
 10
215.9214705878276
 20
-324.49950980283268
 30
0.0
 40
1.813725490014805
  0
CIRCLE
  5
313
  8
DATA
  6
CONTINUOUS
 62
     7
 10
220.00235294036071
 20
-324.49950980283268
 30
0.0
 40
10.882352940088349
  0
CIRCLE
  5
314
  8
DATA
  6
CONTINUOUS
 62
     7
 10
220.00235294036071
 20
-324.49950980283268
 30
0.0
 40
7.1642155523996243
  0
ARC
  5
315
  8
DATA
  6
CONTINUOUS
 62
     7
 10
220.00235294036071
 20
-324.49950980283268
 30
0.0
 40
8.8419117638218623
 50
300.85188598606999
 51
239.1481140139326
  0
CIRCLE
  5
316
  8
DATA
  6
CONTINUOUS
 62
     7
 10
211.38715686279059
 20
-313.61715686274431
 30
0.0
 40
2.26715686274474
  0
CIRCLE
  5
317
  8
DATA
  6
CONTINUOUS
 62
     7
 10
228.61986983083901
 20
-335.38292528377048
 30
0.0
 40
2.2671568627456491
  0
LINE
  5
318
  8
DATA
  6
CONTINUOUS
 62
     7
 10
224.53666666539809
 20
-333.94351764652413
 30
0.0
 11
224.53666666539809
 21
-332.09025434353151
 31
0.0
  0
LINE
  5
319
  8
DATA
  6
CONTINUOUS
 62
     7
 10
217.8258823523438
 20
-331.32512055709401
 30
0.0
 11
217.8258823523438
 21
-331.32512041733042
 31
0.0
  0
LINE
  5
31A
  8
DATA
  6
CONTINUOUS
 62
     7
 10
215.46803921532361
 20
-333.94351764652413
 30
0.0
 11
215.46803921532361
 21
-332.09025434353151
 31
0.0
  0
LINE
  5
31B
  8
DATA
  6
CONTINUOUS
 62
     7
 10
222.58691176363169
 20
-331.18127904236042
 30
0.0
 11
222.58691176363169
 21
-331.1812788995876
 31
0.0
  0
LINE
  5
31C
  8
DATA
  6
CONTINUOUS
 62
     7
 10
212.7497717933457
 20
-313.61715686274431
 30
0.0
 11
210.02918355805201
 21
-313.61715686274431
 31
0.0
  0
LINE
  5
31D
  8
DATA
  6
CONTINUOUS
 62
     7
 10
211.38715686279059
 20
-314.97851352124093
 30
0.0
 11
211.38715686279059
 21
-312.25792528594678
 31
0.0
  0
LINE
  5
31E
  8
DATA
  6
CONTINUOUS
 62
     7
 10
229.98248476139409
 20
-335.38292528377048
 30
0.0
 11
227.26189652609989
 21
-335.38292528377048
 31
0.0
  0
LINE
  5
31F
  8
DATA
  6
CONTINUOUS
 62
     7
 10
228.61986983083901
 20
-336.74428194226709
 30
0.0
 11
228.61986983083901
 21
-334.02369370697272
 31
0.0
  0
CIRCLE
  5
320
  8
DATA
  6
CONTINUOUS
 62
     7
 10
220.00235294036071
 20
-324.49950980283268
 30
0.0
 40
10.476129299925759
  0
TEXT
  5
321
  8
DATA
 62
     7
 10
400.0
 20
-908.01650999999958
 30
0.0
 40
19.546093750000001
  1
LSR305
 41
0.7
 11
400.0
 21
-888.47041624999974
 31
0.0
 73
     3
  0
TEXT
  5
322
  8
DATA
 62
     7
 10
400.0
 20
-850.01650999999958
 30
0.0
 40
19.546093750000001
  1
JBL PROFESSIONAL
 41
0.7
 11
400.0
 21
-830.47041624999974
 31
0.0
 73
     3
  0
ARC
  5
323
  8
DATA
  6
CONTINUOUS
 62
     7
 10
-340.50071428571442
 20
189.23772321428601
 30
0.0
 40
4.3337053571428639
 50
39.597752709048663
 51
140.40224729095141
  0
LINE
  5
324
  8
DATA
  6
CONTINUOUS
 62
     7
 10
-343.84000000000009
 20
192.0000000000002
 30
0.0
 11
-337.16142857142859
 21
192.0000000000002
 31
0.0
  0
TEXT
  5
325
  8
DATA
 62
     7
 10
-700.0
 20
-934.05340777777781
 30
0.0
 40
15.2025173611111
  1
※仕様及び外観は予告なく変更されることがあります。
 41
0.7
 11
-700.0
 21
-918.85089041666686
 31
0.0
 73
     3
  0
TEXT
  5
326
  8
DATA
 62
     7
 10
-700.0
 20
-953.80896333333351
 30
0.0
 40
15.2025173611111
  1
　また、同一商品でも若干の個体差があることがあります。ご了承ください。
 41
0.7
 11
-700.0
 21
-938.60644597222245
 31
0.0
 73
     3
  0
TEXT
  5
327
  8
DATA
 62
     7
 10
325.0
 20
-877.83214999999996
 30
0.0
 40
13.03072916666666
  1
2-Wayバイアンプ　パワード・スタ ジオモニタ ー
 41
0.7
 11
325.0
 21
-864.8014208333334
 31
0.0
 73
     3
  0
TEXT
  5
328
  8
DATA
 62
     7
 10
297.07872000000009
 20
534.99997440000004
 30
0.0
 40
14.4002075
  1
コネクターパネル拡大図
 41
0.7
 11
297.07872000000009
 21
549.40018190000001
 31
0.0
 73
     3
  0
LINE
  5
329
  8
DATA
  6
CONTINUOUS
 62
     7
 10
259.99999999999989
 20
525.0
 30
0.0
 11
540.00000000000011
 21
525.0
 31
0.0
  0
LINE
  5
32A
  8
DATA
  6
CONTINUOUS
 62
     7
 10
130.0
 20
-64.0
 30
0.0
 11
130.0
 21
110.0
 31
0.0
  0
LINE
  5
32B
  8
DATA
  6
CONTINUOUS
 62
     7
 10
139.0
 20
-73.0
 30
0.0
 11
661.0
 21
-73.0
 31
0.0
  0
LINE
  5
32C
  8
DATA
  6
CONTINUOUS
 62
     7
 10
670.0
 20
-64.0
 30
0.0
 11
670.0
 21
110.0
 31
0.0
  0
LINE
  5
32D
  8
DATA
  6
CONTINUOUS
 62
     7
 10
139.0
 20
119.0
 30
0.0
 11
661.0
 21
119.0
 31
0.0
  0
LINE
  5
32E
  8
DATA
  6
CONTINUOUS
 62
     7
 10
130.0
 20
101.0
 30
0.0
 11
670.0
 21
101.0
 31
0.0
  0
LINE
  5
32F
  8
DATA
  6
CONTINUOUS
 62
     7
 10
208.0
 20
-25.0
 30
0.0
 11
208.0
 21
47.0
 31
0.0
  0
LINE
  5
330
  8
DATA
  6
CONTINUOUS
 62
     7
 10
226.0
 20
-19.0
 30
0.0
 11
226.0
 21
21.544155877285451
 31
0.0
  0
LINE
  5
331
  8
DATA
  6
CONTINUOUS
 62
     7
 10
358.0
 20
-55.0
 30
0.0
 11
238.0
 21
-55.0
 31
0.0
  0
LINE
  5
332
  8
DATA
  6
CONTINUOUS
 62
     7
 10
352.0
 20
-37.0
 30
0.0
 11
244.0
 21
-37.0
 31
0.0
  0
LINE
  5
333
  8
DATA
  6
CONTINUOUS
 62
     7
 10
388.0
 20
47.0
 30
0.0
 11
388.0
 21
-25.0
 31
0.0
  0
LINE
  5
334
  8
DATA
  6
CONTINUOUS
 62
     7
 10
370.0
 20
21.544155877285451
 30
0.0
 11
370.0
 21
-19.0
 31
0.0
  0
LINE
  5
335
  8
DATA
  6
CONTINUOUS
 62
     7
 10
238.0
 20
77.0
 30
0.0
 11
358.0
 21
77.0
 31
0.0
  0
LINE
  5
336
  8
DATA
  6
CONTINUOUS
 62
     7
 10
263.45584412271461
 20
59.0
 30
0.0
 11
332.5441558772855
 21
59.0
 31
0.0
  0
LINE
  5
337
  8
DATA
  6
CONTINUOUS
 62
     7
 10
250.7279220613573
 20
53.727922061357269
 30
0.0
 11
231.2720779386427
 21
34.272077938642731
 31
0.0
  0
LINE
  5
338
  8
DATA
  6
CONTINUOUS
 62
     7
 10
345.27207793864272
 20
53.727922061357269
 30
0.0
 11
364.72792206135728
 21
34.272077938642731
 31
0.0
  0
ARC
  5
339
  8
DATA
  6
CONTINUOUS
 62
     7
 10
238.0
 20
47.0
 30
0.0
 40
30.0
 50
90.0
 51
180.0
  0
ARC
  5
33A
  8
DATA
  6
CONTINUOUS
 62
     7
 10
358.0
 20
47.0
 30
0.0
 40
30.0
 50
0.0
 51
90.0
  0
ARC
  5
33B
  8
DATA
  6
CONTINUOUS
 62
     7
 10
358.0
 20
-25.0
 30
0.0
 40
30.0
 50
270.0
 51
0.0
  0
ARC
  5
33C
  8
DATA
  6
CONTINUOUS
 62
     7
 10
238.0
 20
-25.0
 30
0.0
 40
30.0
 50
180.0
 51
270.0
  0
ARC
  5
33D
  8
DATA
  6
CONTINUOUS
 62
     7
 10
244.0
 20
-19.0
 30
0.0
 40
18.0
 50
180.0
 51
270.0
  0
ARC
  5
33E
  8
DATA
  6
CONTINUOUS
 62
     7
 10
352.0
 20
-19.0
 30
0.0
 40
18.0
 50
270.0
 51
0.0
  0
ARC
  5
33F
  8
DATA
  6
CONTINUOUS
 62
     7
 10
352.00000000000267
 20
21.544155877281359
 30
0.0
 40
17.999999999997272
 50
0.0000000000130276
 51
45.000000000015348
  0
ARC
  5
340
  8
DATA
  6
CONTINUOUS
 62
     7
 10
332.54415587728818
 20
41.0
 30
0.0
 40
17.99999999999725
 50
45.00000000000616
 51
90.000000000008683
  0
ARC
  5
341
  8
DATA
  6
CONTINUOUS
 62
     7
 10
263.45584412271461
 20
41.0
 30
0.0
 40
18.0
 50
90.0
 51
135.0
  0
ARC
  5
342
  8
DATA
  6
CONTINUOUS
 62
     7
 10
244.0
 20
21.54415587728818
 30
0.0
 40
17.99999999999725
 50
135.0000000000062
 51
180.0000000000087
  0
LINE
  5
343
  8
DATA
  6
CONTINUOUS
 62
     7
 10
538.0
 20
-49.0
 30
0.0
 11
628.0
 21
-49.0
 31
0.0
  0
LINE
  5
344
  8
DATA
  6
CONTINUOUS
 62
     7
 10
550.0
 20
-37.0
 30
0.0
 11
616.0
 21
-37.0
 31
0.0
  0
LINE
  5
345
  8
DATA
  6
CONTINUOUS
 62
     7
 10
628.0
 20
-49.0
 30
0.0
 11
628.0
 21
77.0
 31
0.0
  0
LINE
  5
346
  8
DATA
  6
CONTINUOUS
 62
     7
 10
616.0
 20
-37.0
 30
0.0
 11
616.0
 21
65.0
 31
0.0
  0
LINE
  5
347
  8
DATA
  6
CONTINUOUS
 62
     7
 10
628.0
 20
77.0
 30
0.0
 11
538.0
 21
77.0
 31
0.0
  0
LINE
  5
348
  8
DATA
  6
CONTINUOUS
 62
     7
 10
616.0
 20
65.0
 30
0.0
 11
550.0
 21
65.0
 31
0.0
  0
LINE
  5
349
  8
DATA
  6
CONTINUOUS
 62
     7
 10
616.0
 20
41.0
 30
0.0
 11
550.0
 21
41.0
 31
0.0
  0
LINE
  5
34A
  8
DATA
  6
CONTINUOUS
 62
     7
 10
538.0
 20
77.0
 30
0.0
 11
538.0
 21
-49.0
 31
0.0
  0
LINE
  5
34B
  8
DATA
  6
CONTINUOUS
 62
     7
 10
550.0
 20
65.0
 30
0.0
 11
550.0
 21
-37.0
 31
0.0
  0
LINE
  5
34C
  8
DATA
  6
CONTINUOUS
 62
     7
 10
295.0
 20
23.0
 30
0.0
 11
295.0
 21
47.0
 31
0.0
  0
LINE
  5
34D
  8
DATA
  6
CONTINUOUS
 62
     7
 10
301.0
 20
23.0
 30
0.0
 11
295.0
 21
23.0
 31
0.0
  0
LINE
  5
34E
  8
DATA
  6
CONTINUOUS
 62
     7
 10
301.0
 20
47.0
 30
0.0
 11
301.0
 21
23.0
 31
0.0
  0
LINE
  5
34F
  8
DATA
  6
CONTINUOUS
 62
     7
 10
295.0
 20
47.0
 30
0.0
 11
301.0
 21
47.0
 31
0.0
  0
LINE
  5
350
  8
DATA
  6
CONTINUOUS
 62
     7
 10
246.39999999999779
 20
-8.8000000000010914
 30
0.0
 11
246.39999999999779
 21
15.19999999999891
 31
0.0
  0
LINE
  5
351
  8
DATA
  6
CONTINUOUS
 62
     7
 10
252.39999999999779
 20
-8.8000000000010914
 30
0.0
 11
246.39999999999779
 21
-8.8000000000010914
 31
0.0
  0
LINE
  5
352
  8
DATA
  6
CONTINUOUS
 62
     7
 10
252.39999999999779
 20
15.19999999999891
 30
0.0
 11
252.39999999999779
 21
-8.8000000000010914
 31
0.0
  0
LINE
  5
353
  8
DATA
  6
CONTINUOUS
 62
     7
 10
246.39999999999779
 20
15.19999999999891
 30
0.0
 11
252.39999999999779
 21
15.19999999999891
 31
0.0
  0
LINE
  5
354
  8
DATA
  6
CONTINUOUS
 62
     7
 10
349.6000000000023
 20
-8.8000000000010914
 30
0.0
 11
349.6000000000023
 21
15.19999999999891
 31
0.0
  0
LINE
  5
355
  8
DATA
  6
CONTINUOUS
 62
     7
 10
343.6000000000023
 20
-8.8000000000010914
 30
0.0
 11
349.6000000000023
 21
-8.8000000000010914
 31
0.0
  0
LINE
  5
356
  8
DATA
  6
CONTINUOUS
 62
     7
 10
343.6000000000023
 20
15.19999999999891
 30
0.0
 11
343.6000000000023
 21
-8.8000000000010914
 31
0.0
  0
LINE
  5
357
  8
DATA
  6
CONTINUOUS
 62
     7
 10
349.6000000000023
 20
15.19999999999891
 30
0.0
 11
343.6000000000023
 21
15.19999999999891
 31
0.0
  0
TEXT
  5
358
  8
DATA
 62
     7
 10
198.66105061848961
 20
102.62884114583331
 30
0.0
 40
12.21630859375
  1
Power AC～100-240V 50/60Hz
 41
0.7
 72
     1
 11
298.0
 21
101.0
 31
0.0
 73
     1
  0
TEXT
  5
359
  8
DATA
 62
     7
 10
551.92985514322913
 20
102.62884114583331
 30
0.0
 40
12.21630859375
  1
127W Max
 41
0.7
 72
     1
 11
583.0
 21
101.0
 31
0.0
 73
     1
  0
TEXT
  5
35A
  8
DATA
 62
     7
 10
568.74763997395826
 20
13.695
 30
0.0
 40
24.4326171875
  1
ON
 41
0.7
 72
     1
 11
583.0
 21
38.1276171875
 31
0.0
 73
     3
  0
TEXT
  5
35B
  8
DATA
 62
     7
 10
560.19622395833335
 20
-33.742317708333331
 30
0.0
 40
24.4326171875
  1
OFF
 41
0.7
 72
     1
 11
583.0
 21
-37.0
 31
0.0
 73
     1
  0
LINE
  5
35C
  8
DATA
  6
CONTINUOUS
 62
     7
 10
514.0
 20
137.0
 30
0.0
 11
514.0
 21
323.0
 31
0.0
  0
LINE
  5
35D
  8
DATA
  6
CONTINUOUS
 62
     7
 10
661.0
 20
128.0
 30
0.0
 11
523.0
 21
128.0
 31
0.0
  0
LINE
  5
35E
  8
DATA
  6
CONTINUOUS
 62
     7
 10
670.0
 20
323.0
 30
0.0
 11
670.0
 21
137.0
 31
0.0
  0
LINE
  5
35F
  8
DATA
  6
CONTINUOUS
 62
     7
 10
523.0
 20
332.0
 30
0.0
 11
661.0
 21
332.0
 31
0.0
  0
LINE
  5
360
  8
DATA
  6
CONTINUOUS
 62
     7
 10
514.0
 20
314.0
 30
0.0
 11
670.0
 21
314.0
 31
0.0
  0
LINE
  5
361
  8
DATA
  6
CONTINUOUS
 62
     7
 10
499.0
 20
128.0
 30
0.0
 11
139.0
 21
128.0
 31
0.0
  0
LINE
  5
362
  8
DATA
  6
CONTINUOUS
 62
     7
 10
130.0
 20
137.0
 30
0.0
 11
130.0
 21
251.0
 31
0.0
  0
LINE
  5
363
  8
DATA
  6
CONTINUOUS
 62
     7
 10
508.0
 20
137.0
 30
0.0
 11
508.0
 21
197.0
 31
0.0
  0
LINE
  5
364
  8
DATA
  6
CONTINUOUS
 62
     7
 10
499.0
 20
206.0
 30
0.0
 11
325.0
 21
206.0
 31
0.0
  0
LINE
  5
365
  8
DATA
  6
CONTINUOUS
 62
     7
 10
139.0
 20
260.0
 30
0.0
 11
307.0
 21
260.0
 31
0.0
  0
LINE
  5
366
  8
DATA
  6
CONTINUOUS
 62
     7
 10
139.0
 20
266.0
 30
0.0
 11
307.0
 21
266.0
 31
0.0
  0
LINE
  5
367
  8
DATA
  6
CONTINUOUS
 62
     7
 10
316.0
 20
215.0
 30
0.0
 11
316.0
 21
251.0
 31
0.0
  0
LINE
  5
368
  8
DATA
  6
CONTINUOUS
 62
     7
 10
418.0
 20
224.0
 30
0.0
 11
418.0
 21
323.0
 31
0.0
  0
LINE
  5
369
  8
DATA
  6
CONTINUOUS
 62
     7
 10
499.0
 20
215.0
 30
0.0
 11
427.0
 21
215.0
 31
0.0
  0
LINE
  5
36A
  8
DATA
  6
CONTINUOUS
 62
     7
 10
508.0
 20
323.0
 30
0.0
 11
508.0
 21
224.0
 31
0.0
  0
LINE
  5
36B
  8
DATA
  6
CONTINUOUS
 62
     7
 10
427.0
 20
332.0
 30
0.0
 11
499.0
 21
332.0
 31
0.0
  0
LINE
  5
36C
  8
DATA
  6
CONTINUOUS
 62
     7
 10
418.0
 20
314.0
 30
0.0
 11
508.0
 21
314.0
 31
0.0
  0
LINE
  5
36D
  8
DATA
  6
CONTINUOUS
 62
     7
 10
412.0
 20
224.0
 30
0.0
 11
412.0
 21
323.0
 31
0.0
  0
LINE
  5
36E
  8
DATA
  6
CONTINUOUS
 62
     7
 10
331.0
 20
215.0
 30
0.0
 11
403.0
 21
215.0
 31
0.0
  0
LINE
  5
36F
  8
DATA
  6
CONTINUOUS
 62
     7
 10
322.0
 20
323.0
 30
0.0
 11
322.0
 21
224.0
 31
0.0
  0
LINE
  5
370
  8
DATA
  6
CONTINUOUS
 62
     7
 10
403.0
 20
332.0
 30
0.0
 11
331.0
 21
332.0
 31
0.0
  0
LINE
  5
371
  8
DATA
  6
CONTINUOUS
 62
     7
 10
412.0
 20
314.0
 30
0.0
 11
322.0
 21
314.0
 31
0.0
  0
TEXT
  5
372
  8
DATA
 62
     7
 10
437.6307991536458
 20
315.62884114583341
 30
0.0
 40
12.21630859375
  1
HF TRIM
 41
0.7
 72
     1
 11
463.0
 21
314.0
 31
0.0
 73
     1
  0
TEXT
  5
373
  8
DATA
 62
     7
 10
568.48360595703116
 20
315.62884114583341
 30
0.0
 40
12.21630859375
  1
Volume
 41
0.7
 72
     1
 11
592.0
 21
314.0
 31
0.0
 73
     1
  0
TEXT
  5
374
  8
DATA
 62
     7
 10
341.6307991536458
 20
315.62884114583341
 30
0.0
 40
12.21630859375
  1
LF TRIM
 41
0.7
 72
     1
 11
367.0
 21
314.0
 31
0.0
 73
     1
  0
LINE
  5
375
  8
DATA
  6
CONTINUOUS
 62
     7
 10
130.0
 20
275.0
 30
0.0
 11
130.0
 21
491.0
 31
0.0
  0
LINE
  5
376
  8
DATA
  6
CONTINUOUS
 62
     7
 10
139.0
 20
500.0
 30
0.0
 11
499.0
 21
500.0
 31
0.0
  0
LINE
  5
377
  8
DATA
  6
CONTINUOUS
 62
     7
 10
130.0
 20
482.0
 30
0.0
 11
508.0
 21
482.0
 31
0.0
  0
LINE
  5
378
  8
DATA
  6
CONTINUOUS
 62
     7
 10
316.0
 20
332.0
 30
0.0
 11
316.0
 21
275.0
 31
0.0
  0
LINE
  5
379
  8
DATA
  6
CONTINUOUS
 62
     7
 10
499.0
 20
341.0
 30
0.0
 11
325.0
 21
341.0
 31
0.0
  0
LINE
  5
37A
  8
DATA
  6
CONTINUOUS
 62
     7
 10
508.0
 20
491.0
 30
0.0
 11
508.0
 21
350.0
 31
0.0
  0
LINE
  5
37B
  8
DATA
  6
CONTINUOUS
 62
     7
 10
514.0
 20
350.0
 30
0.0
 11
514.0
 21
491.0
 31
0.0
  0
LINE
  5
37C
  8
DATA
  6
CONTINUOUS
 62
     7
 10
661.0
 20
341.0
 30
0.0
 11
523.0
 21
341.0
 31
0.0
  0
LINE
  5
37D
  8
DATA
  6
CONTINUOUS
 62
     7
 10
670.0
 20
491.0
 30
0.0
 11
670.0
 21
350.0
 31
0.0
  0
LINE
  5
37E
  8
DATA
  6
CONTINUOUS
 62
     7
 10
523.0
 20
500.0
 30
0.0
 11
661.0
 21
500.0
 31
0.0
  0
LINE
  5
37F
  8
DATA
  6
CONTINUOUS
 62
     7
 10
514.0
 20
482.0
 30
0.0
 11
670.0
 21
482.0
 31
0.0
  0
TEXT
  5
380
  8
DATA
 62
     7
 10
532.42513509114588
 20
483.62884114583329
 30
0.0
 40
12.21630859375
  1
Input Sensitivity
 41
0.7
 72
     1
 11
592.0
 21
482.0
 31
0.0
 73
     1
  0
TEXT
  5
381
  8
DATA
 62
     7
 10
266.12374430338542
 20
483.62884114583329
 30
0.0
 40
12.21630859375
  1
Blanced Input 
 41
0.7
 72
     1
 11
319.0
 21
482.0
 31
0.0
 73
     1
  0
LINE
  5
382
  8
DATA
  6
CONTINUOUS
 62
     7
 10
346.0
 20
269.0
 30
0.0
 11
346.0
 21
284.0
 31
0.0
  0
LINE
  5
383
  8
DATA
  6
CONTINUOUS
 62
     7
 10
388.0
 20
269.0
 30
0.0
 11
346.0
 21
269.0
 31
0.0
  0
LINE
  5
384
  8
DATA
  6
CONTINUOUS
 62
     7
 10
388.0
 20
284.0
 30
0.0
 11
388.0
 21
269.0
 31
0.0
  0
LINE
  5
385
  8
DATA
  6
CONTINUOUS
 62
     7
 10
346.0
 20
284.0
 30
0.0
 11
388.0
 21
284.0
 31
0.0
  0
LINE
  5
386
  8
DATA
  6
CONTINUOUS
 62
     7
 10
361.0
 20
269.0
 30
0.0
 11
361.0
 21
284.0
 31
0.0
  0
LINE
  5
387
  8
DATA
  6
CONTINUOUS
 62
     7
 10
364.59999999999951
 20
269.0
 30
0.0
 11
364.59999999999951
 21
284.0
 31
0.0
  0
LINE
  5
388
  8
DATA
  6
CONTINUOUS
 62
     7
 10
373.0
 20
269.0
 30
0.0
 11
361.0
 21
269.0
 31
0.0
  0
LINE
  5
389
  8
DATA
  6
CONTINUOUS
 62
     7
 10
373.0
 20
284.0
 30
0.0
 11
373.0
 21
269.0
 31
0.0
  0
LINE
  5
38A
  8
DATA
  6
CONTINUOUS
 62
     7
 10
369.4000000000006
 20
284.0
 30
0.0
 11
369.4000000000006
 21
269.0
 31
0.0
  0
LINE
  5
38B
  8
DATA
  6
CONTINUOUS
 62
     7
 10
361.0
 20
284.0
 30
0.0
 11
373.0
 21
284.0
 31
0.0
  0
LINE
  5
38C
  8
DATA
  6
CONTINUOUS
 62
     7
 10
460.0
 20
269.0
 30
0.0
 11
460.0
 21
284.0
 31
0.0
  0
LINE
  5
38D
  8
DATA
  6
CONTINUOUS
 62
     7
 10
502.0
 20
269.0
 30
0.0
 11
460.0
 21
269.0
 31
0.0
  0
LINE
  5
38E
  8
DATA
  6
CONTINUOUS
 62
     7
 10
502.0
 20
284.0
 30
0.0
 11
502.0
 21
269.0
 31
0.0
  0
LINE
  5
38F
  8
DATA
  6
CONTINUOUS
 62
     7
 10
460.0
 20
284.0
 30
0.0
 11
502.0
 21
284.0
 31
0.0
  0
LINE
  5
390
  8
DATA
  6
CONTINUOUS
 62
     7
 10
475.0
 20
269.0
 30
0.0
 11
475.0
 21
284.0
 31
0.0
  0
LINE
  5
391
  8
DATA
  6
CONTINUOUS
 62
     7
 10
478.5999999999994
 20
269.0
 30
0.0
 11
478.5999999999994
 21
284.0
 31
0.0
  0
LINE
  5
392
  8
DATA
  6
CONTINUOUS
 62
     7
 10
487.0
 20
269.0
 30
0.0
 11
475.0
 21
269.0
 31
0.0
  0
LINE
  5
393
  8
DATA
  6
CONTINUOUS
 62
     7
 10
487.0
 20
284.0
 30
0.0
 11
487.0
 21
269.0
 31
0.0
  0
LINE
  5
394
  8
DATA
  6
CONTINUOUS
 62
     7
 10
483.40000000000049
 20
284.0
 30
0.0
 11
483.40000000000049
 21
269.0
 31
0.0
  0
LINE
  5
395
  8
DATA
  6
CONTINUOUS
 62
     7
 10
475.0
 20
284.0
 30
0.0
 11
487.0
 21
284.0
 31
0.0
  0
LINE
  5
396
  8
DATA
  6
CONTINUOUS
 62
     7
 10
586.0
 20
443.0
 30
0.0
 11
586.0
 21
458.0
 31
0.0
  0
LINE
  5
397
  8
DATA
  6
CONTINUOUS
 62
     7
 10
628.0
 20
443.0
 30
0.0
 11
586.0
 21
443.0
 31
0.0
  0
LINE
  5
398
  8
DATA
  6
CONTINUOUS
 62
     7
 10
628.0
 20
458.0
 30
0.0
 11
628.0
 21
443.0
 31
0.0
  0
LINE
  5
399
  8
DATA
  6
CONTINUOUS
 62
     7
 10
586.0
 20
458.0
 30
0.0
 11
628.0
 21
458.0
 31
0.0
  0
ARC
  5
39A
  8
DATA
  6
CONTINUOUS
 62
     7
 10
579.99999999985812
 20
229.99999999985809
 30
0.0
 40
42.000000000198384
 50
21.876302269096492
 51
38.147761665057409
  0
ARC
  5
39B
  8
DATA
  6
CONTINUOUS
 62
     7
 10
579.99999999985812
 20
229.99999999985809
 30
0.0
 40
42.000000000202292
 50
291.85393379007718
 51
308.14776166516009
  0
ARC
  5
39C
  8
DATA
  6
CONTINUOUS
 62
     7
 10
579.99999999985812
 20
229.99999999985809
 30
0.0
 40
42.000000000203997
 50
261.87630226883289
 51
278.14606620946893
  0
ARC
  5
39D
  8
DATA
  6
CONTINUOUS
 62
     7
 10
579.99999999985812
 20
229.99999999985809
 30
0.0
 40
42.000000000203109
 50
218.14776166495901
 51
231.9248378869986
  0
ARC
  5
39E
  8
DATA
  6
CONTINUOUS
 62
     7
 10
579.99999999985812
 20
229.99999999985809
 30
0.0
 40
42.000000000203968
 50
171.85393379052809
 51
188.12369773116319
  0
ARC
  5
39F
  8
DATA
  6
CONTINUOUS
 62
     7
 10
579.99999999985812
 20
229.99999999985809
 30
0.0
 40
42.000000000201808
 50
141.8522383348384
 51
158.146066209921
  0
ARC
  5
3A0
  8
DATA
  6
CONTINUOUS
 62
     7
 10
579.99999999985812
 20
229.99999999985809
 30
0.0
 40
42.000000000198789
 50
81.876302268843133
 51
104.9999999997633
  0
ARC
  5
3A1
  8
DATA
  6
CONTINUOUS
 62
     7
 10
579.99999999985812
 20
229.99999999985809
 30
0.0
 40
42.00000000019989
 50
51.852238334938221
 51
68.123697730903515
  0
ARC
  5
3A2
  8
DATA
  6
CONTINUOUS
 62
     7
 10
579.99999999975728
 20
229.99999999975719
 30
0.0
 40
38.999999999660467
 50
229.41172578580941
 51
220.58827421419161
  0
ARC
  5
3A3
  8
DATA
  6
CONTINUOUS
 62
     7
 10
611.81980515339444
 20
261.81980515339461
 30
0.0
 40
5.9999999999982814
 50
168.3670129692313
 51
281.63298703076651
  0
ARC
  5
3A4
  8
DATA
  6
CONTINUOUS
 62
     7
 10
591.63938833250711
 20
273.43878862593652
 30
0.0
 40
6.000000000002629
 50
198.06170338760441
 51
311.93829661209952
  0
ARC
  5
3A5
  8
DATA
  6
CONTINUOUS
 62
     7
 10
623.43878862593635
 20
241.63938833250711
 30
0.0
 40
6.0000000000026068
 50
138.06170338790051
 51
251.93829661237041
  0
ARC
  5
3A6
  8
DATA
  6
CONTINUOUS
 62
     7
 10
568.3606116672064
 20
186.56121137377701
 30
0.0
 40
6.0000000000004601
 50
18.061703387624931
 51
131.93829661207141
  0
ARC
  5
3A7
  8
DATA
  6
CONTINUOUS
 62
     7
 10
536.56121137377681
 20
218.36061166720631
 30
0.0
 40
6.0000000000028146
 50
318.06170338793743
 51
71.938296612396101
  0
ARC
  5
3A8
  8
DATA
  6
CONTINUOUS
 62
     7
 10
548.18019484660545
 20
261.81980515339461
 30
0.0
 40
6.0000000000001634
 50
258.36701296604281
 51
11.63298703185683
  0
ARC
  5
3A9
  8
DATA
  6
CONTINUOUS
 62
     7
 10
536.53529169040394
 20
241.64633349045019
 30
0.0
 40
6.0000000000005631
 50
288.34558253069792
 51
41.654417469720613
  0
LINE
  5
3AA
  8
DATA
  6
CONTINUOUS
 62
     7
 10
560.90811690767885
 20
215.15075759479899
 30
0.0
 11
548.2560531689569
 21
202.4986938560769
 31
0.0
  0
LINE
  5
3AB
  8
DATA
  6
CONTINUOUS
 62
     7
 10
565.15075759479885
 20
210.90811690767899
 30
0.0
 11
560.90811690767885
 21
215.15075759479899
 31
0.0
  0
LINE
  5
3AC
  8
DATA
  6
CONTINUOUS
 62
     7
 10
552.49869385607417
 20
198.2560531689569
 30
0.0
 11
565.15075759479885
 21
210.90811690767899
 31
0.0
  0
ARC
  5
3AD
  8
DATA
  6
CONTINUOUS
 62
     7
 10
580.00000000019099
 20
229.99999999994139
 30
0.0
 40
42.000000000201602
 50
105.0000000002367
 51
128.12369773115191
  0
ARC
  5
3AE
  8
DATA
  6
CONTINUOUS
 62
     7
 10
611.81980515339183
 20
198.1801948466026
 30
0.0
 40
6.0000000000026814
 50
78.367012968122651
 51
191.63298703396211
  0
ARC
  5
3AF
  8
DATA
  6
CONTINUOUS
 62
     7
 10
591.64633349045005
 20
186.53529169040399
 30
0.0
 40
5.9999999999988747
 50
48.345582530306856
 51
161.6544174692732
  0
ARC
  5
3B0
  8
DATA
  6
CONTINUOUS
 62
     7
 10
579.99999999985812
 20
229.99999999985809
 30
0.0
 40
42.000000000197041
 50
345.00000000023942
 51
8.1236977311605774
  0
ARC
  5
3B1
  8
DATA
  6
CONTINUOUS
 62
     7
 10
579.99999999994009
 20
230.00000000019361
 30
0.0
 40
42.000000000201837
 50
321.87630226884693
 51
344.99999999976012
  0
ARC
  5
3B2
  8
DATA
  6
CONTINUOUS
 62
     7
 10
580.00000000027842
 20
230.00000000027561
 30
0.0
 40
42.00000000019989
 50
231.85223833493819
 51
248.123697730907
  0
ARC
  5
3B3
  8
DATA
  6
CONTINUOUS
 62
     7
 10
580.00000000027842
 20
230.00000000027561
 30
0.0
 40
42.000000000203428
 50
201.87630226909371
 51
218.14776166505499
  0
LINE
  5
3B4
  8
DATA
  6
CONTINUOUS
 62
     7
 10
552.42426586050351
 20
202.4242658604899
 30
0.0
 11
552.42283553385084
 21
202.42283553383729
 31
0.0
  0
LINE
  5
3B5
  8
DATA
  6
CONTINUOUS
 62
     7
 10
548.18019484661363
 20
198.18019484659999
 30
0.0
 11
543.93755415963255
 21
193.93755415961911
 31
0.0
  0
LINE
  5
3B6
  8
DATA
  6
CONTINUOUS
 62
     7
 10
536.53333781708079
 20
218.35314297005249
 30
0.0
 11
530.73778285952085
 21
216.80022869948411
 31
0.0
  0
LINE
  5
3B7
  8
DATA
  6
CONTINUOUS
 62
     7
 10
552.44324039382968
 20
257.55675960645522
 30
0.0
 11
552.42283553432026
 21
257.57716446596629
 31
0.0
  0
LINE
  5
3B8
  8
DATA
  6
CONTINUOUS
 62
     7
 10
548.18019484675006
 20
261.81980515353638
 30
0.0
 11
543.93755415963255
 21
266.06244584065371
 31
0.0
  0
LINE
  5
3B9
  8
DATA
  6
CONTINUOUS
 62
     7
 10
536.53333781715173
 20
241.6468570301999
 30
0.0
 11
530.73778285952085
 21
243.19977130078721
 31
0.0
  0
LINE
  5
3BA
  8
DATA
  6
CONTINUOUS
 62
     7
 10
569.90605724117722
 20
267.67110722461439
 30
0.0
 11
569.90605723456883
 21
267.67110724927988
 31
0.0
  0
LINE
  5
3BB
  8
DATA
  6
CONTINUOUS
 62
     7
 10
568.35314297034961
 20
273.46666218299288
 30
0.0
 11
566.80022869967252
 21
279.26221714081481
 31
0.0
  0
LINE
  5
3BC
  8
DATA
  6
CONTINUOUS
 62
     7
 10
607.55675962244788
 20
202.44324037771821
 30
0.0
 11
607.57716446633185
 21
202.42283553383601
 31
0.0
  0
LINE
  5
3BD
  8
DATA
  6
CONTINUOUS
 62
     7
 10
611.81980515347641
 20
198.18019484669131
 30
0.0
 11
616.0624458405473
 21
193.93755415961911
 31
0.0
  0
LINE
  5
3BE
  8
DATA
  6
CONTINUOUS
 62
     7
 10
617.669153347867
 20
219.90658078056691
 30
0.0
 11
617.67110722504003
 21
219.90605724075701
 31
0.0
  0
LINE
  5
3BF
  8
DATA
  6
CONTINUOUS
 62
     7
 10
623.46666218293285
 20
218.35314297009879
 30
0.0
 11
629.26221714076837
 21
216.80022869945699
 31
0.0
  0
LINE
  5
3C0
  8
DATA
  6
CONTINUOUS
 62
     7
 10
670.0
 20
205.8845726808913
 30
0.0
 11
671.85954608027055
 21
205.3863088103935
 31
0.0
  0
LINE
  5
3C1
  8
DATA
  6
CONTINUOUS
 62
     7
 10
611.81980515333998
 20
261.8198051534464
 30
0.0
 11
616.0624458405473
 21
266.06244584065371
 31
0.0
  0
LINE
  5
3C2
  8
DATA
  6
CONTINUOUS
 62
     7
 10
623.46666218285918
 20
241.64685703015491
 30
0.0
 11
629.26221714076837
 21
243.19977130081591
 31
0.0
  0
LINE
  5
3C3
  8
DATA
  6
CONTINUOUS
 62
     7
 10
670.0
 20
254.1154273193815
 30
0.0
 11
671.85954608027055
 21
254.61369118987929
 31
0.0
  0
LINE
  5
3C4
  8
DATA
  6
CONTINUOUS
 62
     7
 10
590.08647404369071
 20
267.64323359959963
 30
0.0
 11
590.09394275900559
 21
267.67110722461439
 31
0.0
  0
LINE
  5
3C5
  8
DATA
  6
CONTINUOUS
 62
     7
 10
591.64685702982217
 20
273.46666218296008
 30
0.0
 11
593.19977130050768
 21
279.26221714081481
 31
0.0
  0
TEXT
  5
3C6
  8
DATA
 62
     7
 10
541.08708215442425
 20
180.28505415961911
 30
0.0
 40
12.21630859375
  1
1
 41
0.7
 72
     2
 11
543.93755415963255
 21
192.50136275336911
 31
0.0
 73
     3
  0
TEXT
  5
3C7
  8
DATA
 62
     7
 10
525.03683884910413
 20
210.69207440260911
 30
0.0
 40
12.21630859375
  1
2
 41
0.7
 72
     2
 11
530.73778285952085
 21
216.80022869948411
 31
0.0
 73
     2
  0
TEXT
  5
3C8
  8
DATA
 62
     7
 10
525.03683884910413
 20
237.09161700391221
 30
0.0
 40
12.21630859375
  1
3
 41
0.7
 72
     2
 11
530.73778285952085
 21
243.19977130078721
 31
0.0
 73
     2
  0
TEXT
  5
3C9
  8
DATA
 62
     7
 10
538.23661014921595
 20
262.17679154377862
 30
0.0
 40
12.21630859375
  1
4
 41
0.7
 72
     2
 11
543.93755415963255
 21
268.28494584065362
 31
0.0
 73
     2
  0
TEXT
  5
3CA
  8
DATA
 62
     7
 10
561.8304805296201
 20
279.99161700328671
 30
0.0
 40
12.21630859375
  1
5
 41
0.7
 72
     2
 11
567.53142454003682
 21
286.09977130016171
 31
0.0
 73
     2
  0
TEXT
  5
3CB
  8
DATA
 62
     7
 10
595.43632729008982
 20
281.0915628439389
 30
0.0
 40
12.21630859375
  1
6
 41
0.7
 72
     2
 11
601.13727130050654
 21
287.1997171408139
 31
0.0
 73
     2
  0
TEXT
  5
3CC
  8
DATA
 62
     7
 10
618.29900183012955
 20
259.95429154377871
 30
0.0
 40
12.21630859375
  1
7
 41
0.7
 72
     2
 11
623.99994584054627
 21
266.06244584065371
 31
0.0
 73
     2
  0
TEXT
  5
3CD
  8
DATA
 62
     7
 10
631.49877313035074
 20
237.09161700394091
 30
0.0
 40
12.21630859375
  1
8
 41
0.7
 72
     2
 11
637.19971714076746
 21
243.19977130081591
 31
0.0
 73
     2
  0
TEXT
  5
3CE
  8
DATA
 62
     7
 10
631.49877313035074
 20
210.69207440258199
 30
0.0
 40
12.21630859375
  1
9
 41
0.7
 72
     2
 11
637.19971714076746
 21
216.80022869945699
 31
0.0
 73
     2
  0
TEXT
  5
3CF
  8
DATA
 62
     7
 10
614.02329382231721
 20
179.89189986274499
 30
0.0
 40
12.21630859375
  1
10
 41
0.7
 72
     2
 11
623.99994584054627
 21
186.00005415961999
 31
0.0
 73
     2
  0
TEXT
  5
3D0
  8
DATA
 62
     7
 10
519.42022338844015
 20
163.81639530545201
 30
0.0
 40
12.21630859375
  1
Min
 41
0.7
 72
     1
 11
527.97163940406517
 21
162.18755415961871
 31
0.0
 73
     1
  0
TEXT
  5
3D1
  8
DATA
 62
     7
 10
624.13223750721295
 20
163.81639530545331
 30
0.0
 40
12.21630859375
  1
Max
 41
0.7
 72
     1
 11
635.53412552804639
 21
162.18755415961999
 31
0.0
 73
     1
  0
CIRCLE
  5
3D2
  8
DATA
  6
CONTINUOUS
 62
     7
 10
628.0
 20
434.0
 30
0.0
 40
2.999999999999063
  0
LINE
  5
3D3
  8
DATA
  6
CONTINUOUS
 62
     7
 10
629.49999999999989
 20
431.40192378864759
 30
0.0
 11
636.40000000000055
 21
419.45077321642191
 31
0.0
  0
CIRCLE
  5
3D4
  8
DATA
  6
CONTINUOUS
 62
     7
 10
586.0
 20
434.0
 30
0.0
 40
2.999999999999063
  0
LINE
  5
3D5
  8
DATA
  6
CONTINUOUS
 62
     7
 10
584.49999999999977
 20
431.40192378864759
 30
0.0
 11
577.59999999999945
 21
419.45077321642191
 31
0.0
  0
TEXT
  5
3D6
  8
DATA
 62
     7
 10
612.88360595703182
 20
405.79827321642188
 30
0.0
 40
12.21630859375
  1
-10dBV
 41
0.7
 72
     1
 11
636.40000000000055
 21
418.01458181017199
 31
0.0
 73
     3
  0
TEXT
  5
3D7
  8
DATA
 62
     7
 10
557.64669596354111
 20
405.79827321642188
 30
0.0
 40
12.21630859375
  1
+4dBu
 41
0.7
 72
     1
 11
577.59999999999945
 21
418.01458181017199
 31
0.0
 73
     3
  0
CIRCLE
  5
3D8
  8
DATA
  6
CONTINUOUS
 62
     7
 10
502.0
 20
266.0
 30
0.0
 40
2.999999999999063
  0
LINE
  5
3D9
  8
DATA
  6
CONTINUOUS
 62
     7
 10
499.87867965644011
 20
263.87867965644278
 30
0.0
 11
486.16000000000082
 21
250.16000000000079
 31
0.0
  0
TEXT
  5
3DA
  8
DATA
 62
     7
 10
475.75816548405697
 20
236.50750000000079
 30
0.0
 40
12.21630859375
  1
+2dB
 41
0.7
 72
     1
 11
491.43576151270281
 21
248.72380859375079
 31
0.0
 73
     3
  0
TEXT
  5
3DB
  8
DATA
 62
     7
 10
421.96071285570622
 20
236.50750000000079
 30
0.0
 40
12.21630859375
  1
-2dB
 41
0.7
 72
     1
 11
437.638308884352
 21
248.72380859375079
 31
0.0
 73
     3
  0
TEXT
  5
3DC
  8
DATA
 62
     7
 10
463.02214599609459
 20
236.50750000000079
 30
0.0
 40
12.21630859375
  1
0
 41
0.7
 72
     1
 11
465.16000000000082
 21
248.72380859375079
 31
0.0
 73
     3
  0
CIRCLE
  5
3DD
  8
DATA
  6
CONTINUOUS
 62
     7
 10
481.0
 20
266.0
 30
0.0
 40
2.999999999999063
  0
LINE
  5
3DE
  8
DATA
  6
CONTINUOUS
 62
     7
 10
478.87867965644011
 20
263.87867965644278
 30
0.0
 11
465.16000000000082
 21
250.16000000000079
 31
0.0
  0
CIRCLE
  5
3DF
  8
DATA
  6
CONTINUOUS
 62
     7
 10
460.0
 20
266.0
 30
0.0
 40
2.999999999999063
  0
LINE
  5
3E0
  8
DATA
  6
CONTINUOUS
 62
     7
 10
457.87867965644
 20
263.87867965644278
 30
0.0
 11
444.16000000000082
 21
250.16000000000079
 31
0.0
  0
CIRCLE
  5
3E1
  8
DATA
  6
CONTINUOUS
 62
     7
 10
388.0
 20
266.0
 30
0.0
 40
2.999999999999063
  0
CIRCLE
  5
3E2
  8
DATA
  6
CONTINUOUS
 62
     7
 10
367.0
 20
266.0
 30
0.0
 40
2.999999999999063
  0
CIRCLE
  5
3E3
  8
DATA
  6
CONTINUOUS
 62
     7
 10
346.0
 20
266.0
 30
0.0
 40
2.999999999999063
  0
LINE
  5
3E4
  8
DATA
  6
CONTINUOUS
 62
     7
 10
389.5
 20
263.40192378864771
 30
0.0
 11
398.04589468389992
 21
248.5999999999994
 31
0.0
  0
TEXT
  5
3E5
  8
DATA
 62
     7
 10
377.36240397135498
 20
234.94749999999939
 30
0.0
 40
12.21630859375
  1
+2dB
 41
0.7
 72
     1
 11
393.04000000000082
 21
247.16380859374939
 31
0.0
 73
     3
  0
TEXT
  5
3E6
  8
DATA
 62
     7
 10
323.80071285570563
 20
234.94749999999939
 30
0.0
 40
12.21630859375
  1
-2dB
 41
0.7
 72
     1
 11
339.47830888435141
 21
247.16380859374939
 31
0.0
 73
     3
  0
TEXT
  5
3E7
  8
DATA
 62
     7
 10
364.86214599609377
 20
234.94749999999939
 30
0.0
 40
12.21630859375
  1
0
 41
0.7
 72
     1
 11
367.0
 21
247.16380859374939
 31
0.0
 73
     3
  0
LINE
  5
3E8
  8
DATA
  6
CONTINUOUS
 62
     7
 10
367.0
 20
263.00000000000148
 30
0.0
 11
367.0
 21
248.5999999999994
 31
0.0
  0
LINE
  5
3E9
  8
DATA
  6
CONTINUOUS
 62
     7
 10
344.5
 20
263.40192378864771
 30
0.0
 11
335.95410531610003
 21
248.5999999999994
 31
0.0
  0
ARC
  5
3EA
  8
DATA
  6
CONTINUOUS
 62
     7
 10
139.0
 20
491.0
 30
0.0
 40
9.0
 50
90.0
 51
180.0
  0
ARC
  5
3EB
  8
DATA
  6
CONTINUOUS
 62
     7
 10
499.0
 20
491.0
 30
0.0
 40
9.0
 50
0.0
 51
90.0
  0
ARC
  5
3EC
  8
DATA
  6
CONTINUOUS
 62
     7
 10
523.0
 20
491.0
 30
0.0
 40
9.0
 50
90.0
 51
180.0
  0
ARC
  5
3ED
  8
DATA
  6
CONTINUOUS
 62
     7
 10
661.0
 20
491.0
 30
0.0
 40
9.0
 50
0.0
 51
90.0
  0
ARC
  5
3EE
  8
DATA
  6
CONTINUOUS
 62
     7
 10
523.0
 20
350.0
 30
0.0
 40
9.0
 50
180.0
 51
270.0
  0
ARC
  5
3EF
  8
DATA
  6
CONTINUOUS
 62
     7
 10
661.0
 20
350.0
 30
0.0
 40
9.0
 50
270.0
 51
0.0
  0
ARC
  5
3F0
  8
DATA
  6
CONTINUOUS
 62
     7
 10
661.0
 20
323.0
 30
0.0
 40
9.0
 50
0.0
 51
90.0
  0
ARC
  5
3F1
  8
DATA
  6
CONTINUOUS
 62
     7
 10
523.0
 20
323.0
 30
0.0
 40
9.0
 50
90.0
 51
180.0
  0
ARC
  5
3F2
  8
DATA
  6
CONTINUOUS
 62
     7
 10
499.0
 20
350.0
 30
0.0
 40
9.0
 50
270.0
 51
0.0
  0
ARC
  5
3F3
  8
DATA
  6
CONTINUOUS
 62
     7
 10
499.0
 20
323.0
 30
0.0
 40
9.0
 50
0.0
 51
90.0
  0
ARC
  5
3F4
  8
DATA
  6
CONTINUOUS
 62
     7
 10
427.0
 20
323.0
 30
0.0
 40
9.0
 50
90.0
 51
180.0
  0
ARC
  5
3F5
  8
DATA
  6
CONTINUOUS
 62
     7
 10
403.0
 20
323.0
 30
0.0
 40
9.0
 50
0.0
 51
90.0
  0
ARC
  5
3F6
  8
DATA
  6
CONTINUOUS
 62
     7
 10
331.0
 20
323.0
 30
0.0
 40
9.0
 50
90.0
 51
180.0
  0
ARC
  5
3F7
  8
DATA
  6
CONTINUOUS
 62
     7
 10
325.0
 20
332.0
 30
0.0
 40
9.0
 50
90.0
 51
180.0
  0
ARC
  5
3F8
  8
DATA
  6
CONTINUOUS
 62
     7
 10
331.0
 20
224.0
 30
0.0
 40
9.0
 50
180.0
 51
270.0
  0
ARC
  5
3F9
  8
DATA
  6
CONTINUOUS
 62
     7
 10
403.0
 20
224.0
 30
0.0
 40
9.0
 50
270.0
 51
0.0
  0
ARC
  5
3FA
  8
DATA
  6
CONTINUOUS
 62
     7
 10
427.0
 20
224.0
 30
0.0
 40
9.0
 50
180.0
 51
270.0
  0
ARC
  5
3FB
  8
DATA
  6
CONTINUOUS
 62
     7
 10
499.0
 20
224.0
 30
0.0
 40
9.0
 50
270.0
 51
0.0
  0
ARC
  5
3FC
  8
DATA
  6
CONTINUOUS
 62
     7
 10
325.0
 20
215.0
 30
0.0
 40
9.0
 50
180.0
 51
270.0
  0
ARC
  5
3FD
  8
DATA
  6
CONTINUOUS
 62
     7
 10
307.0
 20
251.0
 30
0.0
 40
9.0
 50
0.0
 51
90.0
  0
ARC
  5
3FE
  8
DATA
  6
CONTINUOUS
 62
     7
 10
307.0
 20
275.0
 30
0.0
 40
9.0
 50
270.0
 51
0.0
  0
ARC
  5
3FF
  8
DATA
  6
CONTINUOUS
 62
     7
 10
139.0
 20
275.0
 30
0.0
 40
9.0
 50
180.0
 51
270.0
  0
ARC
  5
400
  8
DATA
  6
CONTINUOUS
 62
     7
 10
139.0
 20
251.0
 30
0.0
 40
9.0
 50
90.0
 51
180.0
  0
ARC
  5
401
  8
DATA
  6
CONTINUOUS
 62
     7
 10
139.0
 20
137.0
 30
0.0
 40
9.0
 50
180.0
 51
270.0
  0
ARC
  5
402
  8
DATA
  6
CONTINUOUS
 62
     7
 10
139.0
 20
110.0
 30
0.0
 40
9.0
 50
90.0
 51
180.0
  0
ARC
  5
403
  8
DATA
  6
CONTINUOUS
 62
     7
 10
139.0
 20
-64.0
 30
0.0
 40
9.0
 50
180.0
 51
270.0
  0
ARC
  5
404
  8
DATA
  6
CONTINUOUS
 62
     7
 10
661.0
 20
-64.0
 30
0.0
 40
9.0
 50
270.0
 51
0.0
  0
ARC
  5
405
  8
DATA
  6
CONTINUOUS
 62
     7
 10
661.0
 20
110.0
 30
0.0
 40
9.0
 50
0.0
 51
90.0
  0
ARC
  5
406
  8
DATA
  6
CONTINUOUS
 62
     7
 10
523.0
 20
137.0
 30
0.0
 40
9.0
 50
180.0
 51
270.0
  0
ARC
  5
407
  8
DATA
  6
CONTINUOUS
 62
     7
 10
499.0
 20
197.0
 30
0.0
 40
9.0
 50
0.0
 51
90.0
  0
ARC
  5
408
  8
DATA
  6
CONTINUOUS
 62
     7
 10
499.0
 20
137.0
 30
0.0
 40
9.0
 50
270.0
 51
0.0
  0
ARC
  5
409
  8
DATA
  6
CONTINUOUS
 62
     7
 10
661.0
 20
137.0
 30
0.0
 40
9.0
 50
270.0
 51
0.0
  0
CIRCLE
  5
40A
  8
DATA
  6
CONTINUOUS
 62
     7
 10
364.0
 20
398.0
 30
0.0
 40
51.00000000000022
  0
CIRCLE
  5
40B
  8
DATA
  6
CONTINUOUS
 62
     7
 10
364.0
 20
398.0
 30
0.0
 40
31.500000000000981
  0
CIRCLE
  5
40C
  8
DATA
  6
CONTINUOUS
 62
     7
 10
364.0
 20
398.0
 30
0.0
 40
27.000000000000721
  0
CIRCLE
  5
40D
  8
DATA
  6
CONTINUOUS
 62
     7
 10
364.0
 20
398.0
 30
0.0
 40
20.99999999999925
  0
POLYLINE
  5
40E
  8
DATA
  6
CONTINUOUS
 62
     7
 66
     1
 10
0.0
 20
0.0
 30
0.0
 70
     1
  0
VERTEX
  5
5BC
  8
DATA
  6
CONTINUOUS
 62
     7
 10
415.0
 20
398.0
 30
0.0
  0
VERTEX
  5
5BD
  8
DATA
  6
CONTINUOUS
 62
     7
 10
389.5
 20
442.16729559300637
 30
0.0
  0
VERTEX
  5
5BE
  8
DATA
  6
CONTINUOUS
 62
     7
 10
338.5
 20
442.16729559300637
 30
0.0
  0
VERTEX
  5
5BF
  8
DATA
  6
CONTINUOUS
 62
     7
 10
313.0
 20
398.0
 30
0.0
  0
VERTEX
  5
5C0
  8
DATA
  6
CONTINUOUS
 62
     7
 10
338.5
 20
353.83270440699363
 30
0.0
  0
VERTEX
  5
5C1
  8
DATA
  6
CONTINUOUS
 62
     7
 10
389.5
 20
353.83270440699363
 30
0.0
  0
SEQEND
  5
5C2
  8
DATA
  6
CONTINUOUS
 62
     7
  0
CIRCLE
  5
417
  8
DATA
  6
CONTINUOUS
 62
     7
 10
244.4994117573624
 20
380.00294118300121
 30
0.0
 40
10.88235294008507
  0
CIRCLE
  5
418
  8
DATA
  6
CONTINUOUS
 62
     7
 10
220.01411764216391
 20
401.49558823967732
 30
0.0
 40
10.88235294009284
  0
CIRCLE
  5
419
  8
DATA
  6
CONTINUOUS
 62
     7
 10
195.5288235269654
 20
380.00294118300121
 30
0.0
 40
10.882352940088831
  0
CIRCLE
  5
41A
  8
DATA
  6
CONTINUOUS
 62
     7
 10
195.5288235269654
 20
380.00294118300121
 30
0.0
 40
10.882352940088831
  0
CIRCLE
  5
41B
  8
DATA
  6
CONTINUOUS
 62
     7
 10
220.01411764216391
 20
380.00294118300121
 30
0.0
 40
65.294117640530104
  0
CIRCLE
  5
41C
  8
DATA
  6
CONTINUOUS
 62
     7
 10
220.01411764216391
 20
380.00294118300121
 30
0.0
 40
42.985293314397722
  0
ARC
  5
41D
  8
DATA
  6
CONTINUOUS
 62
     7
 10
220.01411764216391
 20
380.00294118300121
 30
0.0
 40
53.051470582931167
 50
300.85188598606999
 51
239.1481140139326
  0
CIRCLE
  5
41E
  8
DATA
  6
CONTINUOUS
 62
     7
 10
168.3229411767434
 20
445.2970588235313
 30
0.0
 40
13.60294117646845
  0
CIRCLE
  5
41F
  8
DATA
  6
CONTINUOUS
 62
     7
 10
271.71921898503388
 20
314.70244829737408
 30
0.0
 40
13.6029411764739
  0
LINE
  5
420
  8
DATA
  6
CONTINUOUS
 62
     7
 10
247.21999999238869
 20
323.3388941208525
 30
0.0
 11
247.21999999238869
 21
334.45847393880859
 31
0.0
  0
LINE
  5
421
  8
DATA
  6
CONTINUOUS
 62
     7
 10
206.95529411406281
 20
339.04927665743321
 30
0.0
 11
206.95529411406281
 21
339.04927749601512
 31
0.0
  0
LINE
  5
422
  8
DATA
  6
CONTINUOUS
 62
     7
 10
192.8082352919418
 20
323.3388941208525
 30
0.0
 11
192.8082352919418
 21
334.45847393880859
 31
0.0
  0
LINE
  5
423
  8
DATA
  6
CONTINUOUS
 62
     7
 10
235.5214705817898
 20
339.91232574583478
 30
0.0
 11
235.5214705817898
 21
339.91232660247101
 31
0.0
  0
LINE
  5
424
  8
DATA
  6
CONTINUOUS
 62
     7
 10
176.49863076007389
 20
445.2970588235313
 30
0.0
 11
160.1751013483117
 21
445.2970588235313
 31
0.0
  0
LINE
  5
425
  8
DATA
  6
CONTINUOUS
 62
     7
 10
168.3229411767434
 20
437.12891887255199
 30
0.0
 11
168.3229411767434
 21
453.45244828431618
 31
0.0
  0
LINE
  5
426
  8
DATA
  6
CONTINUOUS
 62
     7
 10
279.89490856836437
 20
314.70244829737408
 30
0.0
 11
263.57137915659962
 21
314.70244829737408
 31
0.0
  0
LINE
  5
427
  8
DATA
  6
CONTINUOUS
 62
     7
 10
271.71921898503388
 20
306.53430834639482
 30
0.0
 11
271.71921898503388
 21
322.85783775816088
 31
0.0
  0
CIRCLE
  5
428
  8
DATA
  6
CONTINUOUS
 62
     7
 10
220.01411764216391
 20
380.00294118300121
 30
0.0
 40
62.856775799554541
  0
ENDSEC
  0
EOF
