  0
SECTION
  2
HEADER
  9
$ACADVER
  1
AC1009
  9
$INSBASE
 10
0.0
 20
0.0
 30
0.0
  9
$EXTMIN
 10
-1350.0823911746049
 20
-1964.2678289683331
 30
-0.0015258207003583
  9
$EXTMAX
 10
1350.082403747462
 20
2050.183136980128
 30
0.0000000349246037
  9
$LIMMIN
 10
0.0
 20
0.0
  9
$LIMMAX
 10
0.0
 20
0.0
  9
$ORTHOMODE
 70
     0
  9
$REGENMODE
 70
     1
  9
$FILLMODE
 70
     1
  9
$QTEXTMODE
 70
     0
  9
$MIRRTEXT
 70
     1
  9
$DRAGMODE
 70
     2
  9
$LTSCALE
 40
190.5
  9
$OSMODE
 70
   231
  9
$ATTMODE
 70
     1
  9
$TEXTSIZE
 40
0.0
  9
$TRACEWID
 40
1.0
  9
$TEXTSTYLE
  7
STANDARD
  9
$CLAYER
  8
DATA
  9
$CELTYPE
  6
BYLAYER
  9
$CECOLOR
 62
   256
  9
$DIMSCALE
 40
1.0
  9
$DIMASZ
 40
0.18
  9
$DIMEXO
 40
0.0625
  9
$DIMDLI
 40
0.38
  9
$DIMRND
 40
0.0
  9
$DIMDLE
 40
0.0
  9
$DIMEXE
 40
0.18
  9
$DIMTP
 40
0.0
  9
$DIMTM
 40
0.0
  9
$DIMTXT
 40
0.18
  9
$DIMCEN
 40
0.09
  9
$DIMTSZ
 40
0.0
  9
$DIMTOL
 70
     0
  9
$DIMLIM
 70
     0
  9
$DIMTIH
 70
     1
  9
$DIMTOH
 70
     1
  9
$DIMSE1
 70
     0
  9
$DIMSE2
 70
     0
  9
$DIMTAD
 70
     0
  9
$DIMZIN
 70
     0
  9
$DIMBLK
  1

  9
$DIMASO
 70
     1
  9
$DIMSHO
 70
     1
  9
$DIMPOST
  1

  9
$DIMAPOST
  1

  9
$DIMALT
 70
     0
  9
$DIMALTD
 70
     2
  9
$DIMALTF
 40
25.399999999999999
  9
$DIMLFAC
 40
1.0
  9
$DIMTOFL
 70
     0
  9
$DIMTVP
 40
0.0
  9
$DIMTIX
 70
     0
  9
$DIMSOXD
 70
     0
  9
$DIMSAH
 70
     0
  9
$DIMBLK1
  1

  9
$DIMBLK2
  1

  9
$DIMSTYLE
  2
STANDARD
  9
$DIMCLRD
 70
     0
  9
$DIMCLRE
 70
     0
  9
$DIMCLRT
 70
     0
  9
$DIMTFAC
 40
1.0
  9
$DIMGAP
 40
0.09
  9
$LUNITS
 70
     2
  9
$LUPREC
 70
     4
  9
$SKETCHINC
 40
0.1
  9
$FILLETRAD
 40
0.0
  9
$AUNITS
 70
     0
  9
$AUPREC
 70
     0
  9
$MENU
  1
acad
  9
$ELEVATION
 40
0.0
  9
$PELEVATION
 40
0.0
  9
$THICKNESS
 40
0.0
  9
$LIMCHECK
 70
     0
  9
$BLIPMODE
 70
     0
  9
$CHAMFERA
 40
0.0
  9
$CHAMFERB
 40
0.0
  9
$SKPOLY
 70
     0
  9
$TDCREATE
 40
2456790.7724537039
  9
$TDUPDATE
 40
2456790.7735737851
  9
$TDINDWG
 40
0.0008410185
  9
$TDUSRTIMER
 40
0.0008243287
  9
$USRTIMER
 70
     1
  9
$ANGBASE
 50
0.0
  9
$ANGDIR
 70
     0
  9
$PDMODE
 70
     1
  9
$PDSIZE
 40
-2.0
  9
$PLINEWID
 40
0.0
  9
$COORDS
 70
     2
  9
$SPLFRAME
 70
     0
  9
$SPLINETYPE
 70
     6
  9
$SPLINESEGS
 70
     8
  9
$ATTDIA
 70
     0
  9
$ATTREQ
 70
     1
  9
$HANDLING
 70
     1
  9
$HANDSEED
  5
287
  9
$SURFTAB1
 70
     6
  9
$SURFTAB2
 70
     6
  9
$SURFTYPE
 70
     6
  9
$SURFU
 70
     6
  9
$SURFV
 70
     6
  9
$UCSNAME
  2

  9
$UCSORG
 10
0.0
 20
0.0
 30
0.0
  9
$UCSXDIR
 10
1.0
 20
0.0
 30
0.0
  9
$UCSYDIR
 10
0.0
 20
1.0
 30
0.0
  9
$PUCSNAME
  2

  9
$PUCSORG
 10
0.0
 20
0.0
 30
0.0
  9
$PUCSXDIR
 10
1.0
 20
0.0
 30
0.0
  9
$PUCSYDIR
 10
0.0
 20
1.0
 30
0.0
  9
$USERI1
 70
     0
  9
$USERI2
 70
     0
  9
$USERI3
 70
     0
  9
$USERI4
 70
     0
  9
$USERI5
 70
     0
  9
$USERR1
 40
0.0
  9
$USERR2
 40
0.0
  9
$USERR3
 40
0.0
  9
$USERR4
 40
0.0
  9
$USERR5
 40
0.0
  9
$WORLDVIEW
 70
     1
  9
$SHADEDGE
 70
     3
  9
$SHADEDIF
 70
    70
  9
$TILEMODE
 70
     1
  9
$MAXACTVP
 70
    64
  9
$PLIMCHECK
 70
     0
  9
$PEXTMIN
 10
1.0000000000000000E+020
 20
1.0000000000000000E+020
 30
1.0000000000000000E+020
  9
$PEXTMAX
 10
-1.0000000000000000E+020
 20
-1.0000000000000000E+020
 30
-1.0000000000000000E+020
  9
$PLIMMIN
 10
0.0
 20
0.0
  9
$PLIMMAX
 10
12.0
 20
9.0
  9
$UNITMODE
 70
     0
  9
$VISRETAIN
 70
     0
  9
$PLINEGEN
 70
     1
  9
$PSLTSCALE
 70
     0
  0
ENDSEC
  0
SECTION
  2
TABLES
  0
TABLE
  2
VPORT
 70
     1
  0
VPORT
  2
*ACTIVE
 70
     0
 10
0.0
 20
0.0
 11
1.0
 21
1.0
 12
0.0000062864287429
 22
42.957654005897659
 13
0.0
 23
0.0
 14
1.0
 24
1.0
 15
0.0
 25
0.0
 16
0.0
 26
0.0
 36
1.0
 17
0.0
 27
0.0
 37
0.0
 40
4046.6094516569929
 41
2.2165775401069521
 42
50.0
 43
0.0
 44
0.0
 50
0.0
 51
0.0
 71
     0
 72
  2000
 73
     1
 74
     1
 75
     0
 76
     0
 77
     0
 78
     0
  0
ENDTAB
  0
TABLE
  2
LTYPE
 70
    13
  0
LTYPE
  2
CONTINUOUS
 70
     0
  3
Solid line
 72
    65
 73
     0
 40
0.0
  0
ENDTAB
  0
TABLE
  2
LAYER
 70
     5
  0
LAYER
  2
0
 70
     0
 62
     7
  6
CONTINUOUS
  0
LAYER
  2
DATA
 70
     0
 62
     7
  6
CONTINUOUS
  0
LAYER
  2
HIBINO-BASE
 70
     0
 62
     7
  6
CONTINUOUS
  0
LAYER
  2
SPEC
 70
     0
 62
     7
  6
CONTINUOUS
  0
LAYER
  2
DIMNSIONS
 70
     0
 62
     7
  6
CONTINUOUS
  0
ENDTAB
  0
TABLE
  2
STYLE
 70
     3
  0
STYLE
  2
STANDARD
 70
     0
 40
0.0
 41
1.0
 50
0.0
 71
     0
 42
0.0
  3
txt
  4
BIGFONT.SHX
  0
ENDTAB
  0
TABLE
  2
VIEW
 70
     0
  0
ENDTAB
  0
TABLE
  2
UCS
 70
     0
  0
ENDTAB
  0
TABLE
  2
APPID
 70
     4
  0
APPID
  2
ACAD
 70
     0
  0
APPID
  2
ACADANNOTATIVE
 70
     0
  0
APPID
  2
ACAD_NAV_VCDISPLAY
 70
     0
  0
APPID
  2
ACAD_MLEADERVER
 70
     0
  0
ENDTAB
  0
TABLE
  2
DIMSTYLE
 70
     2
  0
DIMSTYLE
  2
STANDARD
 70
     0
  3

  4

  5

  6

  7

 40
1.0
 41
0.18
 42
0.0625
 43
0.38
 44
0.18
 45
0.0
 46
0.0
 47
0.0
 48
0.0
140
0.18
141
0.09
142
0.0
143
25.399999999999999
144
1.0
145
0.0
146
1.0
147
0.09
 71
     0
 72
     0
 73
     1
 74
     1
 75
     0
 76
     0
 77
     0
 78
     0
170
     0
171
     2
172
     0
173
     0
174
     0
175
     0
176
     0
177
     0
178
     0
  0
ENDTAB
  0
ENDSEC
  0
SECTION
  2
BLOCKS
  0
BLOCK
  8
0
  2
$MODEL_SPACE
 70
     0
 10
0.0
 20
0.0
 30
0.0
  3
$MODEL_SPACE
  1

  0
ENDBLK
  5
214
  8
0
  0
BLOCK
 67
     1
  8
0
  2
$PAPER_SPACE
 70
     0
 10
0.0
 20
0.0
 30
0.0
  3
$PAPER_SPACE
  1

  0
ENDBLK
  5
210
 67
     1
  8
0
  0
ENDSEC
  0
SECTION
  2
ENTITIES
  0
LINE
  5
2E
  8
HIBINO-BASE
  6
CONTINUOUS
 62
     7
 10
-1349.9999999999991
 20
2050.0608756250008
 30
0.0
 11
1350.0
 21
2050.0608756250008
 31
0.0
  0
LINE
  5
2F
  8
HIBINO-BASE
  6
CONTINUOUS
 62
     7
 10
1350.0
 20
-1849.9391243749999
 30
0.0
 11
-1349.9999999999991
 21
-1849.9391243749999
 31
0.0
  0
LINE
  5
30
  8
HIBINO-BASE
  6
CONTINUOUS
 62
     7
 10
-1349.9999999999991
 20
-1849.9391243749999
 30
0.0
 11
-1349.9999999999991
 21
2050.0608756250008
 31
0.0
  0
LINE
  5
31
  8
HIBINO-BASE
  6
CONTINUOUS
 62
     7
 10
1350.0
 20
2050.0608756250008
 30
0.0
 11
1350.0
 21
-1849.9391243749999
 31
0.0
  0
LINE
  5
32
  8
HIBINO-BASE
  6
CONTINUOUS
 62
     7
 10
0.0000000000002274
 20
-1512.4391243749999
 30
0.0
 11
1350.0
 21
-1512.4391243749999
 31
0.0
  0
LINE
  5
33
  8
HIBINO-BASE
  6
CONTINUOUS
 62
     7
 10
0.0000000000002274
 20
-1849.9391243749999
 30
0.0
 11
0.0000000000002274
 21
-1512.4391243749999
 31
0.0
  0
TEXT
  5
34
  8
HIBINO-BASE
 62
     7
 10
13.500000000000449
 20
-1550.069524374999
 30
0.0
 40
24.4326171875
  1
NOTE
 41
0.7
 11
13.500000000000449
 21
-1525.636907187499
 31
0.0
 73
     3
  0
LINE
  5
35
  8
HIBINO-BASE
  6
CONTINUOUS
 62
     7
 10
525.00000000000057
 20
-1849.9391243749999
 30
0.0
 11
525.00000000000057
 21
-1512.4391243749999
 31
0.0
  0
TEXT
  5
36
  8
HIBINO-BASE
 62
     7
 10
538.50000000000057
 20
-1550.069524374999
 30
0.0
 40
24.4326171875
  1
TITLE
 41
0.7
 11
538.50000000000057
 21
-1525.636907187499
 31
0.0
 73
     3
  0
LINE
  5
37
  8
HIBINO-BASE
  6
CONTINUOUS
 62
     7
 10
0.0000000000002274
 20
-1699.9391243749999
 30
0.0
 11
1350.0
 21
-1699.9391243749999
 31
0.0
  0
TEXT
  5
38
  8
HIBINO-BASE
 62
     7
 10
726.0
 20
-1736.7247243749989
 30
0.0
 40
24.4326171875
  1
DRAWN
 41
0.7
 11
726.0
 21
-1712.2921071874989
 31
0.0
 73
     3
  0
TEXT
  5
39
  8
HIBINO-BASE
 62
     7
 10
351.00000000000051
 20
-1736.7247243749989
 30
0.0
 40
24.4326171875
  1
DATE
 41
0.7
 11
351.00000000000051
 21
-1712.2921071874989
 31
0.0
 73
     3
  0
TEXT
  5
3A
  8
HIBINO-BASE
 62
     7
 10
201.0
 20
-1736.7247243749989
 30
0.0
 40
24.4326171875
  1
SCALE
 41
0.7
 11
201.0
 21
-1712.2921071874989
 31
0.0
 73
     3
  0
TEXT
  5
3B
  8
HIBINO-BASE
 62
     7
 10
538.50000000000057
 20
-1736.7247243749989
 30
0.0
 40
24.4326171875
  1
DESIGN
 41
0.7
 11
538.50000000000057
 21
-1712.2921071874989
 31
0.0
 73
     3
  0
TEXT
  5
3C
  8
HIBINO-BASE
 62
     7
 10
1101.0
 20
-1736.7247243749989
 30
0.0
 40
24.4326171875
  1
DRAWING NO.
 41
0.7
 11
1101.0
 21
-1712.2921071874989
 31
0.0
 73
     3
  0
TEXT
  5
3D
  8
HIBINO-BASE
 62
     7
 10
913.49999999999989
 20
-1736.7247243749989
 30
0.0
 40
24.4326171875
  1
CHECK
 41
0.7
 11
913.49999999999989
 21
-1712.2921071874989
 31
0.0
 73
     3
  0
LINE
  5
3E
  8
HIBINO-BASE
  6
CONTINUOUS
 62
     7
 10
215.6250000000004
 20
-1831.1891243749999
 30
0.0
 11
271.8750000000004
 21
-1774.9391243749999
 31
0.0
  0
TEXT
  5
3F
  8
HIBINO-BASE
 62
     7
 10
206.2500000000004
 20
-1791.573274375
 30
0.0
 40
24.4326171875
  1
1
 41
0.7
 11
206.2500000000004
 21
-1767.1406571875
 31
0.0
 73
     3
  0
LINE
  5
40
  8
HIBINO-BASE
  6
CONTINUOUS
 62
     7
 10
187.5000000000004
 20
-1849.9391243749999
 30
0.0
 11
187.5000000000004
 21
-1699.9391243749999
 31
0.0
  0
LINE
  5
41
  8
HIBINO-BASE
  6
CONTINUOUS
 62
     7
 10
337.5
 20
-1849.9391243749999
 30
0.0
 11
337.5
 21
-1699.9391243749999
 31
0.0
  0
LINE
  5
42
  8
HIBINO-BASE
  6
CONTINUOUS
 62
     7
 10
712.5
 20
-1699.9391243749999
 30
0.0
 11
712.5
 21
-1849.9391243749999
 31
0.0
  0
LINE
  5
43
  8
HIBINO-BASE
  6
CONTINUOUS
 62
     7
 10
1087.5
 20
-1699.9391243749999
 30
0.0
 11
1087.5
 21
-1849.9391243749999
 31
0.0
  0
LINE
  5
44
  8
HIBINO-BASE
  6
CONTINUOUS
 62
     7
 10
900.0
 20
-1849.9391243749999
 30
0.0
 11
900.0
 21
-1699.9391243749999
 31
0.0
  0
TEXT
  5
45
  8
HIBINO-BASE
 62
     7
 10
350.34810000000061
 20
-1806.984424374999
 30
0.0
 40
24.4326171875
  1
'14.05.
 41
0.7
 11
350.34810000000061
 21
-1782.551807187499
 31
0.0
 73
     3
  0
TEXT
  5
46
  8
HIBINO-BASE
 62
     7
 10
262.5000000000004
 20
-1819.698274375
 30
0.0
 40
24.4326171875
  1
15
 41
0.7
 11
262.5000000000004
 21
-1795.2656571875
 31
0.0
 73
     3
  0
TEXT
  5
47
  8
HIBINO-BASE
 62
     7
 10
735.0871501655198
 20
-1806.984424374999
 30
0.0
 40
24.4326171875
  1
N.Sasaki
 41
0.7
 11
735.0871501655198
 21
-1782.551807187499
 31
0.0
 73
     3
  0
TEXT
  5
48
  8
HIBINO-BASE
 62
     7
 10
58.250000000000668
 20
-1820.2991243749991
 30
0.0
 40
48.865234374999993
  1
A4
 41
0.7
 11
58.250000000000668
 21
-1771.4338899999991
 31
0.0
 73
     3
  0
TEXT
  5
49
  8
HIBINO-BASE
 62
     7
 10
14.37500000000022
 20
-1739.230949374999
 30
0.0
 40
24.4326171875
  1
PAPER SIZE
 41
0.7
 11
14.375000000000229
 21
-1714.798332187499
 31
0.0
 73
     3
  0
TEXT
  5
4A
  8
HIBINO-BASE
 62
     7
 10
-1242.2399999999991
 20
-1946.069291374999
 30
0.0
 40
54.000662695312492
  1
Hibino Corporation
 41
0.7
 11
-1242.2399999999991
 21
-1892.068628679687
 31
0.0
 73
     3
  0
TEXT
  5
4B
  8
HIBINO-BASE
 62
     7
 10
751.02585000000033
 20
-1946.069291374999
 30
0.0
 40
54.000662695312492
  1
ヒビノ株式会社
 41
0.7
 11
751.02585000000033
 21
-1892.068628679687
 31
0.0
 73
     3
  0
LINE
  5
4C
  8
SPEC
  6
CONTINUOUS
 62
     7
 10
-1237.4999999999991
 20
1900.0608756250001
 30
0.0
 11
975.00000000000034
 21
1900.0608756250001
 31
0.0
  0
LINE
  5
4D
  8
SPEC
  6
CONTINUOUS
 62
     7
 10
-1237.4999999999991
 20
1843.8108756250001
 30
0.0
 11
975.00000000000034
 21
1843.8108756250001
 31
0.0
  0
LINE
  5
4E
  8
SPEC
  6
CONTINUOUS
 62
     7
 10
-1237.4999999999991
 20
1900.0608756250001
 30
0.0
 11
-1237.4999999999991
 21
1281.3108756250001
 31
0.0
  0
TEXT
  5
4F
  8
SPEC
 62
     7
 10
-1218.7499999999991
 20
1920.9599256250001
 30
0.0
 40
36.64892578125
  1
仕様
 41
0.7
 11
-1218.7499999999991
 21
1957.6088514062501
 31
0.0
 73
     3
  0
LINE
  5
50
  8
SPEC
  6
CONTINUOUS
 62
     7
 10
-749.99999999999955
 20
1900.0608756250001
 30
0.0
 11
-749.99999999999955
 21
1281.3108756250001
 31
0.0
  0
LINE
  5
51
  8
SPEC
  6
CONTINUOUS
 62
     7
 10
975.00000000000034
 20
1900.0608756250001
 30
0.0
 11
975.00000000000034
 21
1281.3108756250001
 31
0.0
  0
LINE
  5
52
  8
SPEC
  6
CONTINUOUS
 62
     7
 10
-1237.4999999999991
 20
1787.5608756250001
 30
0.0
 11
975.00000000000034
 21
1787.5608756250001
 31
0.0
  0
LINE
  5
53
  8
SPEC
  6
CONTINUOUS
 62
     7
 10
-1237.4999999999991
 20
1731.3108756250001
 30
0.0
 11
975.00000000000034
 21
1731.3108756250001
 31
0.0
  0
LINE
  5
54
  8
SPEC
  6
CONTINUOUS
 62
     7
 10
-1237.4999999999991
 20
1675.0608756250001
 30
0.0
 11
975.00000000000034
 21
1675.0608756250001
 31
0.0
  0
LINE
  5
55
  8
SPEC
  6
CONTINUOUS
 62
     7
 10
-1237.4999999999991
 20
1618.8108756250001
 30
0.0
 11
975.00000000000034
 21
1618.8108756250001
 31
0.0
  0
LINE
  5
56
  8
SPEC
  6
CONTINUOUS
 62
     7
 10
-1237.4999999999991
 20
1562.5608756250001
 30
0.0
 11
975.00000000000034
 21
1562.5608756250001
 31
0.0
  0
LINE
  5
57
  8
SPEC
  6
CONTINUOUS
 62
     7
 10
-1237.4999999999991
 20
1506.3108756250001
 30
0.0
 11
975.00000000000034
 21
1506.3108756250001
 31
0.0
  0
LINE
  5
58
  8
SPEC
  6
CONTINUOUS
 62
     7
 10
-1237.4999999999991
 20
1450.0608756250001
 30
0.0
 11
975.00000000000034
 21
1450.0608756250001
 31
0.0
  0
LINE
  5
59
  8
SPEC
  6
CONTINUOUS
 62
     7
 10
-1237.4999999999991
 20
1393.8108756250001
 30
0.0
 11
975.00000000000034
 21
1393.8108756250001
 31
0.0
  0
LINE
  5
5A
  8
SPEC
  6
CONTINUOUS
 62
     7
 10
-1237.4999999999991
 20
1337.5608756250001
 30
0.0
 11
975.00000000000034
 21
1337.5608756250001
 31
0.0
  0
LINE
  5
5B
  8
SPEC
  6
CONTINUOUS
 62
     7
 10
-1237.4999999999991
 20
1281.3108756250001
 30
0.0
 11
975.00000000000034
 21
1281.3108756250001
 31
0.0
  0
TEXT
  5
5C
  8
SPEC
 62
     7
 10
-1224.0
 20
1855.629642291666
 30
0.0
 40
28.504720052083329
  1
形式
 41
0.7
 11
-1224.0
 21
1884.134362343749
 31
0.0
 73
     3
  0
TEXT
  5
5D
  8
SPEC
 62
     7
 10
-736.49999999999955
 20
1855.629642291666
 30
0.0
 40
28.504720052083329
  1
2-Wayフルレンジ
 41
0.7
 11
-736.49999999999955
 21
1884.134362343749
 31
0.0
 73
     3
  0
TEXT
  5
5E
  8
SPEC
 62
     7
 10
-1224.0
 20
1799.379642291666
 30
0.0
 40
28.504720052083329
  1
周波数レンジ(-10dB)
 41
0.7
 11
-1224.0
 21
1827.884362343749
 31
0.0
 73
     3
  0
TEXT
  5
5F
  8
SPEC
 62
     7
 10
-736.49999999999955
 20
1799.379642291666
 30
0.0
 40
28.504720052083329
  1
20Hz ～ 40kHz
 41
0.7
 11
-736.49999999999955
 21
1827.884362343749
 31
0.0
 73
     3
  0
TEXT
  5
60
  8
SPEC
 62
     7
 10
-736.49999999999955
 20
1743.129642291666
 30
0.0
 40
28.504720052083329
  1
120 ゜\U+00D7100 ゜
 41
0.7
 11
-736.49999999999955
 21
1771.6343623437499
 31
0.0
 73
     3
  0
TEXT
  5
61
  8
SPEC
 62
     7
 10
-1224.0
 20
1743.129642291666
 30
0.0
 40
28.504720052083329
  1
指向角度(水平\U+00D7垂直)
 41
0.7
 11
-1224.0
 21
1771.6343623437499
 31
0.0
 73
     3
  0
TEXT
  5
62
  8
SPEC
 62
     7
 10
-1224.0
 20
1686.8796422916671
 30
0.0
 40
28.504720052083329
  1
最大音圧レベル(1m)
 41
0.7
 11
-1224.0
 21
1715.3843623437499
 31
0.0
 73
     3
  0
TEXT
  5
63
  8
SPEC
 62
     7
 10
-736.49999999999955
 20
1686.8796422916671
 30
0.0
 40
28.504720052083329
  1
123dB SPL(ピーク)
 41
0.7
 11
-736.49999999999955
 21
1715.3843623437499
 31
0.0
 73
     3
  0
TEXT
  5
64
  8
SPEC
 62
     7
 10
-1224.0
 20
1630.6296422916671
 30
0.0
 40
28.504720052083329
  1
感度(1W、1m)
 41
0.7
 11
-1224.0
 21
1659.1343623437499
 31
0.0
 73
     3
  0
TEXT
  5
65
  8
SPEC
 62
     7
 10
-736.49999999999955
 20
1630.6296422916671
 30
0.0
 40
28.504720052083329
  1
92dB SPL
 41
0.7
 11
-736.49999999999955
 21
1659.1343623437499
 31
0.0
 73
     3
  0
TEXT
  5
66
  8
SPEC
 62
     7
 10
-736.49999999999955
 20
1574.379642291666
 30
0.0
 40
28.504720052083329
  1
LF:6\U+03A9、HF:16\U+03A9
 41
0.7
 11
-736.49999999999955
 21
1602.8843623437499
 31
0.0
 73
     3
  0
TEXT
  5
67
  8
SPEC
 62
     7
 10
-1224.0
 20
1574.379642291666
 30
0.0
 40
28.504720052083329
  1
公称インピーダンス
 41
0.7
 11
-1224.0
 21
1602.8843623437499
 31
0.0
 73
     3
  0
TEXT
  5
68
  8
SPEC
 62
     7
 10
-1224.0
 20
1518.1296422916671
 30
0.0
 40
28.504720052083329
  1
ドライバー構成
 41
0.7
 11
-1224.0
 21
1546.6343623437499
 31
0.0
 73
     3
  0
TEXT
  5
69
  8
SPEC
 62
     7
 10
-736.49999999999955
 20
1518.1296422916671
 30
0.0
 40
28.504720052083329
  1
LF:380mm(2216Nd)、HF:D2(D2430K)
 41
0.7
 11
-736.49999999999955
 21
1546.6343623437499
 31
0.0
 73
     3
  0
TEXT
  5
6A
  8
SPEC
 62
     7
 10
-1224.0
 20
1461.879642291666
 30
0.0
 40
28.504720052083329
  1
クロスオーバー周波数
 41
0.7
 11
-1224.0
 21
1490.3843623437499
 31
0.0
 73
     3
  0
TEXT
  5
6B
  8
SPEC
 62
     7
 10
-736.49999999999955
 20
1461.879642291666
 30
0.0
 40
28.504720052083329
  1
800Hz
 41
0.7
 11
-736.49999999999955
 21
1490.3843623437499
 31
0.0
 73
     3
  0
TEXT
  5
6C
  8
SPEC
 62
     7
 10
-736.49999999999955
 20
1405.6296422916671
 30
0.0
 40
28.504720052083329
  1
スプリング端子
 41
0.7
 11
-736.49999999999955
 21
1434.1343623437499
 31
0.0
 73
     3
  0
TEXT
  5
6D
  8
SPEC
 62
     7
 10
-1224.0
 20
1405.6296422916671
 30
0.0
 40
28.504720052083329
  1
入力端子・形式
 41
0.7
 11
-1224.0
 21
1434.1343623437499
 31
0.0
 73
     3
  0
TEXT
  5
6E
  8
SPEC
 62
     7
 10
-736.49999999999955
 20
1293.129642291666
 30
0.0
 40
28.504720052083329
  1
66kg
 41
0.7
 11
-736.49999999999955
 21
1321.6343623437499
 31
0.0
 73
     3
  0
TEXT
  5
6F
  8
SPEC
 62
     7
 10
-736.49999999999955
 20
1349.3796422916671
 30
0.0
 40
28.504720052083329
  1
500\U+00D71233\U+00D7375mm(除突起部)
 41
0.7
 11
-736.49999999999955
 21
1377.8843623437499
 31
0.0
 73
     3
  0
TEXT
  5
70
  8
SPEC
 62
     7
 10
-1224.0
 20
1349.3796422916671
 30
0.0
 40
28.504720052083339
  1
寸法(W\U+00D7H\U+00D7D)
 41
0.7
 11
-1224.0
 21
1377.8843623437499
 31
0.0
 73
     3
  0
TEXT
  5
71
  8
SPEC
 62
     7
 10
-1224.0
 20
1293.129642291666
 30
0.0
 40
28.504720052083339
  1
質量
 41
0.7
 11
-1224.0
 21
1321.6343623437499
 31
0.0
 73
     3
  0
LINE
  5
72
  8
DIMNSIONS
  6
CONTINUOUS
 62
     7
 10
-950.0
 20
-793.0
 30
0.0
 11
-950.0
 21
-1030.0
 31
0.0
  0
LINE
  5
73
  8
DIMNSIONS
  6
CONTINUOUS
 62
     7
 10
-450.0
 20
-793.0
 30
0.0
 11
-450.0
 21
-1030.0
 31
0.0
  0
LINE
  5
74
  8
DIMNSIONS
  6
CONTINUOUS
 62
     7
 10
-950.0
 20
-1000.0
 30
0.0
 11
-450.0
 21
-1000.0
 31
0.0
  0
LINE
  5
75
  8
DIMNSIONS
  6
CONTINUOUS
 62
     7
 10
-950.0
 20
-1000.0
 30
0.0
 11
-912.49066162109352
 21
-989.94940307274646
 31
0.0
  0
LINE
  5
76
  8
DIMNSIONS
  6
CONTINUOUS
 62
     7
 10
-950.0
 20
-1000.0
 30
0.0
 11
-912.49066162109352
 21
-1010.050596927253
 31
0.0
  0
LINE
  5
77
  8
DIMNSIONS
  6
CONTINUOUS
 62
     7
 10
-450.0
 20
-1000.0
 30
0.0
 11
-487.50933837890631
 21
-1010.050596927253
 31
0.0
  0
LINE
  5
78
  8
DIMNSIONS
  6
CONTINUOUS
 62
     7
 10
-450.0
 20
-1000.0
 30
0.0
 11
-487.50933837890631
 21
-989.94940307274646
 31
0.0
  0
TEXT
  5
79
  8
DIMNSIONS
 62
     7
 10
-739.6875
 20
-985.09166666666658
 30
0.0
 40
40.721028645833371
  1
500
 41
0.7
 11
-739.6875
 21
-944.37063802083321
 31
0.0
 73
     3
  0
LINE
  5
7A
  8
DIMNSIONS
  6
CONTINUOUS
 62
     7
 10
-968.0
 20
-776.0
 30
0.0
 11
-1130.0
 21
-776.0
 31
0.0
  0
LINE
  5
7B
  8
DIMNSIONS
  6
CONTINUOUS
 62
     7
 10
-980.0
 20
457.0
 30
0.0
 11
-1130.0
 21
457.0
 31
0.0
  0
LINE
  5
7C
  8
DIMNSIONS
  6
CONTINUOUS
 62
     7
 10
-1100.0
 20
-776.0
 30
0.0
 11
-1100.0
 21
457.0
 31
0.0
  0
LINE
  5
7D
  8
DIMNSIONS
  6
CONTINUOUS
 62
     7
 10
-1100.0
 20
-776.0
 30
0.0
 11
-1110.0505969272531
 21
-738.49066162109375
 31
0.0
  0
LINE
  5
7E
  8
DIMNSIONS
  6
CONTINUOUS
 62
     7
 10
-1100.0
 20
-776.0
 30
0.0
 11
-1089.949403072746
 21
-738.49066162109375
 31
0.0
  0
LINE
  5
7F
  8
DIMNSIONS
  6
CONTINUOUS
 62
     7
 10
-1100.0
 20
457.0
 30
0.0
 11
-1089.949403072746
 21
419.49066162109369
 31
0.0
  0
LINE
  5
80
  8
DIMNSIONS
  6
CONTINUOUS
 62
     7
 10
-1100.0
 20
457.0
 30
0.0
 11
-1110.0505969272531
 21
419.49066162109369
 31
0.0
  0
TEXT
  5
81
  8
DIMNSIONS
 62
     7
 10
-1114.9083333333331
 20
-212.41666666666671
 30
0.0
 40
40.721028645833371
  1
1233
 50
90.0
 41
0.7
 11
-1155.629361979167
 21
-212.41666666666671
 31
0.0
 73
     3
  0
LINE
  5
82
  8
DIMNSIONS
  6
CONTINUOUS
 62
     7
 10
-968.0
 20
-776.0
 30
0.0
 11
-1130.0
 21
-776.0
 31
0.0
  0
LINE
  5
83
  8
DIMNSIONS
  6
CONTINUOUS
 62
     7
 10
-946.21369263703298
 20
-800.0
 30
0.0
 11
-1130.0
 21
-800.0
 31
0.0
  0
LINE
  5
84
  8
DIMNSIONS
  6
CONTINUOUS
 62
     7
 10
-1100.0
 20
-800.0
 30
0.0
 11
-1100.0
 21
-776.0
 31
0.0
  0
LINE
  5
85
  8
DIMNSIONS
  6
CONTINUOUS
 62
     7
 10
-1100.0
 20
-776.0
 30
0.0
 11
-1100.0
 21
-701.0
 31
0.0
  0
LINE
  5
86
  8
DIMNSIONS
  6
CONTINUOUS
 62
     7
 10
-1100.0
 20
-776.0
 30
0.0
 11
-1110.0505969272531
 21
-738.49066162109375
 31
0.0
  0
LINE
  5
87
  8
DIMNSIONS
  6
CONTINUOUS
 62
     7
 10
-1100.0
 20
-776.0
 30
0.0
 11
-1089.949403072746
 21
-738.49066162109375
 31
0.0
  0
LINE
  5
88
  8
DIMNSIONS
  6
CONTINUOUS
 62
     7
 10
-1100.0
 20
-800.0
 30
0.0
 11
-1100.0
 21
-955.83333333333314
 31
0.0
  0
LINE
  5
89
  8
DIMNSIONS
  6
CONTINUOUS
 62
     7
 10
-1100.0
 20
-800.0
 30
0.0
 11
-1089.949403072746
 21
-837.50933837890625
 31
0.0
  0
LINE
  5
8A
  8
DIMNSIONS
  6
CONTINUOUS
 62
     7
 10
-1100.0
 20
-800.0
 30
0.0
 11
-1110.0505969272531
 21
-837.50933837890625
 31
0.0
  0
TEXT
  5
8B
  8
DIMNSIONS
 62
     7
 10
-1114.9083333333331
 20
-955.83333333333314
 30
0.0
 40
40.721028645833343
  1
24.0
 50
90.0
 41
0.7
 11
-1155.629361979167
 21
-955.83333333333314
 31
0.0
 73
     3
  0
TEXT
  5
8C
  8
DIMNSIONS
 62
     7
 10
-299.9999999999996
 20
-1665.896774374999
 30
0.0
 40
36.64892578125
  1
(単位：mm)
 41
0.7
 11
-299.9999999999996
 21
-1629.247848593749
 31
0.0
 73
     3
  0
LINE
  5
8D
  8
DIMNSIONS
  6
CONTINUOUS
 62
     7
 10
-980.0
 20
975.0
 30
0.0
 11
-1130.0
 21
975.0
 31
0.0
  0
LINE
  5
8E
  8
DIMNSIONS
  6
CONTINUOUS
 62
     7
 10
-730.0
 20
600.0
 30
0.0
 11
-1130.0
 21
600.0
 31
0.0
  0
LINE
  5
8F
  8
DIMNSIONS
  6
CONTINUOUS
 62
     7
 10
-1100.0
 20
975.0
 30
0.0
 11
-1100.0
 21
600.0
 31
0.0
  0
LINE
  5
90
  8
DIMNSIONS
  6
CONTINUOUS
 62
     7
 10
-1100.0
 20
975.0
 30
0.0
 11
-1089.949403072746
 21
937.49066162109352
 31
0.0
  0
LINE
  5
91
  8
DIMNSIONS
  6
CONTINUOUS
 62
     7
 10
-1100.0
 20
975.0
 30
0.0
 11
-1110.0505969272531
 21
937.49066162109352
 31
0.0
  0
LINE
  5
92
  8
DIMNSIONS
  6
CONTINUOUS
 62
     7
 10
-1100.0
 20
600.0
 30
0.0
 11
-1110.0505969272531
 21
637.50933837890636
 31
0.0
  0
LINE
  5
93
  8
DIMNSIONS
  6
CONTINUOUS
 62
     7
 10
-1100.0
 20
600.0
 30
0.0
 11
-1089.949403072746
 21
637.50933837890636
 31
0.0
  0
TEXT
  5
94
  8
DIMNSIONS
 62
     7
 10
-1114.9083333333331
 20
747.8125
 30
0.0
 40
40.721028645833343
  1
375
 50
90.0
 41
0.7
 11
-1155.6293619791661
 21
747.8125
 31
0.0
 73
     3
  0
TEXT
  5
95
  8
DATA
 62
     7
 10
750.0
 20
-1682.975774374999
 30
0.0
 40
36.64892578125
  1
M2
 41
0.7
 11
750.0
 21
-1646.326848593749
 31
0.0
 73
     3
  0
TEXT
  5
96
  8
DATA
 62
     7
 10
750.0
 20
-1574.225774374999
 30
0.0
 40
36.64892578125
  1
JBL PROFESSIONAL
 41
0.7
 11
750.0
 21
-1537.576848593749
 31
0.0
 73
     3
  0
LINE
  5
97
  8
DATA
  6
CONTINUOUS
 62
     7
 10
-950.0
 20
-1500.0
 30
0.0
 11
-949.71369263703298
 21
-1171.999972629877
 31
0.0
  0
LINE
  5
98
  8
DATA
  6
CONTINUOUS
 62
     7
 10
-943.0
 20
-1493.0
 30
0.0
 11
-942.71369263703298
 21
-1172.071040441743
 31
0.0
  0
LINE
  5
99
  8
DATA
  6
CONTINUOUS
 62
     7
 10
-938.0
 20
-1488.0
 30
0.0
 11
-937.71369263703309
 21
-1174.1421082536101
 31
0.0
  0
LINE
  5
9A
  8
DATA
  6
CONTINUOUS
 62
     7
 10
-450.0
 20
-1500.0
 30
0.0
 11
-950.0
 21
-1500.0
 31
0.0
  0
LINE
  5
9B
  8
DATA
  6
CONTINUOUS
 62
     7
 10
-457.0
 20
-1493.0
 30
0.0
 11
-943.0
 21
-1493.0
 31
0.0
  0
LINE
  5
9C
  8
DATA
  6
CONTINUOUS
 62
     7
 10
-462.0
 20
-1488.0
 30
0.0
 11
-938.0
 21
-1488.0
 31
0.0
  0
LINE
  5
9D
  8
DATA
  6
CONTINUOUS
 62
     7
 10
-449.71369263703298
 20
-1171.999972629877
 30
0.0
 11
-450.0
 21
-1500.0
 31
0.0
  0
LINE
  5
9E
  8
DATA
  6
CONTINUOUS
 62
     7
 10
-456.71369263703309
 20
-1172.071040441743
 30
0.0
 11
-457.0
 21
-1493.0
 31
0.0
  0
LINE
  5
9F
  8
DATA
  6
CONTINUOUS
 62
     7
 10
-461.71369263703309
 20
-1174.1421082536101
 30
0.0
 11
-462.0
 21
-1488.0
 31
0.0
  0
LINE
  5
A0
  8
DATA
  6
CONTINUOUS
 62
     7
 10
-474.71369263703298
 20
-1146.999972629877
 30
0.0
 11
-449.71369263703298
 21
-1171.999972629877
 31
0.0
  0
LINE
  5
A1
  8
DATA
  6
CONTINUOUS
 62
     7
 10
-474.7847604488997
 20
-1153.999972629877
 30
0.0
 11
-456.71369263703309
 21
-1172.071040441743
 31
0.0
  0
LINE
  5
A2
  8
DATA
  6
CONTINUOUS
 62
     7
 10
-476.85582826076637
 20
-1158.999972629877
 30
0.0
 11
-461.71369263703309
 21
-1174.1421082536101
 31
0.0
  0
LINE
  5
A3
  8
DATA
  6
CONTINUOUS
 62
     7
 10
-924.71369263703298
 20
-1146.999972629877
 30
0.0
 11
-949.71369263703298
 21
-1171.999972629877
 31
0.0
  0
LINE
  5
A4
  8
DATA
  6
CONTINUOUS
 62
     7
 10
-924.64262482516642
 20
-1153.999972629877
 30
0.0
 11
-942.71369263703298
 21
-1172.071040441743
 31
0.0
  0
LINE
  5
A5
  8
DATA
  6
CONTINUOUS
 62
     7
 10
-922.57155701329964
 20
-1158.999972629877
 30
0.0
 11
-937.71369263703309
 21
-1174.1421082536101
 31
0.0
  0
LINE
  5
A6
  8
DATA
  6
CONTINUOUS
 62
     7
 10
-474.7847604488997
 20
-1153.999972629877
 30
0.0
 11
-924.64262482516642
 21
-1153.999972629877
 31
0.0
  0
LINE
  5
A7
  8
DATA
  6
CONTINUOUS
 62
     7
 10
-476.85582826076637
 20
-1158.999972629877
 30
0.0
 11
-922.57155701329964
 21
-1158.999972629877
 31
0.0
  0
LINE
  5
A8
  8
DATA
  6
CONTINUOUS
 62
     7
 10
-474.7847604488997
 20
-1153.999972629877
 30
0.0
 11
-474.7847604488997
 21
-1144.570060777909
 31
0.0
  0
LINE
  5
A9
  8
DATA
  6
CONTINUOUS
 62
     7
 10
-924.71369263703298
 20
-1151.999972629877
 30
0.0
 11
-924.71369263703298
 21
-1146.999972629877
 31
0.0
  0
ARC
  5
AA
  8
DATA
  6
CONTINUOUS
 62
     7
 10
-699.71369263703298
 20
-2622.4705608651711
 30
0.0
 40
1497.4705882352939
 50
81.459988704007898
 51
98.542766488498117
  0
ARC
  5
AB
  8
DATA
  6
CONTINUOUS
 62
     7
 10
-477.7847604488997
 20
-1144.570060777909
 30
0.0
 40
3.0
 50
0.0
 51
81.459988704014506
  0
LINE
  5
AC
  8
DATA
  6
CONTINUOUS
 62
     7
 10
-474.71369263703298
 20
-1154.0710404417439
 30
0.0
 11
-474.71369263703298
 21
-1146.999972629877
 31
0.0
  0
LINE
  5
AD
  8
DATA
  6
CONTINUOUS
 62
     7
 10
-924.64262482516642
 20
-1153.999972629877
 30
0.0
 11
-924.64262482516642
 21
-1144.570060777909
 31
0.0
  0
ARC
  5
AE
  8
DATA
  6
CONTINUOUS
 62
     7
 10
-921.64262482516631
 20
-1144.570060777909
 30
0.0
 40
2.999999999999714
 50
98.540011295985494
 51
180.0
  0
LINE
  5
AF
  8
DATA
  6
CONTINUOUS
 62
     7
 10
-924.71369263703298
 20
-1154.0710404417439
 30
0.0
 11
-924.71369263703298
 21
-1146.999972629877
 31
0.0
  0
CIRCLE
  5
B0
  8
DATA
  6
CONTINUOUS
 62
     7
 10
-494.0
 20
-1441.0
 30
0.0
 40
17.50000000000005
  0
CIRCLE
  5
B1
  8
DATA
  6
CONTINUOUS
 62
     7
 10
-494.0
 20
-1441.0
 30
0.0
 40
10.500000000000901
  0
CIRCLE
  5
B2
  8
DATA
  6
CONTINUOUS
 62
     7
 10
-494.0
 20
-1441.0
 30
0.0
 40
7.0000000000005391
  0
CIRCLE
  5
B3
  8
DATA
  6
CONTINUOUS
 62
     7
 10
-493.71369263703309
 20
-1208.999972629877
 30
0.0
 40
17.50000000000005
  0
CIRCLE
  5
B4
  8
DATA
  6
CONTINUOUS
 62
     7
 10
-493.71369263703309
 20
-1208.999972629877
 30
0.0
 40
10.500000000000901
  0
CIRCLE
  5
B5
  8
DATA
  6
CONTINUOUS
 62
     7
 10
-493.71369263703309
 20
-1208.999972629877
 30
0.0
 40
7.0000000000005391
  0
CIRCLE
  5
B6
  8
DATA
  6
CONTINUOUS
 62
     7
 10
-906.0
 20
-1441.0
 30
0.0
 40
17.50000000000005
  0
CIRCLE
  5
B7
  8
DATA
  6
CONTINUOUS
 62
     7
 10
-906.0
 20
-1441.0
 30
0.0
 40
10.500000000000901
  0
CIRCLE
  5
B8
  8
DATA
  6
CONTINUOUS
 62
     7
 10
-906.0
 20
-1441.0
 30
0.0
 40
7.0000000000005391
  0
CIRCLE
  5
B9
  8
DATA
  6
CONTINUOUS
 62
     7
 10
-905.71369263703309
 20
-1208.999972629877
 30
0.0
 40
17.50000000000005
  0
CIRCLE
  5
BA
  8
DATA
  6
CONTINUOUS
 62
     7
 10
-905.71369263703309
 20
-1208.999972629877
 30
0.0
 40
10.500000000000901
  0
CIRCLE
  5
BB
  8
DATA
  6
CONTINUOUS
 62
     7
 10
-905.71369263703309
 20
-1208.999972629877
 30
0.0
 40
7.0000000000005391
  0
CIRCLE
  5
BC
  8
DATA
  6
CONTINUOUS
 62
     7
 10
-527.0
 20
-1426.75
 30
0.0
 40
3.249999999999905
  0
CIRCLE
  5
BD
  8
DATA
  6
CONTINUOUS
 62
     7
 10
-526.71369263703309
 20
-1208.999972629877
 30
0.0
 40
3.249999999999905
  0
CIRCLE
  5
BE
  8
DATA
  6
CONTINUOUS
 62
     7
 10
-873.0
 20
-1426.75
 30
0.0
 40
3.249999999999905
  0
CIRCLE
  5
BF
  8
DATA
  6
CONTINUOUS
 62
     7
 10
-872.71369263703309
 20
-1208.999972629877
 30
0.0
 40
3.249999999999905
  0
LINE
  5
C0
  8
DATA
  6
CONTINUOUS
 62
     7
 10
-950.0
 20
-763.0
 30
0.0
 11
-950.0
 21
457.0
 31
0.0
  0
LINE
  5
C1
  8
DATA
  6
CONTINUOUS
 62
     7
 10
-924.9289321881331
 20
-776.0
 30
0.0
 11
-924.9289321881331
 21
457.0
 31
0.0
  0
LINE
  5
C2
  8
DATA
  6
CONTINUOUS
 62
     7
 10
-462.0
 20
-776.0
 30
0.0
 11
-938.0
 21
-776.0
 31
0.0
  0
LINE
  5
C3
  8
DATA
  6
CONTINUOUS
 62
     7
 10
-457.0
 20
-771.0
 30
0.0
 11
-943.0
 21
-771.0
 31
0.0
  0
LINE
  5
C4
  8
DATA
  6
CONTINUOUS
 62
     7
 10
-450.0
 20
-763.0
 30
0.0
 11
-950.0
 21
-763.0
 31
0.0
  0
LINE
  5
C5
  8
DATA
  6
CONTINUOUS
 62
     7
 10
-450.0
 20
457.0
 30
0.0
 11
-450.0
 21
-763.0
 31
0.0
  0
LINE
  5
C6
  8
DATA
  6
CONTINUOUS
 62
     7
 10
-475.0710678118665
 20
457.0
 30
0.0
 11
-475.0710678118665
 21
-776.0
 31
0.0
  0
LINE
  5
C7
  8
DATA
  6
CONTINUOUS
 62
     7
 10
-457.0
 20
-771.0
 30
0.0
 11
-457.0
 21
-763.0
 31
0.0
  0
LINE
  5
C8
  8
DATA
  6
CONTINUOUS
 62
     7
 10
-462.0
 20
-776.0
 30
0.0
 11
-457.0
 21
-770.99999999999955
 31
0.0
  0
LINE
  5
C9
  8
DATA
  6
CONTINUOUS
 62
     7
 10
-943.0
 20
-771.0
 30
0.0
 11
-943.0
 21
-763.0
 31
0.0
  0
LINE
  5
CA
  8
DATA
  6
CONTINUOUS
 62
     7
 10
-938.0
 20
-776.0
 30
0.0
 11
-943.0
 21
-770.99999999999955
 31
0.0
  0
CIRCLE
  5
CB
  8
DATA
  6
CONTINUOUS
 62
     7
 10
-800.0
 20
-568.00000000000011
 30
0.0
 40
74.999999999999901
  0
CIRCLE
  5
CC
  8
DATA
  6
CONTINUOUS
 62
     7
 10
-800.0
 20
-568.00000000000011
 30
0.0
 40
57.5
  0
CIRCLE
  5
CD
  8
DATA
  6
CONTINUOUS
 62
     7
 10
-800.0
 20
-568.00000000000011
 30
0.0
 40
30.000000000000771
  0
CIRCLE
  5
CE
  8
DATA
  6
CONTINUOUS
 62
     7
 10
-600.0
 20
-568.00000000000011
 30
0.0
 40
74.999999999999901
  0
CIRCLE
  5
CF
  8
DATA
  6
CONTINUOUS
 62
     7
 10
-600.0
 20
-568.00000000000011
 30
0.0
 40
57.5
  0
CIRCLE
  5
D0
  8
DATA
  6
CONTINUOUS
 62
     7
 10
-600.0
 20
-568.00000000000011
 30
0.0
 40
30.000000000000771
  0
LINE
  5
D1
  8
DATA
  6
CONTINUOUS
 62
     7
 10
-923.21369263703298
 20
-794.0
 30
0.0
 11
-923.21369263703298
 21
-776.0
 31
0.0
  0
LINE
  5
D2
  8
DATA
  6
CONTINUOUS
 62
     7
 10
-888.21369263703298
 20
-794.0
 30
0.0
 11
-923.21369263703298
 21
-794.0
 31
0.0
  0
LINE
  5
D3
  8
DATA
  6
CONTINUOUS
 62
     7
 10
-916.21369263703309
 20
-800.0
 30
0.0
 11
-895.21369263703298
 21
-800.0
 31
0.0
  0
LINE
  5
D4
  8
DATA
  6
CONTINUOUS
 62
     7
 10
-888.21369263703298
 20
-776.0
 30
0.0
 11
-888.21369263703298
 21
-794.0
 31
0.0
  0
LINE
  5
D5
  8
DATA
  6
CONTINUOUS
 62
     7
 10
-895.21369263703298
 20
-800.0
 30
0.0
 11
-888.21369263703298
 21
-794.0
 31
0.0
  0
LINE
  5
D6
  8
DATA
  6
CONTINUOUS
 62
     7
 10
-916.21369263703309
 20
-800.0
 30
0.0
 11
-923.21369263703298
 21
-794.0
 31
0.0
  0
LINE
  5
D7
  8
DATA
  6
CONTINUOUS
 62
     7
 10
-476.7863073629668
 20
-794.0
 30
0.0
 11
-476.7863073629668
 21
-776.0
 31
0.0
  0
LINE
  5
D8
  8
DATA
  6
CONTINUOUS
 62
     7
 10
-511.7863073629668
 20
-794.0
 30
0.0
 11
-476.7863073629668
 21
-794.0
 31
0.0
  0
LINE
  5
D9
  8
DATA
  6
CONTINUOUS
 62
     7
 10
-483.78630736296691
 20
-800.0
 30
0.0
 11
-504.78630736296691
 21
-800.0
 31
0.0
  0
LINE
  5
DA
  8
DATA
  6
CONTINUOUS
 62
     7
 10
-511.7863073629668
 20
-776.0
 30
0.0
 11
-511.7863073629668
 21
-794.0
 31
0.0
  0
LINE
  5
DB
  8
DATA
  6
CONTINUOUS
 62
     7
 10
-504.78630736296691
 20
-800.0
 30
0.0
 11
-511.7863073629668
 21
-794.0
 31
0.0
  0
LINE
  5
DC
  8
DATA
  6
CONTINUOUS
 62
     7
 10
-483.78630736296691
 20
-800.0
 30
0.0
 11
-476.7863073629668
 21
-794.0
 31
0.0
  0
LINE
  5
DD
  8
DATA
  6
CONTINUOUS
 62
     7
 10
-230.0
 20
-776.0
 30
0.0
 11
-230.0
 21
457.0
 31
0.0
  0
LINE
  5
DE
  8
DATA
  6
CONTINUOUS
 62
     7
 10
-235.0
 20
-776.0
 30
0.0
 11
-235.0
 21
457.0
 31
0.0
  0
LINE
  5
DF
  8
DATA
  6
CONTINUOUS
 62
     7
 10
-205.0
 20
-776.0
 30
0.0
 11
-205.0
 21
457.0
 31
0.0
  0
LINE
  5
E0
  8
DATA
  6
CONTINUOUS
 62
     7
 10
121.0
 20
-776.0
 30
0.0
 11
-230.0
 21
-776.0
 31
0.0
  0
LINE
  5
E1
  8
DATA
  6
CONTINUOUS
 62
     7
 10
121.0
 20
457.0
 30
0.0
 11
121.0
 21
-776.0
 31
0.0
  0
LINE
  5
E2
  8
DATA
  6
CONTINUOUS
 62
     7
 10
-205.0
 20
-776.0
 30
0.0
 11
-250.0
 21
-776.0
 31
0.0
  0
LINE
  5
E3
  8
DATA
  6
CONTINUOUS
 62
     7
 10
-250.0
 20
-776.0
 30
0.0
 11
-250.0
 21
-373.0
 31
0.0
  0
LINE
  5
E4
  8
DATA
  6
CONTINUOUS
 62
     7
 10
-253.0
 20
-373.0
 30
0.0
 11
-253.0
 21
75.0
 31
0.0
  0
LINE
  5
E5
  8
DATA
  6
CONTINUOUS
 62
     7
 10
44.5
 20
-794.0
 30
0.0
 11
44.5
 21
-776.0
 31
0.0
  0
LINE
  5
E6
  8
DATA
  6
CONTINUOUS
 62
     7
 10
79.5
 20
-794.0
 30
0.0
 11
44.5
 21
-794.0
 31
0.0
  0
LINE
  5
E7
  8
DATA
  6
CONTINUOUS
 62
     7
 10
51.5
 20
-800.0
 30
0.0
 11
72.5
 21
-800.0
 31
0.0
  0
LINE
  5
E8
  8
DATA
  6
CONTINUOUS
 62
     7
 10
79.5
 20
-776.0
 30
0.0
 11
79.5
 21
-794.0
 31
0.0
  0
LINE
  5
E9
  8
DATA
  6
CONTINUOUS
 62
     7
 10
72.5
 20
-800.0
 30
0.0
 11
79.5
 21
-794.0
 31
0.0
  0
LINE
  5
EA
  8
DATA
  6
CONTINUOUS
 62
     7
 10
51.5
 20
-800.0
 30
0.0
 11
44.5
 21
-794.0
 31
0.0
  0
LINE
  5
EB
  8
DATA
  6
CONTINUOUS
 62
     7
 10
-187.5000273701225
 20
-794.0
 30
0.0
 11
-187.5000273701225
 21
-776.0
 31
0.0
  0
LINE
  5
EC
  8
DATA
  6
CONTINUOUS
 62
     7
 10
-152.5000273701225
 20
-794.0
 30
0.0
 11
-187.5000273701225
 21
-794.0
 31
0.0
  0
LINE
  5
ED
  8
DATA
  6
CONTINUOUS
 62
     7
 10
-180.5000273701225
 20
-800.0
 30
0.0
 11
-159.5000273701225
 21
-800.0
 31
0.0
  0
LINE
  5
EE
  8
DATA
  6
CONTINUOUS
 62
     7
 10
-152.5000273701225
 20
-776.0
 30
0.0
 11
-152.5000273701225
 21
-794.0
 31
0.0
  0
LINE
  5
EF
  8
DATA
  6
CONTINUOUS
 62
     7
 10
-159.5000273701225
 20
-800.0
 30
0.0
 11
-152.5000273701225
 21
-794.0
 31
0.0
  0
LINE
  5
F0
  8
DATA
  6
CONTINUOUS
 62
     7
 10
-180.5000273701225
 20
-800.0
 30
0.0
 11
-187.5000273701225
 21
-794.0
 31
0.0
  0
LINE
  5
F1
  8
DATA
  6
CONTINUOUS
 62
     7
 10
250.0
 20
-763.0
 30
0.0
 11
250.0
 21
457.0
 31
0.0
  0
LINE
  5
F2
  8
DATA
  6
CONTINUOUS
 62
     7
 10
738.0
 20
-776.0
 30
0.0
 11
262.0
 21
-776.0
 31
0.0
  0
LINE
  5
F3
  8
DATA
  6
CONTINUOUS
 62
     7
 10
743.0
 20
-771.0
 30
0.0
 11
257.0
 21
-771.0
 31
0.0
  0
LINE
  5
F4
  8
DATA
  6
CONTINUOUS
 62
     7
 10
750.0
 20
-763.0
 30
0.0
 11
250.0
 21
-763.0
 31
0.0
  0
LINE
  5
F5
  8
DATA
  6
CONTINUOUS
 62
     7
 10
750.0
 20
457.0
 30
0.0
 11
750.0
 21
-763.0
 31
0.0
  0
LINE
  5
F6
  8
DATA
  6
CONTINUOUS
 62
     7
 10
743.0
 20
-771.0
 30
0.0
 11
743.0
 21
-763.0
 31
0.0
  0
LINE
  5
F7
  8
DATA
  6
CONTINUOUS
 62
     7
 10
738.0
 20
-776.0
 30
0.0
 11
743.0
 21
-770.99999999999955
 31
0.0
  0
LINE
  5
F8
  8
DATA
  6
CONTINUOUS
 62
     7
 10
257.0
 20
-771.0
 30
0.0
 11
257.0
 21
-763.0
 31
0.0
  0
LINE
  5
F9
  8
DATA
  6
CONTINUOUS
 62
     7
 10
262.0
 20
-776.0
 30
0.0
 11
257.0
 21
-770.99999999999955
 31
0.0
  0
LINE
  5
FA
  8
DATA
  6
CONTINUOUS
 62
     7
 10
276.78630736296691
 20
-794.0
 30
0.0
 11
276.78630736296691
 21
-776.0
 31
0.0
  0
LINE
  5
FB
  8
DATA
  6
CONTINUOUS
 62
     7
 10
311.78630736296691
 20
-794.0
 30
0.0
 11
276.78630736296691
 21
-794.0
 31
0.0
  0
LINE
  5
FC
  8
DATA
  6
CONTINUOUS
 62
     7
 10
283.78630736296691
 20
-800.0
 30
0.0
 11
304.78630736296691
 21
-800.0
 31
0.0
  0
LINE
  5
FD
  8
DATA
  6
CONTINUOUS
 62
     7
 10
311.78630736296691
 20
-776.0
 30
0.0
 11
311.78630736296691
 21
-794.0
 31
0.0
  0
LINE
  5
FE
  8
DATA
  6
CONTINUOUS
 62
     7
 10
304.78630736296691
 20
-800.0
 30
0.0
 11
311.78630736296691
 21
-794.0
 31
0.0
  0
LINE
  5
FF
  8
DATA
  6
CONTINUOUS
 62
     7
 10
283.78630736296691
 20
-800.0
 30
0.0
 11
276.78630736296691
 21
-794.0
 31
0.0
  0
LINE
  5
100
  8
DATA
  6
CONTINUOUS
 62
     7
 10
723.21369263703309
 20
-794.0
 30
0.0
 11
723.21369263703309
 21
-776.0
 31
0.0
  0
LINE
  5
101
  8
DATA
  6
CONTINUOUS
 62
     7
 10
688.21369263703286
 20
-794.0
 30
0.0
 11
723.21369263703309
 21
-794.0
 31
0.0
  0
LINE
  5
102
  8
DATA
  6
CONTINUOUS
 62
     7
 10
716.21369263703298
 20
-800.0
 30
0.0
 11
695.21369263703298
 21
-800.0
 31
0.0
  0
LINE
  5
103
  8
DATA
  6
CONTINUOUS
 62
     7
 10
688.21369263703286
 20
-776.0
 30
0.0
 11
688.21369263703286
 21
-794.0
 31
0.0
  0
LINE
  5
104
  8
DATA
  6
CONTINUOUS
 62
     7
 10
695.21369263703298
 20
-800.0
 30
0.0
 11
688.21369263703286
 21
-794.0
 31
0.0
  0
LINE
  5
105
  8
DATA
  6
CONTINUOUS
 62
     7
 10
716.21369263703298
 20
-800.0
 30
0.0
 11
723.21369263703309
 21
-794.0
 31
0.0
  0
LINE
  5
106
  8
DATA
  6
CONTINUOUS
 62
     7
 10
440.0
 20
-723.00217351568904
 30
0.0
 11
440.0
 21
-623.00217351568915
 31
0.0
  0
LINE
  5
107
  8
DATA
  6
CONTINUOUS
 62
     7
 10
455.0
 20
-718.00217351568915
 30
0.0
 11
455.0
 21
-628.00217351568926
 31
0.0
  0
LINE
  5
108
  8
DATA
  6
CONTINUOUS
 62
     7
 10
550.0
 20
-733.00217351568904
 30
0.0
 11
450.0
 21
-733.00217351568904
 31
0.0
  0
LINE
  5
109
  8
DATA
  6
CONTINUOUS
 62
     7
 10
545.0
 20
-718.00217351568915
 30
0.0
 11
455.0
 21
-718.00217351568915
 31
0.0
  0
LINE
  5
10A
  8
DATA
  6
CONTINUOUS
 62
     7
 10
545.0
 20
-703.00217351568926
 30
0.0
 11
455.0
 21
-703.00217351568926
 31
0.0
  0
LINE
  5
10B
  8
DATA
  6
CONTINUOUS
 62
     7
 10
560.0
 20
-623.00217351568915
 30
0.0
 11
560.0
 21
-723.00217351568904
 31
0.0
  0
LINE
  5
10C
  8
DATA
  6
CONTINUOUS
 62
     7
 10
545.0
 20
-628.00217351568926
 30
0.0
 11
545.0
 21
-718.00217351568915
 31
0.0
  0
LINE
  5
10D
  8
DATA
  6
CONTINUOUS
 62
     7
 10
450.0
 20
-613.00217351568915
 30
0.0
 11
550.0
 21
-613.00217351568915
 31
0.0
  0
LINE
  5
10E
  8
DATA
  6
CONTINUOUS
 62
     7
 10
455.0
 20
-628.00217351568926
 30
0.0
 11
545.0
 21
-628.00217351568926
 31
0.0
  0
ARC
  5
10F
  8
DATA
  6
CONTINUOUS
 62
     7
 10
550.0
 20
-623.00217351568915
 30
0.0
 40
10.0
 50
0.0
 51
90.0
  0
ARC
  5
110
  8
DATA
  6
CONTINUOUS
 62
     7
 10
450.0
 20
-623.00217351568915
 30
0.0
 40
10.0
 50
90.0
 51
180.0
  0
ARC
  5
111
  8
DATA
  6
CONTINUOUS
 62
     7
 10
450.0
 20
-723.00217351568904
 30
0.0
 40
10.0
 50
180.0
 51
270.0
  0
ARC
  5
112
  8
DATA
  6
CONTINUOUS
 62
     7
 10
550.0
 20
-723.00217351568904
 30
0.0
 40
10.0
 50
270.0
 51
0.0
  0
LINE
  5
113
  8
DATA
  6
CONTINUOUS
 62
     7
 10
545.0
 20
-665.50217351568926
 30
0.0
 11
455.0
 21
-665.50217351568926
 31
0.0
  0
LINE
  5
114
  8
DATA
  6
CONTINUOUS
 62
     7
 10
545.0
 20
-684.25217351568926
 30
0.0
 11
525.50000000000159
 21
-684.25217351568926
 31
0.0
  0
LINE
  5
115
  8
DATA
  6
CONTINUOUS
 62
     7
 10
519.5
 20
-684.25217351568926
 30
0.0
 11
480.49999999999989
 21
-684.25217351568926
 31
0.0
  0
LINE
  5
116
  8
DATA
  6
CONTINUOUS
 62
     7
 10
474.49999999999818
 20
-684.25217351568926
 30
0.0
 11
455.0
 21
-684.25217351568926
 31
0.0
  0
LINE
  5
117
  8
DATA
  6
CONTINUOUS
 62
     7
 10
544.69999999999891
 20
-646.75217351568926
 30
0.0
 11
517.08257569761906
 21
-646.75217351568926
 31
0.0
  0
LINE
  5
118
  8
DATA
  6
CONTINUOUS
 62
     7
 10
507.917424302379
 20
-646.75217351568926
 30
0.0
 11
492.08257569495788
 21
-646.75217351568926
 31
0.0
  0
LINE
  5
119
  8
DATA
  6
CONTINUOUS
 62
     7
 10
482.91742430504371
 20
-646.75217351568926
 30
0.0
 11
455.0
 21
-646.75217351568926
 31
0.0
  0
CIRCLE
  5
11A
  8
DATA
  6
CONTINUOUS
 62
     7
 10
522.5
 20
-688.25217351568915
 30
0.0
 40
4.9999999999993792
  0
CIRCLE
  5
11B
  8
DATA
  6
CONTINUOUS
 62
     7
 10
522.5
 20
-688.25217351568915
 30
0.0
 40
4.9999999999993792
  0
LINE
  5
11C
  8
DATA
  6
CONTINUOUS
 62
     7
 10
527.5
 20
-688.25217351568915
 30
0.0
 11
527.18000000000006
 21
-692.25217351568915
 31
0.0
  0
LINE
  5
11D
  8
DATA
  6
CONTINUOUS
 62
     7
 10
517.49999999999989
 20
-688.25217351568915
 30
0.0
 11
517.8199999999996
 21
-692.25217351568915
 31
0.0
  0
ARC
  5
11E
  8
DATA
  6
CONTINUOUS
 62
     7
 10
522.5
 20
-690.10177351568836
 30
0.0
 40
5.1504000000005918
 50
204.678174556659
 51
335.32182544334108
  0
LINE
  5
11F
  8
DATA
  6
CONTINUOUS
 62
     7
 10
526.18845546168257
 20
-693.69648024464891
 30
0.0
 11
525.92736232823324
 21
-696.96014441275076
 31
0.0
  0
LINE
  5
120
  8
DATA
  6
CONTINUOUS
 62
     7
 10
518.81154453831709
 20
-693.69648024464891
 30
0.0
 11
519.03826864471569
 21
-696.92922616830367
 31
0.0
  0
ARC
  5
121
  8
DATA
  6
CONTINUOUS
 62
     7
 10
522.5
 20
-693.11569287438613
 30
0.0
 40
5.1504000000001389
 50
227.7684322806808
 51
311.71728438802472
  0
CIRCLE
  5
122
  8
DATA
  6
CONTINUOUS
 62
     7
 10
477.5
 20
-688.25217351568915
 30
0.0
 40
4.9999999999993792
  0
CIRCLE
  5
123
  8
DATA
  6
CONTINUOUS
 62
     7
 10
477.5
 20
-688.25217351568915
 30
0.0
 40
4.9999999999993792
  0
LINE
  5
124
  8
DATA
  6
CONTINUOUS
 62
     7
 10
472.5
 20
-688.25217351568915
 30
0.0
 11
472.81999999999971
 21
-692.25217351568915
 31
0.0
  0
LINE
  5
125
  8
DATA
  6
CONTINUOUS
 62
     7
 10
482.5
 20
-688.25217351568915
 30
0.0
 11
482.18000000000018
 21
-692.25217351568915
 31
0.0
  0
ARC
  5
126
  8
DATA
  6
CONTINUOUS
 62
     7
 10
477.5
 20
-690.10177351568836
 30
0.0
 40
5.1504000000005918
 50
204.678174556659
 51
335.32182544334108
  0
LINE
  5
127
  8
DATA
  6
CONTINUOUS
 62
     7
 10
473.81154453831721
 20
-693.69648024464891
 30
0.0
 11
474.07263767176659
 21
-696.96014441275076
 31
0.0
  0
LINE
  5
128
  8
DATA
  6
CONTINUOUS
 62
     7
 10
481.18845546168268
 20
-693.69648024464891
 30
0.0
 11
480.96173135528431
 21
-696.92922616830367
 31
0.0
  0
ARC
  5
129
  8
DATA
  6
CONTINUOUS
 62
     7
 10
477.5
 20
-693.11569287438613
 30
0.0
 40
5.1504000000000971
 50
228.28271561197531
 51
312.23156771931929
  0
CIRCLE
  5
12A
  8
DATA
  6
CONTINUOUS
 62
     7
 10
512.5
 20
-648.75217351568836
 30
0.0
 40
4.9999999999993792
  0
CIRCLE
  5
12B
  8
DATA
  6
CONTINUOUS
 62
     7
 10
512.5
 20
-648.75217351568836
 30
0.0
 40
4.9999999999993792
  0
LINE
  5
12C
  8
DATA
  6
CONTINUOUS
 62
     7
 10
517.49999999999989
 20
-648.75217351568836
 30
0.0
 11
517.18000000000006
 21
-652.75217351568836
 31
0.0
  0
LINE
  5
12D
  8
DATA
  6
CONTINUOUS
 62
     7
 10
507.5
 20
-648.75217351568836
 30
0.0
 11
507.81999999999971
 21
-652.75217351568836
 31
0.0
  0
ARC
  5
12E
  8
DATA
  6
CONTINUOUS
 62
     7
 10
512.5
 20
-650.60177351568757
 30
0.0
 40
5.1504000000005918
 50
204.678174556659
 51
335.32182544334108
  0
LINE
  5
12F
  8
DATA
  6
CONTINUOUS
 62
     7
 10
516.18845546168257
 20
-654.19648024464834
 30
0.0
 11
515.92736232823324
 21
-657.46014441275042
 31
0.0
  0
LINE
  5
130
  8
DATA
  6
CONTINUOUS
 62
     7
 10
508.81154453831732
 20
-654.19648024464834
 30
0.0
 11
509.03826864471552
 21
-657.42922616830322
 31
0.0
  0
ARC
  5
131
  8
DATA
  6
CONTINUOUS
 62
     7
 10
512.5
 20
-653.61569287438556
 30
0.0
 40
5.1504000000001389
 50
227.7684322806808
 51
311.71728438802472
  0
CIRCLE
  5
132
  8
DATA
  6
CONTINUOUS
 62
     7
 10
487.5
 20
-648.75217351568881
 30
0.0
 40
4.9999999999993792
  0
CIRCLE
  5
133
  8
DATA
  6
CONTINUOUS
 62
     7
 10
487.5
 20
-648.75217351568881
 30
0.0
 40
4.9999999999993792
  0
LINE
  5
134
  8
DATA
  6
CONTINUOUS
 62
     7
 10
492.49999999999989
 20
-648.75217351568881
 30
0.0
 11
492.18000000000018
 21
-652.75217351568881
 31
0.0
  0
LINE
  5
135
  8
DATA
  6
CONTINUOUS
 62
     7
 10
482.5
 20
-648.75217351568881
 30
0.0
 11
482.81999999999971
 21
-652.75217351568881
 31
0.0
  0
ARC
  5
136
  8
DATA
  6
CONTINUOUS
 62
     7
 10
487.5
 20
-650.60177351568791
 30
0.0
 40
5.1504000000005918
 50
204.678174556659
 51
335.32182544334108
  0
LINE
  5
137
  8
DATA
  6
CONTINUOUS
 62
     7
 10
491.18845546168262
 20
-654.19648024464857
 30
0.0
 11
490.9273623282333
 21
-657.46014441275042
 31
0.0
  0
LINE
  5
138
  8
DATA
  6
CONTINUOUS
 62
     7
 10
483.81154453831732
 20
-654.19648024464857
 30
0.0
 11
484.03826864471552
 21
-657.42922616830322
 31
0.0
  0
ARC
  5
139
  8
DATA
  6
CONTINUOUS
 62
     7
 10
487.5
 20
-653.61569287438556
 30
0.0
 40
5.1504000000002241
 50
227.76843228068171
 51
311.71728438802472
  0
TEXT
  5
13A
  8
DATA
 62
     7
 10
483.12520572916662
 20
-702.13345823791144
 30
0.0
 40
6.5153645833333318
  1
-  LOW  +
 41
0.7
 72
     1
 11
500.0
 21
-703.00217351568926
 31
0.0
 73
     1
  0
TEXT
  5
13B
  8
DATA
 62
     7
 10
492.39874131944453
 20
-664.63345823791144
 30
0.0
 40
6.5153645833333318
  1
HIGH
 41
0.7
 72
     1
 11
500.0
 21
-665.50217351568926
 31
0.0
 73
     1
  0
TEXT
  5
13C
  8
DATA
 62
     7
 10
-1312.5
 20
-1731.794957708333
 30
0.0
 40
28.504720052083339
  1
※仕様及び外観は予告なく変更されることがあります。
 41
0.7
 11
-1312.5
 21
-1703.2902376562499
 31
0.0
 73
     3
  0
TEXT
  5
13D
  8
DATA
 62
     7
 10
-1312.5
 20
-1768.8366243749999
 30
0.0
 40
28.504720052083339
  1
　また、同一商品でも若干の個体差があることがあります。ご了承ください。
 41
0.7
 11
-1312.5
 21
-1740.3319043229169
 31
0.0
 73
     3
  0
LINE
  5
13E
  8
DATA
  6
CONTINUOUS
 62
     7
 10
-450.0
 20
975.0
 30
0.0
 11
-450.0
 21
641.0000000000008
 31
0.0
  0
LINE
  5
13F
  8
DATA
  6
CONTINUOUS
 62
     7
 10
-950.0
 20
975.0
 30
0.0
 11
-450.0
 21
975.0
 31
0.0
  0
LINE
  5
140
  8
DATA
  6
CONTINUOUS
 62
     7
 10
-950.0
 20
641.0000000000008
 30
0.0
 11
-950.0
 21
975.0
 31
0.0
  0
LINE
  5
141
  8
DATA
  6
CONTINUOUS
 62
     7
 10
-475.0
 20
616.0000000000008
 30
0.0
 11
-925.0
 21
616.0000000000008
 31
0.0
  0
LINE
  5
142
  8
DATA
  6
CONTINUOUS
 62
     7
 10
-925.0
 20
616.0000000000008
 30
0.0
 11
-950.0
 21
641.0000000000008
 31
0.0
  0
LINE
  5
143
  8
DATA
  6
CONTINUOUS
 62
     7
 10
-475.0
 20
616.0000000000008
 30
0.0
 11
-450.0
 21
641.0000000000008
 31
0.0
  0
LINE
  5
144
  8
DATA
  6
CONTINUOUS
 62
     7
 10
-475.0
 20
613.72195270259215
 30
0.0
 11
-475.0
 21
616.0000000000008
 31
0.0
  0
LINE
  5
145
  8
DATA
  6
CONTINUOUS
 62
     7
 10
-925.0
 20
616.0000000000008
 30
0.0
 11
-475.0
 21
616.0000000000008
 31
0.0
  0
LINE
  5
146
  8
DATA
  6
CONTINUOUS
 62
     7
 10
-925.0
 20
616.20000000000073
 30
0.0
 11
-925.0
 21
613.72195270259215
 31
0.0
  0
ARC
  5
147
  8
DATA
  6
CONTINUOUS
 62
     7
 10
-700.0
 20
2906.6363636363649
 30
0.0
 40
2306.636363636364
 50
264.46985903278039
 51
275.53014096721949
  0
ARC
  5
148
  8
DATA
  6
CONTINUOUS
 62
     7
 10
-478.0
 20
613.72195270259215
 30
0.0
 40
2.9999999999998819
 50
275.5301409672295
 51
0.0
  0
ARC
  5
149
  8
DATA
  6
CONTINUOUS
 62
     7
 10
-922.0
 20
613.72195270259215
 30
0.0
 40
3.0
 50
180.0
 51
264.46985903277039
  0
TEXT
  5
14A
  8
DATA
 62
     7
 10
707.02260000000012
 20
1168.749951999999
 30
0.0
 40
27.000389062499998
  1
コネクターパネル拡大図
 41
0.7
 11
707.02260000000012
 21
1195.750341062499
 31
0.0
 73
     3
  0
LINE
  5
14B
  8
DATA
  6
CONTINUOUS
 62
     7
 10
637.49999999999977
 20
1150.0
 30
0.0
 11
1162.5
 21
1150.0
 31
0.0
  0
LINE
  5
14C
  8
DATA
  6
CONTINUOUS
 62
     7
 10
600.0
 20
550.0
 30
0.0
 11
600.0
 21
1050.0
 31
0.0
  0
LINE
  5
14D
  8
DATA
  6
CONTINUOUS
 62
     7
 10
675.0
 20
575.0
 30
0.0
 11
675.0
 21
1025.0
 31
0.0
  0
LINE
  5
14E
  8
DATA
  6
CONTINUOUS
 62
     7
 10
1150.0
 20
500.0
 30
0.0
 11
650.0
 21
500.0
 31
0.0
  0
LINE
  5
14F
  8
DATA
  6
CONTINUOUS
 62
     7
 10
1125.0
 20
575.0
 30
0.0
 11
675.0
 21
575.0
 31
0.0
  0
LINE
  5
150
  8
DATA
  6
CONTINUOUS
 62
     7
 10
1125.0
 20
650.0
 30
0.0
 11
675.0
 21
650.0
 31
0.0
  0
LINE
  5
151
  8
DATA
  6
CONTINUOUS
 62
     7
 10
1200.0
 20
1050.0
 30
0.0
 11
1200.0
 21
550.0
 31
0.0
  0
LINE
  5
152
  8
DATA
  6
CONTINUOUS
 62
     7
 10
1125.0
 20
1025.0
 30
0.0
 11
1125.0
 21
575.0
 31
0.0
  0
LINE
  5
153
  8
DATA
  6
CONTINUOUS
 62
     7
 10
650.0
 20
1100.0
 30
0.0
 11
1150.0
 21
1100.0
 31
0.0
  0
LINE
  5
154
  8
DATA
  6
CONTINUOUS
 62
     7
 10
675.0
 20
1025.0
 30
0.0
 11
1125.0
 21
1025.0
 31
0.0
  0
ARC
  5
155
  8
DATA
  6
CONTINUOUS
 62
     7
 10
1150.0
 20
1050.0
 30
0.0
 40
50.0
 50
0.0
 51
90.0
  0
ARC
  5
156
  8
DATA
  6
CONTINUOUS
 62
     7
 10
650.0
 20
1050.0
 30
0.0
 40
50.0
 50
90.0
 51
180.0
  0
ARC
  5
157
  8
DATA
  6
CONTINUOUS
 62
     7
 10
650.0
 20
550.0
 30
0.0
 40
50.0
 50
180.0
 51
270.0
  0
ARC
  5
158
  8
DATA
  6
CONTINUOUS
 62
     7
 10
1150.0
 20
550.0
 30
0.0
 40
50.0
 50
270.0
 51
0.0
  0
LINE
  5
159
  8
DATA
  6
CONTINUOUS
 62
     7
 10
1125.0
 20
837.50000000000011
 30
0.0
 11
675.0
 21
837.50000000000011
 31
0.0
  0
LINE
  5
15A
  8
DATA
  6
CONTINUOUS
 62
     7
 10
1125.0
 20
743.75
 30
0.0
 11
1027.5000000000091
 21
743.75
 31
0.0
  0
LINE
  5
15B
  8
DATA
  6
CONTINUOUS
 62
     7
 10
997.49999999999989
 20
743.75
 30
0.0
 11
802.5
 21
743.75
 31
0.0
  0
LINE
  5
15C
  8
DATA
  6
CONTINUOUS
 62
     7
 10
772.49999999999079
 20
743.75
 30
0.0
 11
675.0
 21
743.75
 31
0.0
  0
LINE
  5
15D
  8
DATA
  6
CONTINUOUS
 62
     7
 10
1123.4999999999941
 20
931.25
 30
0.0
 11
985.41287848809588
 21
931.25
 31
0.0
  0
LINE
  5
15E
  8
DATA
  6
CONTINUOUS
 62
     7
 10
939.58712151189491
 20
931.25
 30
0.0
 11
860.41287847479009
 21
931.25
 31
0.0
  0
LINE
  5
15F
  8
DATA
  6
CONTINUOUS
 62
     7
 10
814.587121525219
 20
931.25
 30
0.0
 11
675.0
 21
931.25
 31
0.0
  0
CIRCLE
  5
160
  8
DATA
  6
CONTINUOUS
 62
     7
 10
1012.5
 20
723.75000000000011
 30
0.0
 40
24.999999999996891
  0
CIRCLE
  5
161
  8
DATA
  6
CONTINUOUS
 62
     7
 10
1012.5
 20
723.75000000000011
 30
0.0
 40
24.999999999996891
  0
LINE
  5
162
  8
DATA
  6
CONTINUOUS
 62
     7
 10
1037.5
 20
723.75000000000011
 30
0.0
 11
1035.9000000000019
 21
703.75000000000011
 31
0.0
  0
LINE
  5
163
  8
DATA
  6
CONTINUOUS
 62
     7
 10
987.5
 20
723.75000000000011
 30
0.0
 11
989.09999999999843
 21
703.75000000000011
 31
0.0
  0
ARC
  5
164
  8
DATA
  6
CONTINUOUS
 62
     7
 10
1012.5
 20
714.50200000000405
 30
0.0
 40
25.752000000002969
 50
204.678174556659
 51
335.32182544334108
  0
LINE
  5
165
  8
DATA
  6
CONTINUOUS
 62
     7
 10
1030.9422773084129
 20
696.5284663552012
 30
0.0
 11
1029.636811641167
 21
680.21014551469148
 31
0.0
  0
LINE
  5
166
  8
DATA
  6
CONTINUOUS
 62
     7
 10
994.0577226915866
 20
696.5284663552012
 30
0.0
 11
995.19134322357775
 21
680.36473673692683
 31
0.0
  0
ARC
  5
167
  8
DATA
  6
CONTINUOUS
 62
     7
 10
1012.5
 20
699.43240320651523
 30
0.0
 40
25.752000000000699
 50
227.7684322806808
 51
311.71728438802432
  0
CIRCLE
  5
168
  8
DATA
  6
CONTINUOUS
 62
     7
 10
787.5
 20
723.75000000000011
 30
0.0
 40
24.999999999996891
  0
CIRCLE
  5
169
  8
DATA
  6
CONTINUOUS
 62
     7
 10
787.5
 20
723.75000000000011
 30
0.0
 40
24.999999999996891
  0
LINE
  5
16A
  8
DATA
  6
CONTINUOUS
 62
     7
 10
762.5
 20
723.75000000000011
 30
0.0
 11
764.09999999999843
 21
703.75000000000011
 31
0.0
  0
LINE
  5
16B
  8
DATA
  6
CONTINUOUS
 62
     7
 10
812.5
 20
723.75000000000011
 30
0.0
 11
810.90000000000146
 21
703.75000000000011
 31
0.0
  0
ARC
  5
16C
  8
DATA
  6
CONTINUOUS
 62
     7
 10
787.5
 20
714.50200000000405
 30
0.0
 40
25.752000000002969
 50
204.678174556659
 51
335.32182544334108
  0
LINE
  5
16D
  8
DATA
  6
CONTINUOUS
 62
     7
 10
769.05772269158649
 20
696.5284663552012
 30
0.0
 11
770.36318835883333
 21
680.21014551469148
 31
0.0
  0
LINE
  5
16E
  8
DATA
  6
CONTINUOUS
 62
     7
 10
805.94227730841328
 20
696.5284663552012
 30
0.0
 11
804.80865677642214
 21
680.36473673692683
 31
0.0
  0
ARC
  5
16F
  8
DATA
  6
CONTINUOUS
 62
     7
 10
787.5
 20
699.43240320651523
 30
0.0
 40
25.752000000000489
 50
228.28271561197531
 51
312.23156771931929
  0
CIRCLE
  5
170
  8
DATA
  6
CONTINUOUS
 62
     7
 10
962.5
 20
921.25000000000296
 30
0.0
 40
24.999999999996891
  0
CIRCLE
  5
171
  8
DATA
  6
CONTINUOUS
 62
     7
 10
962.5
 20
921.25000000000296
 30
0.0
 40
24.999999999996891
  0
LINE
  5
172
  8
DATA
  6
CONTINUOUS
 62
     7
 10
987.5
 20
921.25000000000296
 30
0.0
 11
985.90000000000146
 21
901.25000000000296
 31
0.0
  0
LINE
  5
173
  8
DATA
  6
CONTINUOUS
 62
     7
 10
937.5
 20
921.25000000000296
 30
0.0
 11
939.09999999999843
 21
901.25000000000296
 31
0.0
  0
ARC
  5
174
  8
DATA
  6
CONTINUOUS
 62
     7
 10
962.5
 20
912.00200000000689
 30
0.0
 40
25.752000000002969
 50
204.678174556659
 51
335.32182544334108
  0
LINE
  5
175
  8
DATA
  6
CONTINUOUS
 62
     7
 10
980.94227730841351
 20
894.02846635520405
 30
0.0
 11
979.63681164116679
 21
877.7101455146942
 31
0.0
  0
LINE
  5
176
  8
DATA
  6
CONTINUOUS
 62
     7
 10
944.0577226915866
 20
894.02846635520405
 30
0.0
 11
945.19134322357775
 21
877.86473673692979
 31
0.0
  0
ARC
  5
177
  8
DATA
  6
CONTINUOUS
 62
     7
 10
962.5
 20
896.93240320651807
 30
0.0
 40
25.752000000000699
 50
227.7684322806808
 51
311.7172843880245
  0
CIRCLE
  5
178
  8
DATA
  6
CONTINUOUS
 62
     7
 10
837.5
 20
921.25000000000227
 30
0.0
 40
24.999999999996891
  0
CIRCLE
  5
179
  8
DATA
  6
CONTINUOUS
 62
     7
 10
837.5
 20
921.25000000000227
 30
0.0
 40
24.999999999996891
  0
LINE
  5
17A
  8
DATA
  6
CONTINUOUS
 62
     7
 10
862.5
 20
921.25000000000227
 30
0.0
 11
860.90000000000146
 21
901.25000000000239
 31
0.0
  0
LINE
  5
17B
  8
DATA
  6
CONTINUOUS
 62
     7
 10
812.5
 20
921.25000000000227
 30
0.0
 11
814.09999999999843
 21
901.25000000000239
 31
0.0
  0
ARC
  5
17C
  8
DATA
  6
CONTINUOUS
 62
     7
 10
837.5
 20
912.00200000000643
 30
0.0
 40
25.752000000002969
 50
204.678174556659
 51
335.32182544334108
  0
LINE
  5
17D
  8
DATA
  6
CONTINUOUS
 62
     7
 10
855.94227730841351
 20
894.02846635520359
 30
0.0
 11
854.63681164116679
 21
877.71014551469375
 31
0.0
  0
LINE
  5
17E
  8
DATA
  6
CONTINUOUS
 62
     7
 10
819.0577226915866
 20
894.02846635520359
 30
0.0
 11
820.19134322357775
 21
877.86473673692933
 31
0.0
  0
ARC
  5
17F
  8
DATA
  6
CONTINUOUS
 62
     7
 10
837.5
 20
896.93240320651751
 30
0.0
 40
25.752000000001122
 50
227.76843228068171
 51
311.71728438802472
  0
TEXT
  5
180
  8
DATA
 62
     7
 10
815.62602864583334
 20
654.34357638888901
 30
0.0
 40
32.576822916666671
  1
-  LOW  +
 41
0.7
 72
     1
 11
900.0
 21
650.0
 31
0.0
 73
     1
  0
TEXT
  5
181
  8
DATA
 62
     7
 10
861.99370659722206
 20
841.84357638888901
 30
0.0
 40
32.576822916666671
  1
HIGH
 41
0.7
 72
     1
 11
900.0
 21
837.50000000000011
 31
0.0
 73
     1
  0
TEXT
  5
182
  8
DATA
 62
     7
 10
712.5
 20
-1626.3800993750001
 30
0.0
 40
24.4326171875
  1
2-Wayフルレンジ・スタ ジオモニタ ー
 41
0.7
 11
712.5
 21
-1601.9474821875001
 31
0.0
 73
     3
  0
LINE
  5
183
  8
DATA
  6
CONTINUOUS
 62
     7
 10
-950.0
 20
457.0
 30
0.0
 11
-450.0
 21
457.0
 31
0.0
  0
ARC
  5
184
  8
DATA
  6
CONTINUOUS
 62
     7
 10
-700.0
 20
2135.9341511764642
 30
0.0
 40
1693.934151176463
 50
262.36944728332259
 51
277.63055271667741
  0
LINE
  5
185
  8
DATA
  6
CONTINUOUS
 62
     7
 10
-884.93000000000029
 20
429.49999999999989
 30
0.0
 11
-515.0699999999996
 21
429.49999999999989
 31
0.0
  0
LINE
  5
186
  8
DATA
  6
CONTINUOUS
 62
     7
 10
-515.0699999999996
 20
429.49999999999989
 30
0.0
 11
-515.0699999999996
 21
129.5
 31
0.0
  0
LINE
  5
187
  8
DATA
  6
CONTINUOUS
 62
     7
 10
-884.93000000000029
 20
429.49999999999989
 30
0.0
 11
-884.93000000000029
 21
129.5
 31
0.0
  0
LINE
  5
188
  8
DATA
  6
CONTINUOUS
 62
     7
 10
-884.93000000000029
 20
129.5
 30
0.0
 11
-515.0699999999996
 21
129.5
 31
0.0
  0
LINE
  5
189
  8
DATA
  6
CONTINUOUS
 62
     7
 10
-884.93000000000029
 20
429.49999999999989
 30
0.0
 11
-709.70798912746613
 21
287.37432200897553
 31
0.0
  0
LINE
  5
18A
  8
DATA
  6
CONTINUOUS
 62
     7
 10
-690.2920108725375
 20
271.62567799102641
 30
0.0
 11
-515.0699999999996
 21
129.5
 31
0.0
  0
LINE
  5
18B
  8
DATA
  6
CONTINUOUS
 62
     7
 10
-515.0699999999996
 20
429.49999999999989
 30
0.0
 11
-690.2920108725375
 21
287.37432200897359
 31
0.0
  0
LINE
  5
18C
  8
DATA
  6
CONTINUOUS
 62
     7
 10
-709.70798912746613
 20
271.62567799102447
 30
0.0
 11
-884.93000000000029
 21
129.5
 31
0.0
  0
CIRCLE
  5
18D
  8
DATA
  6
CONTINUOUS
 62
     7
 10
-700.0
 20
279.5
 30
0.0
 40
12.500000000000361
  0
LINE
  5
18E
  8
DATA
  6
CONTINUOUS
 62
     7
 10
-715.0
 20
85.0
 30
0.0
 11
-715.0
 21
115.0
 31
0.0
  0
LINE
  5
18F
  8
DATA
  6
CONTINUOUS
 62
     7
 10
-685.0
 20
85.0
 30
0.0
 11
-715.0
 21
85.0
 31
0.0
  0
LINE
  5
190
  8
DATA
  6
CONTINUOUS
 62
     7
 10
-685.0
 20
115.0
 30
0.0
 11
-685.0
 21
85.0
 31
0.0
  0
LINE
  5
191
  8
DATA
  6
CONTINUOUS
 62
     7
 10
-715.0
 20
115.0
 30
0.0
 11
-685.0
 21
115.0
 31
0.0
  0
LINE
  5
192
  8
DATA
  6
CONTINUOUS
 62
     7
 10
-235.0
 20
457.0
 30
0.0
 11
121.0
 21
457.0
 31
0.0
  0
LINE
  5
193
  8
DATA
  6
CONTINUOUS
 62
     7
 10
-235.0
 20
77.0
 30
0.0
 11
-253.0
 21
77.0
 31
0.0
  0
LINE
  5
194
  8
DATA
  6
CONTINUOUS
 62
     7
 10
-253.0
 20
77.0
 30
0.0
 11
-251.0
 21
77.0
 31
0.0
  0
LINE
  5
195
  8
DATA
  6
CONTINUOUS
 62
     7
 10
-251.0
 20
77.0
 30
0.0
 11
-251.0
 21
117.0
 31
0.0
  0
LINE
  5
196
  8
DATA
  6
CONTINUOUS
 62
     7
 10
-235.0
 20
457.0
 30
0.0
 11
-251.5
 21
442.0
 31
0.0
  0
LINE
  5
197
  8
DATA
  6
CONTINUOUS
 62
     7
 10
-239.0
 20
167.0
 30
0.0
 11
-239.0
 21
392.0
 31
0.0
  0
ARC
  5
198
  8
DATA
  6
CONTINUOUS
 62
     7
 10
-138.70670371340199
 20
443.48115560483518
 30
0.0
 40
112.8030208333181
 50
180.75234158689409
 51
207.2394849500144
  0
ARC
  5
199
  8
DATA
  6
CONTINUOUS
 62
     7
 10
-139.33391318477689
 20
116.64013916434691
 30
0.0
 40
111.66666666667329
 50
153.19317710512769
 51
179.81535633328099
  0
LINE
  5
19A
  8
DATA
  6
CONTINUOUS
 62
     7
 10
-255.0
 20
85.0
 30
0.0
 11
-255.0
 21
115.0
 31
0.0
  0
LINE
  5
19B
  8
DATA
  6
CONTINUOUS
 62
     7
 10
-251.0
 20
85.0
 30
0.0
 11
-255.0
 21
85.0
 31
0.0
  0
LINE
  5
19C
  8
DATA
  6
CONTINUOUS
 62
     7
 10
-251.0
 20
115.0
 30
0.0
 11
-251.0
 21
85.0
 31
0.0
  0
LINE
  5
19D
  8
DATA
  6
CONTINUOUS
 62
     7
 10
-255.0
 20
115.0
 30
0.0
 11
-251.0
 21
115.0
 31
0.0
  0
LINE
  5
19E
  8
DATA
  6
CONTINUOUS
 62
     7
 10
250.0
 20
457.0
 30
0.0
 11
750.0
 21
457.0
 31
0.0
  0
LINE
  5
19F
  8
DATA
  6
CONTINUOUS
 62
     7
 10
-924.9289321881331
 20
77.0
 30
0.0
 11
-475.0710678118665
 21
77.0
 31
0.0
  0
ARC
  5
1A0
  8
DATA
  6
CONTINUOUS
 62
     7
 10
-700.0
 20
1023.361792647052
 30
0.0
 40
1414.361792647052
 50
260.8492794275333
 51
279.15072057246658
  0
LINE
  5
1A1
  8
DATA
  6
CONTINUOUS
 62
     7
 10
-253.0
 20
-373.0
 30
0.0
 11
-235.0
 21
-373.0
 31
0.0
  0
ENDSEC
  0
EOF
