  0
SECTION
  2
HEADER
  9
$ACADVER
  1
AC1009
  9
$DWGCODEPAGE
  3
ansi_932
  9
$INSBASE
 10
0.0
 20
0.0
 30
0.0
  9
$EXTMIN
 10
-1350.0
 20
-2024.509260898437
 30
0.0
  9
$EXTMAX
 10
1557.525902157739
 20
1999.44541
 30
0.0
  9
$LIMMIN
 10
0.0
 20
0.0
  9
$LIMMAX
 10
0.0
 20
0.0
  9
$ORTHOMODE
 70
     0
  9
$REGENMODE
 70
     1
  9
$FILLMODE
 70
     1
  9
$QTEXTMODE
 70
     0
  9
$MIRRTEXT
 70
     1
  9
$DRAGMODE
 70
     2
  9
$LTSCALE
 40
76.19999999999999
  9
$OSMODE
 70
    37
  9
$ATTMODE
 70
     1
  9
$TEXTSIZE
 40
0.0
  9
$TRACEWID
 40
1.0
  9
$TEXTSTYLE
  7
STANDARD
  9
$CLAYER
  8
DATA
  9
$CELTYPE
  6
BYLAYER
  9
$CECOLOR
 62
   256
  9
$DIMSCALE
 40
1.0
  9
$DIMASZ
 40
0.18
  9
$DIMEXO
 40
0.0625
  9
$DIMDLI
 40
0.38
  9
$DIMRND
 40
0.0
  9
$DIMDLE
 40
0.0
  9
$DIMEXE
 40
0.18
  9
$DIMTP
 40
0.0
  9
$DIMTM
 40
0.0
  9
$DIMTXT
 40
0.18
  9
$DIMCEN
 40
0.09
  9
$DIMTSZ
 40
0.0
  9
$DIMTOL
 70
     0
  9
$DIMLIM
 70
     0
  9
$DIMTIH
 70
     1
  9
$DIMTOH
 70
     1
  9
$DIMSE1
 70
     0
  9
$DIMSE2
 70
     0
  9
$DIMTAD
 70
     0
  9
$DIMZIN
 70
     0
  9
$DIMBLK
  1

  9
$DIMASO
 70
     1
  9
$DIMSHO
 70
     1
  9
$DIMPOST
  1

  9
$DIMAPOST
  1

  9
$DIMALT
 70
     0
  9
$DIMALTD
 70
     2
  9
$DIMALTF
 40
25.4
  9
$DIMLFAC
 40
1.0
  9
$DIMTOFL
 70
     0
  9
$DIMTVP
 40
0.0
  9
$DIMTIX
 70
     0
  9
$DIMSOXD
 70
     0
  9
$DIMSAH
 70
     0
  9
$DIMBLK1
  1

  9
$DIMBLK2
  1

  9
$DIMSTYLE
  2
STANDARD
  9
$DIMCLRD
 70
     0
  9
$DIMCLRE
 70
     0
  9
$DIMCLRT
 70
     0
  9
$DIMTFAC
 40
1.0
  9
$DIMGAP
 40
0.09
  9
$LUNITS
 70
     2
  9
$LUPREC
 70
     2
  9
$SKETCHINC
 40
0.1
  9
$FILLETRAD
 40
0.0
  9
$AUNITS
 70
     0
  9
$AUPREC
 70
     0
  9
$MENU
  1
acad
  9
$ELEVATION
 40
0.0
  9
$PELEVATION
 40
0.0
  9
$THICKNESS
 40
0.0
  9
$LIMCHECK
 70
     0
  9
$CHAMFERA
 40
0.0
  9
$CHAMFERB
 40
0.0
  9
$SKPOLY
 70
     0
  9
$TDCREATE
 40
2459314.760446782
  9
$TDUPDATE
 40
2459314.761263056
  9
$TDINDWG
 40
2459314.386263866
  9
$TDUSRTIMER
 40
0.0008170833
  9
$USRTIMER
 70
     1
  9
$ANGBASE
 50
0.0
  9
$ANGDIR
 70
     0
  9
$PDMODE
 70
     1
  9
$PDSIZE
 40
-2.0
  9
$PLINEWID
 40
0.0
  9
$COORDS
 70
     1
  9
$SPLFRAME
 70
     0
  9
$SPLINETYPE
 70
     6
  9
$SPLINESEGS
 70
     8
  9
$ATTDIA
 70
     1
  9
$ATTREQ
 70
     1
  9
$HANDLING
 70
     1
  9
$HANDSEED
  5
7E9
  9
$SURFTAB1
 70
     6
  9
$SURFTAB2
 70
     6
  9
$SURFTYPE
 70
     6
  9
$SURFU
 70
     6
  9
$SURFV
 70
     6
  9
$UCSNAME
  2

  9
$UCSORG
 10
0.0
 20
0.0
 30
0.0
  9
$UCSXDIR
 10
1.0
 20
0.0
 30
0.0
  9
$UCSYDIR
 10
0.0
 20
1.0
 30
0.0
  9
$PUCSNAME
  2

  9
$PUCSORG
 10
0.0
 20
0.0
 30
0.0
  9
$PUCSXDIR
 10
1.0
 20
0.0
 30
0.0
  9
$PUCSYDIR
 10
0.0
 20
1.0
 30
0.0
  9
$USERI1
 70
     0
  9
$USERI2
 70
     0
  9
$USERI3
 70
     0
  9
$USERI4
 70
     0
  9
$USERI5
 70
     0
  9
$USERR1
 40
0.0
  9
$USERR2
 40
0.0
  9
$USERR3
 40
0.0
  9
$USERR4
 40
0.0
  9
$USERR5
 40
0.0
  9
$WORLDVIEW
 70
     1
  9
$SHADEDGE
 70
     3
  9
$SHADEDIF
 70
    70
  9
$TILEMODE
 70
     1
  9
$MAXACTVP
 70
    64
  9
$PLIMCHECK
 70
     0
  9
$PEXTMIN
 10
1.000000000000000E+20
 20
1.000000000000000E+20
 30
1.000000000000000E+20
  9
$PEXTMAX
 10
-1.000000000000000E+20
 20
-1.000000000000000E+20
 30
-1.000000000000000E+20
  9
$PLIMMIN
 10
0.0
 20
0.0
  9
$PLIMMAX
 10
12.0
 20
9.0
  9
$UNITMODE
 70
     0
  9
$VISRETAIN
 70
     0
  9
$PLINEGEN
 70
     1
  9
$PSLTSCALE
 70
     0
  0
ENDSEC
  0
SECTION
  2
TABLES
  0
TABLE
  2
VPORT
 70
     1
  0
VPORT
  2
*ACTIVE
 70
     0
 10
0.0
 20
0.0
 11
1.0
 21
1.0
 12
0.0
 22
-3.531814999999597
 13
0.0
 23
0.0
 14
1.0
 24
1.0
 15
0.0
 25
0.0
 16
0.0
 26
0.0
 36
1.0
 17
0.0
 27
0.0
 37
0.0
 40
4005.954450000001
 41
2.794721407624633
 42
50.0
 43
0.0
 44
0.0
 50
0.0
 51
0.0
 71
     0
 72
  2000
 73
     1
 74
     1
 75
     0
 76
     0
 77
     0
 78
     0
  0
ENDTAB
  0
TABLE
  2
LTYPE
 70
    11
  0
LTYPE
  2
CONTINUOUS
 70
     0
  3
Solid line
 72
    65
 73
     0
 40
0.0
  0
LTYPE
  2
STYLE_01
 70
     0
  3

 72
    65
 73
     2
 40
0.4166412353515625
 49
0.208282470703125
 49
-0.2083587646484375
  0
ENDTAB
  0
TABLE
  2
LAYER
 70
    11
  0
LAYER
  2
0
 70
     0
 62
     7
  6
CONTINUOUS
  0
LAYER
  2
HIBINO-BASE
 70
     0
 62
     7
  6
CONTINUOUS
  0
LAYER
  2
SPEC
 70
     0
 62
     7
  6
CONTINUOUS
  0
LAYER
  2
SIDE-65
 70
     0
 62
     7
  6
CONTINUOUS
  0
LAYER
  2
SIDE90
 70
     0
 62
     7
  6
CONTINUOUS
  0
LAYER
  2
SIDE-40
 70
     0
 62
     7
  6
CONTINUOUS
  0
LAYER
  2
SIDE40
 70
     0
 62
     7
  6
CONTINUOUS
  0
LAYER
  2
TOP35
 70
     0
 62
     7
  6
CONTINUOUS
  0
LAYER
  2
TOP45
 70
     0
 62
     7
  6
CONTINUOUS
  0
LAYER
  2
DIMNSIONS
 70
     0
 62
     7
  6
CONTINUOUS
  0
LAYER
  2
DATA
 70
     0
 62
     7
  6
CONTINUOUS
  0
ENDTAB
  0
TABLE
  2
STYLE
 70
     2
  0
STYLE
  2
STANDARD
 70
     0
 40
0.0
 41
1.0
 50
0.0
 71
     0
 42
0.0
  3
txt
  4
BIGFONT.SHX
  0
ENDTAB
  0
TABLE
  2
VIEW
 70
     0
  0
ENDTAB
  0
TABLE
  2
UCS
 70
     0
  0
ENDTAB
  0
TABLE
  2
APPID
 70
     3
  0
APPID
  2
ACAD
 70
     0
  0
APPID
  2
ACAD_MLEADERVER
 70
     0
  0
APPID
  2
ACADANNOPO
 70
     0
  0
ENDTAB
  0
TABLE
  2
DIMSTYLE
 70
     1
  0
DIMSTYLE
  2
STANDARD
 70
     0
  3

  4

  5

  6

  7

 40
1.0
 41
0.18
 42
0.0625
 43
0.38
 44
0.18
 45
0.0
 46
0.0
 47
0.0
 48
0.0
140
0.18
141
0.09
142
0.0
143
25.4
144
1.0
145
0.0
146
1.0
147
0.09
 71
     0
 72
     0
 73
     1
 74
     1
 75
     0
 76
     0
 77
     0
 78
     0
170
     0
171
     2
172
     0
173
     0
174
     0
175
     0
176
     0
177
     0
178
     0
  0
ENDTAB
  0
ENDSEC
  0
SECTION
  2
BLOCKS
  0
BLOCK
  8
DATA
  2
$MODEL_SPACE
 70
     0
 10
0.0
 20
0.0
 30
0.0
  3
$MODEL_SPACE
  1

  0
ENDBLK
  5
757
  8
DATA
  0
BLOCK
 67
     1
  8
DATA
  2
$PAPER_SPACE
 70
     0
 10
0.0
 20
0.0
 30
0.0
  3
$PAPER_SPACE
  1

  0
ENDBLK
  5
755
 67
     1
  8
DATA
  0
ENDSEC
  0
SECTION
  2
ENTITIES
  0
LINE
  5
32
  8
HIBINO-BASE
  6
CONTINUOUS
 62
     7
 10
-1350.0
 20
1999.44541
 30
0.0
 11
1350.0
 21
1999.44541
 31
0.0
  0
LINE
  5
33
  8
HIBINO-BASE
  6
CONTINUOUS
 62
     7
 10
1350.0
 20
-1900.55459
 30
0.0
 11
-1350.0
 21
-1900.55459
 31
0.0
  0
LINE
  5
34
  8
HIBINO-BASE
  6
CONTINUOUS
 62
     7
 10
-1350.0
 20
-1900.55459
 30
0.0
 11
-1350.0
 21
1999.44541
 31
0.0
  0
LINE
  5
35
  8
HIBINO-BASE
  6
CONTINUOUS
 62
     7
 10
1350.0
 20
1999.44541
 30
0.0
 11
1350.0
 21
-1900.55459
 31
0.0
  0
LINE
  5
36
  8
HIBINO-BASE
  6
CONTINUOUS
 62
     7
 10
0.0000000000002132
 20
-1563.05459
 30
0.0
 11
1350.0
 21
-1563.05459
 31
0.0
  0
LINE
  5
37
  8
HIBINO-BASE
  6
CONTINUOUS
 62
     7
 10
0.0000000000002132
 20
-1900.55459
 30
0.0
 11
0.0000000000002132
 21
-1563.05459
 31
0.0
  0
TEXT
  5
38
  8
HIBINO-BASE
 62
     7
 10
13.5000000000003
 20
-1600.68499
 30
0.0
 40
24.4326171875
  1
NOTE
 41
0.7
 11
13.5000000000003
 21
-1576.2523728125
 31
0.0
 73
     3
  0
LINE
  5
39
  8
HIBINO-BASE
  6
CONTINUOUS
 62
     7
 10
525.0000000000002
 20
-1900.55459
 30
0.0
 11
525.0000000000002
 21
-1563.05459
 31
0.0
  0
TEXT
  5
3A
  8
HIBINO-BASE
 62
     7
 10
538.4999999999998
 20
-1600.68499
 30
0.0
 40
24.4326171875
  1
TITLE
 41
0.7
 11
538.4999999999998
 21
-1576.2523728125
 31
0.0
 73
     3
  0
LINE
  5
3B
  8
HIBINO-BASE
  6
CONTINUOUS
 62
     7
 10
0.0000000000002132
 20
-1750.55459
 30
0.0
 11
1350.0
 21
-1750.55459
 31
0.0
  0
TEXT
  5
3C
  8
HIBINO-BASE
 62
     7
 10
725.9999999999998
 20
-1787.34019
 30
0.0
 40
24.4326171875
  1
DRAWN
 41
0.7
 11
725.9999999999998
 21
-1762.9075728125
 31
0.0
 73
     3
  0
TEXT
  5
3D
  8
HIBINO-BASE
 62
     7
 10
350.9999999999999
 20
-1787.34019
 30
0.0
 40
24.4326171875
  1
DATE
 41
0.7
 11
350.9999999999999
 21
-1762.9075728125
 31
0.0
 73
     3
  0
TEXT
  5
3E
  8
HIBINO-BASE
 62
     7
 10
200.9999999999999
 20
-1787.34019
 30
0.0
 40
24.4326171875
  1
SCALE
 41
0.7
 11
200.9999999999999
 21
-1762.9075728125
 31
0.0
 73
     3
  0
TEXT
  5
3F
  8
HIBINO-BASE
 62
     7
 10
538.4999999999998
 20
-1787.34019
 30
0.0
 40
24.4326171875
  1
DESIGN
 41
0.7
 11
538.4999999999998
 21
-1762.9075728125
 31
0.0
 73
     3
  0
TEXT
  5
40
  8
HIBINO-BASE
 62
     7
 10
1101.0
 20
-1787.34019
 30
0.0
 40
24.4326171875
  1
DRAWING NO.
 41
0.7
 11
1101.0
 21
-1762.9075728125
 31
0.0
 73
     3
  0
TEXT
  5
41
  8
HIBINO-BASE
 62
     7
 10
913.4999999999998
 20
-1787.34019
 30
0.0
 40
24.4326171875
  1
CHECK
 41
0.7
 11
913.4999999999998
 21
-1762.9075728125
 31
0.0
 73
     3
  0
LINE
  5
42
  8
HIBINO-BASE
  6
CONTINUOUS
 62
     7
 10
215.6250000000002
 20
-1881.80459
 30
0.0
 11
271.8750000000002
 21
-1825.55459
 31
0.0
  0
TEXT
  5
43
  8
HIBINO-BASE
 62
     7
 10
206.2500000000002
 20
-1842.18874
 30
0.0
 40
24.4326171875
  1
1
 41
0.7
 11
206.2500000000002
 21
-1817.7561228125
 31
0.0
 73
     3
  0
LINE
  5
44
  8
HIBINO-BASE
  6
CONTINUOUS
 62
     7
 10
187.5000000000002
 20
-1900.55459
 30
0.0
 11
187.5000000000002
 21
-1750.55459
 31
0.0
  0
LINE
  5
45
  8
HIBINO-BASE
  6
CONTINUOUS
 62
     7
 10
337.4999999999998
 20
-1900.55459
 30
0.0
 11
337.4999999999998
 21
-1750.55459
 31
0.0
  0
LINE
  5
46
  8
HIBINO-BASE
  6
CONTINUOUS
 62
     7
 10
712.4999999999998
 20
-1750.55459
 30
0.0
 11
712.4999999999998
 21
-1900.55459
 31
0.0
  0
LINE
  5
47
  8
HIBINO-BASE
  6
CONTINUOUS
 62
     7
 10
1087.5
 20
-1750.55459
 30
0.0
 11
1087.5
 21
-1900.55459
 31
0.0
  0
LINE
  5
48
  8
HIBINO-BASE
  6
CONTINUOUS
 62
     7
 10
899.9999999999998
 20
-1900.55459
 30
0.0
 11
899.9999999999998
 21
-1750.55459
 31
0.0
  0
TEXT
  5
49
  8
HIBINO-BASE
 62
     7
 10
350.3481000000002
 20
-1857.59989
 30
0.0
 40
24.4326171875
  1
'21.04.
 41
0.7
 11
350.3481000000002
 21
-1833.1672728125
 31
0.0
 73
     3
  0
TEXT
  5
4A
  8
HIBINO-BASE
 62
     7
 10
262.5000000000002
 20
-1870.31374
 30
0.0
 40
24.4326171875
  1
15
 41
0.7
 11
262.5000000000002
 21
-1845.8811228125
 31
0.0
 73
     3
  0
TEXT
  5
4B
  8
HIBINO-BASE
 62
     7
 10
735.0871501655193
 20
-1857.59989
 30
0.0
 40
24.4326171875
  1
N.Sasaki
 41
0.7
 11
735.0871501655193
 21
-1833.1672728125
 31
0.0
 73
     3
  0
TEXT
  5
4C
  8
HIBINO-BASE
 62
     7
 10
58.25000000000053
 20
-1870.914589999999
 30
0.0
 40
48.865234375
  1
A4
 41
0.7
 11
58.25000000000053
 21
-1822.049355624999
 31
0.0
 73
     3
  0
TEXT
  5
4D
  8
HIBINO-BASE
 62
     7
 10
14.37499999999993
 20
-1789.846415
 30
0.0
 40
24.4326171875
  1
PAPER SIZE
 41
0.7
 11
14.37499999999993
 21
-1765.4137978125
 31
0.0
 73
     3
  0
TEXT
  5
4E
  8
HIBINO-BASE
 62
     7
 10
-1242.24
 20
-1996.684757
 30
0.0
 40
54.00066269531249
  1
Hibino Corporation
 41
0.7
 11
-1242.24
 21
-1942.684094304687
 31
0.0
 73
     3
  0
TEXT
  5
4F
  8
HIBINO-BASE
 62
     7
 10
751.0258500000002
 20
-1996.684757
 30
0.0
 40
54.00066269531249
  1
ヒビノ株式会社
 41
0.7
 11
751.0258500000002
 21
-1942.684094304687
 31
0.0
 73
     3
  0
LINE
  5
50
  8
HIBINO-BASE
  6
CONTINUOUS
 62
     7
 10
525.0000000000002
 20
487.5
 30
0.0
 11
1350.0
 21
487.5
 31
0.0
  0
LINE
  5
51
  8
HIBINO-BASE
  6
CONTINUOUS
 62
     7
 10
525.0000000000002
 20
487.5
 30
0.0
 11
525.0000000000002
 21
250.0
 31
0.0
  0
LINE
  5
52
  8
SPEC
  6
CONTINUOUS
 62
     7
 10
-1237.499999999999
 20
1953.125
 30
0.0
 11
-299.9999999999998
 21
1953.125
 31
0.0
  0
LINE
  5
53
  8
SPEC
  6
CONTINUOUS
 62
     7
 10
-1237.5
 20
1896.875
 30
0.0
 11
-299.9999999999998
 21
1896.875
 31
0.0
  0
LINE
  5
54
  8
SPEC
  6
CONTINUOUS
 62
     7
 10
-1237.499999999999
 20
1953.125
 30
0.0
 11
-1237.499999999999
 21
1896.875
 31
0.0
  0
LINE
  5
55
  8
SPEC
  6
CONTINUOUS
 62
     7
 10
-749.9999999999995
 20
1953.125
 30
0.0
 11
-749.9999999999995
 21
1896.875
 31
0.0
  0
LINE
  5
56
  8
SPEC
  6
CONTINUOUS
 62
     7
 10
-299.9999999999998
 20
1953.125
 30
0.0
 11
-299.9999999999998
 21
1896.875
 31
0.0
  0
TEXT
  5
57
  8
SPEC
 62
     7
 10
-1224.0
 20
1908.693766666667
 30
0.0
 40
28.50472005208334
  1
質量
 41
0.7
 11
-1224.0
 21
1937.19848671875
 31
0.0
 73
     3
  0
TEXT
  5
58
  8
SPEC
 62
     7
 10
-736.4999999999995
 20
1908.693766666667
 30
0.0
 40
28.50472005208334
  1
6kg
 41
0.7
 11
-736.4999999999995
 21
1937.19848671875
 31
0.0
 73
     3
  0
LINE
  5
59
  8
SPEC
  6
CONTINUOUS
 62
     7
 10
-1237.499999999999
 20
100.0000000000002
 30
0.0
 11
-1237.499999999999
 21
-124.9999999999998
 31
0.0
  0
TEXT
  5
5A
  8
SPEC
 62
     7
 10
-1218.749999999999
 20
120.8990499999998
 30
0.0
 40
36.64892578125
  1
仕様
 41
0.7
 11
-1218.749999999999
 21
157.5479757812498
 31
0.0
 73
     3
  0
LINE
  5
5B
  8
SPEC
  6
CONTINUOUS
 62
     7
 10
-887.5
 20
100.0000000000002
 30
0.0
 11
-887.5
 21
-124.9999999999998
 31
0.0
  0
LINE
  5
5C
  8
SPEC
  6
CONTINUOUS
 62
     7
 10
1025.0
 20
100.0000000000002
 30
0.0
 11
1025.0
 21
-124.9999999999998
 31
0.0
  0
LINE
  5
5D
  8
SPEC
  6
CONTINUOUS
 62
     7
 10
-1237.499999999999
 20
100.0000000000002
 30
0.0
 11
1025.0
 21
100.0000000000002
 31
0.0
  0
TEXT
  5
5E
  8
SPEC
 62
     7
 10
-1223.999999999999
 20
55.56876666666672
 30
0.0
 40
28.50472005208334
  1
質量
 41
0.7
 11
-1223.999999999999
 21
84.07348671875006
 31
0.0
 73
     3
  0
TEXT
  5
5F
  8
SPEC
 62
     7
 10
-874.0
 20
55.56876666666672
 30
0.0
 40
28.50472005208334
  1
570g
 41
0.7
 11
-874.0
 21
84.07348671875006
 31
0.0
 73
     3
  0
LINE
  5
60
  8
SPEC
  6
CONTINUOUS
 62
     7
 10
-1237.499999999999
 20
43.75000000000023
 30
0.0
 11
1025.0
 21
43.75000000000023
 31
0.0
  0
TEXT
  5
61
  8
SPEC
 62
     7
 10
-1223.999999999999
 20
-0.6812333333332923
 30
0.0
 40
28.50472005208333
  1
セット内容
 41
0.7
 11
-1223.999999999999
 21
27.82348671875004
 31
0.0
 73
     3
  0
LINE
  5
62
  8
SPEC
  6
CONTINUOUS
 62
     7
 10
-1237.499999999999
 20
-124.9999999999998
 30
0.0
 11
1025.0
 21
-124.9999999999998
 31
0.0
  0
TEXT
  5
63
  8
SPEC
 62
     7
 10
-874.0
 20
-0.6812333333333065
 30
0.0
 40
28.50472005208333
  1
壁取付プレート×2、スピーカーアダプター(組立済み)×2、角度固定用六角ねじ(ねじ、ワッシャー)×2、
 41
0.7
 11
-874.0
 21
27.82348671875003
 31
0.0
 73
     3
  0
TEXT
  5
64
  8
SPEC
 62
     7
 10
-874.0
 20
-56.93123333333328
 30
0.0
 40
28.50472005208333
  1
遮音ガスケットシート×2、スピーカー側取付用ねじ(ねじ、菊座ワッシャー、ワッシャー)×8 、
 41
0.7
 11
-874.0
 21
-28.42651328124995
 31
0.0
 73
     3
  0
TEXT
  5
65
  8
SPEC
 62
     7
 10
-874.0
 20
-113.1812333333333
 30
0.0
 40
28.50472005208333
  1
遮音ガ英文取扱説明書(Installation Guide)
 41
0.7
 11
-874.0
 21
-84.67651328124995
 31
0.0
 73
     3
  0
LINE
  5
66
  8
SIDE-65
  6
STYLE_01
 62
     7
 10
1134.603004350537
 20
1155.42195564041
 30
0.0
 11
1135.279193569322
 21
1153.971863181152
 31
0.0
  0
LINE
  5
67
  8
SIDE-65
  6
STYLE_01
 62
     7
 10
1135.279193569322
 20
1153.971863181152
 30
0.0
 11
1029.57
 21
1104.678856682388
 31
0.0
  0
LINE
  5
68
  8
SIDE-65
  6
STYLE_01
 62
     7
 10
1033.265251056893
 20
1100.391666666667
 30
0.0
 11
1030.963167281404
 21
1105.328501254798
 31
0.0
  0
LINE
  5
69
  8
SIDE-65
  6
STYLE_01
 62
     7
 10
1101.83643622767
 20
1138.37724932292
 30
0.0
 11
1110.880467028921
 21
1118.982262680336
 31
0.0
  0
LINE
  5
6A
  8
SIDE-65
  6
STYLE_01
 62
     7
 10
1100.386343768411
 20
1137.701060104135
 30
0.0
 11
1109.430374569662
 21
1118.306073461551
 31
0.0
  0
LINE
  5
6B
  8
SIDE-65
  6
STYLE_01
 62
     7
 10
1110.880467028921
 20
1118.982262680336
 30
0.0
 11
1109.430374569662
 21
1118.306073461551
 31
0.0
  0
LINE
  5
6C
  8
SIDE-65
  6
STYLE_01
 62
     7
 10
1032.413259740662
 20
1106.004690473583
 30
0.0
 11
1035.030655727233
 21
1100.391666666667
 31
0.0
  0
LINE
  5
6D
  8
SIDE-65
  6
STYLE_01
 62
     7
 10
1067.12290214833
 20
1095.102134629571
 30
0.0
 11
1056.747623822596
 21
1117.351990801321
 31
0.0
  0
ARC
  5
6E
  8
SIDE-65
  6
STYLE_01
 62
     7
 10
1055.476847084909
 20
1089.671489966203
 30
0.0
 40
12.85000000000012
 50
321.8609590665684
 51
24.99999999999972
  0
LINE
  5
6F
  8
SIDE-65
  6
STYLE_01
 62
     7
 10
1036.29954033404
 20
1100.391666666667
 30
0.0
 11
1033.455513695754
 21
1106.490701474585
 31
0.0
  0
LINE
  5
70
  8
SIDE-65
  6
STYLE_01
 62
     7
 10
1103.076436278275
 20
1369.528354568222
 30
0.0
 11
1111.740110643959
 21
1350.949044933971
 31
0.0
  0
LINE
  5
71
  8
SIDE-65
  6
STYLE_01
 62
     7
 10
1112.37403803657
 20
1349.589583253415
 30
0.0
 11
1120.192475878773
 21
1332.822889193238
 31
0.0
  0
LINE
  5
72
  8
SIDE-65
  6
STYLE_01
 62
     7
 10
870.5765108038405
 20
1283.289754970173
 30
0.0
 11
1091.262456947265
 21
1386.197301704033
 31
0.0
  0
LINE
  5
73
  8
SIDE-65
  6
STYLE_01
 62
     7
 10
888.2044339432474
 20
1236.820338505208
 30
0.0
 11
885.0493873531024
 21
1243.586357752305
 31
0.0
  0
LINE
  5
74
  8
SIDE-65
  6
STYLE_01
 62
     7
 10
884.4154599604914
 20
1244.945819432859
 30
0.0
 11
875.7517855948071
 21
1263.525129067111
 31
0.0
  0
LINE
  5
75
  8
SIDE-65
  6
STYLE_01
 62
     7
 10
1112.196291363628
 20
1143.726716732107
 30
0.0
 11
1042.863745655325
 21
1111.396419708943
 31
0.0
  0
LINE
  5
76
  8
SIDE-65
  6
STYLE_01
 62
     7
 10
1121.189098896369
 20
1268.188324919849
 30
0.0
 11
1165.509076005116
 21
1173.143827293316
 31
0.0
  0
LINE
  5
77
  8
SIDE-65
  6
STYLE_01
 62
     7
 10
1121.189098896369
 20
1268.188324919849
 30
0.0
 11
1120.192475878773
 21
1332.822889193238
 31
0.0
  0
LINE
  5
78
  8
SIDE-65
  6
STYLE_01
 62
     7
 10
1164.058007429228
 20
1169.157049146983
 30
0.0
 11
1029.57
 21
1106.444261352728
 31
0.0
  0
LINE
  5
79
  8
SIDE-65
  6
STYLE_01
 62
     7
 10
1112.37403803657
 20
1349.589583253415
 30
0.0
 11
885.0493873531024
 21
1243.586357752305
 31
0.0
  0
LINE
  5
7A
  8
SIDE-65
  6
STYLE_01
 62
     7
 10
1111.740110643959
 20
1350.949044933971
 30
0.0
 11
884.4154599604914
 21
1244.945819432859
 31
0.0
  0
LINE
  5
7B
  8
SIDE-65
  6
STYLE_01
 62
     7
 10
1103.076436278275
 20
1369.528354568222
 30
0.0
 11
875.7517855948071
 21
1263.525129067111
 31
0.0
  0
LINE
  5
7C
  8
SIDE-65
  6
STYLE_01
 62
     7
 10
1095.742210521716
 20
1376.590439161445
 30
0.0
 11
875.056264378292
 21
1273.682892427584
 31
0.0
  0
LINE
  5
7D
  8
SIDE-65
  6
STYLE_01
 62
     7
 10
1098.700538353901
 20
1370.246284652188
 30
0.0
 11
1091.262456947265
 21
1386.197301704033
 31
0.0
  0
LINE
  5
7E
  8
SIDE-65
  6
STYLE_01
 62
     7
 10
878.0145922104768
 20
1267.338737918328
 30
0.0
 11
870.5765108038405
 21
1283.289754970173
 31
0.0
  0
LINE
  5
7F
  8
SIDE-65
  6
STYLE_01
 62
     7
 10
1098.700538353901
 20
1370.246284652188
 30
0.0
 11
878.0145922104768
 21
1267.338737918328
 31
0.0
  0
LINE
  5
80
  8
SIDE-65
  6
STYLE_01
 62
     7
 10
1097.71789148742
 20
1367.02962409568
 30
0.0
 11
1096.661345833068
 21
1369.295393563272
 31
0.0
  0
LINE
  5
81
  8
SIDE-65
  6
STYLE_01
 62
     7
 10
881.1103303856611
 20
1266.023859539653
 30
0.0
 11
880.0537847313094
 21
1268.289629007244
 31
0.0
  0
LINE
  5
82
  8
SIDE-65
  6
STYLE_01
 62
     7
 10
1108.194181427178
 20
1349.29555098491
 30
0.0
 11
1108.828108819789
 21
1347.936089304355
 31
0.0
  0
LINE
  5
83
  8
SIDE-65
  6
STYLE_01
 62
     7
 10
887.9613891772722
 20
1246.59931338192
 30
0.0
 11
888.5953165698832
 21
1245.239851701365
 31
0.0
  0
LINE
  5
84
  8
SIDE-65
  6
STYLE_01
 62
     7
 10
1112.196291363628
 20
1143.726716732107
 30
0.0
 11
1111.718732727862
 21
1144.750844531458
 31
0.0
  0
LINE
  5
85
  8
SIDE-65
  6
STYLE_01
 62
     7
 10
1042.863745655325
 20
1111.396419708943
 30
0.0
 11
1042.386187019558
 21
1112.420547508294
 31
0.0
  0
LINE
  5
86
  8
SIDE-65
  6
STYLE_01
 62
     7
 10
1076.270672757645
 20
1261.586431765605
 30
0.0
 11
992.5389037933019
 21
1222.541666666667
 31
0.0
  0
LINE
  5
87
  8
SIDE-65
  6
STYLE_01
 62
     7
 10
1127.352542054244
 20
1152.041009546485
 30
0.0
 11
1076.270672757645
 21
1261.586431765605
 31
0.0
  0
LINE
  5
88
  8
SIDE-65
  6
STYLE_01
 62
     7
 10
1113.534180513769
 20
1145.597401737007
 30
0.0
 11
1070.997652469568
 21
1236.817280502246
 31
0.0
  0
LINE
  5
89
  8
SIDE-65
  6
STYLE_01
 62
     7
 10
1115.981211538768
 20
1146.738471043707
 30
0.0
 11
1073.444683494567
 21
1237.958349808946
 31
0.0
  0
ARC
  5
8A
  8
SIDE-65
  6
STYLE_01
 62
     7
 10
1072.221167982068
 20
1237.387815155596
 30
0.0
 40
1.349999999999838
 50
25.00000000000691
 51
204.9999999999946
  0
LINE
  5
8B
  8
SIDE-65
  6
STYLE_01
 62
     7
 10
1100.845871495256
 20
1139.680746072637
 30
0.0
 11
1058.309343451054
 21
1230.900624837876
 31
0.0
  0
LINE
  5
8C
  8
SIDE-65
  6
STYLE_01
 62
     7
 10
1103.292902520255
 20
1140.821815379338
 30
0.0
 11
1060.756374476054
 21
1232.041694144576
 31
0.0
  0
ARC
  5
8D
  8
SIDE-65
  6
STYLE_01
 62
     7
 10
1059.532858963554
 20
1231.471159491226
 30
0.0
 40
1.349999999999852
 50
24.99999999998534
 51
204.9999999999987
  0
LINE
  5
8E
  8
SIDE-65
  6
STYLE_01
 62
     7
 10
1088.157562476743
 20
1133.764090408268
 30
0.0
 11
1045.621034432541
 21
1224.983969173506
 31
0.0
  0
LINE
  5
8F
  8
SIDE-65
  6
STYLE_01
 62
     7
 10
1090.604593501742
 20
1134.905159714968
 30
0.0
 11
1048.068065457541
 21
1226.125038480207
 31
0.0
  0
ARC
  5
90
  8
SIDE-65
  6
STYLE_01
 62
     7
 10
1046.844549945041
 20
1225.554503826856
 30
0.0
 40
1.349999999999838
 50
25.00000000000691
 51
204.9999999999946
  0
LINE
  5
91
  8
SIDE-65
  6
STYLE_01
 62
     7
 10
1075.46925345823
 20
1127.847434743898
 30
0.0
 11
1032.932725414028
 21
1219.067313509137
 31
0.0
  0
LINE
  5
92
  8
SIDE-65
  6
STYLE_01
 62
     7
 10
1077.916284483229
 20
1128.988504050598
 30
0.0
 11
1035.379756439027
 21
1220.208382815837
 31
0.0
  0
ARC
  5
93
  8
SIDE-65
  6
STYLE_01
 62
     7
 10
1034.156240926528
 20
1219.637848162487
 30
0.0
 40
1.350000000000044
 50
25.00000000000284
 51
204.9999999999988
  0
LINE
  5
94
  8
SIDE-65
  6
STYLE_01
 62
     7
 10
1062.780944439717
 20
1121.930779079528
 30
0.0
 11
1027.97
 21
1196.583090339974
 31
0.0
  0
LINE
  5
95
  8
SIDE-65
  6
STYLE_01
 62
     7
 10
1065.227975464716
 20
1123.071848386228
 30
0.0
 11
1027.97
 21
1202.971834614486
 31
0.0
  0
LINE
  5
96
  8
SIDE-65
  6
STYLE_01
 62
     7
 10
1050.092635421204
 20
1116.014123415158
 30
0.0
 11
1029.57
 21
1160.025057103024
 31
0.0
  0
LINE
  5
97
  8
SIDE-65
  6
STYLE_01
 62
     7
 10
1052.539666446203
 20
1117.155192721858
 30
0.0
 11
1029.57
 21
1166.413801377536
 31
0.0
  0
LINE
  5
98
  8
SIDE-65
  6
STYLE_01
 62
     7
 10
1037.40432640269
 20
1110.097467750789
 30
0.0
 11
1029.57
 21
1126.898234938889
 31
0.0
  0
LINE
  5
99
  8
SIDE-65
  6
STYLE_01
 62
     7
 10
1039.851357427689
 20
1111.238537057488
 30
0.0
 11
1029.57
 21
1133.286979213401
 31
0.0
  0
ARC
  5
9A
  8
SIDE-65
  6
STYLE_01
 62
     7
 10
1162.790152644006
 20
1171.875972508093
 30
0.0
 40
2.999999999999882
 50
295.0000000000031
 51
25.00000000000711
  0
LINE
  5
9B
  8
SIDE90
  6
STYLE_01
 62
     7
 10
1108.97
 20
1060.641666666667
 30
0.0
 11
1108.97
 21
1059.041666666667
 31
0.0
  0
LINE
  5
9C
  8
SIDE90
  6
STYLE_01
 62
     7
 10
1029.57
 20
1060.641666666667
 30
0.0
 11
1108.97
 21
1060.641666666667
 31
0.0
  0
LINE
  5
9D
  8
SIDE90
  6
STYLE_01
 62
     7
 10
1072.07
 20
1082.041666666667
 30
0.0
 11
1072.07
 21
1060.641666666666
 31
0.0
  0
LINE
  5
9E
  8
SIDE90
  6
STYLE_01
 62
     7
 10
1070.47
 20
1082.041666666667
 30
0.0
 11
1072.07
 21
1082.041666666667
 31
0.0
  0
LINE
  5
9F
  8
SIDE90
  6
STYLE_01
 62
     7
 10
1070.47
 20
1060.641666666666
 30
0.0
 11
1070.47
 21
1082.041666666667
 31
0.0
  0
LINE
  5
A0
  8
SIDE90
  6
STYLE_01
 62
     7
 10
1043.62
 20
1071.941666666667
 30
0.0
 11
1043.62
 21
1060.641666666666
 31
0.0
  0
ARC
  5
A1
  8
SIDE90
  6
STYLE_01
 62
     7
 10
1056.47
 20
1085.191666666667
 30
0.0
 40
12.84999999999991
 50
0.0
 51
52.43002491606592
  0
LINE
  5
A2
  8
SIDE90
  6
STYLE_01
 62
     7
 10
1069.32
 20
1085.191666666667
 30
0.0
 11
1069.32
 21
1060.641666666666
 31
0.0
  0
LINE
  5
A3
  8
SIDE90
  6
STYLE_01
 62
     7
 10
895.0575000000001
 20
851.6716666666666
 30
0.0
 11
895.0575000000001
 21
872.1716666666666
 31
0.0
  0
LINE
  5
A4
  8
SIDE90
  6
STYLE_01
 62
     7
 10
895.0575000000001
 20
873.6716666666666
 30
0.0
 11
895.0575000000001
 21
892.1716666666666
 31
0.0
  0
LINE
  5
A5
  8
SIDE90
  6
STYLE_01
 62
     7
 10
1142.22
 20
831.5716666666666
 30
0.0
 11
898.72
 21
831.5716666666666
 31
0.0
  0
LINE
  5
A6
  8
SIDE90
  6
STYLE_01
 62
     7
 10
1145.8825
 20
892.1716666666666
 30
0.0
 11
1145.8825
 21
873.6716666666666
 31
0.0
  0
LINE
  5
A7
  8
SIDE90
  6
STYLE_01
 62
     7
 10
1145.8825
 20
872.1716666666666
 30
0.0
 11
1145.8825
 21
851.6716666666666
 31
0.0
  0
LINE
  5
A8
  8
SIDE90
  6
STYLE_01
 62
     7
 10
1029.57
 20
1060.171666666667
 30
0.0
 11
1058.72
 21
1060.171666666667
 31
0.0
  0
LINE
  5
A9
  8
SIDE90
  6
STYLE_01
 62
     7
 10
921.47
 20
951.1716666666666
 30
0.0
 11
921.47
 21
1023.747916666667
 31
0.0
  0
LINE
  5
AA
  8
SIDE90
  6
STYLE_01
 62
     7
 10
1120.26375
 20
1056.041666666667
 30
0.0
 11
1120.26375
 21
951.1716666666666
 31
0.0
  0
LINE
  5
AB
  8
SIDE90
  6
STYLE_01
 62
     7
 10
921.47
 20
951.1716666666666
 30
0.0
 11
895.0575000000001
 21
892.1716666666666
 31
0.0
  0
LINE
  5
AC
  8
SIDE90
  6
STYLE_01
 62
     7
 10
1145.8825
 20
892.1716666666666
 30
0.0
 11
1120.26375
 21
951.1716666666666
 31
0.0
  0
LINE
  5
AD
  8
SIDE90
  6
STYLE_01
 62
     7
 10
1029.57
 20
1059.041666666667
 30
0.0
 11
1117.26375
 21
1059.041666666667
 31
0.0
  0
LINE
  5
AE
  8
SIDE90
  6
STYLE_01
 62
     7
 10
895.0575000000001
 20
873.6716666666666
 30
0.0
 11
1145.8825
 21
873.6716666666666
 31
0.0
  0
LINE
  5
AF
  8
SIDE90
  6
STYLE_01
 62
     7
 10
895.0575000000001
 20
872.1716666666666
 30
0.0
 11
1145.8825
 21
872.1716666666666
 31
0.0
  0
LINE
  5
B0
  8
SIDE90
  6
STYLE_01
 62
     7
 10
895.0575000000001
 20
851.6716666666666
 30
0.0
 11
1145.8825
 21
851.6716666666666
 31
0.0
  0
LINE
  5
B1
  8
SIDE90
  6
STYLE_01
 62
     7
 10
898.72
 20
842.1716666666666
 30
0.0
 11
1142.22
 21
842.1716666666666
 31
0.0
  0
LINE
  5
B2
  8
SIDE90
  6
STYLE_01
 62
     7
 10
898.72
 20
849.1716666666666
 30
0.0
 11
898.72
 21
831.5716666666666
 31
0.0
  0
LINE
  5
B3
  8
SIDE90
  6
STYLE_01
 62
     7
 10
1142.22
 20
849.1716666666666
 30
0.0
 11
1142.22
 21
831.5716666666666
 31
0.0
  0
LINE
  5
B4
  8
SIDE90
  6
STYLE_01
 62
     7
 10
898.72
 20
849.1716666666666
 30
0.0
 11
1142.22
 21
849.1716666666666
 31
0.0
  0
LINE
  5
B5
  8
SIDE90
  6
STYLE_01
 62
     7
 10
900.97
 20
851.6716666666666
 30
0.0
 11
900.97
 21
849.1716666666665
 31
0.0
  0
LINE
  5
B6
  8
SIDE90
  6
STYLE_01
 62
     7
 10
1139.97
 20
851.6716666666666
 30
0.0
 11
1139.97
 21
849.1716666666665
 31
0.0
  0
LINE
  5
B7
  8
SIDE90
  6
STYLE_01
 62
     7
 10
898.97
 20
872.1716666666666
 30
0.0
 11
898.97
 21
873.6716666666666
 31
0.0
  0
LINE
  5
B8
  8
SIDE90
  6
STYLE_01
 62
     7
 10
1141.97
 20
872.1716666666666
 30
0.0
 11
1141.97
 21
873.6716666666666
 31
0.0
  0
LINE
  5
B9
  8
SIDE90
  6
STYLE_01
 62
     7
 10
1058.72
 20
1060.171666666667
 30
0.0
 11
1058.72
 21
1059.041666666667
 31
0.0
  0
LINE
  5
BA
  8
SIDE90
  6
STYLE_01
 62
     7
 10
964.97
 20
938.1716666666666
 30
0.0
 11
1075.97
 21
938.1716666666666
 31
0.0
  0
LINE
  5
BB
  8
SIDE90
  6
STYLE_01
 62
     7
 10
964.97
 20
1023.747916666666
 30
0.0
 11
964.97
 21
938.1716666666666
 31
0.0
  0
LINE
  5
BC
  8
SIDE90
  6
STYLE_01
 62
     7
 10
1075.97
 20
1059.041666666667
 30
0.0
 11
1075.97
 21
938.1716666666666
 31
0.0
  0
LINE
  5
BD
  8
SIDE90
  6
STYLE_01
 62
     7
 10
980.2168750000003
 20
1023.747916666666
 30
0.0
 11
980.2168750000003
 21
958.3916666666667
 31
0.0
  0
LINE
  5
BE
  8
SIDE90
  6
STYLE_01
 62
     7
 10
977.516875
 20
1023.747916666666
 30
0.0
 11
977.516875
 21
958.3916666666667
 31
0.0
  0
ARC
  5
BF
  8
SIDE90
  6
STYLE_01
 62
     7
 10
978.8668749999999
 20
958.3916666666667
 30
0.0
 40
1.349999999999909
 50
180.0
 51
0.0
  0
LINE
  5
C0
  8
SIDE90
  6
STYLE_01
 62
     7
 10
994.2168750000003
 20
1023.747916666666
 30
0.0
 11
994.2168750000003
 21
958.3916666666667
 31
0.0
  0
LINE
  5
C1
  8
SIDE90
  6
STYLE_01
 62
     7
 10
991.516875
 20
1023.747916666666
 30
0.0
 11
991.516875
 21
958.3916666666667
 31
0.0
  0
ARC
  5
C2
  8
SIDE90
  6
STYLE_01
 62
     7
 10
992.8668749999999
 20
958.3916666666667
 30
0.0
 40
1.349999999999909
 50
180.0
 51
0.0
  0
LINE
  5
C3
  8
SIDE90
  6
STYLE_01
 62
     7
 10
1008.216875
 20
1023.747916666666
 30
0.0
 11
1008.216875
 21
958.3916666666667
 31
0.0
  0
LINE
  5
C4
  8
SIDE90
  6
STYLE_01
 62
     7
 10
1005.516875
 20
1023.747916666666
 30
0.0
 11
1005.516875
 21
958.3916666666667
 31
0.0
  0
ARC
  5
C5
  8
SIDE90
  6
STYLE_01
 62
     7
 10
1006.866875
 20
958.3916666666667
 30
0.0
 40
1.349999999999909
 50
180.0
 51
0.0
  0
LINE
  5
C6
  8
SIDE90
  6
STYLE_01
 62
     7
 10
1022.216875
 20
1023.747916666666
 30
0.0
 11
1022.216875
 21
958.3916666666667
 31
0.0
  0
LINE
  5
C7
  8
SIDE90
  6
STYLE_01
 62
     7
 10
1019.516875
 20
1023.747916666666
 30
0.0
 11
1019.516875
 21
958.3916666666667
 31
0.0
  0
ARC
  5
C8
  8
SIDE90
  6
STYLE_01
 62
     7
 10
1020.866875
 20
958.3916666666667
 30
0.0
 40
1.349999999999909
 50
180.0
 51
0.0
  0
LINE
  5
C9
  8
SIDE90
  6
STYLE_01
 62
     7
 10
1036.216875
 20
1059.041666666667
 30
0.0
 11
1036.216875
 21
958.3916666666667
 31
0.0
  0
LINE
  5
CA
  8
SIDE90
  6
STYLE_01
 62
     7
 10
1033.516875
 20
1059.041666666667
 30
0.0
 11
1033.516875
 21
958.3916666666667
 31
0.0
  0
ARC
  5
CB
  8
SIDE90
  6
STYLE_01
 62
     7
 10
1034.866875
 20
958.3916666666667
 30
0.0
 40
1.349999999999909
 50
180.0
 51
0.0
  0
LINE
  5
CC
  8
SIDE90
  6
STYLE_01
 62
     7
 10
1050.216875
 20
1059.041666666667
 30
0.0
 11
1050.216875
 21
958.3916666666667
 31
0.0
  0
LINE
  5
CD
  8
SIDE90
  6
STYLE_01
 62
     7
 10
1047.516875
 20
1059.041666666667
 30
0.0
 11
1047.516875
 21
958.3916666666667
 31
0.0
  0
ARC
  5
CE
  8
SIDE90
  6
STYLE_01
 62
     7
 10
1048.866875
 20
958.3916666666667
 30
0.0
 40
1.349999999999909
 50
180.0
 51
0.0
  0
LINE
  5
CF
  8
SIDE90
  6
STYLE_01
 62
     7
 10
1064.216875
 20
1059.041666666667
 30
0.0
 11
1064.216875
 21
958.3916666666667
 31
0.0
  0
LINE
  5
D0
  8
SIDE90
  6
STYLE_01
 62
     7
 10
1061.516875
 20
1059.041666666667
 30
0.0
 11
1061.516875
 21
958.3916666666667
 31
0.0
  0
ARC
  5
D1
  8
SIDE90
  6
STYLE_01
 62
     7
 10
1062.866875
 20
958.3916666666667
 30
0.0
 40
1.349999999999909
 50
180.0
 51
0.0
  0
ARC
  5
D2
  8
SIDE90
  6
STYLE_01
 62
     7
 10
1117.26375
 20
1056.041666666667
 30
0.0
 40
3.0
 50
0.0
 51
90.0
  0
LINE
  5
D3
  8
SIDE-40
  6
STYLE_01
 62
     7
 10
-288.9249024636244
 20
1031.982122587759
 30
0.0
 11
-290.1505735726147
 21
1030.953662412261
 31
0.0
  0
LINE
  5
D4
  8
SIDE-40
  6
STYLE_01
 62
     7
 10
-291.4082548086888
 20
1034.941666666667
 30
0.0
 11
-288.9249024636244
 21
1031.982122587759
 31
0.0
  0
LINE
  5
D5
  8
SIDE-40
  6
STYLE_01
 62
     7
 10
-263.7458933832818
 20
1060.159019182878
 30
0.0
 11
-291.8919580920407
 21
1036.541666666667
 31
0.0
  0
LINE
  5
D6
  8
SIDE-40
  6
STYLE_01
 62
     7
 10
-314.0118844607692
 20
1120.063694634782
 30
0.0
 11
-312.9834242852708
 21
1118.838023525792
 31
0.0
  0
LINE
  5
D7
  8
SIDE-40
  6
STYLE_01
 62
     7
 10
-264.7743535587804
 20
1061.384690291869
 30
0.0
 11
-263.7458933832818
 21
1060.159019182878
 31
0.0
  0
LINE
  5
D8
  8
SIDE-40
  6
STYLE_01
 62
     7
 10
-264.7743535587804
 20
1061.384690291869
 30
0.0
 11
-293.4244157314301
 21
1037.344433689592
 31
0.0
  0
LINE
  5
D9
  8
SIDE-40
  6
STYLE_01
 62
     7
 10
-200.60101410323
 20
916.6501471640702
 30
0.0
 11
-335.9429965137469
 21
797.1424211808337
 31
0.0
  0
LINE
  5
DA
  8
SIDE-40
  6
STYLE_01
 62
     7
 10
-357.8768143478682
 20
785.1668936258744
 30
0.0
 11
-363.2391254497011
 21
780.6673803580686
 31
0.0
  0
LINE
  5
DB
  8
SIDE-40
  6
STYLE_01
 62
     7
 10
-605.8914481063696
 20
1069.849157635483
 30
0.0
 11
-600.5291370045368
 21
1074.348670903289
 31
0.0
  0
LINE
  5
DC
  8
SIDE-40
  6
STYLE_01
 62
     7
 10
-352.7959742623646
 20
783.0010937677298
 30
0.0
 11
-435.5953668524586
 21
881.6775673515929
 31
0.0
  0
LINE
  5
DD
  8
SIDE-40
  6
STYLE_01
 62
     7
 10
-548.5266640438301
 20
1016.263846495734
 30
0.0
 11
-601.7797548744454
 21
1079.728408809866
 31
0.0
  0
ARC
  5
DE
  8
SIDE-40
  6
STYLE_01
 62
     7
 10
798.7110093034439
 20
2002.054935737291
 30
0.0
 40
1685.79823113209
 50
213.5714120094214
 51
217.0196075735188
  0
ARC
  5
DF
  8
SIDE-40
  6
STYLE_01
 62
     7
 10
798.7110093034439
 20
2002.054935737291
 30
0.0
 40
1685.79823113209
 50
221.6798774676907
 51
226.4285879905784
  0
LINE
  5
E0
  8
SIDE-40
  6
STYLE_01
 62
     7
 10
-584.9267771258278
 20
1093.86973622297
 30
0.0
 11
-549.355605183731
 21
1051.47766426819
 31
0.0
  0
LINE
  5
E1
  8
SIDE-40
  6
STYLE_01
 62
     7
 10
-407.4715610746453
 20
882.3868449693912
 30
0.0
 11
-335.9429965137469
 21
797.1424211808337
 31
0.0
  0
LINE
  5
E2
  8
SIDE-40
  6
STYLE_01
 62
     7
 10
-586.0758437905063
 20
1092.90555480844
 30
0.0
 11
-549.3228796790445
 21
1049.105077790119
 31
0.0
  0
LINE
  5
E3
  8
SIDE-40
  6
STYLE_01
 62
     7
 10
-409.3890932867689
 20
882.3384851318142
 30
0.0
 11
-337.0920631784254
 21
796.1782397663038
 31
0.0
  0
LINE
  5
E4
  8
SIDE-40
  6
STYLE_01
 62
     7
 10
-600.5291370045368
 20
1074.348670903289
 30
0.0
 11
-548.3837549646933
 21
1012.204224520108
 31
0.0
  0
LINE
  5
E5
  8
SIDE-40
  6
STYLE_01
 62
     7
 10
-438.7912538726646
 20
881.5969676222976
 30
0.0
 11
-357.8768143478682
 21
785.1668936258744
 31
0.0
  0
LINE
  5
E6
  8
SIDE-40
  6
STYLE_01
 62
     7
 10
-597.1545020536823
 20
1070.326937576914
 30
0.0
 11
-595.2393909458849
 21
1071.93390660113
 31
0.0
  0
LINE
  5
E7
  8
SIDE-40
  6
STYLE_01
 62
     7
 10
-361.2514492987225
 20
789.188626952249
 30
0.0
 11
-359.3363381909251
 21
790.7955959764654
 31
0.0
  0
LINE
  5
E8
  8
SIDE-40
  6
STYLE_01
 62
     7
 10
-583.7135993249083
 20
1090.090341479978
 30
0.0
 11
-582.5645326602298
 21
1091.054522894508
 31
0.0
  0
LINE
  5
E9
  8
SIDE-40
  6
STYLE_01
 62
     7
 10
-339.4543076440234
 20
798.9934530947661
 30
0.0
 11
-338.3052409793449
 21
799.9576345092959
 31
0.0
  0
LINE
  5
EA
  8
SIDE-40
  6
STYLE_01
 62
     7
 10
-293.4969064716204
 20
1034.941666666667
 30
0.0
 11
-200.0802751772046
 21
923.6120607134981
 31
0.0
  0
LINE
  5
EB
  8
SIDE-40
  6
STYLE_01
 62
     7
 10
-352.7959742623646
 20
783.0010937677298
 30
0.0
 11
-337.0920631784254
 21
796.1782397663038
 31
0.0
  0
LINE
  5
EC
  8
SIDE-40
  6
STYLE_01
 62
     7
 10
-548.7838074588809
 20
1122.676168864019
 30
0.0
 11
-584.9267771258278
 21
1093.86973622297
 31
0.0
  0
LINE
  5
ED
  8
SIDE-40
  6
STYLE_01
 62
     7
 10
-601.7797548744454
 20
1079.728408809866
 30
0.0
 11
-586.0758437905063
 21
1092.90555480844
 31
0.0
  0
ARC
  5
EE
  8
SIDE-40
  6
STYLE_01
 62
     7
 10
-203.9104973927995
 20
920.3981226650653
 30
0.0
 40
4.999999999999943
 50
311.4446836137474
 51
40.00000000000058
  0
LINE
  5
EF
  8
SIDE40
  6
STYLE_01
 62
     7
 10
-288.9249024636244
 20
1116.101210745574
 30
0.0
 11
-291.4082548086888
 21
1113.141666666667
 31
0.0
  0
LINE
  5
F0
  8
SIDE40
  6
STYLE_01
 62
     7
 10
-290.1505735726147
 20
1117.129670921073
 30
0.0
 11
-288.9249024636244
 21
1116.101210745574
 31
0.0
  0
LINE
  5
F1
  8
SIDE40
  6
STYLE_01
 62
     7
 10
-292.3959555559317
 20
1111.964570752732
 30
0.0
 11
-263.7458933832818
 21
1087.924314150455
 31
0.0
  0
LINE
  5
F2
  8
SIDE40
  6
STYLE_01
 62
     7
 10
-263.7458933832818
 20
1087.924314150455
 30
0.0
 11
-264.7743535587803
 21
1086.698643041465
 31
0.0
  0
LINE
  5
F3
  8
SIDE40
  6
STYLE_01
 62
     7
 10
-293.4244157314301
 20
1110.738899643741
 30
0.0
 11
-264.7743535587803
 21
1086.698643041465
 31
0.0
  0
LINE
  5
F4
  8
SIDE40
  6
STYLE_01
 62
     7
 10
-548.7754732375612
 20
1024.122167174816
 30
0.0
 11
-585.5695647355144
 21
1053.447552667245
 31
0.0
  0
LINE
  5
F5
  8
SIDE40
  6
STYLE_01
 62
     7
 10
-601.1719246142231
 20
1072.968617986926
 30
0.0
 11
-606.5342357160561
 21
1077.468131254732
 31
0.0
  0
LINE
  5
F6
  8
SIDE40
  6
STYLE_01
 62
     7
 10
-363.8819130593874
 20
1241.649908532146
 30
0.0
 11
-358.5196019575545
 21
1237.15039526434
 31
0.0
  0
LINE
  5
F7
  8
SIDE40
  6
STYLE_01
 62
     7
 10
-602.4225424841319
 20
1067.588880080348
 30
0.0
 11
-548.4908955861299
 21
1131.862114025565
 31
0.0
  0
LINE
  5
F8
  8
SIDE40
  6
STYLE_01
 62
     7
 10
-436.4170774838771
 20
1265.426489384674
 30
0.0
 11
-353.4387618720509
 21
1364.316195122484
 31
0.0
  0
ARC
  5
F9
  8
SIDE40
  6
STYLE_01
 62
     7
 10
798.0682216937576
 20
145.2623531529235
 30
0.0
 40
1685.79823113209
 50
133.5714120094215
 51
138.3298129699945
  0
ARC
  5
FA
  8
SIDE40
  6
STYLE_01
 62
     7
 10
798.0682216937576
 20
145.2623531529235
 30
0.0
 40
1685.79823113209
 50
142.9407229275478
 51
146.4285879905784
  0
LINE
  5
FB
  8
SIDE40
  6
STYLE_01
 62
     7
 10
-336.5857841234335
 20
1350.174867709381
 30
0.0
 11
-408.2932717060637
 21
1264.717211766876
 31
0.0
  0
LINE
  5
FC
  8
SIDE40
  6
STYLE_01
 62
     7
 10
-549.3419972519747
 20
1096.621886366702
 30
0.0
 11
-585.5695647355144
 21
1053.447552667245
 31
0.0
  0
LINE
  5
FD
  8
SIDE40
  6
STYLE_01
 62
     7
 10
-337.734850788112
 20
1351.13904912391
 30
0.0
 11
-410.2108039181874
 21
1264.765571604453
 31
0.0
  0
LINE
  5
FE
  8
SIDE40
  6
STYLE_01
 62
     7
 10
-549.3078148819718
 20
1098.996209069247
 30
0.0
 11
-586.7186314001929
 21
1054.411734081774
 31
0.0
  0
LINE
  5
FF
  8
SIDE40
  6
STYLE_01
 62
     7
 10
-358.5196019575545
 20
1362.15039526434
 30
0.0
 11
-439.612964504083
 21
1265.507089113969
 31
0.0
  0
LINE
  5
100
  8
SIDE40
  6
STYLE_01
 62
     7
 10
-548.3453548356895
 20
1135.924872304922
 30
0.0
 11
-601.1719246142231
 21
1072.968617986926
 31
0.0
  0
LINE
  5
101
  8
SIDE40
  6
STYLE_01
 62
     7
 10
-361.894236908409
 20
1233.128661937965
 30
0.0
 11
-359.9791258006114
 21
1231.521692913749
 31
0.0
  0
LINE
  5
102
  8
SIDE40
  6
STYLE_01
 62
     7
 10
-597.7972896633688
 20
1076.9903513133
 30
0.0
 11
-595.8821785555714
 21
1075.383382289084
 31
0.0
  0
LINE
  5
103
  8
SIDE40
  6
STYLE_01
 62
     7
 10
-340.0970952537099
 20
1348.323835795448
 30
0.0
 11
-338.9480285890315
 21
1347.359654380919
 31
0.0
  0
LINE
  5
104
  8
SIDE40
  6
STYLE_01
 62
     7
 10
-584.3563869345949
 20
1057.226947410237
 30
0.0
 11
-583.2073202699164
 21
1056.262765995707
 31
0.0
  0
LINE
  5
105
  8
SIDE40
  6
STYLE_01
 62
     7
 10
-224.3633947735498
 20
1193.773809677144
 30
0.0
 11
-273.8580407194133
 21
1134.788387556983
 31
0.0
  0
LINE
  5
106
  8
SIDE40
  6
STYLE_01
 62
     7
 10
-200.723062786891
 20
1223.705228176716
 30
0.0
 11
-293.4969064716195
 21
1113.141666666667
 31
0.0
  0
LINE
  5
107
  8
SIDE40
  6
STYLE_01
 62
     7
 10
-273.8580407194133
 20
1134.788387556983
 30
0.0
 11
-274.7236709401377
 21
1135.514737555928
 31
0.0
  0
LINE
  5
108
  8
SIDE40
  6
STYLE_01
 62
     7
 10
-225.2290249942741
 20
1194.500159676089
 30
0.0
 11
-224.3633947735498
 21
1193.773809677144
 31
0.0
  0
LINE
  5
109
  8
SIDE40
  6
STYLE_01
 62
     7
 10
-602.4225424841319
 20
1067.588880080348
 30
0.0
 11
-586.7186314001929
 21
1054.411734081774
 31
0.0
  0
LINE
  5
10A
  8
SIDE40
  6
STYLE_01
 62
     7
 10
-201.2438017129166
 20
1230.667141726144
 30
0.0
 11
-336.5857841234335
 21
1350.174867709381
 31
0.0
  0
LINE
  5
10B
  8
SIDE40
  6
STYLE_01
 62
     7
 10
-353.4387618720509
 20
1239.316195122484
 30
0.0
 11
-337.734850788112
 21
1226.13904912391
 31
0.0
  0
ARC
  5
10C
  8
SIDE40
  6
STYLE_01
 62
     7
 10
-204.5532850024861
 20
1226.919166225149
 30
0.0
 40
5.000000000000176
 50
320.0000000000011
 51
48.55531638625263
  0
LINE
  5
10D
  8
TOP35
  6
STYLE_01
 62
     7
 10
385.5700175072151
 20
1654.180430996533
 30
0.0
 11
457.1351296519022
 21
1604.07
 31
0.0
  0
LINE
  5
10E
  8
TOP35
  6
STYLE_01
 62
     7
 10
384.6522952090536
 20
1652.86978772567
 30
0.0
 11
385.5700175072151
 21
1654.180430996533
 31
0.0
  0
LINE
  5
10F
  8
TOP35
  6
STYLE_01
 62
     7
 10
389.9934385463757
 20
1651.083118240237
 30
0.0
 11
411.445197265905
 21
1681.719404696646
 31
0.0
  0
LINE
  5
110
  8
TOP35
  6
STYLE_01
 62
     7
 10
460.9000000000001
 20
1616.010643227598
 30
0.0
 11
454.0511284097749
 21
1606.229440917585
 31
0.0
  0
LINE
  5
111
  8
TOP35
  6
STYLE_01
 62
     7
 10
411.445197265905
 20
1681.719404696646
 30
0.0
 11
412.7558405367672
 21
1680.801682398484
 31
0.0
  0
LINE
  5
112
  8
TOP35
  6
STYLE_01
 62
     7
 10
391.3040818172379
 20
1650.165395942076
 30
0.0
 11
412.7558405367672
 21
1680.801682398484
 31
0.0
  0
LINE
  5
113
  8
TOP35
  6
STYLE_01
 62
     7
 10
460.9000000000001
 20
1618.800158100592
 30
0.0
 11
452.7404851389124
 21
1607.147163215747
 31
0.0
  0
LINE
  5
114
  8
TOP35
  6
STYLE_01
 62
     7
 10
416.4002582397633
 20
1643.030486764693
 30
0.0
 11
411.4961797089618
 21
1636.026736786022
 31
0.0
  0
LINE
  5
115
  8
TOP35
  6
STYLE_01
 62
     7
 10
437.4524657779901
 20
1628.289572350472
 30
0.0
 11
432.5483872471887
 21
1621.2858223718
 31
0.0
  0
ARC
  5
116
  8
TOP35
  6
STYLE_01
 62
     7
 10
426.9263620088768
 20
1635.660029557582
 30
0.0
 40
12.84999999999996
 50
324.9999999999994
 51
144.9999999999997
  0
CIRCLE
  5
117
  8
TOP35
  6
STYLE_01
 62
     7
 10
429.1346312888282
 20
1638.813764928095
 30
0.0
 40
3.900000000000335
  0
LINE
  5
118
  8
TOP35
  6
STYLE_01
 62
     7
 10
456.3999999999999
 20
1627.657383051415
 30
0.0
 11
439.1013542336198
 21
1639.770025217854
 31
0.0
  0
LINE
  5
119
  8
TOP35
  6
STYLE_01
 62
     7
 10
412.1410514901787
 20
1678.18022585141
 30
0.0
 11
468.1390573837786
 21
1638.97
 31
0.0
  0
LINE
  5
11A
  8
TOP35
  6
STYLE_01
 62
     7
 10
402.9638285085618
 20
1665.073793142787
 30
0.0
 11
412.1410514901787
 21
1678.18022585141
 31
0.0
  0
LINE
  5
11B
  8
TOP35
  6
STYLE_01
 62
     7
 10
426.6244020166005
 20
1648.506481214093
 30
0.0
 11
402.9638285085618
 21
1665.073793142787
 31
0.0
  0
LINE
  5
11C
  8
TOP35
  6
STYLE_01
 62
     7
 10
438.4363421279014
 20
1663.430388893746
 30
0.0
 11
494.3600446721285
 21
1743.297713211923
 31
0.0
  0
LINE
  5
11D
  8
TOP35
  6
STYLE_01
 62
     7
 10
493.5
 20
1719.404633784639
 30
0.0
 11
449.0853187036585
 21
1655.973895221182
 31
0.0
  0
ARC
  5
11E
  8
TOP35
  6
STYLE_01
 62
     7
 10
441.7588572600292
 20
1652.527997266365
 30
0.0
 40
8.096372644585866
 50
354.8107132628172
 51
25.18928673718278
  0
ARC
  5
11F
  8
TOP35
  6
STYLE_01
 62
     7
 10
437.7040546407985
 20
1655.367200626303
 30
0.0
 40
8.096372644585752
 50
84.81071326281706
 51
115.1892867371838
  0
LINE
  5
120
  8
TOP35
  6
STYLE_01
 62
     7
 10
438.4363421279014
 20
1663.430388893746
 30
0.0
 11
449.0853187036585
 21
1655.973895221182
 31
0.0
  0
LINE
  5
121
  8
TOP35
  6
STYLE_01
 62
     7
 10
403.8873721212346
 20
1678.771222361275
 30
0.0
 11
399.5855488486019
 21
1672.627582029107
 31
0.0
  0
ARC
  5
122
  8
TOP35
  6
STYLE_01
 62
     7
 10
406.5181519093652
 20
1665.476136555554
 30
0.0
 40
13.55287087207389
 50
77.93217432660025
 51
101.1928749711635
  0
ARC
  5
123
  8
TOP35
  6
STYLE_01
 62
     7
 10
412.9786225531476
 20
1674.702644828088
 30
0.0
 40
13.55287087207388
 50
188.807125028838
 51
212.0678256734001
  0
LINE
  5
124
  8
TOP35
  6
STYLE_01
 62
     7
 10
402.5175011479009
 20
1666.179818407925
 30
0.0
 11
403.3366531921901
 21
1665.606241971574
 31
0.0
  0
LINE
  5
125
  8
TOP35
  6
STYLE_01
 62
     7
 10
411.7682268065504
 20
1677.647777022622
 30
0.0
 11
410.9490747622614
 21
1678.221353458974
 31
0.0
  0
LINE
  5
126
  8
TOP35
  6
STYLE_01
 62
     7
 10
142.5076670910595
 20
1557.67189660618
 30
0.0
 11
146.5227021455169
 21
1563.405960916203
 31
0.0
  0
LINE
  5
127
  8
TOP35
  6
STYLE_01
 62
     7
 10
461.2208637736122
 20
1346.103872355377
 30
0.0
 11
416.9976135372379
 21
1377.06932553502
 31
0.0
  0
LINE
  5
128
  8
TOP35
  6
STYLE_01
 62
     7
 10
307.7447422442248
 20
1453.569009585443
 30
0.0
 11
143.9223194182714
 21
1568.278704975954
 31
0.0
  0
ARC
  5
129
  8
TOP35
  6
STYLE_01
 62
     7
 10
1257.976847044927
 20
2821.651399866074
 30
0.0
 40
1685.79823113209
 50
228.5714120094215
 51
235.665205345626
  0
ARC
  5
12A
  8
TOP35
  6
STYLE_01
 62
     7
 10
1257.976847044927
 20
2821.651399866074
 30
0.0
 40
1685.79823113209
 50
238.8516088858456
 51
241.4285879905785
  0
LINE
  5
12B
  8
TOP35
  6
STYLE_01
 62
     7
 10
156.5410010179943
 20
1586.300049950312
 30
0.0
 11
308.4103187748814
 21
1479.960008834174
 31
0.0
  0
LINE
  5
12C
  8
TOP35
  6
STYLE_01
 62
     7
 10
457.5263762432918
 20
1375.547821326681
 30
0.0
 11
473.8395453733352
 21
1364.125217329734
 31
0.0
  0
LINE
  5
12D
  8
TOP35
  6
STYLE_01
 62
     7
 10
155.6806363634678
 20
1585.071321883879
 30
0.0
 11
308.3649385568822
 21
1478.160622521761
 31
0.0
  0
LINE
  5
12E
  8
TOP35
  6
STYLE_01
 62
     7
 10
454.8091195170086
 20
1375.619303086533
 30
0.0
 11
472.9791807188086
 21
1362.896489263301
 31
0.0
  0
LINE
  5
12F
  8
TOP35
  6
STYLE_01
 62
     7
 10
146.5227021455169
 20
1563.405960916203
 30
0.0
 11
307.6691085475593
 21
1450.570032398087
 31
0.0
  0
LINE
  5
130
  8
TOP35
  6
STYLE_01
 62
     7
 10
412.2966434344831
 20
1377.309043765964
 30
0.0
 11
455.7525988646114
 21
1346.880856193683
 31
0.0
  0
LINE
  5
131
  8
TOP35
  6
STYLE_01
 62
     7
 10
150.8232503780341
 20
1560.39468462536
 30
0.0
 11
152.2571914689117
 21
1562.442564736082
 31
0.0
  0
LINE
  5
132
  8
TOP35
  6
STYLE_01
 62
     7
 10
158.6910201262298
 20
1582.963428480288
 30
0.0
 11
159.5513847807564
 21
1584.192156546722
 31
0.0
  0
LINE
  5
133
  8
TOP35
  6
STYLE_01
 62
     7
 10
302.5660801089421
 20
1711.726649607173
 30
0.0
 11
365.6407875191944
 21
1667.561264008142
 31
0.0
  0
LINE
  5
134
  8
TOP35
  6
STYLE_01
 62
     7
 10
270.6881690002042
 20
1732.66832798259
 30
0.0
 11
455.5
 21
1603.261690766194
 31
0.0
  0
LINE
  5
135
  8
TOP35
  6
STYLE_01
 62
     7
 10
365.6407875191944
 20
1667.561264008142
 30
0.0
 11
364.9926461461176
 21
1666.635622198096
 31
0.0
  0
LINE
  5
136
  8
TOP35
  6
STYLE_01
 62
     7
 10
301.9179387358653
 20
1710.801007797126
 30
0.0
 11
302.5660801089421
 21
1711.726649607173
 31
0.0
  0
LINE
  5
137
  8
TOP35
  6
STYLE_01
 62
     7
 10
263.7981330215666
 20
1731.542799879048
 30
0.0
 11
156.5410010179943
 21
1586.300049950312
 31
0.0
  0
LINE
  5
138
  8
TOP35
  6
STYLE_01
 62
     7
 10
143.9223194182714
 20
1568.278704975954
 30
0.0
 11
155.6806363634678
 21
1585.071321883879
 31
0.0
  0
ARC
  5
139
  8
TOP35
  6
STYLE_01
 62
     7
 10
267.8202868184489
 20
1728.572567761144
 30
0.0
 40
5.000000000000281
 50
55.000000000002
 51
143.5553163862486
  0
LINE
  5
13A
  8
TOP35
  6
STYLE_01
 62
     7
 10
481.1263558790698
 20
1375.111327225686
 30
0.0
 11
473.8395453733353
 21
1364.125217329734
 31
0.0
  0
LINE
  5
13B
  8
TOP35
  6
STYLE_01
 62
     7
 10
455.7525988646114
 20
1346.880856193683
 30
0.0
 11
451.7375638101541
 21
1341.14679188366
 31
0.0
  0
LINE
  5
13C
  8
TOP35
  6
STYLE_01
 62
     7
 10
451.4520506320942
 20
1349.892132484526
 30
0.0
 11
452.8859917229718
 21
1351.940012595248
 31
0.0
  0
LINE
  5
13D
  8
TOP35
  6
STYLE_01
 62
     7
 10
469.9687969560467
 20
1365.004382666891
 30
0.0
 11
470.8291616105733
 21
1366.233110733324
 31
0.0
  0
LINE
  5
13E
  8
TOP35
  6
STYLE_01
 62
     7
 10
461.2208637736123
 20
1346.103872355377
 30
0.0
 11
472.9791807188087
 21
1362.896489263301
 31
0.0
  0
LINE
  5
13F
  8
TOP45
  6
STYLE_01
 62
     7
 10
-806.5605762245764
 20
1616.943753748806
 30
0.0
 11
-806.6666422417545
 21
1617.049819765984
 31
0.0
  0
LINE
  5
140
  8
TOP45
  6
STYLE_01
 62
     7
 10
-795.2468677255916
 20
1628.25746224779
 30
0.0
 11
-806.5605762245764
 21
1616.943753748806
 31
0.0
  0
LINE
  5
141
  8
TOP45
  6
STYLE_01
 62
     7
 10
-795.3529337427697
 20
1628.363528264968
 30
0.0
 11
-795.2468677255916
 21
1628.25746224779
 31
0.0
  0
LINE
  5
142
  8
TOP45
  6
STYLE_01
 62
     7
 10
-846.8656627522096
 20
1679.876257274408
 30
0.0
 11
-813.525578019264
 21
1646.536172541463
 31
0.0
  0
LINE
  5
143
  8
TOP45
  6
STYLE_01
 62
     7
 10
-858.1793712511944
 20
1668.562548775424
 30
0.0
 11
-846.8656627522096
 21
1679.876257274408
 31
0.0
  0
LINE
  5
144
  8
TOP45
  6
STYLE_01
 62
     7
 10
-824.8392865182487
 20
1635.222464042478
 30
0.0
 11
-858.1793712511944
 21
1668.562548775424
 31
0.0
  0
LINE
  5
145
  8
TOP45
  6
STYLE_01
 62
     7
 10
-823.5311389730535
 20
1660.784374182372
 30
0.0
 11
-754.5882278073651
 21
1729.72728534806
 31
0.0
  0
LINE
  5
146
  8
TOP45
  6
STYLE_01
 62
     7
 10
-756.103125
 20
1709.827611844575
 30
0.0
 11
-814.3387508176285
 21
1651.591986026946
 31
0.0
  0
ARC
  5
147
  8
TOP45
  6
STYLE_01
 62
     7
 10
-822.1522807497395
 20
1649.470665683387
 30
0.0
 40
8.096372644585616
 50
344.8107132628172
 51
15.1892867371829
  0
ARC
  5
148
  8
TOP45
  6
STYLE_01
 62
     7
 10
-825.6524593166131
 20
1652.970844250261
 30
0.0
 40
8.096372644585726
 50
74.81071326281734
 51
105.1892867371842
  0
LINE
  5
149
  8
TOP45
  6
STYLE_01
 62
     7
 10
-823.5311389730535
 20
1660.784374182372
 30
0.0
 11
-814.3387508176285
 21
1651.591986026946
 31
0.0
  0
LINE
  5
14A
  8
TOP45
  6
STYLE_01
 62
     7
 10
-890.3527297951823
 20
1692.250625945173
 30
0.0
 11
-889.2213589452838
 21
1693.381996795071
 31
0.0
  0
LINE
  5
14B
  8
TOP45
  6
STYLE_01
 62
     7
 10
-889.2213589452838
 20
1693.381996795071
 30
0.0
 11
-799.9093621502125
 21
1604.07
 31
0.0
  0
LINE
  5
14C
  8
TOP45
  6
STYLE_01
 62
     7
 10
-792.7012833133201
 20
1627.126091397892
 30
0.0
 11
-807.8333684307122
 21
1611.9940062805
 31
0.0
  0
LINE
  5
14D
  8
TOP45
  6
STYLE_01
 62
     7
 10
-863.1291187195002
 20
1667.289756569288
 30
0.0
 11
-847.9970336021081
 21
1682.42184168668
 31
0.0
  0
LINE
  5
14E
  8
TOP45
  6
STYLE_01
 62
     7
 10
-861.9977478696017
 20
1666.158385719389
 30
0.0
 11
-846.8656627522096
 21
1681.290470836781
 31
0.0
  0
LINE
  5
14F
  8
TOP45
  6
STYLE_01
 62
     7
 10
-847.9970336021081
 20
1682.42184168668
 30
0.0
 11
-846.8656627522096
 21
1681.290470836781
 31
0.0
  0
LINE
  5
150
  8
TOP45
  6
STYLE_01
 62
     7
 10
-793.8326541632185
 20
1628.25746224779
 30
0.0
 11
-792.7012833133201
 21
1627.126091397892
 31
0.0
  0
LINE
  5
151
  8
TOP45
  6
STYLE_01
 62
     7
 10
-808.9647392806106
 20
1613.125377130398
 30
0.0
 11
-793.8326541632185
 21
1628.25746224779
 31
0.0
  0
LINE
  5
152
  8
TOP45
  6
STYLE_01
 62
     7
 10
-810.5910848773398
 20
1649.470665683387
 30
0.0
 11
-827.9505563554695
 21
1632.111194205257
 31
0.0
  0
ARC
  5
153
  8
TOP45
  6
STYLE_01
 62
     7
 10
-801.5047627390925
 20
1640.384343545139
 30
0.0
 40
12.84999999999973
 50
315.0
 51
134.9999999999996
  0
LINE
  5
154
  8
TOP45
  6
STYLE_01
 62
     7
 10
-792.4184406008455
 20
1631.298021406893
 30
0.0
 11
-809.7779120789753
 21
1613.938549928763
 31
0.0
  0
CIRCLE
  5
155
  8
TOP45
  6
STYLE_01
 62
     7
 10
-799.8430618033042
 20
1642.046044480928
 30
0.0
 40
3.899999999999887
  0
LINE
  5
156
  8
TOP45
  6
STYLE_01
 62
     7
 10
-793.23161339921
 20
1620.231800281323
 30
0.0
 11
-798.5349142581091
 21
1614.928499422424
 31
0.0
  0
ARC
  5
157
  8
TOP45
  6
STYLE_01
 62
     7
 10
-806.781547093698
 20
1620.513945191053
 30
0.0
 40
13.55287087207386
 50
358.807125028836
 51
22.06782567339934
  0
ARC
  5
158
  8
TOP45
  6
STYLE_01
 62
     7
 10
-798.817059167839
 20
1628.478433116912
 30
0.0
 40
13.55287087207386
 50
247.9321743266006
 51
271.1928749711636
  0
LINE
  5
159
  8
TOP45
  6
STYLE_01
 62
     7
 10
-805.3938500356186
 20
1616.69626637539
 30
0.0
 11
-806.1009568168051
 21
1617.403373156577
 31
0.0
  0
LINE
  5
15A
  8
TOP45
  6
STYLE_01
 62
     7
 10
-795.7064871333629
 20
1627.797842840019
 30
0.0
 11
-794.9993803521763
 21
1627.090736058833
 31
0.0
  0
LINE
  5
15B
  8
TOP45
  6
STYLE_01
 62
     7
 10
-854.8913247186769
 20
1681.89151160079
 30
0.0
 11
-860.194625577576
 21
1676.588210741891
 31
0.0
  0
ARC
  5
15C
  8
TOP45
  6
STYLE_01
 62
     7
 10
-854.6091798089469
 20
1668.341577906302
 30
0.0
 40
13.55287087207386
 50
67.93217432660066
 51
91.19287497116358
  0
ARC
  5
15D
  8
TOP45
  6
STYLE_01
 62
     7
 10
-846.644691883088
 20
1676.306065832161
 30
0.0
 40
13.55287087207386
 50
178.807125028836
 51
202.0678256733994
  0
LINE
  5
15E
  8
TOP45
  6
STYLE_01
 62
     7
 10
-858.4268586246096
 20
1669.729274964381
 30
0.0
 11
-857.7197518434232
 21
1669.022168183195
 31
0.0
  0
LINE
  5
15F
  8
TOP45
  6
STYLE_01
 62
     7
 10
-847.3252821599808
 20
1679.416637866637
 30
0.0
 11
-848.0323889411675
 21
1680.123744647824
 31
0.0
  0
LINE
  5
160
  8
TOP45
  6
STYLE_01
 62
     7
 10
-1072.206009839
 20
1580.838439559682
 30
0.0
 11
-1057.710320824676
 21
1595.334128574007
 31
0.0
  0
LINE
  5
161
  8
TOP45
  6
STYLE_01
 62
     7
 10
-1056.649660652896
 20
1596.394788745786
 30
0.0
 11
-1043.568185200945
 21
1609.476264197737
 31
0.0
  0
LINE
  5
162
  8
TOP45
  6
STYLE_01
 62
     7
 10
-911.6485763358298
 20
1391.855313452812
 30
0.0
 11
-1083.829077554754
 21
1564.035814671737
 31
0.0
  0
LINE
  5
163
  8
TOP45
  6
STYLE_01
 62
     7
 10
-875.4124999999999
 20
1422.911832616451
 30
0.0
 11
-879.2896022617806
 21
1419.034730354671
 31
0.0
  0
LINE
  5
164
  8
TOP45
  6
STYLE_01
 62
     7
 10
-880.3502624335604
 20
1417.974070182891
 30
0.0
 11
-894.8459514478845
 21
1403.478381168567
 31
0.0
  0
LINE
  5
165
  8
TOP45
  6
STYLE_01
 62
     7
 10
-863.1410511464328
 20
1666.637008621905
 30
0.0
 11
-809.0473823856619
 21
1612.543339861134
 31
0.0
  0
LINE
  5
166
  8
TOP45
  6
STYLE_01
 62
     7
 10
-983.172427252849
 20
1632.519106429654
 30
0.0
 11
-909.0181391098158
 21
1706.673394572687
 31
0.0
  0
LINE
  5
167
  8
TOP45
  6
STYLE_01
 62
     7
 10
-983.172427252849
 20
1632.519106429654
 30
0.0
 11
-1043.568185200945
 21
1609.476264197737
 31
0.0
  0
LINE
  5
168
  8
TOP45
  6
STYLE_01
 62
     7
 10
-904.7754984226967
 20
1706.673394572687
 30
0.0
 11
-802.1721038500094
 21
1604.07
 31
0.0
  0
LINE
  5
169
  8
TOP45
  6
STYLE_01
 62
     7
 10
-1056.649660652896
 20
1596.394788745786
 30
0.0
 11
-879.2896022617806
 21
1419.034730354671
 31
0.0
  0
LINE
  5
16A
  8
TOP45
  6
STYLE_01
 62
     7
 10
-1057.710320824676
 20
1595.334128574007
 30
0.0
 11
-880.3502624335604
 21
1417.974070182891
 31
0.0
  0
LINE
  5
16B
  8
TOP45
  6
STYLE_01
 62
     7
 10
-1072.206009839
 20
1580.838439559682
 30
0.0
 11
-894.8459514478845
 21
1403.478381168567
 31
0.0
  0
LINE
  5
16C
  8
TOP45
  6
STYLE_01
 62
     7
 10
-1076.333745674177
 20
1571.531146552315
 30
0.0
 11
-904.1532444552524
 21
1399.35064533339
 31
0.0
  0
LINE
  5
16D
  8
TOP45
  6
STYLE_01
 62
     7
 10
-1071.383998205871
 20
1576.48089402062
 30
0.0
 11
-1083.829077554754
 21
1564.035814671737
 31
0.0
  0
LINE
  5
16E
  8
TOP45
  6
STYLE_01
 62
     7
 10
-899.2034969869467
 20
1404.300392801696
 30
0.0
 11
-911.6485763358298
 21
1391.855313452812
 31
0.0
  0
LINE
  5
16F
  8
TOP45
  6
STYLE_01
 62
     7
 10
-1071.383998205871
 20
1576.48089402062
 30
0.0
 11
-899.2034969869467
 21
1404.300392801696
 31
0.0
  0
LINE
  5
170
  8
TOP45
  6
STYLE_01
 62
     7
 10
-1068.025240995235
 20
1576.657670715917
 30
0.0
 11
-1069.793007948201
 21
1574.88990376295
 31
0.0
  0
LINE
  5
171
  8
TOP45
  6
STYLE_01
 62
     7
 10
-899.02672029165
 20
1407.659150012332
 30
0.0
 11
-900.7944872446164
 21
1405.891383059366
 31
0.0
  0
LINE
  5
172
  8
TOP45
  6
STYLE_01
 62
     7
 10
-1054.943765543284
 20
1592.567573292614
 30
0.0
 11
-1053.883105371504
 21
1593.628233464394
 31
0.0
  0
LINE
  5
173
  8
TOP45
  6
STYLE_01
 62
     7
 10
-883.1168177149527
 20
1420.740625464283
 30
0.0
 11
-882.056157543173
 21
1421.801285636063
 31
0.0
  0
LINE
  5
174
  8
TOP45
  6
STYLE_01
 62
     7
 10
-863.1410511464328
 20
1666.637008621905
 30
0.0
 11
-863.9400818091735
 21
1665.837977959164
 31
0.0
  0
LINE
  5
175
  8
TOP45
  6
STYLE_01
 62
     7
 10
-809.0473823856619
 20
1612.543339861134
 30
0.0
 11
-809.8464130484026
 21
1611.744309198393
 31
0.0
  0
LINE
  5
176
  8
TOP45
  6
STYLE_01
 62
     7
 10
-961.6056704266593
 20
1592.567573292614
 30
0.0
 11
-883.1168177149527
 21
1514.078720580907
 31
0.0
  0
LINE
  5
177
  8
TOP45
  6
STYLE_01
 62
     7
 10
-876.1376737846413
 20
1678.035569934632
 30
0.0
 11
-961.6056704266593
 21
1592.567573292614
 31
0.0
  0
LINE
  5
178
  8
TOP45
  6
STYLE_01
 62
     7
 10
-849.0
 20
1548.19553829586
 30
0.0
 11
-883.1168177149527
 21
1514.078720580907
 31
0.0
  0
LINE
  5
179
  8
TOP45
  6
STYLE_01
 62
     7
 10
-865.3565050802378
 20
1667.254401230228
 30
0.0
 11
-936.5268026066638
 21
1596.084103703803
 31
0.0
  0
LINE
  5
17A
  8
TOP45
  6
STYLE_01
 62
     7
 10
-867.2656933894415
 20
1669.163589539432
 30
0.0
 11
-938.4359909158675
 21
1597.993292013006
 31
0.0
  0
ARC
  5
17B
  8
TOP45
  6
STYLE_01
 62
     7
 10
-937.4813967612656
 20
1597.038697858404
 30
0.0
 40
1.350000000000196
 50
134.9999999999932
 51
315.0000000000068
  0
LINE
  5
17C
  8
TOP45
  6
STYLE_01
 62
     7
 10
-855.4570101436261
 20
1657.354906293617
 30
0.0
 11
-926.627307670052
 21
1586.184608767191
 31
0.0
  0
LINE
  5
17D
  8
TOP45
  6
STYLE_01
 62
     7
 10
-857.3661984528298
 20
1659.26409460282
 30
0.0
 11
-928.5364959792557
 21
1588.093797076394
 31
0.0
  0
ARC
  5
17E
  8
TOP45
  6
STYLE_01
 62
     7
 10
-927.5819018246539
 20
1587.139202921793
 30
0.0
 40
1.349999999999874
 50
135.0000000000068
 51
314.9999999999932
  0
LINE
  5
17F
  8
TOP45
  6
STYLE_01
 62
     7
 10
-845.5575152070144
 20
1647.455411357005
 30
0.0
 11
-916.7278127334403
 21
1576.285113830579
 31
0.0
  0
LINE
  5
180
  8
TOP45
  6
STYLE_01
 62
     7
 10
-847.4667035162181
 20
1649.364599666209
 30
0.0
 11
-918.637001042644
 21
1578.194302139783
 31
0.0
  0
ARC
  5
181
  8
TOP45
  6
STYLE_01
 62
     7
 10
-917.6824068880424
 20
1577.239707985181
 30
0.0
 40
1.350000000000035
 50
134.9999999999864
 51
315.0000000000136
  0
LINE
  5
182
  8
TOP45
  6
STYLE_01
 62
     7
 10
-835.6580202704027
 20
1637.555916420393
 30
0.0
 11
-906.8283177968287
 21
1566.385618893968
 31
0.0
  0
LINE
  5
183
  8
TOP45
  6
STYLE_01
 62
     7
 10
-837.5672085796065
 20
1639.465104729597
 30
0.0
 11
-908.7375061060325
 21
1568.294807203171
 31
0.0
  0
ARC
  5
184
  8
TOP45
  6
STYLE_01
 62
     7
 10
-907.7829119514306
 20
1567.340213048569
 30
0.0
 40
1.350000000000196
 50
134.9999999999932
 51
315.0000000000068
  0
LINE
  5
185
  8
TOP45
  6
STYLE_01
 62
     7
 10
-825.7585253337911
 20
1627.656421483782
 30
0.0
 11
-896.9288228602172
 21
1556.486123957356
 31
0.0
  0
LINE
  5
186
  8
TOP45
  6
STYLE_01
 62
     7
 10
-827.6677136429948
 20
1629.565609792985
 30
0.0
 11
-898.8380111694207
 21
1558.395312266559
 31
0.0
  0
ARC
  5
187
  8
TOP45
  6
STYLE_01
 62
     7
 10
-897.8834170148189
 20
1557.440718111958
 30
0.0
 40
1.349999999999874
 50
135.0000000000068
 51
314.9999999999864
  0
LINE
  5
188
  8
TOP45
  6
STYLE_01
 62
     7
 10
-815.8590303971794
 20
1617.75692654717
 30
0.0
 11
-831.1459569443493
 21
1602.47
 31
0.0
  0
LINE
  5
189
  8
TOP45
  6
STYLE_01
 62
     7
 10
-849.0
 20
1584.615956944349
 30
0.0
 11
-887.0293279236053
 21
1546.586629020744
 31
0.0
  0
LINE
  5
18A
  8
TOP45
  6
STYLE_01
 62
     7
 10
-817.7682187063831
 20
1619.666114856374
 30
0.0
 11
-834.9643335627568
 21
1602.47
 31
0.0
  0
LINE
  5
18B
  8
TOP45
  6
STYLE_01
 62
     7
 10
-849.0
 20
1588.434333562757
 30
0.0
 11
-888.938516232809
 21
1548.495817329948
 31
0.0
  0
ARC
  5
18C
  8
TOP45
  6
STYLE_01
 62
     7
 10
-887.9839220782073
 20
1547.541223175346
 30
0.0
 40
1.350000000000035
 50
134.9999999999864
 51
315.0000000000136
  0
LINE
  5
18D
  8
TOP45
  6
STYLE_01
 62
     7
 10
-805.9595354605677
 20
1607.857431610558
 30
0.0
 11
-809.7469670711262
 21
1604.07
 31
0.0
  0
LINE
  5
18E
  8
TOP45
  6
STYLE_01
 62
     7
 10
-848.9999999999999
 20
1564.816967071126
 30
0.0
 11
-877.1298329869937
 21
1536.687134084133
 31
0.0
  0
LINE
  5
18F
  8
TOP45
  6
STYLE_01
 62
     7
 10
-807.8687237697715
 20
1609.766619919762
 30
0.0
 11
-813.5653436895335
 21
1604.07
 31
0.0
  0
LINE
  5
190
  8
TOP45
  6
STYLE_01
 62
     7
 10
-849.0
 20
1568.635343689534
 30
0.0
 11
-879.0390212961975
 21
1538.596322393336
 31
0.0
  0
ARC
  5
191
  8
TOP45
  6
STYLE_01
 62
     7
 10
-878.0844271415956
 20
1537.641728238734
 30
0.0
 40
1.350000000000196
 50
134.9999999999932
 51
315.0000000000068
  0
ARC
  5
192
  8
TOP45
  6
STYLE_01
 62
     7
 10
-906.8968187662563
 20
1704.552074229128
 30
0.0
 40
2.999999999999864
 50
45.0
 51
135.0
  0
LINE
  5
193
  8
TOP45
  6
STYLE_01
 62
     7
 10
-894.7932628830174
 20
1375.0
 30
0.0
 11
-1083.829077554754
 21
1564.035814671737
 31
0.0
  0
TEXT
  5
194
  8
DIMNSIONS
 62
     7
 10
-299.9999999999999
 20
-1716.51224
 30
0.0
 40
36.64892578125
  1
(単位：mm)
 41
0.7
 11
-299.9999999999999
 21
-1679.86331421875
 31
0.0
 73
     3
  0
LINE
  5
195
  8
DIMNSIONS
  6
CONTINUOUS
 62
     7
 10
448.2
 20
963.7966666666666
 30
0.0
 11
197.5
 21
963.7966666666666
 31
0.0
  0
LINE
  5
196
  8
DIMNSIONS
  6
CONTINUOUS
 62
     7
 10
293.825
 20
1248.954166666666
 30
0.0
 11
197.5
 21
1248.954166666666
 31
0.0
  0
LINE
  5
197
  8
DIMNSIONS
  6
CONTINUOUS
 62
     7
 10
212.5
 20
963.7966666666666
 30
0.0
 11
212.5
 21
1248.954166666666
 31
0.0
  0
LINE
  5
198
  8
DIMNSIONS
  6
CONTINUOUS
 62
     7
 10
212.5
 20
963.7966666666666
 30
0.0
 11
204.4620148566911
 21
993.7948356119791
 31
0.0
  0
LINE
  5
199
  8
DIMNSIONS
  6
CONTINUOUS
 62
     7
 10
212.5
 20
963.7966666666666
 30
0.0
 11
220.5379851433089
 21
993.7948356119791
 31
0.0
  0
LINE
  5
19A
  8
DIMNSIONS
  6
CONTINUOUS
 62
     7
 10
212.5
 20
1248.954166666666
 30
0.0
 11
220.5379851433089
 21
1218.955997721354
 31
0.0
  0
LINE
  5
19B
  8
DIMNSIONS
  6
CONTINUOUS
 62
     7
 10
212.5
 20
1248.954166666666
 30
0.0
 11
204.4620148566911
 21
1218.955997721354
 31
0.0
  0
TEXT
  5
19C
  8
DIMNSIONS
 62
     7
 10
197.5916666666666
 20
1066.687916666667
 30
0.0
 40
40.72102864583334
  1
285
 50
90.0
 41
0.7
 11
156.8706380208333
 21
1066.687916666667
 31
0.0
 73
     3
  0
LINE
  5
19D
  8
DIMNSIONS
  6
CONTINUOUS
 62
     7
 10
293.825
 20
1248.954166666666
 30
0.0
 11
260.0
 21
1248.954166666666
 31
0.0
  0
LINE
  5
19E
  8
DIMNSIONS
  6
CONTINUOUS
 62
     7
 10
293.825
 20
998.1291666666667
 30
0.0
 11
260.0
 21
998.1291666666667
 31
0.0
  0
LINE
  5
19F
  8
DIMNSIONS
  6
CONTINUOUS
 62
     7
 10
275.0
 20
1248.954166666666
 30
0.0
 11
275.0
 21
998.1291666666667
 31
0.0
  0
LINE
  5
1A0
  8
DIMNSIONS
  6
CONTINUOUS
 62
     7
 10
275.0
 20
1248.954166666666
 30
0.0
 11
283.0379851433088
 21
1218.955997721354
 31
0.0
  0
LINE
  5
1A1
  8
DIMNSIONS
  6
CONTINUOUS
 62
     7
 10
275.0
 20
1248.954166666666
 30
0.0
 11
266.9620148566912
 21
1218.955997721354
 31
0.0
  0
LINE
  5
1A2
  8
DIMNSIONS
  6
CONTINUOUS
 62
     7
 10
275.0
 20
998.1291666666667
 30
0.0
 11
266.9620148566912
 21
1028.127335611979
 31
0.0
  0
LINE
  5
1A3
  8
DIMNSIONS
  6
CONTINUOUS
 62
     7
 10
275.0
 20
998.1291666666667
 30
0.0
 11
283.0379851433088
 21
1028.127335611979
 31
0.0
  0
TEXT
  5
1A4
  8
DIMNSIONS
 62
     7
 10
260.0916666666666
 20
1083.854166666667
 30
0.0
 40
40.72102864583334
  1
251
 50
90.0
 41
0.7
 11
219.3706380208333
 21
1083.854166666667
 31
0.0
 73
     3
  0
LINE
  5
1A5
  8
DIMNSIONS
  6
CONTINUOUS
 62
     7
 10
482.4999999999997
 20
1375.0
 30
0.0
 11
47.5
 21
1375.0
 31
0.0
  0
LINE
  5
1A6
  8
DIMNSIONS
  6
CONTINUOUS
 62
     7
 10
336.5
 20
1603.6
 30
0.0
 11
47.5
 21
1603.6
 31
0.0
  0
LINE
  5
1A7
  8
DIMNSIONS
  6
CONTINUOUS
 62
     7
 10
62.5
 20
1375.0
 30
0.0
 11
62.5
 21
1603.6
 31
0.0
  0
LINE
  5
1A8
  8
DIMNSIONS
  6
CONTINUOUS
 62
     7
 10
62.5
 20
1375.0
 30
0.0
 11
54.46201485669113
 21
1404.998168945312
 31
0.0
  0
LINE
  5
1A9
  8
DIMNSIONS
  6
CONTINUOUS
 62
     7
 10
62.5
 20
1375.0
 30
0.0
 11
70.53798514330887
 21
1404.998168945312
 31
0.0
  0
LINE
  5
1AA
  8
DIMNSIONS
  6
CONTINUOUS
 62
     7
 10
62.5
 20
1603.6
 30
0.0
 11
70.53798514330887
 21
1573.601831054687
 31
0.0
  0
LINE
  5
1AB
  8
DIMNSIONS
  6
CONTINUOUS
 62
     7
 10
62.5
 20
1603.6
 30
0.0
 11
54.46201485669113
 21
1573.601831054687
 31
0.0
  0
TEXT
  5
1AC
  8
DIMNSIONS
 62
     7
 10
47.59166666666667
 20
1449.6125
 30
0.0
 40
40.72102864583334
  1
229
 50
90.0
 41
0.7
 11
6.870638020833326
 21
1449.6125
 31
0.0
 73
     3
  0
LINE
  5
1AD
  8
DIMNSIONS
  6
CONTINUOUS
 62
     7
 10
470.4999999999997
 20
1375.0
 30
0.0
 11
-15.0
 21
1375.0
 31
0.0
  0
LINE
  5
1AE
  8
DIMNSIONS
  6
CONTINUOUS
 62
     7
 10
132.5
 20
1748.57
 30
0.0
 11
-15.0
 21
1748.57
 31
0.0
  0
LINE
  5
1AF
  8
DIMNSIONS
  6
CONTINUOUS
 62
     7
 10
0.0
 20
1375.0
 30
0.0
 11
0.0
 21
1748.57
 31
0.0
  0
LINE
  5
1B0
  8
DIMNSIONS
  6
CONTINUOUS
 62
     7
 10
0.0
 20
1375.0
 30
0.0
 11
-8.037985143308871
 21
1404.998168945312
 31
0.0
  0
LINE
  5
1B1
  8
DIMNSIONS
  6
CONTINUOUS
 62
     7
 10
0.0
 20
1375.0
 30
0.0
 11
8.037985143308868
 21
1404.998168945312
 31
0.0
  0
LINE
  5
1B2
  8
DIMNSIONS
  6
CONTINUOUS
 62
     7
 10
0.0
 20
1748.57
 30
0.0
 11
8.037985143308868
 21
1718.571831054687
 31
0.0
  0
LINE
  5
1B3
  8
DIMNSIONS
  6
CONTINUOUS
 62
     7
 10
0.0
 20
1748.57
 30
0.0
 11
-8.037985143308871
 21
1718.571831054687
 31
0.0
  0
TEXT
  5
1B4
  8
DIMNSIONS
 62
     7
 10
-14.90833333333334
 20
1522.0975
 30
0.0
 40
40.72102864583334
  1
374
 50
90.0
 41
0.7
 11
-55.62936197916668
 21
1522.0975
 31
0.0
 73
     3
  0
LINE
  5
1B5
  8
DIMNSIONS
  6
CONTINUOUS
 62
     7
 10
461.2
 20
950.7966666666666
 30
0.0
 11
461.2
 21
883.5416666666666
 31
0.0
  0
LINE
  5
1B6
  8
DIMNSIONS
  6
CONTINUOUS
 62
     7
 10
538.8
 20
950.7966666666666
 30
0.0
 11
538.8
 21
883.5416666666666
 31
0.0
  0
LINE
  5
1B7
  8
DIMNSIONS
  6
CONTINUOUS
 62
     7
 10
461.2
 20
898.5416666666666
 30
0.0
 11
342.8666666665666
 21
898.5416666666666
 31
0.0
  0
LINE
  5
1B8
  8
DIMNSIONS
  6
CONTINUOUS
 62
     7
 10
461.2
 20
898.5416666666666
 30
0.0
 11
538.8
 21
898.5416666666666
 31
0.0
  0
LINE
  5
1B9
  8
DIMNSIONS
  6
CONTINUOUS
 62
     7
 10
461.2
 20
898.5416666666666
 30
0.0
 11
491.1981689453125
 21
906.5796518099755
 31
0.0
  0
LINE
  5
1BA
  8
DIMNSIONS
  6
CONTINUOUS
 62
     7
 10
461.2
 20
898.5416666666666
 30
0.0
 11
491.1981689453125
 21
890.5036815233577
 31
0.0
  0
LINE
  5
1BB
  8
DIMNSIONS
  6
CONTINUOUS
 62
     7
 10
538.8
 20
898.5416666666666
 30
0.0
 11
508.8018310546875
 21
890.5036815233577
 31
0.0
  0
LINE
  5
1BC
  8
DIMNSIONS
  6
CONTINUOUS
 62
     7
 10
538.8
 20
898.5416666666666
 30
0.0
 11
508.8018310546875
 21
906.5796518099755
 31
0.0
  0
TEXT
  5
1BD
  8
DIMNSIONS
 62
     7
 10
342.8666666665666
 20
913.4499999999999
 30
0.0
 40
40.72102864583334
  1
77.6
 41
0.7
 11
342.8666666665666
 21
954.1710286458333
 31
0.0
 73
     3
  0
LINE
  5
1BE
  8
DIMNSIONS
  6
CONTINUOUS
 62
     7
 10
306.825
 20
985.1291666666667
 30
0.0
 11
306.825
 21
797.5
 31
0.0
  0
LINE
  5
1BF
  8
DIMNSIONS
  6
CONTINUOUS
 62
     7
 10
694.175
 20
985.1291666666667
 30
0.0
 11
694.175
 21
797.5
 31
0.0
  0
LINE
  5
1C0
  8
DIMNSIONS
  6
CONTINUOUS
 62
     7
 10
306.825
 20
812.5
 30
0.0
 11
694.175
 21
812.5
 31
0.0
  0
LINE
  5
1C1
  8
DIMNSIONS
  6
CONTINUOUS
 62
     7
 10
306.825
 20
812.5
 30
0.0
 11
336.8231689453125
 21
820.5379851433089
 31
0.0
  0
LINE
  5
1C2
  8
DIMNSIONS
  6
CONTINUOUS
 62
     7
 10
306.825
 20
812.5
 30
0.0
 11
336.8231689453125
 21
804.4620148566911
 31
0.0
  0
LINE
  5
1C3
  8
DIMNSIONS
  6
CONTINUOUS
 62
     7
 10
694.175
 20
812.5
 30
0.0
 11
664.1768310546875
 21
804.4620148566911
 31
0.0
  0
LINE
  5
1C4
  8
DIMNSIONS
  6
CONTINUOUS
 62
     7
 10
694.175
 20
812.5
 30
0.0
 11
664.1768310546875
 21
820.5379851433089
 31
0.0
  0
TEXT
  5
1C5
  8
DIMNSIONS
 62
     7
 10
460.8125
 20
827.4083333333333
 30
0.0
 40
40.72102864583334
  1
387
 41
0.7
 11
460.8125
 21
868.1293619791667
 31
0.0
 73
     3
  0
LINE
  5
1C6
  8
DIMNSIONS
  6
CONTINUOUS
 62
     7
 10
-531.9000000000001
 20
1280.291666666667
 30
0.0
 11
-531.9000000000001
 21
1366.050033989717
 31
0.0
  0
ARC
  5
1C7
  8
DIMNSIONS
  6
CONTINUOUS
 62
     7
 10
-531.9000000000001
 20
1155.523683011842
 30
0.0
 40
195.526350977875
 50
49.99999999999985
 51
90.0
  0
LINE
  5
1C8
  8
DIMNSIONS
  6
CONTINUOUS
 62
     7
 10
-531.9000000000001
 20
1351.050033989717
 30
0.0
 11
-501.9018310546876
 21
1359.088019133026
 31
0.0
  0
LINE
  5
1C9
  8
DIMNSIONS
  6
CONTINUOUS
 62
     7
 10
-531.9000000000001
 20
1351.050033989717
 30
0.0
 11
-501.9018310546876
 21
1343.012048846408
 31
0.0
  0
LINE
  5
1CA
  8
DIMNSIONS
  6
CONTINUOUS
 62
     7
 10
-406.2180842242001
 20
1305.305557661774
 30
0.0
 11
-434.131382444528
 21
1318.919782858185
 31
0.0
  0
LINE
  5
1CB
  8
DIMNSIONS
  6
CONTINUOUS
 62
     7
 10
-406.2180842242001
 20
1305.305557661774
 30
0.0
 11
-423.5845969882093
 21
1331.052471644872
 31
0.0
  0
TEXT
  5
1CC
  8
DIMNSIONS
 62
     7
 10
-534.5152008860699
 20
1380.415451892972
 30
0.0
 40
40.72102864583334
  1
40.0°
 50
340.0
 41
0.7
 11
-520.5877888322533
 21
1418.680702022273
 31
0.0
 73
     3
  0
LINE
  5
1CD
  8
DIMNSIONS
  6
CONTINUOUS
 62
     7
 10
-531.9000000000001
 20
866.7916666666667
 30
0.0
 11
-531.9000000000001
 21
797.8970651718732
 31
0.0
  0
ARC
  5
1CE
  8
DIMNSIONS
  6
CONTINUOUS
 62
     7
 10
-531.9000000000001
 20
992.5596503214911
 30
0.0
 40
179.6625851496178
 50
270.0
 51
310.0000000000001
  0
LINE
  5
1CF
  8
DIMNSIONS
  6
CONTINUOUS
 62
     7
 10
-416.4151163415727
 20
854.9301253312362
 30
0.0
 11
-434.2283297089102
 21
829.4902201670012
 31
0.0
  0
LINE
  5
1D0
  8
DIMNSIONS
  6
CONTINUOUS
 62
     7
 10
-416.4151163415727
 20
854.9301253312362
 30
0.0
 11
-444.561764222837
 21
841.8051278728105
 31
0.0
  0
LINE
  5
1D1
  8
DIMNSIONS
  6
CONTINUOUS
 62
     7
 10
-531.9000000000001
 20
812.8970651718732
 30
0.0
 11
-501.9018310546876
 21
820.9350503151821
 31
0.0
  0
LINE
  5
1D2
  8
DIMNSIONS
  6
CONTINUOUS
 62
     7
 10
-531.9000000000001
 20
812.8970651718732
 30
0.0
 11
-501.9018310546876
 21
804.8590800285643
 31
0.0
  0
TEXT
  5
1D3
  8
DIMNSIONS
 62
     7
 10
-526.9099608876273
 20
746.7726562751074
 30
0.0
 40
40.72102864583334
  1
40.0°
 50
20.00000000000007
 41
0.7
 11
-540.837372941444
 21
785.0379064044085
 31
0.0
 73
     3
  0
ARC
  5
1D4
  8
DIMNSIONS
  6
CONTINUOUS
 62
     7
 10
800.5
 20
831.5716666666666
 30
0.0
 40
183.8869398587649
 50
0.0
 51
90.0
  0
LINE
  5
1D5
  8
DIMNSIONS
  6
CONTINUOUS
 62
     7
 10
800.5
 20
1015.458606525432
 30
0.0
 11
830.4981689453125
 21
1023.496591668741
 31
0.0
  0
LINE
  5
1D6
  8
DIMNSIONS
  6
CONTINUOUS
 62
     7
 10
800.5
 20
1015.458606525432
 30
0.0
 11
830.4981689453125
 21
1007.420621382123
 31
0.0
  0
LINE
  5
1D7
  8
DIMNSIONS
  6
CONTINUOUS
 62
     7
 10
984.3869398587649
 20
831.5716666666666
 30
0.0
 11
976.348954715456
 21
861.5698356119791
 31
0.0
  0
LINE
  5
1D8
  8
DIMNSIONS
  6
CONTINUOUS
 62
     7
 10
984.3869398587649
 20
831.5716666666666
 30
0.0
 11
992.4249250020738
 21
861.5698356119791
 31
0.0
  0
TEXT
  5
1D9
  8
DIMNSIONS
 62
     7
 10
945.8089592688008
 20
988.7507289642226
 30
0.0
 40
40.72102864583334
  1
90.0°
 50
295.4813794080844
 41
0.7
 11
982.5688559106977
 21
1006.269637972829
 31
0.0
 73
     3
  0
LINE
  5
1DA
  8
DIMNSIONS
  6
CONTINUOUS
 62
     7
 10
-887.9124999999999
 20
879.8666666666668
 30
0.0
 11
-964.5
 21
879.8666666666668
 31
0.0
  0
LINE
  5
1DB
  8
DIMNSIONS
  6
CONTINUOUS
 62
     7
 10
-882.9124999999999
 20
1267.216666666667
 30
0.0
 11
-964.5
 21
1267.216666666667
 31
0.0
  0
LINE
  5
1DC
  8
DIMNSIONS
  6
CONTINUOUS
 62
     7
 10
-949.5
 20
879.8666666666668
 30
0.0
 11
-949.5
 21
1267.216666666667
 31
0.0
  0
LINE
  5
1DD
  8
DIMNSIONS
  6
CONTINUOUS
 62
     7
 10
-949.5
 20
879.8666666666668
 30
0.0
 11
-957.5379851433089
 21
909.8648356119793
 31
0.0
  0
LINE
  5
1DE
  8
DIMNSIONS
  6
CONTINUOUS
 62
     7
 10
-949.5
 20
879.8666666666668
 30
0.0
 11
-941.4620148566911
 21
909.8648356119793
 31
0.0
  0
LINE
  5
1DF
  8
DIMNSIONS
  6
CONTINUOUS
 62
     7
 10
-949.5
 20
1267.216666666667
 30
0.0
 11
-941.4620148566911
 21
1237.218497721354
 31
0.0
  0
LINE
  5
1E0
  8
DIMNSIONS
  6
CONTINUOUS
 62
     7
 10
-949.5
 20
1267.216666666667
 30
0.0
 11
-957.5379851433089
 21
1237.218497721354
 31
0.0
  0
TEXT
  5
1E1
  8
DIMNSIONS
 62
     7
 10
-964.4083333333334
 20
1033.854166666667
 30
0.0
 40
40.72102864583334
  1
387
 50
90.0
 41
0.7
 11
-1005.129361979167
 21
1033.854166666667
 31
0.0
 73
     3
  0
LINE
  5
1E2
  8
DIMNSIONS
  6
CONTINUOUS
 62
     7
 10
-874.9124999999999
 20
866.8666666666668
 30
0.0
 11
-874.9124999999999
 21
785.0
 31
0.0
  0
LINE
  5
1E3
  8
DIMNSIONS
  6
CONTINUOUS
 62
     7
 10
-624.0875000000001
 20
866.8666666666668
 30
0.0
 11
-624.0875000000001
 21
785.0
 31
0.0
  0
LINE
  5
1E4
  8
DIMNSIONS
  6
CONTINUOUS
 62
     7
 10
-874.9124999999999
 20
800.0
 30
0.0
 11
-624.0875000000001
 21
800.0
 31
0.0
  0
LINE
  5
1E5
  8
DIMNSIONS
  6
CONTINUOUS
 62
     7
 10
-874.9124999999999
 20
800.0
 30
0.0
 11
-844.9143310546874
 21
808.0379851433089
 31
0.0
  0
LINE
  5
1E6
  8
DIMNSIONS
  6
CONTINUOUS
 62
     7
 10
-874.9124999999999
 20
800.0
 30
0.0
 11
-844.9143310546874
 21
791.9620148566911
 31
0.0
  0
LINE
  5
1E7
  8
DIMNSIONS
  6
CONTINUOUS
 62
     7
 10
-624.0875000000001
 20
800.0
 30
0.0
 11
-654.0856689453126
 21
791.9620148566911
 31
0.0
  0
LINE
  5
1E8
  8
DIMNSIONS
  6
CONTINUOUS
 62
     7
 10
-624.0875000000001
 20
800.0
 30
0.0
 11
-654.0856689453126
 21
808.0379851433089
 31
0.0
  0
TEXT
  5
1E9
  8
DIMNSIONS
 62
     7
 10
-789.1875
 20
814.9083333333333
 30
0.0
 40
40.72102864583334
  1
251
 41
0.7
 11
-789.1875
 21
855.6293619791667
 31
0.0
 73
     3
  0
LINE
  5
1EA
  8
DIMNSIONS
  6
CONTINUOUS
 62
     7
 10
-606.5342357160561
 20
1095.468131254732
 30
0.0
 11
-606.5342357160561
 21
1447.645747067698
 31
0.0
  0
LINE
  5
1EB
  8
DIMNSIONS
  6
CONTINUOUS
 62
     7
 10
-190.4300000000001
 20
1416.541666666667
 30
0.0
 11
-190.4300000000001
 21
1447.645747067698
 31
0.0
  0
LINE
  5
1EC
  8
DIMNSIONS
  6
CONTINUOUS
 62
     7
 10
-606.5342357160561
 20
1432.645747067698
 30
0.0
 11
-190.4300000000001
 21
1432.645747067698
 31
0.0
  0
LINE
  5
1ED
  8
DIMNSIONS
  6
CONTINUOUS
 62
     7
 10
-606.5342357160561
 20
1432.645747067698
 30
0.0
 11
-576.5360667707436
 21
1440.683732211007
 31
0.0
  0
LINE
  5
1EE
  8
DIMNSIONS
  6
CONTINUOUS
 62
     7
 10
-606.5342357160561
 20
1432.645747067698
 30
0.0
 11
-576.5360667707436
 21
1424.607761924389
 31
0.0
  0
LINE
  5
1EF
  8
DIMNSIONS
  6
CONTINUOUS
 62
     7
 10
-190.4300000000001
 20
1432.645747067698
 30
0.0
 11
-220.4281689453126
 21
1424.607761924389
 31
0.0
  0
LINE
  5
1F0
  8
DIMNSIONS
  6
CONTINUOUS
 62
     7
 10
-190.4300000000001
 20
1432.645747067698
 30
0.0
 11
-220.4281689453126
 21
1440.683732211007
 31
0.0
  0
TEXT
  5
1F1
  8
DIMNSIONS
 62
     7
 10
-438.1696178580281
 20
1447.554080401032
 30
0.0
 40
40.72102864583334
  1
416
 41
0.7
 11
-438.1696178580281
 21
1488.275109046865
 31
0.0
 73
     3
  0
LINE
  5
1F2
  8
DIMNSIONS
  6
CONTINUOUS
 62
     7
 10
-1083.829077554754
 20
1546.035814671737
 30
0.0
 11
-1083.829077554754
 21
1285.0
 31
0.0
  0
LINE
  5
1F3
  8
DIMNSIONS
  6
CONTINUOUS
 62
     7
 10
-875.4124999999999
 20
1377.1
 30
0.0
 11
-875.4124999999999
 21
1285.0
 31
0.0
  0
LINE
  5
1F4
  8
DIMNSIONS
  6
CONTINUOUS
 62
     7
 10
-1083.829077554754
 20
1300.0
 30
0.0
 11
-875.4124999999999
 21
1300.0
 31
0.0
  0
LINE
  5
1F5
  8
DIMNSIONS
  6
CONTINUOUS
 62
     7
 10
-1083.829077554754
 20
1300.0
 30
0.0
 11
-1053.830908609442
 21
1308.037985143309
 31
0.0
  0
LINE
  5
1F6
  8
DIMNSIONS
  6
CONTINUOUS
 62
     7
 10
-1083.829077554754
 20
1300.0
 30
0.0
 11
-1053.830908609442
 21
1291.962014856691
 31
0.0
  0
LINE
  5
1F7
  8
DIMNSIONS
  6
CONTINUOUS
 62
     7
 10
-875.4124999999999
 20
1300.0
 30
0.0
 11
-905.4106689453124
 21
1291.962014856691
 31
0.0
  0
LINE
  5
1F8
  8
DIMNSIONS
  6
CONTINUOUS
 62
     7
 10
-875.4124999999999
 20
1300.0
 30
0.0
 11
-905.4106689453124
 21
1308.037985143309
 31
0.0
  0
TEXT
  5
1F9
  8
DIMNSIONS
 62
     7
 10
-1019.308288777377
 20
1314.908333333334
 30
0.0
 40
40.72102864583334
  1
208
 41
0.7
 11
-1019.308288777377
 21
1355.629361979167
 31
0.0
 73
     3
  0
LINE
  5
1FA
  8
DIMNSIONS
  6
CONTINUOUS
 62
     7
 10
-993.0
 20
1375.0
 30
0.0
 11
-1122.233179335527
 21
1375.0
 31
0.0
  0
ARC
  5
1FB
  8
DIMNSIONS
  6
CONTINUOUS
 62
     7
 10
-894.7932628830174
 20
1375.0
 30
0.0
 40
212.4399164525097
 50
135.0
 51
180.0
  0
LINE
  5
1FC
  8
DIMNSIONS
  6
CONTINUOUS
 62
     7
 10
-1107.233179335527
 20
1375.0
 30
0.0
 11
-1115.271164478836
 21
1404.998168945312
 31
0.0
  0
LINE
  5
1FD
  8
DIMNSIONS
  6
CONTINUOUS
 62
     7
 10
-1107.233179335527
 20
1375.0
 30
0.0
 11
-1099.195194192218
 21
1404.998168945312
 31
0.0
  0
LINE
  5
1FE
  8
DIMNSIONS
  6
CONTINUOUS
 62
     7
 10
-1045.01096840129
 20
1525.217705518273
 30
0.0
 11
-1061.006191599512
 21
1498.597183733856
 31
0.0
  0
LINE
  5
1FF
  8
DIMNSIONS
  6
CONTINUOUS
 62
     7
 10
-1045.01096840129
 20
1525.217705518273
 30
0.0
 11
-1072.173498922361
 21
1510.161268990082
 31
0.0
  0
TEXT
  5
200
  8
DIMNSIONS
 62
     7
 10
-1135.490108015831
 20
1382.255759698088
 30
0.0
 40
40.72102864583334
  1
45.0°
 50
69.02752254403946
 41
0.7
 11
-1173.513468852747
 21
1396.830608055463
 31
0.0
 73
     3
  0
LINE
  5
201
  8
DIMNSIONS
  6
CONTINUOUS
 62
     7
 10
286.3929137078623
 20
1465.467784409262
 30
0.0
 11
164.1399109968617
 21
1551.070258476277
 31
0.0
  0
LINE
  5
202
  8
DIMNSIONS
  6
CONTINUOUS
 62
     7
 10
345.7018487200852
 20
1392.6
 30
0.0
 11
114.174430425952
 21
1392.6
 31
0.0
  0
ARC
  5
203
  8
DIMNSIONS
  6
CONTINUOUS
 62
     7
 10
390.4588947676637
 20
1392.6
 30
0.0
 40
261.2844643417117
 50
144.9999999999999
 51
180.0
  0
LINE
  5
204
  8
DIMNSIONS
  6
CONTINUOUS
 62
     7
 10
129.174430425952
 20
1392.6
 30
0.0
 11
121.1364452826431
 21
1422.598168945312
 31
0.0
  0
LINE
  5
205
  8
DIMNSIONS
  6
CONTINUOUS
 62
     7
 10
129.174430425952
 20
1392.6
 30
0.0
 11
137.2124155692609
 21
1422.598168945312
 31
0.0
  0
LINE
  5
206
  8
DIMNSIONS
  6
CONTINUOUS
 62
     7
 10
176.4271916611966
 20
1542.466611931011
 30
0.0
 11
165.2975769408341
 21
1513.47297432874
 31
0.0
  0
LINE
  5
207
  8
DIMNSIONS
  6
CONTINUOUS
 62
     7
 10
176.4271916611966
 20
1542.466611931011
 30
0.0
 11
152.2918437778936
 21
1522.922192579505
 31
0.0
  0
TEXT
  5
208
  8
DIMNSIONS
 62
     7
 10
103.1806191147461
 20
1399.951493076556
 30
0.0
 40
40.72102864583334
  1
35.0°
 50
72.49999999999994
 41
0.7
 11
64.34428384331073
 21
1412.196542552138
 31
0.0
 73
     3
  0
LINE
  5
209
  8
DIMNSIONS
  6
CONTINUOUS
 62
     7
 10
306.825
 20
1377.1
 30
0.0
 11
306.825
 21
1285.0
 31
0.0
  0
LINE
  5
20A
  8
DIMNSIONS
  6
CONTINUOUS
 62
     7
 10
142.5076670910595
 20
1539.67189660618
 30
0.0
 11
142.5076670910595
 21
1285.0
 31
0.0
  0
LINE
  5
20B
  8
DIMNSIONS
  6
CONTINUOUS
 62
     7
 10
306.825
 20
1300.0
 30
0.0
 11
142.5076670910595
 21
1300.0
 31
0.0
  0
LINE
  5
20C
  8
DIMNSIONS
  6
CONTINUOUS
 62
     7
 10
306.825
 20
1300.0
 30
0.0
 11
276.8268310546875
 21
1291.962014856691
 31
0.0
  0
LINE
  5
20D
  8
DIMNSIONS
  6
CONTINUOUS
 62
     7
 10
306.825
 20
1300.0
 30
0.0
 11
276.8268310546875
 21
1308.037985143309
 31
0.0
  0
LINE
  5
20E
  8
DIMNSIONS
  6
CONTINUOUS
 62
     7
 10
142.5076670910595
 20
1300.0
 30
0.0
 11
172.505836036372
 21
1308.037985143309
 31
0.0
  0
LINE
  5
20F
  8
DIMNSIONS
  6
CONTINUOUS
 62
     7
 10
142.5076670910595
 20
1300.0
 30
0.0
 11
172.505836036372
 21
1291.962014856691
 31
0.0
  0
TEXT
  5
210
  8
DIMNSIONS
 62
     7
 10
184.9788335455298
 20
1314.908333333334
 30
0.0
 40
40.72102864583334
  1
164
 41
0.7
 11
184.9788335455298
 21
1355.629361979167
 31
0.0
 73
     3
  0
LINE
  5
211
  8
DIMNSIONS
  6
CONTINUOUS
 62
     7
 10
-575.9999999999998
 20
-1016.840925
 30
0.0
 11
-575.9999999999998
 21
-1227.5
 31
0.0
  0
LINE
  5
212
  8
DIMNSIONS
  6
CONTINUOUS
 62
     7
 10
-423.9999999999998
 20
-1016.840925
 30
0.0
 11
-423.9999999999998
 21
-1227.5
 31
0.0
  0
LINE
  5
213
  8
DIMNSIONS
  6
CONTINUOUS
 62
     7
 10
-575.9999999999998
 20
-1212.5
 30
0.0
 11
-664.6875
 21
-1212.5
 31
0.0
  0
LINE
  5
214
  8
DIMNSIONS
  6
CONTINUOUS
 62
     7
 10
-575.9999999999998
 20
-1212.5
 30
0.0
 11
-423.9999999999998
 21
-1212.5
 31
0.0
  0
LINE
  5
215
  8
DIMNSIONS
  6
CONTINUOUS
 62
     7
 10
-575.9999999999998
 20
-1212.5
 30
0.0
 11
-546.0018310546873
 21
-1204.462014856691
 31
0.0
  0
LINE
  5
216
  8
DIMNSIONS
  6
CONTINUOUS
 62
     7
 10
-575.9999999999998
 20
-1212.5
 30
0.0
 11
-546.0018310546873
 21
-1220.537985143309
 31
0.0
  0
LINE
  5
217
  8
DIMNSIONS
  6
CONTINUOUS
 62
     7
 10
-423.9999999999998
 20
-1212.5
 30
0.0
 11
-453.9981689453123
 21
-1220.537985143309
 31
0.0
  0
LINE
  5
218
  8
DIMNSIONS
  6
CONTINUOUS
 62
     7
 10
-423.9999999999998
 20
-1212.5
 30
0.0
 11
-453.9981689453123
 21
-1204.462014856691
 31
0.0
  0
TEXT
  5
219
  8
DIMNSIONS
 62
     7
 10
-664.6875
 20
-1197.591666666666
 30
0.0
 40
40.72102864583334
  1
152
 41
0.7
 11
-664.6875
 21
-1156.870638020833
 31
0.0
 73
     3
  0
LINE
  5
21A
  8
DIMNSIONS
  6
CONTINUOUS
 62
     7
 10
-538.8
 20
-1094.085925
 30
0.0
 11
-538.8
 21
-1190.0
 31
0.0
  0
LINE
  5
21B
  8
DIMNSIONS
  6
CONTINUOUS
 62
     7
 10
-461.2
 20
-1094.085925
 30
0.0
 11
-461.2
 21
-1190.0
 31
0.0
  0
LINE
  5
21C
  8
DIMNSIONS
  6
CONTINUOUS
 62
     7
 10
-461.2
 20
-1175.0
 30
0.0
 11
-304.4444444444445
 21
-1175.0
 31
0.0
  0
LINE
  5
21D
  8
DIMNSIONS
  6
CONTINUOUS
 62
     7
 10
-538.8
 20
-1175.0
 30
0.0
 11
-461.2
 21
-1175.0
 31
0.0
  0
LINE
  5
21E
  8
DIMNSIONS
  6
CONTINUOUS
 62
     7
 10
-538.8
 20
-1175.0
 30
0.0
 11
-508.8018310546875
 21
-1166.962014856691
 31
0.0
  0
LINE
  5
21F
  8
DIMNSIONS
  6
CONTINUOUS
 62
     7
 10
-538.8
 20
-1175.0
 30
0.0
 11
-508.8018310546875
 21
-1183.037985143309
 31
0.0
  0
LINE
  5
220
  8
DIMNSIONS
  6
CONTINUOUS
 62
     7
 10
-461.2
 20
-1175.0
 30
0.0
 11
-491.1981689453125
 21
-1183.037985143309
 31
0.0
  0
LINE
  5
221
  8
DIMNSIONS
  6
CONTINUOUS
 62
     7
 10
-461.2
 20
-1175.0
 30
0.0
 11
-491.1981689453125
 21
-1166.962014856691
 31
0.0
  0
TEXT
  5
222
  8
DIMNSIONS
 62
     7
 10
-410.2777777777778
 20
-1160.091666666666
 30
0.0
 40
40.72102864583334
  1
77.6
 41
0.7
 11
-410.2777777777778
 21
-1119.370638020833
 31
0.0
 73
     3
  0
LINE
  5
223
  8
DIMNSIONS
  6
CONTINUOUS
 62
     7
 10
-551.8
 20
-1081.085925
 30
0.0
 11
-627.5
 21
-1081.085925
 31
0.0
  0
LINE
  5
224
  8
DIMNSIONS
  6
CONTINUOUS
 62
     7
 10
-590.9999999999998
 20
-912.8409249999997
 30
0.0
 11
-627.5
 21
-912.8409249999997
 31
0.0
  0
LINE
  5
225
  8
DIMNSIONS
  6
CONTINUOUS
 62
     7
 10
-612.5
 20
-1081.085925
 30
0.0
 11
-612.5
 21
-912.8409249999997
 31
0.0
  0
LINE
  5
226
  8
DIMNSIONS
  6
CONTINUOUS
 62
     7
 10
-612.5
 20
-1081.085925
 30
0.0
 11
-620.5379851433089
 21
-1051.087756054687
 31
0.0
  0
LINE
  5
227
  8
DIMNSIONS
  6
CONTINUOUS
 62
     7
 10
-612.5
 20
-1081.085925
 30
0.0
 11
-604.4620148566911
 21
-1051.087756054687
 31
0.0
  0
LINE
  5
228
  8
DIMNSIONS
  6
CONTINUOUS
 62
     7
 10
-612.5
 20
-912.8409249999997
 30
0.0
 11
-604.4620148566911
 21
-942.8390939453122
 31
0.0
  0
LINE
  5
229
  8
DIMNSIONS
  6
CONTINUOUS
 62
     7
 10
-612.5
 20
-912.8409249999997
 30
0.0
 11
-620.5379851433089
 21
-942.8390939453122
 31
0.0
  0
TEXT
  5
22A
  8
DIMNSIONS
 62
     7
 10
-627.4083333333334
 20
-1036.650925
 30
0.0
 40
40.72102864583334
  1
168
 50
90.0
 41
0.7
 11
-668.1293619791668
 21
-1036.650925
 31
0.0
 73
     3
  0
LINE
  5
22B
  8
DIMNSIONS
  6
CONTINUOUS
 62
     7
 10
-593.9999999999998
 20
-875.0
 30
0.0
 11
-627.5
 21
-875.0
 31
0.0
  0
LINE
  5
22C
  8
DIMNSIONS
  6
CONTINUOUS
 62
     7
 10
-556.8
 20
-743.4000000000001
 30
0.0
 11
-627.5
 21
-743.4000000000001
 31
0.0
  0
LINE
  5
22D
  8
DIMNSIONS
  6
CONTINUOUS
 62
     7
 10
-612.5
 20
-875.0
 30
0.0
 11
-612.5
 21
-743.4000000000001
 31
0.0
  0
LINE
  5
22E
  8
DIMNSIONS
  6
CONTINUOUS
 62
     7
 10
-612.5
 20
-875.0
 30
0.0
 11
-620.5379851433089
 21
-845.0018310546875
 31
0.0
  0
LINE
  5
22F
  8
DIMNSIONS
  6
CONTINUOUS
 62
     7
 10
-612.5
 20
-875.0
 30
0.0
 11
-604.4620148566911
 21
-845.0018310546875
 31
0.0
  0
LINE
  5
230
  8
DIMNSIONS
  6
CONTINUOUS
 62
     7
 10
-612.5
 20
-743.4000000000001
 30
0.0
 11
-604.4620148566911
 21
-773.3981689453126
 31
0.0
  0
LINE
  5
231
  8
DIMNSIONS
  6
CONTINUOUS
 62
     7
 10
-612.5
 20
-743.4000000000001
 30
0.0
 11
-620.5379851433089
 21
-773.3981689453126
 31
0.0
  0
TEXT
  5
232
  8
DIMNSIONS
 62
     7
 10
-627.4083333333334
 20
-848.8875
 30
0.0
 40
40.72102864583334
  1
132
 50
90.0
 41
0.7
 11
-668.1293619791668
 21
-848.8875
 31
0.0
 73
     3
  0
LINE
  5
233
  8
DIMNSIONS
  6
CONTINUOUS
 62
     7
 10
900.2499999999993
 20
-494.425
 30
0.0
 11
1065.0
 21
-494.425
 31
0.0
  0
LINE
  5
234
  8
DIMNSIONS
  6
CONTINUOUS
 62
     7
 10
900.2499999999993
 20
-405.575
 30
0.0
 11
1065.0
 21
-405.575
 31
0.0
  0
LINE
  5
235
  8
DIMNSIONS
  6
CONTINUOUS
 62
     7
 10
1050.0
 20
-405.575
 30
0.0
 11
1050.0
 21
-287.2416666665667
 31
0.0
  0
LINE
  5
236
  8
DIMNSIONS
  6
CONTINUOUS
 62
     7
 10
1050.0
 20
-494.425
 30
0.0
 11
1050.0
 21
-405.575
 31
0.0
  0
LINE
  5
237
  8
DIMNSIONS
  6
CONTINUOUS
 62
     7
 10
1050.0
 20
-494.425
 30
0.0
 11
1041.962014856691
 21
-464.4268310546875
 31
0.0
  0
LINE
  5
238
  8
DIMNSIONS
  6
CONTINUOUS
 62
     7
 10
1050.0
 20
-494.425
 30
0.0
 11
1058.037985143309
 21
-464.4268310546875
 31
0.0
  0
LINE
  5
239
  8
DIMNSIONS
  6
CONTINUOUS
 62
     7
 10
1050.0
 20
-405.575
 30
0.0
 11
1058.037985143309
 21
-435.5731689453125
 31
0.0
  0
LINE
  5
23A
  8
DIMNSIONS
  6
CONTINUOUS
 62
     7
 10
1050.0
 20
-405.575
 30
0.0
 11
1041.962014856691
 21
-435.5731689453125
 31
0.0
  0
TEXT
  5
23B
  8
DIMNSIONS
 62
     7
 10
1035.091666666667
 20
-393.0749999999
 30
0.0
 40
40.72102864583334
  1
88.9
 50
90.0
 41
0.7
 11
994.3706380208333
 21
-393.0749999999
 31
0.0
 73
     3
  0
LINE
  5
23C
  8
DIMNSIONS
  6
CONTINUOUS
 62
     7
 10
817.7500000000007
 20
-387.575
 30
0.0
 11
817.7500000000007
 21
-360.0
 31
0.0
  0
LINE
  5
23D
  8
DIMNSIONS
  6
CONTINUOUS
 62
     7
 10
882.2499999999993
 20
-387.575
 30
0.0
 11
882.2499999999993
 21
-360.0
 31
0.0
  0
LINE
  5
23E
  8
DIMNSIONS
  6
CONTINUOUS
 62
     7
 10
817.7500000000007
 20
-375.0
 30
0.0
 11
882.2499999999993
 21
-375.0
 31
0.0
  0
LINE
  5
23F
  8
DIMNSIONS
  6
CONTINUOUS
 62
     7
 10
817.7500000000007
 20
-375.0
 30
0.0
 11
847.7481689453132
 21
-366.9620148566912
 31
0.0
  0
LINE
  5
240
  8
DIMNSIONS
  6
CONTINUOUS
 62
     7
 10
817.7500000000007
 20
-375.0
 30
0.0
 11
847.7481689453132
 21
-383.0379851433088
 31
0.0
  0
LINE
  5
241
  8
DIMNSIONS
  6
CONTINUOUS
 62
     7
 10
882.2499999999993
 20
-375.0
 30
0.0
 11
852.2518310546868
 21
-383.0379851433089
 31
0.0
  0
LINE
  5
242
  8
DIMNSIONS
  6
CONTINUOUS
 62
     7
 10
882.2499999999993
 20
-375.0
 30
0.0
 11
852.2518310546868
 21
-366.9620148566912
 31
0.0
  0
TEXT
  5
243
  8
DIMNSIONS
 62
     7
 10
797.0833333333334
 20
-352.5916666666667
 30
0.0
 40
40.72102864583334
  1
64.5
 41
0.7
 11
797.0833333333334
 21
-311.8706380208333
 31
0.0
 73
     3
  0
LINE
  5
244
  8
DIMNSIONS
  6
CONTINUOUS
 62
     7
 10
884.1401033586333
 20
-496.8821343662241
 30
0.0
 11
924.9999999999999
 21
-550.0
 31
0.0
  0
LINE
  5
245
  8
DIMNSIONS
  6
CONTINUOUS
 62
     7
 10
884.1401033586333
 20
-496.8821343662241
 30
0.0
 11
908.9428390388312
 21
-515.5723362916664
 31
0.0
  0
LINE
  5
246
  8
DIMNSIONS
  6
CONTINUOUS
 62
     7
 10
884.1401033586333
 20
-496.8821343662241
 30
0.0
 11
896.2748015783143
 21
-525.4696918756168
 31
0.0
  0
LINE
  5
247
  8
DIMNSIONS
  6
CONTINUOUS
 62
     7
 10
924.9999999999999
 20
-550.0
 30
0.0
 11
954.9999999999999
 21
-550.0
 31
0.0
  0
TEXT
  5
248
  8
DIMNSIONS
 62
     7
 10
955.0
 20
-569.0500000000001
 30
0.0
 40
40.72102864583334
  1
φ6.2(4ヵ所)
 41
0.7
 11
955.0
 21
-528.3289713541667
 31
0.0
 73
     3
  0
LINE
  5
249
  8
DIMNSIONS
  6
CONTINUOUS
 62
     7
 10
287.5000000000002
 20
-857.3409249999997
 30
0.0
 11
197.5
 21
-857.3409249999997
 31
0.0
  0
LINE
  5
24A
  8
DIMNSIONS
  6
CONTINUOUS
 62
     7
 10
293.2
 20
-711.2409249999998
 30
0.0
 11
197.5
 21
-711.2409249999998
 31
0.0
  0
LINE
  5
24B
  8
DIMNSIONS
  6
CONTINUOUS
 62
     7
 10
212.5
 20
-857.3409249999997
 30
0.0
 11
212.5
 21
-711.2409249999998
 31
0.0
  0
LINE
  5
24C
  8
DIMNSIONS
  6
CONTINUOUS
 62
     7
 10
212.5
 20
-857.3409249999997
 30
0.0
 11
204.4620148566911
 21
-827.3427560546872
 31
0.0
  0
LINE
  5
24D
  8
DIMNSIONS
  6
CONTINUOUS
 62
     7
 10
212.5
 20
-857.3409249999997
 30
0.0
 11
220.5379851433089
 21
-827.3427560546872
 31
0.0
  0
LINE
  5
24E
  8
DIMNSIONS
  6
CONTINUOUS
 62
     7
 10
212.5
 20
-711.2409249999998
 30
0.0
 11
220.5379851433089
 21
-741.2390939453123
 31
0.0
  0
LINE
  5
24F
  8
DIMNSIONS
  6
CONTINUOUS
 62
     7
 10
212.5
 20
-711.2409249999998
 30
0.0
 11
204.4620148566911
 21
-741.2390939453123
 31
0.0
  0
TEXT
  5
250
  8
DIMNSIONS
 62
     7
 10
197.5916666666666
 20
-823.9784249999998
 30
0.0
 40
40.72102864583334
  1
146
 50
90.0
 41
0.7
 11
156.8706380208333
 21
-823.9784249999998
 31
0.0
 73
     3
  0
LINE
  5
251
  8
DIMNSIONS
  6
CONTINUOUS
 62
     7
 10
290.5000000000002
 20
-881.3409249999997
 30
0.0
 11
260.0
 21
-881.3409249999997
 31
0.0
  0
LINE
  5
252
  8
DIMNSIONS
  6
CONTINUOUS
 62
     7
 10
290.5000000000002
 20
-1033.340925
 30
0.0
 11
260.0
 21
-1033.340925
 31
0.0
  0
LINE
  5
253
  8
DIMNSIONS
  6
CONTINUOUS
 62
     7
 10
275.0
 20
-881.3409249999997
 30
0.0
 11
275.0
 21
-1033.340925
 31
0.0
  0
LINE
  5
254
  8
DIMNSIONS
  6
CONTINUOUS
 62
     7
 10
275.0
 20
-881.3409249999997
 30
0.0
 11
283.0379851433088
 21
-911.3390939453122
 31
0.0
  0
LINE
  5
255
  8
DIMNSIONS
  6
CONTINUOUS
 62
     7
 10
275.0
 20
-881.3409249999997
 30
0.0
 11
266.9620148566912
 21
-911.3390939453122
 31
0.0
  0
LINE
  5
256
  8
DIMNSIONS
  6
CONTINUOUS
 62
     7
 10
275.0
 20
-1033.340925
 30
0.0
 11
266.9620148566912
 21
-1003.342756054687
 31
0.0
  0
LINE
  5
257
  8
DIMNSIONS
  6
CONTINUOUS
 62
     7
 10
275.0
 20
-1033.340925
 30
0.0
 11
283.0379851433088
 21
-1003.342756054687
 31
0.0
  0
TEXT
  5
258
  8
DIMNSIONS
 62
     7
 10
260.0916666666666
 20
-997.0284249999997
 30
0.0
 40
40.72102864583334
  1
152
 50
90.0
 41
0.7
 11
219.3706380208333
 21
-997.0284249999997
 31
0.0
 73
     3
  0
LINE
  5
259
  8
DIMNSIONS
  6
CONTINUOUS
 62
     7
 10
290.5000000000002
 20
-881.3409249999997
 30
0.0
 11
197.5
 21
-881.3409249999997
 31
0.0
  0
LINE
  5
25A
  8
DIMNSIONS
  6
CONTINUOUS
 62
     7
 10
298.2
 20
-1104.585925
 30
0.0
 11
197.5
 21
-1104.585925
 31
0.0
  0
LINE
  5
25B
  8
DIMNSIONS
  6
CONTINUOUS
 62
     7
 10
212.5
 20
-881.3409249999997
 30
0.0
 11
212.5
 21
-1104.585925
 31
0.0
  0
LINE
  5
25C
  8
DIMNSIONS
  6
CONTINUOUS
 62
     7
 10
212.5
 20
-881.3409249999997
 30
0.0
 11
220.5379851433089
 21
-911.3390939453122
 31
0.0
  0
LINE
  5
25D
  8
DIMNSIONS
  6
CONTINUOUS
 62
     7
 10
212.5
 20
-881.3409249999997
 30
0.0
 11
204.4620148566911
 21
-911.3390939453122
 31
0.0
  0
LINE
  5
25E
  8
DIMNSIONS
  6
CONTINUOUS
 62
     7
 10
212.5
 20
-1104.585925
 30
0.0
 11
204.4620148566911
 21
-1074.587756054687
 31
0.0
  0
LINE
  5
25F
  8
DIMNSIONS
  6
CONTINUOUS
 62
     7
 10
212.5
 20
-1104.585925
 30
0.0
 11
220.5379851433089
 21
-1074.587756054687
 31
0.0
  0
TEXT
  5
260
  8
DIMNSIONS
 62
     7
 10
197.5916666666666
 20
-1032.650925
 30
0.0
 40
40.72102864583334
  1
223
 50
90.0
 41
0.7
 11
156.8706380208333
 21
-1032.650925
 31
0.0
 73
     3
  0
LINE
  5
261
  8
DIMNSIONS
  6
CONTINUOUS
 62
     7
 10
311.2
 20
-1117.585925
 30
0.0
 11
311.2
 21
-1190.0
 31
0.0
  0
LINE
  5
262
  8
DIMNSIONS
  6
CONTINUOUS
 62
     7
 10
388.8
 20
-1117.585925
 30
0.0
 11
388.8
 21
-1190.0
 31
0.0
  0
LINE
  5
263
  8
DIMNSIONS
  6
CONTINUOUS
 62
     7
 10
388.8
 20
-1175.0
 30
0.0
 11
508.0555555555555
 21
-1175.0
 31
0.0
  0
LINE
  5
264
  8
DIMNSIONS
  6
CONTINUOUS
 62
     7
 10
311.2
 20
-1175.0
 30
0.0
 11
388.8
 21
-1175.0
 31
0.0
  0
LINE
  5
265
  8
DIMNSIONS
  6
CONTINUOUS
 62
     7
 10
311.2
 20
-1175.0
 30
0.0
 11
341.1981689453125
 21
-1166.962014856691
 31
0.0
  0
LINE
  5
266
  8
DIMNSIONS
  6
CONTINUOUS
 62
     7
 10
311.2
 20
-1175.0
 30
0.0
 11
341.1981689453125
 21
-1183.037985143309
 31
0.0
  0
LINE
  5
267
  8
DIMNSIONS
  6
CONTINUOUS
 62
     7
 10
388.8
 20
-1175.0
 30
0.0
 11
358.8018310546875
 21
-1183.037985143309
 31
0.0
  0
LINE
  5
268
  8
DIMNSIONS
  6
CONTINUOUS
 62
     7
 10
388.8
 20
-1175.0
 30
0.0
 11
358.8018310546875
 21
-1166.962014856691
 31
0.0
  0
TEXT
  5
269
  8
DIMNSIONS
 62
     7
 10
402.2222222222222
 20
-1160.091666666666
 30
0.0
 40
40.72102864583334
  1
77.6
 41
0.7
 11
402.2222222222222
 21
-1119.370638020833
 31
0.0
 73
     3
  0
LINE
  5
26A
  8
DIMNSIONS
  6
CONTINUOUS
 62
     7
 10
305.5000000000002
 20
-1048.340925
 30
0.0
 11
305.5000000000002
 21
-1227.5
 31
0.0
  0
LINE
  5
26B
  8
DIMNSIONS
  6
CONTINUOUS
 62
     7
 10
394.5000000000002
 20
-1048.340925
 30
0.0
 11
394.5000000000002
 21
-1227.5
 31
0.0
  0
LINE
  5
26C
  8
DIMNSIONS
  6
CONTINUOUS
 62
     7
 10
305.5000000000002
 20
-1212.5
 30
0.0
 11
184.5833333333335
 21
-1212.5
 31
0.0
  0
LINE
  5
26D
  8
DIMNSIONS
  6
CONTINUOUS
 62
     7
 10
305.5000000000002
 20
-1212.5
 30
0.0
 11
394.5000000000002
 21
-1212.5
 31
0.0
  0
LINE
  5
26E
  8
DIMNSIONS
  6
CONTINUOUS
 62
     7
 10
305.5000000000002
 20
-1212.5
 30
0.0
 11
335.4981689453127
 21
-1204.462014856691
 31
0.0
  0
LINE
  5
26F
  8
DIMNSIONS
  6
CONTINUOUS
 62
     7
 10
305.5000000000002
 20
-1212.5
 30
0.0
 11
335.4981689453127
 21
-1220.537985143309
 31
0.0
  0
LINE
  5
270
  8
DIMNSIONS
  6
CONTINUOUS
 62
     7
 10
394.5000000000002
 20
-1212.5
 30
0.0
 11
364.5018310546877
 21
-1220.537985143309
 31
0.0
  0
LINE
  5
271
  8
DIMNSIONS
  6
CONTINUOUS
 62
     7
 10
394.5000000000002
 20
-1212.5
 30
0.0
 11
364.5018310546877
 21
-1204.462014856691
 31
0.0
  0
TEXT
  5
272
  8
DIMNSIONS
 62
     7
 10
184.5833333333335
 20
-1197.591666666666
 30
0.0
 40
40.72102864583334
  1
89.0
 41
0.7
 11
184.5833333333335
 21
-1156.870638020833
 31
0.0
 73
     3
  0
LINE
  5
273
  8
DIMNSIONS
  6
CONTINUOUS
 62
     7
 10
798.2
 20
-399.05
 30
0.0
 11
760.0
 21
-399.05
 31
0.0
  0
LINE
  5
274
  8
DIMNSIONS
  6
CONTINUOUS
 62
     7
 10
798.2
 20
-500.95
 30
0.0
 11
760.0
 21
-500.95
 31
0.0
  0
LINE
  5
275
  8
DIMNSIONS
  6
CONTINUOUS
 62
     7
 10
775.0
 20
-399.05
 30
0.0
 11
775.0
 21
-500.95
 31
0.0
  0
LINE
  5
276
  8
DIMNSIONS
  6
CONTINUOUS
 62
     7
 10
775.0
 20
-399.05
 30
0.0
 11
783.0379851433089
 21
-429.0481689453125
 31
0.0
  0
LINE
  5
277
  8
DIMNSIONS
  6
CONTINUOUS
 62
     7
 10
775.0
 20
-399.05
 30
0.0
 11
766.9620148566911
 21
-429.0481689453125
 31
0.0
  0
LINE
  5
278
  8
DIMNSIONS
  6
CONTINUOUS
 62
     7
 10
775.0
 20
-500.95
 30
0.0
 11
766.9620148566911
 21
-470.9518310546875
 31
0.0
  0
LINE
  5
279
  8
DIMNSIONS
  6
CONTINUOUS
 62
     7
 10
775.0
 20
-500.95
 30
0.0
 11
783.0379851433089
 21
-470.9518310546875
 31
0.0
  0
TEXT
  5
27A
  8
DIMNSIONS
 62
     7
 10
760.0916666666666
 20
-489.6875
 30
0.0
 40
40.72102864583334
  1
102
 50
90.0
 41
0.7
 11
719.3706380208332
 21
-489.6875
 31
0.0
 73
     3
  0
LINE
  5
27B
  8
DIMNSIONS
  6
CONTINUOUS
 62
     7
 10
811.2
 20
-513.95
 30
0.0
 11
811.2
 21
-590.0
 31
0.0
  0
LINE
  5
27C
  8
DIMNSIONS
  6
CONTINUOUS
 62
     7
 10
888.8
 20
-513.95
 30
0.0
 11
888.8
 21
-590.0
 31
0.0
  0
LINE
  5
27D
  8
DIMNSIONS
  6
CONTINUOUS
 62
     7
 10
811.2
 20
-575.0
 30
0.0
 11
692.8666666665667
 21
-575.0
 31
0.0
  0
LINE
  5
27E
  8
DIMNSIONS
  6
CONTINUOUS
 62
     7
 10
811.2
 20
-575.0
 30
0.0
 11
888.8
 21
-575.0
 31
0.0
  0
LINE
  5
27F
  8
DIMNSIONS
  6
CONTINUOUS
 62
     7
 10
811.2
 20
-575.0
 30
0.0
 11
841.1981689453125
 21
-566.9620148566911
 31
0.0
  0
LINE
  5
280
  8
DIMNSIONS
  6
CONTINUOUS
 62
     7
 10
811.2
 20
-575.0
 30
0.0
 11
841.1981689453125
 21
-583.0379851433089
 31
0.0
  0
LINE
  5
281
  8
DIMNSIONS
  6
CONTINUOUS
 62
     7
 10
888.8
 20
-575.0
 30
0.0
 11
858.8018310546875
 21
-583.0379851433089
 31
0.0
  0
LINE
  5
282
  8
DIMNSIONS
  6
CONTINUOUS
 62
     7
 10
888.8
 20
-575.0
 30
0.0
 11
858.8018310546875
 21
-566.9620148566911
 31
0.0
  0
TEXT
  5
283
  8
DIMNSIONS
 62
     7
 10
692.8666666665669
 20
-560.0916666666667
 30
0.0
 40
40.72102864583334
  1
77.6
 41
0.7
 11
692.8666666665669
 21
-519.3706380208333
 31
0.0
 73
     3
  0
TEXT
  5
284
  8
DIMNSIONS
 62
     7
 10
902.9166666666666
 20
-320.4183333333333
 30
0.0
 40
28.50472005208333
  1
※1
 41
0.7
 11
902.9166666666666
 21
-291.91361328125
 31
0.0
 73
     3
  0
TEXT
  5
285
  8
DIMNSIONS
 62
     7
 10
1002.918333333333
 20
-287.2416666665667
 30
0.0
 40
28.50472005208333
  1
※1
 50
90.0
 41
0.7
 11
974.41361328125
 21
-287.2416666665667
 31
0.0
 73
     3
  0
TEXT
  5
286
  8
DIMNSIONS
 62
     7
 10
-304.4444444444443
 20
-1127.918333333333
 30
0.0
 40
28.50472005208333
  1
※1
 41
0.7
 11
-304.4444444444443
 21
-1099.41361328125
 31
0.0
 73
     3
  0
TEXT
  5
287
  8
DIMNSIONS
 62
     7
 10
508.0555555555555
 20
-1127.918333333333
 30
0.0
 40
28.50472005208333
  1
※1
 41
0.7
 11
508.0555555555555
 21
-1099.41361328125
 31
0.0
 73
     3
  0
LINE
  5
288
  8
DIMNSIONS
  6
CONTINUOUS
 62
     7
 10
-408.9999999999998
 20
-912.8409249999997
 30
0.0
 11
-335.0
 21
-912.8409249999997
 31
0.0
  0
LINE
  5
289
  8
DIMNSIONS
  6
CONTINUOUS
 62
     7
 10
-408.9999999999998
 20
-1001.840925
 30
0.0
 11
-335.0
 21
-1001.840925
 31
0.0
  0
LINE
  5
28A
  8
DIMNSIONS
  6
CONTINUOUS
 62
     7
 10
-350.0
 20
-912.8409249999997
 30
0.0
 11
-350.0
 21
-791.9242583333331
 31
0.0
  0
LINE
  5
28B
  8
DIMNSIONS
  6
CONTINUOUS
 62
     7
 10
-350.0
 20
-912.8409249999997
 30
0.0
 11
-350.0
 21
-1001.840925
 31
0.0
  0
LINE
  5
28C
  8
DIMNSIONS
  6
CONTINUOUS
 62
     7
 10
-350.0
 20
-912.8409249999997
 30
0.0
 11
-341.9620148566912
 21
-942.8390939453122
 31
0.0
  0
LINE
  5
28D
  8
DIMNSIONS
  6
CONTINUOUS
 62
     7
 10
-350.0
 20
-912.8409249999997
 30
0.0
 11
-358.0379851433088
 21
-942.8390939453122
 31
0.0
  0
LINE
  5
28E
  8
DIMNSIONS
  6
CONTINUOUS
 62
     7
 10
-350.0
 20
-1001.840925
 30
0.0
 11
-358.0379851433088
 21
-971.8427560546872
 31
0.0
  0
LINE
  5
28F
  8
DIMNSIONS
  6
CONTINUOUS
 62
     7
 10
-350.0
 20
-1001.840925
 30
0.0
 11
-341.9620148566912
 21
-971.8427560546872
 31
0.0
  0
TEXT
  5
290
  8
DIMNSIONS
 62
     7
 10
-364.9083333333333
 20
-897.7575916666666
 30
0.0
 40
40.72102864583334
  1
89.0
 50
90.0
 41
0.7
 11
-405.6293619791667
 21
-897.7575916666666
 31
0.0
 73
     3
  0
LINE
  5
291
  8
DIMNSIONS
  6
CONTINUOUS
 62
     7
 10
-889.75
 20
1375.0
 30
0.0
 11
-1190.0
 21
1375.0
 31
0.0
  0
LINE
  5
292
  8
DIMNSIONS
  6
CONTINUOUS
 62
     7
 10
-843.603125
 20
1604.07
 30
0.0
 11
-1190.0
 21
1604.07
 31
0.0
  0
LINE
  5
293
  8
DIMNSIONS
  6
CONTINUOUS
 62
     7
 10
-1175.0
 20
1375.0
 30
0.0
 11
-1175.0
 21
1604.07
 31
0.0
  0
LINE
  5
294
  8
DIMNSIONS
  6
CONTINUOUS
 62
     7
 10
-1175.0
 20
1375.0
 30
0.0
 11
-1183.037985143309
 21
1404.998168945312
 31
0.0
  0
LINE
  5
295
  8
DIMNSIONS
  6
CONTINUOUS
 62
     7
 10
-1175.0
 20
1375.0
 30
0.0
 11
-1166.962014856691
 21
1404.998168945312
 31
0.0
  0
LINE
  5
296
  8
DIMNSIONS
  6
CONTINUOUS
 62
     7
 10
-1175.0
 20
1604.07
 30
0.0
 11
-1166.962014856691
 21
1574.071831054688
 31
0.0
  0
LINE
  5
297
  8
DIMNSIONS
  6
CONTINUOUS
 62
     7
 10
-1175.0
 20
1604.07
 30
0.0
 11
-1183.037985143309
 21
1574.071831054688
 31
0.0
  0
TEXT
  5
298
  8
DIMNSIONS
 62
     7
 10
-1189.908333333333
 20
1449.8475
 30
0.0
 40
40.72102864583337
  1
229
 50
90.0
 41
0.7
 11
-1230.629361979167
 21
1449.8475
 31
0.0
 73
     3
  0
LINE
  5
299
  8
DIMNSIONS
  6
CONTINUOUS
 62
     7
 10
-889.75
 20
1375.0
 30
0.0
 11
-1252.5
 21
1375.0
 31
0.0
  0
LINE
  5
29A
  8
DIMNSIONS
  6
CONTINUOUS
 62
     7
 10
-1118.0
 20
1734.07
 30
0.0
 11
-1252.5
 21
1734.07
 31
0.0
  0
LINE
  5
29B
  8
DIMNSIONS
  6
CONTINUOUS
 62
     7
 10
-1237.5
 20
1375.0
 30
0.0
 11
-1237.5
 21
1734.07
 31
0.0
  0
LINE
  5
29C
  8
DIMNSIONS
  6
CONTINUOUS
 62
     7
 10
-1237.5
 20
1375.0
 30
0.0
 11
-1245.537985143309
 21
1404.998168945312
 31
0.0
  0
LINE
  5
29D
  8
DIMNSIONS
  6
CONTINUOUS
 62
     7
 10
-1237.5
 20
1375.0
 30
0.0
 11
-1229.462014856691
 21
1404.998168945312
 31
0.0
  0
LINE
  5
29E
  8
DIMNSIONS
  6
CONTINUOUS
 62
     7
 10
-1237.5
 20
1734.07
 30
0.0
 11
-1229.462014856691
 21
1704.071831054688
 31
0.0
  0
LINE
  5
29F
  8
DIMNSIONS
  6
CONTINUOUS
 62
     7
 10
-1237.5
 20
1734.07
 30
0.0
 11
-1245.537985143309
 21
1704.071831054688
 31
0.0
  0
TEXT
  5
2A0
  8
DIMNSIONS
 62
     7
 10
-1252.408333333333
 20
1514.8475
 30
0.0
 40
40.72102864583337
  1
359
 50
90.0
 41
0.7
 11
-1293.129361979167
 21
1514.8475
 31
0.0
 73
     3
  0
LINE
  5
2A1
  8
DIMNSIONS
  6
CONTINUOUS
 62
     7
 10
800.5
 20
1280.5
 30
0.0
 11
800.5
 21
1391.460392432214
 31
0.0
  0
ARC
  5
2A2
  8
DIMNSIONS
  6
CONTINUOUS
 62
     7
 10
800.5
 20
1250.61254132556
 30
0.0
 40
125.8478511066534
 50
25.00000000000001
 51
90.0
  0
LINE
  5
2A3
  8
DIMNSIONS
  6
CONTINUOUS
 62
     7
 10
800.5
 20
1376.460392432214
 30
0.0
 11
830.4981689453125
 21
1384.498377575523
 31
0.0
  0
LINE
  5
2A4
  8
DIMNSIONS
  6
CONTINUOUS
 62
     7
 10
800.5
 20
1376.460392432214
 30
0.0
 11
830.4981689453125
 21
1368.422407288905
 31
0.0
  0
LINE
  5
2A5
  8
DIMNSIONS
  6
CONTINUOUS
 62
     7
 10
914.5568874397889
 20
1303.798141404057
 30
0.0
 11
894.5942248972514
 21
1327.588716206872
 31
0.0
  0
LINE
  5
2A6
  8
DIMNSIONS
  6
CONTINUOUS
 62
     7
 10
914.5568874397889
 20
1303.798141404057
 30
0.0
 11
909.1640019521827
 21
1334.382714825197
 31
0.0
  0
TEXT
  5
2A7
  8
DIMNSIONS
 62
     7
 10
809.1840467606004
 20
1411.973259640035
 30
0.0
 40
40.72102864583337
  1
65.0°
 50
327.5000000000001
 41
0.7
 11
831.0634395034864
 21
1446.317026864633
 31
0.0
 73
     3
  0
TEXT
  5
2A8
  8
DATA
 62
     7
 10
-1320.0
 20
-1782.410423333333
 30
0.0
 40
28.50472005208334
  1
※仕様及び外観は予告なく変更されることがあります。
 41
0.7
 11
-1320.0
 21
-1753.90570328125
 31
0.0
 73
     3
  0
TEXT
  5
2A9
  8
DATA
 62
     7
 10
-1320.0
 20
-1819.45209
 30
0.0
 40
28.50472005208334
  1
　また、同一商品でも若干の個体差があることがあります。ご了承ください。
 41
0.7
 11
-1320.0
 21
-1790.947369947916
 31
0.0
 73
     3
  0
TEXT
  5
2AA
  8
DATA
 62
     7
 10
749.9999999999998
 20
-1624.841239999999
 30
0.0
 40
36.64892578125
  1
JBL PROFESSIONAL
 41
0.7
 11
749.9999999999998
 21
-1588.192314218749
 31
0.0
 73
     3
  0
TEXT
  5
2AB
  8
DATA
 62
     7
 10
566.0278157552083
 20
654.6394856770834
 30
0.0
 40
40.72102864583334
  1
スピーカー横取付
 41
0.7
 72
     1
 11
700.0
 21
675.0
 31
0.0
 73
     2
  0
LINE
  5
2AC
  8
DATA
  6
CONTINUOUS
 62
     7
 10
491.3499999999999
 20
963.7966666666666
 30
0.0
 11
491.3499999999999
 21
998.1291666666667
 31
0.0
  0
LINE
  5
2AD
  8
DATA
  6
CONTINUOUS
 62
     7
 10
508.6500000000001
 20
998.1291666666668
 30
0.0
 11
508.6500000000001
 21
963.7966666666666
 31
0.0
  0
LINE
  5
2AE
  8
DATA
  6
CONTINUOUS
 62
     7
 10
461.2
 20
968.7966666666666
 30
0.0
 11
461.2
 21
998.1291666666667
 31
0.0
  0
ARC
  5
2AF
  8
DATA
  6
CONTINUOUS
 62
     7
 10
466.1999999999998
 20
968.7966666666666
 30
0.0
 40
4.999999999999773
 50
180.0
 51
270.0000000000026
  0
LINE
  5
2B0
  8
DATA
  6
CONTINUOUS
 62
     7
 10
533.8
 20
963.7966666666666
 30
0.0
 11
466.2
 21
963.7966666666666
 31
0.0
  0
ARC
  5
2B1
  8
DATA
  6
CONTINUOUS
 62
     7
 10
533.8
 20
968.7966666666666
 30
0.0
 40
5.0
 50
270.0
 51
0.0
  0
LINE
  5
2B2
  8
DATA
  6
CONTINUOUS
 62
     7
 10
538.8
 20
998.1291666666668
 30
0.0
 11
538.8
 21
968.7966666666666
 31
0.0
  0
CIRCLE
  5
2B3
  8
DATA
  6
CONTINUOUS
 62
     7
 10
467.7500000000007
 20
970.3216666666667
 30
0.0
 40
3.099999999999909
  0
CIRCLE
  5
2B4
  8
DATA
  6
CONTINUOUS
 62
     7
 10
532.2499999999993
 20
970.3216666666667
 30
0.0
 40
3.099999999999909
  0
LINE
  5
2B5
  8
DATA
  6
CONTINUOUS
 62
     7
 10
496.8999999999401
 20
989.9966666666066
 30
0.0
 11
496.8999999999401
 21
989.6966666666667
 31
0.0
  0
ARC
  5
2B6
  8
DATA
  6
CONTINUOUS
 62
     7
 10
500.0000000000005
 20
989.9966666666064
 30
0.0
 40
3.100000000060277
 50
90.00000000000841
 51
172.9687499999963
  0
ARC
  5
2B7
  8
DATA
  6
CONTINUOUS
 62
     7
 10
500.0000000000055
 20
989.9966666666064
 30
0.0
 40
3.100000000065395
 50
172.9687500000075
 51
179.9999999999958
  0
LINE
  5
2B8
  8
DATA
  6
CONTINUOUS
 62
     7
 10
496.8999999999401
 20
989.3966666667267
 30
0.0
 11
496.8999999999401
 21
989.6966666666666
 31
0.0
  0
ARC
  5
2B9
  8
DATA
  6
CONTINUOUS
 62
     7
 10
500.0000000000005
 20
989.396666666727
 30
0.0
 40
3.100000000060431
 50
187.0312500000038
 51
269.9999999999916
  0
ARC
  5
2BA
  8
DATA
  6
CONTINUOUS
 62
     7
 10
500.0000000000055
 20
989.396666666727
 30
0.0
 40
3.100000000065393
 50
180.0000000000063
 51
187.0312499999925
  0
LINE
  5
2BB
  8
DATA
  6
CONTINUOUS
 62
     7
 10
503.1000000000599
 20
989.9966666666066
 30
0.0
 11
503.1000000000599
 21
989.6966666666667
 31
0.0
  0
ARC
  5
2BC
  8
DATA
  6
CONTINUOUS
 62
     7
 10
499.9999999999995
 20
989.9966666666064
 30
0.0
 40
3.100000000060431
 50
7.031250000003782
 51
89.9999999999916
  0
ARC
  5
2BD
  8
DATA
  6
CONTINUOUS
 62
     7
 10
499.9999999999945
 20
989.9966666666064
 30
0.0
 40
3.100000000065393
 50
0.0000000000042064
 51
7.03124999999244
  0
LINE
  5
2BE
  8
DATA
  6
CONTINUOUS
 62
     7
 10
503.1000000000599
 20
989.3966666667267
 30
0.0
 11
503.1000000000599
 21
989.6966666666666
 31
0.0
  0
ARC
  5
2BF
  8
DATA
  6
CONTINUOUS
 62
     7
 10
499.9999999999995
 20
989.396666666727
 30
0.0
 40
3.10000000006039
 50
270.0000000000084
 51
352.9687499999962
  0
ARC
  5
2C0
  8
DATA
  6
CONTINUOUS
 62
     7
 10
499.9999999999945
 20
989.396666666727
 30
0.0
 40
3.100000000065395
 50
352.9687500000076
 51
359.9999999999937
  0
ARC
  5
2C1
  8
DATA
  6
CONTINUOUS
 62
     7
 10
507.4465857438829
 20
970.3279166687264
 30
0.0
 40
10.29673938894554
 50
178.088248564809
 51
180.3130023616529
  0
ARC
  5
2C2
  8
DATA
  6
CONTINUOUS
 62
     7
 10
499.9981743740627
 20
970.4988363478626
 30
0.0
 40
2.847830903970458
 50
89.9632700564511
 51
176.5256925701764
  0
ARC
  5
2C3
  8
DATA
  6
CONTINUOUS
 62
     7
 10
507.4465857438829
 20
970.2154166646069
 30
0.0
 40
10.29673938894554
 50
179.6869976383471
 51
181.911751435191
  0
ARC
  5
2C4
  8
DATA
  6
CONTINUOUS
 62
     7
 10
499.9981743740627
 20
970.0444969854707
 30
0.0
 40
2.847830903970506
 50
183.4743074298236
 51
270.0367299435489
  0
ARC
  5
2C5
  8
DATA
  6
CONTINUOUS
 62
     7
 10
492.5534142561171
 20
970.3279166687264
 30
0.0
 40
10.29673938894554
 50
359.6869976383471
 51
1.911751435190979
  0
ARC
  5
2C6
  8
DATA
  6
CONTINUOUS
 62
     7
 10
500.0018256259373
 20
970.4988363478626
 30
0.0
 40
2.847830903970506
 50
3.474307429823608
 51
90.03672994354892
  0
ARC
  5
2C7
  8
DATA
  6
CONTINUOUS
 62
     7
 10
492.5534142561171
 20
970.2154166646069
 30
0.0
 40
10.29673938894554
 50
358.088248564809
 51
0.3130023616529343
  0
ARC
  5
2C8
  8
DATA
  6
CONTINUOUS
 62
     7
 10
500.0018256259373
 20
970.0444969854707
 30
0.0
 40
2.847830903970458
 50
269.9632700564511
 51
356.5256925701764
  0
LINE
  5
2C9
  8
DATA
  6
CONTINUOUS
 62
     7
 10
538.8
 20
1748.57
 30
0.0
 11
538.8
 21
1746.97
 31
0.0
  0
LINE
  5
2CA
  8
DATA
  6
CONTINUOUS
 62
     7
 10
461.2
 20
1748.57
 30
0.0
 11
489.95
 21
1748.57
 31
0.0
  0
LINE
  5
2CB
  8
DATA
  6
CONTINUOUS
 62
     7
 10
510.05
 20
1748.57
 30
0.0
 11
538.8
 21
1748.57
 31
0.0
  0
LINE
  5
2CC
  8
DATA
  6
CONTINUOUS
 62
     7
 10
461.2
 20
1746.97
 30
0.0
 11
461.2
 21
1748.57
 31
0.0
  0
LINE
  5
2CD
  8
DATA
  6
CONTINUOUS
 62
     7
 10
461.2
 20
1746.97
 30
0.0
 11
489.95
 21
1746.97
 31
0.0
  0
LINE
  5
2CE
  8
DATA
  6
CONTINUOUS
 62
     7
 10
491.3499999999999
 20
1740.02
 30
0.0
 11
491.3499999999999
 21
1745.57
 31
0.0
  0
ARC
  5
2CF
  8
DATA
  6
CONTINUOUS
 62
     7
 10
500.0
 20
1740.02
 30
0.0
 40
8.650000000000091
 50
180.0
 51
221.2842887166895
  0
ARC
  5
2D0
  8
DATA
  6
CONTINUOUS
 62
     7
 10
500.0
 20
1740.02
 30
0.0
 40
8.650000000000317
 50
318.7157112833104
 51
0.0
  0
ARC
  5
2D1
  8
DATA
  6
CONTINUOUS
 62
     7
 10
500.0
 20
1740.02
 30
0.0
 40
7.049999999999955
 50
180.0
 51
202.7818567850413
  0
ARC
  5
2D2
  8
DATA
  6
CONTINUOUS
 62
     7
 10
500.0
 20
1740.02
 30
0.0
 40
7.050000000000085
 50
337.2181432149587
 51
0.0
  0
LINE
  5
2D3
  8
DATA
  6
CONTINUOUS
 62
     7
 10
492.95
 20
1740.02
 30
0.0
 11
492.95
 21
1745.57
 31
0.0
  0
LINE
  5
2D4
  8
DATA
  6
CONTINUOUS
 62
     7
 10
507.05
 20
1740.02
 30
0.0
 11
507.05
 21
1745.57
 31
0.0
  0
ARC
  5
2D5
  8
DATA
  6
CONTINUOUS
 62
     7
 10
489.95
 20
1745.57
 30
0.0
 40
3.0
 50
0.0
 51
90.0
  0
ARC
  5
2D6
  8
DATA
  6
CONTINUOUS
 62
     7
 10
510.05
 20
1745.57
 30
0.0
 40
3.0
 50
90.0
 51
180.0
  0
ARC
  5
2D7
  8
DATA
  6
CONTINUOUS
 62
     7
 10
489.95
 20
1745.57
 30
0.0
 40
1.399999999999864
 50
0.0
 51
90.0
  0
LINE
  5
2D8
  8
DATA
  6
CONTINUOUS
 62
     7
 10
538.8
 20
1746.97
 30
0.0
 11
510.05
 21
1746.97
 31
0.0
  0
LINE
  5
2D9
  8
DATA
  6
CONTINUOUS
 62
     7
 10
508.6500000000001
 20
1740.02
 30
0.0
 11
508.6500000000001
 21
1745.57
 31
0.0
  0
ARC
  5
2DA
  8
DATA
  6
CONTINUOUS
 62
     7
 10
510.05
 20
1745.57
 30
0.0
 40
1.400000000000091
 50
90.0
 51
180.0
  0
ARC
  5
2DB
  8
DATA
  6
CONTINUOUS
 62
     7
 10
316.8250000000002
 20
1008.129166666667
 30
0.0
 40
10.00000000000017
 50
180.0
 51
269.9999999999987
  0
LINE
  5
2DC
  8
DATA
  6
CONTINUOUS
 62
     7
 10
689.175
 20
998.1291666666667
 30
0.0
 11
311.825
 21
998.1291666666667
 31
0.0
  0
ARC
  5
2DD
  8
DATA
  6
CONTINUOUS
 62
     7
 10
684.1749999999997
 20
1008.129166666667
 30
0.0
 40
10.0
 50
270.0000000000013
 51
0.0
  0
LINE
  5
2DE
  8
DATA
  6
CONTINUOUS
 62
     7
 10
694.175
 20
1243.954166666666
 30
0.0
 11
694.175
 21
1003.129166666667
 31
0.0
  0
ARC
  5
2DF
  8
DATA
  6
CONTINUOUS
 62
     7
 10
684.175
 20
1238.954166666666
 30
0.0
 40
10.0
 50
0.0
 51
90.0
  0
LINE
  5
2E0
  8
DATA
  6
CONTINUOUS
 62
     7
 10
311.825
 20
1248.954166666666
 30
0.0
 11
689.175
 21
1248.954166666666
 31
0.0
  0
ARC
  5
2E1
  8
DATA
  6
CONTINUOUS
 62
     7
 10
316.8250000000002
 20
1238.954166666666
 30
0.0
 40
10.0
 50
90.00000000000132
 51
180.0
  0
LINE
  5
2E2
  8
DATA
  6
CONTINUOUS
 62
     7
 10
306.825
 20
1003.129166666667
 30
0.0
 11
306.825
 21
1243.954166666666
 31
0.0
  0
ARC
  5
2E3
  8
DATA
  6
CONTINUOUS
 62
     7
 10
316.7499999999999
 20
1006.791666666667
 30
0.0
 40
5.0
 50
180.0
 51
270.0
  0
LINE
  5
2E4
  8
DATA
  6
CONTINUOUS
 62
     7
 10
684.25
 20
1001.791666666667
 30
0.0
 11
316.7499999999999
 21
1001.791666666667
 31
0.0
  0
ARC
  5
2E5
  8
DATA
  6
CONTINUOUS
 62
     7
 10
684.25
 20
1006.791666666667
 30
0.0
 40
5.0
 50
270.0
 51
0.0
  0
LINE
  5
2E6
  8
DATA
  6
CONTINUOUS
 62
     7
 10
689.25
 20
1240.291666666667
 30
0.0
 11
689.25
 21
1006.791666666667
 31
0.0
  0
ARC
  5
2E7
  8
DATA
  6
CONTINUOUS
 62
     7
 10
684.2500000000005
 20
1240.291666666667
 30
0.0
 40
4.999999999999545
 50
359.9999999999948
 51
90.00000000000523
  0
LINE
  5
2E8
  8
DATA
  6
CONTINUOUS
 62
     7
 10
316.7499999999999
 20
1245.291666666667
 30
0.0
 11
684.25
 21
1245.291666666667
 31
0.0
  0
ARC
  5
2E9
  8
DATA
  6
CONTINUOUS
 62
     7
 10
316.7499999999999
 20
1240.291666666667
 30
0.0
 40
5.0
 50
90.0
 51
180.0
  0
LINE
  5
2EA
  8
DATA
  6
CONTINUOUS
 62
     7
 10
311.7499999999999
 20
1006.791666666667
 30
0.0
 11
311.7499999999999
 21
1240.291666666667
 31
0.0
  0
ARC
  5
2EB
  8
DATA
  6
CONTINUOUS
 62
     7
 10
345.25
 20
1013.041666666667
 30
0.0
 40
3.0
 50
180.0
 51
270.0000000000043
  0
LINE
  5
2EC
  8
DATA
  6
CONTINUOUS
 62
     7
 10
679.25
 20
1010.041666666667
 30
0.0
 11
345.2500000000002
 21
1010.041666666667
 31
0.0
  0
ARC
  5
2ED
  8
DATA
  6
CONTINUOUS
 62
     7
 10
679.25
 20
1013.041666666667
 30
0.0
 40
3.0
 50
270.0
 51
0.0
  0
LINE
  5
2EE
  8
DATA
  6
CONTINUOUS
 62
     7
 10
682.25
 20
1234.041666666667
 30
0.0
 11
682.25
 21
1013.041666666667
 31
0.0
  0
ARC
  5
2EF
  8
DATA
  6
CONTINUOUS
 62
     7
 10
679.25
 20
1234.041666666667
 30
0.0
 40
3.0
 50
0.0
 51
90.0
  0
LINE
  5
2F0
  8
DATA
  6
CONTINUOUS
 62
     7
 10
345.2500000000002
 20
1237.041666666667
 30
0.0
 11
679.25
 21
1237.041666666667
 31
0.0
  0
ARC
  5
2F1
  8
DATA
  6
CONTINUOUS
 62
     7
 10
345.25
 20
1234.041666666667
 30
0.0
 40
3.0
 50
89.99999999999567
 51
180.0
  0
LINE
  5
2F2
  8
DATA
  6
CONTINUOUS
 62
     7
 10
342.25
 20
1013.041666666667
 30
0.0
 11
342.25
 21
1234.041666666667
 31
0.0
  0
LINE
  5
2F3
  8
DATA
  6
CONTINUOUS
 62
     7
 10
349.25
 20
1013.041666666667
 30
0.0
 11
349.25
 21
1234.041666666667
 31
0.0
  0
POLYLINE
  5
2F4
  8
DATA
  6
CONTINUOUS
 62
     7
 66
     1
 10
0.0
 20
0.0
 30
0.0
 70
     1
  0
VERTEX
  5
794
  8
DATA
  6
CONTINUOUS
 62
     7
 10
644.25
 20
1104.541666666667
 30
0.0
  0
VERTEX
  5
795
  8
DATA
  6
CONTINUOUS
 62
     7
 10
644.25
 20
1142.541666666667
 30
0.0
  0
VERTEX
  5
796
  8
DATA
  6
CONTINUOUS
 62
     7
 10
682.25
 20
1142.541666666667
 30
0.0
  0
VERTEX
  5
797
  8
DATA
  6
CONTINUOUS
 62
     7
 10
682.25
 20
1104.541666666667
 30
0.0
  0
SEQEND
  5
7DA
  8
DATA
  6
CONTINUOUS
 62
     7
  0
LINE
  5
2FB
  8
DATA
  6
CONTINUOUS
 62
     7
 10
651.25
 20
1104.541666666667
 30
0.0
 11
651.25
 21
1142.541666666667
 31
0.0
  0
ARC
  5
2FC
  8
DATA
  6
CONTINUOUS
 62
     7
 10
669.904671
 20
1115.894780666667
 30
0.0
 40
3.352509452718213
 50
354.6908562215336
 51
53.99119915424155
  0
ARC
  5
2FD
  8
DATA
  6
CONTINUOUS
 62
     7
 10
669.904671
 20
1115.274381666667
 30
0.0
 40
3.35250400803063
 50
306.0088008457612
 51
5.309143778467217
  0
ARC
  5
2FE
  8
DATA
  6
CONTINUOUS
 62
     7
 10
670.7749170000002
 20
1124.413771666666
 30
0.0
 40
2.473394835233292
 50
3.830981609120586
 51
81.13514730980683
  0
ARC
  5
2FF
  8
DATA
  6
CONTINUOUS
 62
     7
 10
662.706909
 20
1124.438432666667
 30
0.0
 40
2.469648912784572
 50
98.22692385901681
 51
176.1541266921519
  0
ARC
  5
300
  8
DATA
  6
CONTINUOUS
 62
     7
 10
671.4025127412324
 20
1124.166682439311
 30
0.0
 40
0.4144180492642566
 50
37.64190249758595
 51
84.2670192893973
  0
LINE
  5
301
  8
DATA
  6
CONTINUOUS
 62
     7
 10
664.8719550000001
 20
1113.521851666666
 30
0.0
 11
660.2428110000001
 21
1115.464649666666
 31
0.0
  0
LINE
  5
302
  8
DATA
  6
CONTINUOUS
 62
     7
 10
664.8719550000001
 20
1113.521851666666
 30
0.0
 11
660.2428110000001
 21
1111.603025666666
 31
0.0
  0
LINE
  5
303
  8
DATA
  6
CONTINUOUS
 62
     7
 10
673.2428110000001
 20
1128.248771666666
 30
0.0
 11
660.2428110000001
 21
1128.248771666666
 31
0.0
  0
LINE
  5
304
  8
DATA
  6
CONTINUOUS
 62
     7
 10
660.2428110000001
 20
1130.743237666667
 30
0.0
 11
671.252043
 21
1130.743237666667
 31
0.0
  0
LINE
  5
305
  8
DATA
  6
CONTINUOUS
 62
     7
 10
660.2428110000001
 20
1116.376092666666
 30
0.0
 11
671.252043
 21
1116.376092666666
 31
0.0
  0
LINE
  5
306
  8
DATA
  6
CONTINUOUS
 62
     7
 10
660.2428110000001
 20
1118.774618666666
 30
0.0
 11
671.252043
 21
1118.774618666666
 31
0.0
  0
LINE
  5
307
  8
DATA
  6
CONTINUOUS
 62
     7
 10
660.2428110000001
 20
1120.021851666666
 30
0.0
 11
673.2428110000001
 21
1120.021851666666
 31
0.0
  0
LINE
  5
308
  8
DATA
  6
CONTINUOUS
 62
     7
 10
661.466046
 20
1122.204512666667
 30
0.0
 11
665.639488
 21
1122.204512666667
 31
0.0
  0
LINE
  5
309
  8
DATA
  6
CONTINUOUS
 62
     7
 10
665.3980000000001
 20
1126.882666666666
 30
0.0
 11
662.353517
 21
1126.882666666666
 31
0.0
  0
LINE
  5
30A
  8
DATA
  6
CONTINUOUS
 62
     7
 10
662.0416990000001
 20
1124.579027666667
 30
0.0
 11
665.063848
 21
1124.579027666667
 31
0.0
  0
LINE
  5
30B
  8
DATA
  6
CONTINUOUS
 62
     7
 10
669.165309
 20
1114.553219666666
 30
0.0
 11
671.252017
 21
1114.553219666666
 31
0.0
  0
LINE
  5
30C
  8
DATA
  6
CONTINUOUS
 62
     7
 10
669.165309
 20
1114.553219666666
 30
0.0
 11
669.165309
 21
1112.394543666666
 31
0.0
  0
LINE
  5
30D
  8
DATA
  6
CONTINUOUS
 62
     7
 10
669.165309
 20
1112.394543666666
 30
0.0
 11
671.252017
 21
1112.394543666666
 31
0.0
  0
ARC
  5
30E
  8
DATA
  6
CONTINUOUS
 62
     7
 10
671.2801490000002
 20
1115.469225666667
 30
0.0
 40
0.9073074741148945
 50
359.7118487927244
 51
91.7759870056989
  0
ARC
  5
30F
  8
DATA
  6
CONTINUOUS
 62
     7
 10
671.2801490000002
 20
1115.460086666666
 30
0.0
 40
0.9073028346975838
 50
268.2240129943101
 51
0.2881512072610803
  0
ARC
  5
310
  8
DATA
  6
CONTINUOUS
 62
     7
 10
671.1785279999999
 20
1113.909615666666
 30
0.0
 40
1.51684027062889
 50
272.7769954499981
 51
297.3596066671561
  0
CIRCLE
  5
311
  8
DATA
  6
CONTINUOUS
 62
     7
 10
666.6708560000002
 20
1113.653775666667
 30
0.0
 40
1.235233999999764
  0
LINE
  5
312
  8
DATA
  6
CONTINUOUS
 62
     7
 10
673.242798
 20
1134.748771666666
 30
0.0
 11
673.242798
 21
1128.248771666666
 31
0.0
  0
LINE
  5
313
  8
DATA
  6
CONTINUOUS
 62
     7
 10
673.242798
 20
1134.748771666666
 30
0.0
 11
669.1652960000001
 21
1134.748771666666
 31
0.0
  0
LINE
  5
314
  8
DATA
  6
CONTINUOUS
 62
     7
 10
669.165309
 20
1134.748771666666
 30
0.0
 11
669.165309
 21
1132.566123666666
 31
0.0
  0
LINE
  5
315
  8
DATA
  6
CONTINUOUS
 62
     7
 10
669.165309
 20
1132.566123666666
 30
0.0
 11
671.252017
 21
1132.566123666666
 31
0.0
  0
LINE
  5
316
  8
DATA
  6
CONTINUOUS
 62
     7
 10
673.242798
 20
1120.021851666666
 30
0.0
 11
673.2427849999999
 21
1124.579027666667
 31
0.0
  0
LINE
  5
317
  8
DATA
  6
CONTINUOUS
 62
     7
 10
672.01955
 20
1122.204499666666
 30
0.0
 11
672.01955
 21
1123.379777666667
 31
0.0
  0
LINE
  5
318
  8
DATA
  6
CONTINUOUS
 62
     7
 10
672.01955
 20
1122.204512666667
 30
0.0
 11
666.886708
 21
1122.204512666667
 31
0.0
  0
LINE
  5
319
  8
DATA
  6
CONTINUOUS
 62
     7
 10
666.886708
 20
1122.204499666666
 30
0.0
 11
666.886708
 21
1123.379777666667
 31
0.0
  0
LINE
  5
31A
  8
DATA
  6
CONTINUOUS
 62
     7
 10
671.44391
 20
1124.579027666667
 30
0.0
 11
667.462348
 21
1124.579027666667
 31
0.0
  0
ARC
  5
31B
  8
DATA
  6
CONTINUOUS
 62
     7
 10
671.1785279999999
 20
1117.259546666666
 30
0.0
 40
1.516838112224782
 50
62.64039333285596
 51
87.22300454999899
  0
ARC
  5
31C
  8
DATA
  6
CONTINUOUS
 62
     7
 10
671.2801490000002
 20
1131.659243666666
 30
0.0
 40
0.9073074741148923
 50
359.7118487927531
 51
91.77598700569803
  0
ARC
  5
31D
  8
DATA
  6
CONTINUOUS
 62
     7
 10
671.2801490000002
 20
1131.650117666667
 30
0.0
 40
0.9073028346975838
 50
268.2240129943101
 51
0.2881512072610803
  0
LINE
  5
31E
  8
DATA
  6
CONTINUOUS
 62
     7
 10
671.1560770000001
 20
1126.881613666666
 30
0.0
 11
667.702211
 21
1126.881613666666
 31
0.0
  0
LINE
  5
31F
  8
DATA
  6
CONTINUOUS
 62
     7
 10
665.639488
 20
1122.204499666666
 30
0.0
 11
665.639488
 21
1123.379777666667
 31
0.0
  0
LINE
  5
320
  8
DATA
  6
CONTINUOUS
 62
     7
 10
660.2428110000001
 20
1116.376092666666
 30
0.0
 11
660.2428110000001
 21
1118.774618666666
 31
0.0
  0
LINE
  5
321
  8
DATA
  6
CONTINUOUS
 62
     7
 10
660.2428110000001
 20
1111.603025666666
 30
0.0
 11
660.2428110000001
 21
1115.464649666666
 31
0.0
  0
LINE
  5
322
  8
DATA
  6
CONTINUOUS
 62
     7
 10
660.2428110000001
 20
1128.248771666666
 30
0.0
 11
660.2428110000001
 21
1130.743237666667
 31
0.0
  0
LINE
  5
323
  8
DATA
  6
CONTINUOUS
 62
     7
 10
660.2428110000001
 20
1120.021851666666
 30
0.0
 11
660.2428215218627
 21
1124.604078833258
 31
0.0
  0
LINE
  5
324
  8
DATA
  6
CONTINUOUS
 62
     7
 10
661.4660589999999
 20
1122.204499666666
 30
0.0
 11
661.4660589999999
 21
1123.379777666667
 31
0.0
  0
ARC
  5
325
  8
DATA
  6
CONTINUOUS
 62
     7
 10
669.7397556512369
 20
1123.393655768051
 30
0.0
 40
2.279836589396272
 50
359.6512199376145
 51
12.82648280686931
  0
ARC
  5
326
  8
DATA
  6
CONTINUOUS
 62
     7
 10
670.7036254045952
 20
1123.649717502373
 30
0.0
 40
1.283669274801295
 50
11.23310362265444
 51
36.86200889406035
  0
ARC
  5
327
  8
DATA
  6
CONTINUOUS
 62
     7
 10
667.5037452587676
 20
1124.166682439311
 30
0.0
 40
0.4144180492643817
 50
95.7329807106027
 51
142.3580975023949
  0
ARC
  5
328
  8
DATA
  6
CONTINUOUS
 62
     7
 10
669.1665023487631
 20
1123.393655768051
 30
0.0
 40
2.279836589396094
 50
167.1735171931294
 51
180.3487800623856
  0
ARC
  5
329
  8
DATA
  6
CONTINUOUS
 62
     7
 10
668.2026325954048
 20
1123.649717502373
 30
0.0
 40
1.283669274801101
 50
143.1379911059397
 51
168.7668963773436
  0
ARC
  5
32A
  8
DATA
  6
CONTINUOUS
 62
     7
 10
667.7872440000001
 20
1125.623629666667
 30
0.0
 40
1.260854613087741
 50
93.86700635982547
 51
178.3616345678969
  0
ARC
  5
32B
  8
DATA
  6
CONTINUOUS
 62
     7
 10
665.2653480000001
 20
1125.622472666666
 30
0.0
 40
1.262107521931673
 50
1.689282104647263
 51
86.07828298266655
  0
ARC
  5
32C
  8
DATA
  6
CONTINUOUS
 62
     7
 10
665.0224507412324
 20
1124.166682439311
 30
0.0
 40
0.4144180492642566
 50
37.64190249758595
 51
84.2670192893973
  0
ARC
  5
32D
  8
DATA
  6
CONTINUOUS
 62
     7
 10
663.359693651237
 20
1123.393655768051
 30
0.0
 40
2.279836589396272
 50
359.6512199376145
 51
12.82648280686931
  0
ARC
  5
32E
  8
DATA
  6
CONTINUOUS
 62
     7
 10
664.3235634045955
 20
1123.649717502373
 30
0.0
 40
1.283669274801072
 50
11.23310362265641
 51
36.86200889406035
  0
ARC
  5
32F
  8
DATA
  6
CONTINUOUS
 62
     7
 10
662.0830962587677
 20
1124.166682439311
 30
0.0
 40
0.4144180492643817
 50
95.7329807106027
 51
142.3580975024141
  0
ARC
  5
330
  8
DATA
  6
CONTINUOUS
 62
     7
 10
663.7458533487629
 20
1123.393655768051
 30
0.0
 40
2.279836589396094
 50
167.1735171931294
 51
180.3487800623856
  0
ARC
  5
331
  8
DATA
  6
CONTINUOUS
 62
     7
 10
662.7819835954047
 20
1123.649717502373
 30
0.0
 40
1.283669274801101
 50
143.1379911059397
 51
168.7668963773436
  0
TEXT
  5
332
  8
DATA
 62
     7
 10
650.4647352430555
 20
1107.832398726852
 30
0.0
 40
5.429470486111112
  1
CONTROL 5
 50
90.0
 41
0.7
 72
     1
 11
647.75
 21
1123.541666666667
 31
0.0
 73
     2
  0
ARC
  5
333
  8
DATA
  6
CONTINUOUS
 62
     7
 10
311.825
 20
1003.129166666667
 30
0.0
 40
4.999999999999943
 50
180.0
 51
270.0
  0
ARC
  5
334
  8
DATA
  6
CONTINUOUS
 62
     7
 10
311.825
 20
1243.954166666666
 30
0.0
 40
5.0
 50
90.0
 51
180.0
  0
ARC
  5
335
  8
DATA
  6
CONTINUOUS
 62
     7
 10
689.175
 20
1003.129166666667
 30
0.0
 40
5.0
 50
270.0
 51
0.0
  0
ARC
  5
336
  8
DATA
  6
CONTINUOUS
 62
     7
 10
689.175
 20
1243.954166666666
 30
0.0
 40
5.0
 50
0.0
 51
90.0
  0
ARC
  5
337
  8
DATA
  6
CONTINUOUS
 62
     7
 10
352.25
 20
1013.041666666667
 30
0.0
 40
3.0
 50
180.0
 51
270.0
  0
ARC
  5
338
  8
DATA
  6
CONTINUOUS
 62
     7
 10
352.25
 20
1234.041666666667
 30
0.0
 40
3.0
 50
90.0
 51
180.0
  0
TEXT
  5
339
  8
DATA
 62
     7
 10
-683.9721842447917
 20
654.6394856770834
 30
0.0
 40
40.72102864583334
  1
スピーカー縦取付
 41
0.7
 72
     1
 11
-550.0
 21
675.0
 31
0.0
 73
     2
  0
LINE
  5
33A
  8
DATA
  6
CONTINUOUS
 62
     7
 10
-775.5
 20
626.4583333333334
 30
0.0
 11
-325.5
 21
626.4583333333334
 31
0.0
  0
LINE
  5
33B
  8
DATA
  6
CONTINUOUS
 62
     7
 10
-710.803125
 20
1734.07
 30
0.0
 11
-710.803125
 21
1732.47
 31
0.0
  0
LINE
  5
33C
  8
DATA
  6
CONTINUOUS
 62
     7
 10
-788.4031249999999
 20
1734.07
 30
0.0
 11
-759.6531249999999
 21
1734.07
 31
0.0
  0
LINE
  5
33D
  8
DATA
  6
CONTINUOUS
 62
     7
 10
-739.553125
 20
1734.07
 30
0.0
 11
-710.803125
 21
1734.07
 31
0.0
  0
LINE
  5
33E
  8
DATA
  6
CONTINUOUS
 62
     7
 10
-788.4031249999999
 20
1732.47
 30
0.0
 11
-788.4031249999999
 21
1734.07
 31
0.0
  0
LINE
  5
33F
  8
DATA
  6
CONTINUOUS
 62
     7
 10
-788.4031249999999
 20
1732.47
 30
0.0
 11
-759.6531249999999
 21
1732.47
 31
0.0
  0
LINE
  5
340
  8
DATA
  6
CONTINUOUS
 62
     7
 10
-758.2531250000001
 20
1725.52
 30
0.0
 11
-758.2531250000001
 21
1731.07
 31
0.0
  0
ARC
  5
341
  8
DATA
  6
CONTINUOUS
 62
     7
 10
-749.603125
 20
1725.52
 30
0.0
 40
8.650000000000091
 50
180.0
 51
221.2842887166873
  0
ARC
  5
342
  8
DATA
  6
CONTINUOUS
 62
     7
 10
-749.603125
 20
1725.52
 30
0.0
 40
8.650000000000018
 50
318.7157112833128
 51
0.0
  0
ARC
  5
343
  8
DATA
  6
CONTINUOUS
 62
     7
 10
-749.603125
 20
1725.52
 30
0.0
 40
7.049999999999955
 50
180.0
 51
202.7818567850379
  0
ARC
  5
344
  8
DATA
  6
CONTINUOUS
 62
     7
 10
-749.603125
 20
1725.52
 30
0.0
 40
7.049999999999909
 50
337.2181432149621
 51
0.0
  0
LINE
  5
345
  8
DATA
  6
CONTINUOUS
 62
     7
 10
-756.6531249999999
 20
1725.52
 30
0.0
 11
-756.6531249999999
 21
1731.07
 31
0.0
  0
LINE
  5
346
  8
DATA
  6
CONTINUOUS
 62
     7
 10
-742.553125
 20
1725.52
 30
0.0
 11
-742.553125
 21
1731.07
 31
0.0
  0
ARC
  5
347
  8
DATA
  6
CONTINUOUS
 62
     7
 10
-759.6531249999999
 20
1731.07
 30
0.0
 40
3.0
 50
0.0
 51
90.0
  0
ARC
  5
348
  8
DATA
  6
CONTINUOUS
 62
     7
 10
-739.553125
 20
1731.07
 30
0.0
 40
3.0
 50
90.0
 51
180.0
  0
ARC
  5
349
  8
DATA
  6
CONTINUOUS
 62
     7
 10
-759.6531249999999
 20
1731.07
 30
0.0
 40
1.399999999999864
 50
0.0
 51
90.0
  0
LINE
  5
34A
  8
DATA
  6
CONTINUOUS
 62
     7
 10
-710.803125
 20
1732.47
 30
0.0
 11
-739.553125
 21
1732.47
 31
0.0
  0
LINE
  5
34B
  8
DATA
  6
CONTINUOUS
 62
     7
 10
-740.9531249999999
 20
1725.52
 30
0.0
 11
-740.9531249999999
 21
1731.07
 31
0.0
  0
ARC
  5
34C
  8
DATA
  6
CONTINUOUS
 62
     7
 10
-739.553125
 20
1731.07
 30
0.0
 40
1.400000000000091
 50
90.0
 51
180.0
  0
ARC
  5
34D
  8
DATA
  6
CONTINUOUS
 62
     7
 10
-864.9124999999997
 20
1257.216666666666
 30
0.0
 40
10.00000000000045
 50
90.00000000000132
 51
179.9999999999974
  0
LINE
  5
34E
  8
DATA
  6
CONTINUOUS
 62
     7
 10
-874.9124999999999
 20
884.8666666666668
 30
0.0
 11
-874.9124999999999
 21
1262.216666666667
 31
0.0
  0
ARC
  5
34F
  8
DATA
  6
CONTINUOUS
 62
     7
 10
-864.9124999999997
 20
889.866666666667
 30
0.0
 40
10.00000000000023
 50
180.0000000000013
 51
269.9999999999987
  0
LINE
  5
350
  8
DATA
  6
CONTINUOUS
 62
     7
 10
-629.0875000000001
 20
879.8666666666668
 30
0.0
 11
-869.9124999999999
 21
879.8666666666668
 31
0.0
  0
ARC
  5
351
  8
DATA
  6
CONTINUOUS
 62
     7
 10
-634.0875000000001
 20
889.8666666666668
 30
0.0
 40
10.0
 50
270.0
 51
0.0
  0
LINE
  5
352
  8
DATA
  6
CONTINUOUS
 62
     7
 10
-624.0875000000001
 20
1262.216666666667
 30
0.0
 11
-624.0875000000001
 21
884.8666666666668
 31
0.0
  0
ARC
  5
353
  8
DATA
  6
CONTINUOUS
 62
     7
 10
-634.0875000000001
 20
1257.216666666666
 30
0.0
 40
10.0
 50
0.0000000000026148
 51
90.0
  0
LINE
  5
354
  8
DATA
  6
CONTINUOUS
 62
     7
 10
-869.9124999999999
 20
1267.216666666667
 30
0.0
 11
-629.0875000000001
 21
1267.216666666667
 31
0.0
  0
ARC
  5
355
  8
DATA
  6
CONTINUOUS
 62
     7
 10
-866.25
 20
1257.291666666667
 30
0.0
 40
5.0
 50
90.0
 51
180.0
  0
LINE
  5
356
  8
DATA
  6
CONTINUOUS
 62
     7
 10
-871.25
 20
889.7916666666667
 30
0.0
 11
-871.25
 21
1257.291666666667
 31
0.0
  0
ARC
  5
357
  8
DATA
  6
CONTINUOUS
 62
     7
 10
-866.2500000000001
 20
889.7916666666667
 30
0.0
 40
4.999999999999886
 50
180.0
 51
270.0000000000013
  0
LINE
  5
358
  8
DATA
  6
CONTINUOUS
 62
     7
 10
-632.75
 20
884.7916666666667
 30
0.0
 11
-866.25
 21
884.7916666666667
 31
0.0
  0
ARC
  5
359
  8
DATA
  6
CONTINUOUS
 62
     7
 10
-632.7499999999998
 20
889.7916666666663
 30
0.0
 40
4.999999999999545
 50
269.9999999999974
 51
0.0000000000051728
  0
LINE
  5
35A
  8
DATA
  6
CONTINUOUS
 62
     7
 10
-627.75
 20
1257.291666666667
 30
0.0
 11
-627.75
 21
889.7916666666667
 31
0.0
  0
ARC
  5
35B
  8
DATA
  6
CONTINUOUS
 62
     7
 10
-632.75
 20
1257.291666666667
 30
0.0
 40
5.0
 50
0.0
 51
90.0
  0
LINE
  5
35C
  8
DATA
  6
CONTINUOUS
 62
     7
 10
-866.25
 20
1262.291666666667
 30
0.0
 11
-632.75
 21
1262.291666666667
 31
0.0
  0
ARC
  5
35D
  8
DATA
  6
CONTINUOUS
 62
     7
 10
-860.0
 20
1228.791666666667
 30
0.0
 40
3.0
 50
90.0
 51
180.0
  0
LINE
  5
35E
  8
DATA
  6
CONTINUOUS
 62
     7
 10
-863.0
 20
894.7916666666667
 30
0.0
 11
-863.0
 21
1228.791666666667
 31
0.0
  0
ARC
  5
35F
  8
DATA
  6
CONTINUOUS
 62
     7
 10
-860.0
 20
894.7916666666667
 30
0.0
 40
3.0
 50
180.0
 51
270.0
  0
LINE
  5
360
  8
DATA
  6
CONTINUOUS
 62
     7
 10
-639.0
 20
891.7916666666667
 30
0.0
 11
-860.0
 21
891.7916666666667
 31
0.0
  0
ARC
  5
361
  8
DATA
  6
CONTINUOUS
 62
     7
 10
-639.0
 20
894.7916666666667
 30
0.0
 40
3.0
 50
270.0
 51
0.0
  0
LINE
  5
362
  8
DATA
  6
CONTINUOUS
 62
     7
 10
-636.0
 20
1228.791666666667
 30
0.0
 11
-636.0
 21
894.7916666666667
 31
0.0
  0
ARC
  5
363
  8
DATA
  6
CONTINUOUS
 62
     7
 10
-639.0
 20
1228.791666666667
 30
0.0
 40
3.0
 50
0.0
 51
90.0
  0
LINE
  5
364
  8
DATA
  6
CONTINUOUS
 62
     7
 10
-860.0
 20
1231.791666666667
 30
0.0
 11
-639.0
 21
1231.791666666667
 31
0.0
  0
LINE
  5
365
  8
DATA
  6
CONTINUOUS
 62
     7
 10
-860.0
 20
1224.791666666667
 30
0.0
 11
-639.0
 21
1224.791666666667
 31
0.0
  0
POLYLINE
  5
366
  8
DATA
  6
CONTINUOUS
 62
     7
 66
     1
 10
0.0
 20
0.0
 30
0.0
 70
     1
  0
VERTEX
  5
798
  8
DATA
  6
CONTINUOUS
 62
     7
 10
-768.5
 20
929.7916666666667
 30
0.0
  0
VERTEX
  5
799
  8
DATA
  6
CONTINUOUS
 62
     7
 10
-730.5
 20
929.7916666666667
 30
0.0
  0
VERTEX
  5
79A
  8
DATA
  6
CONTINUOUS
 62
     7
 10
-730.5
 20
891.7916666666667
 30
0.0
  0
VERTEX
  5
79B
  8
DATA
  6
CONTINUOUS
 62
     7
 10
-768.5
 20
891.7916666666667
 30
0.0
  0
SEQEND
  5
7DB
  8
DATA
  6
CONTINUOUS
 62
     7
  0
LINE
  5
36D
  8
DATA
  6
CONTINUOUS
 62
     7
 10
-768.5
 20
922.7916666666667
 30
0.0
 11
-730.5
 21
922.7916666666667
 31
0.0
  0
ARC
  5
36E
  8
DATA
  6
CONTINUOUS
 62
     7
 10
-757.146886
 20
904.1369956666667
 30
0.0
 40
3.352509452718202
 50
264.6908562215355
 51
323.9911991542427
  0
ARC
  5
36F
  8
DATA
  6
CONTINUOUS
 62
     7
 10
-757.7672849999999
 20
904.1369956666667
 30
0.0
 40
3.352504008030813
 50
216.0088008457589
 51
275.3091437784634
  0
ARC
  5
370
  8
DATA
  6
CONTINUOUS
 62
     7
 10
-748.6278950000001
 20
903.2667496666666
 30
0.0
 40
2.473394835233284
 50
273.8309816091179
 51
351.1351473098076
  0
ARC
  5
371
  8
DATA
  6
CONTINUOUS
 62
     7
 10
-748.6032339999999
 20
911.3347576666667
 30
0.0
 40
2.469648912784909
 50
8.226923859015674
 51
86.15412669215195
  0
ARC
  5
372
  8
DATA
  6
CONTINUOUS
 62
     7
 10
-748.8749842273548
 20
902.6391539254344
 30
0.0
 40
0.4144180492641177
 50
307.641902497561
 51
354.2670192893926
  0
LINE
  5
373
  8
DATA
  6
CONTINUOUS
 62
     7
 10
-759.5198150000001
 20
909.1697116666667
 30
0.0
 11
-757.5770170000001
 21
913.7988556666667
 31
0.0
  0
LINE
  5
374
  8
DATA
  6
CONTINUOUS
 62
     7
 10
-759.5198150000001
 20
909.1697116666667
 30
0.0
 11
-761.438641
 21
913.7988556666667
 31
0.0
  0
LINE
  5
375
  8
DATA
  6
CONTINUOUS
 62
     7
 10
-744.792895
 20
900.7988556666667
 30
0.0
 11
-744.792895
 21
913.7988556666667
 31
0.0
  0
LINE
  5
376
  8
DATA
  6
CONTINUOUS
 62
     7
 10
-742.2984289999999
 20
913.7988556666667
 30
0.0
 11
-742.2984289999999
 21
902.7896236666668
 31
0.0
  0
LINE
  5
377
  8
DATA
  6
CONTINUOUS
 62
     7
 10
-756.665574
 20
913.7988556666667
 30
0.0
 11
-756.665574
 21
902.7896236666668
 31
0.0
  0
LINE
  5
378
  8
DATA
  6
CONTINUOUS
 62
     7
 10
-754.267048
 20
913.7988556666667
 30
0.0
 11
-754.267048
 21
902.7896236666668
 31
0.0
  0
LINE
  5
379
  8
DATA
  6
CONTINUOUS
 62
     7
 10
-753.0198150000001
 20
913.7988556666667
 30
0.0
 11
-753.0198150000001
 21
900.7988556666667
 31
0.0
  0
LINE
  5
37A
  8
DATA
  6
CONTINUOUS
 62
     7
 10
-750.8371539999999
 20
912.5756206666667
 30
0.0
 11
-750.8371539999999
 21
908.4021786666667
 31
0.0
  0
LINE
  5
37B
  8
DATA
  6
CONTINUOUS
 62
     7
 10
-746.159
 20
908.6436666666666
 30
0.0
 11
-746.159
 21
911.6881496666667
 31
0.0
  0
LINE
  5
37C
  8
DATA
  6
CONTINUOUS
 62
     7
 10
-748.462639
 20
911.9999676666666
 30
0.0
 11
-748.462639
 21
908.9778186666667
 31
0.0
  0
LINE
  5
37D
  8
DATA
  6
CONTINUOUS
 62
     7
 10
-758.488447
 20
904.8763576666668
 30
0.0
 11
-758.488447
 21
902.7896496666667
 31
0.0
  0
LINE
  5
37E
  8
DATA
  6
CONTINUOUS
 62
     7
 10
-758.488447
 20
904.8763576666668
 30
0.0
 11
-760.647123
 21
904.8763576666668
 31
0.0
  0
LINE
  5
37F
  8
DATA
  6
CONTINUOUS
 62
     7
 10
-760.647123
 20
904.8763576666668
 30
0.0
 11
-760.647123
 21
902.7896496666667
 31
0.0
  0
ARC
  5
380
  8
DATA
  6
CONTINUOUS
 62
     7
 10
-757.572441
 20
902.7615176666666
 30
0.0
 40
0.9073074741148923
 50
269.7118487927531
 51
1.775987005698028
  0
ARC
  5
381
  8
DATA
  6
CONTINUOUS
 62
     7
 10
-757.58158
 20
902.7615176666666
 30
0.0
 40
0.9073028346973565
 50
178.2240129943097
 51
270.2881512072539
  0
ARC
  5
382
  8
DATA
  6
CONTINUOUS
 62
     7
 10
-759.132051
 20
902.8631386666668
 30
0.0
 40
1.516840270629003
 50
182.7769954499979
 51
207.3596066671561
  0
CIRCLE
  5
383
  8
DATA
  6
CONTINUOUS
 62
     7
 10
-759.387891
 20
907.3708106666666
 30
0.0
 40
1.235233999999991
  0
LINE
  5
384
  8
DATA
  6
CONTINUOUS
 62
     7
 10
-738.292895
 20
900.7988686666667
 30
0.0
 11
-744.792895
 21
900.7988686666667
 31
0.0
  0
LINE
  5
385
  8
DATA
  6
CONTINUOUS
 62
     7
 10
-738.292895
 20
900.7988686666667
 30
0.0
 11
-738.292895
 21
904.8763706666666
 31
0.0
  0
LINE
  5
386
  8
DATA
  6
CONTINUOUS
 62
     7
 10
-738.292895
 20
904.8763576666668
 30
0.0
 11
-740.475543
 21
904.8763576666668
 31
0.0
  0
LINE
  5
387
  8
DATA
  6
CONTINUOUS
 62
     7
 10
-740.475543
 20
904.8763576666668
 30
0.0
 11
-740.475543
 21
902.7896496666667
 31
0.0
  0
LINE
  5
388
  8
DATA
  6
CONTINUOUS
 62
     7
 10
-753.0198150000001
 20
900.7988686666667
 30
0.0
 11
-748.462639
 21
900.7988816666668
 31
0.0
  0
LINE
  5
389
  8
DATA
  6
CONTINUOUS
 62
     7
 10
-750.837167
 20
902.0221166666668
 30
0.0
 11
-749.661889
 21
902.0221166666668
 31
0.0
  0
LINE
  5
38A
  8
DATA
  6
CONTINUOUS
 62
     7
 10
-750.8371539999999
 20
902.0221166666668
 30
0.0
 11
-750.8371539999999
 21
907.1549586666667
 31
0.0
  0
LINE
  5
38B
  8
DATA
  6
CONTINUOUS
 62
     7
 10
-750.837167
 20
907.1549586666667
 30
0.0
 11
-749.661889
 21
907.1549586666667
 31
0.0
  0
LINE
  5
38C
  8
DATA
  6
CONTINUOUS
 62
     7
 10
-748.462639
 20
902.5977566666668
 30
0.0
 11
-748.462639
 21
906.5793186666667
 31
0.0
  0
ARC
  5
38D
  8
DATA
  6
CONTINUOUS
 62
     7
 10
-755.7821200000001
 20
902.8631386666668
 30
0.0
 40
1.516838112224681
 50
332.640393332854
 51
357.2230045499986
  0
ARC
  5
38E
  8
DATA
  6
CONTINUOUS
 62
     7
 10
-741.382423
 20
902.7615176666666
 30
0.0
 40
0.9073074741148923
 50
269.7118487927531
 51
1.775987005698028
  0
ARC
  5
38F
  8
DATA
  6
CONTINUOUS
 62
     7
 10
-741.3915489999999
 20
902.7615176666666
 30
0.0
 40
0.9073028346975838
 50
178.2240129943101
 51
270.2881512072466
  0
LINE
  5
390
  8
DATA
  6
CONTINUOUS
 62
     7
 10
-746.1600530000001
 20
902.8855896666666
 30
0.0
 11
-746.1600530000001
 21
906.3394556666667
 31
0.0
  0
LINE
  5
391
  8
DATA
  6
CONTINUOUS
 62
     7
 10
-750.837167
 20
908.4021786666667
 30
0.0
 11
-749.661889
 21
908.4021786666667
 31
0.0
  0
LINE
  5
392
  8
DATA
  6
CONTINUOUS
 62
     7
 10
-756.665574
 20
913.7988556666667
 30
0.0
 11
-754.267048
 21
913.7988556666667
 31
0.0
  0
LINE
  5
393
  8
DATA
  6
CONTINUOUS
 62
     7
 10
-761.438641
 20
913.7988556666667
 30
0.0
 11
-757.5770170000001
 21
913.7988556666667
 31
0.0
  0
LINE
  5
394
  8
DATA
  6
CONTINUOUS
 62
     7
 10
-744.792895
 20
913.7988556666667
 30
0.0
 11
-742.2984289999999
 21
913.7988556666667
 31
0.0
  0
LINE
  5
395
  8
DATA
  6
CONTINUOUS
 62
     7
 10
-753.0198150000001
 20
913.7988556666667
 30
0.0
 11
-748.4375878334092
 21
913.7988451448041
 31
0.0
  0
LINE
  5
396
  8
DATA
  6
CONTINUOUS
 62
     7
 10
-750.837167
 20
912.5756076666669
 30
0.0
 11
-749.661889
 21
912.5756076666669
 31
0.0
  0
ARC
  5
397
  8
DATA
  6
CONTINUOUS
 62
     7
 10
-749.6480108986158
 20
904.3019110154298
 30
0.0
 40
2.279836589396271
 50
269.6512199376173
 51
282.8264828068721
  0
ARC
  5
398
  8
DATA
  6
CONTINUOUS
 62
     7
 10
-749.3919491642932
 20
903.3380412620716
 30
0.0
 40
1.283669274801295
 50
281.2331036226544
 51
306.8620088940603
  0
ARC
  5
399
  8
DATA
  6
CONTINUOUS
 62
     7
 10
-748.8749842273548
 20
906.5379214078991
 30
0.0
 40
0.4144180492640424
 50
5.732980710607406
 51
52.35809750241976
  0
ARC
  5
39A
  8
DATA
  6
CONTINUOUS
 62
     7
 10
-749.6480108986158
 20
904.8751643179037
 30
0.0
 40
2.279836589396119
 50
77.17351719312664
 51
90.34878006238269
  0
ARC
  5
39B
  8
DATA
  6
CONTINUOUS
 62
     7
 10
-749.3919491642932
 20
905.839034071262
 30
0.0
 40
1.283669274801101
 50
53.13799110593965
 51
78.7668963773436
  0
ARC
  5
39C
  8
DATA
  6
CONTINUOUS
 62
     7
 10
-747.4180369999999
 20
906.2544226666666
 30
0.0
 40
1.260854613087741
 50
3.867006359825454
 51
88.36163456790725
  0
ARC
  5
39D
  8
DATA
  6
CONTINUOUS
 62
     7
 10
-747.4191940000001
 20
908.7763186666666
 30
0.0
 40
1.262107521931673
 50
271.6892821046473
 51
356.0782829826659
  0
ARC
  5
39E
  8
DATA
  6
CONTINUOUS
 62
     7
 10
-748.8749842273548
 20
909.0192159254343
 30
0.0
 40
0.4144180492641177
 50
307.641902497561
 51
354.2670192893942
  0
ARC
  5
39F
  8
DATA
  6
CONTINUOUS
 62
     7
 10
-749.6480108986158
 20
910.6819730154298
 30
0.0
 40
2.279836589396271
 50
269.6512199376173
 51
282.8264828068721
  0
ARC
  5
3A0
  8
DATA
  6
CONTINUOUS
 62
     7
 10
-749.3919491642932
 20
909.7181032620713
 30
0.0
 40
1.283669274801072
 50
281.2331036226564
 51
306.8620088940604
  0
ARC
  5
3A1
  8
DATA
  6
CONTINUOUS
 62
     7
 10
-748.8749842273548
 20
911.9585704078991
 30
0.0
 40
0.4144180492640424
 50
5.732980710607406
 51
52.35809750243895
  0
ARC
  5
3A2
  8
DATA
  6
CONTINUOUS
 62
     7
 10
-749.6480108986158
 20
910.2958133179038
 30
0.0
 40
2.279836589396119
 50
77.17351719312664
 51
90.34878006238269
  0
ARC
  5
3A3
  8
DATA
  6
CONTINUOUS
 62
     7
 10
-749.3919491642932
 20
911.2596830712621
 30
0.0
 40
1.283669274801101
 50
53.13799110593965
 51
78.7668963773436
  0
TEXT
  5
3A4
  8
DATA
 62
     7
 10
-765.2092679398148
 20
923.5769314236112
 30
0.0
 40
5.429470486111112
  1
CONTROL 5
 41
0.7
 72
     1
 11
-749.5
 21
926.2916666666667
 31
0.0
 73
     2
  0
ARC
  5
3A5
  8
DATA
  6
CONTINUOUS
 62
     7
 10
-869.9124999999999
 20
1262.216666666667
 30
0.0
 40
5.0
 50
90.0
 51
180.0
  0
ARC
  5
3A6
  8
DATA
  6
CONTINUOUS
 62
     7
 10
-629.0875000000001
 20
1262.216666666667
 30
0.0
 40
5.0
 50
0.0
 51
90.0
  0
ARC
  5
3A7
  8
DATA
  6
CONTINUOUS
 62
     7
 10
-869.9124999999999
 20
884.8666666666668
 30
0.0
 40
5.0
 50
180.0
 51
270.0
  0
ARC
  5
3A8
  8
DATA
  6
CONTINUOUS
 62
     7
 10
-629.0875000000001
 20
884.8666666666668
 30
0.0
 40
5.0
 50
270.0
 51
0.0
  0
ARC
  5
3A9
  8
DATA
  6
CONTINUOUS
 62
     7
 10
-860.0
 20
1221.791666666667
 30
0.0
 40
3.0
 50
90.0
 51
180.0
  0
ARC
  5
3AA
  8
DATA
  6
CONTINUOUS
 62
     7
 10
-639.0
 20
1221.791666666667
 30
0.0
 40
3.0
 50
0.0
 51
90.0
  0
CIRCLE
  5
3AB
  8
DATA
  6
CONTINUOUS
 62
     7
 10
-308.03
 20
1074.041666666667
 30
0.0
 40
6.849999999999909
  0
CIRCLE
  5
3AC
  8
DATA
  6
CONTINUOUS
 62
     7
 10
-308.03
 20
1074.041666666667
 30
0.0
 40
3.75
  0
POLYLINE
  5
3AD
  8
DATA
  6
CONTINUOUS
 62
     7
 66
     1
 10
0.0
 20
0.0
 30
0.0
 70
     1
  0
VERTEX
  5
79C
  8
DATA
  6
CONTINUOUS
 62
     7
 10
-308.03
 20
1076.426666666667
 30
0.0
  0
VERTEX
  5
79D
  8
DATA
  6
CONTINUOUS
 62
     7
 10
-310.0954705880258
 20
1075.234166666667
 30
0.0
  0
VERTEX
  5
79E
  8
DATA
  6
CONTINUOUS
 62
     7
 10
-310.095470588026
 20
1072.849166666667
 30
0.0
  0
VERTEX
  5
79F
  8
DATA
  6
CONTINUOUS
 62
     7
 10
-308.03
 20
1071.656666666667
 30
0.0
  0
VERTEX
  5
7A0
  8
DATA
  6
CONTINUOUS
 62
     7
 10
-305.9645294119739
 20
1072.849166666667
 30
0.0
  0
VERTEX
  5
7A1
  8
DATA
  6
CONTINUOUS
 62
     7
 10
-305.9645294119739
 20
1075.234166666667
 30
0.0
  0
SEQEND
  5
7DC
  8
DATA
  6
CONTINUOUS
 62
     7
  0
LINE
  5
3B6
  8
DATA
  6
CONTINUOUS
 62
     7
 10
-207.6300000000001
 20
979.5966666666504
 30
0.0
 11
-207.6300000000001
 21
1026.396666666667
 31
0.0
  0
LINE
  5
3B7
  8
DATA
  6
CONTINUOUS
 62
     7
 10
-207.6300000000001
 20
950.2966666666669
 30
0.0
 11
-207.6300000000001
 21
953.6005078861415
 31
0.0
  0
LINE
  5
3B8
  8
DATA
  6
CONTINUOUS
 62
     7
 10
-190.4300000000001
 20
950.2966666666669
 30
0.0
 11
-207.6300000000001
 21
950.2966666666669
 31
0.0
  0
LINE
  5
3B9
  8
DATA
  6
CONTINUOUS
 62
     7
 10
-190.4300000000001
 20
1052.196666666667
 30
0.0
 11
-190.4300000000001
 21
950.2966666666669
 31
0.0
  0
LINE
  5
3BA
  8
DATA
  6
CONTINUOUS
 62
     7
 10
-207.6300000000001
 20
1052.196666666667
 30
0.0
 11
-190.4300000000001
 21
1052.196666666667
 31
0.0
  0
LINE
  5
3BB
  8
DATA
  6
CONTINUOUS
 62
     7
 10
-207.6300000000001
 20
1032.846666666667
 30
0.0
 11
-207.6300000000001
 21
1052.196666666667
 31
0.0
  0
LINE
  5
3BC
  8
DATA
  6
CONTINUOUS
 62
     7
 10
-207.6300000000001
 20
959.8466666666668
 30
0.0
 11
-207.6300000000001
 21
972.7966666666669
 31
0.0
  0
LINE
  5
3BD
  8
DATA
  6
CONTINUOUS
 62
     7
 10
-192.0300000000002
 20
1052.196666666667
 30
0.0
 11
-192.0300000000002
 21
950.2966666666669
 31
0.0
  0
ARC
  5
3BE
  8
DATA
  6
CONTINUOUS
 62
     7
 10
-214.4549999999654
 20
976.1966666666585
 30
0.0
 40
7.624999999965191
 50
333.5189601695652
 51
26.48103983043484
  0
ARC
  5
3BF
  8
DATA
  6
CONTINUOUS
 62
     7
 10
-215.4580207315698
 20
956.7235872764043
 30
0.0
 40
8.428020731569749
 50
338.2499002765662
 51
21.75009972343236
  0
LINE
  5
3C0
  8
DATA
  6
CONTINUOUS
 62
     7
 10
-199.855
 20
1032.846666666667
 30
0.0
 11
-207.6300000000001
 21
1032.846666666667
 31
0.0
  0
LINE
  5
3C1
  8
DATA
  6
CONTINUOUS
 62
     7
 10
-199.855
 20
1026.396666666667
 30
0.0
 11
-207.6300000000001
 21
1026.396666666667
 31
0.0
  0
ARC
  5
3C2
  8
DATA
  6
CONTINUOUS
 62
     7
 10
-199.855
 20
1029.621666666667
 30
0.0
 40
3.224999999999909
 50
270.0
 51
90.0
  0
POLYLINE
  5
3C3
  8
DATA
  6
CONTINUOUS
 62
     7
 66
     1
 10
0.0
 20
0.0
 30
0.0
 70
     1
  0
VERTEX
  5
7A2
  8
DATA
  6
CONTINUOUS
 62
     7
 10
-213.9300000000003
 20
1034.271666666667
 30
0.0
  0
VERTEX
  5
7A3
  8
DATA
  6
CONTINUOUS
 62
     7
 10
-207.6300000000001
 20
1034.271666666667
 30
0.0
  0
VERTEX
  5
7A4
  8
DATA
  6
CONTINUOUS
 62
     7
 10
-207.6300000000001
 20
1024.971666666667
 30
0.0
  0
VERTEX
  5
7A5
  8
DATA
  6
CONTINUOUS
 62
     7
 10
-213.9300000000003
 20
1024.971666666667
 30
0.0
  0
SEQEND
  5
7DD
  8
DATA
  6
CONTINUOUS
 62
     7
  0
LINE
  5
3CA
  8
DATA
  6
CONTINUOUS
 62
     7
 10
-300.7952131278946
 20
1080.541666666667
 30
0.0
 11
-213.03
 21
1080.541666666667
 31
0.0
  0
LINE
  5
3CB
  8
DATA
  6
CONTINUOUS
 62
     7
 10
-213.03
 20
1067.541666666667
 30
0.0
 11
-300.7952131278944
 21
1067.541666666667
 31
0.0
  0
LINE
  5
3CC
  8
DATA
  6
CONTINUOUS
 62
     7
 10
-206.03
 20
1060.541666666667
 30
0.0
 11
-206.03
 21
1052.196666666667
 31
0.0
  0
LINE
  5
3CD
  8
DATA
  6
CONTINUOUS
 62
     7
 10
-206.03
 20
1032.846666666667
 30
0.0
 11
-206.03
 21
1032.201666666667
 31
0.0
  0
LINE
  5
3CE
  8
DATA
  6
CONTINUOUS
 62
     7
 10
-206.03
 20
1027.041666666667
 30
0.0
 11
-206.03
 21
1026.396666666667
 31
0.0
  0
LINE
  5
3CF
  8
DATA
  6
CONTINUOUS
 62
     7
 10
-193.03
 20
1060.541666666667
 30
0.0
 11
-193.03
 21
1052.196666666667
 31
0.0
  0
ARC
  5
3D0
  8
DATA
  6
CONTINUOUS
 62
     7
 10
-213.03
 20
1060.541666666667
 30
0.0
 40
20.0
 50
0.0
 51
90.0
  0
ARC
  5
3D1
  8
DATA
  6
CONTINUOUS
 62
     7
 10
-213.03
 20
1060.541666666667
 30
0.0
 40
7.0
 50
0.0
 51
90.0
  0
ARC
  5
3D2
  8
DATA
  6
CONTINUOUS
 62
     7
 10
-209.7902499999998
 20
1029.621666666667
 30
0.0
 40
4.560249999999805
 50
325.5450235470975
 51
34.45497645290476
  0
LINE
  5
3D3
  8
DATA
  6
CONTINUOUS
 62
     7
 10
-320.4300000000001
 20
1029.541666666667
 30
0.0
 11
-322.03
 21
1029.541666666667
 31
0.0
  0
LINE
  5
3D4
  8
DATA
  6
CONTINUOUS
 62
     7
 10
-320.4300000000001
 20
1118.541666666667
 30
0.0
 11
-320.4300000000001
 21
1029.541666666667
 31
0.0
  0
LINE
  5
3D5
  8
DATA
  6
CONTINUOUS
 62
     7
 10
-322.03
 20
1118.541666666667
 30
0.0
 11
-320.4300000000001
 21
1118.541666666667
 31
0.0
  0
LINE
  5
3D6
  8
DATA
  6
CONTINUOUS
 62
     7
 10
-320.4300000000001
 20
1113.141666666667
 30
0.0
 11
-283.03
 21
1113.141666666667
 31
0.0
  0
LINE
  5
3D7
  8
DATA
  6
CONTINUOUS
 62
     7
 10
-283.03
 20
1034.941666666667
 30
0.0
 11
-320.4300000000001
 21
1034.941666666667
 31
0.0
  0
LINE
  5
3D8
  8
DATA
  6
CONTINUOUS
 62
     7
 10
-283.03
 20
1113.141666666667
 30
0.0
 11
-283.03
 21
1111.541666666667
 31
0.0
  0
LINE
  5
3D9
  8
DATA
  6
CONTINUOUS
 62
     7
 10
-283.03
 20
1036.541666666667
 30
0.0
 11
-283.03
 21
1034.941666666667
 31
0.0
  0
LINE
  5
3DA
  8
DATA
  6
CONTINUOUS
 62
     7
 10
-320.4300000000001
 20
1111.541666666667
 30
0.0
 11
-283.03
 21
1111.541666666667
 31
0.0
  0
LINE
  5
3DB
  8
DATA
  6
CONTINUOUS
 62
     7
 10
-283.03
 20
1036.541666666667
 30
0.0
 11
-320.4300000000001
 21
1036.541666666667
 31
0.0
  0
LINE
  5
3DC
  8
DATA
  6
CONTINUOUS
 62
     7
 10
-311.8799999999999
 20
1086.891666666667
 30
0.0
 11
-320.4300000000001
 21
1086.891666666667
 31
0.0
  0
LINE
  5
3DD
  8
DATA
  6
CONTINUOUS
 62
     7
 10
-311.8799999999999
 20
1061.191666666667
 30
0.0
 11
-320.4300000000001
 21
1061.191666666667
 31
0.0
  0
ARC
  5
3DE
  8
DATA
  6
CONTINUOUS
 62
     7
 10
-311.8799999999999
 20
1074.041666666667
 30
0.0
 40
12.85000000000014
 50
270.0
 51
90.0
  0
LINE
  5
3DF
  8
DATA
  6
CONTINUOUS
 62
     7
 10
-326.9039409298786
 20
884.4187467020167
 30
0.0
 11
-507.4000000000001
 21
879.8666666666668
 31
0.0
  0
LINE
  5
3E0
  8
DATA
  6
CONTINUOUS
 62
     7
 10
-531.9000000000001
 20
884.7916666666667
 30
0.0
 11
-538.9000000000001
 21
884.7916666666667
 31
0.0
  0
LINE
  5
3E1
  8
DATA
  6
CONTINUOUS
 62
     7
 10
-538.9000000000001
 20
1262.291666666667
 30
0.0
 11
-531.9000000000001
 21
1262.291666666667
 31
0.0
  0
LINE
  5
3E2
  8
DATA
  6
CONTINUOUS
 62
     7
 10
-529.4000000000001
 20
879.8666666666668
 30
0.0
 11
-529.4000000000001
 21
1267.216666666667
 31
0.0
  0
ARC
  5
3E3
  8
DATA
  6
CONTINUOUS
 62
     7
 10
1136.29823113209
 20
1073.541666666667
 30
0.0
 40
1685.79823113209
 50
173.5714120094215
 51
186.4285879905785
  0
LINE
  5
3E4
  8
DATA
  6
CONTINUOUS
 62
     7
 10
-507.4000000000001
 20
1267.216666666667
 30
0.0
 11
-507.4000000000001
 21
879.8666666666668
 31
0.0
  0
LINE
  5
3E5
  8
DATA
  6
CONTINUOUS
 62
     7
 10
-508.9000000000001
 20
1267.216666666667
 30
0.0
 11
-508.9000000000001
 21
879.8666666666668
 31
0.0
  0
LINE
  5
3E6
  8
DATA
  6
CONTINUOUS
 62
     7
 10
-531.9000000000001
 20
1262.291666666667
 30
0.0
 11
-531.9000000000001
 21
884.7916666666667
 31
0.0
  0
LINE
  5
3E7
  8
DATA
  6
CONTINUOUS
 62
     7
 10
-531.9000000000001
 20
1257.041666666667
 30
0.0
 11
-529.4000000000001
 21
1257.041666666667
 31
0.0
  0
LINE
  5
3E8
  8
DATA
  6
CONTINUOUS
 62
     7
 10
-531.9000000000001
 20
890.0416666666667
 30
0.0
 11
-529.4000000000001
 21
890.0416666666667
 31
0.0
  0
LINE
  5
3E9
  8
DATA
  6
CONTINUOUS
 62
     7
 10
-508.9000000000001
 20
1263.541666666667
 30
0.0
 11
-507.4000000000001
 21
1263.541666666667
 31
0.0
  0
LINE
  5
3EA
  8
DATA
  6
CONTINUOUS
 62
     7
 10
-508.9000000000001
 20
883.5416666666667
 30
0.0
 11
-507.4000000000001
 21
883.5416666666667
 31
0.0
  0
LINE
  5
3EB
  8
DATA
  6
CONTINUOUS
 62
     7
 10
-320.9000000000001
 20
1219.541666666667
 30
0.0
 11
-320.9000000000001
 21
1142.541666666667
 31
0.0
  0
LINE
  5
3EC
  8
DATA
  6
CONTINUOUS
 62
     7
 10
-322.03
 20
1257.666175972833
 30
0.0
 11
-322.03
 21
889.4171573605001
 31
0.0
  0
LINE
  5
3ED
  8
DATA
  6
CONTINUOUS
 62
     7
 10
-320.9000000000001
 20
1142.541666666667
 30
0.0
 11
-322.03
 21
1142.541666666667
 31
0.0
  0
LINE
  5
3EE
  8
DATA
  6
CONTINUOUS
 62
     7
 10
-322.03
 20
1219.541666666667
 30
0.0
 11
-320.9000000000001
 21
1219.541666666667
 31
0.0
  0
LINE
  5
3EF
  8
DATA
  6
CONTINUOUS
 62
     7
 10
-529.4000000000001
 20
879.8666666666668
 30
0.0
 11
-508.9000000000001
 21
879.8666666666668
 31
0.0
  0
LINE
  5
3F0
  8
DATA
  6
CONTINUOUS
 62
     7
 10
-326.9039409298786
 20
1262.664586631317
 30
0.0
 11
-507.4000000000001
 21
1267.216666666667
 31
0.0
  0
LINE
  5
3F1
  8
DATA
  6
CONTINUOUS
 62
     7
 10
-529.4000000000001
 20
1267.216666666667
 30
0.0
 11
-508.9000000000001
 21
1267.216666666667
 31
0.0
  0
ARC
  5
3F2
  8
DATA
  6
CONTINUOUS
 62
     7
 10
-327.03
 20
1257.666175972833
 30
0.0
 40
5.0
 50
0.0
 51
88.55531638625274
  0
ARC
  5
3F3
  8
DATA
  6
CONTINUOUS
 62
     7
 10
-327.03
 20
889.4171573605001
 30
0.0
 40
5.000000000000041
 50
271.4446836137473
 51
0.0
  0
LINE
  5
3F4
  8
DATA
  6
CONTINUOUS
 62
     7
 10
-190.4300000000001
 20
1398.541666666667
 30
0.0
 11
-190.4300000000001
 21
748.5416666666666
 31
0.0
  0
CIRCLE
  5
3F5
  8
DATA
  6
CONTINUOUS
 62
     7
 10
1056.47
 20
1087.541666666667
 30
0.0
 40
6.850000000000136
  0
CIRCLE
  5
3F6
  8
DATA
  6
CONTINUOUS
 62
     7
 10
1056.47
 20
1087.541666666667
 30
0.0
 40
3.75
  0
POLYLINE
  5
3F7
  8
DATA
  6
CONTINUOUS
 62
     7
 66
     1
 10
0.0
 20
0.0
 30
0.0
 70
     1
  0
VERTEX
  5
7A6
  8
DATA
  6
CONTINUOUS
 62
     7
 10
1056.47
 20
1089.926666666667
 30
0.0
  0
VERTEX
  5
7A7
  8
DATA
  6
CONTINUOUS
 62
     7
 10
1054.404529411974
 20
1088.734166666667
 30
0.0
  0
VERTEX
  5
7A8
  8
DATA
  6
CONTINUOUS
 62
     7
 10
1054.404529411974
 20
1086.349166666667
 30
0.0
  0
VERTEX
  5
7A9
  8
DATA
  6
CONTINUOUS
 62
     7
 10
1056.47
 20
1085.156666666667
 30
0.0
  0
VERTEX
  5
7AA
  8
DATA
  6
CONTINUOUS
 62
     7
 10
1058.535470588026
 20
1086.349166666667
 30
0.0
  0
VERTEX
  5
7AB
  8
DATA
  6
CONTINUOUS
 62
     7
 10
1058.535470588026
 20
1088.734166666667
 30
0.0
  0
SEQEND
  5
7DE
  8
DATA
  6
CONTINUOUS
 62
     7
  0
LINE
  5
400
  8
DATA
  6
CONTINUOUS
 62
     7
 10
1156.87
 20
993.0966666666502
 30
0.0
 11
1156.87
 21
1039.896666666667
 31
0.0
  0
LINE
  5
401
  8
DATA
  6
CONTINUOUS
 62
     7
 10
1156.87
 20
963.7966666666666
 30
0.0
 11
1156.87
 21
967.1005078861413
 31
0.0
  0
LINE
  5
402
  8
DATA
  6
CONTINUOUS
 62
     7
 10
1174.07
 20
963.7966666666666
 30
0.0
 11
1156.87
 21
963.7966666666666
 31
0.0
  0
LINE
  5
403
  8
DATA
  6
CONTINUOUS
 62
     7
 10
1174.07
 20
1065.696666666667
 30
0.0
 11
1174.07
 21
963.7966666666666
 31
0.0
  0
LINE
  5
404
  8
DATA
  6
CONTINUOUS
 62
     7
 10
1156.87
 20
1065.696666666667
 30
0.0
 11
1174.07
 21
1065.696666666667
 31
0.0
  0
LINE
  5
405
  8
DATA
  6
CONTINUOUS
 62
     7
 10
1156.87
 20
1046.346666666667
 30
0.0
 11
1156.87
 21
1065.696666666667
 31
0.0
  0
LINE
  5
406
  8
DATA
  6
CONTINUOUS
 62
     7
 10
1156.87
 20
973.3466666666668
 30
0.0
 11
1156.87
 21
986.2966666666666
 31
0.0
  0
LINE
  5
407
  8
DATA
  6
CONTINUOUS
 62
     7
 10
1172.47
 20
1065.696666666667
 30
0.0
 11
1172.47
 21
963.7966666666666
 31
0.0
  0
ARC
  5
408
  8
DATA
  6
CONTINUOUS
 62
     7
 10
1150.045000000035
 20
989.6966666666583
 30
0.0
 40
7.624999999965191
 50
333.5189601695652
 51
26.48103983043638
  0
ARC
  5
409
  8
DATA
  6
CONTINUOUS
 62
     7
 10
1149.04197926843
 20
970.223587276404
 30
0.0
 40
8.428020731570172
 50
338.2499002765674
 51
21.75009972343122
  0
LINE
  5
40A
  8
DATA
  6
CONTINUOUS
 62
     7
 10
1164.645
 20
1046.346666666667
 30
0.0
 11
1156.87
 21
1046.346666666667
 31
0.0
  0
LINE
  5
40B
  8
DATA
  6
CONTINUOUS
 62
     7
 10
1164.645
 20
1039.896666666667
 30
0.0
 11
1156.87
 21
1039.896666666667
 31
0.0
  0
ARC
  5
40C
  8
DATA
  6
CONTINUOUS
 62
     7
 10
1164.645
 20
1043.121666666666
 30
0.0
 40
3.224999999999909
 50
270.0
 51
90.0
  0
LINE
  5
40D
  8
DATA
  6
CONTINUOUS
 62
     7
 10
1065.204786872105
 20
1094.041666666667
 30
0.0
 11
1151.47
 21
1094.041666666667
 31
0.0
  0
LINE
  5
40E
  8
DATA
  6
CONTINUOUS
 62
     7
 10
1151.47
 20
1081.041666666667
 30
0.0
 11
1065.204786872105
 21
1081.041666666667
 31
0.0
  0
LINE
  5
40F
  8
DATA
  6
CONTINUOUS
 62
     7
 10
1158.47
 20
1074.041666666667
 30
0.0
 11
1158.47
 21
1065.696666666667
 31
0.0
  0
LINE
  5
410
  8
DATA
  6
CONTINUOUS
 62
     7
 10
1158.47
 20
1046.346666666667
 30
0.0
 11
1158.47
 21
1045.701666666667
 31
0.0
  0
LINE
  5
411
  8
DATA
  6
CONTINUOUS
 62
     7
 10
1158.47
 20
1040.541666666667
 30
0.0
 11
1158.47
 21
1039.896666666667
 31
0.0
  0
LINE
  5
412
  8
DATA
  6
CONTINUOUS
 62
     7
 10
1171.47
 20
1074.041666666667
 30
0.0
 11
1171.47
 21
1065.696666666667
 31
0.0
  0
ARC
  5
413
  8
DATA
  6
CONTINUOUS
 62
     7
 10
1151.47
 20
1074.041666666667
 30
0.0
 40
20.0
 50
0.0
 51
90.0
  0
ARC
  5
414
  8
DATA
  6
CONTINUOUS
 62
     7
 10
1151.47
 20
1074.041666666667
 30
0.0
 40
7.0
 50
0.0
 51
90.0
  0
ARC
  5
415
  8
DATA
  6
CONTINUOUS
 62
     7
 10
1154.70975
 20
1043.121666666667
 30
0.0
 40
4.560249999999934
 50
325.5450235470952
 51
34.45497645290482
  0
POLYLINE
  5
416
  8
DATA
  6
CONTINUOUS
 62
     7
 66
     1
 10
0.0
 20
0.0
 30
0.0
 70
     1
  0
VERTEX
  5
7AC
  8
DATA
  6
CONTINUOUS
 62
     7
 10
1150.569999999999
 20
1047.771666666667
 30
0.0
  0
VERTEX
  5
7AD
  8
DATA
  6
CONTINUOUS
 62
     7
 10
1156.87
 20
1047.771666666667
 30
0.0
  0
VERTEX
  5
7AE
  8
DATA
  6
CONTINUOUS
 62
     7
 10
1156.87
 20
1038.471666666667
 30
0.0
  0
VERTEX
  5
7AF
  8
DATA
  6
CONTINUOUS
 62
     7
 10
1150.569999999999
 20
1038.471666666667
 30
0.0
  0
SEQEND
  5
7DF
  8
DATA
  6
CONTINUOUS
 62
     7
  0
LINE
  5
41D
  8
DATA
  6
CONTINUOUS
 62
     7
 10
1174.07
 20
1448.541666666667
 30
0.0
 11
1174.07
 21
798.5416666666666
 31
0.0
  0
TEXT
  5
41E
  8
DATA
 62
     7
 10
-1250.0
 20
307.855
 30
0.0
 40
36.64892578125
  1
※横振りすると下振り最大角度は変わります。
 41
0.7
 11
-1250.0
 21
344.50392578125
 31
0.0
 73
     3
  0
LINE
  5
41F
  8
DATA
  6
CONTINUOUS
 62
     7
 10
1027.97
 20
1187.041666666667
 30
0.0
 11
1029.57
 21
1187.041666666667
 31
0.0
  0
LINE
  5
420
  8
DATA
  6
CONTINUOUS
 62
     7
 10
1029.57
 20
1035.041666666667
 30
0.0
 11
1027.97
 21
1035.041666666667
 31
0.0
  0
LINE
  5
421
  8
DATA
  6
CONTINUOUS
 62
     7
 10
1029.57
 20
1187.041666666667
 30
0.0
 11
1029.57
 21
1035.041666666667
 31
0.0
  0
LINE
  5
422
  8
DATA
  6
CONTINUOUS
 62
     7
 10
1050.97
 20
1071.941666666667
 30
0.0
 11
1029.57
 21
1071.941666666667
 31
0.0
  0
LINE
  5
423
  8
DATA
  6
CONTINUOUS
 62
     7
 10
1029.57
 20
1150.141666666666
 30
0.0
 11
1050.97
 21
1150.141666666666
 31
0.0
  0
LINE
  5
424
  8
DATA
  6
CONTINUOUS
 62
     7
 10
1029.57
 20
1148.541666666667
 30
0.0
 11
1050.97
 21
1148.541666666667
 31
0.0
  0
LINE
  5
425
  8
DATA
  6
CONTINUOUS
 62
     7
 10
1050.97
 20
1150.141666666666
 30
0.0
 11
1050.97
 21
1148.541666666667
 31
0.0
  0
LINE
  5
426
  8
DATA
  6
CONTINUOUS
 62
     7
 10
1050.97
 20
1073.541666666667
 30
0.0
 11
1050.97
 21
1071.941666666667
 31
0.0
  0
LINE
  5
427
  8
DATA
  6
CONTINUOUS
 62
     7
 10
1029.57
 20
1073.541666666667
 30
0.0
 11
1050.97
 21
1073.541666666667
 31
0.0
  0
LINE
  5
428
  8
DATA
  6
CONTINUOUS
 62
     7
 10
1054.12
 20
1100.391666666667
 30
0.0
 11
1029.57
 21
1100.391666666667
 31
0.0
  0
ARC
  5
429
  8
DATA
  6
CONTINUOUS
 62
     7
 10
1054.12
 20
1087.541666666667
 30
0.0
 40
12.84999999999991
 50
270.0
 51
90.0
  0
LINE
  5
42A
  8
DATA
  6
CONTINUOUS
 62
     7
 10
1054.12
 20
1074.691666666667
 30
0.0
 11
1029.57
 21
1074.691666666667
 31
0.0
  0
LINE
  5
42B
  8
DATA
  6
CONTINUOUS
 62
     7
 10
820.6
 20
1248.954166666666
 30
0.0
 11
841.1
 21
1248.954166666666
 31
0.0
  0
LINE
  5
42C
  8
DATA
  6
CONTINUOUS
 62
     7
 10
842.6
 20
1248.954166666666
 30
0.0
 11
861.1
 21
1248.954166666666
 31
0.0
  0
LINE
  5
42D
  8
DATA
  6
CONTINUOUS
 62
     7
 10
800.5
 20
1001.791666666667
 30
0.0
 11
800.5
 21
1245.291666666667
 31
0.0
  0
LINE
  5
42E
  8
DATA
  6
CONTINUOUS
 62
     7
 10
861.1
 20
998.1291666666667
 30
0.0
 11
842.6
 21
998.1291666666667
 31
0.0
  0
LINE
  5
42F
  8
DATA
  6
CONTINUOUS
 62
     7
 10
841.1
 20
998.1291666666667
 30
0.0
 11
820.6
 21
998.1291666666667
 31
0.0
  0
LINE
  5
430
  8
DATA
  6
CONTINUOUS
 62
     7
 10
1029.1
 20
1161.791666666667
 30
0.0
 11
1029.1
 21
1085.291666666667
 31
0.0
  0
LINE
  5
431
  8
DATA
  6
CONTINUOUS
 62
     7
 10
920.1
 20
1222.541666666667
 30
0.0
 11
1024.97
 21
1222.541666666667
 31
0.0
  0
LINE
  5
432
  8
DATA
  6
CONTINUOUS
 62
     7
 10
1024.97
 20
1023.747916666666
 30
0.0
 11
920.1
 21
1023.747916666666
 31
0.0
  0
LINE
  5
433
  8
DATA
  6
CONTINUOUS
 62
     7
 10
920.1
 20
1222.541666666667
 30
0.0
 11
861.1
 21
1248.954166666666
 31
0.0
  0
LINE
  5
434
  8
DATA
  6
CONTINUOUS
 62
     7
 10
861.1
 20
998.1291666666667
 30
0.0
 11
920.1
 21
1023.747916666666
 31
0.0
  0
LINE
  5
435
  8
DATA
  6
CONTINUOUS
 62
     7
 10
1027.97
 20
1219.541666666667
 30
0.0
 11
1027.97
 21
1026.747916666666
 31
0.0
  0
LINE
  5
436
  8
DATA
  6
CONTINUOUS
 62
     7
 10
842.6
 20
1248.954166666666
 30
0.0
 11
842.6
 21
998.1291666666667
 31
0.0
  0
LINE
  5
437
  8
DATA
  6
CONTINUOUS
 62
     7
 10
841.1
 20
1248.954166666666
 30
0.0
 11
841.1
 21
998.1291666666667
 31
0.0
  0
LINE
  5
438
  8
DATA
  6
CONTINUOUS
 62
     7
 10
820.6
 20
1248.954166666666
 30
0.0
 11
820.6
 21
998.1291666666667
 31
0.0
  0
LINE
  5
439
  8
DATA
  6
CONTINUOUS
 62
     7
 10
811.1
 20
1245.291666666667
 30
0.0
 11
811.1
 21
1001.791666666667
 31
0.0
  0
LINE
  5
43A
  8
DATA
  6
CONTINUOUS
 62
     7
 10
818.1
 20
1245.291666666667
 30
0.0
 11
800.5
 21
1245.291666666667
 31
0.0
  0
LINE
  5
43B
  8
DATA
  6
CONTINUOUS
 62
     7
 10
818.1
 20
1001.791666666667
 30
0.0
 11
800.5
 21
1001.791666666667
 31
0.0
  0
LINE
  5
43C
  8
DATA
  6
CONTINUOUS
 62
     7
 10
818.1
 20
1245.291666666667
 30
0.0
 11
818.1
 21
1001.791666666667
 31
0.0
  0
LINE
  5
43D
  8
DATA
  6
CONTINUOUS
 62
     7
 10
820.6
 20
1243.041666666667
 30
0.0
 11
818.0999999999999
 21
1243.041666666667
 31
0.0
  0
LINE
  5
43E
  8
DATA
  6
CONTINUOUS
 62
     7
 10
820.6
 20
1004.041666666667
 30
0.0
 11
818.0999999999999
 21
1004.041666666667
 31
0.0
  0
LINE
  5
43F
  8
DATA
  6
CONTINUOUS
 62
     7
 10
841.1
 20
1245.041666666667
 30
0.0
 11
842.6
 21
1245.041666666667
 31
0.0
  0
LINE
  5
440
  8
DATA
  6
CONTINUOUS
 62
     7
 10
841.1
 20
1002.041666666667
 30
0.0
 11
842.6
 21
1002.041666666667
 31
0.0
  0
LINE
  5
441
  8
DATA
  6
CONTINUOUS
 62
     7
 10
1029.1
 20
1161.791666666667
 30
0.0
 11
1027.97
 21
1161.791666666667
 31
0.0
  0
LINE
  5
442
  8
DATA
  6
CONTINUOUS
 62
     7
 10
1029.1
 20
1085.291666666667
 30
0.0
 11
1027.97
 21
1085.291666666667
 31
0.0
  0
LINE
  5
443
  8
DATA
  6
CONTINUOUS
 62
     7
 10
907.1
 20
1179.041666666667
 30
0.0
 11
907.1
 21
1068.041666666667
 31
0.0
  0
LINE
  5
444
  8
DATA
  6
CONTINUOUS
 62
     7
 10
1027.97
 20
1179.041666666667
 30
0.0
 11
907.1
 21
1179.041666666667
 31
0.0
  0
LINE
  5
445
  8
DATA
  6
CONTINUOUS
 62
     7
 10
1027.97
 20
1068.041666666667
 30
0.0
 11
907.1
 21
1068.041666666667
 31
0.0
  0
LINE
  5
446
  8
DATA
  6
CONTINUOUS
 62
     7
 10
1027.97
 20
1163.794791666666
 30
0.0
 11
927.32
 21
1163.794791666666
 31
0.0
  0
LINE
  5
447
  8
DATA
  6
CONTINUOUS
 62
     7
 10
1027.97
 20
1166.494791666667
 30
0.0
 11
927.32
 21
1166.494791666667
 31
0.0
  0
ARC
  5
448
  8
DATA
  6
CONTINUOUS
 62
     7
 10
927.32
 20
1165.144791666667
 30
0.0
 40
1.349999999999909
 50
90.0
 51
270.0
  0
LINE
  5
449
  8
DATA
  6
CONTINUOUS
 62
     7
 10
1027.97
 20
1149.794791666666
 30
0.0
 11
927.32
 21
1149.794791666666
 31
0.0
  0
LINE
  5
44A
  8
DATA
  6
CONTINUOUS
 62
     7
 10
1027.97
 20
1152.494791666667
 30
0.0
 11
927.32
 21
1152.494791666667
 31
0.0
  0
ARC
  5
44B
  8
DATA
  6
CONTINUOUS
 62
     7
 10
927.32
 20
1151.144791666667
 30
0.0
 40
1.349999999999909
 50
90.0
 51
270.0
  0
LINE
  5
44C
  8
DATA
  6
CONTINUOUS
 62
     7
 10
1027.97
 20
1135.794791666666
 30
0.0
 11
927.32
 21
1135.794791666666
 31
0.0
  0
LINE
  5
44D
  8
DATA
  6
CONTINUOUS
 62
     7
 10
1027.97
 20
1138.494791666667
 30
0.0
 11
927.32
 21
1138.494791666667
 31
0.0
  0
ARC
  5
44E
  8
DATA
  6
CONTINUOUS
 62
     7
 10
927.32
 20
1137.144791666667
 30
0.0
 40
1.349999999999909
 50
90.0
 51
270.0
  0
LINE
  5
44F
  8
DATA
  6
CONTINUOUS
 62
     7
 10
1027.97
 20
1121.794791666666
 30
0.0
 11
927.32
 21
1121.794791666666
 31
0.0
  0
LINE
  5
450
  8
DATA
  6
CONTINUOUS
 62
     7
 10
1027.97
 20
1124.494791666667
 30
0.0
 11
927.32
 21
1124.494791666667
 31
0.0
  0
ARC
  5
451
  8
DATA
  6
CONTINUOUS
 62
     7
 10
927.32
 20
1123.144791666667
 30
0.0
 40
1.349999999999909
 50
90.0
 51
270.0
  0
LINE
  5
452
  8
DATA
  6
CONTINUOUS
 62
     7
 10
1027.97
 20
1107.794791666666
 30
0.0
 11
927.32
 21
1107.794791666666
 31
0.0
  0
LINE
  5
453
  8
DATA
  6
CONTINUOUS
 62
     7
 10
1027.97
 20
1110.494791666667
 30
0.0
 11
927.32
 21
1110.494791666667
 31
0.0
  0
ARC
  5
454
  8
DATA
  6
CONTINUOUS
 62
     7
 10
927.32
 20
1109.144791666667
 30
0.0
 40
1.349999999999909
 50
90.0
 51
270.0
  0
LINE
  5
455
  8
DATA
  6
CONTINUOUS
 62
     7
 10
1027.97
 20
1093.794791666666
 30
0.0
 11
927.32
 21
1093.794791666666
 31
0.0
  0
LINE
  5
456
  8
DATA
  6
CONTINUOUS
 62
     7
 10
1027.97
 20
1096.494791666667
 30
0.0
 11
927.32
 21
1096.494791666667
 31
0.0
  0
ARC
  5
457
  8
DATA
  6
CONTINUOUS
 62
     7
 10
927.32
 20
1095.144791666667
 30
0.0
 40
1.349999999999909
 50
90.0
 51
270.0
  0
LINE
  5
458
  8
DATA
  6
CONTINUOUS
 62
     7
 10
1027.97
 20
1079.794791666666
 30
0.0
 11
927.32
 21
1079.794791666666
 31
0.0
  0
LINE
  5
459
  8
DATA
  6
CONTINUOUS
 62
     7
 10
1027.97
 20
1082.494791666667
 30
0.0
 11
927.32
 21
1082.494791666667
 31
0.0
  0
ARC
  5
45A
  8
DATA
  6
CONTINUOUS
 62
     7
 10
927.32
 20
1081.144791666667
 30
0.0
 40
1.349999999999909
 50
90.0
 51
270.0
  0
ARC
  5
45B
  8
DATA
  6
CONTINUOUS
 62
     7
 10
1024.97
 20
1219.541666666667
 30
0.0
 40
3.0
 50
0.0
 51
90.0
  0
ARC
  5
45C
  8
DATA
  6
CONTINUOUS
 62
     7
 10
1024.97
 20
1026.747916666666
 30
0.0
 40
2.999999999999886
 50
270.0
 51
0.0
  0
LINE
  5
45D
  8
DATA
  6
CONTINUOUS
 62
     7
 10
-713.103125
 20
1608.47
 30
0.0
 11
-713.2531250000001
 21
1608.47
 31
0.0
  0
LINE
  5
45E
  8
DATA
  6
CONTINUOUS
 62
     7
 10
-713.103125
 20
1624.47
 30
0.0
 11
-713.103125
 21
1608.47
 31
0.0
  0
LINE
  5
45F
  8
DATA
  6
CONTINUOUS
 62
     7
 10
-713.2531250000001
 20
1624.47
 30
0.0
 11
-713.103125
 21
1624.47
 31
0.0
  0
LINE
  5
460
  8
DATA
  6
CONTINUOUS
 62
     7
 10
-786.103125
 20
1624.47
 30
0.0
 11
-738.9531250000001
 21
1624.47
 31
0.0
  0
LINE
  5
461
  8
DATA
  6
CONTINUOUS
 62
     7
 10
-786.103125
 20
1608.47
 30
0.0
 11
-786.103125
 21
1624.47
 31
0.0
  0
LINE
  5
462
  8
DATA
  6
CONTINUOUS
 62
     7
 10
-738.9531250000001
 20
1608.47
 30
0.0
 11
-786.103125
 21
1608.47
 31
0.0
  0
LINE
  5
463
  8
DATA
  6
CONTINUOUS
 62
     7
 10
-756.103125
 20
1627.47
 30
0.0
 11
-756.103125
 21
1724.97
 31
0.0
  0
LINE
  5
464
  8
DATA
  6
CONTINUOUS
 62
     7
 10
-743.103125
 20
1724.97
 30
0.0
 11
-743.103125
 21
1627.47
 31
0.0
  0
ARC
  5
465
  8
DATA
  6
CONTINUOUS
 62
     7
 10
-747.1281249999998
 20
1620.445
 30
0.0
 40
8.096372644585896
 50
29.81071326281815
 51
60.18928673718406
  0
ARC
  5
466
  8
DATA
  6
CONTINUOUS
 62
     7
 10
-752.0781250000001
 20
1620.445
 30
0.0
 40
8.09637264458598
 50
119.810713262816
 51
150.1892867371819
  0
LINE
  5
467
  8
DATA
  6
CONTINUOUS
 62
     7
 10
-756.103125
 20
1627.47
 30
0.0
 11
-743.103125
 21
1627.47
 31
0.0
  0
ARC
  5
468
  8
DATA
  6
CONTINUOUS
 62
     7
 10
-749.603125
 20
1724.97
 30
0.0
 40
6.5
 50
0.0
 51
180.0
  0
LINE
  5
469
  8
DATA
  6
CONTINUOUS
 62
     7
 10
-825.603125
 20
1602.47
 30
0.0
 11
-825.603125
 21
1604.07
 31
0.0
  0
LINE
  5
46A
  8
DATA
  6
CONTINUOUS
 62
     7
 10
-673.603125
 20
1604.07
 30
0.0
 11
-673.603125
 21
1602.47
 31
0.0
  0
LINE
  5
46B
  8
DATA
  6
CONTINUOUS
 62
     7
 10
-825.603125
 20
1604.07
 30
0.0
 11
-673.603125
 21
1604.07
 31
0.0
  0
LINE
  5
46C
  8
DATA
  6
CONTINUOUS
 62
     7
 10
-710.5031250000001
 20
1625.47
 30
0.0
 11
-710.5031250000001
 21
1604.07
 31
0.0
  0
LINE
  5
46D
  8
DATA
  6
CONTINUOUS
 62
     7
 10
-788.7031249999999
 20
1604.07
 30
0.0
 11
-788.7031249999999
 21
1625.47
 31
0.0
  0
LINE
  5
46E
  8
DATA
  6
CONTINUOUS
 62
     7
 10
-787.103125
 20
1604.07
 30
0.0
 11
-787.103125
 21
1625.47
 31
0.0
  0
LINE
  5
46F
  8
DATA
  6
CONTINUOUS
 62
     7
 10
-788.7031249999999
 20
1625.47
 30
0.0
 11
-787.103125
 21
1625.47
 31
0.0
  0
LINE
  5
470
  8
DATA
  6
CONTINUOUS
 62
     7
 10
-712.103125
 20
1625.47
 30
0.0
 11
-710.5031250000001
 21
1625.47
 31
0.0
  0
LINE
  5
471
  8
DATA
  6
CONTINUOUS
 62
     7
 10
-712.103125
 20
1604.07
 30
0.0
 11
-712.103125
 21
1625.47
 31
0.0
  0
LINE
  5
472
  8
DATA
  6
CONTINUOUS
 62
     7
 10
-738.9531250000001
 20
1628.62
 30
0.0
 11
-738.9531250000001
 21
1604.07
 31
0.0
  0
ARC
  5
473
  8
DATA
  6
CONTINUOUS
 62
     7
 10
-726.103125
 20
1628.62
 30
0.0
 40
12.84999999999991
 50
0.0
 51
180.0
  0
LINE
  5
474
  8
DATA
  6
CONTINUOUS
 62
     7
 10
-713.2531250000001
 20
1628.62
 30
0.0
 11
-713.2531250000001
 21
1604.07
 31
0.0
  0
CIRCLE
  5
475
  8
DATA
  6
CONTINUOUS
 62
     7
 10
-726.103125
 20
1630.97
 30
0.0
 40
3.899999999999864
  0
LINE
  5
476
  8
DATA
  6
CONTINUOUS
 62
     7
 10
-706.0031250000001
 20
1620.22
 30
0.0
 11
-706.0031250000001
 21
1612.72
 31
0.0
  0
ARC
  5
477
  8
DATA
  6
CONTINUOUS
 62
     7
 10
-715.7838815789479
 20
1610.838256578947
 30
0.0
 40
13.5528708720738
 50
43.8071250288364
 51
67.06782567339943
  0
ARC
  5
478
  8
DATA
  6
CONTINUOUS
 62
     7
 10
-715.7838815789479
 20
1622.101743421053
 30
0.0
 40
13.55287087207412
 50
292.9321743265999
 51
316.1928749711636
  0
LINE
  5
479
  8
DATA
  6
CONTINUOUS
 62
     7
 10
-712.103125
 20
1609.12
 30
0.0
 11
-713.103125
 21
1609.12
 31
0.0
  0
LINE
  5
47A
  8
DATA
  6
CONTINUOUS
 62
     7
 10
-713.103125
 20
1623.82
 30
0.0
 11
-712.103125
 21
1623.82
 31
0.0
  0
LINE
  5
47B
  8
DATA
  6
CONTINUOUS
 62
     7
 10
-793.2031249999999
 20
1620.22
 30
0.0
 11
-793.2031249999999
 21
1612.72
 31
0.0
  0
ARC
  5
47C
  8
DATA
  6
CONTINUOUS
 62
     7
 10
-783.422368421052
 20
1610.838256578947
 30
0.0
 40
13.5528708720737
 50
112.9321743266006
 51
136.1928749711636
  0
ARC
  5
47D
  8
DATA
  6
CONTINUOUS
 62
     7
 10
-783.422368421052
 20
1622.101743421053
 30
0.0
 40
13.5528708720738
 50
223.8071250288364
 51
247.0678256734001
  0
LINE
  5
47E
  8
DATA
  6
CONTINUOUS
 62
     7
 10
-787.103125
 20
1609.12
 30
0.0
 11
-786.103125
 21
1609.12
 31
0.0
  0
LINE
  5
47F
  8
DATA
  6
CONTINUOUS
 62
     7
 10
-786.103125
 20
1623.82
 30
0.0
 11
-787.103125
 21
1623.82
 31
0.0
  0
LINE
  5
480
  8
DATA
  6
CONTINUOUS
 62
     7
 10
-875.4124999999999
 20
1395.1
 30
0.0
 11
-875.4124999999999
 21
1415.6
 31
0.0
  0
LINE
  5
481
  8
DATA
  6
CONTINUOUS
 62
     7
 10
-875.4124999999999
 20
1417.1
 30
0.0
 11
-875.4124999999999
 21
1435.6
 31
0.0
  0
LINE
  5
482
  8
DATA
  6
CONTINUOUS
 62
     7
 10
-628.25
 20
1375.0
 30
0.0
 11
-871.75
 21
1375.0
 31
0.0
  0
LINE
  5
483
  8
DATA
  6
CONTINUOUS
 62
     7
 10
-624.5875000000001
 20
1435.6
 30
0.0
 11
-624.5875000000001
 21
1417.1
 31
0.0
  0
LINE
  5
484
  8
DATA
  6
CONTINUOUS
 62
     7
 10
-624.5875000000001
 20
1415.6
 30
0.0
 11
-624.5875000000001
 21
1395.1
 31
0.0
  0
LINE
  5
485
  8
DATA
  6
CONTINUOUS
 62
     7
 10
-788.25
 20
1603.6
 30
0.0
 11
-711.75
 21
1603.6
 31
0.0
  0
LINE
  5
486
  8
DATA
  6
CONTINUOUS
 62
     7
 10
-849.0
 20
1494.6
 30
0.0
 11
-849.0
 21
1599.47
 31
0.0
  0
LINE
  5
487
  8
DATA
  6
CONTINUOUS
 62
     7
 10
-650.20625
 20
1599.47
 30
0.0
 11
-650.20625
 21
1494.6
 31
0.0
  0
LINE
  5
488
  8
DATA
  6
CONTINUOUS
 62
     7
 10
-849.0
 20
1494.6
 30
0.0
 11
-875.4124999999999
 21
1435.6
 31
0.0
  0
LINE
  5
489
  8
DATA
  6
CONTINUOUS
 62
     7
 10
-624.5875000000001
 20
1435.6
 30
0.0
 11
-650.20625
 21
1494.6
 31
0.0
  0
LINE
  5
48A
  8
DATA
  6
CONTINUOUS
 62
     7
 10
-846.0
 20
1602.47
 30
0.0
 11
-653.20625
 21
1602.47
 31
0.0
  0
LINE
  5
48B
  8
DATA
  6
CONTINUOUS
 62
     7
 10
-875.4124999999999
 20
1417.1
 30
0.0
 11
-624.5875000000001
 21
1417.1
 31
0.0
  0
LINE
  5
48C
  8
DATA
  6
CONTINUOUS
 62
     7
 10
-875.4124999999999
 20
1415.6
 30
0.0
 11
-624.5875000000001
 21
1415.6
 31
0.0
  0
LINE
  5
48D
  8
DATA
  6
CONTINUOUS
 62
     7
 10
-875.4124999999999
 20
1395.1
 30
0.0
 11
-624.5875000000001
 21
1395.1
 31
0.0
  0
LINE
  5
48E
  8
DATA
  6
CONTINUOUS
 62
     7
 10
-871.75
 20
1385.6
 30
0.0
 11
-628.25
 21
1385.6
 31
0.0
  0
LINE
  5
48F
  8
DATA
  6
CONTINUOUS
 62
     7
 10
-871.75
 20
1392.6
 30
0.0
 11
-871.75
 21
1375.0
 31
0.0
  0
LINE
  5
490
  8
DATA
  6
CONTINUOUS
 62
     7
 10
-628.25
 20
1392.6
 30
0.0
 11
-628.25
 21
1375.0
 31
0.0
  0
LINE
  5
491
  8
DATA
  6
CONTINUOUS
 62
     7
 10
-871.75
 20
1392.6
 30
0.0
 11
-628.25
 21
1392.6
 31
0.0
  0
LINE
  5
492
  8
DATA
  6
CONTINUOUS
 62
     7
 10
-869.5
 20
1395.1
 30
0.0
 11
-869.5
 21
1392.6
 31
0.0
  0
LINE
  5
493
  8
DATA
  6
CONTINUOUS
 62
     7
 10
-630.5
 20
1395.1
 30
0.0
 11
-630.5
 21
1392.6
 31
0.0
  0
LINE
  5
494
  8
DATA
  6
CONTINUOUS
 62
     7
 10
-871.5
 20
1415.6
 30
0.0
 11
-871.5
 21
1417.1
 31
0.0
  0
LINE
  5
495
  8
DATA
  6
CONTINUOUS
 62
     7
 10
-628.5
 20
1415.6
 30
0.0
 11
-628.5
 21
1417.1
 31
0.0
  0
LINE
  5
496
  8
DATA
  6
CONTINUOUS
 62
     7
 10
-788.25
 20
1603.6
 30
0.0
 11
-788.25
 21
1602.47
 31
0.0
  0
LINE
  5
497
  8
DATA
  6
CONTINUOUS
 62
     7
 10
-711.75
 20
1603.6
 30
0.0
 11
-711.75
 21
1602.47
 31
0.0
  0
LINE
  5
498
  8
DATA
  6
CONTINUOUS
 62
     7
 10
-805.5
 20
1481.6
 30
0.0
 11
-694.5
 21
1481.6
 31
0.0
  0
LINE
  5
499
  8
DATA
  6
CONTINUOUS
 62
     7
 10
-805.5
 20
1602.47
 30
0.0
 11
-805.5
 21
1481.6
 31
0.0
  0
LINE
  5
49A
  8
DATA
  6
CONTINUOUS
 62
     7
 10
-694.5
 20
1602.47
 30
0.0
 11
-694.5
 21
1481.6
 31
0.0
  0
LINE
  5
49B
  8
DATA
  6
CONTINUOUS
 62
     7
 10
-790.253125
 20
1602.47
 30
0.0
 11
-790.253125
 21
1501.82
 31
0.0
  0
LINE
  5
49C
  8
DATA
  6
CONTINUOUS
 62
     7
 10
-792.953125
 20
1602.47
 30
0.0
 11
-792.953125
 21
1501.82
 31
0.0
  0
ARC
  5
49D
  8
DATA
  6
CONTINUOUS
 62
     7
 10
-791.603125
 20
1501.82
 30
0.0
 40
1.350000000000023
 50
180.0
 51
0.0
  0
LINE
  5
49E
  8
DATA
  6
CONTINUOUS
 62
     7
 10
-776.253125
 20
1602.47
 30
0.0
 11
-776.253125
 21
1501.82
 31
0.0
  0
LINE
  5
49F
  8
DATA
  6
CONTINUOUS
 62
     7
 10
-778.953125
 20
1602.47
 30
0.0
 11
-778.953125
 21
1501.82
 31
0.0
  0
ARC
  5
4A0
  8
DATA
  6
CONTINUOUS
 62
     7
 10
-777.603125
 20
1501.82
 30
0.0
 40
1.350000000000023
 50
180.0
 51
0.0
  0
LINE
  5
4A1
  8
DATA
  6
CONTINUOUS
 62
     7
 10
-762.253125
 20
1602.47
 30
0.0
 11
-762.253125
 21
1501.82
 31
0.0
  0
LINE
  5
4A2
  8
DATA
  6
CONTINUOUS
 62
     7
 10
-764.953125
 20
1602.47
 30
0.0
 11
-764.953125
 21
1501.82
 31
0.0
  0
ARC
  5
4A3
  8
DATA
  6
CONTINUOUS
 62
     7
 10
-763.603125
 20
1501.82
 30
0.0
 40
1.350000000000023
 50
180.0
 51
0.0
  0
LINE
  5
4A4
  8
DATA
  6
CONTINUOUS
 62
     7
 10
-748.253125
 20
1602.47
 30
0.0
 11
-748.253125
 21
1501.82
 31
0.0
  0
LINE
  5
4A5
  8
DATA
  6
CONTINUOUS
 62
     7
 10
-750.953125
 20
1602.47
 30
0.0
 11
-750.953125
 21
1501.82
 31
0.0
  0
ARC
  5
4A6
  8
DATA
  6
CONTINUOUS
 62
     7
 10
-749.603125
 20
1501.82
 30
0.0
 40
1.350000000000023
 50
180.0
 51
0.0
  0
LINE
  5
4A7
  8
DATA
  6
CONTINUOUS
 62
     7
 10
-734.253125
 20
1602.47
 30
0.0
 11
-734.253125
 21
1501.82
 31
0.0
  0
LINE
  5
4A8
  8
DATA
  6
CONTINUOUS
 62
     7
 10
-736.953125
 20
1602.47
 30
0.0
 11
-736.953125
 21
1501.82
 31
0.0
  0
ARC
  5
4A9
  8
DATA
  6
CONTINUOUS
 62
     7
 10
-735.603125
 20
1501.82
 30
0.0
 40
1.350000000000023
 50
180.0
 51
0.0
  0
LINE
  5
4AA
  8
DATA
  6
CONTINUOUS
 62
     7
 10
-720.253125
 20
1602.47
 30
0.0
 11
-720.253125
 21
1501.82
 31
0.0
  0
LINE
  5
4AB
  8
DATA
  6
CONTINUOUS
 62
     7
 10
-722.953125
 20
1602.47
 30
0.0
 11
-722.953125
 21
1501.82
 31
0.0
  0
ARC
  5
4AC
  8
DATA
  6
CONTINUOUS
 62
     7
 10
-721.603125
 20
1501.82
 30
0.0
 40
1.350000000000023
 50
180.0
 51
0.0
  0
LINE
  5
4AD
  8
DATA
  6
CONTINUOUS
 62
     7
 10
-706.253125
 20
1602.47
 30
0.0
 11
-706.253125
 21
1501.82
 31
0.0
  0
LINE
  5
4AE
  8
DATA
  6
CONTINUOUS
 62
     7
 10
-708.953125
 20
1602.47
 30
0.0
 11
-708.953125
 21
1501.82
 31
0.0
  0
ARC
  5
4AF
  8
DATA
  6
CONTINUOUS
 62
     7
 10
-707.603125
 20
1501.82
 30
0.0
 40
1.350000000000023
 50
180.0
 51
0.0
  0
ARC
  5
4B0
  8
DATA
  6
CONTINUOUS
 62
     7
 10
-846.0
 20
1599.47
 30
0.0
 40
3.0
 50
90.0
 51
180.0
  0
ARC
  5
4B1
  8
DATA
  6
CONTINUOUS
 62
     7
 10
-653.20625
 20
1599.47
 30
0.0
 40
3.0
 50
0.0
 51
90.0
  0
LINE
  5
4B2
  8
DATA
  6
CONTINUOUS
 62
     7
 10
543.6000000000001
 20
1634.72
 30
0.0
 11
543.6000000000001
 21
1627.22
 31
0.0
  0
ARC
  5
4B3
  8
DATA
  6
CONTINUOUS
 62
     7
 10
533.8192434210523
 20
1625.338256578947
 30
0.0
 40
13.5528708720738
 50
43.8071250288364
 51
67.06782567339943
  0
ARC
  5
4B4
  8
DATA
  6
CONTINUOUS
 62
     7
 10
533.8192434210523
 20
1636.601743421053
 30
0.0
 40
13.5528708720737
 50
292.9321743266006
 51
316.1928749711636
  0
LINE
  5
4B5
  8
DATA
  6
CONTINUOUS
 62
     7
 10
537.5
 20
1623.62
 30
0.0
 11
536.5
 21
1623.62
 31
0.0
  0
LINE
  5
4B6
  8
DATA
  6
CONTINUOUS
 62
     7
 10
536.5
 20
1638.32
 30
0.0
 11
537.5
 21
1638.32
 31
0.0
  0
LINE
  5
4B7
  8
DATA
  6
CONTINUOUS
 62
     7
 10
544.5
 20
1604.07
 30
0.0
 11
544.5
 21
1602.47
 31
0.0
  0
LINE
  5
4B8
  8
DATA
  6
CONTINUOUS
 62
     7
 10
455.5
 20
1604.07
 30
0.0
 11
544.5
 21
1604.07
 31
0.0
  0
LINE
  5
4B9
  8
DATA
  6
CONTINUOUS
 62
     7
 10
455.5
 20
1602.47
 30
0.0
 11
455.5
 21
1604.07
 31
0.0
  0
LINE
  5
4BA
  8
DATA
  6
CONTINUOUS
 62
     7
 10
460.9000000000001
 20
1604.07
 30
0.0
 11
460.9000000000001
 21
1641.47
 31
0.0
  0
LINE
  5
4BB
  8
DATA
  6
CONTINUOUS
 62
     7
 10
539.1000000000001
 20
1641.47
 30
0.0
 11
539.1000000000001
 21
1604.07
 31
0.0
  0
LINE
  5
4BC
  8
DATA
  6
CONTINUOUS
 62
     7
 10
460.9000000000001
 20
1641.47
 30
0.0
 11
462.5
 21
1641.47
 31
0.0
  0
LINE
  5
4BD
  8
DATA
  6
CONTINUOUS
 62
     7
 10
537.5
 20
1641.47
 30
0.0
 11
539.1000000000001
 21
1641.47
 31
0.0
  0
LINE
  5
4BE
  8
DATA
  6
CONTINUOUS
 62
     7
 10
462.5
 20
1604.07
 30
0.0
 11
462.5
 21
1641.47
 31
0.0
  0
LINE
  5
4BF
  8
DATA
  6
CONTINUOUS
 62
     7
 10
537.5
 20
1641.47
 30
0.0
 11
537.5
 21
1604.07
 31
0.0
  0
LINE
  5
4C0
  8
DATA
  6
CONTINUOUS
 62
     7
 10
487.1500000000001
 20
1612.62
 30
0.0
 11
487.1500000000001
 21
1604.07
 31
0.0
  0
LINE
  5
4C1
  8
DATA
  6
CONTINUOUS
 62
     7
 10
512.8499999999999
 20
1612.62
 30
0.0
 11
512.8499999999999
 21
1604.07
 31
0.0
  0
ARC
  5
4C2
  8
DATA
  6
CONTINUOUS
 62
     7
 10
500.0
 20
1612.62
 30
0.0
 40
12.85000000000014
 50
0.0
 51
180.0
  0
CIRCLE
  5
4C3
  8
DATA
  6
CONTINUOUS
 62
     7
 10
500.0
 20
1616.47
 30
0.0
 40
3.900000000000091
  0
LINE
  5
4C4
  8
DATA
  6
CONTINUOUS
 62
     7
 10
536.5
 20
1622.97
 30
0.0
 11
507.6157731058643
 21
1622.97
 31
0.0
  0
LINE
  5
4C5
  8
DATA
  6
CONTINUOUS
 62
     7
 10
536.5
 20
1638.97
 30
0.0
 11
536.5
 21
1622.97
 31
0.0
  0
LINE
  5
4C6
  8
DATA
  6
CONTINUOUS
 62
     7
 10
463.5
 20
1638.97
 30
0.0
 11
536.5
 21
1638.97
 31
0.0
  0
LINE
  5
4C7
  8
DATA
  6
CONTINUOUS
 62
     7
 10
463.5
 20
1622.97
 30
0.0
 11
463.5
 21
1638.97
 31
0.0
  0
LINE
  5
4C8
  8
DATA
  6
CONTINUOUS
 62
     7
 10
492.384226894136
 20
1622.97
 30
0.0
 11
463.5
 21
1622.97
 31
0.0
  0
LINE
  5
4C9
  8
DATA
  6
CONTINUOUS
 62
     7
 10
493.5
 20
1641.97
 30
0.0
 11
493.5
 21
1739.47
 31
0.0
  0
LINE
  5
4CA
  8
DATA
  6
CONTINUOUS
 62
     7
 10
506.5
 20
1739.47
 30
0.0
 11
506.5
 21
1641.97
 31
0.0
  0
ARC
  5
4CB
  8
DATA
  6
CONTINUOUS
 62
     7
 10
502.4750000000001
 20
1634.945
 30
0.0
 40
8.096372644585669
 50
29.81071326281536
 51
60.18928673718244
  0
ARC
  5
4CC
  8
DATA
  6
CONTINUOUS
 62
     7
 10
497.5249999999999
 20
1634.945
 30
0.0
 40
8.096372644585585
 50
119.8107132628176
 51
150.1892867371847
  0
LINE
  5
4CD
  8
DATA
  6
CONTINUOUS
 62
     7
 10
493.5
 20
1641.97
 30
0.0
 11
506.5
 21
1641.97
 31
0.0
  0
ARC
  5
4CE
  8
DATA
  6
CONTINUOUS
 62
     7
 10
500.0
 20
1739.47
 30
0.0
 40
6.5
 50
0.0
 51
180.0
  0
LINE
  5
4CF
  8
DATA
  6
CONTINUOUS
 62
     7
 10
456.3999999999999
 20
1634.72
 30
0.0
 11
456.3999999999999
 21
1627.22
 31
0.0
  0
ARC
  5
4D0
  8
DATA
  6
CONTINUOUS
 62
     7
 10
466.1807565789477
 20
1625.338256578947
 30
0.0
 40
13.5528708720737
 50
112.9321743266006
 51
136.1928749711636
  0
ARC
  5
4D1
  8
DATA
  6
CONTINUOUS
 62
     7
 10
466.1807565789477
 20
1636.601743421053
 30
0.0
 40
13.5528708720738
 50
223.8071250288364
 51
247.0678256733994
  0
LINE
  5
4D2
  8
DATA
  6
CONTINUOUS
 62
     7
 10
462.5
 20
1623.62
 30
0.0
 11
463.5
 21
1623.62
 31
0.0
  0
LINE
  5
4D3
  8
DATA
  6
CONTINUOUS
 62
     7
 10
463.5
 20
1638.32
 30
0.0
 11
462.5
 21
1638.32
 31
0.0
  0
LINE
  5
4D4
  8
DATA
  6
CONTINUOUS
 62
     7
 10
689.62291996465
 20
1597.596059070122
 30
0.0
 11
694.175
 21
1417.1
 31
0.0
  0
LINE
  5
4D5
  8
DATA
  6
CONTINUOUS
 62
     7
 10
689.25
 20
1392.6
 30
0.0
 11
689.25
 21
1385.6
 31
0.0
  0
LINE
  5
4D6
  8
DATA
  6
CONTINUOUS
 62
     7
 10
311.7499999999999
 20
1385.6
 30
0.0
 11
311.7499999999999
 21
1392.6
 31
0.0
  0
LINE
  5
4D7
  8
DATA
  6
CONTINUOUS
 62
     7
 10
694.175
 20
1395.1
 30
0.0
 11
306.825
 21
1395.1
 31
0.0
  0
ARC
  5
4D8
  8
DATA
  6
CONTINUOUS
 62
     7
 10
500.5
 20
3060.79823113209
 30
0.0
 40
1685.79823113209
 50
263.5714120094215
 51
276.4285879905785
  0
LINE
  5
4D9
  8
DATA
  6
CONTINUOUS
 62
     7
 10
306.825
 20
1417.1
 30
0.0
 11
694.175
 21
1417.1
 31
0.0
  0
LINE
  5
4DA
  8
DATA
  6
CONTINUOUS
 62
     7
 10
306.825
 20
1415.6
 30
0.0
 11
694.175
 21
1415.6
 31
0.0
  0
LINE
  5
4DB
  8
DATA
  6
CONTINUOUS
 62
     7
 10
311.7499999999999
 20
1392.6
 30
0.0
 11
689.25
 21
1392.6
 31
0.0
  0
LINE
  5
4DC
  8
DATA
  6
CONTINUOUS
 62
     7
 10
316.9999999999999
 20
1392.6
 30
0.0
 11
316.9999999999999
 21
1395.1
 31
0.0
  0
LINE
  5
4DD
  8
DATA
  6
CONTINUOUS
 62
     7
 10
684.0
 20
1392.6
 30
0.0
 11
684.0
 21
1395.1
 31
0.0
  0
LINE
  5
4DE
  8
DATA
  6
CONTINUOUS
 62
     7
 10
310.4999999999999
 20
1415.6
 30
0.0
 11
310.4999999999999
 21
1417.1
 31
0.0
  0
LINE
  5
4DF
  8
DATA
  6
CONTINUOUS
 62
     7
 10
690.5
 20
1415.6
 30
0.0
 11
690.5
 21
1417.1
 31
0.0
  0
LINE
  5
4E0
  8
DATA
  6
CONTINUOUS
 62
     7
 10
354.5
 20
1603.6
 30
0.0
 11
431.5
 21
1603.6
 31
0.0
  0
LINE
  5
4E1
  8
DATA
  6
CONTINUOUS
 62
     7
 10
316.3754906938333
 20
1602.47
 30
0.0
 11
684.6245093061666
 21
1602.47
 31
0.0
  0
LINE
  5
4E2
  8
DATA
  6
CONTINUOUS
 62
     7
 10
431.5
 20
1603.6
 30
0.0
 11
431.5
 21
1602.47
 31
0.0
  0
LINE
  5
4E3
  8
DATA
  6
CONTINUOUS
 62
     7
 10
354.5
 20
1602.47
 30
0.0
 11
354.5
 21
1603.6
 31
0.0
  0
LINE
  5
4E4
  8
DATA
  6
CONTINUOUS
 62
     7
 10
694.175
 20
1395.1
 30
0.0
 11
694.175
 21
1415.6
 31
0.0
  0
LINE
  5
4E5
  8
DATA
  6
CONTINUOUS
 62
     7
 10
311.3770800353499
 20
1597.596059070122
 30
0.0
 11
306.825
 21
1417.1
 31
0.0
  0
LINE
  5
4E6
  8
DATA
  6
CONTINUOUS
 62
     7
 10
306.825
 20
1395.1
 30
0.0
 11
306.825
 21
1415.6
 31
0.0
  0
ARC
  5
4E7
  8
DATA
  6
CONTINUOUS
 62
     7
 10
316.3754906938333
 20
1597.47
 30
0.0
 40
5.0
 50
90.0
 51
178.5553163862489
  0
ARC
  5
4E8
  8
DATA
  6
CONTINUOUS
 62
     7
 10
684.6245093061666
 20
1597.47
 30
0.0
 40
5.00000000000005
 50
1.44468361375114
 51
90.0
  0
LINE
  5
4E9
  8
DATA
  6
CONTINUOUS
 62
     7
 10
-1100.0
 20
1734.07
 30
0.0
 11
-400.0
 21
1734.07
 31
0.0
  0
LINE
  5
4EA
  8
DATA
  6
CONTINUOUS
 62
     7
 10
150.5
 20
1748.57
 30
0.0
 11
850.5
 21
1748.57
 31
0.0
  0
TEXT
  5
4EB
  8
DATA
 62
     7
 10
712.4999999999998
 20
-1678.900565
 30
0.0
 40
28.50472005208333
  1
Control 5-Y3用壁取付金具
 41
0.7
 11
712.4999999999998
 21
-1650.395844947917
 31
0.0
 73
     3
  0
TEXT
  5
4EC
  8
DATA
 62
     7
 10
600.0
 20
379.6394856770833
 30
0.0
 40
40.72102864583334
  1
金具取付時外観
 41
0.7
 11
600.0
 21
400.0
 31
0.0
 73
     2
  0
TEXT
  5
4ED
  8
DATA
 62
     7
 10
600.0
 20
304.6394856770833
 30
0.0
 40
40.72102864583334
  1
Control 5-Y3 + MM-016-BT-J
 41
0.7
 11
600.0
 21
325.0
 31
0.0
 73
     2
  0
LINE
  5
4EE
  8
DATA
  6
CONTINUOUS
 62
     7
 10
-463.4999999999998
 20
-869.0
 30
0.0
 11
-463.6499999999999
 21
-869.0
 31
0.0
  0
LINE
  5
4EF
  8
DATA
  6
CONTINUOUS
 62
     7
 10
-463.4999999999998
 20
-853.0
 30
0.0
 11
-463.4999999999998
 21
-869.0
 31
0.0
  0
LINE
  5
4F0
  8
DATA
  6
CONTINUOUS
 62
     7
 10
-463.6499999999999
 20
-853.0
 30
0.0
 11
-463.4999999999998
 21
-853.0
 31
0.0
  0
LINE
  5
4F1
  8
DATA
  6
CONTINUOUS
 62
     7
 10
-536.4999999999998
 20
-853.0
 30
0.0
 11
-489.3500000000001
 21
-853.0
 31
0.0
  0
LINE
  5
4F2
  8
DATA
  6
CONTINUOUS
 62
     7
 10
-536.4999999999998
 20
-869.0
 30
0.0
 11
-536.4999999999998
 21
-853.0
 31
0.0
  0
LINE
  5
4F3
  8
DATA
  6
CONTINUOUS
 62
     7
 10
-489.3500000000001
 20
-869.0
 30
0.0
 11
-536.4999999999998
 21
-869.0
 31
0.0
  0
LINE
  5
4F4
  8
DATA
  6
CONTINUOUS
 62
     7
 10
-506.4999999999998
 20
-850.0
 30
0.0
 11
-506.4999999999998
 21
-752.5
 31
0.0
  0
LINE
  5
4F5
  8
DATA
  6
CONTINUOUS
 62
     7
 10
-493.4999999999998
 20
-752.5
 30
0.0
 11
-493.4999999999998
 21
-850.0
 31
0.0
  0
ARC
  5
4F6
  8
DATA
  6
CONTINUOUS
 62
     7
 10
-497.5249999999999
 20
-857.025
 30
0.0
 40
8.096372644586037
 50
29.81071326281665
 51
60.18928673718225
  0
ARC
  5
4F7
  8
DATA
  6
CONTINUOUS
 62
     7
 10
-502.4750000000001
 20
-857.025
 30
0.0
 40
8.096372644585768
 50
119.810713262815
 51
150.1892867371818
  0
LINE
  5
4F8
  8
DATA
  6
CONTINUOUS
 62
     7
 10
-506.4999999999998
 20
-850.0
 30
0.0
 11
-493.4999999999998
 21
-850.0
 31
0.0
  0
ARC
  5
4F9
  8
DATA
  6
CONTINUOUS
 62
     7
 10
-499.9999999999998
 20
-752.5
 30
0.0
 40
6.5
 50
0.0
 51
180.0
  0
LINE
  5
4FA
  8
DATA
  6
CONTINUOUS
 62
     7
 10
-461.2
 20
-743.4000000000001
 30
0.0
 11
-461.2
 21
-745.0000000000001
 31
0.0
  0
LINE
  5
4FB
  8
DATA
  6
CONTINUOUS
 62
     7
 10
-538.8
 20
-743.4000000000001
 30
0.0
 11
-510.05
 21
-743.4000000000001
 31
0.0
  0
LINE
  5
4FC
  8
DATA
  6
CONTINUOUS
 62
     7
 10
-489.95
 20
-743.4000000000001
 30
0.0
 11
-461.2
 21
-743.4000000000001
 31
0.0
  0
LINE
  5
4FD
  8
DATA
  6
CONTINUOUS
 62
     7
 10
-538.8
 20
-745.0000000000001
 30
0.0
 11
-538.8
 21
-743.4000000000001
 31
0.0
  0
LINE
  5
4FE
  8
DATA
  6
CONTINUOUS
 62
     7
 10
-538.8
 20
-745.0000000000001
 30
0.0
 11
-510.05
 21
-745.0000000000001
 31
0.0
  0
LINE
  5
4FF
  8
DATA
  6
CONTINUOUS
 62
     7
 10
-508.6499999999999
 20
-751.95
 30
0.0
 11
-508.6499999999999
 21
-746.4000000000001
 31
0.0
  0
ARC
  5
500
  8
DATA
  6
CONTINUOUS
 62
     7
 10
-499.9999999999998
 20
-751.95
 30
0.0
 40
8.650000000000091
 50
180.0
 51
221.2842887166884
  0
ARC
  5
501
  8
DATA
  6
CONTINUOUS
 62
     7
 10
-499.9999999999998
 20
-751.95
 30
0.0
 40
8.650000000000167
 50
318.7157112833116
 51
0.0
  0
ARC
  5
502
  8
DATA
  6
CONTINUOUS
 62
     7
 10
-499.9999999999998
 20
-751.95
 30
0.0
 40
7.050000000000182
 50
180.0
 51
202.7818567850396
  0
ARC
  5
503
  8
DATA
  6
CONTINUOUS
 62
     7
 10
-499.9999999999998
 20
-751.95
 30
0.0
 40
7.049999999999997
 50
337.2181432149605
 51
0.0
  0
LINE
  5
504
  8
DATA
  6
CONTINUOUS
 62
     7
 10
-507.05
 20
-751.95
 30
0.0
 11
-507.05
 21
-746.4000000000001
 31
0.0
  0
LINE
  5
505
  8
DATA
  6
CONTINUOUS
 62
     7
 10
-492.95
 20
-751.95
 30
0.0
 11
-492.95
 21
-746.4000000000001
 31
0.0
  0
ARC
  5
506
  8
DATA
  6
CONTINUOUS
 62
     7
 10
-510.05
 20
-746.4000000000001
 30
0.0
 40
3.0
 50
0.0
 51
90.0
  0
ARC
  5
507
  8
DATA
  6
CONTINUOUS
 62
     7
 10
-489.95
 20
-746.4000000000001
 30
0.0
 40
3.0
 50
90.0
 51
180.0
  0
ARC
  5
508
  8
DATA
  6
CONTINUOUS
 62
     7
 10
-510.05
 20
-746.4000000000001
 30
0.0
 40
1.400000000000091
 50
0.0
 51
90.0
  0
LINE
  5
509
  8
DATA
  6
CONTINUOUS
 62
     7
 10
-461.2
 20
-745.0000000000001
 30
0.0
 11
-489.95
 21
-745.0000000000001
 31
0.0
  0
LINE
  5
50A
  8
DATA
  6
CONTINUOUS
 62
     7
 10
-491.3499999999997
 20
-751.95
 30
0.0
 11
-491.3499999999997
 21
-746.4000000000001
 31
0.0
  0
ARC
  5
50B
  8
DATA
  6
CONTINUOUS
 62
     7
 10
-489.95
 20
-746.4000000000001
 30
0.0
 40
1.399999999999977
 50
90.0
 51
180.0
  0
LINE
  5
50C
  8
DATA
  6
CONTINUOUS
 62
     7
 10
-508.6499999999999
 20
-1081.085925
 30
0.0
 11
-508.6499999999999
 21
-1001.840925
 31
0.0
  0
LINE
  5
50D
  8
DATA
  6
CONTINUOUS
 62
     7
 10
-491.3499999999997
 20
-994.3409249999997
 30
0.0
 11
-491.3499999999997
 21
-1081.085925
 31
0.0
  0
LINE
  5
50E
  8
DATA
  6
CONTINUOUS
 62
     7
 10
-506.5999999999997
 20
-1004.985925
 30
0.0
 11
-506.5999999999997
 21
-1001.840925
 31
0.0
  0
LINE
  5
50F
  8
DATA
  6
CONTINUOUS
 62
     7
 10
-493.3999999999999
 20
-1004.985925
 30
0.0
 11
-496.650093284881
 21
-1004.985925
 31
0.0
  0
LINE
  5
510
  8
DATA
  6
CONTINUOUS
 62
     7
 10
-503.349906715119
 20
-1004.985925
 30
0.0
 11
-506.5999999999997
 21
-1004.985925
 31
0.0
  0
LINE
  5
511
  8
DATA
  6
CONTINUOUS
 62
     7
 10
-493.3999999999999
 20
-1001.840925
 30
0.0
 11
-493.3999999999999
 21
-1004.985925
 31
0.0
  0
LINE
  5
512
  8
DATA
  6
CONTINUOUS
 62
     7
 10
-538.8
 20
-1076.085925
 30
0.0
 11
-538.8
 21
-1001.840925
 31
0.0
  0
ARC
  5
513
  8
DATA
  6
CONTINUOUS
 62
     7
 10
-533.8
 20
-1076.085925
 30
0.0
 40
5.0
 50
180.0
 51
270.0
  0
LINE
  5
514
  8
DATA
  6
CONTINUOUS
 62
     7
 10
-466.2
 20
-1081.085925
 30
0.0
 11
-533.8
 21
-1081.085925
 31
0.0
  0
ARC
  5
515
  8
DATA
  6
CONTINUOUS
 62
     7
 10
-466.2
 20
-1076.085925
 30
0.0
 40
5.0
 50
270.0
 51
0.0
  0
LINE
  5
516
  8
DATA
  6
CONTINUOUS
 62
     7
 10
-461.2
 20
-994.3409249999997
 30
0.0
 11
-461.2
 21
-1076.085925
 31
0.0
  0
CIRCLE
  5
517
  8
DATA
  6
CONTINUOUS
 62
     7
 10
-532.2499999999993
 20
-1074.560925
 30
0.0
 40
3.099999999999909
  0
CIRCLE
  5
518
  8
DATA
  6
CONTINUOUS
 62
     7
 10
-467.7500000000007
 20
-1074.560925
 30
0.0
 40
3.099999999999909
  0
LINE
  5
519
  8
DATA
  6
CONTINUOUS
 62
     7
 10
-503.1000000000597
 20
-1054.88592500006
 30
0.0
 11
-503.1000000000597
 21
-1055.185925
 31
0.0
  0
ARC
  5
51A
  8
DATA
  6
CONTINUOUS
 62
     7
 10
-499.9999999999993
 20
-1054.88592500006
 30
0.0
 40
3.10000000006039
 50
90.00000000000841
 51
172.9687499999963
  0
ARC
  5
51B
  8
DATA
  6
CONTINUOUS
 62
     7
 10
-499.9999999999943
 20
-1054.88592500006
 30
0.0
 40
3.100000000065395
 50
172.9687500000075
 51
179.9999999999916
  0
LINE
  5
51C
  8
DATA
  6
CONTINUOUS
 62
     7
 10
-503.1000000000597
 20
-1055.48592499994
 30
0.0
 11
-503.1000000000597
 21
-1055.185925
 31
0.0
  0
ARC
  5
51D
  8
DATA
  6
CONTINUOUS
 62
     7
 10
-499.9999999999993
 20
-1055.485924999939
 30
0.0
 40
3.100000000060431
 50
187.0312500000038
 51
269.9999999999916
  0
ARC
  5
51E
  8
DATA
  6
CONTINUOUS
 62
     7
 10
-499.9999999999943
 20
-1055.485924999939
 30
0.0
 40
3.100000000065393
 50
180.0000000000042
 51
187.0312499999925
  0
LINE
  5
51F
  8
DATA
  6
CONTINUOUS
 62
     7
 10
-496.8999999999398
 20
-1054.88592500006
 30
0.0
 11
-496.8999999999398
 21
-1055.185925
 31
0.0
  0
ARC
  5
520
  8
DATA
  6
CONTINUOUS
 62
     7
 10
-500.0000000000002
 20
-1054.88592500006
 30
0.0
 40
3.100000000060431
 50
7.031250000003782
 51
89.9999999999916
  0
ARC
  5
521
  8
DATA
  6
CONTINUOUS
 62
     7
 10
-500.0000000000052
 20
-1054.88592500006
 30
0.0
 40
3.100000000065393
 50
0.0000000000084049
 51
7.031249999992465
  0
LINE
  5
522
  8
DATA
  6
CONTINUOUS
 62
     7
 10
-496.8999999999398
 20
-1055.48592499994
 30
0.0
 11
-496.8999999999398
 21
-1055.185925
 31
0.0
  0
ARC
  5
523
  8
DATA
  6
CONTINUOUS
 62
     7
 10
-500.0000000000002
 20
-1055.485924999939
 30
0.0
 40
3.100000000060163
 50
270.0000000000084
 51
352.9687499999962
  0
ARC
  5
524
  8
DATA
  6
CONTINUOUS
 62
     7
 10
-500.0000000000052
 20
-1055.485924999939
 30
0.0
 40
3.100000000065395
 50
352.9687500000076
 51
359.9999999999957
  0
ARC
  5
525
  8
DATA
  6
CONTINUOUS
 62
     7
 10
-492.5534142561171
 20
-1074.55467499794
 30
0.0
 40
10.29673938894531
 50
178.0882485648102
 51
180.3130023616536
  0
ARC
  5
526
  8
DATA
  6
CONTINUOUS
 62
     7
 10
-500.001825625937
 20
-1074.383755318804
 30
0.0
 40
2.847830903970458
 50
89.9632700564511
 51
176.525692570181
  0
ARC
  5
527
  8
DATA
  6
CONTINUOUS
 62
     7
 10
-492.5534142561171
 20
-1074.66717500206
 30
0.0
 40
10.29673938894531
 50
179.6869976383464
 51
181.9117514351898
  0
ARC
  5
528
  8
DATA
  6
CONTINUOUS
 62
     7
 10
-500.001825625937
 20
-1074.838094681196
 30
0.0
 40
2.847830903970506
 50
183.4743074298236
 51
270.0367299435489
  0
ARC
  5
529
  8
DATA
  6
CONTINUOUS
 62
     7
 10
-507.4465857438829
 20
-1074.55467499794
 30
0.0
 40
10.29673938894577
 50
359.6869976383465
 51
1.911751435189615
  0
ARC
  5
52A
  8
DATA
  6
CONTINUOUS
 62
     7
 10
-499.9981743740625
 20
-1074.383755318804
 30
0.0
 40
2.847830903970493
 50
3.474307429819042
 51
90.03672994354892
  0
ARC
  5
52B
  8
DATA
  6
CONTINUOUS
 62
     7
 10
-507.4465857438829
 20
-1074.66717500206
 30
0.0
 40
10.29673938894576
 50
358.0882485648104
 51
0.3130023616535028
  0
ARC
  5
52C
  8
DATA
  6
CONTINUOUS
 62
     7
 10
-499.9981743740625
 20
-1074.838094681196
 30
0.0
 40
2.847830903970686
 50
269.9632700564511
 51
356.5256925701764
  0
LINE
  5
52D
  8
DATA
  6
CONTINUOUS
 62
     7
 10
-198.1000000000004
 20
-1051.785925000016
 30
0.0
 11
-198.1000000000004
 21
-1004.985925
 31
0.0
  0
LINE
  5
52E
  8
DATA
  6
CONTINUOUS
 62
     7
 10
-198.1000000000004
 20
-1081.085925
 30
0.0
 11
-198.1000000000004
 21
-1077.782083780525
 31
0.0
  0
LINE
  5
52F
  8
DATA
  6
CONTINUOUS
 62
     7
 10
-180.9000000000001
 20
-1081.085925
 30
0.0
 11
-198.1000000000004
 21
-1081.085925
 31
0.0
  0
LINE
  5
530
  8
DATA
  6
CONTINUOUS
 62
     7
 10
-180.9000000000001
 20
-979.1859249999998
 30
0.0
 11
-180.9000000000001
 21
-1081.085925
 31
0.0
  0
LINE
  5
531
  8
DATA
  6
CONTINUOUS
 62
     7
 10
-198.1000000000004
 20
-979.1859249999998
 30
0.0
 11
-180.9000000000001
 21
-979.1859249999998
 31
0.0
  0
LINE
  5
532
  8
DATA
  6
CONTINUOUS
 62
     7
 10
-198.1000000000004
 20
-998.5359249999997
 30
0.0
 11
-198.1000000000004
 21
-979.1859249999998
 31
0.0
  0
LINE
  5
533
  8
DATA
  6
CONTINUOUS
 62
     7
 10
-198.1000000000004
 20
-1071.535925
 30
0.0
 11
-198.1000000000004
 21
-1058.585925
 31
0.0
  0
LINE
  5
534
  8
DATA
  6
CONTINUOUS
 62
     7
 10
-182.5000000000005
 20
-979.1859249999998
 30
0.0
 11
-182.5000000000005
 21
-1081.085925
 31
0.0
  0
ARC
  5
535
  8
DATA
  6
CONTINUOUS
 62
     7
 10
-204.9249999999656
 20
-1055.185925000008
 30
0.0
 40
7.624999999965191
 50
333.5189601695652
 51
26.48103983043484
  0
ARC
  5
536
  8
DATA
  6
CONTINUOUS
 62
     7
 10
-205.9280207315701
 20
-1074.659004390262
 30
0.0
 40
8.428020731569749
 50
338.2499002765662
 51
21.75009972343236
  0
LINE
  5
537
  8
DATA
  6
CONTINUOUS
 62
     7
 10
-190.3250000000003
 20
-998.5359249999997
 30
0.0
 11
-198.1000000000004
 21
-998.5359249999997
 31
0.0
  0
LINE
  5
538
  8
DATA
  6
CONTINUOUS
 62
     7
 10
-190.3250000000003
 20
-1004.985925
 30
0.0
 11
-198.1000000000004
 21
-1004.985925
 31
0.0
  0
ARC
  5
539
  8
DATA
  6
CONTINUOUS
 62
     7
 10
-190.3250000000003
 20
-1001.760925
 30
0.0
 40
3.224999999999909
 50
270.0
 51
90.0
  0
ARC
  5
53A
  8
DATA
  6
CONTINUOUS
 62
     7
 10
-427.0000000000002
 20
-998.8409249999995
 30
0.0
 40
3.000000000000227
 50
270.0000000000086
 51
359.9999999999957
  0
LINE
  5
53B
  8
DATA
  6
CONTINUOUS
 62
     7
 10
-423.9999999999998
 20
-915.8409249999997
 30
0.0
 11
-423.9999999999998
 21
-998.8409249999997
 31
0.0
  0
ARC
  5
53C
  8
DATA
  6
CONTINUOUS
 62
     7
 10
-427.0000000000002
 20
-915.840925
 30
0.0
 40
3.000000000000455
 50
0.0000000000043201
 51
89.9999999999913
  0
LINE
  5
53D
  8
DATA
  6
CONTINUOUS
 62
     7
 10
-572.9999999999998
 20
-912.8409249999997
 30
0.0
 11
-492.4999999999998
 21
-912.8409249999997
 31
0.0
  0
LINE
  5
53E
  8
DATA
  6
CONTINUOUS
 62
     7
 10
-460.4999999999998
 20
-912.8409249999997
 30
0.0
 11
-426.9999999999998
 21
-912.8409249999997
 31
0.0
  0
ARC
  5
53F
  8
DATA
  6
CONTINUOUS
 62
     7
 10
-572.9999999999998
 20
-915.8409249999999
 30
0.0
 40
3.000000000000114
 50
90.0
 51
179.9999999999978
  0
LINE
  5
540
  8
DATA
  6
CONTINUOUS
 62
     7
 10
-575.9999999999998
 20
-998.8409249999997
 30
0.0
 11
-575.9999999999998
 21
-915.8409249999997
 31
0.0
  0
ARC
  5
541
  8
DATA
  6
CONTINUOUS
 62
     7
 10
-572.9999999999998
 20
-998.8409249999995
 30
0.0
 40
3.0
 50
180.0000000000043
 51
270.0
  0
LINE
  5
542
  8
DATA
  6
CONTINUOUS
 62
     7
 10
-426.9999999999998
 20
-1001.840925
 30
0.0
 11
-460.4999999999998
 21
-1001.840925
 31
0.0
  0
LINE
  5
543
  8
DATA
  6
CONTINUOUS
 62
     7
 10
-492.4999999999998
 20
-1001.840925
 30
0.0
 11
-572.9999999999998
 21
-1001.840925
 31
0.0
  0
CIRCLE
  5
544
  8
DATA
  6
CONTINUOUS
 62
     7
 10
-436.4999999999998
 20
-992.3409249999997
 30
0.0
 40
5.0
  0
CIRCLE
  5
545
  8
DATA
  6
CONTINUOUS
 62
     7
 10
-563.4999999999998
 20
-992.3409249999997
 30
0.0
 40
5.0
  0
CIRCLE
  5
546
  8
DATA
  6
CONTINUOUS
 62
     7
 10
-436.4999999999998
 20
-922.3409249999997
 30
0.0
 40
5.0
  0
CIRCLE
  5
547
  8
DATA
  6
CONTINUOUS
 62
     7
 10
-563.4999999999998
 20
-922.3409249999997
 30
0.0
 40
5.0
  0
CIRCLE
  5
548
  8
DATA
  6
CONTINUOUS
 62
     7
 10
-445.9999999999998
 20
-982.5909249999997
 30
0.0
 40
3.25
  0
CIRCLE
  5
549
  8
DATA
  6
CONTINUOUS
 62
     7
 10
-553.9999999999998
 20
-982.5909249999997
 30
0.0
 40
3.25
  0
CIRCLE
  5
54A
  8
DATA
  6
CONTINUOUS
 62
     7
 10
-445.9999999999998
 20
-932.0909249999997
 30
0.0
 40
3.25
  0
CIRCLE
  5
54B
  8
DATA
  6
CONTINUOUS
 62
     7
 10
-553.9999999999998
 20
-932.0909249999997
 30
0.0
 40
3.25
  0
LINE
  5
54C
  8
DATA
  6
CONTINUOUS
 62
     7
 10
-550.2499999999998
 20
-943.0909249999997
 30
0.0
 11
-536.9999999999998
 21
-943.0909249999997
 31
0.0
  0
LINE
  5
54D
  8
DATA
  6
CONTINUOUS
 62
     7
 10
-462.9999999999998
 20
-943.0909249999997
 30
0.0
 11
-449.7499999999998
 21
-943.0909249999997
 31
0.0
  0
LINE
  5
54E
  8
DATA
  6
CONTINUOUS
 62
     7
 10
-449.7499999999998
 20
-971.5909249999997
 30
0.0
 11
-462.9999999999998
 21
-971.5909249999997
 31
0.0
  0
LINE
  5
54F
  8
DATA
  6
CONTINUOUS
 62
     7
 10
-536.9999999999998
 20
-971.5909249999997
 30
0.0
 11
-550.2499999999998
 21
-971.5909249999997
 31
0.0
  0
ARC
  5
550
  8
DATA
  6
CONTINUOUS
 62
     7
 10
-449.7499999999998
 20
-957.3409249999997
 30
0.0
 40
14.25
 50
270.0
 51
90.0
  0
LINE
  5
551
  8
DATA
  6
CONTINUOUS
 62
     7
 10
-462.9999999999998
 20
-943.0909249999997
 30
0.0
 11
-462.9999999999998
 21
-971.5909249999997
 31
0.0
  0
LINE
  5
552
  8
DATA
  6
CONTINUOUS
 62
     7
 10
-536.9999999999998
 20
-971.5909249999997
 30
0.0
 11
-536.9999999999998
 21
-943.0909249999997
 31
0.0
  0
LINE
  5
553
  8
DATA
  6
CONTINUOUS
 62
     7
 10
-460.8999999999999
 20
-944.4909249999998
 30
0.0
 11
-460.8999999999999
 21
-970.1909249999997
 31
0.0
  0
LINE
  5
554
  8
DATA
  6
CONTINUOUS
 62
     7
 10
-539.0999999999997
 20
-944.4909249999998
 30
0.0
 11
-536.9999999999998
 21
-944.4909249999998
 31
0.0
  0
LINE
  5
555
  8
DATA
  6
CONTINUOUS
 62
     7
 10
-462.9999999999998
 20
-944.4909249999998
 30
0.0
 11
-460.8999999999999
 21
-944.4909249999998
 31
0.0
  0
LINE
  5
556
  8
DATA
  6
CONTINUOUS
 62
     7
 10
-539.0999999999997
 20
-970.1909249999997
 30
0.0
 11
-539.0999999999997
 21
-944.4909249999998
 31
0.0
  0
LINE
  5
557
  8
DATA
  6
CONTINUOUS
 62
     7
 10
-460.8999999999999
 20
-970.1909249999997
 30
0.0
 11
-462.9999999999998
 21
-970.1909249999997
 31
0.0
  0
LINE
  5
558
  8
DATA
  6
CONTINUOUS
 62
     7
 10
-536.9999999999998
 20
-970.1909249999997
 30
0.0
 11
-539.0999999999997
 21
-970.1909249999997
 31
0.0
  0
ARC
  5
559
  8
DATA
  6
CONTINUOUS
 62
     7
 10
-550.2499999999998
 20
-957.3409249999997
 30
0.0
 40
14.25
 50
90.0
 51
270.0
  0
CIRCLE
  5
55A
  8
DATA
  6
CONTINUOUS
 62
     7
 10
-469.9999999999998
 20
-957.3409249999997
 30
0.0
 40
3.25
  0
CIRCLE
  5
55B
  8
DATA
  6
CONTINUOUS
 62
     7
 10
-529.9999999999998
 20
-957.3409249999997
 30
0.0
 40
3.25
  0
ARC
  5
55C
  8
DATA
  6
CONTINUOUS
 62
     7
 10
-499.9999999999998
 20
-995.2909249999996
 30
0.0
 40
3.349999999999909
 50
180.0000000000039
 51
359.9999999999961
  0
ARC
  5
55D
  8
DATA
  6
CONTINUOUS
 62
     7
 10
-499.9999999999998
 20
-987.5409249999998
 30
0.0
 40
3.349999999999909
 50
0.0
 51
180.0
  0
LINE
  5
55E
  8
DATA
  6
CONTINUOUS
 62
     7
 10
-496.6499999999999
 20
-995.2909249999998
 30
0.0
 11
-496.6499999999999
 21
-987.5409249999998
 31
0.0
  0
LINE
  5
55F
  8
DATA
  6
CONTINUOUS
 62
     7
 10
-503.3499999999997
 20
-987.5409249999998
 30
0.0
 11
-503.3499999999997
 21
-995.2909249999998
 31
0.0
  0
ARC
  5
560
  8
DATA
  6
CONTINUOUS
 62
     7
 10
-499.9999999999998
 20
-919.3909249999999
 30
0.0
 40
3.349999999999909
 50
0.0
 51
180.0
  0
ARC
  5
561
  8
DATA
  6
CONTINUOUS
 62
     7
 10
-499.9999999999998
 20
-927.1409249999997
 30
0.0
 40
3.349999999999909
 50
180.0
 51
0.0
  0
LINE
  5
562
  8
DATA
  6
CONTINUOUS
 62
     7
 10
-496.6499999999999
 20
-919.3909249999999
 30
0.0
 11
-496.6499999999999
 21
-927.1409249999997
 31
0.0
  0
LINE
  5
563
  8
DATA
  6
CONTINUOUS
 62
     7
 10
-503.3499999999997
 20
-927.1409249999997
 30
0.0
 11
-503.3499999999997
 21
-919.3909249999999
 31
0.0
  0
LINE
  5
564
  8
DATA
  6
CONTINUOUS
 62
     7
 10
-492.4999999999998
 20
-920.3409249999997
 30
0.0
 11
-460.4999999999998
 21
-920.3409249999997
 31
0.0
  0
LINE
  5
565
  8
DATA
  6
CONTINUOUS
 62
     7
 10
-460.4999999999998
 20
-994.3409249999997
 30
0.0
 11
-492.4999999999998
 21
-994.3409249999997
 31
0.0
  0
LINE
  5
566
  8
DATA
  6
CONTINUOUS
 62
     7
 10
-492.4999999999998
 20
-1001.840925
 30
0.0
 11
-492.4999999999998
 21
-994.3409249999997
 31
0.0
  0
LINE
  5
567
  8
DATA
  6
CONTINUOUS
 62
     7
 10
-460.4999999999998
 20
-994.3409249999997
 30
0.0
 11
-460.4999999999998
 21
-1001.840925
 31
0.0
  0
LINE
  5
568
  8
DATA
  6
CONTINUOUS
 62
     7
 10
-460.4999999999998
 20
-912.8409249999997
 30
0.0
 11
-460.4999999999998
 21
-920.3409249999997
 31
0.0
  0
LINE
  5
569
  8
DATA
  6
CONTINUOUS
 62
     7
 10
-492.4999999999998
 20
-920.3409249999997
 30
0.0
 11
-492.4999999999998
 21
-912.8409249999997
 31
0.0
  0
LINE
  5
56A
  8
DATA
  6
CONTINUOUS
 62
     7
 10
-489.3500000000001
 20
-918.2409249999998
 30
0.0
 11
-463.6499999999999
 21
-918.2409249999998
 31
0.0
  0
LINE
  5
56B
  8
DATA
  6
CONTINUOUS
 62
     7
 10
-489.3500000000001
 20
-996.4409249999999
 30
0.0
 11
-489.3500000000001
 21
-994.3409249999997
 31
0.0
  0
LINE
  5
56C
  8
DATA
  6
CONTINUOUS
 62
     7
 10
-489.3500000000001
 20
-920.3409249999997
 30
0.0
 11
-489.3500000000001
 21
-918.2409249999998
 31
0.0
  0
LINE
  5
56D
  8
DATA
  6
CONTINUOUS
 62
     7
 10
-463.6499999999999
 20
-996.4409249999999
 30
0.0
 11
-489.3500000000001
 21
-996.4409249999999
 31
0.0
  0
LINE
  5
56E
  8
DATA
  6
CONTINUOUS
 62
     7
 10
-463.6499999999999
 20
-918.2409249999998
 30
0.0
 11
-463.6499999999999
 21
-920.3409249999997
 31
0.0
  0
LINE
  5
56F
  8
DATA
  6
CONTINUOUS
 62
     7
 10
-463.6499999999999
 20
-994.3409249999997
 30
0.0
 11
-463.6499999999999
 21
-996.4409249999999
 31
0.0
  0
POLYLINE
  5
570
  8
DATA
  6
CONTINUOUS
 62
     7
 66
     1
 10
0.0
 20
0.0
 30
0.0
 70
     1
  0
VERTEX
  5
7B0
  8
DATA
  6
CONTINUOUS
 62
     7
 10
-312.5
 20
-912.8409249999997
 30
0.0
  0
VERTEX
  5
7B1
  8
DATA
  6
CONTINUOUS
 62
     7
 10
-310.9000000000001
 20
-912.8409249999997
 30
0.0
  0
VERTEX
  5
7B2
  8
DATA
  6
CONTINUOUS
 62
     7
 10
-310.9000000000001
 20
-1001.840925
 30
0.0
  0
VERTEX
  5
7B3
  8
DATA
  6
CONTINUOUS
 62
     7
 10
-312.5
 20
-1001.840925
 30
0.0
  0
SEQEND
  5
7E0
  8
DATA
  6
CONTINUOUS
 62
     7
  0
LINE
  5
577
  8
DATA
  6
CONTINUOUS
 62
     7
 10
-310.9000000000001
 20
-918.2409249999998
 30
0.0
 11
-273.5
 21
-918.2409249999998
 31
0.0
  0
LINE
  5
578
  8
DATA
  6
CONTINUOUS
 62
     7
 10
-273.5
 20
-996.4409249999999
 30
0.0
 11
-310.9000000000001
 21
-996.4409249999999
 31
0.0
  0
LINE
  5
579
  8
DATA
  6
CONTINUOUS
 62
     7
 10
-273.5
 20
-918.2409249999998
 30
0.0
 11
-273.5
 21
-919.8409249999997
 31
0.0
  0
LINE
  5
57A
  8
DATA
  6
CONTINUOUS
 62
     7
 10
-273.5
 20
-994.8409249999997
 30
0.0
 11
-273.5
 21
-996.4409249999999
 31
0.0
  0
LINE
  5
57B
  8
DATA
  6
CONTINUOUS
 62
     7
 10
-310.9000000000001
 20
-919.8409249999997
 30
0.0
 11
-273.5
 21
-919.8409249999997
 31
0.0
  0
LINE
  5
57C
  8
DATA
  6
CONTINUOUS
 62
     7
 10
-273.5
 20
-994.8409249999997
 30
0.0
 11
-310.9000000000001
 21
-994.8409249999997
 31
0.0
  0
LINE
  5
57D
  8
DATA
  6
CONTINUOUS
 62
     7
 10
-302.3499999999999
 20
-944.4909249999998
 30
0.0
 11
-310.9000000000001
 21
-944.4909249999998
 31
0.0
  0
LINE
  5
57E
  8
DATA
  6
CONTINUOUS
 62
     7
 10
-302.3499999999999
 20
-970.1909249999997
 30
0.0
 11
-310.9000000000001
 21
-970.1909249999997
 31
0.0
  0
ARC
  5
57F
  8
DATA
  6
CONTINUOUS
 62
     7
 10
-302.3499999999999
 20
-957.3409249999999
 30
0.0
 40
12.85000000000002
 50
270.0
 51
90.0
  0
POLYLINE
  5
580
  8
DATA
  6
CONTINUOUS
 62
     7
 66
     1
 10
0.0
 20
0.0
 30
0.0
 70
     1
  0
VERTEX
  5
7B4
  8
DATA
  6
CONTINUOUS
 62
     7
 10
-575.9999999999998
 20
-873.4
 30
0.0
  0
VERTEX
  5
7B5
  8
DATA
  6
CONTINUOUS
 62
     7
 10
-423.9999999999998
 20
-873.4
 30
0.0
  0
VERTEX
  5
7B6
  8
DATA
  6
CONTINUOUS
 62
     7
 10
-423.9999999999998
 20
-875.0
 30
0.0
  0
VERTEX
  5
7B7
  8
DATA
  6
CONTINUOUS
 62
     7
 10
-575.9999999999998
 20
-875.0
 30
0.0
  0
SEQEND
  5
7E1
  8
DATA
  6
CONTINUOUS
 62
     7
  0
LINE
  5
587
  8
DATA
  6
CONTINUOUS
 62
     7
 10
-460.8999999999999
 20
-852.0000000000001
 30
0.0
 11
-460.8999999999999
 21
-873.4000000000001
 31
0.0
  0
LINE
  5
588
  8
DATA
  6
CONTINUOUS
 62
     7
 10
-539.0999999999997
 20
-873.4000000000001
 30
0.0
 11
-539.0999999999997
 21
-852.0000000000001
 31
0.0
  0
LINE
  5
589
  8
DATA
  6
CONTINUOUS
 62
     7
 10
-537.4999999999998
 20
-873.4000000000001
 30
0.0
 11
-537.4999999999998
 21
-852.0000000000001
 31
0.0
  0
LINE
  5
58A
  8
DATA
  6
CONTINUOUS
 62
     7
 10
-539.0999999999997
 20
-852.0000000000001
 30
0.0
 11
-537.4999999999998
 21
-852.0000000000001
 31
0.0
  0
LINE
  5
58B
  8
DATA
  6
CONTINUOUS
 62
     7
 10
-462.4999999999998
 20
-852.0000000000001
 30
0.0
 11
-460.8999999999999
 21
-852.0000000000001
 31
0.0
  0
LINE
  5
58C
  8
DATA
  6
CONTINUOUS
 62
     7
 10
-462.4999999999998
 20
-873.4000000000001
 30
0.0
 11
-462.4999999999998
 21
-852.0
 31
0.0
  0
LINE
  5
58D
  8
DATA
  6
CONTINUOUS
 62
     7
 10
-489.3500000000001
 20
-848.8500000000001
 30
0.0
 11
-489.3500000000001
 21
-873.4000000000001
 31
0.0
  0
ARC
  5
58E
  8
DATA
  6
CONTINUOUS
 62
     7
 10
-476.4999999999998
 20
-848.8500000000001
 30
0.0
 40
12.84999999999991
 50
0.0
 51
180.0
  0
LINE
  5
58F
  8
DATA
  6
CONTINUOUS
 62
     7
 10
-463.6499999999999
 20
-848.8500000000001
 30
0.0
 11
-463.6499999999999
 21
-873.4000000000001
 31
0.0
  0
CIRCLE
  5
590
  8
DATA
  6
CONTINUOUS
 62
     7
 10
-476.4999999999998
 20
-846.5
 30
0.0
 40
3.899999999999636
  0
ARC
  5
591
  8
DATA
  6
CONTINUOUS
 62
     7
 10
-499.9999999999998
 20
-1001.760925
 30
0.0
 40
4.650000000000134
 50
180.9857824751231
 51
359.0142175248769
  0
LINE
  5
592
  8
DATA
  6
CONTINUOUS
 62
     7
 10
-497.9345294119737
 20
-1002.953425
 30
0.0
 11
-497.9345294119737
 21
-1001.840925
 31
0.0
  0
LINE
  5
593
  8
DATA
  6
CONTINUOUS
 62
     7
 10
-499.9999999999998
 20
-1004.145925
 30
0.0
 11
-497.9345294119737
 21
-1002.953425
 31
0.0
  0
LINE
  5
594
  8
DATA
  6
CONTINUOUS
 62
     7
 10
-502.0654705880258
 20
-1002.953424999999
 30
0.0
 11
-499.9999999999998
 21
-1004.145925
 31
0.0
  0
LINE
  5
595
  8
DATA
  6
CONTINUOUS
 62
     7
 10
-502.0654705880258
 20
-1001.840925
 30
0.0
 11
-502.0654705880258
 21
-1002.953424999999
 31
0.0
  0
LINE
  5
596
  8
DATA
  6
CONTINUOUS
 62
     7
 10
-456.3999999999999
 20
-857.25
 30
0.0
 11
-456.3999999999999
 21
-864.75
 31
0.0
  0
ARC
  5
597
  8
DATA
  6
CONTINUOUS
 62
     7
 10
-466.1807565789479
 20
-866.6317434210533
 30
0.0
 40
13.55287087207405
 50
43.80712502883608
 51
67.06782567339872
  0
ARC
  5
598
  8
DATA
  6
CONTINUOUS
 62
     7
 10
-466.1807565789479
 20
-855.3682565789468
 30
0.0
 40
13.552870872074
 50
292.9321743266011
 51
316.1928749711642
  0
LINE
  5
599
  8
DATA
  6
CONTINUOUS
 62
     7
 10
-462.4999999999998
 20
-868.3500000000001
 30
0.0
 11
-463.4999999999998
 21
-868.3500000000001
 31
0.0
  0
LINE
  5
59A
  8
DATA
  6
CONTINUOUS
 62
     7
 10
-463.4999999999998
 20
-853.6500000000001
 30
0.0
 11
-462.4999999999998
 21
-853.6500000000001
 31
0.0
  0
POLYLINE
  5
59B
  8
DATA
  6
CONTINUOUS
 62
     7
 66
     1
 10
0.0
 20
0.0
 30
0.0
 70
     1
  0
VERTEX
  5
7B8
  8
DATA
  6
CONTINUOUS
 62
     7
 10
-204.4000000000005
 20
-997.1109249999997
 30
0.0
  0
VERTEX
  5
7B9
  8
DATA
  6
CONTINUOUS
 62
     7
 10
-198.1000000000004
 20
-997.1109249999997
 30
0.0
  0
VERTEX
  5
7BA
  8
DATA
  6
CONTINUOUS
 62
     7
 10
-198.1000000000004
 20
-1006.410925
 30
0.0
  0
VERTEX
  5
7BB
  8
DATA
  6
CONTINUOUS
 62
     7
 10
-204.4000000000005
 20
-1006.410925
 30
0.0
  0
SEQEND
  5
7E2
  8
DATA
  6
CONTINUOUS
 62
     7
  0
LINE
  5
5A2
  8
DATA
  6
CONTINUOUS
 62
     7
 10
-291.2652131278946
 20
-950.8409249999997
 30
0.0
 11
-203.5
 21
-950.8409249999997
 31
0.0
  0
LINE
  5
5A3
  8
DATA
  6
CONTINUOUS
 62
     7
 10
-203.5
 20
-963.8409249999997
 30
0.0
 11
-291.2652131278946
 21
-963.8409249999997
 31
0.0
  0
LINE
  5
5A4
  8
DATA
  6
CONTINUOUS
 62
     7
 10
-196.5
 20
-970.8409249999997
 30
0.0
 11
-196.5
 21
-979.1859249999995
 31
0.0
  0
LINE
  5
5A5
  8
DATA
  6
CONTINUOUS
 62
     7
 10
-196.5
 20
-998.5359249999997
 30
0.0
 11
-196.5
 21
-999.1809249999997
 31
0.0
  0
LINE
  5
5A6
  8
DATA
  6
CONTINUOUS
 62
     7
 10
-196.5
 20
-1004.340925
 30
0.0
 11
-196.5
 21
-1004.985925
 31
0.0
  0
LINE
  5
5A7
  8
DATA
  6
CONTINUOUS
 62
     7
 10
-183.5
 20
-970.8409249999997
 30
0.0
 11
-183.5
 21
-979.1859249999995
 31
0.0
  0
ARC
  5
5A8
  8
DATA
  6
CONTINUOUS
 62
     7
 10
-203.5
 20
-970.8409249999997
 30
0.0
 40
20.0
 50
0.0
 51
90.0
  0
ARC
  5
5A9
  8
DATA
  6
CONTINUOUS
 62
     7
 10
-203.5
 20
-970.8409249999997
 30
0.0
 40
7.0
 50
0.0
 51
90.0
  0
ARC
  5
5AA
  8
DATA
  6
CONTINUOUS
 62
     7
 10
-200.2602499999998
 20
-1001.760925
 30
0.0
 40
4.560249999999805
 50
325.5450235470975
 51
34.45497645290476
  0
LINE
  5
5AB
  8
DATA
  6
CONTINUOUS
 62
     7
 10
-543.5999999999997
 20
-857.25
 30
0.0
 11
-543.5999999999997
 21
-864.75
 31
0.0
  0
ARC
  5
5AC
  8
DATA
  6
CONTINUOUS
 62
     7
 10
-533.8192434210521
 20
-866.6317434210533
 30
0.0
 40
13.55287087207372
 50
112.9321743265995
 51
136.1928749711626
  0
ARC
  5
5AD
  8
DATA
  6
CONTINUOUS
 62
     7
 10
-533.8192434210521
 20
-855.3682565789468
 30
0.0
 40
13.55287087207364
 50
223.807125028837
 51
247.0678256734006
  0
LINE
  5
5AE
  8
DATA
  6
CONTINUOUS
 62
     7
 10
-537.4999999999998
 20
-868.3500000000001
 30
0.0
 11
-536.4999999999998
 21
-868.3500000000001
 31
0.0
  0
LINE
  5
5AF
  8
DATA
  6
CONTINUOUS
 62
     7
 10
-536.4999999999998
 20
-853.6500000000001
 30
0.0
 11
-537.4999999999998
 21
-853.6500000000001
 31
0.0
  0
CIRCLE
  5
5B0
  8
DATA
  6
CONTINUOUS
 62
     7
 10
-298.5
 20
-957.3409249999997
 30
0.0
 40
6.849999999999909
  0
CIRCLE
  5
5B1
  8
DATA
  6
CONTINUOUS
 62
     7
 10
-298.5
 20
-957.3409249999997
 30
0.0
 40
3.75
  0
POLYLINE
  5
5B2
  8
DATA
  6
CONTINUOUS
 62
     7
 66
     1
 10
0.0
 20
0.0
 30
0.0
 70
     1
  0
VERTEX
  5
7BC
  8
DATA
  6
CONTINUOUS
 62
     7
 10
-298.5
 20
-954.9559249999998
 30
0.0
  0
VERTEX
  5
7BD
  8
DATA
  6
CONTINUOUS
 62
     7
 10
-300.5654705880261
 20
-956.1484249999996
 30
0.0
  0
VERTEX
  5
7BE
  8
DATA
  6
CONTINUOUS
 62
     7
 10
-300.5654705880261
 20
-958.5334249999994
 30
0.0
  0
VERTEX
  5
7BF
  8
DATA
  6
CONTINUOUS
 62
     7
 10
-298.5
 20
-959.7259249999997
 30
0.0
  0
VERTEX
  5
7C0
  8
DATA
  6
CONTINUOUS
 62
     7
 10
-296.4345294119739
 20
-958.5334249999996
 30
0.0
  0
VERTEX
  5
7C1
  8
DATA
  6
CONTINUOUS
 62
     7
 10
-296.4345294119739
 20
-956.1484249999992
 30
0.0
  0
SEQEND
  5
7E3
  8
DATA
  6
CONTINUOUS
 62
     7
  0
LINE
  5
5BB
  8
DATA
  6
CONTINUOUS
 62
     7
 10
-456.3999999999999
 20
-953.5909249999997
 30
0.0
 11
-456.3999999999999
 21
-961.0909249999997
 31
0.0
  0
ARC
  5
5BC
  8
DATA
  6
CONTINUOUS
 62
     7
 10
-466.1807565789479
 20
-962.9726684210531
 30
0.0
 40
13.55287087207405
 50
43.80712502883608
 51
67.06782567339872
  0
ARC
  5
5BD
  8
DATA
  6
CONTINUOUS
 62
     7
 10
-466.1807565789479
 20
-951.7091815789465
 30
0.0
 40
13.552870872074
 50
292.9321743266011
 51
316.1928749711642
  0
LINE
  5
5BE
  8
DATA
  6
CONTINUOUS
 62
     7
 10
-543.5999999999997
 20
-953.5909249999997
 30
0.0
 11
-543.5999999999997
 21
-961.0909249999997
 31
0.0
  0
ARC
  5
5BF
  8
DATA
  6
CONTINUOUS
 62
     7
 10
-533.8192434210521
 20
-962.9726684210531
 30
0.0
 40
13.55287087207372
 50
112.9321743265995
 51
136.1928749711626
  0
ARC
  5
5C0
  8
DATA
  6
CONTINUOUS
 62
     7
 10
-533.8192434210521
 20
-951.7091815789465
 30
0.0
 40
13.55287087207364
 50
223.807125028837
 51
247.0678256734006
  0
LINE
  5
5C1
  8
DATA
  6
CONTINUOUS
 62
     7
 10
841.3500000000001
 20
-500.95
 30
0.0
 11
841.3500000000001
 21
-399.05
 31
0.0
  0
LINE
  5
5C2
  8
DATA
  6
CONTINUOUS
 62
     7
 10
858.6500000000003
 20
-399.05
 30
0.0
 11
858.6500000000003
 21
-500.95
 31
0.0
  0
POLYLINE
  5
5C3
  8
DATA
  6
CONTINUOUS
 62
     7
 66
     1
 10
0.0
 20
0.0
 30
0.0
 70
     1
  0
VERTEX
  5
7C2
  8
DATA
  6
CONTINUOUS
 62
     7
 10
843.4000000000003
 20
-418.4
 30
0.0
  0
VERTEX
  5
7C3
  8
DATA
  6
CONTINUOUS
 62
     7
 10
856.6000000000001
 20
-418.4
 30
0.0
  0
VERTEX
  5
7C4
  8
DATA
  6
CONTINUOUS
 62
     7
 10
856.6000000000001
 20
-424.85
 30
0.0
  0
VERTEX
  5
7C5
  8
DATA
  6
CONTINUOUS
 62
     7
 10
843.4000000000003
 20
-424.85
 30
0.0
  0
SEQEND
  5
7E4
  8
DATA
  6
CONTINUOUS
 62
     7
  0
CIRCLE
  5
5CA
  8
DATA
  6
CONTINUOUS
 62
     7
 10
817.7500000000007
 20
-405.575
 30
0.0
 40
3.099999999999909
  0
ARC
  5
5CB
  8
DATA
  6
CONTINUOUS
 62
     7
 10
816.2
 20
-404.05
 30
0.0
 40
4.999999999999943
 50
90.0
 51
180.0000000000006
  0
LINE
  5
5CC
  8
DATA
  6
CONTINUOUS
 62
     7
 10
811.2
 20
-495.95
 30
0.0
 11
811.2
 21
-404.05
 31
0.0
  0
ARC
  5
5CD
  8
DATA
  6
CONTINUOUS
 62
     7
 10
816.2
 20
-495.95
 30
0.0
 40
5.0
 50
180.0
 51
270.0
  0
LINE
  5
5CE
  8
DATA
  6
CONTINUOUS
 62
     7
 10
883.8
 20
-500.95
 30
0.0
 11
816.2
 21
-500.95
 31
0.0
  0
ARC
  5
5CF
  8
DATA
  6
CONTINUOUS
 62
     7
 10
883.8
 20
-495.95
 30
0.0
 40
5.0
 50
270.0
 51
0.0
  0
LINE
  5
5D0
  8
DATA
  6
CONTINUOUS
 62
     7
 10
888.8
 20
-404.05
 30
0.0
 11
888.8
 21
-495.95
 31
0.0
  0
ARC
  5
5D1
  8
DATA
  6
CONTINUOUS
 62
     7
 10
883.8
 20
-404.0500000000001
 30
0.0
 40
5.0
 50
0.0000000000006821
 51
90.0
  0
LINE
  5
5D2
  8
DATA
  6
CONTINUOUS
 62
     7
 10
816.2
 20
-399.05
 30
0.0
 11
883.8
 21
-399.05
 31
0.0
  0
CIRCLE
  5
5D3
  8
DATA
  6
CONTINUOUS
 62
     7
 10
882.2499999999993
 20
-405.575
 30
0.0
 40
3.099999999999909
  0
CIRCLE
  5
5D4
  8
DATA
  6
CONTINUOUS
 62
     7
 10
817.7500000000007
 20
-494.425
 30
0.0
 40
3.099999999999909
  0
CIRCLE
  5
5D5
  8
DATA
  6
CONTINUOUS
 62
     7
 10
882.2499999999993
 20
-494.425
 30
0.0
 40
3.099999999999909
  0
LINE
  5
5D6
  8
DATA
  6
CONTINUOUS
 62
     7
 10
846.8999999999403
 20
-474.75000000006
 30
0.0
 11
846.8999999999403
 21
-475.05
 31
0.0
  0
ARC
  5
5D7
  8
DATA
  6
CONTINUOUS
 62
     7
 10
850.0000000000007
 20
-474.7500000000603
 30
0.0
 40
3.100000000060334
 50
90.00000000000841
 51
172.9687499999963
  0
ARC
  5
5D8
  8
DATA
  6
CONTINUOUS
 62
     7
 10
850.0000000000057
 20
-474.7500000000603
 30
0.0
 40
3.100000000065395
 50
172.9687500000075
 51
179.9999999999948
  0
LINE
  5
5D9
  8
DATA
  6
CONTINUOUS
 62
     7
 10
846.8999999999403
 20
-475.34999999994
 30
0.0
 11
846.8999999999403
 21
-475.0500000000001
 31
0.0
  0
ARC
  5
5DA
  8
DATA
  6
CONTINUOUS
 62
     7
 10
850.0000000000007
 20
-475.3499999999397
 30
0.0
 40
3.100000000060431
 50
187.0312500000038
 51
269.9999999999916
  0
ARC
  5
5DB
  8
DATA
  6
CONTINUOUS
 62
     7
 10
850.0000000000057
 20
-475.3499999999397
 30
0.0
 40
3.100000000065393
 50
180.0000000000052
 51
187.0312499999925
  0
LINE
  5
5DC
  8
DATA
  6
CONTINUOUS
 62
     7
 10
853.1000000000602
 20
-474.75000000006
 30
0.0
 11
853.1000000000602
 21
-475.05
 31
0.0
  0
ARC
  5
5DD
  8
DATA
  6
CONTINUOUS
 62
     7
 10
849.9999999999998
 20
-474.7500000000603
 30
0.0
 40
3.100000000060431
 50
7.031250000003782
 51
89.9999999999916
  0
ARC
  5
5DE
  8
DATA
  6
CONTINUOUS
 62
     7
 10
849.9999999999948
 20
-474.7500000000603
 30
0.0
 40
3.100000000065393
 50
0.0000000000052296
 51
7.03124999999244
  0
LINE
  5
5DF
  8
DATA
  6
CONTINUOUS
 62
     7
 10
853.1000000000602
 20
-475.34999999994
 30
0.0
 11
853.1000000000602
 21
-475.0500000000001
 31
0.0
  0
ARC
  5
5E0
  8
DATA
  6
CONTINUOUS
 62
     7
 10
849.9999999999998
 20
-475.3499999999397
 30
0.0
 40
3.100000000060334
 50
270.0000000000084
 51
352.9687499999962
  0
ARC
  5
5E1
  8
DATA
  6
CONTINUOUS
 62
     7
 10
849.9999999999948
 20
-475.3499999999397
 30
0.0
 40
3.100000000065395
 50
352.9687500000076
 51
359.9999999999948
  0
ARC
  5
5E2
  8
DATA
  6
CONTINUOUS
 62
     7
 10
857.4465857438829
 20
-494.4187499979403
 30
0.0
 40
10.29673938894532
 50
178.088248564809
 51
180.3130023616529
  0
ARC
  5
5E3
  8
DATA
  6
CONTINUOUS
 62
     7
 10
849.998174374063
 20
-494.2478303188041
 30
0.0
 40
2.847830903970458
 50
89.9632700564511
 51
176.5256925701764
  0
ARC
  5
5E4
  8
DATA
  6
CONTINUOUS
 62
     7
 10
857.4465857438829
 20
-494.5312500020598
 30
0.0
 40
10.29673938894531
 50
179.6869976383471
 51
181.911751435191
  0
ARC
  5
5E5
  8
DATA
  6
CONTINUOUS
 62
     7
 10
849.998174374063
 20
-494.702169681196
 30
0.0
 40
2.847830903970506
 50
183.4743074298236
 51
270.0367299435489
  0
ARC
  5
5E6
  8
DATA
  6
CONTINUOUS
 62
     7
 10
842.5534142561171
 20
-494.4187499979403
 30
0.0
 40
10.29673938894577
 50
359.6869976383471
 51
1.911751435190922
  0
ARC
  5
5E7
  8
DATA
  6
CONTINUOUS
 62
     7
 10
850.0018256259375
 20
-494.2478303188041
 30
0.0
 40
2.847830903970506
 50
3.474307429823608
 51
90.03672994354892
  0
ARC
  5
5E8
  8
DATA
  6
CONTINUOUS
 62
     7
 10
842.5534142561171
 20
-494.5312500020598
 30
0.0
 40
10.29673938894577
 50
358.0882485648091
 51
0.3130023616529343
  0
ARC
  5
5E9
  8
DATA
  6
CONTINUOUS
 62
     7
 10
850.0018256259375
 20
-494.702169681196
 30
0.0
 40
2.847830903970458
 50
269.9632700564511
 51
356.5256925701764
  0
TEXT
  5
5EA
  8
DATA
 62
     7
 10
801.1836371527778
 20
-657.8605143229166
 30
0.0
 40
40.72102864583334
  1
壁側金具寸法
 41
0.7
 72
     1
 11
900.0
 21
-637.5
 31
0.0
 73
     2
  0
LINE
  5
5EB
  8
DATA
  6
CONTINUOUS
 62
     7
 10
737.5
 20
-675.0
 30
0.0
 11
1062.5
 21
-675.0
 31
0.0
  0
LINE
  5
5EC
  8
DATA
  6
CONTINUOUS
 62
     7
 10
341.3500000000001
 20
-1104.585925
 30
0.0
 11
341.3500000000001
 21
-1033.340925
 31
0.0
  0
LINE
  5
5ED
  8
DATA
  6
CONTINUOUS
 62
     7
 10
358.6500000000003
 20
-1033.340925
 30
0.0
 11
358.6500000000003
 21
-1104.585925
 31
0.0
  0
LINE
  5
5EE
  8
DATA
  6
CONTINUOUS
 62
     7
 10
311.2
 20
-1099.585925
 30
0.0
 11
311.2
 21
-1033.340925
 31
0.0
  0
ARC
  5
5EF
  8
DATA
  6
CONTINUOUS
 62
     7
 10
316.2
 20
-1099.585925
 30
0.0
 40
5.0
 50
180.0
 51
270.0
  0
LINE
  5
5F0
  8
DATA
  6
CONTINUOUS
 62
     7
 10
383.8
 20
-1104.585925
 30
0.0
 11
316.2
 21
-1104.585925
 31
0.0
  0
ARC
  5
5F1
  8
DATA
  6
CONTINUOUS
 62
     7
 10
383.8
 20
-1099.585925
 30
0.0
 40
5.0
 50
270.0
 51
0.0
  0
LINE
  5
5F2
  8
DATA
  6
CONTINUOUS
 62
     7
 10
388.8
 20
-1033.340925
 30
0.0
 11
388.8
 21
-1099.585925
 31
0.0
  0
CIRCLE
  5
5F3
  8
DATA
  6
CONTINUOUS
 62
     7
 10
317.7500000000007
 20
-1098.060925
 30
0.0
 40
3.099999999999909
  0
CIRCLE
  5
5F4
  8
DATA
  6
CONTINUOUS
 62
     7
 10
382.2499999999993
 20
-1098.060925
 30
0.0
 40
3.099999999999909
  0
LINE
  5
5F5
  8
DATA
  6
CONTINUOUS
 62
     7
 10
346.8999999999403
 20
-1078.38592500006
 30
0.0
 11
346.8999999999403
 21
-1078.685925
 31
0.0
  0
ARC
  5
5F6
  8
DATA
  6
CONTINUOUS
 62
     7
 10
350.0000000000007
 20
-1078.38592500006
 30
0.0
 40
3.10000000006039
 50
90.00000000000841
 51
172.9687499999963
  0
ARC
  5
5F7
  8
DATA
  6
CONTINUOUS
 62
     7
 10
350.0000000000057
 20
-1078.38592500006
 30
0.0
 40
3.100000000065395
 50
172.9687500000075
 51
179.9999999999958
  0
LINE
  5
5F8
  8
DATA
  6
CONTINUOUS
 62
     7
 10
346.8999999999403
 20
-1078.98592499994
 30
0.0
 11
346.8999999999403
 21
-1078.685925
 31
0.0
  0
ARC
  5
5F9
  8
DATA
  6
CONTINUOUS
 62
     7
 10
350.0000000000007
 20
-1078.985924999939
 30
0.0
 40
3.100000000060431
 50
187.0312500000038
 51
269.9999999999916
  0
ARC
  5
5FA
  8
DATA
  6
CONTINUOUS
 62
     7
 10
350.0000000000057
 20
-1078.985924999939
 30
0.0
 40
3.100000000065393
 50
180.0000000000042
 51
187.0312499999925
  0
LINE
  5
5FB
  8
DATA
  6
CONTINUOUS
 62
     7
 10
353.1000000000602
 20
-1078.38592500006
 30
0.0
 11
353.1000000000602
 21
-1078.685925
 31
0.0
  0
ARC
  5
5FC
  8
DATA
  6
CONTINUOUS
 62
     7
 10
349.9999999999998
 20
-1078.38592500006
 30
0.0
 40
3.100000000060431
 50
7.031250000003782
 51
89.9999999999916
  0
ARC
  5
5FD
  8
DATA
  6
CONTINUOUS
 62
     7
 10
349.9999999999948
 20
-1078.38592500006
 30
0.0
 40
3.100000000065393
 50
0.0000000000042064
 51
7.03124999999244
  0
LINE
  5
5FE
  8
DATA
  6
CONTINUOUS
 62
     7
 10
353.1000000000602
 20
-1078.98592499994
 30
0.0
 11
353.1000000000602
 21
-1078.685925
 31
0.0
  0
ARC
  5
5FF
  8
DATA
  6
CONTINUOUS
 62
     7
 10
349.9999999999998
 20
-1078.985924999939
 30
0.0
 40
3.10000000006039
 50
270.0000000000084
 51
352.9687499999962
  0
ARC
  5
600
  8
DATA
  6
CONTINUOUS
 62
     7
 10
349.9999999999948
 20
-1078.985924999939
 30
0.0
 40
3.100000000065395
 50
352.9687500000076
 51
359.9999999999957
  0
ARC
  5
601
  8
DATA
  6
CONTINUOUS
 62
     7
 10
357.4465857438829
 20
-1098.05467499794
 30
0.0
 40
10.29673938894532
 50
178.088248564809
 51
180.3130023616523
  0
ARC
  5
602
  8
DATA
  6
CONTINUOUS
 62
     7
 10
349.998174374063
 20
-1097.883755318804
 30
0.0
 40
2.847830903970458
 50
89.9632700564511
 51
176.5256925701764
  0
ARC
  5
603
  8
DATA
  6
CONTINUOUS
 62
     7
 10
357.4465857438829
 20
-1098.16717500206
 30
0.0
 40
10.29673938894531
 50
179.6869976383464
 51
181.911751435191
  0
ARC
  5
604
  8
DATA
  6
CONTINUOUS
 62
     7
 10
349.998174374063
 20
-1098.338094681196
 30
0.0
 40
2.847830903970506
 50
183.4743074298236
 51
270.0367299435489
  0
ARC
  5
605
  8
DATA
  6
CONTINUOUS
 62
     7
 10
342.5534142561171
 20
-1098.05467499794
 30
0.0
 40
10.29673938894577
 50
359.6869976383477
 51
1.911751435190922
  0
ARC
  5
606
  8
DATA
  6
CONTINUOUS
 62
     7
 10
350.0018256259375
 20
-1097.883755318804
 30
0.0
 40
2.847830903970506
 50
3.474307429823608
 51
90.03672994354892
  0
ARC
  5
607
  8
DATA
  6
CONTINUOUS
 62
     7
 10
342.5534142561171
 20
-1098.16717500206
 30
0.0
 40
10.29673938894577
 50
358.0882485648091
 51
0.3130023616535595
  0
ARC
  5
608
  8
DATA
  6
CONTINUOUS
 62
     7
 10
350.0018256259375
 20
-1098.338094681196
 30
0.0
 40
2.847830903970458
 50
269.9632700564511
 51
356.5256925701764
  0
LINE
  5
609
  8
DATA
  6
CONTINUOUS
 62
     7
 10
566.3999999999996
 20
-1075.285925000016
 30
0.0
 11
566.3999999999996
 21
-1028.485925
 31
0.0
  0
LINE
  5
60A
  8
DATA
  6
CONTINUOUS
 62
     7
 10
566.3999999999996
 20
-1104.585925
 30
0.0
 11
566.3999999999996
 21
-1101.282083780525
 31
0.0
  0
LINE
  5
60B
  8
DATA
  6
CONTINUOUS
 62
     7
 10
583.5999999999999
 20
-1104.585925
 30
0.0
 11
566.3999999999996
 21
-1104.585925
 31
0.0
  0
LINE
  5
60C
  8
DATA
  6
CONTINUOUS
 62
     7
 10
583.5999999999999
 20
-1002.685925
 30
0.0
 11
583.5999999999999
 21
-1104.585925
 31
0.0
  0
LINE
  5
60D
  8
DATA
  6
CONTINUOUS
 62
     7
 10
566.3999999999996
 20
-1002.685925
 30
0.0
 11
583.5999999999999
 21
-1002.685925
 31
0.0
  0
LINE
  5
60E
  8
DATA
  6
CONTINUOUS
 62
     7
 10
566.3999999999996
 20
-1022.035925
 30
0.0
 11
566.3999999999996
 21
-1002.685925
 31
0.0
  0
LINE
  5
60F
  8
DATA
  6
CONTINUOUS
 62
     7
 10
566.3999999999996
 20
-1095.035925
 30
0.0
 11
566.3999999999996
 21
-1082.085925
 31
0.0
  0
LINE
  5
610
  8
DATA
  6
CONTINUOUS
 62
     7
 10
581.9999999999995
 20
-1002.685925
 30
0.0
 11
581.9999999999995
 21
-1104.585925
 31
0.0
  0
ARC
  5
611
  8
DATA
  6
CONTINUOUS
 62
     7
 10
559.5750000000344
 20
-1078.685925000008
 30
0.0
 40
7.624999999965191
 50
333.5189601695652
 51
26.48103983043638
  0
ARC
  5
612
  8
DATA
  6
CONTINUOUS
 62
     7
 10
558.5719792684299
 20
-1098.159004390262
 30
0.0
 40
8.428020731569749
 50
338.2499002765662
 51
21.75009972343236
  0
LINE
  5
613
  8
DATA
  6
CONTINUOUS
 62
     7
 10
574.1749999999997
 20
-1022.035925
 30
0.0
 11
566.3999999999996
 21
-1022.035925
 31
0.0
  0
LINE
  5
614
  8
DATA
  6
CONTINUOUS
 62
     7
 10
574.1749999999997
 20
-1028.485925
 30
0.0
 11
566.3999999999996
 21
-1028.485925
 31
0.0
  0
ARC
  5
615
  8
DATA
  6
CONTINUOUS
 62
     7
 10
574.1749999999997
 20
-1025.260925
 30
0.0
 40
3.224999999999909
 50
270.0
 51
90.0
  0
LINE
  5
616
  8
DATA
  6
CONTINUOUS
 62
     7
 10
388.8
 20
-711.2409249999998
 30
0.0
 11
388.8
 21
-712.840925
 31
0.0
  0
LINE
  5
617
  8
DATA
  6
CONTINUOUS
 62
     7
 10
311.2
 20
-711.2409249999998
 30
0.0
 11
339.95
 21
-711.2409249999998
 31
0.0
  0
LINE
  5
618
  8
DATA
  6
CONTINUOUS
 62
     7
 10
360.05
 20
-711.2409249999998
 30
0.0
 11
388.8
 21
-711.2409249999998
 31
0.0
  0
LINE
  5
619
  8
DATA
  6
CONTINUOUS
 62
     7
 10
311.2
 20
-712.840925
 30
0.0
 11
311.2
 21
-711.2409249999998
 31
0.0
  0
LINE
  5
61A
  8
DATA
  6
CONTINUOUS
 62
     7
 10
311.2
 20
-712.840925
 30
0.0
 11
339.95
 21
-712.840925
 31
0.0
  0
LINE
  5
61B
  8
DATA
  6
CONTINUOUS
 62
     7
 10
341.3500000000001
 20
-719.7909249999998
 30
0.0
 11
341.3500000000001
 21
-714.2409249999998
 31
0.0
  0
ARC
  5
61C
  8
DATA
  6
CONTINUOUS
 62
     7
 10
350.0000000000002
 20
-719.7909249999998
 30
0.0
 40
8.650000000000091
 50
180.0
 51
221.2842887166884
  0
ARC
  5
61D
  8
DATA
  6
CONTINUOUS
 62
     7
 10
350.0000000000002
 20
-719.7909249999998
 30
0.0
 40
8.650000000000167
 50
318.7157112833116
 51
0.0
  0
ARC
  5
61E
  8
DATA
  6
CONTINUOUS
 62
     7
 10
350.0000000000002
 20
-719.7909249999998
 30
0.0
 40
7.050000000000182
 50
180.0
 51
202.7818567850396
  0
ARC
  5
61F
  8
DATA
  6
CONTINUOUS
 62
     7
 10
350.0000000000002
 20
-719.7909249999998
 30
0.0
 40
7.049999999999997
 50
337.2181432149605
 51
0.0
  0
LINE
  5
620
  8
DATA
  6
CONTINUOUS
 62
     7
 10
342.95
 20
-719.7909249999998
 30
0.0
 11
342.95
 21
-714.2409249999998
 31
0.0
  0
LINE
  5
621
  8
DATA
  6
CONTINUOUS
 62
     7
 10
357.05
 20
-719.7909249999998
 30
0.0
 11
357.05
 21
-714.2409249999998
 31
0.0
  0
ARC
  5
622
  8
DATA
  6
CONTINUOUS
 62
     7
 10
339.95
 20
-714.2409249999998
 30
0.0
 40
3.0
 50
0.0
 51
90.0
  0
ARC
  5
623
  8
DATA
  6
CONTINUOUS
 62
     7
 10
360.05
 20
-714.2409249999998
 30
0.0
 40
3.0
 50
90.0
 51
180.0
  0
ARC
  5
624
  8
DATA
  6
CONTINUOUS
 62
     7
 10
339.95
 20
-714.2409249999998
 30
0.0
 40
1.400000000000091
 50
0.0
 51
90.0
  0
LINE
  5
625
  8
DATA
  6
CONTINUOUS
 62
     7
 10
388.8
 20
-712.840925
 30
0.0
 11
360.05
 21
-712.840925
 31
0.0
  0
LINE
  5
626
  8
DATA
  6
CONTINUOUS
 62
     7
 10
358.6500000000003
 20
-719.7909249999998
 30
0.0
 11
358.6500000000003
 21
-714.2409249999998
 31
0.0
  0
ARC
  5
627
  8
DATA
  6
CONTINUOUS
 62
     7
 10
360.05
 20
-714.2409249999998
 30
0.0
 40
1.399999999999864
 50
90.0
 51
180.0
  0
POLYLINE
  5
628
  8
DATA
  6
CONTINUOUS
 62
     7
 66
     1
 10
0.0
 20
0.0
 30
0.0
 70
     1
  0
VERTEX
  5
7C6
  8
DATA
  6
CONTINUOUS
 62
     7
 10
439.0999999999999
 20
-881.3409249999997
 30
0.0
  0
VERTEX
  5
7C7
  8
DATA
  6
CONTINUOUS
 62
     7
 10
439.0999999999999
 20
-1033.340925
 30
0.0
  0
VERTEX
  5
7C8
  8
DATA
  6
CONTINUOUS
 62
     7
 10
437.5
 20
-1033.340925
 30
0.0
  0
VERTEX
  5
7C9
  8
DATA
  6
CONTINUOUS
 62
     7
 10
437.5
 20
-881.3409249999997
 30
0.0
  0
SEQEND
  5
7E5
  8
DATA
  6
CONTINUOUS
 62
     7
  0
LINE
  5
62F
  8
DATA
  6
CONTINUOUS
 62
     7
 10
460.5
 20
-996.4409249999997
 30
0.0
 11
439.0999999999999
 21
-996.4409249999997
 31
0.0
  0
LINE
  5
630
  8
DATA
  6
CONTINUOUS
 62
     7
 10
439.0999999999999
 20
-918.2409249999998
 30
0.0
 11
460.5
 21
-918.2409249999998
 31
0.0
  0
LINE
  5
631
  8
DATA
  6
CONTINUOUS
 62
     7
 10
439.0999999999999
 20
-919.8409249999997
 30
0.0
 11
460.5
 21
-919.8409249999997
 31
0.0
  0
LINE
  5
632
  8
DATA
  6
CONTINUOUS
 62
     7
 10
460.5
 20
-918.2409249999998
 30
0.0
 11
460.5
 21
-919.8409249999997
 31
0.0
  0
LINE
  5
633
  8
DATA
  6
CONTINUOUS
 62
     7
 10
460.5
 20
-994.8409249999997
 30
0.0
 11
460.5
 21
-996.4409249999997
 31
0.0
  0
LINE
  5
634
  8
DATA
  6
CONTINUOUS
 62
     7
 10
439.0999999999999
 20
-994.8409249999997
 30
0.0
 11
460.5
 21
-994.8409249999997
 31
0.0
  0
LINE
  5
635
  8
DATA
  6
CONTINUOUS
 62
     7
 10
463.6499999999996
 20
-967.9909249999996
 30
0.0
 11
439.0999999999999
 21
-967.9909249999996
 31
0.0
  0
ARC
  5
636
  8
DATA
  6
CONTINUOUS
 62
     7
 10
463.6499999999996
 20
-980.8409249999997
 30
0.0
 40
12.84999999999991
 50
270.0
 51
90.0
  0
LINE
  5
637
  8
DATA
  6
CONTINUOUS
 62
     7
 10
463.6499999999996
 20
-993.6909249999997
 30
0.0
 11
439.0999999999999
 21
-993.6909249999997
 31
0.0
  0
LINE
  5
638
  8
DATA
  6
CONTINUOUS
 62
     7
 10
474.7347868721049
 20
-974.3409249999997
 30
0.0
 11
561.0
 21
-974.3409249999997
 31
0.0
  0
LINE
  5
639
  8
DATA
  6
CONTINUOUS
 62
     7
 10
561.0
 20
-987.3409249999997
 30
0.0
 11
474.7347868721049
 21
-987.3409249999997
 31
0.0
  0
LINE
  5
63A
  8
DATA
  6
CONTINUOUS
 62
     7
 10
568.0
 20
-994.3409249999997
 30
0.0
 11
568.0
 21
-1002.685925
 31
0.0
  0
LINE
  5
63B
  8
DATA
  6
CONTINUOUS
 62
     7
 10
568.0
 20
-1022.035925
 30
0.0
 11
568.0
 21
-1022.680925
 31
0.0
  0
LINE
  5
63C
  8
DATA
  6
CONTINUOUS
 62
     7
 10
568.0
 20
-1027.840925
 30
0.0
 11
568.0
 21
-1028.485925
 31
0.0
  0
LINE
  5
63D
  8
DATA
  6
CONTINUOUS
 62
     7
 10
581.0
 20
-994.3409249999997
 30
0.0
 11
581.0
 21
-1002.685925
 31
0.0
  0
ARC
  5
63E
  8
DATA
  6
CONTINUOUS
 62
     7
 10
561.0
 20
-994.3409249999997
 30
0.0
 40
20.0
 50
0.0
 51
90.0
  0
ARC
  5
63F
  8
DATA
  6
CONTINUOUS
 62
     7
 10
561.0
 20
-994.3409249999997
 30
0.0
 40
7.0
 50
0.0
 51
90.0
  0
ARC
  5
640
  8
DATA
  6
CONTINUOUS
 62
     7
 10
564.2397500000002
 20
-1025.260925
 30
0.0
 40
4.560249999999805
 50
325.5450235470975
 51
34.45497645290476
  0
POLYLINE
  5
641
  8
DATA
  6
CONTINUOUS
 62
     7
 66
     1
 10
0.0
 20
0.0
 30
0.0
 70
     1
  0
VERTEX
  5
7CA
  8
DATA
  6
CONTINUOUS
 62
     7
 10
560.0999999999995
 20
-1020.610925
 30
0.0
  0
VERTEX
  5
7CB
  8
DATA
  6
CONTINUOUS
 62
     7
 10
566.3999999999996
 20
-1020.610925
 30
0.0
  0
VERTEX
  5
7CC
  8
DATA
  6
CONTINUOUS
 62
     7
 10
566.3999999999996
 20
-1029.910925
 30
0.0
  0
VERTEX
  5
7CD
  8
DATA
  6
CONTINUOUS
 62
     7
 10
560.0999999999995
 20
-1029.910925
 30
0.0
  0
SEQEND
  5
7E6
  8
DATA
  6
CONTINUOUS
 62
     7
  0
LINE
  5
648
  8
DATA
  6
CONTINUOUS
 62
     7
 10
393.6000000000001
 20
-825.0909249999997
 30
0.0
 11
393.6000000000001
 21
-832.5909249999997
 31
0.0
  0
ARC
  5
649
  8
DATA
  6
CONTINUOUS
 62
     7
 10
383.8192434210525
 20
-834.4726684210531
 30
0.0
 40
13.55287087207372
 50
43.8071250288374
 51
67.06782567340048
  0
ARC
  5
64A
  8
DATA
  6
CONTINUOUS
 62
     7
 10
383.8192434210525
 20
-823.2091815789465
 30
0.0
 40
13.55287087207382
 50
292.9321743265994
 51
316.192874971163
  0
LINE
  5
64B
  8
DATA
  6
CONTINUOUS
 62
     7
 10
387.5000000000002
 20
-836.1909249999999
 30
0.0
 11
386.5000000000002
 21
-836.1909249999999
 31
0.0
  0
LINE
  5
64C
  8
DATA
  6
CONTINUOUS
 62
     7
 10
386.5000000000002
 20
-821.4909249999998
 30
0.0
 11
387.5000000000002
 21
-821.4909249999998
 31
0.0
  0
POLYLINE
  5
64D
  8
DATA
  6
CONTINUOUS
 62
     7
 66
     1
 10
0.0
 20
0.0
 30
0.0
 70
     1
  0
VERTEX
  5
7CE
  8
DATA
  6
CONTINUOUS
 62
     7
 10
305.5000000000002
 20
-857.3409249999997
 30
0.0
  0
VERTEX
  5
7CF
  8
DATA
  6
CONTINUOUS
 62
     7
 10
305.5000000000002
 20
-855.7409249999998
 30
0.0
  0
VERTEX
  5
7D0
  8
DATA
  6
CONTINUOUS
 62
     7
 10
394.5000000000002
 20
-855.7409249999998
 30
0.0
  0
VERTEX
  5
7D1
  8
DATA
  6
CONTINUOUS
 62
     7
 10
394.5000000000002
 20
-857.3409249999997
 30
0.0
  0
SEQEND
  5
7E7
  8
DATA
  6
CONTINUOUS
 62
     7
  0
LINE
  5
654
  8
DATA
  6
CONTINUOUS
 62
     7
 10
310.9000000000003
 20
-855.7409249999998
 30
0.0
 11
310.9000000000003
 21
-818.3409249999997
 31
0.0
  0
LINE
  5
655
  8
DATA
  6
CONTINUOUS
 62
     7
 10
389.1000000000001
 20
-818.3409249999997
 30
0.0
 11
389.1000000000001
 21
-855.7409249999998
 31
0.0
  0
LINE
  5
656
  8
DATA
  6
CONTINUOUS
 62
     7
 10
310.9000000000003
 20
-818.3409249999997
 30
0.0
 11
312.5000000000002
 21
-818.3409249999997
 31
0.0
  0
LINE
  5
657
  8
DATA
  6
CONTINUOUS
 62
     7
 10
387.5000000000002
 20
-818.3409249999997
 30
0.0
 11
389.1000000000001
 21
-818.3409249999997
 31
0.0
  0
LINE
  5
658
  8
DATA
  6
CONTINUOUS
 62
     7
 10
312.5000000000002
 20
-855.7409249999998
 30
0.0
 11
312.5000000000002
 21
-818.3409249999997
 31
0.0
  0
LINE
  5
659
  8
DATA
  6
CONTINUOUS
 62
     7
 10
387.5000000000002
 20
-818.3409249999997
 30
0.0
 11
387.5000000000002
 21
-855.7409249999998
 31
0.0
  0
LINE
  5
65A
  8
DATA
  6
CONTINUOUS
 62
     7
 10
337.1500000000003
 20
-847.1909249999997
 30
0.0
 11
337.1500000000003
 21
-855.7409249999998
 31
0.0
  0
LINE
  5
65B
  8
DATA
  6
CONTINUOUS
 62
     7
 10
362.8500000000001
 20
-847.1909249999997
 30
0.0
 11
362.8500000000001
 21
-855.7409249999998
 31
0.0
  0
ARC
  5
65C
  8
DATA
  6
CONTINUOUS
 62
     7
 10
350.0000000000002
 20
-847.1909249999997
 30
0.0
 40
12.84999999999991
 50
0.0
 51
180.0
  0
CIRCLE
  5
65D
  8
DATA
  6
CONTINUOUS
 62
     7
 10
350.0000000000002
 20
-843.3409249999997
 30
0.0
 40
3.900000000000091
  0
ARC
  5
65E
  8
DATA
  6
CONTINUOUS
 62
     7
 10
308.5000000000002
 20
-1030.340925
 30
0.0
 40
3.0
 50
180.0000000000043
 51
270.0
  0
LINE
  5
65F
  8
DATA
  6
CONTINUOUS
 62
     7
 10
391.5000000000002
 20
-1033.340925
 30
0.0
 11
308.5000000000002
 21
-1033.340925
 31
0.0
  0
ARC
  5
660
  8
DATA
  6
CONTINUOUS
 62
     7
 10
391.4999999999998
 20
-1030.340925
 30
0.0
 40
3.000000000000227
 50
270.0000000000086
 51
359.9999999999957
  0
LINE
  5
661
  8
DATA
  6
CONTINUOUS
 62
     7
 10
394.5000000000002
 20
-884.3409249999997
 30
0.0
 11
394.5000000000002
 21
-964.8409249999997
 31
0.0
  0
LINE
  5
662
  8
DATA
  6
CONTINUOUS
 62
     7
 10
394.5000000000002
 20
-996.8409249999997
 30
0.0
 11
394.5000000000002
 21
-1030.340925
 31
0.0
  0
ARC
  5
663
  8
DATA
  6
CONTINUOUS
 62
     7
 10
391.5000000000002
 20
-884.3409249999997
 30
0.0
 40
3.0
 50
0.0
 51
90.0
  0
LINE
  5
664
  8
DATA
  6
CONTINUOUS
 62
     7
 10
308.5000000000002
 20
-881.3409249999997
 30
0.0
 11
391.5000000000002
 21
-881.3409249999997
 31
0.0
  0
ARC
  5
665
  8
DATA
  6
CONTINUOUS
 62
     7
 10
308.5000000000002
 20
-884.340925
 30
0.0
 40
3.000000000000227
 50
90.0
 51
179.9999999999957
  0
LINE
  5
666
  8
DATA
  6
CONTINUOUS
 62
     7
 10
305.5000000000002
 20
-1030.340925
 30
0.0
 11
305.5000000000002
 21
-996.8409249999997
 31
0.0
  0
LINE
  5
667
  8
DATA
  6
CONTINUOUS
 62
     7
 10
305.5000000000002
 20
-964.8409249999997
 30
0.0
 11
305.5000000000002
 21
-884.3409249999997
 31
0.0
  0
CIRCLE
  5
668
  8
DATA
  6
CONTINUOUS
 62
     7
 10
315.0000000000002
 20
-1020.840925
 30
0.0
 40
5.0
  0
CIRCLE
  5
669
  8
DATA
  6
CONTINUOUS
 62
     7
 10
315.0000000000002
 20
-893.8409249999997
 30
0.0
 40
5.0
  0
CIRCLE
  5
66A
  8
DATA
  6
CONTINUOUS
 62
     7
 10
385.0000000000002
 20
-1020.840925
 30
0.0
 40
5.0
  0
CIRCLE
  5
66B
  8
DATA
  6
CONTINUOUS
 62
     7
 10
385.0000000000002
 20
-893.8409249999997
 30
0.0
 40
5.0
  0
CIRCLE
  5
66C
  8
DATA
  6
CONTINUOUS
 62
     7
 10
324.7500000000002
 20
-1011.340925
 30
0.0
 40
3.25
  0
CIRCLE
  5
66D
  8
DATA
  6
CONTINUOUS
 62
     7
 10
324.7500000000002
 20
-903.3409249999997
 30
0.0
 40
3.25
  0
CIRCLE
  5
66E
  8
DATA
  6
CONTINUOUS
 62
     7
 10
375.2500000000002
 20
-1011.340925
 30
0.0
 40
3.25
  0
CIRCLE
  5
66F
  8
DATA
  6
CONTINUOUS
 62
     7
 10
375.2500000000002
 20
-903.3409249999997
 30
0.0
 40
3.25
  0
LINE
  5
670
  8
DATA
  6
CONTINUOUS
 62
     7
 10
364.2500000000002
 20
-907.0909249999997
 30
0.0
 11
364.2500000000002
 21
-920.3409249999997
 31
0.0
  0
LINE
  5
671
  8
DATA
  6
CONTINUOUS
 62
     7
 10
364.2500000000002
 20
-994.3409249999997
 30
0.0
 11
364.2500000000002
 21
-1007.590925
 31
0.0
  0
LINE
  5
672
  8
DATA
  6
CONTINUOUS
 62
     7
 10
335.7500000000002
 20
-1007.590925
 30
0.0
 11
335.7500000000002
 21
-994.3409249999997
 31
0.0
  0
LINE
  5
673
  8
DATA
  6
CONTINUOUS
 62
     7
 10
335.7500000000002
 20
-920.3409249999997
 30
0.0
 11
335.7500000000002
 21
-907.0909249999997
 31
0.0
  0
ARC
  5
674
  8
DATA
  6
CONTINUOUS
 62
     7
 10
350.0000000000002
 20
-1007.590925
 30
0.0
 40
14.25
 50
180.0
 51
0.0
  0
LINE
  5
675
  8
DATA
  6
CONTINUOUS
 62
     7
 10
364.2500000000002
 20
-994.3409249999997
 30
0.0
 11
335.7500000000002
 21
-994.3409249999997
 31
0.0
  0
LINE
  5
676
  8
DATA
  6
CONTINUOUS
 62
     7
 10
335.7500000000002
 20
-920.3409249999997
 30
0.0
 11
364.2500000000002
 21
-920.3409249999997
 31
0.0
  0
LINE
  5
677
  8
DATA
  6
CONTINUOUS
 62
     7
 10
362.8500000000001
 20
-996.4409249999997
 30
0.0
 11
337.1500000000003
 21
-996.4409249999997
 31
0.0
  0
LINE
  5
678
  8
DATA
  6
CONTINUOUS
 62
     7
 10
362.8500000000001
 20
-918.2409249999998
 30
0.0
 11
362.8500000000001
 21
-920.3409249999997
 31
0.0
  0
LINE
  5
679
  8
DATA
  6
CONTINUOUS
 62
     7
 10
362.8500000000001
 20
-994.3409249999997
 30
0.0
 11
362.8500000000001
 21
-996.4409249999997
 31
0.0
  0
LINE
  5
67A
  8
DATA
  6
CONTINUOUS
 62
     7
 10
337.1500000000003
 20
-918.2409249999998
 30
0.0
 11
362.8500000000001
 21
-918.2409249999998
 31
0.0
  0
LINE
  5
67B
  8
DATA
  6
CONTINUOUS
 62
     7
 10
337.1500000000003
 20
-996.4409249999997
 30
0.0
 11
337.1500000000003
 21
-994.3409249999997
 31
0.0
  0
LINE
  5
67C
  8
DATA
  6
CONTINUOUS
 62
     7
 10
337.1500000000003
 20
-920.3409249999997
 30
0.0
 11
337.1500000000003
 21
-918.2409249999998
 31
0.0
  0
ARC
  5
67D
  8
DATA
  6
CONTINUOUS
 62
     7
 10
350.0000000000002
 20
-907.0909249999997
 30
0.0
 40
14.25
 50
0.0
 51
180.0
  0
CIRCLE
  5
67E
  8
DATA
  6
CONTINUOUS
 62
     7
 10
350.0000000000002
 20
-987.3409249999997
 30
0.0
 40
3.25
  0
CIRCLE
  5
67F
  8
DATA
  6
CONTINUOUS
 62
     7
 10
350.0000000000002
 20
-927.3409249999997
 30
0.0
 40
3.25
  0
ARC
  5
680
  8
DATA
  6
CONTINUOUS
 62
     7
 10
312.0500000000004
 20
-957.3409249999997
 30
0.0
 40
3.349999999999909
 50
90.00000000000779
 51
269.9999999999922
  0
ARC
  5
681
  8
DATA
  6
CONTINUOUS
 62
     7
 10
319.8
 20
-957.3409249999997
 30
0.0
 40
3.349999999999909
 50
270.0
 51
90.0
  0
LINE
  5
682
  8
DATA
  6
CONTINUOUS
 62
     7
 10
312.05
 20
-960.6909249999997
 30
0.0
 11
319.8
 21
-960.6909249999997
 31
0.0
  0
LINE
  5
683
  8
DATA
  6
CONTINUOUS
 62
     7
 10
319.8
 20
-953.9909249999998
 30
0.0
 11
312.05
 21
-953.9909249999998
 31
0.0
  0
ARC
  5
684
  8
DATA
  6
CONTINUOUS
 62
     7
 10
387.95
 20
-957.3409249999997
 30
0.0
 40
3.349999999999909
 50
270.0
 51
90.0
  0
ARC
  5
685
  8
DATA
  6
CONTINUOUS
 62
     7
 10
380.2
 20
-957.3409249999997
 30
0.0
 40
3.349999999999909
 50
90.0
 51
270.0
  0
LINE
  5
686
  8
DATA
  6
CONTINUOUS
 62
     7
 10
387.95
 20
-960.6909249999997
 30
0.0
 11
380.2
 21
-960.6909249999997
 31
0.0
  0
LINE
  5
687
  8
DATA
  6
CONTINUOUS
 62
     7
 10
380.2
 20
-953.9909249999998
 30
0.0
 11
387.95
 21
-953.9909249999998
 31
0.0
  0
LINE
  5
688
  8
DATA
  6
CONTINUOUS
 62
     7
 10
387.0000000000002
 20
-964.8409249999997
 30
0.0
 11
387.0000000000002
 21
-996.8409249999997
 31
0.0
  0
LINE
  5
689
  8
DATA
  6
CONTINUOUS
 62
     7
 10
313.0000000000002
 20
-996.8409249999997
 30
0.0
 11
313.0000000000002
 21
-964.8409249999997
 31
0.0
  0
LINE
  5
68A
  8
DATA
  6
CONTINUOUS
 62
     7
 10
305.5000000000002
 20
-964.8409249999997
 30
0.0
 11
313.0000000000002
 21
-964.8409249999997
 31
0.0
  0
LINE
  5
68B
  8
DATA
  6
CONTINUOUS
 62
     7
 10
313.0000000000002
 20
-996.8409249999997
 30
0.0
 11
305.5000000000002
 21
-996.8409249999997
 31
0.0
  0
LINE
  5
68C
  8
DATA
  6
CONTINUOUS
 62
     7
 10
394.5000000000002
 20
-996.8409249999997
 30
0.0
 11
387.0000000000002
 21
-996.8409249999997
 31
0.0
  0
LINE
  5
68D
  8
DATA
  6
CONTINUOUS
 62
     7
 10
387.0000000000002
 20
-964.8409249999997
 30
0.0
 11
394.5000000000002
 21
-964.8409249999997
 31
0.0
  0
LINE
  5
68E
  8
DATA
  6
CONTINUOUS
 62
     7
 10
389.1000000000001
 20
-967.9909249999996
 30
0.0
 11
389.1000000000001
 21
-993.6909249999997
 31
0.0
  0
LINE
  5
68F
  8
DATA
  6
CONTINUOUS
 62
     7
 10
310.8999999999999
 20
-967.9909249999996
 30
0.0
 11
313.0000000000002
 21
-967.9909249999996
 31
0.0
  0
LINE
  5
690
  8
DATA
  6
CONTINUOUS
 62
     7
 10
387.0000000000002
 20
-967.9909249999996
 30
0.0
 11
389.1000000000001
 21
-967.9909249999996
 31
0.0
  0
LINE
  5
691
  8
DATA
  6
CONTINUOUS
 62
     7
 10
310.8999999999999
 20
-993.6909249999997
 30
0.0
 11
310.8999999999999
 21
-967.9909249999996
 31
0.0
  0
LINE
  5
692
  8
DATA
  6
CONTINUOUS
 62
     7
 10
389.1000000000001
 20
-993.6909249999997
 30
0.0
 11
387.0000000000002
 21
-993.6909249999997
 31
0.0
  0
LINE
  5
693
  8
DATA
  6
CONTINUOUS
 62
     7
 10
313.0000000000002
 20
-993.6909249999997
 30
0.0
 11
310.8999999999999
 21
-993.6909249999997
 31
0.0
  0
LINE
  5
694
  8
DATA
  6
CONTINUOUS
 62
     7
 10
386.5000000000002
 20
-836.8409249999997
 30
0.0
 11
357.6157731058645
 21
-836.8409249999997
 31
0.0
  0
LINE
  5
695
  8
DATA
  6
CONTINUOUS
 62
     7
 10
386.5000000000002
 20
-820.8409249999997
 30
0.0
 11
386.5000000000002
 21
-836.8409249999997
 31
0.0
  0
LINE
  5
696
  8
DATA
  6
CONTINUOUS
 62
     7
 10
313.5000000000002
 20
-820.8409249999997
 30
0.0
 11
386.5000000000002
 21
-820.8409249999997
 31
0.0
  0
LINE
  5
697
  8
DATA
  6
CONTINUOUS
 62
     7
 10
313.5000000000002
 20
-836.8409249999997
 30
0.0
 11
313.5000000000002
 21
-820.8409249999997
 31
0.0
  0
LINE
  5
698
  8
DATA
  6
CONTINUOUS
 62
     7
 10
342.384226894136
 20
-836.8409249999997
 30
0.0
 11
313.5000000000002
 21
-836.8409249999997
 31
0.0
  0
LINE
  5
699
  8
DATA
  6
CONTINUOUS
 62
     7
 10
343.5000000000002
 20
-817.8409249999997
 30
0.0
 11
343.5000000000002
 21
-720.3409249999997
 31
0.0
  0
LINE
  5
69A
  8
DATA
  6
CONTINUOUS
 62
     7
 10
356.5000000000002
 20
-720.3409249999997
 30
0.0
 11
356.5000000000002
 21
-817.8409249999997
 31
0.0
  0
ARC
  5
69B
  8
DATA
  6
CONTINUOUS
 62
     7
 10
352.4750000000001
 20
-824.8659249999997
 30
0.0
 40
8.096372644586037
 50
29.81071326281665
 51
60.18928673718225
  0
ARC
  5
69C
  8
DATA
  6
CONTINUOUS
 62
     7
 10
347.5249999999999
 20
-824.8659249999997
 30
0.0
 40
8.096372644585768
 50
119.810713262815
 51
150.1892867371818
  0
LINE
  5
69D
  8
DATA
  6
CONTINUOUS
 62
     7
 10
343.5000000000002
 20
-817.8409249999997
 30
0.0
 11
356.5000000000002
 21
-817.8409249999997
 31
0.0
  0
ARC
  5
69E
  8
DATA
  6
CONTINUOUS
 62
     7
 10
350.0000000000002
 20
-720.3409249999997
 30
0.0
 40
6.5
 50
0.0
 51
180.0
  0
LINE
  5
69F
  8
DATA
  6
CONTINUOUS
 62
     7
 10
306.3999999999999
 20
-825.0909249999997
 30
0.0
 11
306.3999999999999
 21
-832.5909249999997
 31
0.0
  0
ARC
  5
6A0
  8
DATA
  6
CONTINUOUS
 62
     7
 10
316.1807565789479
 20
-834.4726684210531
 30
0.0
 40
13.55287087207389
 50
112.9321743266013
 51
136.1928749711639
  0
ARC
  5
6A1
  8
DATA
  6
CONTINUOUS
 62
     7
 10
316.1807565789479
 20
-823.2091815789465
 30
0.0
 40
13.55287087207397
 50
223.8071250288357
 51
247.0678256733989
  0
LINE
  5
6A2
  8
DATA
  6
CONTINUOUS
 62
     7
 10
312.5000000000002
 20
-836.1909249999999
 30
0.0
 11
313.5000000000002
 21
-836.1909249999999
 31
0.0
  0
LINE
  5
6A3
  8
DATA
  6
CONTINUOUS
 62
     7
 10
313.5000000000002
 20
-821.4909249999998
 30
0.0
 11
312.5000000000002
 21
-821.4909249999998
 31
0.0
  0
CIRCLE
  5
6A4
  8
DATA
  6
CONTINUOUS
 62
     7
 10
466.0
 20
-980.8409249999997
 30
0.0
 40
6.849999999999909
  0
CIRCLE
  5
6A5
  8
DATA
  6
CONTINUOUS
 62
     7
 10
466.0
 20
-980.8409249999997
 30
0.0
 40
3.75
  0
POLYLINE
  5
6A6
  8
DATA
  6
CONTINUOUS
 62
     7
 66
     1
 10
0.0
 20
0.0
 30
0.0
 70
     1
  0
VERTEX
  5
7D2
  8
DATA
  6
CONTINUOUS
 62
     7
 10
466.0
 20
-978.4559249999998
 30
0.0
  0
VERTEX
  5
7D3
  8
DATA
  6
CONTINUOUS
 62
     7
 10
463.9345294119739
 20
-979.6484249999996
 30
0.0
  0
VERTEX
  5
7D4
  8
DATA
  6
CONTINUOUS
 62
     7
 10
463.9345294119739
 20
-982.0334249999994
 30
0.0
  0
VERTEX
  5
7D5
  8
DATA
  6
CONTINUOUS
 62
     7
 10
466.0
 20
-983.2259249999997
 30
0.0
  0
VERTEX
  5
7D6
  8
DATA
  6
CONTINUOUS
 62
     7
 10
468.0654705880261
 20
-982.0334249999996
 30
0.0
  0
VERTEX
  5
7D7
  8
DATA
  6
CONTINUOUS
 62
     7
 10
468.0654705880261
 20
-979.6484249999992
 30
0.0
  0
SEQEND
  5
7E8
  8
DATA
  6
CONTINUOUS
 62
     7
  0
LINE
  5
6AF
  8
DATA
  6
CONTINUOUS
 62
     7
 10
393.6000000000001
 20
-977.0909249999997
 30
0.0
 11
393.6000000000001
 21
-984.5909249999997
 31
0.0
  0
ARC
  5
6B0
  8
DATA
  6
CONTINUOUS
 62
     7
 10
383.8192434210525
 20
-986.472668421053
 30
0.0
 40
13.55287087207364
 50
43.80712502883706
 51
67.06782567340029
  0
ARC
  5
6B1
  8
DATA
  6
CONTINUOUS
 62
     7
 10
383.8192434210525
 20
-975.2091815789465
 30
0.0
 40
13.55287087207382
 50
292.9321743265994
 51
316.192874971163
  0
LINE
  5
6B2
  8
DATA
  6
CONTINUOUS
 62
     7
 10
306.3999999999999
 20
-977.0909249999997
 30
0.0
 11
306.3999999999999
 21
-984.5909249999997
 31
0.0
  0
ARC
  5
6B3
  8
DATA
  6
CONTINUOUS
 62
     7
 10
316.1807565789479
 20
-986.472668421053
 30
0.0
 40
13.55287087207379
 50
112.9321743266015
 51
136.1928749711643
  0
ARC
  5
6B4
  8
DATA
  6
CONTINUOUS
 62
     7
 10
316.1807565789479
 20
-975.2091815789465
 30
0.0
 40
13.55287087207397
 50
223.8071250288357
 51
247.0678256733989
  0
TEXT
  5
6B5
  8
DATA
 62
     7
 10
162.4606662326391
 20
-1295.360514322917
 30
0.0
 40
40.72102864583334
  1
スピーカー側金具寸法(横取付)
 41
0.7
 72
     1
 11
400.0000000000002
 21
-1275.0
 31
0.0
 73
     2
  0
TEXT
  5
6B6
  8
DATA
 62
     7
 10
-687.5393337673609
 20
-1295.360514322917
 30
0.0
 40
40.72102864583334
  1
スピーカー側金具寸法(縦取付)
 41
0.7
 72
     1
 11
-449.9999999999998
 21
-1275.0
 31
0.0
 73
     2
  0
TEXT
  5
6B7
  8
DATA
 62
     7
 10
125.0
 20
-1519.05
 30
0.0
 40
40.72102864583334
  1
※1 センター振り分け
 41
0.7
 11
125.0
 21
-1478.328971354166
 31
0.0
 73
     3
  0
LINE
  5
6B8
  8
DATA
  6
CONTINUOUS
 62
     7
 10
487.5
 20
625.0
 30
0.0
 11
925.0
 21
625.0
 31
0.0
  0
LINE
  5
6B9
  8
DATA
  6
CONTINUOUS
 62
     7
 10
-190.4300000000001
 20
748.5416666666666
 30
0.0
 11
-100.0
 21
800.7514515094844
 31
0.0
  0
TEXT
  5
6BA
  8
DATA
 62
     7
 10
-152.1324229600694
 20
1051.145100911458
 30
0.0
 40
44.79313151041667
  1
壁
 41
0.7
 72
     1
 11
-137.5
 21
1073.541666666667
 31
0.0
 73
     2
  0
LINE
  5
6BB
  8
DATA
  6
CONTINUOUS
 62
     7
 10
-190.4300000000001
 20
778.5416666666666
 30
0.0
 11
-100.0
 21
830.7514515094845
 31
0.0
  0
LINE
  5
6BC
  8
DATA
  6
CONTINUOUS
 62
     7
 10
-190.4300000000001
 20
808.5416666666666
 30
0.0
 11
-100.0
 21
860.7514515094845
 31
0.0
  0
LINE
  5
6BD
  8
DATA
  6
CONTINUOUS
 62
     7
 10
-190.4300000000001
 20
838.5416666666667
 30
0.0
 11
-100.0
 21
890.7514515094845
 31
0.0
  0
LINE
  5
6BE
  8
DATA
  6
CONTINUOUS
 62
     7
 10
-190.4300000000001
 20
868.5416666666667
 30
0.0
 11
-100.0
 21
920.7514515094845
 31
0.0
  0
LINE
  5
6BF
  8
DATA
  6
CONTINUOUS
 62
     7
 10
-190.4300000000001
 20
898.5416666666667
 30
0.0
 11
-100.0
 21
950.7514515094845
 31
0.0
  0
LINE
  5
6C0
  8
DATA
  6
CONTINUOUS
 62
     7
 10
-190.4300000000001
 20
928.5416666666667
 30
0.0
 11
-100.0
 21
980.7514515094845
 31
0.0
  0
LINE
  5
6C1
  8
DATA
  6
CONTINUOUS
 62
     7
 10
-190.4300000000001
 20
958.5416666666667
 30
0.0
 11
-100.0
 21
1010.751451509484
 31
0.0
  0
LINE
  5
6C2
  8
DATA
  6
CONTINUOUS
 62
     7
 10
-190.4300000000001
 20
1138.541666666667
 30
0.0
 11
-100.0
 21
1190.751451509484
 31
0.0
  0
LINE
  5
6C3
  8
DATA
  6
CONTINUOUS
 62
     7
 10
-190.4300000000001
 20
1168.541666666667
 30
0.0
 11
-100.0
 21
1220.751451509484
 31
0.0
  0
LINE
  5
6C4
  8
DATA
  6
CONTINUOUS
 62
     7
 10
-190.4300000000001
 20
1198.541666666667
 30
0.0
 11
-100.0
 21
1250.751451509484
 31
0.0
  0
LINE
  5
6C5
  8
DATA
  6
CONTINUOUS
 62
     7
 10
-190.4300000000001
 20
1228.541666666667
 30
0.0
 11
-100.0
 21
1280.751451509484
 31
0.0
  0
LINE
  5
6C6
  8
DATA
  6
CONTINUOUS
 62
     7
 10
-190.4300000000001
 20
1258.541666666667
 30
0.0
 11
-100.0
 21
1310.751451509484
 31
0.0
  0
LINE
  5
6C7
  8
DATA
  6
CONTINUOUS
 62
     7
 10
-190.4300000000001
 20
1288.541666666667
 30
0.0
 11
-100.0
 21
1340.751451509484
 31
0.0
  0
LINE
  5
6C8
  8
DATA
  6
CONTINUOUS
 62
     7
 10
-190.4300000000001
 20
1318.541666666667
 30
0.0
 11
-100.0
 21
1370.751451509484
 31
0.0
  0
LINE
  5
6C9
  8
DATA
  6
CONTINUOUS
 62
     7
 10
-190.4300000000001
 20
1348.541666666667
 30
0.0
 11
-103.8274596215558
 21
1398.541666666667
 31
0.0
  0
LINE
  5
6CA
  8
DATA
  6
CONTINUOUS
 62
     7
 10
-190.4300000000001
 20
1378.541666666667
 30
0.0
 11
-155.7889838486224
 21
1398.541666666667
 31
0.0
  0
LINE
  5
6CB
  8
DATA
  6
CONTINUOUS
 62
     7
 10
-190.4300000000001
 20
988.5416666666667
 30
0.0
 11
-100.0
 21
1040.751451509484
 31
0.0
  0
LINE
  5
6CC
  8
DATA
  6
CONTINUOUS
 62
     7
 10
-190.4300000000001
 20
1018.541666666667
 30
0.0
 11
-151.4588568297004
 21
1041.041666666667
 31
0.0
  0
LINE
  5
6CD
  8
DATA
  6
CONTINUOUS
 62
     7
 10
-190.4300000000001
 20
1048.541666666667
 30
0.0
 11
-170.0
 21
1060.336932666211
 31
0.0
  0
LINE
  5
6CE
  8
DATA
  6
CONTINUOUS
 62
     7
 10
-190.4300000000001
 20
1078.541666666667
 30
0.0
 11
-170.0
 21
1090.336932666211
 31
0.0
  0
LINE
  5
6CF
  8
DATA
  6
CONTINUOUS
 62
     7
 10
-142.7986027918557
 20
1106.041666666667
 30
0.0
 11
-100.0
 21
1130.751451509484
 31
0.0
  0
LINE
  5
6D0
  8
DATA
  6
CONTINUOUS
 62
     7
 10
-190.4300000000001
 20
1108.541666666667
 30
0.0
 11
-100.0
 21
1160.751451509484
 31
0.0
  0
LINE
  5
6D1
  8
DATA
  6
CONTINUOUS
 62
     7
 10
1174.07
 20
798.5416666666666
 30
0.0
 11
1264.5
 21
850.7514515094844
 31
0.0
  0
TEXT
  5
6D2
  8
DATA
 62
     7
 10
1212.367577039931
 20
1101.145100911458
 30
0.0
 40
44.79313151041667
  1
壁
 41
0.7
 72
     1
 11
1227.0
 21
1123.541666666667
 31
0.0
 73
     2
  0
LINE
  5
6D3
  8
DATA
  6
CONTINUOUS
 62
     7
 10
1174.07
 20
828.5416666666666
 30
0.0
 11
1264.5
 21
880.7514515094844
 31
0.0
  0
LINE
  5
6D4
  8
DATA
  6
CONTINUOUS
 62
     7
 10
1174.07
 20
858.5416666666666
 30
0.0
 11
1264.5
 21
910.7514515094844
 31
0.0
  0
LINE
  5
6D5
  8
DATA
  6
CONTINUOUS
 62
     7
 10
1174.07
 20
888.5416666666666
 30
0.0
 11
1264.5
 21
940.7514515094844
 31
0.0
  0
LINE
  5
6D6
  8
DATA
  6
CONTINUOUS
 62
     7
 10
1174.07
 20
918.5416666666666
 30
0.0
 11
1264.5
 21
970.7514515094844
 31
0.0
  0
LINE
  5
6D7
  8
DATA
  6
CONTINUOUS
 62
     7
 10
1174.07
 20
948.5416666666666
 30
0.0
 11
1264.5
 21
1000.751451509484
 31
0.0
  0
LINE
  5
6D8
  8
DATA
  6
CONTINUOUS
 62
     7
 10
1174.07
 20
978.5416666666666
 30
0.0
 11
1264.5
 21
1030.751451509484
 31
0.0
  0
LINE
  5
6D9
  8
DATA
  6
CONTINUOUS
 62
     7
 10
1174.07
 20
1008.541666666667
 30
0.0
 11
1264.5
 21
1060.751451509484
 31
0.0
  0
LINE
  5
6DA
  8
DATA
  6
CONTINUOUS
 62
     7
 10
1174.07
 20
1188.541666666667
 30
0.0
 11
1264.5
 21
1240.751451509484
 31
0.0
  0
LINE
  5
6DB
  8
DATA
  6
CONTINUOUS
 62
     7
 10
1174.07
 20
1218.541666666667
 30
0.0
 11
1264.5
 21
1270.751451509484
 31
0.0
  0
LINE
  5
6DC
  8
DATA
  6
CONTINUOUS
 62
     7
 10
1174.07
 20
1248.541666666667
 30
0.0
 11
1264.5
 21
1300.751451509484
 31
0.0
  0
LINE
  5
6DD
  8
DATA
  6
CONTINUOUS
 62
     7
 10
1174.07
 20
1278.541666666667
 30
0.0
 11
1264.5
 21
1330.751451509484
 31
0.0
  0
LINE
  5
6DE
  8
DATA
  6
CONTINUOUS
 62
     7
 10
1174.07
 20
1308.541666666667
 30
0.0
 11
1264.5
 21
1360.751451509484
 31
0.0
  0
LINE
  5
6DF
  8
DATA
  6
CONTINUOUS
 62
     7
 10
1174.07
 20
1338.541666666667
 30
0.0
 11
1264.5
 21
1390.751451509484
 31
0.0
  0
LINE
  5
6E0
  8
DATA
  6
CONTINUOUS
 62
     7
 10
1174.07
 20
1368.541666666667
 30
0.0
 11
1264.5
 21
1420.751451509484
 31
0.0
  0
LINE
  5
6E1
  8
DATA
  6
CONTINUOUS
 62
     7
 10
1174.07
 20
1398.541666666667
 30
0.0
 11
1260.672540378444
 21
1448.541666666667
 31
0.0
  0
LINE
  5
6E2
  8
DATA
  6
CONTINUOUS
 62
     7
 10
1174.07
 20
1428.541666666667
 30
0.0
 11
1208.711016151378
 21
1448.541666666667
 31
0.0
  0
LINE
  5
6E3
  8
DATA
  6
CONTINUOUS
 62
     7
 10
1174.07
 20
1038.541666666667
 30
0.0
 11
1264.5
 21
1090.751451509484
 31
0.0
  0
LINE
  5
6E4
  8
DATA
  6
CONTINUOUS
 62
     7
 10
1174.07
 20
1068.541666666667
 30
0.0
 11
1213.0411431703
 21
1091.041666666667
 31
0.0
  0
LINE
  5
6E5
  8
DATA
  6
CONTINUOUS
 62
     7
 10
1174.07
 20
1098.541666666667
 30
0.0
 11
1194.5
 21
1110.336932666211
 31
0.0
  0
LINE
  5
6E6
  8
DATA
  6
CONTINUOUS
 62
     7
 10
1174.07
 20
1128.541666666667
 30
0.0
 11
1194.5
 21
1140.336932666211
 31
0.0
  0
LINE
  5
6E7
  8
DATA
  6
CONTINUOUS
 62
     7
 10
1221.701397208144
 20
1156.041666666667
 30
0.0
 11
1264.5
 21
1180.751451509484
 31
0.0
  0
LINE
  5
6E8
  8
DATA
  6
CONTINUOUS
 62
     7
 10
1174.07
 20
1158.541666666667
 30
0.0
 11
1264.5
 21
1210.751451509484
 31
0.0
  0
LINE
  5
6E9
  8
DATA
  6
CONTINUOUS
 62
     7
 10
-1350.0
 20
250.0
 30
0.0
 11
1350.0
 21
250.0
 31
0.0
  0
TEXT
  5
6EA
  8
DATA
 62
     7
 10
-764.6324229600694
 20
1777.603434244792
 30
0.0
 40
44.79313151041667
  1
壁
 41
0.7
 72
     1
 11
-750.0
 21
1800.0
 31
0.0
 73
     2
  0
LINE
  5
6EB
  8
DATA
  6
CONTINUOUS
 62
     7
 10
-400.0
 20
1734.07
 30
0.0
 11
-452.2097848428175
 21
1824.5
 31
0.0
  0
LINE
  5
6EC
  8
DATA
  6
CONTINUOUS
 62
     7
 10
-430.0
 20
1734.07
 30
0.0
 11
-482.2097848428175
 21
1824.5
 31
0.0
  0
LINE
  5
6ED
  8
DATA
  6
CONTINUOUS
 62
     7
 10
-460.0
 20
1734.07
 30
0.0
 11
-512.2097848428175
 21
1824.5
 31
0.0
  0
LINE
  5
6EE
  8
DATA
  6
CONTINUOUS
 62
     7
 10
-490.0
 20
1734.07
 30
0.0
 11
-542.2097848428175
 21
1824.5
 31
0.0
  0
LINE
  5
6EF
  8
DATA
  6
CONTINUOUS
 62
     7
 10
-520.0
 20
1734.07
 30
0.0
 11
-572.2097848428175
 21
1824.5
 31
0.0
  0
LINE
  5
6F0
  8
DATA
  6
CONTINUOUS
 62
     7
 10
-550.0
 20
1734.07
 30
0.0
 11
-602.2097848428175
 21
1824.5
 31
0.0
  0
LINE
  5
6F1
  8
DATA
  6
CONTINUOUS
 62
     7
 10
-580.0
 20
1734.07
 30
0.0
 11
-632.2097848428175
 21
1824.5
 31
0.0
  0
LINE
  5
6F2
  8
DATA
  6
CONTINUOUS
 62
     7
 10
-610.0
 20
1734.07
 30
0.0
 11
-662.2097848428175
 21
1824.5
 31
0.0
  0
LINE
  5
6F3
  8
DATA
  6
CONTINUOUS
 62
     7
 10
-640.0
 20
1734.07
 30
0.0
 11
-692.2097848428175
 21
1824.5
 31
0.0
  0
LINE
  5
6F4
  8
DATA
  6
CONTINUOUS
 62
     7
 10
-670.0
 20
1734.07
 30
0.0
 11
-717.5
 21
1816.342413359522
 31
0.0
  0
LINE
  5
6F5
  8
DATA
  6
CONTINUOUS
 62
     7
 10
-700.0
 20
1734.07
 30
0.0
 11
-719.300819499009
 21
1767.5
 31
0.0
  0
LINE
  5
6F6
  8
DATA
  6
CONTINUOUS
 62
     7
 10
-730.0
 20
1734.07
 30
0.0
 11
-749.300819499009
 21
1767.5
 31
0.0
  0
LINE
  5
6F7
  8
DATA
  6
CONTINUOUS
 62
     7
 10
-760.0
 20
1734.07
 30
0.0
 11
-812.2097848428175
 21
1824.5
 31
0.0
  0
LINE
  5
6F8
  8
DATA
  6
CONTINUOUS
 62
     7
 10
-790.0
 20
1734.07
 30
0.0
 11
-842.2097848428175
 21
1824.5
 31
0.0
  0
LINE
  5
6F9
  8
DATA
  6
CONTINUOUS
 62
     7
 10
-820.0
 20
1734.07
 30
0.0
 11
-872.2097848428175
 21
1824.5
 31
0.0
  0
LINE
  5
6FA
  8
DATA
  6
CONTINUOUS
 62
     7
 10
-850.0
 20
1734.07
 30
0.0
 11
-902.2097848428175
 21
1824.5
 31
0.0
  0
LINE
  5
6FB
  8
DATA
  6
CONTINUOUS
 62
     7
 10
-880.0
 20
1734.07
 30
0.0
 11
-932.2097848428175
 21
1824.5
 31
0.0
  0
LINE
  5
6FC
  8
DATA
  6
CONTINUOUS
 62
     7
 10
-910.0
 20
1734.07
 30
0.0
 11
-962.2097848428175
 21
1824.5
 31
0.0
  0
LINE
  5
6FD
  8
DATA
  6
CONTINUOUS
 62
     7
 10
-940.0
 20
1734.07
 30
0.0
 11
-992.2097848428175
 21
1824.5
 31
0.0
  0
LINE
  5
6FE
  8
DATA
  6
CONTINUOUS
 62
     7
 10
-970.0
 20
1734.07
 30
0.0
 11
-1022.209784842817
 21
1824.5
 31
0.0
  0
LINE
  5
6FF
  8
DATA
  6
CONTINUOUS
 62
     7
 10
-1000.0
 20
1734.07
 30
0.0
 11
-1052.209784842817
 21
1824.5
 31
0.0
  0
LINE
  5
700
  8
DATA
  6
CONTINUOUS
 62
     7
 10
-1030.0
 20
1734.07
 30
0.0
 11
-1082.209784842817
 21
1824.5
 31
0.0
  0
LINE
  5
701
  8
DATA
  6
CONTINUOUS
 62
     7
 10
-1060.0
 20
1734.07
 30
0.0
 11
-1100.0
 21
1803.352032302756
 31
0.0
  0
TEXT
  5
702
  8
DATA
 62
     7
 10
485.8675770399306
 20
1792.103434244791
 30
0.0
 40
44.79313151041667
  1
壁
 41
0.7
 72
     1
 11
500.5
 21
1814.5
 31
0.0
 73
     2
  0
LINE
  5
703
  8
DATA
  6
CONTINUOUS
 62
     7
 10
850.5
 20
1748.57
 30
0.0
 11
798.2902151571825
 21
1839.0
 31
0.0
  0
LINE
  5
704
  8
DATA
  6
CONTINUOUS
 62
     7
 10
820.5
 20
1748.57
 30
0.0
 11
768.2902151571825
 21
1839.0
 31
0.0
  0
LINE
  5
705
  8
DATA
  6
CONTINUOUS
 62
     7
 10
790.5
 20
1748.57
 30
0.0
 11
738.2902151571825
 21
1839.0
 31
0.0
  0
LINE
  5
706
  8
DATA
  6
CONTINUOUS
 62
     7
 10
760.5
 20
1748.57
 30
0.0
 11
708.2902151571825
 21
1839.0
 31
0.0
  0
LINE
  5
707
  8
DATA
  6
CONTINUOUS
 62
     7
 10
730.5
 20
1748.57
 30
0.0
 11
678.2902151571825
 21
1839.0
 31
0.0
  0
LINE
  5
708
  8
DATA
  6
CONTINUOUS
 62
     7
 10
700.5
 20
1748.57
 30
0.0
 11
648.2902151571825
 21
1839.0
 31
0.0
  0
LINE
  5
709
  8
DATA
  6
CONTINUOUS
 62
     7
 10
670.5
 20
1748.57
 30
0.0
 11
618.2902151571825
 21
1839.0
 31
0.0
  0
LINE
  5
70A
  8
DATA
  6
CONTINUOUS
 62
     7
 10
640.5
 20
1748.57
 30
0.0
 11
588.2902151571825
 21
1839.0
 31
0.0
  0
LINE
  5
70B
  8
DATA
  6
CONTINUOUS
 62
     7
 10
610.5
 20
1748.57
 30
0.0
 11
558.2902151571825
 21
1839.0
 31
0.0
  0
LINE
  5
70C
  8
DATA
  6
CONTINUOUS
 62
     7
 10
580.5
 20
1748.57
 30
0.0
 11
533.0
 21
1830.842413359522
 31
0.0
  0
LINE
  5
70D
  8
DATA
  6
CONTINUOUS
 62
     7
 10
550.5
 20
1748.57
 30
0.0
 11
531.199180500991
 21
1782.0
 31
0.0
  0
LINE
  5
70E
  8
DATA
  6
CONTINUOUS
 62
     7
 10
520.5
 20
1748.57
 30
0.0
 11
501.199180500991
 21
1782.0
 31
0.0
  0
LINE
  5
70F
  8
DATA
  6
CONTINUOUS
 62
     7
 10
490.5
 20
1748.57
 30
0.0
 11
438.2902151571825
 21
1839.0
 31
0.0
  0
LINE
  5
710
  8
DATA
  6
CONTINUOUS
 62
     7
 10
460.5
 20
1748.57
 30
0.0
 11
408.2902151571825
 21
1839.0
 31
0.0
  0
LINE
  5
711
  8
DATA
  6
CONTINUOUS
 62
     7
 10
430.5
 20
1748.57
 30
0.0
 11
378.2902151571825
 21
1839.0
 31
0.0
  0
LINE
  5
712
  8
DATA
  6
CONTINUOUS
 62
     7
 10
400.5
 20
1748.57
 30
0.0
 11
348.2902151571825
 21
1839.0
 31
0.0
  0
LINE
  5
713
  8
DATA
  6
CONTINUOUS
 62
     7
 10
370.5
 20
1748.57
 30
0.0
 11
318.2902151571825
 21
1839.0
 31
0.0
  0
LINE
  5
714
  8
DATA
  6
CONTINUOUS
 62
     7
 10
340.5
 20
1748.57
 30
0.0
 11
288.2902151571825
 21
1839.0
 31
0.0
  0
LINE
  5
715
  8
DATA
  6
CONTINUOUS
 62
     7
 10
310.5
 20
1748.57
 30
0.0
 11
258.2902151571825
 21
1839.0
 31
0.0
  0
LINE
  5
716
  8
DATA
  6
CONTINUOUS
 62
     7
 10
280.5
 20
1748.57
 30
0.0
 11
228.2902151571825
 21
1839.0
 31
0.0
  0
LINE
  5
717
  8
DATA
  6
CONTINUOUS
 62
     7
 10
250.5
 20
1748.57
 30
0.0
 11
198.2902151571825
 21
1839.0
 31
0.0
  0
LINE
  5
718
  8
DATA
  6
CONTINUOUS
 62
     7
 10
220.5
 20
1748.57
 30
0.0
 11
168.2902151571825
 21
1839.0
 31
0.0
  0
LINE
  5
719
  8
DATA
  6
CONTINUOUS
 62
     7
 10
190.5
 20
1748.57
 30
0.0
 11
150.5
 21
1817.852032302755
 31
0.0
  0
LINE
  5
71A
  8
DATA
  6
CONTINUOUS
 62
     7
 10
-825.0
 20
-1325.0
 30
0.0
 11
-75.0
 21
-1325.0
 31
0.0
  0
LINE
  5
71B
  8
DATA
  6
CONTINUOUS
 62
     7
 10
25.00000000000023
 20
-1325.0
 30
0.0
 11
775.0000000000002
 21
-1325.0
 31
0.0
  0
TEXT
  5
71C
  8
DATA
 62
     7
 10
749.9999999999998
 20
-1733.591239999999
 30
0.0
 40
36.64892578125
  1
MM-016-BT-J
 41
0.7
 11
749.9999999999998
 21
-1696.942314218749
 31
0.0
 73
     3
  0
ENDSEC
  0
EOF
