  0
SECTION
  2
HEADER
  9
$ACADVER
  1
AC1009
  9
$INSBASE
 10
0.0
 20
0.0
 30
0.0
  9
$EXTMIN
 10
-800.05492744973753
 20
-1204.432801395556
 30
-0.0015258207003583
  9
$EXTMAX
 10
1000.05493583164
 20
1471.867842570083
 30
0.0000000349246037
  9
$LIMMIN
 10
0.0
 20
0.0
  9
$LIMMAX
 10
0.0
 20
0.0
  9
$ORTHOMODE
 70
     0
  9
$REGENMODE
 70
     1
  9
$FILLMODE
 70
     1
  9
$QTEXTMODE
 70
     0
  9
$MIRRTEXT
 70
     1
  9
$DRAGMODE
 70
     2
  9
$LTSCALE
 40
50.799999999999997
  9
$OSMODE
 70
   231
  9
$ATTMODE
 70
     1
  9
$TEXTSIZE
 40
0.0
  9
$TRACEWID
 40
1.0
  9
$TEXTSTYLE
  7
STANDARD
  9
$CLAYER
  8
DATA
  9
$CELTYPE
  6
BYLAYER
  9
$CECOLOR
 62
   256
  9
$DIMSCALE
 40
1.0
  9
$DIMASZ
 40
0.18
  9
$DIMEXO
 40
0.0625
  9
$DIMDLI
 40
0.38
  9
$DIMRND
 40
0.0
  9
$DIMDLE
 40
0.0
  9
$DIMEXE
 40
0.18
  9
$DIMTP
 40
0.0
  9
$DIMTM
 40
0.0
  9
$DIMTXT
 40
0.18
  9
$DIMCEN
 40
0.09
  9
$DIMTSZ
 40
0.0
  9
$DIMTOL
 70
     0
  9
$DIMLIM
 70
     0
  9
$DIMTIH
 70
     1
  9
$DIMTOH
 70
     1
  9
$DIMSE1
 70
     0
  9
$DIMSE2
 70
     0
  9
$DIMTAD
 70
     0
  9
$DIMZIN
 70
     0
  9
$DIMBLK
  1

  9
$DIMASO
 70
     1
  9
$DIMSHO
 70
     1
  9
$DIMPOST
  1

  9
$DIMAPOST
  1

  9
$DIMALT
 70
     0
  9
$DIMALTD
 70
     2
  9
$DIMALTF
 40
25.399999999999999
  9
$DIMLFAC
 40
1.0
  9
$DIMTOFL
 70
     0
  9
$DIMTVP
 40
0.0
  9
$DIMTIX
 70
     0
  9
$DIMSOXD
 70
     0
  9
$DIMSAH
 70
     0
  9
$DIMBLK1
  1

  9
$DIMBLK2
  1

  9
$DIMSTYLE
  2
STANDARD
  9
$DIMCLRD
 70
     0
  9
$DIMCLRE
 70
     0
  9
$DIMCLRT
 70
     0
  9
$DIMTFAC
 40
1.0
  9
$DIMGAP
 40
0.09
  9
$LUNITS
 70
     2
  9
$LUPREC
 70
     4
  9
$SKETCHINC
 40
0.1
  9
$FILLETRAD
 40
0.0
  9
$AUNITS
 70
     0
  9
$AUPREC
 70
     0
  9
$MENU
  1
acad
  9
$ELEVATION
 40
0.0
  9
$PELEVATION
 40
0.0
  9
$THICKNESS
 40
0.0
  9
$LIMCHECK
 70
     0
  9
$BLIPMODE
 70
     0
  9
$CHAMFERA
 40
0.0
  9
$CHAMFERB
 40
0.0
  9
$SKPOLY
 70
     0
  9
$TDCREATE
 40
2456304.4749768521
  9
$TDUPDATE
 40
2456304.4754793979
  9
$TDINDWG
 40
0.0003222685
  9
$TDUSRTIMER
 40
0.0003220833
  9
$USRTIMER
 70
     1
  9
$ANGBASE
 50
0.0
  9
$ANGDIR
 70
     0
  9
$PDMODE
 70
     1
  9
$PDSIZE
 40
-2.0
  9
$PLINEWID
 40
0.0
  9
$COORDS
 70
     2
  9
$SPLFRAME
 70
     0
  9
$SPLINETYPE
 70
     6
  9
$SPLINESEGS
 70
     8
  9
$ATTDIA
 70
     0
  9
$ATTREQ
 70
     1
  9
$HANDLING
 70
     1
  9
$HANDSEED
  5
327
  9
$SURFTAB1
 70
     6
  9
$SURFTAB2
 70
     6
  9
$SURFTYPE
 70
     6
  9
$SURFU
 70
     6
  9
$SURFV
 70
     6
  9
$UCSNAME
  2

  9
$UCSORG
 10
0.0
 20
0.0
 30
0.0
  9
$UCSXDIR
 10
1.0
 20
0.0
 30
0.0
  9
$UCSYDIR
 10
0.0
 20
1.0
 30
0.0
  9
$PUCSNAME
  2

  9
$PUCSORG
 10
0.0
 20
0.0
 30
0.0
  9
$PUCSXDIR
 10
1.0
 20
0.0
 30
0.0
  9
$PUCSYDIR
 10
0.0
 20
1.0
 30
0.0
  9
$USERI1
 70
     0
  9
$USERI2
 70
     0
  9
$USERI3
 70
     0
  9
$USERI4
 70
     0
  9
$USERI5
 70
     0
  9
$USERR1
 40
0.0
  9
$USERR2
 40
0.0
  9
$USERR3
 40
0.0
  9
$USERR4
 40
0.0
  9
$USERR5
 40
0.0
  9
$WORLDVIEW
 70
     1
  9
$SHADEDGE
 70
     3
  9
$SHADEDIF
 70
    70
  9
$TILEMODE
 70
     1
  9
$MAXACTVP
 70
    64
  9
$PLIMCHECK
 70
     0
  9
$PEXTMIN
 10
1.0000000000000000E+020
 20
1.0000000000000000E+020
 30
1.0000000000000000E+020
  9
$PEXTMAX
 10
-1.0000000000000000E+020
 20
-1.0000000000000000E+020
 30
-1.0000000000000000E+020
  9
$PLIMMIN
 10
0.0
 20
0.0
  9
$PLIMMAX
 10
12.0
 20
9.0
  9
$UNITMODE
 70
     0
  9
$VISRETAIN
 70
     0
  9
$PLINEGEN
 70
     1
  9
$PSLTSCALE
 70
     0
  0
ENDSEC
  0
SECTION
  2
TABLES
  0
TABLE
  2
VPORT
 70
     1
  0
VPORT
  2
*ACTIVE
 70
     0
 10
0.0
 20
0.0
 11
1.0
 21
1.0
 12
100.0000041909511
 22
133.7175205872631
 13
0.0
 23
0.0
 14
1.0
 24
1.0
 15
0.0
 25
0.0
 16
0.0
 26
0.0
 36
1.0
 17
0.0
 27
0.0
 37
0.0
 40
2697.682539922755
 41
2.2333333333333329
 42
50.0
 43
0.0
 44
0.0
 50
0.0
 51
0.0
 71
     0
 72
  2000
 73
     1
 74
     1
 75
     0
 76
     0
 77
     0
 78
     0
  0
ENDTAB
  0
TABLE
  2
LTYPE
 70
    12
  0
LTYPE
  2
CONTINUOUS
 70
     0
  3
Solid line
 72
    65
 73
     0
 40
0.0
  0
LTYPE
  2
PHANTOM2
 70
     0
  3
___ _ _ ___ _ _ ___ _ _ ___ _ _
 72
    65
 73
     6
 40
1.25
 49
0.625
 49
-0.125
 49
0.125
 49
-0.125
 49
0.125
 49
-0.125
  0
ENDTAB
  0
TABLE
  2
LAYER
 70
     5
  0
LAYER
  2
0
 70
     0
 62
     7
  6
CONTINUOUS
  0
LAYER
  2
DATA
 70
     0
 62
     7
  6
CONTINUOUS
  0
LAYER
  2
HIBINO-BASE
 70
     0
 62
     7
  6
CONTINUOUS
  0
LAYER
  2
SPEC
 70
     0
 62
     7
  6
CONTINUOUS
  0
LAYER
  2
DIMNSIONS
 70
     0
 62
     7
  6
CONTINUOUS
  0
ENDTAB
  0
TABLE
  2
STYLE
 70
     3
  0
STYLE
  2
STANDARD
 70
     0
 40
0.0
 41
1.0
 50
0.0
 71
     0
 42
0.0
  3
txt
  4
BIGFONT.SHX
  0
ENDTAB
  0
TABLE
  2
VIEW
 70
     0
  0
ENDTAB
  0
TABLE
  2
UCS
 70
     0
  0
ENDTAB
  0
TABLE
  2
APPID
 70
     4
  0
APPID
  2
ACAD
 70
     0
  0
APPID
  2
ACADANNOTATIVE
 70
     0
  0
APPID
  2
ACAD_NAV_VCDISPLAY
 70
     0
  0
APPID
  2
ACAD_MLEADERVER
 70
     0
  0
ENDTAB
  0
TABLE
  2
DIMSTYLE
 70
     2
  0
DIMSTYLE
  2
STANDARD
 70
     0
  3

  4

  5

  6

  7

 40
1.0
 41
0.18
 42
0.0625
 43
0.38
 44
0.18
 45
0.0
 46
0.0
 47
0.0
 48
0.0
140
0.18
141
0.09
142
0.0
143
25.399999999999999
144
1.0
145
0.0
146
1.0
147
0.09
 71
     0
 72
     0
 73
     1
 74
     1
 75
     0
 76
     0
 77
     0
 78
     0
170
     0
171
     2
172
     0
173
     0
174
     0
175
     0
176
     0
177
     0
178
     0
  0
ENDTAB
  0
ENDSEC
  0
SECTION
  2
BLOCKS
  0
BLOCK
  8
0
  2
$MODEL_SPACE
 70
     0
 10
0.0
 20
0.0
 30
0.0
  3
$MODEL_SPACE
  1

  0
ENDBLK
  5
296
  8
0
  0
BLOCK
 67
     1
  8
0
  2
$PAPER_SPACE
 70
     0
 10
0.0
 20
0.0
 30
0.0
  3
$PAPER_SPACE
  1

  0
ENDBLK
  5
292
 67
     1
  8
0
  0
ENDSEC
  0
SECTION
  2
ENTITIES
  0
LINE
  5
2C
  8
HIBINO-BASE
  6
CONTINUOUS
 62
     7
 10
-800.0
 20
1471.786335
 30
0.0
 11
1000.0
 21
1471.786335
 31
0.0
  0
LINE
  5
2D
  8
HIBINO-BASE
  6
CONTINUOUS
 62
     7
 10
1000.0
 20
-1128.213665
 30
0.0
 11
-800.0
 21
-1128.213665
 31
0.0
  0
LINE
  5
2E
  8
HIBINO-BASE
  6
CONTINUOUS
 62
     7
 10
-800.0
 20
-1128.213665
 30
0.0
 11
-800.0
 21
1471.786335
 31
0.0
  0
TEXT
  5
2F
  8
HIBINO-BASE
 62
     7
 10
-728.15999999999985
 20
-1192.3004430000001
 30
0.0
 40
36.000441796874988
  1
Hibino Corporation
 41
0.7
 11
-728.15999999999985
 21
-1156.300001203125
 31
0.0
 73
     3
  0
LINE
  5
30
  8
HIBINO-BASE
  6
CONTINUOUS
 62
     7
 10
1000.0
 20
1471.786335
 30
0.0
 11
1000.0
 21
-1128.213665
 31
0.0
  0
LINE
  5
31
  8
HIBINO-BASE
  6
CONTINUOUS
 62
     7
 10
100.0
 20
-903.21366500000011
 30
0.0
 11
1000.0
 21
-903.21366500000011
 31
0.0
  0
LINE
  5
32
  8
HIBINO-BASE
  6
CONTINUOUS
 62
     7
 10
100.0
 20
-1128.213665
 30
0.0
 11
100.0
 21
-903.21366500000011
 31
0.0
  0
TEXT
  5
33
  8
HIBINO-BASE
 62
     7
 10
109.0
 20
-928.30059833333337
 30
0.0
 40
16.288411458333329
  1
NOTE
 41
0.7
 11
109.0
 21
-912.012186875
 31
0.0
 73
     3
  0
LINE
  5
34
  8
HIBINO-BASE
  6
CONTINUOUS
 62
     7
 10
450.0
 20
-1128.213665
 30
0.0
 11
450.0
 21
-903.21366500000011
 31
0.0
  0
TEXT
  5
35
  8
HIBINO-BASE
 62
     7
 10
459.0
 20
-928.30059833333337
 30
0.0
 40
16.288411458333329
  1
TITLE
 41
0.7
 11
459.0
 21
-912.012186875
 31
0.0
 73
     3
  0
TEXT
  5
36
  8
HIBINO-BASE
 62
     7
 10
600.68389999999988
 20
-1192.3004430000001
 30
0.0
 40
36.000441796874988
  1
ヒビノ株式会社
 41
0.7
 11
600.68389999999988
 21
-1156.300001203125
 31
0.0
 73
     3
  0
LINE
  5
37
  8
HIBINO-BASE
  6
CONTINUOUS
 62
     7
 10
100.0
 20
-1028.213665
 30
0.0
 11
1000.0
 21
-1028.213665
 31
0.0
  0
TEXT
  5
38
  8
HIBINO-BASE
 62
     7
 10
584.0
 20
-1052.737398333333
 30
0.0
 40
16.288411458333329
  1
DRAWN
 41
0.7
 11
584.0
 21
-1036.4489868749999
 31
0.0
 73
     3
  0
TEXT
  5
39
  8
HIBINO-BASE
 62
     7
 10
334.0
 20
-1052.737398333333
 30
0.0
 40
16.288411458333329
  1
DATE
 41
0.7
 11
334.0
 21
-1036.4489868749999
 31
0.0
 73
     3
  0
TEXT
  5
3A
  8
HIBINO-BASE
 62
     7
 10
234.0
 20
-1052.737398333333
 30
0.0
 40
16.288411458333329
  1
SCALE
 41
0.7
 11
234.0
 21
-1036.4489868749999
 31
0.0
 73
     3
  0
TEXT
  5
3B
  8
HIBINO-BASE
 62
     7
 10
459.0
 20
-1052.737398333333
 30
0.0
 40
16.288411458333329
  1
DESIGN
 41
0.7
 11
459.0
 21
-1036.4489868749999
 31
0.0
 73
     3
  0
TEXT
  5
3C
  8
HIBINO-BASE
 62
     7
 10
834.0
 20
-1052.737398333333
 30
0.0
 40
16.288411458333329
  1
DRAWING NO.
 41
0.7
 11
834.0
 21
-1036.4489868749999
 31
0.0
 73
     3
  0
TEXT
  5
3D
  8
HIBINO-BASE
 62
     7
 10
708.99999999999977
 20
-1052.737398333333
 30
0.0
 40
16.288411458333329
  1
CHECK
 41
0.7
 11
708.99999999999977
 21
-1036.4489868749999
 31
0.0
 73
     3
  0
LINE
  5
3E
  8
HIBINO-BASE
  6
CONTINUOUS
 62
     7
 10
243.75
 20
-1115.713665
 30
0.0
 11
281.25
 21
-1078.213665
 31
0.0
  0
TEXT
  5
3F
  8
HIBINO-BASE
 62
     7
 10
237.5
 20
-1089.3030983333331
 30
0.0
 40
16.288411458333329
  1
1
 41
0.7
 11
237.5
 21
-1073.0146868749989
 31
0.0
 73
     3
  0
LINE
  5
40
  8
HIBINO-BASE
  6
CONTINUOUS
 62
     7
 10
225.0
 20
-1128.213665
 30
0.0
 11
225.0
 21
-1028.213665
 31
0.0
  0
LINE
  5
41
  8
HIBINO-BASE
  6
CONTINUOUS
 62
     7
 10
325.0
 20
-1128.213665
 30
0.0
 11
325.0
 21
-1028.213665
 31
0.0
  0
LINE
  5
42
  8
HIBINO-BASE
  6
CONTINUOUS
 62
     7
 10
574.99999999999989
 20
-1028.213665
 30
0.0
 11
574.99999999999989
 21
-1128.213665
 31
0.0
  0
LINE
  5
43
  8
HIBINO-BASE
  6
CONTINUOUS
 62
     7
 10
825.0
 20
-1028.213665
 30
0.0
 11
825.0
 21
-1128.213665
 31
0.0
  0
LINE
  5
44
  8
HIBINO-BASE
  6
CONTINUOUS
 62
     7
 10
699.99999999999989
 20
-1128.213665
 30
0.0
 11
699.99999999999989
 21
-1028.213665
 31
0.0
  0
TEXT
  5
45
  8
HIBINO-BASE
 62
     7
 10
333.5653999999999
 20
-1099.5771983333329
 30
0.0
 40
16.288411458333329
  1
'06.09.
 41
0.7
 11
333.5653999999999
 21
-1083.2887868749999
 31
0.0
 73
     3
  0
TEXT
  5
46
  8
HIBINO-BASE
 62
     7
 10
275.0
 20
-1108.0530983333331
 30
0.0
 40
16.288411458333329
  1
10
 41
0.7
 11
275.0
 21
-1091.7646868749989
 31
0.0
 73
     3
  0
TEXT
  5
47
  8
HIBINO-BASE
 62
     7
 10
590.05810011034623
 20
-1099.5771983333329
 30
0.0
 40
16.288411458333329
  1
N.Sasaki
 41
0.7
 11
590.05810011034623
 21
-1083.2887868749999
 31
0.0
 73
     3
  0
TEXT
  5
48
  8
HIBINO-BASE
 62
     7
 10
138.83333333333351
 20
-1108.453665
 30
0.0
 40
32.576822916666671
  1
A4
 41
0.7
 11
138.83333333333351
 21
-1075.876842083333
 31
0.0
 73
     3
  0
TEXT
  5
49
  8
HIBINO-BASE
 62
     7
 10
109.5833333333333
 20
-1054.4082149999999
 30
0.0
 40
16.288411458333329
  1
PAPER SIZE
 41
0.7
 11
109.5833333333333
 21
-1038.119803541666
 31
0.0
 73
     3
  0
TEXT
  5
4A
  8
HIBINO-BASE
 62
     7
 10
724.79494800132295
 20
-1099.5771983333329
 30
0.0
 40
16.288411458333329
  1
T.Taki
 41
0.7
 11
724.79494800132295
 21
-1083.2887868749999
 31
0.0
 73
     3
  0
LINE
  5
4B
  8
SPEC
  6
CONTINUOUS
 62
     7
 10
-725.0
 20
1371.786335
 30
0.0
 11
750.0
 21
1371.786335
 31
0.0
  0
LINE
  5
4C
  8
SPEC
  6
CONTINUOUS
 62
     7
 10
-725.0
 20
1334.286335
 30
0.0
 11
750.0
 21
1334.286335
 31
0.0
  0
LINE
  5
4D
  8
SPEC
  6
CONTINUOUS
 62
     7
 10
-725.0
 20
1259.286335
 30
0.0
 11
750.0
 21
1259.286335
 31
0.0
  0
LINE
  5
4E
  8
SPEC
  6
CONTINUOUS
 62
     7
 10
-725.0
 20
1296.786335
 30
0.0
 11
750.0
 21
1296.786335
 31
0.0
  0
TEXT
  5
4F
  8
SPEC
 62
     7
 10
-712.49999999999989
 20
1385.7190350000001
 30
0.0
 40
24.4326171875
  1
仕様
 41
0.7
 11
-712.49999999999989
 21
1410.1516521875001
 31
0.0
 73
     3
  0
TEXT
  5
50
  8
SPEC
 62
     7
 10
-716.0
 20
1342.1655510000001
 30
0.0
 40
19.0031125
  1
仕上げ
 41
0.7
 11
-716.0
 21
1361.1686635000001
 31
0.0
 73
     3
  0
TEXT
  5
51
  8
SPEC
 62
     7
 10
-391.0
 20
1342.1655510000001
 30
0.0
 40
19.0031125
  1
黒
 41
0.7
 11
-391.0
 21
1361.1686635000001
 31
0.0
 73
     3
  0
LINE
  5
52
  8
SPEC
  6
CONTINUOUS
 62
     7
 10
-725.0
 20
1371.786335
 30
0.0
 11
-725.0
 21
1259.286335
 31
0.0
  0
LINE
  5
53
  8
SPEC
  6
CONTINUOUS
 62
     7
 10
-400.0
 20
1371.786335
 30
0.0
 11
-400.0
 21
1259.286335
 31
0.0
  0
LINE
  5
54
  8
SPEC
  6
CONTINUOUS
 62
     7
 10
750.0
 20
1259.286335
 30
0.0
 11
750.0
 21
1371.786335
 31
0.0
  0
TEXT
  5
55
  8
SPEC
 62
     7
 10
-716.0
 20
1304.6655510000001
 30
0.0
 40
19.0031125
  1
寸法
 41
0.7
 11
-716.0
 21
1323.6686635000001
 31
0.0
 73
     3
  0
TEXT
  5
56
  8
SPEC
 62
     7
 10
-716.0
 20
1267.1655510000001
 30
0.0
 40
19.0031125
  1
重量
 41
0.7
 11
-716.0
 21
1286.1686635000001
 31
0.0
 73
     3
  0
TEXT
  5
57
  8
SPEC
 62
     7
 10
-391.0
 20
1304.6655510000001
 30
0.0
 40
19.0031125
  1
\U+03C6383\U+00D7268(D)mm(突起部含まず)
 41
0.7
 11
-391.0
 21
1323.6686635000001
 31
0.0
 73
     3
  0
TEXT
  5
58
  8
SPEC
 62
     7
 10
-391.0
 20
1267.1655510000001
 30
0.0
 40
19.0031125
  1
約5kg
 41
0.7
 11
-391.0
 21
1286.1686635000001
 31
0.0
 73
     3
  0
TEXT
  5
59
  8
DIMNSIONS
 62
     7
 10
-100.0
 20
-1005.518765
 30
0.0
 40
24.4326171875
  1
(単位：mm)
 41
0.7
 11
-100.0
 21
-981.08614781250003
 31
0.0
 73
     3
  0
LINE
  5
5A
  8
DIMNSIONS
  6
CONTINUOUS
 62
     7
 10
274.0
 20
-107.5393218813454
 30
0.0
 11
274.0
 21
169.99999999999969
 31
0.0
  0
LINE
  5
5B
  8
DIMNSIONS
  6
CONTINUOUS
 62
     7
 10
271.0
 20
-0.5
 30
0.0
 11
271.0
 21
169.99999999999969
 31
0.0
  0
LINE
  5
5C
  8
DIMNSIONS
  6
CONTINUOUS
 62
     7
 10
271.0
 20
149.99999999999969
 30
0.0
 11
274.0
 21
149.99999999999969
 31
0.0
  0
LINE
  5
5D
  8
DIMNSIONS
  6
CONTINUOUS
 62
     7
 10
274.0
 20
149.99999999999969
 30
0.0
 11
320.63888888888891
 21
149.99999999999969
 31
0.0
  0
LINE
  5
5E
  8
DIMNSIONS
  6
CONTINUOUS
 62
     7
 10
274.0
 20
149.99999999999969
 30
0.0
 11
299.0062255859375
 21
156.7003979515022
 31
0.0
  0
LINE
  5
5F
  8
DIMNSIONS
  6
CONTINUOUS
 62
     7
 10
274.0
 20
149.99999999999969
 30
0.0
 11
299.0062255859375
 21
143.29960204849741
 31
0.0
  0
LINE
  5
60
  8
DIMNSIONS
  6
CONTINUOUS
 62
     7
 10
271.0
 20
149.99999999999969
 30
0.0
 11
221.0
 21
149.99999999999969
 31
0.0
  0
LINE
  5
61
  8
DIMNSIONS
  6
CONTINUOUS
 62
     7
 10
271.0
 20
149.99999999999969
 30
0.0
 11
245.9937744140625
 21
143.29960204849729
 31
0.0
  0
LINE
  5
62
  8
DIMNSIONS
  6
CONTINUOUS
 62
     7
 10
271.0
 20
149.99999999999969
 30
0.0
 11
245.9937744140625
 21
156.7003979515022
 31
0.0
  0
TEXT
  5
63
  8
DIMNSIONS
 62
     7
 10
303.0
 20
159.93888888888861
 30
0.0
 40
27.147352430555561
  1
3
 41
0.7
 11
303.0
 21
187.08624131944421
 31
0.0
 73
     3
  0
LINE
  5
64
  8
DIMNSIONS
  6
CONTINUOUS
 62
     7
 10
271.0
 20
-0.5
 30
0.0
 11
271.0
 21
169.99999999999969
 31
0.0
  0
LINE
  5
65
  8
DIMNSIONS
  6
CONTINUOUS
 62
     7
 10
3.0
 20
-28.500000000000341
 30
0.0
 11
3.0
 21
169.99999999999969
 31
0.0
  0
LINE
  5
66
  8
DIMNSIONS
  6
CONTINUOUS
 62
     7
 10
271.0
 20
149.99999999999969
 30
0.0
 11
3.0
 21
149.99999999999969
 31
0.0
  0
LINE
  5
67
  8
DIMNSIONS
  6
CONTINUOUS
 62
     7
 10
271.0
 20
149.99999999999969
 30
0.0
 11
245.9937744140625
 21
143.29960204849729
 31
0.0
  0
LINE
  5
68
  8
DIMNSIONS
  6
CONTINUOUS
 62
     7
 10
271.0
 20
149.99999999999969
 30
0.0
 11
245.9937744140625
 21
156.7003979515022
 31
0.0
  0
LINE
  5
69
  8
DIMNSIONS
  6
CONTINUOUS
 62
     7
 10
3.0
 20
149.99999999999969
 30
0.0
 11
28.0062255859375
 21
156.7003979515022
 31
0.0
  0
LINE
  5
6A
  8
DIMNSIONS
  6
CONTINUOUS
 62
     7
 10
3.0
 20
149.99999999999969
 30
0.0
 11
28.0062255859375
 21
143.29960204849741
 31
0.0
  0
TEXT
  5
6B
  8
DIMNSIONS
 62
     7
 10
123.5416666666666
 20
159.93888888888861
 30
0.0
 40
27.147352430555561
  1
268
 41
0.7
 11
123.5416666666666
 21
187.08624131944421
 31
0.0
 73
     3
  0
LINE
  5
6C
  8
DIMNSIONS
  6
CONTINUOUS
 62
     7
 10
271.0
 20
-0.5
 30
0.0
 11
271.0
 21
119.9999999999997
 31
0.0
  0
LINE
  5
6D
  8
DIMNSIONS
  6
CONTINUOUS
 62
     7
 10
12.0
 20
8.4999999999998863
 30
0.0
 11
12.0
 21
119.9999999999997
 31
0.0
  0
LINE
  5
6E
  8
DIMNSIONS
  6
CONTINUOUS
 62
     7
 10
271.0
 20
99.999999999999787
 30
0.0
 11
12.0
 21
99.999999999999787
 31
0.0
  0
LINE
  5
6F
  8
DIMNSIONS
  6
CONTINUOUS
 62
     7
 10
271.0
 20
99.999999999999787
 30
0.0
 11
245.9937744140625
 21
93.299602048497306
 31
0.0
  0
LINE
  5
70
  8
DIMNSIONS
  6
CONTINUOUS
 62
     7
 10
271.0
 20
99.999999999999787
 30
0.0
 11
245.9937744140625
 21
106.7003979515022
 31
0.0
  0
LINE
  5
71
  8
DIMNSIONS
  6
CONTINUOUS
 62
     7
 10
12.0
 20
99.999999999999787
 30
0.0
 11
37.0062255859375
 21
106.7003979515022
 31
0.0
  0
LINE
  5
72
  8
DIMNSIONS
  6
CONTINUOUS
 62
     7
 10
12.0
 20
99.999999999999787
 30
0.0
 11
37.0062255859375
 21
93.299602048497349
 31
0.0
  0
TEXT
  5
73
  8
DIMNSIONS
 62
     7
 10
115.0416666666666
 20
109.9388888888886
 30
0.0
 40
27.147352430555561
  1
259
 41
0.7
 11
115.0416666666666
 21
137.08624131944421
 31
0.0
 73
     3
  0
LINE
  5
74
  8
DIMNSIONS
  6
CONTINUOUS
 62
     7
 10
-20.0
 20
-47.500000000000227
 30
0.0
 11
-70.000000000000014
 21
-47.500000000000227
 31
0.0
  0
LINE
  5
75
  8
DIMNSIONS
  6
CONTINUOUS
 62
     7
 10
-20.0
 20
-352.50000000000023
 30
0.0
 11
-70.000000000000014
 21
-352.50000000000023
 31
0.0
  0
LINE
  5
76
  8
DIMNSIONS
  6
CONTINUOUS
 62
     7
 10
-50.000000000000021
 20
-47.500000000000227
 30
0.0
 11
-50.000000000000021
 21
-352.50000000000023
 31
0.0
  0
LINE
  5
77
  8
DIMNSIONS
  6
CONTINUOUS
 62
     7
 10
-50.000000000000021
 20
-47.500000000000227
 30
0.0
 11
-43.29960204849759
 21
-72.506225585937742
 31
0.0
  0
LINE
  5
78
  8
DIMNSIONS
  6
CONTINUOUS
 62
     7
 10
-50.000000000000021
 20
-47.500000000000227
 30
0.0
 11
-56.700397951502438
 21
-72.506225585937742
 31
0.0
  0
LINE
  5
79
  8
DIMNSIONS
  6
CONTINUOUS
 62
     7
 10
-50.000000000000021
 20
-352.50000000000023
 30
0.0
 11
-56.700397951502438
 21
-327.49377441406278
 31
0.0
  0
LINE
  5
7A
  8
DIMNSIONS
  6
CONTINUOUS
 62
     7
 10
-50.000000000000021
 20
-352.50000000000023
 30
0.0
 11
-43.29960204849759
 21
-327.49377441406278
 31
0.0
  0
TEXT
  5
7B
  8
DIMNSIONS
 62
     7
 10
-59.938888888888883
 20
-244.09722222222251
 30
0.0
 40
27.147352430555561
  1
\U+03C6305
 50
90.0
 41
0.7
 11
-87.086241319444454
 21
-244.09722222222251
 31
0.0
 73
     3
  0
LINE
  5
7C
  8
DIMNSIONS
  6
CONTINUOUS
 62
     7
 10
-5.0
 20
-8.5000000000001137
 30
0.0
 11
-120.0
 21
-8.5000000000001137
 31
0.0
  0
LINE
  5
7D
  8
DIMNSIONS
  6
CONTINUOUS
 62
     7
 10
-5.0
 20
-391.5
 30
0.0
 11
-120.0
 21
-391.5
 31
0.0
  0
LINE
  5
7E
  8
DIMNSIONS
  6
CONTINUOUS
 62
     7
 10
-100.0
 20
-8.5000000000001137
 30
0.0
 11
-100.0
 21
-391.5
 31
0.0
  0
LINE
  5
7F
  8
DIMNSIONS
  6
CONTINUOUS
 62
     7
 10
-100.0
 20
-8.5000000000001137
 30
0.0
 11
-93.299602048497604
 21
-33.506225585937607
 31
0.0
  0
LINE
  5
80
  8
DIMNSIONS
  6
CONTINUOUS
 62
     7
 10
-100.0
 20
-8.5000000000001137
 30
0.0
 11
-106.7003979515024
 21
-33.506225585937607
 31
0.0
  0
LINE
  5
81
  8
DIMNSIONS
  6
CONTINUOUS
 62
     7
 10
-100.0
 20
-391.5
 30
0.0
 11
-106.7003979515024
 21
-366.49377441406227
 31
0.0
  0
LINE
  5
82
  8
DIMNSIONS
  6
CONTINUOUS
 62
     7
 10
-100.0
 20
-391.5
 30
0.0
 11
-93.299602048497604
 21
-366.49377441406227
 31
0.0
  0
TEXT
  5
83
  8
DIMNSIONS
 62
     7
 10
-109.9388888888888
 20
-244.09722222222231
 30
0.0
 40
27.147352430555561
  1
\U+03C6383
 50
90.0
 41
0.7
 11
-137.08624131944441
 21
-244.09722222222231
 31
0.0
 73
     3
  0
LINE
  5
84
  8
DIMNSIONS
  6
CONTINUOUS
 62
     7
 10
-480.0
 20
-57.000000000000099
 30
0.0
 11
-230.0
 21
-57.000000000000099
 31
0.0
  0
LINE
  5
85
  8
DIMNSIONS
  6
CONTINUOUS
 62
     7
 10
-479.99999999999989
 20
-343.0
 30
0.0
 11
-230.0
 21
-343.0
 31
0.0
  0
LINE
  5
86
  8
DIMNSIONS
  6
CONTINUOUS
 62
     7
 10
-250.0
 20
-57.000000000000099
 30
0.0
 11
-250.0
 21
-343.0
 31
0.0
  0
LINE
  5
87
  8
DIMNSIONS
  6
CONTINUOUS
 62
     7
 10
-250.0
 20
-57.000000000000099
 30
0.0
 11
-243.2996020484976
 21
-82.006225585937614
 31
0.0
  0
LINE
  5
88
  8
DIMNSIONS
  6
CONTINUOUS
 62
     7
 10
-250.0
 20
-57.000000000000099
 30
0.0
 11
-256.7003979515024
 21
-82.006225585937614
 31
0.0
  0
LINE
  5
89
  8
DIMNSIONS
  6
CONTINUOUS
 62
     7
 10
-250.0
 20
-343.0
 30
0.0
 11
-256.7003979515024
 21
-317.9937744140625
 31
0.0
  0
LINE
  5
8A
  8
DIMNSIONS
  6
CONTINUOUS
 62
     7
 10
-250.0
 20
-343.0
 30
0.0
 11
-243.2996020484976
 21
-317.9937744140625
 31
0.0
  0
TEXT
  5
8B
  8
DIMNSIONS
 62
     7
 10
-259.93888888888881
 20
-226.4583333333334
 30
0.0
 40
27.147352430555561
  1
286
 50
90.0
 41
0.7
 11
-287.08624131944441
 21
-226.4583333333334
 31
0.0
 73
     3
  0
LINE
  5
8C
  8
DIMNSIONS
  6
CONTINUOUS
 62
     7
 10
-458.45781732772713
 20
-13.060177974771699
 30
0.0
 11
-400.0
 21
250.0
 31
0.0
  0
LINE
  5
8D
  8
DIMNSIONS
  6
CONTINUOUS
 62
     7
 10
-458.45781732772713
 20
-13.060177974771699
 30
0.0
 11
-459.36130770310211
 21
12.81240125314636
 31
0.0
  0
LINE
  5
8E
  8
DIMNSIONS
  6
CONTINUOUS
 62
     7
 10
-458.45781732772713
 20
-13.060177974771699
 30
0.0
 11
-446.30397333091759
 21
9.7978780857184802
 31
0.0
  0
LINE
  5
8F
  8
DIMNSIONS
  6
CONTINUOUS
 62
     7
 10
-400.0
 20
250.0
 30
0.0
 11
-291.8055555555556
 21
250.0
 31
0.0
  0
TEXT
  5
90
  8
DIMNSIONS
 62
     7
 10
-380.0
 20
259.93888888888881
 30
0.0
 40
27.147352430555561
  1
\U+03C6383
 41
0.7
 11
-380.0
 21
287.08624131944441
 31
0.0
 73
     3
  0
LINE
  5
91
  8
DIMNSIONS
  6
CONTINUOUS
 62
     7
 10
-439.92730696667689
 20
-59.830382922246372
 30
0.0
 11
-350.0
 21
150.0
 31
0.0
  0
LINE
  5
92
  8
DIMNSIONS
  6
CONTINUOUS
 62
     7
 10
-439.92730696667689
 20
-59.830382922246372
 30
0.0
 11
-435.87747682884941
 21
-34.26076175536091
 31
0.0
  0
LINE
  5
93
  8
DIMNSIONS
  6
CONTINUOUS
 62
     7
 10
-439.92730696667689
 20
-59.830382922246372
 30
0.0
 11
-423.63524060286369
 21
-39.711356495493042
 31
0.0
  0
LINE
  5
94
  8
DIMNSIONS
  6
CONTINUOUS
 62
     7
 10
-350.0
 20
150.0
 30
0.0
 11
-241.80555555555549
 21
150.0
 31
0.0
  0
TEXT
  5
95
  8
DIMNSIONS
 62
     7
 10
-329.99999999999989
 20
159.93888888888881
 30
0.0
 40
27.147352430555561
  1
\U+03C6305
 41
0.7
 11
-329.99999999999989
 21
187.08624131944441
 31
0.0
 73
     3
  0
LINE
  5
96
  8
DIMNSIONS
  6
CONTINUOUS
 62
     7
 10
-414.72912600882091
 20
-93.411407511026226
 30
0.0
 11
-300.0
 21
50.000000000000021
 31
0.0
  0
LINE
  5
97
  8
DIMNSIONS
  6
CONTINUOUS
 62
     7
 10
-414.72912600882091
 20
-93.411407511026226
 30
0.0
 11
-404.19938555256311
 21
-69.761223226603903
 31
0.0
  0
LINE
  5
98
  8
DIMNSIONS
  6
CONTINUOUS
 62
     7
 10
-414.72912600882091
 20
-93.411407511026226
 30
0.0
 11
-393.78501113623372
 21
-78.194617344661978
 31
0.0
  0
LINE
  5
99
  8
DIMNSIONS
  6
CONTINUOUS
 62
     7
 10
-300.0
 20
50.000000000000021
 30
0.0
 11
-191.8055555555556
 21
50.000000000000021
 31
0.0
  0
TEXT
  5
9A
  8
DIMNSIONS
 62
     7
 10
-280.0
 20
59.938888888888933
 30
0.0
 40
27.147352430555561
  1
\U+03C6273
 41
0.7
 11
-280.0
 21
87.086241319444483
 31
0.0
 73
     3
  0
LINE
  5
9B
  8
DIMNSIONS
  6
CONTINUOUS
 62
     7
 10
153.4061118741391
 20
-61.604482643790789
 30
0.0
 11
350.0
 21
100.0
 31
0.0
  0
LINE
  5
9C
  8
DIMNSIONS
  6
CONTINUOUS
 62
     7
 10
153.4061118741391
 20
-61.604482643790789
 30
0.0
 11
168.62290204050339
 21
-40.660367771203482
 31
0.0
  0
LINE
  5
9D
  8
DIMNSIONS
  6
CONTINUOUS
 62
     7
 10
153.4061118741391
 20
-61.604482643790789
 30
0.0
 11
177.05629615856151
 21
-51.07474218753282
 31
0.0
  0
LINE
  5
9E
  8
DIMNSIONS
  6
CONTINUOUS
 62
     7
 10
350.0
 20
100.0
 30
0.0
 11
687.5
 21
100.0
 31
0.0
  0
TEXT
  5
9F
  8
DIMNSIONS
 62
     7
 10
370.0
 20
109.9388888888888
 30
0.0
 40
27.147352430555561
  1
4-\U+03C620(ケーブル用)
 41
0.7
 11
370.0
 21
137.08624131944441
 31
0.0
 73
     3
  0
LINE
  5
A0
  8
DIMNSIONS
  6
CONTINUOUS
 62
     7
 10
601.72618936670608
 20
-210.35713620023759
 30
0.0
 11
650.0
 21
-500.0
 31
0.0
  0
LINE
  5
A1
  8
DIMNSIONS
  6
CONTINUOUS
 62
     7
 10
601.72618936670608
 20
-210.35713620023759
 30
0.0
 11
612.66707872093923
 21
-233.81994913691949
 31
0.0
  0
LINE
  5
A2
  8
DIMNSIONS
  6
CONTINUOUS
 62
     7
 10
601.72618936670608
 20
-210.35713620023759
 30
0.0
 11
599.46987101912578
 21
-236.14697292476279
 31
0.0
  0
LINE
  5
A3
  8
DIMNSIONS
  6
CONTINUOUS
 62
     7
 10
650.0
 20
-500.0
 30
0.0
 11
952.22222222222217
 21
-500.0
 31
0.0
  0
TEXT
  5
A4
  8
DIMNSIONS
 62
     7
 10
670.0
 20
-490.06111111111102
 30
0.0
 40
27.147352430555561
  1
\U+03C621(ケーブル用)
 41
0.7
 11
670.0
 21
-462.91375868055542
 31
0.0
 73
     3
  0
TEXT
  5
A5
  8
DATA
 62
     7
 10
564.74745431448162
 20
-939.01596564466956
 30
0.0
 40
24.4326171875
  1
JBL
 41
0.7
 11
564.74745431448162
 21
-914.58334845716956
 31
0.0
 73
     3
  0
TEXT
  5
A6
  8
DATA
 62
     7
 10
-699.99999999999989
 20
-1085.8336650000001
 30
0.0
 40
16.288411458333329
  1
仕様および外観は予告なく変更されることがありますので、ご了承ください。
 41
0.7
 11
-699.99999999999989
 21
-1069.5452535416659
 31
0.0
 73
     3
  0
TEXT
  5
A7
  8
DATA
 62
     7
 10
564.74745431448162
 20
-1016.90476505113
 30
0.0
 40
24.4326171875
  1
MTC-300BB8
 41
0.7
 11
564.74745431448162
 21
-992.47214786363065
 31
0.0
 73
     3
  0
CIRCLE
  5
A8
  8
DATA
  6
CONTINUOUS
 62
     7
 10
-500.0
 20
-200.0
 30
0.0
 40
191.5
  0
CIRCLE
  5
A9
  8
DATA
  6
CONTINUOUS
 62
     7
 10
-500.0
 20
-200.0
 30
0.0
 40
152.5
  0
CIRCLE
  5
AA
  8
DATA
  6
CONTINUOUS
 62
     7
 10
-500.0
 20
-200.0
 30
0.0
 40
136.5
  0
CIRCLE
  5
AB
  8
DATA
  6
CONTINUOUS
 62
     7
 10
-500.0
 20
-57.000000000000099
 30
0.0
 40
4.5
  0
LINE
  5
AC
  8
DATA
  6
CONTINUOUS
 62
     7
 10
-495.50055706049511
 20
-56.570804195804158
 30
0.0
 11
-498.49999999999989
 21
-56.570804195804378
 31
0.0
  0
LINE
  5
AD
  8
DATA
  6
CONTINUOUS
 62
     7
 10
-501.49999999999972
 20
-56.570804195804158
 30
0.0
 11
-504.49944293950449
 21
-56.570804195804158
 31
0.0
  0
LINE
  5
AE
  8
DATA
  6
CONTINUOUS
 62
     7
 10
-495.50055706049511
 20
-57.570804195804151
 30
0.0
 11
-498.5
 21
-57.570804195804271
 31
0.0
  0
LINE
  5
AF
  8
DATA
  6
CONTINUOUS
 62
     7
 10
-501.49999999999972
 20
-57.570804195804151
 30
0.0
 11
-504.49944293950449
 21
-57.570804195804151
 31
0.0
  0
LINE
  5
B0
  8
DATA
  6
CONTINUOUS
 62
     7
 10
-500.49999999999989
 20
-54.5
 30
0.0
 11
-500.49999999999989
 21
-55.570804195804271
 31
0.0
  0
LINE
  5
B1
  8
DATA
  6
CONTINUOUS
 62
     7
 10
-500.49999999999977
 20
-58.570804195804158
 30
0.0
 11
-500.49999999999989
 21
-59.5
 31
0.0
  0
LINE
  5
B2
  8
DATA
  6
CONTINUOUS
 62
     7
 10
-499.5
 20
-54.5
 30
0.0
 11
-499.5
 21
-55.570804195804271
 31
0.0
  0
LINE
  5
B3
  8
DATA
  6
CONTINUOUS
 62
     7
 10
-499.49999999999972
 20
-58.570804195804328
 30
0.0
 11
-499.5
 21
-59.499999999999929
 31
0.0
  0
LINE
  5
B4
  8
DATA
  6
CONTINUOUS
 62
     7
 10
-499.5
 20
-54.5
 30
0.0
 11
-500.49999999999989
 21
-54.5
 31
0.0
  0
LINE
  5
B5
  8
DATA
  6
CONTINUOUS
 62
     7
 10
-499.5
 20
-59.499999999999929
 30
0.0
 11
-500.49999999999989
 21
-59.5
 31
0.0
  0
ARC
  5
B6
  8
DATA
  6
CONTINUOUS
 62
     7
 10
-501.49999999999989
 20
-55.570804195804271
 30
0.0
 40
0.9999999999998864
 50
270.00000000000648
 51
0.0
  0
ARC
  5
B7
  8
DATA
  6
CONTINUOUS
 62
     7
 10
-501.49999999999989
 20
-58.570804195804158
 30
0.0
 40
1.000000000000113
 50
0.0
 51
89.999999999993463
  0
ARC
  5
B8
  8
DATA
  6
CONTINUOUS
 62
     7
 10
-498.49999999999989
 20
-58.570804195804271
 30
0.0
 40
1.0
 50
90.000000000006537
 51
180.00000000000321
  0
ARC
  5
B9
  8
DATA
  6
CONTINUOUS
 62
     7
 10
-498.5
 20
-55.570804195804207
 30
0.0
 40
1.0
 50
180.0000000000033
 51
270.00000000000648
  0
CIRCLE
  5
BA
  8
DATA
  6
CONTINUOUS
 62
     7
 10
-356.99999999999977
 20
-200.0
 30
0.0
 40
4.4999999999998863
  0
LINE
  5
BB
  8
DATA
  6
CONTINUOUS
 62
     7
 10
-356.57080419580421
 20
-204.4994429395046
 30
0.0
 11
-356.57080419580421
 21
-201.5
 31
0.0
  0
LINE
  5
BC
  8
DATA
  6
CONTINUOUS
 62
     7
 10
-356.57080419580399
 20
-198.5
 30
0.0
 11
-356.57080419580399
 21
-195.50055706049559
 31
0.0
  0
LINE
  5
BD
  8
DATA
  6
CONTINUOUS
 62
     7
 10
-357.57080419580421
 20
-204.4994429395046
 30
0.0
 11
-357.5708041958041
 21
-201.50000000000011
 31
0.0
  0
LINE
  5
BE
  8
DATA
  6
CONTINUOUS
 62
     7
 10
-357.5708041958041
 20
-198.50000000000011
 30
0.0
 11
-357.57080419580421
 21
-195.50055706049559
 31
0.0
  0
LINE
  5
BF
  8
DATA
  6
CONTINUOUS
 62
     7
 10
-354.49999999999977
 20
-199.5
 30
0.0
 11
-355.57080419580421
 21
-199.5
 31
0.0
  0
LINE
  5
C0
  8
DATA
  6
CONTINUOUS
 62
     7
 10
-358.57080419580421
 20
-199.5
 30
0.0
 11
-359.5
 21
-199.5
 31
0.0
  0
LINE
  5
C1
  8
DATA
  6
CONTINUOUS
 62
     7
 10
-354.49999999999977
 20
-200.5
 30
0.0
 11
-355.57080419580421
 21
-200.5
 31
0.0
  0
LINE
  5
C2
  8
DATA
  6
CONTINUOUS
 62
     7
 10
-358.57080419580399
 20
-200.49999999999989
 30
0.0
 11
-359.5
 21
-200.5
 31
0.0
  0
LINE
  5
C3
  8
DATA
  6
CONTINUOUS
 62
     7
 10
-354.49999999999977
 20
-200.5
 30
0.0
 11
-354.49999999999977
 21
-199.5
 31
0.0
  0
LINE
  5
C4
  8
DATA
  6
CONTINUOUS
 62
     7
 10
-359.5
 20
-200.5
 30
0.0
 11
-359.5
 21
-199.5
 31
0.0
  0
ARC
  5
C5
  8
DATA
  6
CONTINUOUS
 62
     7
 10
-355.57080419580421
 20
-198.50000000000011
 30
0.0
 40
0.9999999999999431
 50
179.99999999999341
 51
269.99999999999682
  0
ARC
  5
C6
  8
DATA
  6
CONTINUOUS
 62
     7
 10
-358.57080419580421
 20
-198.5
 30
0.0
 40
1.0
 50
270.0
 51
359.99999999999358
  0
ARC
  5
C7
  8
DATA
  6
CONTINUOUS
 62
     7
 10
-358.57080419580421
 20
-201.5
 30
0.0
 40
1.0000000000001701
 50
359.99999999999352
 51
89.999999999990209
  0
ARC
  5
C8
  8
DATA
  6
CONTINUOUS
 62
     7
 10
-355.5708041958041
 20
-201.50000000000011
 30
0.0
 40
1.000000000000113
 50
90.000000000013017
 51
179.99999999999341
  0
CIRCLE
  5
C9
  8
DATA
  6
CONTINUOUS
 62
     7
 10
-499.99999999999989
 20
-343.0
 30
0.0
 40
4.4999999999998863
  0
LINE
  5
CA
  8
DATA
  6
CONTINUOUS
 62
     7
 10
-504.49944293950432
 20
-343.4291958041959
 30
0.0
 11
-501.49999999999989
 21
-343.4291958041959
 31
0.0
  0
LINE
  5
CB
  8
DATA
  6
CONTINUOUS
 62
     7
 10
-498.49999999999989
 20
-343.4291958041959
 30
0.0
 11
-495.5005570604954
 21
-343.4291958041959
 31
0.0
  0
LINE
  5
CC
  8
DATA
  6
CONTINUOUS
 62
     7
 10
-504.49944293950449
 20
-342.42919580419579
 30
0.0
 11
-501.49999999999989
 21
-342.42919580419579
 31
0.0
  0
LINE
  5
CD
  8
DATA
  6
CONTINUOUS
 62
     7
 10
-498.5
 20
-342.42919580419579
 30
0.0
 11
-495.50055706049562
 21
-342.42919580419579
 31
0.0
  0
LINE
  5
CE
  8
DATA
  6
CONTINUOUS
 62
     7
 10
-499.5
 20
-345.5
 30
0.0
 11
-499.5
 21
-344.42919580419579
 31
0.0
  0
LINE
  5
CF
  8
DATA
  6
CONTINUOUS
 62
     7
 10
-499.5
 20
-341.4291958041959
 30
0.0
 11
-499.5
 21
-340.5
 31
0.0
  0
LINE
  5
D0
  8
DATA
  6
CONTINUOUS
 62
     7
 10
-500.49999999999989
 20
-345.5
 30
0.0
 11
-500.49999999999989
 21
-344.42919580419579
 31
0.0
  0
LINE
  5
D1
  8
DATA
  6
CONTINUOUS
 62
     7
 10
-500.49999999999989
 20
-341.4291958041959
 30
0.0
 11
-500.49999999999989
 21
-340.5
 31
0.0
  0
LINE
  5
D2
  8
DATA
  6
CONTINUOUS
 62
     7
 10
-500.49999999999989
 20
-345.5
 30
0.0
 11
-499.5
 21
-345.5
 31
0.0
  0
LINE
  5
D3
  8
DATA
  6
CONTINUOUS
 62
     7
 10
-500.49999999999989
 20
-340.5
 30
0.0
 11
-499.5
 21
-340.5
 31
0.0
  0
ARC
  5
D4
  8
DATA
  6
CONTINUOUS
 62
     7
 10
-498.5
 20
-344.42919580419579
 30
0.0
 40
1.0
 50
89.999999999993491
 51
180.0
  0
ARC
  5
D5
  8
DATA
  6
CONTINUOUS
 62
     7
 10
-498.5
 20
-341.4291958041959
 30
0.0
 40
1.0
 50
180.0
 51
270.0
  0
ARC
  5
D6
  8
DATA
  6
CONTINUOUS
 62
     7
 10
-501.49999999999989
 20
-341.4291958041959
 30
0.0
 40
1.0
 50
270.0
 51
0.0
  0
ARC
  5
D7
  8
DATA
  6
CONTINUOUS
 62
     7
 10
-501.49999999999972
 20
-344.42919580419579
 30
0.0
 40
0.9999999999997726
 50
0.0
 51
90.000000000013017
  0
CIRCLE
  5
D8
  8
DATA
  6
CONTINUOUS
 62
     7
 10
-643.0
 20
-200.0
 30
0.0
 40
4.5
  0
LINE
  5
D9
  8
DATA
  6
CONTINUOUS
 62
     7
 10
-643.42919580419584
 20
-195.50055706049531
 30
0.0
 11
-643.42919580419584
 21
-198.5
 31
0.0
  0
LINE
  5
DA
  8
DATA
  6
CONTINUOUS
 62
     7
 10
-643.42919580419584
 20
-201.5
 30
0.0
 11
-643.42919580419584
 21
-204.4994429395046
 31
0.0
  0
LINE
  5
DB
  8
DATA
  6
CONTINUOUS
 62
     7
 10
-642.42919580419561
 20
-195.50055706049559
 30
0.0
 11
-642.42919580419561
 21
-198.5
 31
0.0
  0
LINE
  5
DC
  8
DATA
  6
CONTINUOUS
 62
     7
 10
-642.42919580419584
 20
-201.5
 30
0.0
 11
-642.42919580419584
 21
-204.4994429395046
 31
0.0
  0
LINE
  5
DD
  8
DATA
  6
CONTINUOUS
 62
     7
 10
-645.5
 20
-200.5
 30
0.0
 11
-644.42919580419584
 21
-200.5
 31
0.0
  0
LINE
  5
DE
  8
DATA
  6
CONTINUOUS
 62
     7
 10
-641.42919580419584
 20
-200.5
 30
0.0
 11
-640.5
 21
-200.5
 31
0.0
  0
LINE
  5
DF
  8
DATA
  6
CONTINUOUS
 62
     7
 10
-645.5
 20
-199.5
 30
0.0
 11
-644.42919580419561
 21
-199.49999999999989
 31
0.0
  0
LINE
  5
E0
  8
DATA
  6
CONTINUOUS
 62
     7
 10
-641.42919580419561
 20
-199.5
 30
0.0
 11
-640.49999999999966
 21
-199.49999999999989
 31
0.0
  0
LINE
  5
E1
  8
DATA
  6
CONTINUOUS
 62
     7
 10
-645.5
 20
-199.5
 30
0.0
 11
-645.5
 21
-200.5
 31
0.0
  0
LINE
  5
E2
  8
DATA
  6
CONTINUOUS
 62
     7
 10
-640.49999999999966
 20
-199.49999999999989
 30
0.0
 11
-640.5
 21
-200.5
 31
0.0
  0
ARC
  5
E3
  8
DATA
  6
CONTINUOUS
 62
     7
 10
-644.42919580419584
 20
-201.5
 30
0.0
 40
1.0
 50
0.0
 51
90.0
  0
ARC
  5
E4
  8
DATA
  6
CONTINUOUS
 62
     7
 10
-641.42919580419584
 20
-201.5
 30
0.0
 40
1.0
 50
90.0
 51
180.0
  0
ARC
  5
E5
  8
DATA
  6
CONTINUOUS
 62
     7
 10
-641.42919580419561
 20
-198.5
 30
0.0
 40
1.000000000000113
 50
180.0
 51
269.99999999999352
  0
ARC
  5
E6
  8
DATA
  6
CONTINUOUS
 62
     7
 10
-644.42919580419584
 20
-198.5
 30
0.0
 40
0.9999999999998864
 50
270.00000000000648
 51
0.0
  0
POLYLINE
  5
E7
  8
DATA
  6
CONTINUOUS
 62
     7
 66
     1
 10
0.0
 20
0.0
 30
0.0
 70
   129
  0
VERTEX
  5
2C6
  8
DATA
  6
CONTINUOUS
 62
     7
 10
-633.39569427084211
 20
-61.159583514021342
 30
0.0
  0
VERTEX
  5
2C7
  8
DATA
  6
CONTINUOUS
 62
     7
 10
-633.39569427084211
 20
-61.159583514021342
 30
0.0
 42
0.4142135623730597
  0
VERTEX
  5
2C8
  8
DATA
  6
CONTINUOUS
 62
     7
 10
-636.22412139558833
 20
-61.159583514021342
 30
0.0
  0
VERTEX
  5
2C9
  8
DATA
  6
CONTINUOUS
 62
     7
 10
-638.84041648597838
 20
-63.77587860441156
 30
0.0
  0
VERTEX
  5
2CA
  8
DATA
  6
CONTINUOUS
 62
     7
 10
-638.84041648597838
 20
-63.775878604411673
 30
0.0
 42
0.4142135623730893
  0
VERTEX
  5
2CB
  8
DATA
  6
CONTINUOUS
 62
     7
 10
-638.84041648597838
 20
-66.604305729157772
 30
0.0
  0
VERTEX
  5
2CC
  8
DATA
  6
CONTINUOUS
 62
     7
 10
-638.13330970479183
 20
-67.311412510344326
 30
0.0
  0
VERTEX
  5
2CD
  8
DATA
  6
CONTINUOUS
 62
     7
 10
-632.68858748965545
 20
-61.866690295207889
 30
0.0
  0
SEQEND
  5
2CE
  8
DATA
  6
CONTINUOUS
 62
     7
  0
POLYLINE
  5
F1
  8
DATA
  6
CONTINUOUS
 62
     7
 66
     1
 10
0.0
 20
0.0
 30
0.0
 70
   129
  0
VERTEX
  5
2CF
  8
DATA
  6
CONTINUOUS
 62
     7
 10
-361.15958351402139
 20
-66.604305729157886
 30
0.0
  0
VERTEX
  5
2D0
  8
DATA
  6
CONTINUOUS
 62
     7
 10
-361.15958351402122
 20
-66.604305729157844
 30
0.0
 42
0.4142135623730893
  0
VERTEX
  5
2D1
  8
DATA
  6
CONTINUOUS
 62
     7
 10
-361.15958351402139
 20
-63.775878604411673
 30
0.0
  0
VERTEX
  5
2D2
  8
DATA
  6
CONTINUOUS
 62
     7
 10
-363.77587860441139
 20
-61.159583514021378
 30
0.0
  0
VERTEX
  5
2D3
  8
DATA
  6
CONTINUOUS
 62
     7
 10
-363.77587860441162
 20
-61.15958351402135
 30
0.0
 42
0.4142135623730893
  0
VERTEX
  5
2D4
  8
DATA
  6
CONTINUOUS
 62
     7
 10
-366.60430572915772
 20
-61.159583514021449
 30
0.0
  0
VERTEX
  5
2D5
  8
DATA
  6
CONTINUOUS
 62
     7
 10
-367.31141251034421
 20
-61.866690295208002
 30
0.0
  0
VERTEX
  5
2D6
  8
DATA
  6
CONTINUOUS
 62
     7
 10
-361.86669029520777
 20
-67.311412510344383
 30
0.0
  0
SEQEND
  5
2D7
  8
DATA
  6
CONTINUOUS
 62
     7
  0
POLYLINE
  5
FB
  8
DATA
  6
CONTINUOUS
 62
     7
 66
     1
 10
0.0
 20
0.0
 30
0.0
 70
   129
  0
VERTEX
  5
2D8
  8
DATA
  6
CONTINUOUS
 62
     7
 10
-366.60430572915772
 20
-338.84041648597872
 30
0.0
  0
VERTEX
  5
2D9
  8
DATA
  6
CONTINUOUS
 62
     7
 10
-366.60430572915772
 20
-338.84041648597872
 30
0.0
 42
0.4142135623730951
  0
VERTEX
  5
2DA
  8
DATA
  6
CONTINUOUS
 62
     7
 10
-363.77587860441162
 20
-338.84041648597872
 30
0.0
  0
VERTEX
  5
2DB
  8
DATA
  6
CONTINUOUS
 62
     7
 10
-361.15958351402139
 20
-336.2241213955885
 30
0.0
  0
VERTEX
  5
2DC
  8
DATA
  6
CONTINUOUS
 62
     7
 10
-361.15958351402139
 20
-336.2241213955885
 30
0.0
 42
0.4142135623730951
  0
VERTEX
  5
2DD
  8
DATA
  6
CONTINUOUS
 62
     7
 10
-361.15958351402139
 20
-333.39569427084228
 30
0.0
  0
VERTEX
  5
2DE
  8
DATA
  6
CONTINUOUS
 62
     7
 10
-361.86669029520789
 20
-332.68858748965567
 30
0.0
  0
VERTEX
  5
2DF
  8
DATA
  6
CONTINUOUS
 62
     7
 10
-367.31141251034433
 20
-338.133309704792
 30
0.0
  0
SEQEND
  5
2E0
  8
DATA
  6
CONTINUOUS
 62
     7
  0
POLYLINE
  5
105
  8
DATA
  6
CONTINUOUS
 62
     7
 66
     1
 10
0.0
 20
0.0
 30
0.0
 70
   129
  0
VERTEX
  5
2E1
  8
DATA
  6
CONTINUOUS
 62
     7
 10
-638.84041648597838
 20
-333.39569427084211
 30
0.0
  0
VERTEX
  5
2E2
  8
DATA
  6
CONTINUOUS
 62
     7
 10
-638.84041648597838
 20
-333.39569427084211
 30
0.0
 42
0.4142135623730951
  0
VERTEX
  5
2E3
  8
DATA
  6
CONTINUOUS
 62
     7
 10
-638.84041648597838
 20
-336.22412139558838
 30
0.0
  0
VERTEX
  5
2E4
  8
DATA
  6
CONTINUOUS
 62
     7
 10
-636.22412139558833
 20
-338.84041648597849
 30
0.0
  0
VERTEX
  5
2E5
  8
DATA
  6
CONTINUOUS
 62
     7
 10
-636.22412139558833
 20
-338.84041648597872
 30
0.0
 42
0.4142135623730244
  0
VERTEX
  5
2E6
  8
DATA
  6
CONTINUOUS
 62
     7
 10
-633.39569427084211
 20
-338.84041648597872
 30
0.0
  0
VERTEX
  5
2E7
  8
DATA
  6
CONTINUOUS
 62
     7
 10
-632.68858748965545
 20
-338.133309704792
 30
0.0
  0
VERTEX
  5
2E8
  8
DATA
  6
CONTINUOUS
 62
     7
 10
-638.13330970479205
 20
-332.68858748965567
 30
0.0
  0
SEQEND
  5
2E9
  8
DATA
  6
CONTINUOUS
 62
     7
  0
LINE
  5
10F
  8
DATA
  6
CONTINUOUS
 62
     7
 10
-490.24999999999989
 20
-8.7483660200520035
 30
0.0
 11
-490.24999999999989
 21
-0.7399450962589073
 31
0.0
  0
LINE
  5
110
  8
DATA
  6
CONTINUOUS
 62
     7
 10
-509.75
 20
-0.7399450962589073
 30
0.0
 11
-509.75
 21
-8.7483660200520035
 31
0.0
  0
LINE
  5
111
  8
DATA
  6
CONTINUOUS
 62
     7
 10
31.499999999999989
 20
-8.5000000000001137
 30
0.0
 11
15.0
 21
-8.5000000000001137
 31
0.0
  0
LINE
  5
112
  8
DATA
  6
CONTINUOUS
 62
     7
 10
31.499999999999989
 20
-391.5
 30
0.0
 11
15.0
 21
-391.5
 31
0.0
  0
LINE
  5
113
  8
DATA
  6
CONTINUOUS
 62
     7
 10
31.499999999999989
 20
-8.5000000000001137
 30
0.0
 11
31.499999999999989
 21
-391.5
 31
0.0
  0
LINE
  5
114
  8
DATA
  6
CONTINUOUS
 62
     7
 10
31.499999999999989
 20
-10.5
 30
0.0
 11
261.0
 21
-10.5
 31
0.0
  0
LINE
  5
115
  8
DATA
  6
CONTINUOUS
 62
     7
 10
31.499999999999989
 20
-389.5
 30
0.0
 11
261.0
 21
-389.5
 31
0.0
  0
LINE
  5
116
  8
DATA
  6
CONTINUOUS
 62
     7
 10
12.0
 20
-47.500000000000227
 30
0.0
 11
0.0
 21
-47.500000000000227
 31
0.0
  0
LINE
  5
117
  8
DATA
  6
CONTINUOUS
 62
     7
 10
12.0
 20
-352.50000000000023
 30
0.0
 11
0.0
 21
-352.50000000000023
 31
0.0
  0
LINE
  5
118
  8
DATA
  6
CONTINUOUS
 62
     7
 10
12.0
 20
-11.50000000000011
 30
0.0
 11
12.0
 21
-388.49999999999989
 31
0.0
  0
LINE
  5
119
  8
DATA
  6
CONTINUOUS
 62
     7
 10
0.0
 20
-47.500000000000227
 30
0.0
 11
0.0
 21
-352.50000000000023
 31
0.0
  0
LINE
  5
11A
  8
DATA
  6
CONTINUOUS
 62
     7
 10
3.0
 20
-47.500000000000227
 30
0.0
 11
3.0
 21
-352.50000000000023
 31
0.0
  0
ARC
  5
11B
  8
DATA
  6
CONTINUOUS
 62
     7
 10
15.0
 20
-11.50000000000011
 30
0.0
 40
3.0
 50
90.0
 51
180.0
  0
ARC
  5
11C
  8
DATA
  6
CONTINUOUS
 62
     7
 10
15.0
 20
-388.49999999999989
 30
0.0
 40
3.0
 50
180.0
 51
270.0
  0
LINE
  5
11D
  8
DATA
  6
CONTINUOUS
 62
     7
 10
149.41138876596639
 20
-190.25000000000011
 30
0.0
 11
35.499999999999993
 21
-190.25000000000011
 31
0.0
  0
LINE
  5
11E
  8
DATA
  6
CONTINUOUS
 62
     7
 10
149.41138876596639
 20
-209.75
 30
0.0
 11
35.499999999999993
 21
-209.75
 31
0.0
  0
LINE
  5
11F
  8
DATA
  6
CONTINUOUS
 62
     7
 10
31.499999999999989
 20
-10.5
 30
0.0
 11
31.499999999999989
 21
-389.5
 31
0.0
  0
LINE
  5
120
  8
DATA
  6
CONTINUOUS
 62
     7
 10
271.0
 20
-20.5
 30
0.0
 11
271.0
 21
-379.5
 31
0.0
  0
LINE
  5
121
  8
DATA
  6
CONTINUOUS
 62
     7
 10
274.0
 20
-131.0393218813453
 30
0.0
 11
274.0
 21
-127.5393218813454
 31
0.0
  0
LINE
  5
122
  8
DATA
  6
CONTINUOUS
 62
     7
 10
271.5
 20
-46.543109856757837
 30
0.0
 11
271.0
 21
-46.543109856757837
 31
0.0
  0
LINE
  5
123
  8
DATA
  6
CONTINUOUS
 62
     7
 10
273.0
 20
-351.95689014324228
 30
0.0
 11
273.0
 21
-48.043109856757837
 31
0.0
  0
ARC
  5
124
  8
DATA
  6
CONTINUOUS
 62
     7
 10
261.0
 20
-20.5
 30
0.0
 40
10.0
 50
0.0
 51
90.0
  0
ARC
  5
125
  8
DATA
  6
CONTINUOUS
 62
     7
 10
261.00000000000011
 20
-379.5
 30
0.0
 40
10.0
 50
270.0
 51
0.0
  0
CIRCLE
  5
126
  8
DATA
  6
CONTINUOUS
 62
     7
 10
-398.17662350914429
 20
-99.176623509133947
 30
0.0
 40
4.4999999999999547
  0
CIRCLE
  5
127
  8
DATA
  6
CONTINUOUS
 62
     7
 10
-601.11626970967632
 20
-98.883730290323697
 30
0.0
 40
4.4999999999999547
  0
CIRCLE
  5
128
  8
DATA
  6
CONTINUOUS
 62
     7
 10
-600.40916292849715
 20
-301.40916292848669
 30
0.0
 40
4.4999999999999547
  0
CIRCLE
  5
129
  8
DATA
  6
CONTINUOUS
 62
     7
 10
-398.17662350914452
 20
-301.40916292848658
 30
0.0
 40
4.4999999999997939
  0
LINE
  5
12A
  8
DATA
  6
CONTINUOUS
 62
     7
 10
35.499999999999993
 20
-190.25000000000011
 30
0.0
 11
35.499999999999993
 21
-209.75
 31
0.0
  0
LINE
  5
12B
  8
DATA
  6
CONTINUOUS
 62
     7
 10
53.199999999999932
 20
-389.5
 30
0.0
 11
35.499999999999993
 21
-389.5
 31
0.0
  0
LINE
  5
12C
  8
DATA
  6
CONTINUOUS
 62
     7
 10
35.499999999999993
 20
-389.5
 30
0.0
 11
35.499999999999993
 21
-390.5
 31
0.0
  0
LINE
  5
12D
  8
DATA
  6
CONTINUOUS
 62
     7
 10
64.188150138092951
 20
-390.5
 30
0.0
 11
63.953625053957559
 21
-390.5
 31
0.0
  0
LINE
  5
12E
  8
DATA
  6
CONTINUOUS
 62
     7
 10
53.154590265718397
 20
-390.5
 30
0.0
 11
35.499999999999993
 21
-390.5
 31
0.0
  0
LINE
  5
12F
  8
DATA
  6
CONTINUOUS
 62
     7
 10
50.999999999999993
 20
-389.5
 30
0.0
 11
50.999999999999993
 21
-390.5
 31
0.0
  0
LINE
  5
130
  8
DATA
  6
CONTINUOUS
 62
     7
 10
55.39094567695507
 20
-389.69939167643508
 30
0.0
 11
55.300313096757343
 21
-390.69527607505108
 31
0.0
  0
LINE
  5
131
  8
DATA
  6
CONTINUOUS
 62
     7
 10
63.955551505052412
 20
-390.47883186613598
 30
0.0
 11
63.864918924854678
 21
-391.47471626475198
 31
0.0
  0
LINE
  5
132
  8
DATA
  6
CONTINUOUS
 62
     7
 10
68.337442858962717
 20
-390.87761521900637
 30
0.0
 11
68.246810278764968
 21
-391.8734996176222
 31
0.0
  0
LINE
  5
133
  8
DATA
  6
CONTINUOUS
 62
     7
 10
76.902048687060059
 20
-391.65705540870721
 30
0.0
 11
76.81141610686231
 21
-392.65293980732321
 31
0.0
  0
LINE
  5
134
  8
DATA
  6
CONTINUOUS
 62
     7
 10
81.283940040970265
 20
-392.05583876157738
 30
0.0
 11
81.193307460772516
 21
-393.05172316019332
 31
0.0
  0
LINE
  5
135
  8
DATA
  6
CONTINUOUS
 62
     7
 10
89.848545869067706
 20
-392.83527895127838
 30
0.0
 11
89.757913288869858
 21
-393.83116334989433
 31
0.0
  0
LINE
  5
136
  8
DATA
  6
CONTINUOUS
 62
     7
 10
94.230437222977869
 20
-393.23406230414849
 30
0.0
 11
94.139804642780035
 21
-394.22994670276461
 31
0.0
  0
LINE
  5
137
  8
DATA
  6
CONTINUOUS
 62
     7
 10
102.7950430510752
 20
-394.01350249384939
 30
0.0
 11
102.70441047087751
 21
-395.00938689246539
 31
0.0
  0
LINE
  5
138
  8
DATA
  6
CONTINUOUS
 62
     7
 10
107.1769344049855
 20
-394.41228584671973
 30
0.0
 11
107.0863018247877
 21
-395.40817024533573
 31
0.0
  0
LINE
  5
139
  8
DATA
  6
CONTINUOUS
 62
     7
 10
115.7415402330828
 20
-395.19172603642062
 30
0.0
 11
115.650907652885
 21
-396.18761043503662
 31
0.0
  0
LINE
  5
13A
  8
DATA
  6
CONTINUOUS
 62
     7
 10
120.12343158699311
 20
-395.5905093892909
 30
0.0
 11
120.0327990067953
 21
-396.58639378790679
 31
0.0
  0
LINE
  5
13B
  8
DATA
  6
CONTINUOUS
 62
     7
 10
128.68803741509049
 20
-396.36994957899168
 30
0.0
 11
128.59740483489281
 21
-397.36583397760768
 31
0.0
  0
LINE
  5
13C
  8
DATA
  6
CONTINUOUS
 62
     7
 10
133.0699287690008
 20
-396.76873293186202
 30
0.0
 11
132.979296188803
 21
-397.76461733047802
 31
0.0
  0
LINE
  5
13D
  8
DATA
  6
CONTINUOUS
 62
     7
 10
141.63453459709811
 20
-397.54817312156291
 30
0.0
 11
141.54390201690029
 21
-398.54405752017891
 31
0.0
  0
LINE
  5
13E
  8
DATA
  6
CONTINUOUS
 62
     7
 10
146.01642595100839
 20
-397.94695647443319
 30
0.0
 11
145.9257933708106
 21
-398.94284087304891
 31
0.0
  0
LINE
  5
13F
  8
DATA
  6
CONTINUOUS
 62
     7
 10
149.5020213461643
 20
-398.26417050512532
 30
0.0
 11
149.41138876596639
 21
-399.26005490374121
 31
0.0
  0
LINE
  5
140
  8
DATA
  6
CONTINUOUS
 62
     7
 10
50.999999999999993
 20
-389.5
 30
0.0
 11
53.199999999999932
 21
-389.5
 31
0.0
  0
LINE
  5
141
  8
DATA
  6
CONTINUOUS
 62
     7
 10
50.999999999999993
 20
-390.5
 30
0.0
 11
53.154590265718397
 21
-390.5
 31
0.0
  0
LINE
  5
142
  8
DATA
  6
CONTINUOUS
 62
     7
 10
53.199999999999932
 20
-389.5
 30
0.0
 11
149.5020213461643
 21
-398.26417050512532
 31
0.0
  0
LINE
  5
143
  8
DATA
  6
CONTINUOUS
 62
     7
 10
53.109367419802169
 20
-390.49588439861611
 30
0.0
 11
149.41138876596639
 21
-399.26005490374121
 31
0.0
  0
LINE
  5
144
  8
DATA
  6
CONTINUOUS
 62
     7
 10
55.300313096757343
 20
-390.69527607505108
 30
0.0
 11
55.300313096757343
 21
-389.5
 31
0.0
  0
LINE
  5
145
  8
DATA
  6
CONTINUOUS
 62
     7
 10
149.41138876596639
 20
-209.75
 30
0.0
 11
149.41138876596639
 21
-190.25000000000011
 31
0.0
  0
ARC
  5
146
  8
DATA
  6
CONTINUOUS
 62
     7
 10
143.7348476938555
 20
-199.99096430894761
 30
0.0
 40
2.1909643089473789
 50
359.7637075018913
 51
180.2362924981087
  0
ARC
  5
147
  8
DATA
  6
CONTINUOUS
 62
     7
 10
143.7348476938555
 20
-200.00903569105259
 30
0.0
 40
2.1909643089473789
 50
179.76370750189119
 51
0.2362924981087815
  0
ARC
  5
148
  8
DATA
  6
CONTINUOUS
 62
     7
 10
130.7883505118478
 20
-199.99096430894761
 30
0.0
 40
2.1909643089473789
 50
359.7637075018913
 51
180.23629249810881
  0
ARC
  5
149
  8
DATA
  6
CONTINUOUS
 62
     7
 10
130.78835051184791
 20
-200.00903569105259
 30
0.0
 40
2.1909643089473789
 50
179.76370750189119
 51
0.2362924981087815
  0
ARC
  5
14A
  8
DATA
  6
CONTINUOUS
 62
     7
 10
117.84185332984021
 20
-199.9909643089475
 30
0.0
 40
2.1909643089473798
 50
359.76370750188829
 51
180.23629249811171
  0
ARC
  5
14B
  8
DATA
  6
CONTINUOUS
 62
     7
 10
117.84185332984021
 20
-200.00903569105259
 30
0.0
 40
2.1909643089473789
 50
179.76370750189119
 51
0.2362924981087815
  0
ARC
  5
14C
  8
DATA
  6
CONTINUOUS
 62
     7
 10
104.8953561478326
 20
-199.99096430894761
 30
0.0
 40
2.1909643089473789
 50
359.7637075018913
 51
180.2362924981087
  0
ARC
  5
14D
  8
DATA
  6
CONTINUOUS
 62
     7
 10
104.8953561478326
 20
-200.00903569105259
 30
0.0
 40
2.1909643089473789
 50
179.76370750189119
 51
0.2362924981087815
  0
ARC
  5
14E
  8
DATA
  6
CONTINUOUS
 62
     7
 10
91.994175255923864
 20
-200.03656081483919
 30
0.0
 40
2.23656081483916
 50
0.9366495549702351
 51
179.06335044502981
  0
ARC
  5
14F
  8
DATA
  6
CONTINUOUS
 62
     7
 10
91.994175255923864
 20
-199.96343918516081
 30
0.0
 40
2.236560814839164
 50
180.93664955497599
 51
359.06335044502401
  0
ARC
  5
150
  8
DATA
  6
CONTINUOUS
 62
     7
 10
79.002361783817477
 20
-199.99094567695519
 30
0.0
 40
2.1909643858661361
 50
359.76322026190928
 51
180.2367797380908
  0
ARC
  5
151
  8
DATA
  6
CONTINUOUS
 62
     7
 10
79.002361783817477
 20
-200.00903569105259
 30
0.0
 40
2.1909643089473789
 50
179.76370750189119
 51
0.2362924981087815
  0
ARC
  5
152
  8
DATA
  6
CONTINUOUS
 62
     7
 10
66.05586460180983
 20
-199.99096430894761
 30
0.0
 40
2.1909643089473789
 50
359.7637075018913
 51
180.2362924981087
  0
ARC
  5
153
  8
DATA
  6
CONTINUOUS
 62
     7
 10
66.05586460180983
 20
-200.00903569105259
 30
0.0
 40
2.1909643089473789
 50
179.76370750189119
 51
0.2362924981087815
  0
ARC
  5
154
  8
DATA
  6
CONTINUOUS
 62
     7
 10
53.15015654837871
 20
-199.950721177849
 30
0.0
 40
2.150721177848967
 50
358.6870842833199
 51
181.3129157166801
  0
ARC
  5
155
  8
DATA
  6
CONTINUOUS
 62
     7
 10
53.15015654837871
 20
-200.049278822151
 30
0.0
 40
2.1507211778490758
 50
178.68708428332599
 51
1.3129157166740411
  0
LINE
  5
156
  8
DATA
  6
CONTINUOUS
 62
     7
 10
53.199999999999932
 20
-10.5
 30
0.0
 11
35.499999999999993
 21
-10.5
 31
0.0
  0
LINE
  5
157
  8
DATA
  6
CONTINUOUS
 62
     7
 10
35.499999999999993
 20
-10.5
 30
0.0
 11
35.499999999999993
 21
-9.5
 31
0.0
  0
LINE
  5
158
  8
DATA
  6
CONTINUOUS
 62
     7
 10
64.188150138092951
 20
-9.5
 30
0.0
 11
63.953625053957559
 21
-9.5
 31
0.0
  0
LINE
  5
159
  8
DATA
  6
CONTINUOUS
 62
     7
 10
53.154590265718397
 20
-9.5
 30
0.0
 11
35.499999999999993
 21
-9.5
 31
0.0
  0
LINE
  5
15A
  8
DATA
  6
CONTINUOUS
 62
     7
 10
50.999999999999993
 20
-10.5
 30
0.0
 11
50.999999999999993
 21
-9.5
 31
0.0
  0
LINE
  5
15B
  8
DATA
  6
CONTINUOUS
 62
     7
 10
55.39094567695507
 20
-10.30060832356491
 30
0.0
 11
55.300313096757343
 21
-9.3047239249489149
 31
0.0
  0
LINE
  5
15C
  8
DATA
  6
CONTINUOUS
 62
     7
 10
63.955551505052412
 20
-9.5211681338639664
 30
0.0
 11
63.864918924854678
 21
-8.5252837352479656
 31
0.0
  0
LINE
  5
15D
  8
DATA
  6
CONTINUOUS
 62
     7
 10
68.337442858962717
 20
-9.1223847809936824
 30
0.0
 11
68.246810278764968
 21
-8.1265003823777988
 31
0.0
  0
LINE
  5
15E
  8
DATA
  6
CONTINUOUS
 62
     7
 10
76.902048687060059
 20
-8.3429445912928486
 30
0.0
 11
76.81141610686231
 21
-7.3470601926768486
 31
0.0
  0
LINE
  5
15F
  8
DATA
  6
CONTINUOUS
 62
     7
 10
81.283940040970265
 20
-7.9441612384225664
 30
0.0
 11
81.193307460772516
 21
-6.948276839806681
 31
0.0
  0
LINE
  5
160
  8
DATA
  6
CONTINUOUS
 62
     7
 10
89.848545869067706
 20
-7.1647210487216171
 30
0.0
 11
89.757913288869858
 21
-6.1688366501057308
 31
0.0
  0
LINE
  5
161
  8
DATA
  6
CONTINUOUS
 62
     7
 10
94.230437222977869
 20
-6.7659376958514477
 30
0.0
 11
94.139804642780035
 21
-5.7700532972354486
 31
0.0
  0
LINE
  5
162
  8
DATA
  6
CONTINUOUS
 62
     7
 10
102.7950430510752
 20
-5.986497506150612
 30
0.0
 11
102.70441047087751
 21
-4.990613107534613
 31
0.0
  0
LINE
  5
163
  8
DATA
  6
CONTINUOUS
 62
     7
 10
107.1769344049855
 20
-5.5877141532803298
 30
0.0
 11
107.0863018247877
 21
-4.5918297546643307
 31
0.0
  0
LINE
  5
164
  8
DATA
  6
CONTINUOUS
 62
     7
 10
115.7415402330828
 20
-4.8082739635793796
 30
0.0
 11
115.650907652885
 21
-3.8123895649633819
 31
0.0
  0
LINE
  5
165
  8
DATA
  6
CONTINUOUS
 62
     7
 10
120.12343158699311
 20
-4.409490610709212
 30
0.0
 11
120.0327990067953
 21
-3.4136062120932129
 31
0.0
  0
LINE
  5
166
  8
DATA
  6
CONTINUOUS
 62
     7
 10
128.68803741509049
 20
-3.630050421008264
 30
0.0
 11
128.59740483489281
 21
-2.6341660223922641
 31
0.0
  0
LINE
  5
167
  8
DATA
  6
CONTINUOUS
 62
     7
 10
133.0699287690008
 20
-3.2312670681379809
 30
0.0
 11
132.979296188803
 21
-2.2353826695219818
 31
0.0
  0
LINE
  5
168
  8
DATA
  6
CONTINUOUS
 62
     7
 10
141.63453459709811
 20
-2.4518268784371449
 30
0.0
 11
141.54390201690029
 21
-1.455942479821146
 31
0.0
  0
LINE
  5
169
  8
DATA
  6
CONTINUOUS
 62
     7
 10
146.01642595100839
 20
-2.0530435255668631
 30
0.0
 11
145.9257933708106
 21
-1.057159126950977
 31
0.0
  0
LINE
  5
16A
  8
DATA
  6
CONTINUOUS
 62
     7
 10
149.5020213461643
 20
-1.735829494874678
 30
0.0
 11
149.41138876596639
 21
-0.7399450962586798
 31
0.0
  0
LINE
  5
16B
  8
DATA
  6
CONTINUOUS
 62
     7
 10
50.999999999999993
 20
-10.5
 30
0.0
 11
53.199999999999932
 21
-10.5
 31
0.0
  0
LINE
  5
16C
  8
DATA
  6
CONTINUOUS
 62
     7
 10
50.999999999999993
 20
-9.5
 30
0.0
 11
53.154590265718397
 21
-9.5
 31
0.0
  0
LINE
  5
16D
  8
DATA
  6
CONTINUOUS
 62
     7
 10
53.199999999999932
 20
-10.5
 30
0.0
 11
149.5020213461643
 21
-1.735829494874678
 31
0.0
  0
LINE
  5
16E
  8
DATA
  6
CONTINUOUS
 62
     7
 10
53.109367419802169
 20
-9.5041156013839991
 30
0.0
 11
149.41138876596639
 21
-0.7399450962586798
 31
0.0
  0
LINE
  5
16F
  8
DATA
  6
CONTINUOUS
 62
     7
 10
-490.24999999999989
 20
-0.7399450962589073
 30
0.0
 11
-509.75
 21
-0.7399450962589073
 31
0.0
  0
LINE
  5
170
  8
DATA
  6
CONTINUOUS
 62
     7
 10
-490.24999999999989
 20
-391.25163397994788
 30
0.0
 11
-490.24999999999989
 21
-399.26005490374109
 31
0.0
  0
LINE
  5
171
  8
DATA
  6
CONTINUOUS
 62
     7
 10
-509.75
 20
-399.26005490374109
 30
0.0
 11
-509.75
 21
-391.25163397994788
 31
0.0
  0
LINE
  5
172
  8
DATA
  6
CONTINUOUS
 62
     7
 10
-490.24999999999989
 20
-399.26005490374109
 30
0.0
 11
-509.75
 21
-399.26005490374109
 31
0.0
  0
LINE
  5
173
  8
DATA
  6
CONTINUOUS
 62
     7
 10
-691.31849012697637
 20
-191.6642135623583
 30
0.0
 11
-699.26005490374087
 21
-191.6642135623583
 31
0.0
  0
LINE
  5
174
  8
DATA
  6
CONTINUOUS
 62
     7
 10
-699.26005490374087
 20
-211.1642135623581
 30
0.0
 11
-691.17429308234398
 21
-211.1642135623581
 31
0.0
  0
LINE
  5
175
  8
DATA
  6
CONTINUOUS
 62
     7
 10
-699.26005490374087
 20
-191.6642135623581
 30
0.0
 11
-699.26005490374087
 21
-211.1642135623581
 31
0.0
  0
LINE
  5
176
  8
DATA
  6
CONTINUOUS
 62
     7
 10
-699.26005490374155
 20
-211.16421356235841
 30
0.0
 11
-699.26005490374155
 21
-191.6642135623583
 31
0.0
  0
LINE
  5
177
  8
DATA
  6
CONTINUOUS
 62
     7
 10
-308.68150987302351
 20
-191.6642135623583
 30
0.0
 11
-300.73994509625879
 21
-191.6642135623583
 31
0.0
  0
LINE
  5
178
  8
DATA
  6
CONTINUOUS
 62
     7
 10
-300.73994509625879
 20
-211.1642135623581
 30
0.0
 11
-308.82570691765568
 21
-211.1642135623581
 31
0.0
  0
LINE
  5
179
  8
DATA
  6
CONTINUOUS
 62
     7
 10
-300.73994509625879
 20
-191.6642135623581
 30
0.0
 11
-300.73994509625879
 21
-211.1642135623581
 31
0.0
  0
LINE
  5
17A
  8
DATA
  6
CONTINUOUS
 62
     7
 10
-300.7399450962584
 20
-211.16421356235841
 30
0.0
 11
-300.7399450962584
 21
-191.6642135623583
 31
0.0
  0
ARC
  5
17B
  8
DATA
  6
CONTINUOUS
 62
     7
 10
21.75
 20
-336.5643709730308
 30
0.0
 40
3.875783483374855
 50
6.612561532566148
 51
173.3874384674339
  0
ARC
  5
17C
  8
DATA
  6
CONTINUOUS
 62
     7
 10
21.75
 20
-335.67173978379049
 30
0.0
 40
3.875783483374855
 50
186.6125615325661
 51
353.38743846743392
  0
LINE
  5
17D
  8
DATA
  6
CONTINUOUS
 62
     7
 10
22.25
 20
-333.61805537841059
 30
0.0
 11
22.25
 21
-334.61805537841059
 31
0.0
  0
LINE
  5
17E
  8
DATA
  6
CONTINUOUS
 62
     7
 10
22.25
 20
-337.61805537841059
 30
0.0
 11
22.25
 21
-338.61805537841059
 31
0.0
  0
LINE
  5
17F
  8
DATA
  6
CONTINUOUS
 62
     7
 10
21.25
 20
-333.61805537841059
 30
0.0
 11
21.25
 21
-334.61805537841059
 31
0.0
  0
LINE
  5
180
  8
DATA
  6
CONTINUOUS
 62
     7
 10
21.25
 20
-337.61805537841059
 30
0.0
 11
21.25
 21
-338.61805537841059
 31
0.0
  0
LINE
  5
181
  8
DATA
  6
CONTINUOUS
 62
     7
 10
21.25
 20
-333.61805537841059
 30
0.0
 11
22.25
 21
-333.61805537841059
 31
0.0
  0
LINE
  5
182
  8
DATA
  6
CONTINUOUS
 62
     7
 10
21.25
 20
-338.61805537841059
 30
0.0
 11
22.25
 21
-338.61805537841059
 31
0.0
  0
LINE
  5
183
  8
DATA
  6
CONTINUOUS
 62
     7
 10
19.25
 20
-335.61805537841059
 30
0.0
 11
20.25
 21
-335.61805537841059
 31
0.0
  0
LINE
  5
184
  8
DATA
  6
CONTINUOUS
 62
     7
 10
23.25
 20
-335.61805537841059
 30
0.0
 11
24.25
 21
-335.61805537841059
 31
0.0
  0
LINE
  5
185
  8
DATA
  6
CONTINUOUS
 62
     7
 10
19.25
 20
-336.61805537841059
 30
0.0
 11
20.25
 21
-336.61805537841059
 31
0.0
  0
LINE
  5
186
  8
DATA
  6
CONTINUOUS
 62
     7
 10
23.25
 20
-336.61805537841059
 30
0.0
 11
24.25
 21
-336.61805537841059
 31
0.0
  0
LINE
  5
187
  8
DATA
  6
CONTINUOUS
 62
     7
 10
19.25
 20
-335.61805537841059
 30
0.0
 11
19.25
 21
-336.61805537841059
 31
0.0
  0
LINE
  5
188
  8
DATA
  6
CONTINUOUS
 62
     7
 10
24.25
 20
-335.61805537841059
 30
0.0
 11
24.25
 21
-336.61805537841059
 31
0.0
  0
ARC
  5
189
  8
DATA
  6
CONTINUOUS
 62
     7
 10
20.25
 20
-334.61805537841059
 30
0.0
 40
1.0
 50
270.0
 51
0.0
  0
ARC
  5
18A
  8
DATA
  6
CONTINUOUS
 62
     7
 10
20.25
 20
-337.61805537841059
 30
0.0
 40
1.0
 50
0.0
 51
90.0
  0
ARC
  5
18B
  8
DATA
  6
CONTINUOUS
 62
     7
 10
23.25
 20
-337.61805537841059
 30
0.0
 40
1.0
 50
90.0
 51
180.0
  0
ARC
  5
18C
  8
DATA
  6
CONTINUOUS
 62
     7
 10
23.25
 20
-334.61805537841059
 30
0.0
 40
1.0
 50
180.0
 51
270.0
  0
ARC
  5
18D
  8
DATA
  6
CONTINUOUS
 62
     7
 10
21.75
 20
-63.435629026969302
 30
0.0
 40
3.875783483374867
 50
186.61256153256781
 51
353.38743846743392
  0
ARC
  5
18E
  8
DATA
  6
CONTINUOUS
 62
     7
 10
21.75
 20
-64.328260216209628
 30
0.0
 40
3.875783483374855
 50
6.612561532566148
 51
173.38743846743549
  0
LINE
  5
18F
  8
DATA
  6
CONTINUOUS
 62
     7
 10
22.25
 20
-66.381944621589454
 30
0.0
 11
22.25
 21
-65.381944621589454
 31
0.0
  0
LINE
  5
190
  8
DATA
  6
CONTINUOUS
 62
     7
 10
22.25
 20
-62.381944621589462
 30
0.0
 11
22.25
 21
-61.381944621589462
 31
0.0
  0
LINE
  5
191
  8
DATA
  6
CONTINUOUS
 62
     7
 10
21.25
 20
-66.381944621589454
 30
0.0
 11
21.25
 21
-65.381944621589454
 31
0.0
  0
LINE
  5
192
  8
DATA
  6
CONTINUOUS
 62
     7
 10
21.25
 20
-62.381944621589462
 30
0.0
 11
21.25
 21
-61.381944621589462
 31
0.0
  0
LINE
  5
193
  8
DATA
  6
CONTINUOUS
 62
     7
 10
21.25
 20
-66.381944621589454
 30
0.0
 11
22.25
 21
-66.381944621589454
 31
0.0
  0
LINE
  5
194
  8
DATA
  6
CONTINUOUS
 62
     7
 10
21.25
 20
-61.381944621589462
 30
0.0
 11
22.25
 21
-61.381944621589462
 31
0.0
  0
LINE
  5
195
  8
DATA
  6
CONTINUOUS
 62
     7
 10
19.25
 20
-64.381944621589454
 30
0.0
 11
20.25
 21
-64.381944621589454
 31
0.0
  0
LINE
  5
196
  8
DATA
  6
CONTINUOUS
 62
     7
 10
23.25
 20
-64.381944621589454
 30
0.0
 11
24.25
 21
-64.381944621589454
 31
0.0
  0
LINE
  5
197
  8
DATA
  6
CONTINUOUS
 62
     7
 10
19.25
 20
-63.381944621589462
 30
0.0
 11
20.25
 21
-63.381944621589462
 31
0.0
  0
LINE
  5
198
  8
DATA
  6
CONTINUOUS
 62
     7
 10
23.25
 20
-63.381944621589462
 30
0.0
 11
24.25
 21
-63.381944621589462
 31
0.0
  0
LINE
  5
199
  8
DATA
  6
CONTINUOUS
 62
     7
 10
19.25
 20
-64.381944621589454
 30
0.0
 11
19.25
 21
-63.381944621589462
 31
0.0
  0
LINE
  5
19A
  8
DATA
  6
CONTINUOUS
 62
     7
 10
24.25
 20
-64.381944621589454
 30
0.0
 11
24.25
 21
-63.381944621589462
 31
0.0
  0
ARC
  5
19B
  8
DATA
  6
CONTINUOUS
 62
     7
 10
20.25
 20
-65.381944621589454
 30
0.0
 40
1.0
 50
0.0
 51
90.0
  0
ARC
  5
19C
  8
DATA
  6
CONTINUOUS
 62
     7
 10
20.25
 20
-62.381944621589462
 30
0.0
 40
1.0
 50
270.0
 51
0.0
  0
ARC
  5
19D
  8
DATA
  6
CONTINUOUS
 62
     7
 10
23.25
 20
-62.381944621589462
 30
0.0
 40
1.0
 50
180.0
 51
270.0
  0
ARC
  5
19E
  8
DATA
  6
CONTINUOUS
 62
     7
 10
23.25
 20
-65.381944621589454
 30
0.0
 40
1.0
 50
90.0
 51
180.0
  0
TEXT
  5
19F
  8
DATA
 62
     7
 10
533.33333310000012
 20
-984.8806050370232
 30
0.0
 40
16.288411458333329
  1
の1立方フィートの円柱型 バックカン
 41
0.7
 11
533.33333310000012
 21
-968.59219357868994
 31
0.0
 73
     3
  0
TEXT
  5
1A0
  8
DATA
 62
     7
 10
533.33333310000012
 20
-963.01409949789331
 30
0.0
 40
16.288411458333329
  1
Control 328C/328CT用
 41
0.7
 11
533.33333310000012
 21
-946.72568803955983
 31
0.0
 73
     3
  0
CIRCLE
  5
1A1
  8
DATA
  6
CONTINUOUS
 62
     7
 10
600.0
 20
-200.0
 30
0.0
 40
191.5
  0
LINE
  5
1A2
  8
DATA
  6
CONTINUOUS
 62
     7
 10
467.33878104706048
 20
-61.894058831923928
 30
0.0
 11
466.60430572915789
 21
-61.159583514021378
 31
0.0
  0
LINE
  5
1A3
  8
DATA
  6
CONTINUOUS
 62
     7
 10
461.15958351402162
 20
-66.604305729157986
 30
0.0
 11
461.89405883192347
 21
-67.338781047059683
 31
0.0
  0
LINE
  5
1A4
  8
DATA
  6
CONTINUOUS
 62
     7
 10
463.77587860441162
 20
-61.159583514021449
 30
0.0
 11
461.15958351402151
 21
-63.775878604411723
 31
0.0
  0
LINE
  5
1A5
  8
DATA
  6
CONTINUOUS
 62
     7
 10
609.75
 20
-8.7483660200520035
 30
0.0
 11
609.75
 21
-0.7399450962589073
 31
0.0
  0
LINE
  5
1A6
  8
DATA
  6
CONTINUOUS
 62
     7
 10
590.24999999999989
 20
-0.7399450962589073
 30
0.0
 11
590.24999999999989
 21
-8.7483660200520035
 31
0.0
  0
LINE
  5
1A7
  8
DATA
  6
CONTINUOUS
 62
     7
 10
609.75
 20
-0.7399450962589073
 30
0.0
 11
590.24999999999989
 21
-0.7399450962589073
 31
0.0
  0
LINE
  5
1A8
  8
DATA
  6
CONTINUOUS
 62
     7
 10
609.75
 20
-391.25163397994788
 30
0.0
 11
609.75
 21
-399.26005490374109
 31
0.0
  0
LINE
  5
1A9
  8
DATA
  6
CONTINUOUS
 62
     7
 10
590.24999999999989
 20
-399.26005490374109
 30
0.0
 11
590.24999999999989
 21
-391.25163397994788
 31
0.0
  0
LINE
  5
1AA
  8
DATA
  6
CONTINUOUS
 62
     7
 10
609.75
 20
-399.26005490374109
 30
0.0
 11
590.24999999999989
 21
-399.26005490374109
 31
0.0
  0
LINE
  5
1AB
  8
DATA
  6
CONTINUOUS
 62
     7
 10
408.68150987302351
 20
-191.6642135623583
 30
0.0
 11
400.73994509625879
 21
-191.6642135623583
 31
0.0
  0
LINE
  5
1AC
  8
DATA
  6
CONTINUOUS
 62
     7
 10
400.73994509625879
 20
-211.1642135623581
 30
0.0
 11
408.82570691765568
 21
-211.1642135623581
 31
0.0
  0
LINE
  5
1AD
  8
DATA
  6
CONTINUOUS
 62
     7
 10
400.73994509625879
 20
-191.6642135623581
 30
0.0
 11
400.73994509625879
 21
-211.1642135623581
 31
0.0
  0
LINE
  5
1AE
  8
DATA
  6
CONTINUOUS
 62
     7
 10
400.7399450962584
 20
-211.16421356235841
 30
0.0
 11
400.7399450962584
 21
-191.6642135623583
 31
0.0
  0
LINE
  5
1AF
  8
DATA
  6
CONTINUOUS
 62
     7
 10
791.31849012697637
 20
-191.6642135623583
 30
0.0
 11
799.26005490374121
 21
-191.6642135623583
 31
0.0
  0
LINE
  5
1B0
  8
DATA
  6
CONTINUOUS
 62
     7
 10
799.26005490374121
 20
-211.1642135623581
 30
0.0
 11
791.17429308234398
 21
-211.1642135623581
 31
0.0
  0
LINE
  5
1B1
  8
DATA
  6
CONTINUOUS
 62
     7
 10
799.26005490374121
 20
-191.6642135623581
 30
0.0
 11
799.26005490374121
 21
-211.1642135623581
 31
0.0
  0
LINE
  5
1B2
  8
DATA
  6
CONTINUOUS
 62
     7
 10
799.26005490374143
 20
-211.16421356235841
 30
0.0
 11
799.26005490374143
 21
-191.6642135623583
 31
0.0
  0
ARC
  5
1B3
  8
DATA
  6
CONTINUOUS
 62
     7
 10
136.93309310438229
 20
-65.012838826117047
 30
0.0
 40
7.9330975359884759
 50
142.36809895327571
 51
179.93943847114309
  0
ARC
  5
1B4
  8
DATA
  6
CONTINUOUS
 62
     7
 10
140.80331572504139
 20
-67.788816479637717
 30
0.0
 40
12.69416132708794
 50
112.40408537017269
 51
143.11136470072611
  0
ARC
  5
1B5
  8
DATA
  6
CONTINUOUS
 62
     7
 10
143.81205801733699
 20
-73.895327258945017
 30
0.0
 40
19.491779850284111
 50
89.447538944887441
 51
113.7393966413255
  0
ARC
  5
1B6
  8
DATA
  6
CONTINUOUS
 62
     7
 10
151.06689922952981
 20
-65.012838826117047
 30
0.0
 40
7.9330975359884697
 50
0.0605615288568126
 51
37.631901046724273
  0
ARC
  5
1B7
  8
DATA
  6
CONTINUOUS
 62
     7
 10
147.19667660887069
 20
-67.788816479637717
 30
0.0
 40
12.694161327087929
 50
36.888635299273943
 51
67.595914629827348
  0
ARC
  5
1B8
  8
DATA
  6
CONTINUOUS
 62
     7
 10
144.18793431657511
 20
-73.895327258945017
 30
0.0
 40
19.491779850284111
 50
66.260603358674445
 51
90.552461055112559
  0
ARC
  5
1B9
  8
DATA
  6
CONTINUOUS
 62
     7
 10
136.93309310438229
 20
-64.996068291534172
 30
0.0
 40
7.9330975359884697
 50
180.06056152885679
 51
217.63190104672421
  0
ARC
  5
1BA
  8
DATA
  6
CONTINUOUS
 62
     7
 10
140.80331572504139
 20
-62.220090638013517
 30
0.0
 40
12.694161327087929
 50
216.88863529927389
 51
247.59591462982729
  0
ARC
  5
1BB
  8
DATA
  6
CONTINUOUS
 62
     7
 10
143.81205801733699
 20
-56.11357985870621
 30
0.0
 40
19.491779850284111
 50
246.26060335867439
 51
270.55246105511259
  0
ARC
  5
1BC
  8
DATA
  6
CONTINUOUS
 62
     7
 10
151.06689922952981
 20
-64.996068291534172
 30
0.0
 40
7.9330975359884759
 50
322.36809895327582
 51
359.93943847114321
  0
ARC
  5
1BD
  8
DATA
  6
CONTINUOUS
 62
     7
 10
147.19667660887069
 20
-62.220090638013517
 30
0.0
 40
12.69416132708794
 50
292.40408537017282
 51
323.11136470072603
  0
ARC
  5
1BE
  8
DATA
  6
CONTINUOUS
 62
     7
 10
144.18793431657511
 20
-56.11357985870621
 30
0.0
 40
19.491779850284161
 50
269.44753894488758
 51
293.73939664132558
  0
ARC
  5
1BF
  8
DATA
  6
CONTINUOUS
 62
     7
 10
143.9390790921868
 20
-71.592708301207267
 30
0.0
 40
14.00838724711179
 50
89.750826284076183
 51
112.7413271408211
  0
ARC
  5
1C0
  8
DATA
  6
CONTINUOUS
 62
     7
 10
142.4979439313729
 20
-68.101795964609039
 30
0.0
 40
10.231778914341451
 50
112.85548532607039
 51
131.43604924493189
  0
ARC
  5
1C1
  8
DATA
  6
CONTINUOUS
 62
     7
 10
140.75080506993851
 20
-66.02654530200266
 30
0.0
 40
7.520014700598157
 50
131.9202190197627
 51
151.13782297632841
  0
ARC
  5
1C2
  8
DATA
  6
CONTINUOUS
 62
     7
 10
138.98668325312599
 20
-65.014657186093984
 30
0.0
 40
5.4866927410000521
 50
151.49961729428901
 51
179.89344671867241
  0
ARC
  5
1C3
  8
DATA
  6
CONTINUOUS
 62
     7
 10
144.06091324172519
 20
-71.592708301207267
 30
0.0
 40
14.00838724711179
 50
67.258672859178958
 51
90.249173715923803
  0
ARC
  5
1C4
  8
DATA
  6
CONTINUOUS
 62
     7
 10
145.5020484025392
 20
-68.101795964609039
 30
0.0
 40
10.231778914341451
 50
48.563950755068049
 51
67.144514673929606
  0
ARC
  5
1C5
  8
DATA
  6
CONTINUOUS
 62
     7
 10
147.2491872639736
 20
-66.02654530200266
 30
0.0
 40
7.5200147005981659
 50
28.862177023671599
 51
48.079780980237352
  0
ARC
  5
1C6
  8
DATA
  6
CONTINUOUS
 62
     7
 10
149.01330908078609
 20
-65.014657186093984
 30
0.0
 40
5.4866927410000468
 50
0.1065532813276484
 51
28.50038270571098
  0
ARC
  5
1C7
  8
DATA
  6
CONTINUOUS
 62
     7
 10
143.9390790921868
 20
-58.416198816443973
 30
0.0
 40
14.00838724711179
 50
247.25867285917889
 51
270.2491737159238
  0
ARC
  5
1C8
  8
DATA
  6
CONTINUOUS
 62
     7
 10
142.4979439313729
 20
-61.90711115304218
 30
0.0
 40
10.231778914341451
 50
228.56395075506799
 51
247.14451467392959
  0
ARC
  5
1C9
  8
DATA
  6
CONTINUOUS
 62
     7
 10
140.75080506993851
 20
-63.982361815648581
 30
0.0
 40
7.5200147005981659
 50
208.86217702367159
 51
228.0797809802373
  0
ARC
  5
1CA
  8
DATA
  6
CONTINUOUS
 62
     7
 10
138.98668325312599
 20
-64.994249931557249
 30
0.0
 40
5.4866927410000468
 50
180.10655328132759
 51
208.50038270571099
  0
ARC
  5
1CB
  8
DATA
  6
CONTINUOUS
 62
     7
 10
144.06091324172519
 20
-58.416198816443973
 30
0.0
 40
14.008387247111729
 50
269.7508262840762
 51
292.74132714082111
  0
ARC
  5
1CC
  8
DATA
  6
CONTINUOUS
 62
     7
 10
145.5020484025392
 20
-61.90711115304218
 30
0.0
 40
10.231778914341451
 50
292.85548532607038
 51
311.43604924493201
  0
ARC
  5
1CD
  8
DATA
  6
CONTINUOUS
 62
     7
 10
147.2491872639736
 20
-63.982361815648581
 30
0.0
 40
7.520014700598157
 50
311.92021901976273
 51
331.13782297632838
  0
ARC
  5
1CE
  8
DATA
  6
CONTINUOUS
 62
     7
 10
149.01330908078609
 20
-64.994249931557249
 30
0.0
 40
5.4866927410000521
 50
331.49961729428901
 51
359.89344671867218
  0
ARC
  5
1CF
  8
DATA
  6
CONTINUOUS
 62
     7
 10
136.93309310438229
 20
-334.98716117388278
 30
0.0
 40
7.9330975359884697
 50
180.06056152885719
 51
217.63190104672489
  0
ARC
  5
1D0
  8
DATA
  6
CONTINUOUS
 62
     7
 10
140.80331572504139
 20
-332.21118352036223
 30
0.0
 40
12.69416132708796
 50
216.88863529927411
 51
247.5959146298274
  0
ARC
  5
1D1
  8
DATA
  6
CONTINUOUS
 62
     7
 10
143.81205801733699
 20
-326.10467274105503
 30
0.0
 40
19.491779850284111
 50
246.26060335867439
 51
270.55246105511259
  0
ARC
  5
1D2
  8
DATA
  6
CONTINUOUS
 62
     7
 10
151.06689922952981
 20
-334.98716117388278
 30
0.0
 40
7.9330975359885452
 50
322.36809895327508
 51
359.93943847114269
  0
ARC
  5
1D3
  8
DATA
  6
CONTINUOUS
 62
     7
 10
147.19667660887069
 20
-332.21118352036223
 30
0.0
 40
12.69416132708794
 50
292.40408537017282
 51
323.1113647007258
  0
ARC
  5
1D4
  8
DATA
  6
CONTINUOUS
 62
     7
 10
144.18793431657511
 20
-326.10467274105503
 30
0.0
 40
19.491779850284161
 50
269.44753894488758
 51
293.73939664132558
  0
ARC
  5
1D5
  8
DATA
  6
CONTINUOUS
 62
     7
 10
136.93309310438229
 20
-335.00393170846593
 30
0.0
 40
7.9330975359885452
 50
142.36809895327511
 51
179.93943847114281
  0
ARC
  5
1D6
  8
DATA
  6
CONTINUOUS
 62
     7
 10
140.80331572504139
 20
-337.77990936198648
 30
0.0
 40
12.69416132708794
 50
112.40408537017269
 51
143.11136470072589
  0
ARC
  5
1D7
  8
DATA
  6
CONTINUOUS
 62
     7
 10
143.81205801733699
 20
-343.8864201412938
 30
0.0
 40
19.491779850284161
 50
89.447538944887441
 51
113.7393966413255
  0
ARC
  5
1D8
  8
DATA
  6
CONTINUOUS
 62
     7
 10
151.06689922952981
 20
-335.00393170846593
 30
0.0
 40
7.9330975359884697
 50
0.0605615288572232
 51
37.631901046724913
  0
ARC
  5
1D9
  8
DATA
  6
CONTINUOUS
 62
     7
 10
147.19667660887069
 20
-337.77990936198648
 30
0.0
 40
12.69416132708796
 50
36.888635299274149
 51
67.595914629827348
  0
ARC
  5
1DA
  8
DATA
  6
CONTINUOUS
 62
     7
 10
144.18793431657511
 20
-343.8864201412938
 30
0.0
 40
19.491779850284111
 50
66.260603358674445
 51
90.552461055112559
  0
ARC
  5
1DB
  8
DATA
  6
CONTINUOUS
 62
     7
 10
143.9390790921868
 20
-328.40729169879279
 30
0.0
 40
14.00838724711174
 50
247.2586728591788
 51
270.2491737159238
  0
ARC
  5
1DC
  8
DATA
  6
CONTINUOUS
 62
     7
 10
142.4979439313729
 20
-331.89820403539102
 30
0.0
 40
10.23177891434141
 50
228.56395075506779
 51
247.14451467392931
  0
ARC
  5
1DD
  8
DATA
  6
CONTINUOUS
 62
     7
 10
140.75080506993851
 20
-333.97345469799728
 30
0.0
 40
7.5200147005981659
 50
208.86217702367159
 51
228.0797809802373
  0
ARC
  5
1DE
  8
DATA
  6
CONTINUOUS
 62
     7
 10
138.98668325312599
 20
-334.98534281390607
 30
0.0
 40
5.4866927410000468
 50
180.106553281327
 51
208.50038270571039
  0
ARC
  5
1DF
  8
DATA
  6
CONTINUOUS
 62
     7
 10
144.06091324172519
 20
-328.40729169879279
 30
0.0
 40
14.008387247111729
 50
269.7508262840762
 51
292.74132714082111
  0
ARC
  5
1E0
  8
DATA
  6
CONTINUOUS
 62
     7
 10
145.5020484025392
 20
-331.89820403539102
 30
0.0
 40
10.231778914341341
 50
292.85548532607061
 51
311.43604924493218
  0
ARC
  5
1E1
  8
DATA
  6
CONTINUOUS
 62
     7
 10
147.2491872639736
 20
-333.97345469799728
 30
0.0
 40
7.520014700598157
 50
311.92021901976273
 51
331.13782297632838
  0
ARC
  5
1E2
  8
DATA
  6
CONTINUOUS
 62
     7
 10
149.01330908078609
 20
-334.98534281390607
 30
0.0
 40
5.4866927410000237
 50
331.49961729428952
 51
359.89344671867292
  0
ARC
  5
1E3
  8
DATA
  6
CONTINUOUS
 62
     7
 10
143.9390790921868
 20
-341.58380118355598
 30
0.0
 40
14.008387247111729
 50
89.750826284076183
 51
112.7413271408211
  0
ARC
  5
1E4
  8
DATA
  6
CONTINUOUS
 62
     7
 10
142.4979439313729
 20
-338.09288884695769
 30
0.0
 40
10.231778914341341
 50
112.85548532607071
 51
131.43604924493209
  0
ARC
  5
1E5
  8
DATA
  6
CONTINUOUS
 62
     7
 10
140.75080506993851
 20
-336.01763818435143
 30
0.0
 40
7.520014700598157
 50
131.9202190197627
 51
151.13782297632841
  0
ARC
  5
1E6
  8
DATA
  6
CONTINUOUS
 62
     7
 10
138.98668325312599
 20
-335.00575006844269
 30
0.0
 40
5.4866927410000237
 50
151.49961729428961
 51
179.893446718673
  0
ARC
  5
1E7
  8
DATA
  6
CONTINUOUS
 62
     7
 10
144.06091324172519
 20
-341.58380118355598
 30
0.0
 40
14.00838724711174
 50
67.258672859178873
 51
90.24917371592376
  0
ARC
  5
1E8
  8
DATA
  6
CONTINUOUS
 62
     7
 10
145.5020484025392
 20
-338.09288884695769
 30
0.0
 40
10.23177891434141
 50
48.563950755067843
 51
67.144514673929351
  0
ARC
  5
1E9
  8
DATA
  6
CONTINUOUS
 62
     7
 10
147.2491872639736
 20
-336.01763818435143
 30
0.0
 40
7.5200147005981659
 50
28.862177023671599
 51
48.079780980237352
  0
ARC
  5
1EA
  8
DATA
  6
CONTINUOUS
 62
     7
 10
149.01330908078609
 20
-335.00575006844269
 30
0.0
 40
5.4866927410000468
 50
0.1065532813270548
 51
28.50038270571045
  0
ARC
  5
1EB
  8
DATA
  6
CONTINUOUS
 62
     7
 10
271.5
 20
-48.043109856757837
 30
0.0
 40
1.5
 50
0.0
 51
90.0
  0
ARC
  5
1EC
  8
DATA
  6
CONTINUOUS
 62
     7
 10
272.0
 20
-131.0393218813453
 30
0.0
 40
1.9999999999999809
 50
300.00000000000119
 51
0.0
  0
ARC
  5
1ED
  8
DATA
  6
CONTINUOUS
 62
     7
 10
272.0
 20
-127.5393218813454
 30
0.0
 40
2.0
 50
0.0
 51
59.999999999998728
  0
LINE
  5
1EE
  8
DATA
  6
CONTINUOUS
 62
     7
 10
271.5
 20
-353.45689014324228
 30
0.0
 11
271.0
 21
-353.45689014324228
 31
0.0
  0
ARC
  5
1EF
  8
DATA
  6
CONTINUOUS
 62
     7
 10
271.5
 20
-351.95689014324228
 30
0.0
 40
1.5
 50
270.0
 51
0.0
  0
ARC
  5
1F0
  8
DATA
  6
CONTINUOUS
 62
     7
 10
462.57379707639473
 20
-65.19009216678478
 30
0.0
 40
2.0000000000000151
 50
135.0000000000023
 51
225.0000000000046
  0
ARC
  5
1F1
  8
DATA
  6
CONTINUOUS
 62
     7
 10
465.19009216678478
 20
-62.573797076394499
 30
0.0
 40
2.0000000000000151
 50
45.0
 51
135.0000000000023
  0
LINE
  5
1F2
  8
DATA
  6
CONTINUOUS
 62
     7
 10
732.66121895293929
 20
-61.894058831923928
 30
0.0
 11
733.39569427084211
 21
-61.159583514021378
 31
0.0
  0
LINE
  5
1F3
  8
DATA
  6
CONTINUOUS
 62
     7
 10
738.84041648597827
 20
-66.604305729157986
 30
0.0
 11
738.10594116807636
 21
-67.338781047059683
 31
0.0
  0
LINE
  5
1F4
  8
DATA
  6
CONTINUOUS
 62
     7
 10
736.22412139558833
 20
-61.159583514021449
 30
0.0
 11
738.84041648597838
 21
-63.775878604411723
 31
0.0
  0
ARC
  5
1F5
  8
DATA
  6
CONTINUOUS
 62
     7
 10
737.42620292360505
 20
-65.19009216678478
 30
0.0
 40
2.0000000000000151
 50
314.9999999999954
 51
44.999999999996582
  0
ARC
  5
1F6
  8
DATA
  6
CONTINUOUS
 62
     7
 10
734.80990783321522
 20
-62.573797076394499
 30
0.0
 40
1.9999999999999749
 50
44.999999999998849
 51
135.0
  0
LINE
  5
1F7
  8
DATA
  6
CONTINUOUS
 62
     7
 10
467.33878104706048
 20
-338.10594116807601
 30
0.0
 11
466.60430572915789
 21
-338.84041648597849
 31
0.0
  0
LINE
  5
1F8
  8
DATA
  6
CONTINUOUS
 62
     7
 10
461.15958351402162
 20
-333.39569427084189
 30
0.0
 11
461.89405883192347
 21
-332.66121895294032
 31
0.0
  0
LINE
  5
1F9
  8
DATA
  6
CONTINUOUS
 62
     7
 10
463.77587860441162
 20
-338.84041648597849
 30
0.0
 11
461.15958351402151
 21
-336.22412139558821
 31
0.0
  0
ARC
  5
1FA
  8
DATA
  6
CONTINUOUS
 62
     7
 10
462.57379707639473
 20
-334.80990783321522
 30
0.0
 40
2.0000000000000959
 50
134.99999999999301
 51
224.9999999999965
  0
ARC
  5
1FB
  8
DATA
  6
CONTINUOUS
 62
     7
 10
465.19009216678478
 20
-337.42620292360539
 30
0.0
 40
2.000000000000056
 50
224.99999999999889
 51
315.0
  0
LINE
  5
1FC
  8
DATA
  6
CONTINUOUS
 62
     7
 10
732.66121895293929
 20
-338.10594116807601
 30
0.0
 11
733.39569427084211
 21
-338.84041648597849
 31
0.0
  0
LINE
  5
1FD
  8
DATA
  6
CONTINUOUS
 62
     7
 10
738.84041648597827
 20
-333.39569427084189
 30
0.0
 11
738.10594116807636
 21
-332.66121895294032
 31
0.0
  0
LINE
  5
1FE
  8
DATA
  6
CONTINUOUS
 62
     7
 10
736.22412139558833
 20
-338.84041648597849
 30
0.0
 11
738.84041648597838
 21
-336.22412139558821
 31
0.0
  0
ARC
  5
1FF
  8
DATA
  6
CONTINUOUS
 62
     7
 10
737.42620292360505
 20
-334.80990783321522
 30
0.0
 40
2.0000000000000151
 50
315.0000000000046
 51
45.000000000006878
  0
ARC
  5
200
  8
DATA
  6
CONTINUOUS
 62
     7
 10
734.80990783321522
 20
-337.42620292360539
 30
0.0
 40
2.0000000000000151
 50
225.0
 51
315.0
  0
LINE
  5
201
  8
DATA
  6
CONTINUOUS
 62
     7
 10
631.46625176280133
 20
-61.05351749684349
 30
0.0
 11
738.94648250315663
 21
-168.53374823719881
 31
0.0
  0
LINE
  5
202
  8
DATA
  6
CONTINUOUS
 62
     7
 10
643.48706704297263
 20
-49.032702216672192
 30
0.0
 11
750.96729778332792
 21
-156.51293295702749
 31
0.0
  0
LINE
  5
203
  8
DATA
  6
CONTINUOUS
 62
     7
 10
554.3916126134676
 20
-81.559614151253314
 30
0.0
 11
718.44038584874681
 21
-245.60838738653231
 31
0.0
  0
LINE
  5
204
  8
DATA
  6
CONTINUOUS
 62
     7
 10
542.3707973332962
 20
-93.580429431424704
 30
0.0
 11
706.41957056857541
 21
-257.62920266670369
 31
0.0
  0
ARC
  5
205
  8
DATA
  6
CONTINUOUS
 62
     7
 10
744.95689014324205
 20
-162.52334059711299
 30
0.0
 40
8.4999999999999876
 50
225.00000000000111
 51
44.999999999998948
  0
ARC
  5
206
  8
DATA
  6
CONTINUOUS
 62
     7
 10
637.47665940288687
 20
-55.043109856757837
 30
0.0
 40
8.4999999999999876
 50
45.0
 51
225.0
  0
ARC
  5
207
  8
DATA
  6
CONTINUOUS
 62
     7
 10
712.42997820866105
 20
-251.61879502661799
 30
0.0
 40
8.4999999999999876
 50
225.0
 51
45.000000000000547
  0
ARC
  5
208
  8
DATA
  6
CONTINUOUS
 62
     7
 10
548.38120497338195
 20
-87.570021791339045
 30
0.0
 40
8.5000000000000693
 50
45.000000000000547
 51
224.9999999999996
  0
LINE
  5
209
  8
DATA
  6
CONTINUOUS
 62
     7
 10
461.05351749684331
 20
-231.46625176280139
 30
0.0
 11
568.53374823719844
 21
-338.94648250315669
 31
0.0
  0
LINE
  5
20A
  8
DATA
  6
CONTINUOUS
 62
     7
 10
449.03270221667202
 20
-243.4870670429728
 30
0.0
 11
556.51293295702726
 21
-350.96729778332809
 31
0.0
  0
LINE
  5
20B
  8
DATA
  6
CONTINUOUS
 62
     7
 10
481.5596141512533
 20
-154.39161261346769
 30
0.0
 11
645.60838738653217
 21
-318.4403858487467
 31
0.0
  0
LINE
  5
20C
  8
DATA
  6
CONTINUOUS
 62
     7
 10
493.58042943142448
 20
-142.37079733329639
 30
0.0
 11
657.62920266670369
 21
-306.41957056857541
 31
0.0
  0
ARC
  5
20D
  8
DATA
  6
CONTINUOUS
 62
     7
 10
562.52334059711291
 20
-344.95689014324239
 30
0.0
 40
8.4999999999999876
 50
225.0
 51
45.0
  0
ARC
  5
20E
  8
DATA
  6
CONTINUOUS
 62
     7
 10
455.04310985675761
 20
-237.47665940288721
 30
0.0
 40
8.5000000000000693
 50
45.000000000000547
 51
224.9999999999994
  0
ARC
  5
20F
  8
DATA
  6
CONTINUOUS
 62
     7
 10
651.61879502661793
 20
-312.42997820866123
 30
0.0
 40
8.4999999999999076
 50
224.9999999999994
 51
45.000000000000547
  0
ARC
  5
210
  8
DATA
  6
CONTINUOUS
 62
     7
 10
487.57002179133877
 20
-148.38120497338221
 30
0.0
 40
8.5000000000001084
 50
45.00000000000027
 51
224.9999999999994
  0
CIRCLE
  5
211
  8
DATA
  6
CONTINUOUS
 62
     7
 10
599.99999999999989
 20
-200.0
 30
0.0
 40
10.50000000000008
  0
CIRCLE
  5
212
  8
DATA
  6
CONTINUOUS
 62
     7
 10
599.99999999999989
 20
-200.0
 30
0.0
 40
15.00000000000008
  0
CIRCLE
  5
213
  8
DATA
  6
CONTINUOUS
 62
     7
 10
529.28932188134524
 20
-270.71067811865493
 30
0.0
 40
3.7499999999999898
  0
LINE
  5
214
  8
DATA
  6
CONTINUOUS
 62
     7
 10
530.70353544371835
 20
-272.12489168102798
 30
0.0
 11
527.87510831897214
 21
-269.29646455628182
 31
0.0
  0
LINE
  5
215
  8
DATA
  6
CONTINUOUS
 62
     7
 10
530.70353544371824
 20
-269.29646455628182
 30
0.0
 11
527.87510831897214
 21
-272.12489168102798
 31
0.0
  0
CIRCLE
  5
216
  8
DATA
  6
CONTINUOUS
 62
     7
 10
670.71067811865453
 20
-129.2893218813453
 30
0.0
 40
3.7499999999999898
  0
LINE
  5
217
  8
DATA
  6
CONTINUOUS
 62
     7
 10
672.12489168102775
 20
-130.70353544371849
 30
0.0
 11
669.29646455628153
 21
-127.8751083189722
 31
0.0
  0
LINE
  5
218
  8
DATA
  6
CONTINUOUS
 62
     7
 10
669.29646455628153
 20
-130.70353544371849
 30
0.0
 11
672.12489168102775
 21
-127.8751083189722
 31
0.0
  0
CIRCLE
  5
219
  8
DATA
  6
CONTINUOUS
 62
     7
 10
670.71067811865453
 20
-270.71067811865493
 30
0.0
 40
3.7499999999999898
  0
LINE
  5
21A
  8
DATA
  6
CONTINUOUS
 62
     7
 10
672.12489168102775
 20
-269.29646455628182
 30
0.0
 11
669.29646455628153
 21
-272.12489168102798
 31
0.0
  0
LINE
  5
21B
  8
DATA
  6
CONTINUOUS
 62
     7
 10
669.29646455628153
 20
-269.29646455628182
 30
0.0
 11
672.12489168102775
 21
-272.12489168102798
 31
0.0
  0
CIRCLE
  5
21C
  8
DATA
  6
CONTINUOUS
 62
     7
 10
529.28932188134513
 20
-129.2893218813453
 30
0.0
 40
3.7499999999999898
  0
LINE
  5
21D
  8
DATA
  6
CONTINUOUS
 62
     7
 10
530.70353544371824
 20
-127.8751083189722
 30
0.0
 11
527.87510831897202
 21
-130.70353544371849
 31
0.0
  0
LINE
  5
21E
  8
DATA
  6
CONTINUOUS
 62
     7
 10
530.70353544371824
 20
-130.70353544371849
 30
0.0
 11
527.87510831897202
 21
-127.8751083189722
 31
0.0
  0
LINE
  5
21F
  8
DATA
  6
CONTINUOUS
 62
     7
 10
274.0
 20
-272.46067811865493
 30
0.0
 11
274.0
 21
-268.96067811865493
 31
0.0
  0
ARC
  5
220
  8
DATA
  6
CONTINUOUS
 62
     7
 10
272.0
 20
-272.46067811865493
 30
0.0
 40
1.9999999999999809
 50
300.00000000000119
 51
0.0
  0
ARC
  5
221
  8
DATA
  6
CONTINUOUS
 62
     7
 10
272.0
 20
-268.96067811865493
 30
0.0
 40
2.0
 50
0.0
 51
59.999999999998728
  0
CIRCLE
  5
222
  8
DATA
  6
CONTINUOUS
 62
     7
 10
600.0
 20
-200.0
 30
0.0
 40
189.5
  0
ENDSEC
  0
EOF
