  0
SECTION
  2
HEADER
  9
$ACADVER
  1
AC1009
  9
$INSBASE
 10
0.0
 20
0.0
 30
0.0
  9
$EXTMIN
 10
-170.0164782349211
 20
-265.06859875045438
 30
-0.0015258207003583
  9
$EXTMAX
 10
370.01648074949219
 20
537.08808227102497
 30
0.0000000349246037
  9
$LIMMIN
 10
0.0
 20
0.0
  9
$LIMMAX
 10
0.0
 20
0.0
  9
$ORTHOMODE
 70
     0
  9
$REGENMODE
 70
     1
  9
$FILLMODE
 70
     1
  9
$QTEXTMODE
 70
     0
  9
$MIRRTEXT
 70
     1
  9
$DRAGMODE
 70
     2
  9
$LTSCALE
 40
15.24
  9
$OSMODE
 70
   167
  9
$ATTMODE
 70
     1
  9
$TEXTSIZE
 40
0.0
  9
$TRACEWID
 40
1.0
  9
$TEXTSTYLE
  7
STANDARD
  9
$CLAYER
  8
DATA
  9
$CELTYPE
  6
CONTINUOUS
  9
$CECOLOR
 62
   256
  9
$DIMSCALE
 40
1.0
  9
$DIMASZ
 40
0.18
  9
$DIMEXO
 40
0.0625
  9
$DIMDLI
 40
0.38
  9
$DIMRND
 40
0.0
  9
$DIMDLE
 40
0.0
  9
$DIMEXE
 40
0.18
  9
$DIMTP
 40
0.0
  9
$DIMTM
 40
0.0
  9
$DIMTXT
 40
0.18
  9
$DIMCEN
 40
0.09
  9
$DIMTSZ
 40
0.0
  9
$DIMTOL
 70
     0
  9
$DIMLIM
 70
     0
  9
$DIMTIH
 70
     1
  9
$DIMTOH
 70
     1
  9
$DIMSE1
 70
     0
  9
$DIMSE2
 70
     0
  9
$DIMTAD
 70
     0
  9
$DIMZIN
 70
     0
  9
$DIMBLK
  1

  9
$DIMASO
 70
     1
  9
$DIMSHO
 70
     1
  9
$DIMPOST
  1

  9
$DIMAPOST
  1

  9
$DIMALT
 70
     0
  9
$DIMALTD
 70
     2
  9
$DIMALTF
 40
25.399999999999999
  9
$DIMLFAC
 40
1.0
  9
$DIMTOFL
 70
     0
  9
$DIMTVP
 40
0.0
  9
$DIMTIX
 70
     0
  9
$DIMSOXD
 70
     0
  9
$DIMSAH
 70
     0
  9
$DIMBLK1
  1

  9
$DIMBLK2
  1

  9
$DIMSTYLE
  2
STANDARD
  9
$DIMCLRD
 70
     0
  9
$DIMCLRE
 70
     0
  9
$DIMCLRT
 70
     0
  9
$DIMTFAC
 40
1.0
  9
$DIMGAP
 40
0.09
  9
$LUNITS
 70
     2
  9
$LUPREC
 70
     4
  9
$SKETCHINC
 40
0.1
  9
$FILLETRAD
 40
0.0
  9
$AUNITS
 70
     0
  9
$AUPREC
 70
     0
  9
$MENU
  1
acad
  9
$ELEVATION
 40
0.0
  9
$PELEVATION
 40
0.0
  9
$THICKNESS
 40
0.0
  9
$LIMCHECK
 70
     0
  9
$BLIPMODE
 70
     0
  9
$CHAMFERA
 40
0.0
  9
$CHAMFERB
 40
0.0
  9
$SKPOLY
 70
     0
  9
$TDCREATE
 40
2452794.7671180549
  9
$TDUPDATE
 40
2452794.7677445598
  9
$TDINDWG
 40
0.000343287
  9
$TDUSRTIMER
 40
0.0003414352
  9
$USRTIMER
 70
     1
  9
$ANGBASE
 50
0.0
  9
$ANGDIR
 70
     0
  9
$PDMODE
 70
     1
  9
$PDSIZE
 40
-2.0
  9
$PLINEWID
 40
0.0
  9
$COORDS
 70
     0
  9
$SPLFRAME
 70
     0
  9
$SPLINETYPE
 70
     6
  9
$SPLINESEGS
 70
     8
  9
$ATTDIA
 70
     0
  9
$ATTREQ
 70
     1
  9
$HANDLING
 70
     1
  9
$HANDSEED
  5
232
  9
$SURFTAB1
 70
     6
  9
$SURFTAB2
 70
     6
  9
$SURFTYPE
 70
     6
  9
$SURFU
 70
     6
  9
$SURFV
 70
     6
  9
$UCSNAME
  2

  9
$UCSORG
 10
0.0
 20
0.0
 30
0.0
  9
$UCSXDIR
 10
1.0
 20
0.0
 30
0.0
  9
$UCSYDIR
 10
0.0
 20
1.0
 30
0.0
  9
$PUCSNAME
  2

  9
$PUCSORG
 10
0.0
 20
0.0
 30
0.0
  9
$PUCSXDIR
 10
1.0
 20
0.0
 30
0.0
  9
$PUCSYDIR
 10
0.0
 20
1.0
 30
0.0
  9
$USERI1
 70
     0
  9
$USERI2
 70
     0
  9
$USERI3
 70
     0
  9
$USERI4
 70
     0
  9
$USERI5
 70
     0
  9
$USERR1
 40
0.0
  9
$USERR2
 40
0.0
  9
$USERR3
 40
0.0
  9
$USERR4
 40
0.0
  9
$USERR5
 40
0.0
  9
$WORLDVIEW
 70
     1
  9
$SHADEDGE
 70
     3
  9
$SHADEDIF
 70
    70
  9
$TILEMODE
 70
     1
  9
$MAXACTVP
 70
    16
  9
$PLIMCHECK
 70
     0
  9
$PEXTMIN
 10
1.0000000000000000E+020
 20
1.0000000000000000E+020
 30
1.0000000000000000E+020
  9
$PEXTMAX
 10
-1.0000000000000000E+020
 20
-1.0000000000000000E+020
 30
-1.0000000000000000E+020
  9
$PLIMMIN
 10
0.0
 20
0.0
  9
$PLIMMAX
 10
12.0
 20
9.0
  9
$UNITMODE
 70
     0
  9
$VISRETAIN
 70
     0
  9
$PLINEGEN
 70
     1
  9
$PSLTSCALE
 70
     0
  0
ENDSEC
  0
SECTION
  2
TABLES
  0
TABLE
  2
VPORT
 70
     2
  0
VPORT
  2
*ACTIVE
 70
     0
 10
0.0
 20
0.0
 11
1.0
 21
1.0
 12
100.0000012572854
 22
136.00974176028541
 13
0.0
 23
0.0
 14
1.0
 24
1.0
 15
0.0
 25
0.0
 16
0.0
 26
0.0
 36
1.0
 17
0.0
 27
0.0
 37
0.0
 40
810.78202167762447
 41
1.703770197486534
 42
50.0
 43
0.0
 44
0.0
 50
0.0
 51
0.0
 71
     0
 72
   100
 73
     1
 74
     1
 75
     0
 76
     0
 77
     0
 78
     0
  0
ENDTAB
  0
TABLE
  2
LTYPE
 70
    11
  0
LTYPE
  2
CONTINUOUS
 70
     0
  3
Solid line
 72
    65
 73
     0
 40
0.0
  0
LTYPE
  2
STYLE_01
 70
     0
  3

 72
    65
 73
     2
 40
0.4166412353515625
 49
0.208282470703125
 49
-0.2083587646484375
  0
LTYPE
  2
STYLE_02
 70
     0
  3

 72
    65
 73
     2
 40
0.694427490234375
 49
0.4860687255859375
 49
-0.2083587646484375
  0
LTYPE
  2
STYLE_03
 70
     0
  3

 72
    65
 73
     2
 40
1.25
 49
1.0416412353515621
 49
-0.2083587646484375
  0
LTYPE
  2
STYLE_04
 70
     0
  3

 72
    65
 73
     2
 40
1.5277099609375
 49
1.319427490234375
 49
-0.208282470703125
  0
LTYPE
  2
STYLE_05
 70
     0
  3

 72
    65
 73
     2
 40
0.208282470703125
 49
0.069427490234375
 49
-0.13885498046875
  0
LTYPE
  2
STYLE_06
 70
     0
  3

 72
    65
 73
     4
 40
1.0416412353515621
 49
0.625
 49
-0.208282470703125
 49
0.069427490234375
 49
-0.1389312744140625
  0
LTYPE
  2
STYLE_07
 70
     0
  3

 72
    65
 73
     6
 40
1.875
 49
0.625
 49
-0.208282470703125
 49
0.625
 49
-0.2083587646484375
 49
0.069427490234375
 49
-0.1389312744140625
  0
LTYPE
  2
STYLE_08
 70
     0
  3

 72
    65
 73
     6
 40
1.25
 49
0.625
 49
-0.208282470703125
 49
0.069427490234375
 49
-0.1389312744140625
 49
0.069427490234375
 49
-0.1389312744140625
  0
LTYPE
  2
STYLE_09
 70
     0
  3

 72
    65
 73
     4
 40
5.0
 49
3.75
 49
-0.2777862548828125
 49
0.694427490234375
 49
-0.2777862548828125
  0
LTYPE
  2
STYLE_10
 70
     0
  3

 72
    65
 73
     6
 40
5.9375
 49
3.75
 49
-0.2777862548828125
 49
0.694427490234375
 49
-0.2777862548828125
 49
0.625
 49
-0.3125
  0
ENDTAB
  0
TABLE
  2
LAYER
 70
     6
  0
LAYER
  2
0
 70
     0
 62
     7
  6
CONTINUOUS
  0
LAYER
  2
DATA
 70
     0
 62
     7
  6
CONTINUOUS
  0
LAYER
  2
DEFPOINTS
 70
     0
 62
     7
  6
CONTINUOUS
  0
LAYER
  2
HIBINO-BASE
 70
     0
 62
     7
  6
CONTINUOUS
  0
LAYER
  2
SPEC
 70
     0
 62
     7
  6
CONTINUOUS
  0
LAYER
  2
DIMNSIONS
 70
     0
 62
     7
  6
CONTINUOUS
  0
ENDTAB
  0
TABLE
  2
STYLE
 70
     2
  0
STYLE
  2
STANDARD
 70
     0
 40
0.0
 41
1.0
 50
0.0
 71
     0
 42
0.0
  3
txt
  4
BIGFONT.SHX
  0
ENDTAB
  0
TABLE
  2
VIEW
 70
     0
  0
ENDTAB
  0
TABLE
  2
UCS
 70
     0
  0
ENDTAB
  0
TABLE
  2
APPID
 70
     1
  0
APPID
  2
ACAD
 70
     0
  0
ENDTAB
  0
TABLE
  2
DIMSTYLE
 70
     1
  0
DIMSTYLE
  2
STANDARD
 70
     0
  3

  4

  5

  6

  7

 40
1.0
 41
0.18
 42
0.0625
 43
0.38
 44
0.18
 45
0.0
 46
0.0
 47
0.0
 48
0.0
140
0.18
141
0.09
142
0.0
143
25.399999999999999
144
1.0
145
0.0
146
1.0
147
0.09
 71
     0
 72
     0
 73
     1
 74
     1
 75
     0
 76
     0
 77
     0
 78
     0
170
     0
171
     2
172
     0
173
     0
174
     0
175
     0
176
     0
177
     0
178
     0
  0
ENDTAB
  0
ENDSEC
  0
SECTION
  2
BLOCKS
  0
BLOCK
  8
0
  2
$MODEL_SPACE
 70
     0
 10
0.0
 20
0.0
 30
0.0
  3
$MODEL_SPACE
  1

  0
ENDBLK
  5
1EE
  8
0
  0
BLOCK
 67
     1
  8
0
  2
$PAPER_SPACE
 70
     0
 10
0.0
 20
0.0
 30
0.0
  3
$PAPER_SPACE
  1

  0
ENDBLK
  5
1EA
 67
     1
  8
0
  0
ENDSEC
  0
SECTION
  2
ENTITIES
  0
LINE
  5
2D
  8
HIBINO-BASE
  6
CONTINUOUS
 62
     7
 10
-169.99999999999989
 20
537.06362999999999
 30
0.0
 11
370.0
 21
537.06362999999999
 31
0.0
  0
LINE
  5
2E
  8
HIBINO-BASE
  6
CONTINUOUS
 62
     7
 10
370.0
 20
-242.93637000000001
 30
0.0
 11
-169.99999999999989
 21
-242.93637000000001
 31
0.0
  0
LINE
  5
2F
  8
HIBINO-BASE
  6
CONTINUOUS
 62
     7
 10
-169.99999999999989
 20
-242.93637000000001
 30
0.0
 11
-169.99999999999989
 21
537.06362999999999
 31
0.0
  0
TEXT
  5
30
  8
HIBINO-BASE
  6
CONTINUOUS
 62
     7
 10
-148.44799999999989
 20
-261.32032199999992
 30
0.0
 40
11.227752000000001
  1
Hibino Corporation
 41
0.85
 11
-148.44799999999989
 21
-250.09256999999991
 31
0.0
 73
     3
  0
LINE
  5
31
  8
HIBINO-BASE
  6
CONTINUOUS
 62
     7
 10
370.0
 20
537.06362999999999
 30
0.0
 11
370.0
 21
-242.93637000000001
 31
0.0
  0
TEXT
  5
32
  8
HIBINO-BASE
  6
CONTINUOUS
 62
     7
 10
250.2051699999999
 20
-261.32032199999992
 30
0.0
 40
11.227752000000001
  1
ヒビノ株式会社
 41
0.85
 11
250.2051699999999
 21
-250.09256999999991
 31
0.0
 73
     3
  0
LINE
  5
33
  8
HIBINO-BASE
  6
CONTINUOUS
 62
     7
 10
96.250000000000057
 20
-175.4363699999999
 30
0.0
 11
370.0
 21
-175.4363699999999
 31
0.0
  0
LINE
  5
34
  8
HIBINO-BASE
  6
CONTINUOUS
 62
     7
 10
96.250000000000057
 20
-212.9363699999999
 30
0.0
 11
370.0
 21
-212.9363699999999
 31
0.0
  0
TEXT
  5
35
  8
HIBINO-BASE
  6
CONTINUOUS
 62
     7
 10
245.1999999999999
 20
-219.91248999999999
 30
0.0
 40
5.0799999999999992
  1
DRAWN
 41
0.85
 11
245.1999999999999
 21
-214.83248999999989
 31
0.0
 73
     3
  0
TEXT
  5
36
  8
HIBINO-BASE
  6
CONTINUOUS
 62
     7
 10
320.19999999999987
 20
-219.91248999999999
 30
0.0
 40
5.0799999999999992
  1
DRAWING NO.
 41
0.85
 11
320.19999999999987
 21
-214.83248999999989
 31
0.0
 73
     3
  0
TEXT
  5
37
  8
HIBINO-BASE
  6
CONTINUOUS
 62
     7
 10
282.69999999999987
 20
-219.91248999999999
 30
0.0
 40
5.0799999999999992
  1
CHECK
 41
0.85
 11
282.69999999999987
 21
-214.83248999999989
 31
0.0
 73
     3
  0
LINE
  5
38
  8
HIBINO-BASE
  6
CONTINUOUS
 62
     7
 10
242.5
 20
-212.9363699999999
 30
0.0
 11
242.5
 21
-242.93637000000001
 31
0.0
  0
LINE
  5
39
  8
HIBINO-BASE
  6
CONTINUOUS
 62
     7
 10
317.5
 20
-212.9363699999999
 30
0.0
 11
317.5
 21
-242.93637000000001
 31
0.0
  0
LINE
  5
3A
  8
HIBINO-BASE
  6
CONTINUOUS
 62
     7
 10
280.0
 20
-242.93637000000001
 30
0.0
 11
280.0
 21
-212.9363699999999
 31
0.0
  0
TEXT
  5
3B
  8
HIBINO-BASE
  6
CONTINUOUS
 62
     7
 10
247.01743003310381
 20
-233.96442999999999
 30
0.0
 40
5.0799999999999992
  1
N.Sasaki
 41
0.85
 11
247.01743003310381
 21
-228.88443000000001
 31
0.0
 73
     3
  0
TEXT
  5
3C
  8
HIBINO-BASE
  6
CONTINUOUS
 62
     7
 10
111.65000000000001
 20
-236.2463699999999
 30
0.0
 40
10.159999999999989
  1
A4
 41
0.85
 11
111.65000000000001
 21
-226.0863699999999
 31
0.0
 73
     3
  0
TEXT
  5
3D
  8
HIBINO-BASE
  6
CONTINUOUS
 62
     7
 10
173.94999999999999
 20
-219.91248999999999
 30
0.0
 40
5.0799999999999992
  1
DATE
 41
0.85
 11
173.94999999999999
 21
-214.83248999999989
 31
0.0
 73
     3
  0
TEXT
  5
3E
  8
HIBINO-BASE
  6
CONTINUOUS
 62
     7
 10
143.94999999999999
 20
-219.91248999999999
 30
0.0
 40
5.0799999999999992
  1
SCALE
 41
0.85
 11
143.94999999999999
 21
-214.83248999999989
 31
0.0
 73
     3
  0
LINE
  5
3F
  8
HIBINO-BASE
  6
CONTINUOUS
 62
     7
 10
146.875
 20
-239.18637000000001
 30
0.0
 11
158.125
 21
-227.9363699999999
 31
0.0
  0
TEXT
  5
40
  8
HIBINO-BASE
  6
CONTINUOUS
 62
     7
 10
145.0
 20
-230.88220000000001
 30
0.0
 40
5.0799999999999992
  1
1
 41
0.85
 11
145.0
 21
-225.80219999999991
 31
0.0
 73
     3
  0
LINE
  5
41
  8
HIBINO-BASE
  6
CONTINUOUS
 62
     7
 10
141.25
 20
-242.93637000000001
 30
0.0
 11
141.25
 21
-212.9363699999999
 31
0.0
  0
LINE
  5
42
  8
HIBINO-BASE
  6
CONTINUOUS
 62
     7
 10
171.25
 20
-242.93637000000001
 30
0.0
 11
171.25
 21
-212.9363699999999
 31
0.0
  0
TEXT
  5
43
  8
HIBINO-BASE
  6
CONTINUOUS
 62
     7
 10
173.8196199999999
 20
-233.96442999999999
 30
0.0
 40
5.0799999999999992
  1
'03.03.
 41
0.85
 11
173.8196199999999
 21
-228.88443000000001
 31
0.0
 73
     3
  0
TEXT
  5
44
  8
HIBINO-BASE
  6
CONTINUOUS
 62
     7
 10
156.25
 20
-236.50720000000001
 30
0.0
 40
5.0799999999999992
  1
3
 41
0.85
 11
156.25
 21
-231.42719999999991
 31
0.0
 73
     3
  0
LINE
  5
45
  8
HIBINO-BASE
  6
CONTINUOUS
 62
     7
 10
208.75
 20
-242.93637000000001
 30
0.0
 11
208.75
 21
-175.4363699999999
 31
0.0
  0
TEXT
  5
46
  8
HIBINO-BASE
  6
CONTINUOUS
 62
     7
 10
211.44999999999999
 20
-182.5814499999999
 30
0.0
 40
5.0799999999999992
  1
TITLE
 41
0.85
 11
211.44999999999999
 21
-177.50144999999989
 31
0.0
 73
     3
  0
TEXT
  5
47
  8
HIBINO-BASE
  6
CONTINUOUS
 62
     7
 10
211.44999999999999
 20
-219.91248999999999
 30
0.0
 40
5.0799999999999992
  1
DESIGN
 41
0.85
 11
211.44999999999999
 21
-214.83248999999989
 31
0.0
 73
     3
  0
LINE
  5
48
  8
HIBINO-BASE
  6
CONTINUOUS
 62
     7
 10
96.250000000000057
 20
-242.93637000000001
 30
0.0
 11
96.250000000000057
 21
-175.4363699999999
 31
0.0
  0
TEXT
  5
49
  8
HIBINO-BASE
  6
CONTINUOUS
 62
     7
 10
98.950000000000017
 20
-182.5814499999999
 30
0.0
 40
5.0799999999999992
  1
NOTE
 41
0.85
 11
98.950000000000017
 21
-177.50144999999989
 31
0.0
 73
     3
  0
TEXT
  5
4A
  8
HIBINO-BASE
  6
CONTINUOUS
 62
     7
 10
99.125000000000043
 20
-220.41373499999989
 30
0.0
 40
5.0799999999999992
  1
PAPER SIZE
 41
0.85
 11
99.125000000000043
 21
-215.33373499999999
 31
0.0
 73
     3
  0
LINE
  5
4B
  8
SPEC
  6
CONTINUOUS
 62
     7
 10
-147.49999999999989
 20
507.06362999999988
 30
0.0
 11
0.0
 21
507.06362999999988
 31
0.0
  0
LINE
  5
4C
  8
SPEC
  6
CONTINUOUS
 62
     7
 10
-147.49999999999989
 20
495.81362999999988
 30
0.0
 11
0.0
 21
495.81362999999988
 31
0.0
  0
LINE
  5
4D
  8
SPEC
  6
CONTINUOUS
 62
     7
 10
-147.49999999999989
 20
507.06362999999988
 30
0.0
 11
-147.49999999999989
 21
495.81362999999988
 31
0.0
  0
TEXT
  5
4E
  8
SPEC
  6
CONTINUOUS
 62
     7
 10
-143.74999999999989
 20
511.81493999999998
 30
0.0
 40
7.6199999999999983
  1
仕様
 41
0.85
 11
-143.74999999999989
 21
519.43493999999998
 31
0.0
 73
     3
  0
LINE
  5
4F
  8
SPEC
  6
CONTINUOUS
 62
     7
 10
-50.0
 20
507.06362999999988
 30
0.0
 11
-50.0
 21
495.81362999999988
 31
0.0
  0
LINE
  5
50
  8
SPEC
  6
CONTINUOUS
 62
     7
 10
0.0
 20
507.06362999999988
 30
0.0
 11
0.0
 21
495.81362999999988
 31
0.0
  0
TEXT
  5
51
  8
SPEC
  6
CONTINUOUS
 62
     7
 10
-144.80000000000001
 20
498.62189399999988
 30
0.0
 40
5.9266560000000004
  1
重量
 41
0.85
 11
-144.80000000000001
 21
504.54854999999981
 31
0.0
 73
     3
  0
TEXT
  5
52
  8
SPEC
  6
CONTINUOUS
 62
     7
 10
-47.29999999999999
 20
498.62189399999988
 30
0.0
 40
5.9266560000000004
  1
約1kg
 41
0.85
 11
-47.29999999999999
 21
504.54854999999981
 31
0.0
 73
     3
  0
TEXT
  5
53
  8
DIMNSIONS
  6
CONTINUOUS
 62
     7
 10
39.999999999999993
 20
-205.55639999999991
 30
0.0
 40
7.6199999999999983
  1
(単位：mm)
 41
0.85
 11
39.999999999999993
 21
-197.93639999999991
 31
0.0
 73
     3
  0
LINE
  5
54
  8
DIMNSIONS
  6
CONTINUOUS
 62
     7
 10
153.99999
 20
465.5
 30
0.0
 11
94.0
 21
465.5
 31
0.0
  0
LINE
  5
55
  8
DIMNSIONS
  6
CONTINUOUS
 62
     7
 10
153.99999
 20
359.5
 30
0.0
 11
94.0
 21
359.5
 31
0.0
  0
LINE
  5
56
  8
DIMNSIONS
  6
CONTINUOUS
 62
     7
 10
100.0
 20
465.5
 30
0.0
 11
100.0
 21
359.5
 31
0.0
  0
LINE
  5
57
  8
DIMNSIONS
  6
CONTINUOUS
 62
     7
 10
100.0
 20
465.5
 30
0.0
 11
102.01011938545069
 21
457.99813232421877
 31
0.0
  0
LINE
  5
58
  8
DIMNSIONS
  6
CONTINUOUS
 62
     7
 10
100.0
 20
465.5
 30
0.0
 11
97.989880614549264
 21
457.99813232421877
 31
0.0
  0
LINE
  5
59
  8
DIMNSIONS
  6
CONTINUOUS
 62
     7
 10
100.0
 20
359.5
 30
0.0
 11
97.989880614549264
 21
367.00186767578111
 31
0.0
  0
LINE
  5
5A
  8
DIMNSIONS
  6
CONTINUOUS
 62
     7
 10
100.0
 20
359.5
 30
0.0
 11
102.01011938545069
 21
367.00186767578111
 31
0.0
  0
TEXT
  5
5B
  8
DIMNSIONS
  6
CONTINUOUS
 62
     7
 10
96.383333333333354
 20
404.5625
 30
0.0
 40
8.466666666666665
  1
106
 50
90.0
 41
0.85
 11
87.916666666666686
 21
404.5625
 31
0.0
 73
     3
  0
LINE
  5
5C
  8
DIMNSIONS
  6
CONTINUOUS
 62
     7
 10
157.99999
 20
469.5
 30
0.0
 11
157.99999
 21
481.0
 31
0.0
  0
LINE
  5
5D
  8
DIMNSIONS
  6
CONTINUOUS
 62
     7
 10
285.99999000000003
 20
469.5
 30
0.0
 11
285.99999000000003
 21
481.0
 31
0.0
  0
LINE
  5
5E
  8
DIMNSIONS
  6
CONTINUOUS
 62
     7
 10
157.99999
 20
475.0
 30
0.0
 11
285.99999000000003
 21
475.0
 31
0.0
  0
LINE
  5
5F
  8
DIMNSIONS
  6
CONTINUOUS
 62
     7
 10
157.99999
 20
475.0
 30
0.0
 11
165.5018576757812
 21
477.01011938545071
 31
0.0
  0
LINE
  5
60
  8
DIMNSIONS
  6
CONTINUOUS
 62
     7
 10
157.99999
 20
475.0
 30
0.0
 11
165.5018576757812
 21
472.98988061454918
 31
0.0
  0
LINE
  5
61
  8
DIMNSIONS
  6
CONTINUOUS
 62
     7
 10
285.99999000000003
 20
475.0
 30
0.0
 11
278.49812232421868
 21
472.98988061454918
 31
0.0
  0
LINE
  5
62
  8
DIMNSIONS
  6
CONTINUOUS
 62
     7
 10
285.99999000000003
 20
475.0
 30
0.0
 11
278.49812232421868
 21
477.01011938545071
 31
0.0
  0
TEXT
  5
63
  8
DIMNSIONS
  6
CONTINUOUS
 62
     7
 10
214.06249
 20
478.61666666666662
 30
0.0
 40
8.466666666666665
  1
128
 41
0.85
 11
214.06249
 21
487.0833333333332
 31
0.0
 73
     3
  0
LINE
  5
64
  8
DIMNSIONS
  6
CONTINUOUS
 62
     7
 10
227.99999
 20
456.0
 30
0.0
 11
343.5
 21
456.0
 31
0.0
  0
LINE
  5
65
  8
DIMNSIONS
  6
CONTINUOUS
 62
     7
 10
282.6395500000001
 20
412.5
 30
0.0
 11
343.5
 21
412.5
 31
0.0
  0
LINE
  5
66
  8
DIMNSIONS
  6
CONTINUOUS
 62
     7
 10
337.5
 20
456.0
 30
0.0
 11
337.5
 21
412.5
 31
0.0
  0
LINE
  5
67
  8
DIMNSIONS
  6
CONTINUOUS
 62
     7
 10
337.5
 20
456.0
 30
0.0
 11
339.51011938545071
 21
448.49813232421877
 31
0.0
  0
LINE
  5
68
  8
DIMNSIONS
  6
CONTINUOUS
 62
     7
 10
337.5
 20
456.0
 30
0.0
 11
335.48988061454918
 21
448.49813232421877
 31
0.0
  0
LINE
  5
69
  8
DIMNSIONS
  6
CONTINUOUS
 62
     7
 10
337.5
 20
412.5
 30
0.0
 11
335.48988061454918
 21
420.00186767578111
 31
0.0
  0
LINE
  5
6A
  8
DIMNSIONS
  6
CONTINUOUS
 62
     7
 10
337.5
 20
412.5
 30
0.0
 11
339.51011938545071
 21
420.00186767578111
 31
0.0
  0
TEXT
  5
6B
  8
DIMNSIONS
  6
CONTINUOUS
 62
     7
 10
333.88333333333321
 20
423.66666666666652
 30
0.0
 40
8.466666666666665
  1
43.5
 50
90.0
 41
0.85
 11
325.41666666666657
 21
423.66666666666652
 31
0.0
 73
     3
  0
LINE
  5
6C
  8
DIMNSIONS
  6
CONTINUOUS
 62
     7
 10
289.99999000000003
 20
465.5
 30
0.0
 11
343.5
 21
465.5
 31
0.0
  0
LINE
  5
6D
  8
DIMNSIONS
  6
CONTINUOUS
 62
     7
 10
227.99999
 20
456.0
 30
0.0
 11
343.5
 21
456.0
 31
0.0
  0
LINE
  5
6E
  8
DIMNSIONS
  6
CONTINUOUS
 62
     7
 10
337.5
 20
456.0
 30
0.0
 11
337.5
 21
465.5
 31
0.0
  0
LINE
  5
6F
  8
DIMNSIONS
  6
CONTINUOUS
 62
     7
 10
337.5
 20
465.5
 30
0.0
 11
337.5
 21
488.87499999999989
 31
0.0
  0
LINE
  5
70
  8
DIMNSIONS
  6
CONTINUOUS
 62
     7
 10
337.5
 20
465.5
 30
0.0
 11
335.48988061454918
 21
473.00186767578111
 31
0.0
  0
LINE
  5
71
  8
DIMNSIONS
  6
CONTINUOUS
 62
     7
 10
337.5
 20
465.5
 30
0.0
 11
339.51011938545071
 21
473.00186767578111
 31
0.0
  0
LINE
  5
72
  8
DIMNSIONS
  6
CONTINUOUS
 62
     7
 10
337.5
 20
456.0
 30
0.0
 11
337.5
 21
441.0
 31
0.0
  0
LINE
  5
73
  8
DIMNSIONS
  6
CONTINUOUS
 62
     7
 10
337.5
 20
456.0
 30
0.0
 11
339.51011938545071
 21
448.49813232421877
 31
0.0
  0
LINE
  5
74
  8
DIMNSIONS
  6
CONTINUOUS
 62
     7
 10
337.5
 20
456.0
 30
0.0
 11
335.48988061454918
 21
448.49813232421877
 31
0.0
  0
TEXT
  5
75
  8
DIMNSIONS
  6
CONTINUOUS
 62
     7
 10
333.88333333333333
 20
473.0
 30
0.0
 40
8.466666666666665
  1
9.5
 50
90.0
 41
0.85
 11
325.41666666666657
 21
473.0
 31
0.0
 73
     3
  0
LINE
  5
76
  8
DIMNSIONS
  6
CONTINUOUS
 62
     7
 10
282.49999000000003
 20
412.5
 30
0.0
 11
343.5
 21
412.5
 31
0.0
  0
LINE
  5
77
  8
DIMNSIONS
  6
CONTINUOUS
 62
     7
 10
227.99999
 20
369.0
 30
0.0
 11
343.5
 21
369.0
 31
0.0
  0
LINE
  5
78
  8
DIMNSIONS
  6
CONTINUOUS
 62
     7
 10
337.5
 20
412.5
 30
0.0
 11
337.5
 21
369.0
 31
0.0
  0
LINE
  5
79
  8
DIMNSIONS
  6
CONTINUOUS
 62
     7
 10
337.5
 20
412.5
 30
0.0
 11
339.51011938545071
 21
404.99813232421877
 31
0.0
  0
LINE
  5
7A
  8
DIMNSIONS
  6
CONTINUOUS
 62
     7
 10
337.5
 20
412.5
 30
0.0
 11
335.48988061454918
 21
404.99813232421877
 31
0.0
  0
LINE
  5
7B
  8
DIMNSIONS
  6
CONTINUOUS
 62
     7
 10
337.5
 20
369.0
 30
0.0
 11
335.48988061454918
 21
376.50186767578111
 31
0.0
  0
LINE
  5
7C
  8
DIMNSIONS
  6
CONTINUOUS
 62
     7
 10
337.5
 20
369.0
 30
0.0
 11
339.51011938545071
 21
376.50186767578111
 31
0.0
  0
TEXT
  5
7D
  8
DIMNSIONS
  6
CONTINUOUS
 62
     7
 10
333.88333333333321
 20
380.16666666666657
 30
0.0
 40
8.466666666666665
  1
43.5
 50
90.0
 41
0.85
 11
325.41666666666657
 21
380.16666666666657
 31
0.0
 73
     3
  0
LINE
  5
7E
  8
DIMNSIONS
  6
CONTINUOUS
 62
     7
 10
227.99999
 20
369.0
 30
0.0
 11
343.5
 21
369.0
 31
0.0
  0
LINE
  5
7F
  8
DIMNSIONS
  6
CONTINUOUS
 62
     7
 10
289.99999000000003
 20
359.5
 30
0.0
 11
343.5
 21
359.5
 31
0.0
  0
LINE
  5
80
  8
DIMNSIONS
  6
CONTINUOUS
 62
     7
 10
337.5
 20
359.5
 30
0.0
 11
337.5
 21
369.0
 31
0.0
  0
LINE
  5
81
  8
DIMNSIONS
  6
CONTINUOUS
 62
     7
 10
337.5
 20
369.0
 30
0.0
 11
337.5
 21
384.0
 31
0.0
  0
LINE
  5
82
  8
DIMNSIONS
  6
CONTINUOUS
 62
     7
 10
337.5
 20
369.0
 30
0.0
 11
335.48988061454918
 21
376.50186767578111
 31
0.0
  0
LINE
  5
83
  8
DIMNSIONS
  6
CONTINUOUS
 62
     7
 10
337.5
 20
369.0
 30
0.0
 11
339.51011938545071
 21
376.50186767578111
 31
0.0
  0
LINE
  5
84
  8
DIMNSIONS
  6
CONTINUOUS
 62
     7
 10
337.5
 20
359.5
 30
0.0
 11
337.5
 21
334.125
 31
0.0
  0
LINE
  5
85
  8
DIMNSIONS
  6
CONTINUOUS
 62
     7
 10
337.5
 20
359.5
 30
0.0
 11
339.51011938545071
 21
351.99813232421877
 31
0.0
  0
LINE
  5
86
  8
DIMNSIONS
  6
CONTINUOUS
 62
     7
 10
337.5
 20
359.5
 30
0.0
 11
335.48988061454918
 21
351.99813232421877
 31
0.0
  0
TEXT
  5
87
  8
DIMNSIONS
  6
CONTINUOUS
 62
     7
 10
333.88333333333333
 20
334.125
 30
0.0
 40
8.466666666666665
  1
9.5
 50
90.0
 41
0.85
 11
325.41666666666657
 21
334.125
 31
0.0
 73
     3
  0
LINE
  5
88
  8
DIMNSIONS
  6
CONTINUOUS
 62
     7
 10
285.99999000000003
 20
355.5
 30
0.0
 11
285.99999000000003
 21
331.49999999999989
 31
0.0
  0
LINE
  5
89
  8
DIMNSIONS
  6
CONTINUOUS
 62
     7
 10
276.49999000000003
 20
406.5
 30
0.0
 11
276.49999000000003
 21
331.49999999999989
 31
0.0
  0
LINE
  5
8A
  8
DIMNSIONS
  6
CONTINUOUS
 62
     7
 10
276.49999000000003
 20
337.5
 30
0.0
 11
285.99999000000003
 21
337.5
 31
0.0
  0
LINE
  5
8B
  8
DIMNSIONS
  6
CONTINUOUS
 62
     7
 10
285.99999000000003
 20
337.5
 30
0.0
 11
315.87499999999989
 21
337.5
 31
0.0
  0
LINE
  5
8C
  8
DIMNSIONS
  6
CONTINUOUS
 62
     7
 10
285.99999000000003
 20
337.5
 30
0.0
 11
293.5018576757812
 21
339.51011938545071
 31
0.0
  0
LINE
  5
8D
  8
DIMNSIONS
  6
CONTINUOUS
 62
     7
 10
285.99999000000003
 20
337.5
 30
0.0
 11
293.5018576757812
 21
335.48988061454918
 31
0.0
  0
LINE
  5
8E
  8
DIMNSIONS
  6
CONTINUOUS
 62
     7
 10
276.49999000000003
 20
337.5
 30
0.0
 11
261.49999000000003
 21
337.5
 31
0.0
  0
LINE
  5
8F
  8
DIMNSIONS
  6
CONTINUOUS
 62
     7
 10
276.49999000000003
 20
337.5
 30
0.0
 11
268.99812232421868
 21
335.48988061454918
 31
0.0
  0
LINE
  5
90
  8
DIMNSIONS
  6
CONTINUOUS
 62
     7
 10
276.49999000000003
 20
337.5
 30
0.0
 11
268.99812232421868
 21
339.51011938545071
 31
0.0
  0
TEXT
  5
91
  8
DIMNSIONS
  6
CONTINUOUS
 62
     7
 10
300.0
 20
341.11666666666667
 30
0.0
 40
8.466666666666665
  1
9.5
 41
0.85
 11
300.0
 21
349.58333333333331
 31
0.0
 73
     3
  0
LINE
  5
92
  8
DIMNSIONS
  6
CONTINUOUS
 62
     7
 10
221.99999
 20
363.0
 30
0.0
 11
221.99999
 21
331.49999999999989
 31
0.0
  0
LINE
  5
93
  8
DIMNSIONS
  6
CONTINUOUS
 62
     7
 10
276.49999000000003
 20
406.5
 30
0.0
 11
276.49999000000003
 21
331.49999999999989
 31
0.0
  0
LINE
  5
94
  8
DIMNSIONS
  6
CONTINUOUS
 62
     7
 10
221.99999
 20
337.5
 30
0.0
 11
276.49999000000003
 21
337.5
 31
0.0
  0
LINE
  5
95
  8
DIMNSIONS
  6
CONTINUOUS
 62
     7
 10
221.99999
 20
337.5
 30
0.0
 11
229.5018576757812
 21
339.51011938545071
 31
0.0
  0
LINE
  5
96
  8
DIMNSIONS
  6
CONTINUOUS
 62
     7
 10
221.99999
 20
337.5
 30
0.0
 11
229.5018576757812
 21
335.48988061454918
 31
0.0
  0
LINE
  5
97
  8
DIMNSIONS
  6
CONTINUOUS
 62
     7
 10
276.49999000000003
 20
337.5
 30
0.0
 11
268.99812232421868
 21
335.48988061454918
 31
0.0
  0
LINE
  5
98
  8
DIMNSIONS
  6
CONTINUOUS
 62
     7
 10
276.49999000000003
 20
337.5
 30
0.0
 11
268.99812232421868
 21
339.51011938545071
 31
0.0
  0
TEXT
  5
99
  8
DIMNSIONS
  6
CONTINUOUS
 62
     7
 10
238.6666566666666
 20
341.11666666666667
 30
0.0
 40
8.466666666666665
  1
54.5
 41
0.85
 11
238.6666566666666
 21
349.58333333333331
 31
0.0
 73
     3
  0
LINE
  5
9A
  8
DIMNSIONS
  6
CONTINUOUS
 62
     7
 10
221.99999
 20
363.0
 30
0.0
 11
221.99999
 21
331.49999999999989
 31
0.0
  0
LINE
  5
9B
  8
DIMNSIONS
  6
CONTINUOUS
 62
     7
 10
167.49999
 20
406.5
 30
0.0
 11
167.49999
 21
331.49999999999989
 31
0.0
  0
LINE
  5
9C
  8
DIMNSIONS
  6
CONTINUOUS
 62
     7
 10
221.99999
 20
337.5
 30
0.0
 11
167.49999
 21
337.5
 31
0.0
  0
LINE
  5
9D
  8
DIMNSIONS
  6
CONTINUOUS
 62
     7
 10
221.99999
 20
337.5
 30
0.0
 11
214.49812232421871
 21
335.48988061454918
 31
0.0
  0
LINE
  5
9E
  8
DIMNSIONS
  6
CONTINUOUS
 62
     7
 10
221.99999
 20
337.5
 30
0.0
 11
214.4981223242188
 21
339.51011938545071
 31
0.0
  0
LINE
  5
9F
  8
DIMNSIONS
  6
CONTINUOUS
 62
     7
 10
167.49999
 20
337.5
 30
0.0
 11
175.0018576757812
 21
339.51011938545071
 31
0.0
  0
LINE
  5
A0
  8
DIMNSIONS
  6
CONTINUOUS
 62
     7
 10
167.49999
 20
337.5
 30
0.0
 11
175.0018576757812
 21
335.48988061454918
 31
0.0
  0
TEXT
  5
A1
  8
DIMNSIONS
  6
CONTINUOUS
 62
     7
 10
184.16665666666671
 20
341.11666666666667
 30
0.0
 40
8.466666666666665
  1
54.5
 41
0.85
 11
184.16665666666671
 21
349.58333333333331
 31
0.0
 73
     3
  0
LINE
  5
A2
  8
DIMNSIONS
  6
CONTINUOUS
 62
     7
 10
167.49999
 20
406.5
 30
0.0
 11
167.49999
 21
331.49999999999989
 31
0.0
  0
LINE
  5
A3
  8
DIMNSIONS
  6
CONTINUOUS
 62
     7
 10
157.99999
 20
355.5
 30
0.0
 11
157.99999
 21
331.49999999999989
 31
0.0
  0
LINE
  5
A4
  8
DIMNSIONS
  6
CONTINUOUS
 62
     7
 10
157.99999
 20
337.5
 30
0.0
 11
167.49999
 21
337.5
 31
0.0
  0
LINE
  5
A5
  8
DIMNSIONS
  6
CONTINUOUS
 62
     7
 10
167.49999
 20
337.5
 30
0.0
 11
182.49999
 21
337.5
 31
0.0
  0
LINE
  5
A6
  8
DIMNSIONS
  6
CONTINUOUS
 62
     7
 10
167.49999
 20
337.5
 30
0.0
 11
175.0018576757812
 21
339.51011938545071
 31
0.0
  0
LINE
  5
A7
  8
DIMNSIONS
  6
CONTINUOUS
 62
     7
 10
167.49999
 20
337.5
 30
0.0
 11
175.0018576757812
 21
335.48988061454918
 31
0.0
  0
LINE
  5
A8
  8
DIMNSIONS
  6
CONTINUOUS
 62
     7
 10
157.99999
 20
337.5
 30
0.0
 11
134.125
 21
337.5
 31
0.0
  0
LINE
  5
A9
  8
DIMNSIONS
  6
CONTINUOUS
 62
     7
 10
157.99999
 20
337.5
 30
0.0
 11
150.49812232421871
 21
335.48988061454918
 31
0.0
  0
LINE
  5
AA
  8
DIMNSIONS
  6
CONTINUOUS
 62
     7
 10
157.99999
 20
337.5
 30
0.0
 11
150.49812232421871
 21
339.51011938545071
 31
0.0
  0
TEXT
  5
AB
  8
DIMNSIONS
  6
CONTINUOUS
 62
     7
 10
134.125
 20
341.11666666666667
 30
0.0
 40
8.466666666666665
  1
9.5
 41
0.85
 11
134.125
 21
349.58333333333331
 31
0.0
 73
     3
  0
LINE
  5
AC
  8
DIMNSIONS
  6
CONTINUOUS
 62
     7
 10
165.94215857873419
 20
415.74548320946479
 30
0.0
 11
137.5
 21
475.0
 31
0.0
  0
LINE
  5
AD
  8
DIMNSIONS
  6
CONTINUOUS
 62
     7
 10
165.94215857873419
 20
415.74548320946479
 30
0.0
 11
160.94994544987941
 21
421.69497114077348
 31
0.0
  0
LINE
  5
AE
  8
DIMNSIONS
  6
CONTINUOUS
 62
     7
 10
165.94215857873419
 20
415.74548320946479
 30
0.0
 11
164.5935191536941
 21
423.3939974619143
 31
0.0
  0
LINE
  5
AF
  8
DIMNSIONS
  6
CONTINUOUS
 62
     7
 10
137.5
 20
475.0
 30
0.0
 11
105.0416666666666
 21
475.0
 31
0.0
  0
TEXT
  5
B0
  8
DIMNSIONS
  6
CONTINUOUS
 62
     7
 10
105.0416666666666
 20
478.61666666666662
 30
0.0
 40
8.466666666666665
  1
φ7.2
 41
0.85
 11
105.0416666666666
 21
487.0833333333332
 31
0.0
 73
     3
  0
LINE
  5
B1
  8
DIMNSIONS
  6
CONTINUOUS
 62
     7
 10
320.0
 20
298.25000999999992
 30
0.0
 11
343.5
 21
298.25000999999992
 31
0.0
  0
LINE
  5
B2
  8
DIMNSIONS
  6
CONTINUOUS
 62
     7
 10
142.49069
 20
-41.74999089409399
 30
0.0
 11
343.5
 21
-41.74999089409399
 31
0.0
  0
LINE
  5
B3
  8
DIMNSIONS
  6
CONTINUOUS
 62
     7
 10
337.5
 20
298.25000999999992
 30
0.0
 11
337.5
 21
-41.74999089409399
 31
0.0
  0
LINE
  5
B4
  8
DIMNSIONS
  6
CONTINUOUS
 62
     7
 10
337.5
 20
298.25000999999992
 30
0.0
 11
339.51011938545071
 21
290.74814232421858
 31
0.0
  0
LINE
  5
B5
  8
DIMNSIONS
  6
CONTINUOUS
 62
     7
 10
337.5
 20
298.25000999999992
 30
0.0
 11
335.48988061454918
 21
290.74814232421858
 31
0.0
  0
LINE
  5
B6
  8
DIMNSIONS
  6
CONTINUOUS
 62
     7
 10
337.5
 20
-41.74999089409399
 30
0.0
 11
335.48988061454918
 21
-34.248123218312742
 31
0.0
  0
LINE
  5
B7
  8
DIMNSIONS
  6
CONTINUOUS
 62
     7
 10
337.5
 20
-41.74999089409399
 30
0.0
 11
339.51011938545071
 21
-34.248123218312742
 31
0.0
  0
TEXT
  5
B8
  8
DIMNSIONS
  6
CONTINUOUS
 62
     7
 10
333.88333333333333
 20
120.3125095529529
 30
0.0
 40
8.466666666666665
  1
340
 50
90.0
 41
0.85
 11
325.41666666666657
 21
120.3125095529529
 31
0.0
 73
     3
  0
TEXT
  5
B9
  8
DATA
  6
CONTINUOUS
 62
     7
 10
249.99999999999989
 20
-208.97219999999999
 30
0.0
 40
7.6199999999999983
  1
MTC-C30-CM
 41
0.85
 11
249.99999999999989
 21
-201.35220000000001
 31
0.0
 73
     3
  0
TEXT
  5
BA
  8
DATA
  6
CONTINUOUS
 62
     7
 10
249.99999999999989
 20
-187.2221999999999
 30
0.0
 40
7.6199999999999983
  1
JBL
 41
0.85
 11
249.99999999999989
 21
-179.6021999999999
 31
0.0
 73
     3
  0
TEXT
  5
BB
  8
DATA
  6
CONTINUOUS
 62
     7
 10
-139.99999999999989
 20
-229.84137000000001
 30
0.0
 40
5.0799999999999992
  1
仕様および外観は予告なく変更されることがありますので、ご了承ください。
 41
0.85
 11
-139.99999999999989
 21
-224.76137
 31
0.0
 73
     3
  0
LINE
  5
BC
  8
DATA
  6
CONTINUOUS
 62
     7
 10
-92.0
 20
-109.24997999999989
 30
0.0
 11
7.9999999999999867
 21
-109.24997999999989
 31
0.0
  0
LINE
  5
BD
  8
DATA
  6
CONTINUOUS
 62
     7
 10
7.9999999999999867
 20
-134.24997999999991
 30
0.0
 11
-92.0
 21
-134.24997999999991
 31
0.0
  0
LINE
  5
BE
  8
DATA
  6
CONTINUOUS
 62
     7
 10
-92.0
 20
-134.24997999999991
 30
0.0
 11
-92.0
 21
-109.24997999999989
 31
0.0
  0
TEXT
  5
BF
  8
DATA
  6
CONTINUOUS
 62
     7
 10
-79.472730000000013
 20
-125.497253
 30
0.0
 40
9.9927279999999996
  1
天井　取付図
 41
0.85
 11
-79.472730000000013
 21
-115.504525
 31
0.0
 73
     3
  0
LINE
  5
C0
  8
DATA
  6
CONTINUOUS
 62
     7
 10
7.9999999999999867
 20
-109.24997999999989
 30
0.0
 11
7.9999999999999867
 21
-134.24997999999991
 31
0.0
  0
LINE
  5
C1
  8
DATA
  6
CONTINUOUS
 62
     7
 10
213.99999
 20
50.725229999999982
 30
0.0
 11
213.99999
 21
244.25001
 31
0.0
  0
ARC
  5
C2
  8
DATA
  6
CONTINUOUS
 62
     7
 10
136.49069
 20
-12.49999000000002
 30
0.0
 40
29.250000894093979
 50
46.403955201850081
 51
14.021648826490541
  0
LINE
  5
C3
  8
DATA
  6
CONTINUOUS
 62
     7
 10
157.99999
 20
298.25000999999992
 30
0.0
 11
247.99999
 21
298.25000999999992
 31
0.0
  0
LINE
  5
C4
  8
DATA
  6
CONTINUOUS
 62
     7
 10
157.99999
 20
291.25000999999992
 30
0.0
 11
285.99999000000003
 21
291.25000999999992
 31
0.0
  0
LINE
  5
C5
  8
DATA
  6
CONTINUOUS
 62
     7
 10
235.99999
 20
282.25000999999992
 30
0.0
 11
285.99999000000003
 21
282.25000999999992
 31
0.0
  0
LINE
  5
C6
  8
DATA
  6
CONTINUOUS
 62
     7
 10
127.9999899999999
 20
298.25000999999992
 30
0.0
 11
314.0
 21
298.25000999999992
 31
0.0
  0
LINE
  5
C7
  8
DATA
  6
CONTINUOUS
 62
     7
 10
221.99999
 20
247.25000999999989
 30
0.0
 11
221.99999
 21
256.25000999999992
 31
0.0
  0
LINE
  5
C8
  8
DATA
  6
CONTINUOUS
 62
     7
 10
209.49999
 20
247.25000999999989
 30
0.0
 11
209.49999
 21
256.25000999999992
 31
0.0
  0
LINE
  5
C9
  8
DATA
  6
CONTINUOUS
 62
     7
 10
234.49999
 20
247.25000999999989
 30
0.0
 11
234.49999
 21
256.25000999999992
 31
0.0
  0
LINE
  5
CA
  8
DATA
  6
CONTINUOUS
 62
     7
 10
208.99999
 20
256.25000999999992
 30
0.0
 11
234.99999
 21
256.25000999999992
 31
0.0
  0
LINE
  5
CB
  8
DATA
  6
CONTINUOUS
 62
     7
 10
207.99999
 20
257.25000999999992
 30
0.0
 11
207.99999
 21
259.25000999999992
 31
0.0
  0
LINE
  5
CC
  8
DATA
  6
CONTINUOUS
 62
     7
 10
226.99999
 20
256.25000999999992
 30
0.0
 11
226.99999
 21
260.25000999999992
 31
0.0
  0
LINE
  5
CD
  8
DATA
  6
CONTINUOUS
 62
     7
 10
235.99999
 20
257.25000999999992
 30
0.0
 11
235.99999
 21
259.25000999999992
 31
0.0
  0
LINE
  5
CE
  8
DATA
  6
CONTINUOUS
 62
     7
 10
157.99999
 20
282.25000999999992
 30
0.0
 11
207.99999
 21
282.25000999999992
 31
0.0
  0
LINE
  5
CF
  8
DATA
  6
CONTINUOUS
 62
     7
 10
157.99999
 20
282.25000999999992
 30
0.0
 11
157.99999
 21
298.25000999999992
 31
0.0
  0
TEXT
  5
D0
  8
DATA
  6
CONTINUOUS
 62
     7
 10
209.5090899999999
 20
309.98894199999989
 30
0.0
 40
9.9927279999999996
  1
天井
 41
0.85
 11
209.5090899999999
 21
319.98166999999989
 31
0.0
 73
     3
  0
LINE
  5
D1
  8
DATA
  6
CONTINUOUS
 62
     7
 10
285.99999000000003
 20
282.25000999999992
 30
0.0
 11
285.99999000000003
 21
298.25000999999992
 31
0.0
  0
LINE
  5
D2
  8
DATA
  6
CONTINUOUS
 62
     7
 10
32.999999999999979
 20
223.25001
 30
0.0
 11
121.0
 21
223.25001
 31
0.0
  0
LINE
  5
D3
  8
DATA
  6
CONTINUOUS
 62
     7
 10
-14.99996
 20
280.24999000000003
 30
0.0
 11
32.999999999999979
 21
223.25001
 31
0.0
  0
SOLID
  5
D4
  8
DATA
  6
CONTINUOUS
 62
     7
 10
-14.99996
 20
280.24999000000003
 30
0.0
 11
-6.9222970889374684
 21
274.59394953855701
 31
0.0
 12
-10.832518946533961
 22
271.3128838200264
 32
0.0
 13
-10.832518946533961
 23
271.3128838200264
 33
0.0
  0
TEXT
  5
D5
  8
DATA
  6
CONTINUOUS
 62
     7
 10
60.26363000000002
 20
226.85104200000001
 30
0.0
 40
9.9927279999999996
  1
ベース
 41
0.85
 11
60.26363000000002
 21
236.84377000000001
 31
0.0
 73
     3
  0
LINE
  5
D6
  8
DATA
  6
CONTINUOUS
 62
     7
 10
229.99999
 20
50.725219999999979
 30
0.0
 11
229.99999
 21
244.25001
 31
0.0
  0
POLYLINE
  5
D7
  8
DATA
  6
CONTINUOUS
 62
     7
 66
     1
 10
0.0
 20
0.0
 30
0.0
 70
     1
  0
VERTEX
  5
209
  8
DATA
  6
CONTINUOUS
 62
     7
 10
207.99999
 20
282.25000999999992
 30
0.0
  0
VERTEX
  5
20A
  8
DATA
  6
CONTINUOUS
 62
     7
 10
235.99999
 20
282.25000999999992
 30
0.0
  0
VERTEX
  5
20B
  8
DATA
  6
CONTINUOUS
 62
     7
 10
235.99999
 20
260.25000999999992
 30
0.0
  0
VERTEX
  5
20C
  8
DATA
  6
CONTINUOUS
 62
     7
 10
207.99999
 20
260.25000999999992
 30
0.0
  0
SEQEND
  5
20D
  8
DATA
  6
CONTINUOUS
 62
     7
  0
LINE
  5
DD
  8
DATA
  6
CONTINUOUS
 62
     7
 10
212.49999
 20
244.25001
 30
0.0
 11
218.99999
 21
244.25001
 31
0.0
  0
LINE
  5
DE
  8
DATA
  6
CONTINUOUS
 62
     7
 10
220.49999
 20
282.25000999999992
 30
0.0
 11
220.49999
 21
268.25001999999989
 31
0.0
  0
LINE
  5
DF
  8
DATA
  6
CONTINUOUS
 62
     7
 10
223.49999
 20
282.25000999999992
 30
0.0
 11
223.49999
 21
268.25001999999989
 31
0.0
  0
ARC
  5
E0
  8
DATA
  6
CONTINUOUS
 62
     7
 10
249.99997999999999
 20
268.25001999999989
 30
0.0
 40
13.99999000000359
 50
89.999959074414065
 51
180.0
  0
ARC
  5
E1
  8
DATA
  6
CONTINUOUS
 62
     7
 10
194.0
 20
268.25001999999989
 30
0.0
 40
13.99999000000002
 50
0.0
 51
90.000040925585964
  0
ARC
  5
E2
  8
DATA
  6
CONTINUOUS
 62
     7
 10
208.99999
 20
259.25000999999992
 30
0.0
 40
1.0
 50
90.0
 51
180.0
  0
ARC
  5
E3
  8
DATA
  6
CONTINUOUS
 62
     7
 10
208.99999
 20
257.25000999999992
 30
0.0
 40
1.0
 50
180.0
 51
270.0
  0
ARC
  5
E4
  8
DATA
  6
CONTINUOUS
 62
     7
 10
234.99999
 20
257.25000999999992
 30
0.0
 40
1.0
 50
270.0
 51
0.0
  0
ARC
  5
E5
  8
DATA
  6
CONTINUOUS
 62
     7
 10
234.99999
 20
259.25000999999992
 30
0.0
 40
1.0
 50
0.0
 51
90.0
  0
ARC
  5
E6
  8
DATA
  6
CONTINUOUS
 62
     7
 10
212.49999
 20
247.25000999999989
 30
0.0
 40
3.0
 50
180.0
 51
270.0
  0
ARC
  5
E7
  8
DATA
  6
CONTINUOUS
 62
     7
 10
218.99999
 20
247.25000999999989
 30
0.0
 40
3.0
 50
270.0
 51
0.0
  0
LINE
  5
E8
  8
DATA
  6
CONTINUOUS
 62
     7
 10
224.99999
 20
244.25001
 30
0.0
 11
218.99999
 21
244.25001
 31
0.0
  0
LINE
  5
E9
  8
DATA
  6
CONTINUOUS
 62
     7
 10
231.49999
 20
244.25001
 30
0.0
 11
224.99999
 21
244.25001
 31
0.0
  0
ARC
  5
EA
  8
DATA
  6
CONTINUOUS
 62
     7
 10
224.99999
 20
247.25000999999989
 30
0.0
 40
3.0
 50
180.0
 51
270.0
  0
ARC
  5
EB
  8
DATA
  6
CONTINUOUS
 62
     7
 10
231.49999
 20
247.25000999999989
 30
0.0
 40
3.0
 50
270.0
 51
0.0
  0
LINE
  5
EC
  8
DATA
  6
CONTINUOUS
 62
     7
 10
164.85607999999999
 20
-5.3608500000000268
 30
0.0
 11
214.0
 21
23.012409999999988
 31
0.0
  0
LINE
  5
ED
  8
DATA
  6
CONTINUOUS
 62
     7
 10
156.85608999999999
 20
8.4955599999999816
 30
0.0
 11
205.99999
 21
36.868830000000003
 31
0.0
  0
LINE
  5
EE
  8
DATA
  6
CONTINUOUS
 62
     7
 10
164.85607999999999
 20
-5.3608500000000268
 30
0.0
 11
156.85608999999999
 21
8.4955599999999816
 31
0.0
  0
ARC
  5
EF
  8
DATA
  6
CONTINUOUS
 62
     7
 10
197.99999
 20
50.725239999999992
 30
0.0
 40
16.000003065252809
 50
299.99999366264223
 51
359.9999641901378
  0
ARC
  5
F0
  8
DATA
  6
CONTINUOUS
 62
     7
 10
197.99999
 20
50.725219999999979
 30
0.0
 40
32.000002470253001
 50
300.00001812123031
 51
0.0
  0
ARC
  5
F1
  8
DATA
  6
CONTINUOUS
 62
     7
 10
136.49069
 20
412.5
 30
0.0
 40
29.249994788884958
 50
43.539445392095701
 51
317.08240572066791
  0
CIRCLE
  5
F2
  8
DATA
  6
CONTINUOUS
 62
     7
 10
221.99999
 20
-69.0
 30
0.0
 40
3.5
  0
ARC
  5
F3
  8
DATA
  6
CONTINUOUS
 62
     7
 10
221.99999
 20
-69.0
 30
0.0
 40
8.75
 50
180.0
 51
0.0
  0
ARC
  5
F4
  8
DATA
  6
CONTINUOUS
 62
     7
 10
221.99999
 20
-69.0
 30
0.0
 40
9.8795600000000832
 50
180.0
 51
0.0
  0
LINE
  5
F5
  8
DATA
  6
CONTINUOUS
 62
     7
 10
212.12042999999991
 20
-69.0
 30
0.0
 11
212.12042999999991
 21
-60.980890000000009
 31
0.0
  0
LINE
  5
F6
  8
DATA
  6
CONTINUOUS
 62
     7
 10
213.24999
 20
-69.0
 30
0.0
 11
213.24999
 21
-60.989820000000009
 31
0.0
  0
LINE
  5
F7
  8
DATA
  6
CONTINUOUS
 62
     7
 10
230.74999
 20
-69.0
 30
0.0
 11
230.74999
 21
-60.989820000000009
 31
0.0
  0
LINE
  5
F8
  8
DATA
  6
CONTINUOUS
 62
     7
 10
231.87956
 20
-69.0
 30
0.0
 11
231.87956
 21
-60.980890000000009
 31
0.0
  0
LINE
  5
F9
  8
DATA
  6
CONTINUOUS
 62
     7
 10
162.26666
 20
-165.5
 30
0.0
 11
281.73331999999999
 21
-165.5
 31
0.0
  0
LINE
  5
FA
  8
DATA
  6
CONTINUOUS
 62
     7
 10
162.26666
 20
-163.9857299999999
 30
0.0
 11
281.73331999999999
 21
-163.9857299999999
 31
0.0
  0
LINE
  5
FB
  8
DATA
  6
CONTINUOUS
 62
     7
 10
162.54285999999999
 20
-60.957110000000021
 30
0.0
 11
281.73331999999999
 21
-61.01427000000001
 31
0.0
  0
LINE
  5
FC
  8
DATA
  6
CONTINUOUS
 62
     7
 10
162.54284000000001
 20
-59.500000000000021
 30
0.0
 11
281.73331999999999
 21
-59.500000000000021
 31
0.0
  0
LINE
  5
FD
  8
DATA
  6
CONTINUOUS
 62
     7
 10
157.99999
 20
-161.23333
 30
0.0
 11
157.99999
 21
-132.32200999999989
 31
0.0
  0
ARC
  5
FE
  8
DATA
  6
CONTINUOUS
 62
     7
 10
162.26666
 20
-161.23333
 30
0.0
 40
4.2666699999999764
 50
180.0
 51
270.0
  0
ARC
  5
FF
  8
DATA
  6
CONTINUOUS
 62
     7
 10
162.26666
 20
-159.71906000000001
 30
0.0
 40
4.2666699999999764
 50
180.0
 51
270.0
  0
LINE
  5
100
  8
DATA
  6
CONTINUOUS
 62
     7
 10
157.99999
 20
-64.042850000000016
 30
0.0
 11
157.99999
 21
-92.677990000000008
 31
0.0
  0
ARC
  5
101
  8
DATA
  6
CONTINUOUS
 62
     7
 10
162.54285999999999
 20
-65.499980000000022
 30
0.0
 40
4.5428699999999926
 50
90.0
 51
180.0001261224281
  0
ARC
  5
102
  8
DATA
  6
CONTINUOUS
 62
     7
 10
162.54284000000001
 20
-64.042850000000016
 30
0.0
 40
4.5428499999999872
 50
90.0
 51
180.0
  0
LINE
  5
103
  8
DATA
  6
CONTINUOUS
 62
     7
 10
285.99999000000003
 20
-65.280940000000015
 30
0.0
 11
285.99999000000003
 21
-160.95715000000001
 31
0.0
  0
ARC
  5
104
  8
DATA
  6
CONTINUOUS
 62
     7
 10
281.45713999999992
 20
-160.95715000000001
 30
0.0
 40
4.5428499999999872
 50
270.0
 51
0.0
  0
ARC
  5
105
  8
DATA
  6
CONTINUOUS
 62
     7
 10
281.45711999999997
 20
-159.44286
 30
0.0
 40
4.5428699999999926
 50
270.0
 51
0.0001261224278437
  0
ARC
  5
106
  8
DATA
  6
CONTINUOUS
 62
     7
 10
281.73331999999999
 20
-65.280940000000015
 30
0.0
 40
4.2666699999999764
 50
0.0
 51
90.0
  0
ARC
  5
107
  8
DATA
  6
CONTINUOUS
 62
     7
 10
281.73331999999999
 20
-63.766670000000012
 30
0.0
 40
4.2666699999999764
 50
0.0
 51
90.0
  0
ARC
  5
108
  8
DATA
  6
CONTINUOUS
 62
     7
 10
276.6395500000001
 20
-112.5
 30
0.0
 40
9.8795599999999677
 50
90.0
 51
270.0
  0
ARC
  5
109
  8
DATA
  6
CONTINUOUS
 62
     7
 10
276.6395500000001
 20
-112.5
 30
0.0
 40
8.75
 50
90.0
 51
270.0
  0
CIRCLE
  5
10A
  8
DATA
  6
CONTINUOUS
 62
     7
 10
276.6395500000001
 20
-112.5
 30
0.0
 40
3.5
  0
LINE
  5
10B
  8
DATA
  6
CONTINUOUS
 62
     7
 10
276.6395500000001
 20
-122.3795599999999
 30
0.0
 11
285.99999000000003
 21
-122.3795599999999
 31
0.0
  0
LINE
  5
10C
  8
DATA
  6
CONTINUOUS
 62
     7
 10
276.6395500000001
 20
-121.25
 30
0.0
 11
285.99999000000003
 21
-121.25
 31
0.0
  0
LINE
  5
10D
  8
DATA
  6
CONTINUOUS
 62
     7
 10
276.6395500000001
 20
-102.62043
 30
0.0
 11
285.99999000000003
 21
-102.62043
 31
0.0
  0
LINE
  5
10E
  8
DATA
  6
CONTINUOUS
 62
     7
 10
276.6395500000001
 20
-103.75
 30
0.0
 11
285.99999000000003
 21
-103.75
 31
0.0
  0
CIRCLE
  5
10F
  8
DATA
  6
CONTINUOUS
 62
     7
 10
221.99999
 20
-156.0
 30
0.0
 40
3.5
  0
ARC
  5
110
  8
DATA
  6
CONTINUOUS
 62
     7
 10
221.99999
 20
-156.0
 30
0.0
 40
8.75
 50
0.0
 51
180.0
  0
ARC
  5
111
  8
DATA
  6
CONTINUOUS
 62
     7
 10
221.99999
 20
-156.0
 30
0.0
 40
9.8795600000000832
 50
0.0
 51
180.0
  0
LINE
  5
112
  8
DATA
  6
CONTINUOUS
 62
     7
 10
212.12042999999991
 20
-156.0
 30
0.0
 11
212.12042999999991
 21
-163.9857299999999
 31
0.0
  0
LINE
  5
113
  8
DATA
  6
CONTINUOUS
 62
     7
 10
213.24999
 20
-163.9857299999999
 30
0.0
 11
213.24999
 21
-156.0
 31
0.0
  0
ARC
  5
114
  8
DATA
  6
CONTINUOUS
 62
     7
 10
221.99999
 20
-112.49999
 30
0.0
 40
8.0
 50
270.0
 51
90.0
  0
LINE
  5
115
  8
DATA
  6
CONTINUOUS
 62
     7
 10
164.62540000000001
 20
-120.49999
 30
0.0
 11
221.99999
 21
-120.49999
 31
0.0
  0
LINE
  5
116
  8
DATA
  6
CONTINUOUS
 62
     7
 10
164.62540000000001
 20
-104.49999
 30
0.0
 11
221.99999
 21
-104.49999
 31
0.0
  0
ARC
  5
117
  8
DATA
  6
CONTINUOUS
 62
     7
 10
221.99999
 20
-112.49999
 30
0.0
 40
12.54560467647541
 50
221.5110430301084
 51
140.449968802185
  0
CIRCLE
  5
118
  8
DATA
  6
CONTINUOUS
 62
     7
 10
136.49069
 20
-112.5
 30
0.0
 40
29.249990000000022
  0
LINE
  5
119
  8
DATA
  6
CONTINUOUS
 62
     7
 10
230.74999
 20
-163.9857299999999
 30
0.0
 11
230.74999
 21
-156.0
 31
0.0
  0
LINE
  5
11A
  8
DATA
  6
CONTINUOUS
 62
     7
 10
231.87956
 20
-163.9857299999999
 30
0.0
 11
231.87956
 21
-156.0
 31
0.0
  0
LINE
  5
11B
  8
DATA
  6
CONTINUOUS
 62
     7
 10
167.36043000000001
 20
-103.75
 30
0.0
 11
164.40125
 21
-103.75
 31
0.0
  0
LINE
  5
11C
  8
DATA
  6
CONTINUOUS
 62
     7
 10
167.36043000000001
 20
-102.62043
 30
0.0
 11
164.02169000000001
 21
-102.62043
 31
0.0
  0
LINE
  5
11D
  8
DATA
  6
CONTINUOUS
 62
     7
 10
167.36043000000001
 20
-122.3795599999999
 30
0.0
 11
164.02169000000001
 21
-122.3795599999999
 31
0.0
  0
LINE
  5
11E
  8
DATA
  6
CONTINUOUS
 62
     7
 10
167.36043000000001
 20
-121.25
 30
0.0
 11
164.40125
 21
-121.25
 31
0.0
  0
POLYLINE
  5
11F
  8
DATA
  6
CONTINUOUS
 62
     7
 66
     1
 10
0.0
 20
0.0
 30
0.0
  0
VERTEX
  5
20E
  8
DATA
  6
CONTINUOUS
 62
     7
 10
212.1738299999999
 20
-120.49999
 30
0.0
  0
VERTEX
  5
20F
  8
DATA
  6
CONTINUOUS
 62
     7
 10
214.74983999999989
 20
-124.9425999999999
 30
0.0
  0
VERTEX
  5
210
  8
DATA
  6
CONTINUOUS
 62
     7
 10
229.19903999999991
 20
-124.91569
 30
0.0
  0
VERTEX
  5
211
  8
DATA
  6
CONTINUOUS
 62
     7
 10
236.44926000000001
 20
-112.47320000000001
 30
0.0
  0
VERTEX
  5
212
  8
DATA
  6
CONTINUOUS
 62
     7
 10
229.2501299999999
 20
-100.05731
 30
0.0
  0
VERTEX
  5
213
  8
DATA
  6
CONTINUOUS
 62
     7
 10
214.80094
 20
-100.08422
 30
0.0
  0
VERTEX
  5
214
  8
DATA
  6
CONTINUOUS
 62
     7
 10
212.2279299999999
 20
-104.49999
 30
0.0
  0
SEQEND
  5
215
  8
DATA
  6
CONTINUOUS
 62
     7
  0
ARC
  5
128
  8
DATA
  6
CONTINUOUS
 62
     7
 10
221.99999
 20
-112.49999
 30
0.0
 40
14.000003862745841
 50
214.849893571422
 51
145.15010642857791
  0
ARC
  5
129
  8
DATA
  6
CONTINUOUS
 62
     7
 10
167.36043000000001
 20
-112.5
 30
0.0
 40
8.750000344897078
 50
66.104648370136175
 51
90.0
  0
ARC
  5
12A
  8
DATA
  6
CONTINUOUS
 62
     7
 10
167.36043000000001
 20
-112.5
 30
0.0
 40
8.75
 50
270.0
 51
293.89564415153399
  0
ARC
  5
12B
  8
DATA
  6
CONTINUOUS
 62
     7
 10
167.36043000000001
 20
-112.5
 30
0.0
 40
9.8795605580915904
 50
54.071867138587798
 51
90.0
  0
ARC
  5
12C
  8
DATA
  6
CONTINUOUS
 62
     7
 10
167.36043000000001
 20
-112.5
 30
0.0
 40
9.8795599999999677
 50
270.0
 51
305.92834180315322
  0
POLYLINE
  5
12D
  8
DATA
  6
CONTINUOUS
 62
     7
 66
     1
 10
0.0
 20
0.0
 30
0.0
 70
   128
  0
VERTEX
  5
216
  8
DATA
  6
CONTINUOUS
 62
     7
 10
221.99999
 20
285.25000999999992
 30
0.0
  0
VERTEX
  5
217
  8
DATA
  6
CONTINUOUS
 62
     7
 10
220.0980701123737
 20
285.25000999999992
 30
0.0
 42
-0.1100249415686028
  0
VERTEX
  5
218
  8
DATA
  6
CONTINUOUS
 62
     7
 10
215.62389999999999
 20
286.24661500000002
 30
0.0
  0
VERTEX
  5
219
  8
DATA
  6
CONTINUOUS
 62
     7
 10
215.08852016883839
 20
286.49757437454889
 30
0.0
 42
-0.2909298359560777
  0
VERTEX
  5
21A
  8
DATA
  6
CONTINUOUS
 62
     7
 10
213.49780999999999
 20
289.00001999999989
 30
0.0
  0
SEQEND
  5
21B
  8
DATA
  6
CONTINUOUS
 62
     7
  0
LINE
  5
134
  8
DATA
  6
CONTINUOUS
 62
     7
 10
213.49780999999999
 20
291.25000999999992
 30
0.0
 11
213.49780999999999
 21
289.00001999999989
 31
0.0
  0
POLYLINE
  5
135
  8
DATA
  6
CONTINUOUS
 62
     7
 66
     1
 10
0.0
 20
0.0
 30
0.0
 70
   128
  0
VERTEX
  5
21C
  8
DATA
  6
CONTINUOUS
 62
     7
 10
221.99999
 20
285.25000999999992
 30
0.0
  0
VERTEX
  5
21D
  8
DATA
  6
CONTINUOUS
 62
     7
 10
223.9019098876262
 20
285.25000999999992
 30
0.0
 42
0.1100249415686042
  0
VERTEX
  5
21E
  8
DATA
  6
CONTINUOUS
 62
     7
 10
228.37607999999989
 20
286.24661500000002
 30
0.0
  0
VERTEX
  5
21F
  8
DATA
  6
CONTINUOUS
 62
     7
 10
228.91145983116149
 20
286.49757437454889
 30
0.0
 42
0.2909298359560815
  0
VERTEX
  5
220
  8
DATA
  6
CONTINUOUS
 62
     7
 10
230.50217000000001
 20
289.00001999999989
 30
0.0
  0
SEQEND
  5
221
  8
DATA
  6
CONTINUOUS
 62
     7
  0
LINE
  5
13C
  8
DATA
  6
CONTINUOUS
 62
     7
 10
230.50217000000001
 20
291.25000999999992
 30
0.0
 11
230.50217000000001
 21
289.00001999999989
 31
0.0
  0
LINE
  5
13D
  8
DATA
  6
CONTINUOUS
 62
     7
 10
235.99999
 20
-111.0
 30
0.0
 11
249.9995899999999
 21
-111.0
 31
0.0
  0
LINE
  5
13E
  8
DATA
  6
CONTINUOUS
 62
     7
 10
235.99999
 20
-114.0
 30
0.0
 11
249.9995899999999
 21
-114.0
 31
0.0
  0
LINE
  5
13F
  8
DATA
  6
CONTINUOUS
 62
     7
 10
220.5
 20
-98.499990000000025
 30
0.0
 11
220.5
 21
-84.500390000000053
 31
0.0
  0
LINE
  5
140
  8
DATA
  6
CONTINUOUS
 62
     7
 10
223.49999999999989
 20
-98.499990000000025
 30
0.0
 11
223.49999999999989
 21
-84.500390000000053
 31
0.0
  0
LINE
  5
141
  8
DATA
  6
CONTINUOUS
 62
     7
 10
223.49997999999999
 20
-126.49999
 30
0.0
 11
223.49997999999999
 21
-140.49959000000001
 31
0.0
  0
LINE
  5
142
  8
DATA
  6
CONTINUOUS
 62
     7
 10
220.49997999999999
 20
-126.49999
 30
0.0
 11
220.49997999999999
 21
-140.49959000000001
 31
0.0
  0
LINE
  5
143
  8
DATA
  6
CONTINUOUS
 62
     7
 10
235.99999
 20
-111.0
 30
0.0
 11
249.9995899999999
 21
-111.0
 31
0.0
  0
LINE
  5
144
  8
DATA
  6
CONTINUOUS
 62
     7
 10
235.99999
 20
-114.0
 30
0.0
 11
249.9995899999999
 21
-114.0
 31
0.0
  0
LINE
  5
145
  8
DATA
  6
CONTINUOUS
 62
     7
 10
-58.750000000000021
 20
282.25000999999992
 30
0.0
 11
-58.750000000000021
 21
291.25000999999992
 31
0.0
  0
LINE
  5
146
  8
DATA
  6
CONTINUOUS
 62
     7
 10
-41.250000000000007
 20
282.25000999999992
 30
0.0
 11
-41.250000000000007
 21
291.25000999999992
 31
0.0
  0
LINE
  5
147
  8
DATA
  6
CONTINUOUS
 62
     7
 10
-58.750000000000021
 20
291.25000999999992
 30
0.0
 11
-41.250000000000007
 21
291.25000999999992
 31
0.0
  0
LINE
  5
148
  8
DATA
  6
CONTINUOUS
 62
     7
 10
-58.000000000000021
 20
15.634709999999981
 30
0.0
 11
-58.000000000000021
 21
244.25001
 31
0.0
  0
LINE
  5
149
  8
DATA
  6
CONTINUOUS
 62
     7
 10
-114.0
 20
298.25000999999992
 30
0.0
 11
-24.000000000000011
 21
298.25000999999992
 31
0.0
  0
LINE
  5
14A
  8
DATA
  6
CONTINUOUS
 62
     7
 10
-144.0
 20
298.25000999999992
 30
0.0
 11
42.000010000000067
 21
298.25000999999992
 31
0.0
  0
LINE
  5
14B
  8
DATA
  6
CONTINUOUS
 62
     7
 10
-50.000000000000021
 20
247.25000999999989
 30
0.0
 11
-50.000000000000021
 21
256.25000999999992
 31
0.0
  0
LINE
  5
14C
  8
DATA
  6
CONTINUOUS
 62
     7
 10
-62.500000000000021
 20
247.25000999999989
 30
0.0
 11
-62.500000000000021
 21
256.25000999999992
 31
0.0
  0
LINE
  5
14D
  8
DATA
  6
CONTINUOUS
 62
     7
 10
-37.500000000000007
 20
247.25000999999989
 30
0.0
 11
-37.500000000000007
 21
256.25000999999992
 31
0.0
  0
LINE
  5
14E
  8
DATA
  6
CONTINUOUS
 62
     7
 10
-63.000000000000021
 20
256.25000999999992
 30
0.0
 11
-37.000000000000007
 21
256.25000999999992
 31
0.0
  0
LINE
  5
14F
  8
DATA
  6
CONTINUOUS
 62
     7
 10
-64.000000000000014
 20
257.25000999999992
 30
0.0
 11
-64.000000000000014
 21
259.25000999999992
 31
0.0
  0
LINE
  5
150
  8
DATA
  6
CONTINUOUS
 62
     7
 10
-45.000000000000021
 20
256.25000999999992
 30
0.0
 11
-45.000000000000021
 21
260.25000999999992
 31
0.0
  0
LINE
  5
151
  8
DATA
  6
CONTINUOUS
 62
     7
 10
-36.0
 20
257.25000999999992
 30
0.0
 11
-36.0
 21
259.25000999999992
 31
0.0
  0
LINE
  5
152
  8
DATA
  6
CONTINUOUS
 62
     7
 10
-102.8619099999999
 20
282.25000999999992
 30
0.0
 11
-102.8619099999999
 21
298.25000999999992
 31
0.0
  0
TEXT
  5
153
  8
DATA
  6
CONTINUOUS
 62
     7
 10
-62.490900000000018
 20
309.98894199999989
 30
0.0
 40
9.9927279999999996
  1
天井
 41
0.85
 11
-62.490900000000018
 21
319.98166999999989
 31
0.0
 73
     3
  0
LINE
  5
154
  8
DATA
  6
CONTINUOUS
 62
     7
 10
3.13809000000002
 20
282.25000999999992
 30
0.0
 11
3.13809000000002
 21
298.25000999999992
 31
0.0
  0
LINE
  5
155
  8
DATA
  6
CONTINUOUS
 62
     7
 10
-42.000000000000007
 20
15.634709999999981
 30
0.0
 11
-42.000000000000007
 21
244.25001
 31
0.0
  0
POLYLINE
  5
156
  8
DATA
  6
CONTINUOUS
 62
     7
 66
     1
 10
0.0
 20
0.0
 30
0.0
 70
     1
  0
VERTEX
  5
222
  8
DATA
  6
CONTINUOUS
 62
     7
 10
-64.000000000000014
 20
282.25000999999992
 30
0.0
  0
VERTEX
  5
223
  8
DATA
  6
CONTINUOUS
 62
     7
 10
-36.0
 20
282.25000999999992
 30
0.0
  0
VERTEX
  5
224
  8
DATA
  6
CONTINUOUS
 62
     7
 10
-36.0
 20
260.25000999999992
 30
0.0
  0
VERTEX
  5
225
  8
DATA
  6
CONTINUOUS
 62
     7
 10
-64.000000000000014
 20
260.25000999999992
 30
0.0
  0
SEQEND
  5
226
  8
DATA
  6
CONTINUOUS
 62
     7
  0
LINE
  5
15C
  8
DATA
  6
CONTINUOUS
 62
     7
 10
-59.500000000000021
 20
244.25001
 30
0.0
 11
-53.000000000000021
 21
244.25001
 31
0.0
  0
LINE
  5
15D
  8
DATA
  6
CONTINUOUS
 62
     7
 10
-51.500000000000021
 20
282.25000999999992
 30
0.0
 11
-51.500000000000021
 21
268.25001999999989
 31
0.0
  0
LINE
  5
15E
  8
DATA
  6
CONTINUOUS
 62
     7
 10
-48.500000000000021
 20
282.25000999999992
 30
0.0
 11
-48.500000000000021
 21
268.25001999999989
 31
0.0
  0
ARC
  5
15F
  8
DATA
  6
CONTINUOUS
 62
     7
 10
-22.000009999999978
 20
268.25001999999989
 30
0.0
 40
13.99999000000359
 50
89.999959074414065
 51
180.0
  0
ARC
  5
160
  8
DATA
  6
CONTINUOUS
 62
     7
 10
-77.999989999999926
 20
268.25001999999989
 30
0.0
 40
13.99998999999991
 50
0.0
 51
90.000040925586418
  0
ARC
  5
161
  8
DATA
  6
CONTINUOUS
 62
     7
 10
-63.000000000000021
 20
259.25000999999992
 30
0.0
 40
1.0
 50
90.0
 51
180.0
  0
ARC
  5
162
  8
DATA
  6
CONTINUOUS
 62
     7
 10
-63.000000000000021
 20
257.25000999999992
 30
0.0
 40
1.0
 50
180.0
 51
270.0
  0
ARC
  5
163
  8
DATA
  6
CONTINUOUS
 62
     7
 10
-37.000000000000007
 20
257.25000999999992
 30
0.0
 40
1.0
 50
270.0
 51
0.0
  0
ARC
  5
164
  8
DATA
  6
CONTINUOUS
 62
     7
 10
-37.000000000000007
 20
259.25000999999992
 30
0.0
 40
1.0
 50
0.0
 51
90.0
  0
ARC
  5
165
  8
DATA
  6
CONTINUOUS
 62
     7
 10
-59.500000000000021
 20
247.25000999999989
 30
0.0
 40
3.0
 50
180.0
 51
270.0
  0
ARC
  5
166
  8
DATA
  6
CONTINUOUS
 62
     7
 10
-53.000000000000021
 20
247.25000999999989
 30
0.0
 40
3.0
 50
270.0
 51
0.0
  0
LINE
  5
167
  8
DATA
  6
CONTINUOUS
 62
     7
 10
-47.000000000000007
 20
244.25001
 30
0.0
 11
-53.000000000000021
 21
244.25001
 31
0.0
  0
LINE
  5
168
  8
DATA
  6
CONTINUOUS
 62
     7
 10
-40.500000000000007
 20
244.25001
 30
0.0
 11
-47.000000000000007
 21
244.25001
 31
0.0
  0
ARC
  5
169
  8
DATA
  6
CONTINUOUS
 62
     7
 10
-47.000000000000007
 20
247.25000999999989
 30
0.0
 40
3.0
 50
180.0
 51
270.0
  0
ARC
  5
16A
  8
DATA
  6
CONTINUOUS
 62
     7
 10
-40.500000000000007
 20
247.25000999999989
 30
0.0
 40
3.0
 50
270.0
 51
0.0
  0
LINE
  5
16B
  8
DATA
  6
CONTINUOUS
 62
     7
 10
-102.8619099999999
 20
282.25000999999992
 30
0.0
 11
-64.000000000000014
 21
282.25000999999992
 31
0.0
  0
LINE
  5
16C
  8
DATA
  6
CONTINUOUS
 62
     7
 10
-36.0
 20
282.25000999999992
 30
0.0
 11
3.13809000000002
 21
282.25000999999992
 31
0.0
  0
CIRCLE
  5
16D
  8
DATA
  6
CONTINUOUS
 62
     7
 10
-50.000000000000021
 20
-12.5
 30
0.0
 40
29.249989999999901
  0
LINE
  5
16E
  8
DATA
  6
CONTINUOUS
 62
     7
 10
209.74999
 20
454.01549
 30
0.0
 11
209.74999
 21
461.71427999999992
 31
0.0
  0
LINE
  5
16F
  8
DATA
  6
CONTINUOUS
 62
     7
 10
234.24999
 20
454.01549
 30
0.0
 11
234.24999
 21
461.71427999999992
 31
0.0
  0
LINE
  5
170
  8
DATA
  6
CONTINUOUS
 62
     7
 10
161.55555000000001
 20
399.92529999999988
 30
0.0
 11
169.55555000000001
 21
399.92529999999988
 31
0.0
  0
LINE
  5
171
  8
DATA
  6
CONTINUOUS
 62
     7
 10
237.0802599999999
 20
422.58827999999988
 30
0.0
 11
282.44443000000001
 21
460.14875999999992
 31
0.0
  0
LINE
  5
172
  8
DATA
  6
CONTINUOUS
 62
     7
 10
237.0802699999999
 20
402.41172999999992
 30
0.0
 11
282.44443000000001
 21
364.85126000000002
 31
0.0
  0
LINE
  5
173
  8
DATA
  6
CONTINUOUS
 62
     7
 10
234.79729999999989
 20
399.50632999999988
 30
0.0
 11
278.54322000000002
 21
363.28572999999989
 31
0.0
  0
LINE
  5
174
  8
DATA
  6
CONTINUOUS
 62
     7
 10
159.99999
 20
359.5
 30
0.0
 11
283.99999000000003
 21
359.5
 31
0.0
  0
LINE
  5
175
  8
DATA
  6
CONTINUOUS
 62
     7
 10
159.99999
 20
465.5
 30
0.0
 11
283.99999000000003
 21
465.5
 31
0.0
  0
LINE
  5
176
  8
DATA
  6
CONTINUOUS
 62
     7
 10
165.45676
 20
461.71427999999992
 30
0.0
 11
209.74999
 21
461.71427999999992
 31
0.0
  0
LINE
  5
177
  8
DATA
  6
CONTINUOUS
 62
     7
 10
234.91229999999999
 20
425.55664000000002
 30
0.0
 11
278.56949000000009
 21
461.70373999999998
 31
0.0
  0
LINE
  5
178
  8
DATA
  6
CONTINUOUS
 62
     7
 10
161.55555000000001
 20
364.85126000000002
 30
0.0
 11
206.91971000000001
 21
402.41172999999992
 31
0.0
  0
LINE
  5
179
  8
DATA
  6
CONTINUOUS
 62
     7
 10
165.45676
 20
363.28572999999989
 30
0.0
 11
209.20267999999999
 21
399.50632999999988
 31
0.0
  0
LINE
  5
17A
  8
DATA
  6
CONTINUOUS
 62
     7
 10
157.99999
 20
463.49999999999989
 30
0.0
 11
157.99999
 21
361.5
 31
0.0
  0
LINE
  5
17B
  8
DATA
  6
CONTINUOUS
 62
     7
 10
161.55555000000001
 20
425.07470000000001
 30
0.0
 11
161.55555000000001
 21
460.14873999999992
 31
0.0
  0
LINE
  5
17C
  8
DATA
  6
CONTINUOUS
 62
     7
 10
161.55555000000001
 20
460.14875999999992
 30
0.0
 11
206.91972000000001
 21
422.58827999999988
 31
0.0
  0
LINE
  5
17D
  8
DATA
  6
CONTINUOUS
 62
     7
 10
165.45676
 20
461.71427999999992
 30
0.0
 11
209.20267999999999
 21
425.49367000000001
 31
0.0
  0
LINE
  5
17E
  8
DATA
  6
CONTINUOUS
 62
     7
 10
285.99999000000003
 20
361.5
 30
0.0
 11
285.99999000000003
 21
463.49999999999989
 31
0.0
  0
LINE
  5
17F
  8
DATA
  6
CONTINUOUS
 62
     7
 10
282.44443000000001
 20
364.85126000000002
 30
0.0
 11
282.44443000000001
 21
460.14873999999992
 31
0.0
  0
LINE
  5
180
  8
DATA
  6
CONTINUOUS
 62
     7
 10
220.49999
 20
430.91284999999988
 30
0.0
 11
220.49999
 21
443.90393
 31
0.0
  0
LINE
  5
181
  8
DATA
  6
CONTINUOUS
 62
     7
 10
161.55555000000001
 20
364.85126000000002
 30
0.0
 11
161.55555000000001
 21
399.92529999999988
 31
0.0
  0
LINE
  5
182
  8
DATA
  6
CONTINUOUS
 62
     7
 10
278.54322000000002
 20
461.71427999999992
 30
0.0
 11
234.24999
 21
461.71427999999992
 31
0.0
  0
POLYLINE
  5
183
  8
DATA
  6
CONTINUOUS
 62
     7
 66
     1
 10
0.0
 20
0.0
 30
0.0
 70
     1
  0
VERTEX
  5
227
  8
DATA
  6
CONTINUOUS
 62
     7
 10
215.04018999999991
 20
400.12594999999988
 30
0.0
  0
VERTEX
  5
228
  8
DATA
  6
CONTINUOUS
 62
     7
 10
228.95961
 20
400.12582999999989
 30
0.0
  0
VERTEX
  5
229
  8
DATA
  6
CONTINUOUS
 62
     7
 10
235.91941999999989
 20
412.49977999999999
 30
0.0
  0
VERTEX
  5
22A
  8
DATA
  6
CONTINUOUS
 62
     7
 10
228.95998
 20
424.87394999999998
 30
0.0
  0
VERTEX
  5
22B
  8
DATA
  6
CONTINUOUS
 62
     7
 10
215.04036999999991
 20
424.87416999999999
 30
0.0
  0
VERTEX
  5
22C
  8
DATA
  6
CONTINUOUS
 62
     7
 10
208.08055999999999
 20
412.5002199999999
 30
0.0
  0
SEQEND
  5
22D
  8
DATA
  6
CONTINUOUS
 62
     7
  0
CIRCLE
  5
18B
  8
DATA
  6
CONTINUOUS
 62
     7
 10
221.99999
 20
412.5
 30
0.0
 40
6.7555600000000604
  0
CIRCLE
  5
18C
  8
DATA
  6
CONTINUOUS
 62
     7
 10
221.99999
 20
412.5
 30
0.0
 40
11.0
  0
LINE
  5
18D
  8
DATA
  6
CONTINUOUS
 62
     7
 10
165.45676
 20
363.28572000000003
 30
0.0
 11
209.74999
 21
363.28572000000003
 31
0.0
  0
LINE
  5
18E
  8
DATA
  6
CONTINUOUS
 62
     7
 10
180.02728999999991
 20
410.92129999999992
 30
0.0
 11
204.0626
 21
410.96023999999989
 31
0.0
  0
ARC
  5
18F
  8
DATA
  6
CONTINUOUS
 62
     7
 10
167.36043000000001
 20
412.5
 30
0.0
 40
12.764859259090951
 50
279.9021380190436
 51
352.89572766419491
  0
ARC
  5
190
  8
DATA
  6
CONTINUOUS
 62
     7
 10
221.99999
 20
456.2688
 30
0.0
 40
12.455517089069399
 50
190.42268690659901
 51
263.08316564255023
  0
ARC
  5
191
  8
DATA
  6
CONTINUOUS
 62
     7
 10
221.99999
 20
412.5
 30
0.0
 40
18.473847599309131
 50
94.657307283850173
 51
134.56377448092459
  0
ARC
  5
192
  8
DATA
  6
CONTINUOUS
 62
     7
 10
221.99999
 20
412.5
 30
0.0
 40
18.00335582244881
 50
184.90628853657739
 51
213.78137079379471
  0
LINE
  5
193
  8
DATA
  6
CONTINUOUS
 62
     7
 10
278.52807000000001
 20
363.25565
 30
0.0
 11
234.23497
 21
363.25565
 31
0.0
  0
ARC
  5
194
  8
DATA
  6
CONTINUOUS
 62
     7
 10
159.99999
 20
463.49999999999989
 30
0.0
 40
2.0
 50
90.0
 51
180.0
  0
ARC
  5
195
  8
DATA
  6
CONTINUOUS
 62
     7
 10
159.99999
 20
361.5
 30
0.0
 40
2.0
 50
180.0
 51
270.0
  0
ARC
  5
196
  8
DATA
  6
CONTINUOUS
 62
     7
 10
283.99999000000003
 20
361.5
 30
0.0
 40
2.0
 50
270.0
 51
0.0
  0
ARC
  5
197
  8
DATA
  6
CONTINUOUS
 62
     7
 10
283.99999000000003
 20
463.49999999999989
 30
0.0
 40
2.0
 50
0.0
 51
90.0
  0
LINE
  5
198
  8
DATA
  6
CONTINUOUS
 62
     7
 10
234.24999
 20
454.01549
 30
0.0
 11
234.24999
 21
461.71427999999992
 31
0.0
  0
LINE
  5
199
  8
DATA
  6
CONTINUOUS
 62
     7
 10
223.49999
 20
430.91284999999988
 30
0.0
 11
223.49999
 21
443.90393
 31
0.0
  0
ARC
  5
19A
  8
DATA
  6
CONTINUOUS
 62
     7
 10
221.99999
 20
456.2688
 30
0.0
 40
12.45552127038045
 50
276.9168343574492
 51
349.57731309340068
  0
ARC
  5
19B
  8
DATA
  6
CONTINUOUS
 62
     7
 10
221.99999
 20
412.5
 30
0.0
 40
18.4738485802526
 50
45.436225519075023
 51
85.342692716149912
  0
LINE
  5
19C
  8
DATA
  6
CONTINUOUS
 62
     7
 10
161.55555000000001
 20
425.07470000000001
 30
0.0
 11
169.55555000000001
 21
425.07470000000001
 31
0.0
  0
LINE
  5
19D
  8
DATA
  6
CONTINUOUS
 62
     7
 10
180.02728999999991
 20
414.07870000000003
 30
0.0
 11
204.0626
 21
414.03976
 31
0.0
  0
ARC
  5
19E
  8
DATA
  6
CONTINUOUS
 62
     7
 10
167.36043000000001
 20
412.5
 30
0.0
 40
12.76485941754151
 50
7.1042723358049606
 51
80.097861980956338
  0
ARC
  5
19F
  8
DATA
  6
CONTINUOUS
 62
     7
 10
221.99999
 20
412.5
 30
0.0
 40
18.003350239330519
 50
146.21862920620541
 51
175.09371146342249
  0
LINE
  5
1A0
  8
DATA
  6
CONTINUOUS
 62
     7
 10
209.74999
 20
370.98448999999999
 30
0.0
 11
209.74999
 21
363.28570000000002
 31
0.0
  0
LINE
  5
1A1
  8
DATA
  6
CONTINUOUS
 62
     7
 10
234.24999
 20
370.98448999999999
 30
0.0
 11
234.24999
 21
363.28570000000002
 31
0.0
  0
LINE
  5
1A2
  8
DATA
  6
CONTINUOUS
 62
     7
 10
220.49999
 20
394.08712999999989
 30
0.0
 11
220.49999
 21
381.09604999999999
 31
0.0
  0
ARC
  5
1A3
  8
DATA
  6
CONTINUOUS
 62
     7
 10
221.99999
 20
368.73117999999988
 30
0.0
 40
12.45552127038045
 50
96.916834357449318
 51
169.5773130934009
  0
ARC
  5
1A4
  8
DATA
  6
CONTINUOUS
 62
     7
 10
221.99999
 20
412.49997999999999
 30
0.0
 40
18.4738485802526
 50
225.43622551907501
 51
265.34269271614983
  0
LINE
  5
1A5
  8
DATA
  6
CONTINUOUS
 62
     7
 10
234.24999
 20
370.98448999999999
 30
0.0
 11
234.24999
 21
363.28570000000002
 31
0.0
  0
LINE
  5
1A6
  8
DATA
  6
CONTINUOUS
 62
     7
 10
223.49999
 20
394.08712999999989
 30
0.0
 11
223.49999
 21
381.09604999999999
 31
0.0
  0
ARC
  5
1A7
  8
DATA
  6
CONTINUOUS
 62
     7
 10
221.99999
 20
368.73117999999988
 30
0.0
 40
12.455517089069399
 50
10.42268690659909
 51
83.083165642550313
  0
ARC
  5
1A8
  8
DATA
  6
CONTINUOUS
 62
     7
 10
221.99999
 20
412.49997999999999
 30
0.0
 40
18.473847599309131
 50
274.65730728385012
 51
314.56377448092462
  0
LINE
  5
1A9
  8
DATA
  6
CONTINUOUS
 62
     7
 10
282.44443000000001
 20
399.92529999999988
 30
0.0
 11
274.44443000000001
 21
399.92529999999988
 31
0.0
  0
LINE
  5
1AA
  8
DATA
  6
CONTINUOUS
 62
     7
 10
263.97269
 20
410.92129999999992
 30
0.0
 11
239.93737999999999
 21
410.96023999999989
 31
0.0
  0
ARC
  5
1AB
  8
DATA
  6
CONTINUOUS
 62
     7
 10
276.6395500000001
 20
412.5
 30
0.0
 40
12.76485941754162
 50
187.10427233580481
 51
260.0978619809564
  0
ARC
  5
1AC
  8
DATA
  6
CONTINUOUS
 62
     7
 10
221.99999
 20
412.5
 30
0.0
 40
18.003350239330519
 50
326.21862920620538
 51
355.09371146342249
  0
LINE
  5
1AD
  8
DATA
  6
CONTINUOUS
 62
     7
 10
282.44443000000001
 20
425.07470000000001
 30
0.0
 11
274.44443000000001
 21
425.07470000000001
 31
0.0
  0
LINE
  5
1AE
  8
DATA
  6
CONTINUOUS
 62
     7
 10
263.97269
 20
414.07870000000003
 30
0.0
 11
239.93737999999999
 21
414.03976
 31
0.0
  0
ARC
  5
1AF
  8
DATA
  6
CONTINUOUS
 62
     7
 10
276.6395500000001
 20
412.5
 30
0.0
 40
12.76485925909097
 50
99.90213801904406
 51
172.89572766419491
  0
ARC
  5
1B0
  8
DATA
  6
CONTINUOUS
 62
     7
 10
221.99999
 20
412.5
 30
0.0
 40
18.00335582244881
 50
4.90628853657745
 51
33.7813707937947
  0
LINE
  5
1B1
  8
DATA
  6
CONTINUOUS
 62
     7
 10
-144.0
 20
313.25000999999992
 30
0.0
 11
-129.0
 21
298.25000999999992
 31
0.0
  0
LINE
  5
1B2
  8
DATA
  6
CONTINUOUS
 62
     7
 10
-60.000009999999989
 20
304.25001999999989
 30
0.0
 11
-54.000000000000021
 21
298.25000999999992
 31
0.0
  0
LINE
  5
1B3
  8
DATA
  6
CONTINUOUS
 62
     7
 10
-35.000009999999989
 20
304.25001999999989
 30
0.0
 11
-29.000000000000011
 21
298.25000999999992
 31
0.0
  0
LINE
  5
1B4
  8
DATA
  6
CONTINUOUS
 62
     7
 10
-23.999989999999929
 20
318.24999999999989
 30
0.0
 11
-4.0000000000000142
 21
298.25000999999992
 31
0.0
  0
LINE
  5
1B5
  8
DATA
  6
CONTINUOUS
 62
     7
 10
127.9999899999999
 20
313.25000999999992
 30
0.0
 11
142.99999
 21
298.25000999999992
 31
0.0
  0
LINE
  5
1B6
  8
DATA
  6
CONTINUOUS
 62
     7
 10
211.99997999999999
 20
304.25001999999989
 30
0.0
 11
217.99999
 21
298.25000999999992
 31
0.0
  0
LINE
  5
1B7
  8
DATA
  6
CONTINUOUS
 62
     7
 10
236.99997999999999
 20
304.25001999999989
 30
0.0
 11
242.99999
 21
298.25000999999992
 31
0.0
  0
LINE
  5
1B8
  8
DATA
  6
CONTINUOUS
 62
     7
 10
248.0
 20
318.24999999999989
 30
0.0
 11
267.99999000000003
 21
298.25000999999992
 31
0.0
  0
LINE
  5
1B9
  8
DATA
  6
CONTINUOUS
 62
     7
 10
-137.00000999999989
 20
331.25001999999989
 30
0.0
 11
-104.0
 21
298.25000999999992
 31
0.0
  0
LINE
  5
1BA
  8
DATA
  6
CONTINUOUS
 62
     7
 10
-112.00001
 20
331.25001999999989
 30
0.0
 11
-79.000000000000014
 21
298.25000999999992
 31
0.0
  0
LINE
  5
1BB
  8
DATA
  6
CONTINUOUS
 62
     7
 10
-87.000010000000003
 20
331.25001999999989
 30
0.0
 11
-78.999989999999926
 21
323.24999999999989
 31
0.0
  0
LINE
  5
1BC
  8
DATA
  6
CONTINUOUS
 62
     7
 10
-62.000009999999989
 20
331.25001999999989
 30
0.0
 11
-57.000009999999989
 21
326.25001999999989
 31
0.0
  0
LINE
  5
1BD
  8
DATA
  6
CONTINUOUS
 62
     7
 10
-37.000009999999982
 20
331.25001999999989
 30
0.0
 11
-32.000009999999982
 21
326.25001999999989
 31
0.0
  0
LINE
  5
1BE
  8
DATA
  6
CONTINUOUS
 62
     7
 10
-12.00000999999998
 20
331.25001999999989
 30
0.0
 11
20.999999999999979
 21
298.25000999999992
 31
0.0
  0
LINE
  5
1BF
  8
DATA
  6
CONTINUOUS
 62
     7
 10
12.999990000000009
 20
331.25001999999989
 30
0.0
 11
42.000010000000067
 21
302.24999999999989
 31
0.0
  0
LINE
  5
1C0
  8
DATA
  6
CONTINUOUS
 62
     7
 10
134.99997999999999
 20
331.25001999999989
 30
0.0
 11
167.99999
 21
298.25000999999992
 31
0.0
  0
LINE
  5
1C1
  8
DATA
  6
CONTINUOUS
 62
     7
 10
159.99997999999999
 20
331.25001999999989
 30
0.0
 11
192.99999
 21
298.25000999999992
 31
0.0
  0
LINE
  5
1C2
  8
DATA
  6
CONTINUOUS
 62
     7
 10
184.99997999999999
 20
331.25001999999989
 30
0.0
 11
193.0
 21
323.24999999999989
 31
0.0
  0
LINE
  5
1C3
  8
DATA
  6
CONTINUOUS
 62
     7
 10
209.99997999999999
 20
331.25001999999989
 30
0.0
 11
214.99997999999999
 21
326.25001999999989
 31
0.0
  0
LINE
  5
1C4
  8
DATA
  6
CONTINUOUS
 62
     7
 10
234.99997999999999
 20
331.25001999999989
 30
0.0
 11
239.99997999999999
 21
326.25001999999989
 31
0.0
  0
LINE
  5
1C5
  8
DATA
  6
CONTINUOUS
 62
     7
 10
259.99997999999999
 20
331.25001999999989
 30
0.0
 11
292.99999000000003
 21
298.25000999999992
 31
0.0
  0
LINE
  5
1C6
  8
DATA
  6
CONTINUOUS
 62
     7
 10
284.99997999999999
 20
331.25001999999989
 30
0.0
 11
314.0
 21
302.24999999999989
 31
0.0
  0
CIRCLE
  5
1C7
  8
DATA
  6
CONTINUOUS
 62
     7
 10
167.49999
 20
412.5
 30
0.0
 40
3.6000000000000218
  0
CIRCLE
  5
1C8
  8
DATA
  6
CONTINUOUS
 62
     7
 10
276.49999000000003
 20
412.5
 30
0.0
 40
3.5999999999999082
  0
CIRCLE
  5
1C9
  8
DATA
  6
CONTINUOUS
 62
     7
 10
221.99999
 20
456.0
 30
0.0
 40
3.5999999999999082
  0
CIRCLE
  5
1CA
  8
DATA
  6
CONTINUOUS
 62
     7
 10
221.99999
 20
369.0
 30
0.0
 40
3.5999999999999082
  0
LINE
  5
1CB
  8
DATA
  6
CONTINUOUS
 62
     7
 10
168.9999599999999
 20
280.24999000000003
 30
0.0
 11
121.0
 21
223.25001
 31
0.0
  0
SOLID
  5
1CC
  8
DATA
  6
CONTINUOUS
 62
     7
 10
168.9999599999999
 20
280.24999000000003
 30
0.0
 11
164.67717965856571
 21
271.386976859654
 31
0.0
 12
160.82481583916501
 22
274.73578563710208
 32
0.0
 13
160.82481583916501
 23
274.73578563710208
 33
0.0
  0
ENDSEC
  0
EOF
