  0
SECTION
  2
HEADER
  9
$ACADVER
  1
AC1009
  9
$INSBASE
 10
0.0
 20
0.0
 30
0.0
  9
$EXTMIN
 10
-270.01647823492112
 20
-405.80211091866698
 30
-0.0015258207003583
  9
$EXTMAX
 10
270.0164807494923
 20
397.08808227102492
 30
0.0000000349246037
  9
$LIMMIN
 10
0.0
 20
0.0
  9
$LIMMAX
 10
0.0
 20
0.0
  9
$ORTHOMODE
 70
     0
  9
$REGENMODE
 70
     1
  9
$FILLMODE
 70
     1
  9
$QTEXTMODE
 70
     0
  9
$MIRRTEXT
 70
     1
  9
$DRAGMODE
 70
     2
  9
$LTSCALE
 40
15.24
  9
$OSMODE
 70
   231
  9
$ATTMODE
 70
     1
  9
$TEXTSIZE
 40
0.0
  9
$TRACEWID
 40
1.0
  9
$TEXTSTYLE
  7
STANDARD
  9
$CLAYER
  8
DATA
  9
$CELTYPE
  6
BYLAYER
  9
$CECOLOR
 62
   256
  9
$DIMSCALE
 40
1.0
  9
$DIMASZ
 40
0.18
  9
$DIMEXO
 40
0.0625
  9
$DIMDLI
 40
0.38
  9
$DIMRND
 40
0.0
  9
$DIMDLE
 40
0.0
  9
$DIMEXE
 40
0.18
  9
$DIMTP
 40
0.0
  9
$DIMTM
 40
0.0
  9
$DIMTXT
 40
0.18
  9
$DIMCEN
 40
0.09
  9
$DIMTSZ
 40
0.0
  9
$DIMTOL
 70
     0
  9
$DIMLIM
 70
     0
  9
$DIMTIH
 70
     1
  9
$DIMTOH
 70
     1
  9
$DIMSE1
 70
     0
  9
$DIMSE2
 70
     0
  9
$DIMTAD
 70
     0
  9
$DIMZIN
 70
     0
  9
$DIMBLK
  1

  9
$DIMASO
 70
     1
  9
$DIMSHO
 70
     1
  9
$DIMPOST
  1

  9
$DIMAPOST
  1

  9
$DIMALT
 70
     0
  9
$DIMALTD
 70
     2
  9
$DIMALTF
 40
25.399999999999999
  9
$DIMLFAC
 40
1.0
  9
$DIMTOFL
 70
     0
  9
$DIMTVP
 40
0.0
  9
$DIMTIX
 70
     0
  9
$DIMSOXD
 70
     0
  9
$DIMSAH
 70
     0
  9
$DIMBLK1
  1

  9
$DIMBLK2
  1

  9
$DIMSTYLE
  2
STANDARD
  9
$DIMCLRD
 70
     0
  9
$DIMCLRE
 70
     0
  9
$DIMCLRT
 70
     0
  9
$DIMTFAC
 40
1.0
  9
$DIMGAP
 40
0.09
  9
$LUNITS
 70
     2
  9
$LUPREC
 70
     4
  9
$SKETCHINC
 40
0.1
  9
$FILLETRAD
 40
0.0
  9
$AUNITS
 70
     0
  9
$AUPREC
 70
     0
  9
$MENU
  1
acad
  9
$ELEVATION
 40
0.0
  9
$PELEVATION
 40
0.0
  9
$THICKNESS
 40
0.0
  9
$LIMCHECK
 70
     0
  9
$BLIPMODE
 70
     0
  9
$CHAMFERA
 40
0.0
  9
$CHAMFERB
 40
0.0
  9
$SKPOLY
 70
     0
  9
$TDCREATE
 40
2456653.416608796
  9
$TDUPDATE
 40
2456653.4367176509
  9
$TDINDWG
 40
0.0004674537
  9
$TDUSRTIMER
 40
0.0004578125
  9
$USRTIMER
 70
     1
  9
$ANGBASE
 50
0.0
  9
$ANGDIR
 70
     0
  9
$PDMODE
 70
     1
  9
$PDSIZE
 40
-2.0
  9
$PLINEWID
 40
0.0
  9
$COORDS
 70
     2
  9
$SPLFRAME
 70
     0
  9
$SPLINETYPE
 70
     6
  9
$SPLINESEGS
 70
     8
  9
$ATTDIA
 70
     0
  9
$ATTREQ
 70
     1
  9
$HANDLING
 70
     1
  9
$HANDSEED
  5
79C
  9
$SURFTAB1
 70
     6
  9
$SURFTAB2
 70
     6
  9
$SURFTYPE
 70
     6
  9
$SURFU
 70
     6
  9
$SURFV
 70
     6
  9
$UCSNAME
  2

  9
$UCSORG
 10
0.0
 20
0.0
 30
0.0
  9
$UCSXDIR
 10
1.0
 20
0.0
 30
0.0
  9
$UCSYDIR
 10
0.0
 20
1.0
 30
0.0
  9
$PUCSNAME
  2

  9
$PUCSORG
 10
0.0
 20
0.0
 30
0.0
  9
$PUCSXDIR
 10
1.0
 20
0.0
 30
0.0
  9
$PUCSYDIR
 10
0.0
 20
1.0
 30
0.0
  9
$USERI1
 70
     0
  9
$USERI2
 70
     0
  9
$USERI3
 70
     0
  9
$USERI4
 70
     0
  9
$USERI5
 70
     0
  9
$USERR1
 40
0.0
  9
$USERR2
 40
0.0
  9
$USERR3
 40
0.0
  9
$USERR4
 40
0.0
  9
$USERR5
 40
0.0
  9
$WORLDVIEW
 70
     1
  9
$SHADEDGE
 70
     3
  9
$SHADEDIF
 70
    70
  9
$TILEMODE
 70
     1
  9
$MAXACTVP
 70
    64
  9
$PLIMCHECK
 70
     0
  9
$PEXTMIN
 10
1.0000000000000000E+020
 20
1.0000000000000000E+020
 30
1.0000000000000000E+020
  9
$PEXTMAX
 10
-1.0000000000000000E+020
 20
-1.0000000000000000E+020
 30
-1.0000000000000000E+020
  9
$PLIMMIN
 10
0.0
 20
0.0
  9
$PLIMMAX
 10
12.0
 20
9.0
  9
$UNITMODE
 70
     0
  9
$VISRETAIN
 70
     0
  9
$PLINEGEN
 70
     1
  9
$PSLTSCALE
 70
     0
  0
ENDSEC
  0
SECTION
  2
TABLES
  0
TABLE
  2
VPORT
 70
     1
  0
VPORT
  2
*ACTIVE
 70
     0
 10
0.0
 20
0.0
 11
1.0
 21
1.0
 12
0.0000012572855894
 22
-4.3570143238210903
 13
0.0
 23
0.0
 14
1.0
 24
1.0
 15
0.0
 25
0.0
 16
0.0
 26
0.0
 36
1.0
 17
0.0
 27
0.0
 37
0.0
 40
809.21216321480745
 41
2.1787122207621552
 42
50.0
 43
0.0
 44
0.0
 50
0.0
 51
0.0
 71
     0
 72
  2000
 73
     1
 74
     1
 75
     0
 76
     0
 77
     0
 78
     0
  0
ENDTAB
  0
TABLE
  2
LTYPE
 70
    14
  0
LTYPE
  2
CONTINUOUS
 70
     0
  3
Solid line
 72
    65
 73
     0
 40
0.0
  0
LTYPE
  2
STYLE_02
 70
     0
  3

 72
    65
 73
     2
 40
0.694427490234375
 49
0.4860687255859375
 49
-0.2083587646484375
  0
ENDTAB
  0
TABLE
  2
LAYER
 70
     6
  0
LAYER
  2
0
 70
     0
 62
     7
  6
CONTINUOUS
  0
LAYER
  2
DATA
 70
     0
 62
     7
  6
CONTINUOUS
  0
LAYER
  2
HIBINO-BASE
 70
     0
 62
     7
  6
CONTINUOUS
  0
LAYER
  2
SPEC
 70
     0
 62
     7
  6
CONTINUOUS
  0
LAYER
  2
DIMNSIONS
 70
     0
 62
     7
  6
CONTINUOUS
  0
LAYER
  2
TANSI
 70
     0
 62
     7
  6
CONTINUOUS
  0
ENDTAB
  0
TABLE
  2
STYLE
 70
     3
  0
STYLE
  2
STANDARD
 70
     0
 40
0.0
 41
1.0
 50
0.0
 71
     0
 42
0.0
  3
txt
  4
BIGFONT.SHX
  0
ENDTAB
  0
TABLE
  2
VIEW
 70
     0
  0
ENDTAB
  0
TABLE
  2
UCS
 70
     0
  0
ENDTAB
  0
TABLE
  2
APPID
 70
     4
  0
APPID
  2
ACAD
 70
     0
  0
APPID
  2
ACADANNOTATIVE
 70
     0
  0
APPID
  2
ACAD_NAV_VCDISPLAY
 70
     0
  0
APPID
  2
ACAD_MLEADERVER
 70
     0
  0
ENDTAB
  0
TABLE
  2
DIMSTYLE
 70
     2
  0
DIMSTYLE
  2
STANDARD
 70
     0
  3

  4

  5

  6

  7

 40
1.0
 41
0.18
 42
0.0625
 43
0.38
 44
0.18
 45
0.0
 46
0.0
 47
0.0
 48
0.0
140
0.18
141
0.09
142
0.0
143
25.399999999999999
144
1.0
145
0.0
146
1.0
147
0.09
 71
     0
 72
     0
 73
     1
 74
     1
 75
     0
 76
     0
 77
     0
 78
     0
170
     0
171
     2
172
     0
173
     0
174
     0
175
     0
176
     0
177
     0
178
     0
  0
ENDTAB
  0
ENDSEC
  0
SECTION
  2
BLOCKS
  0
BLOCK
  8
0
  2
$MODEL_SPACE
 70
     0
 10
0.0
 20
0.0
 30
0.0
  3
$MODEL_SPACE
  1

  0
ENDBLK
  5
56F
  8
0
  0
BLOCK
 67
     1
  8
0
  2
$PAPER_SPACE
 70
     0
 10
0.0
 20
0.0
 30
0.0
  3
$PAPER_SPACE
  1

  0
ENDBLK
  5
56B
 67
     1
  8
0
  0
ENDSEC
  0
SECTION
  2
ENTITIES
  0
LINE
  5
30
  8
HIBINO-BASE
  6
CONTINUOUS
 62
     7
 10
-269.99999999999989
 20
397.0636300000001
 30
0.0
 11
269.99999999999989
 21
397.0636300000001
 31
0.0
  0
LINE
  5
31
  8
HIBINO-BASE
  6
CONTINUOUS
 62
     7
 10
269.99999999999989
 20
-382.93637000000001
 30
0.0
 11
-269.99999999999989
 21
-382.93637000000001
 31
0.0
  0
LINE
  5
32
  8
HIBINO-BASE
  6
CONTINUOUS
 62
     7
 10
-269.99999999999989
 20
-382.93637000000001
 30
0.0
 11
-269.99999999999989
 21
397.0636300000001
 31
0.0
  0
LINE
  5
33
  8
HIBINO-BASE
  6
CONTINUOUS
 62
     7
 10
269.99999999999989
 20
397.0636300000001
 30
0.0
 11
269.99999999999989
 21
-382.93637000000001
 31
0.0
  0
LINE
  5
34
  8
HIBINO-BASE
  6
CONTINUOUS
 62
     7
 10
0.0000000000000213
 20
-315.43637000000001
 30
0.0
 11
269.99999999999989
 21
-315.43637000000001
 31
0.0
  0
LINE
  5
35
  8
HIBINO-BASE
  6
CONTINUOUS
 62
     7
 10
0.0000000000000213
 20
-382.93637000000001
 30
0.0
 11
0.0000000000000213
 21
-315.43637000000001
 31
0.0
  0
TEXT
  5
36
  8
HIBINO-BASE
 62
     7
 10
2.700000000000037
 20
-322.96244999999999
 30
0.0
 40
4.8865234374999993
  1
NOTE
 41
0.7
 11
2.7000000000000379
 21
-318.0759265625
 31
0.0
 73
     3
1001
ACADANNOTATIVE
1000
AnnotativeData
1002
{
1070
     1
1070
     0
1002
}
  0
LINE
  5
37
  8
HIBINO-BASE
  6
CONTINUOUS
 62
     7
 10
105.0
 20
-382.93637000000001
 30
0.0
 11
105.0
 21
-315.43637000000001
 31
0.0
  0
TEXT
  5
38
  8
HIBINO-BASE
 62
     7
 10
107.7
 20
-322.96244999999999
 30
0.0
 40
4.8865234374999993
  1
TITLE
 41
0.7
 11
107.7
 21
-318.0759265625
 31
0.0
 73
     3
1001
ACADANNOTATIVE
1000
AnnotativeData
1002
{
1070
     1
1070
     0
1002
}
  0
LINE
  5
39
  8
HIBINO-BASE
  6
CONTINUOUS
 62
     7
 10
0.0000000000000213
 20
-352.93637000000001
 30
0.0
 11
269.99999999999989
 21
-352.93637000000001
 31
0.0
  0
TEXT
  5
3A
  8
HIBINO-BASE
 62
     7
 10
145.19999999999999
 20
-360.29349000000002
 30
0.0
 40
4.8865234374999993
  1
DRAWN
 41
0.7
 11
145.19999999999999
 21
-355.40696656249997
 31
0.0
 73
     3
1001
ACADANNOTATIVE
1000
AnnotativeData
1002
{
1070
     1
1070
     0
1002
}
  0
TEXT
  5
3B
  8
HIBINO-BASE
 62
     7
 10
70.199999999999989
 20
-360.29349000000002
 30
0.0
 40
4.8865234374999993
  1
DATE
 41
0.7
 11
70.199999999999989
 21
-355.40696656249997
 31
0.0
 73
     3
1001
ACADANNOTATIVE
1000
AnnotativeData
1002
{
1070
     1
1070
     0
1002
}
  0
TEXT
  5
3C
  8
HIBINO-BASE
 62
     7
 10
40.200000000000003
 20
-360.29349000000002
 30
0.0
 40
4.8865234374999993
  1
SCALE
 41
0.7
 11
40.200000000000003
 21
-355.40696656249997
 31
0.0
 73
     3
1001
ACADANNOTATIVE
1000
AnnotativeData
1002
{
1070
     1
1070
     0
1002
}
  0
TEXT
  5
3D
  8
HIBINO-BASE
 62
     7
 10
107.7
 20
-360.29349000000002
 30
0.0
 40
4.8865234374999993
  1
DESIGN
 41
0.7
 11
107.7
 21
-355.40696656249997
 31
0.0
 73
     3
1001
ACADANNOTATIVE
1000
AnnotativeData
1002
{
1070
     1
1070
     0
1002
}
  0
TEXT
  5
3E
  8
HIBINO-BASE
 62
     7
 10
220.19999999999999
 20
-360.29349000000002
 30
0.0
 40
4.8865234374999993
  1
DRAWING NO.
 41
0.7
 11
220.19999999999999
 21
-355.40696656249997
 31
0.0
 73
     3
1001
ACADANNOTATIVE
1000
AnnotativeData
1002
{
1070
     1
1070
     0
1002
}
  0
TEXT
  5
3F
  8
HIBINO-BASE
 62
     7
 10
182.69999999999999
 20
-360.29349000000002
 30
0.0
 40
4.8865234374999993
  1
CHECK
 41
0.7
 11
182.69999999999999
 21
-355.40696656249997
 31
0.0
 73
     3
1001
ACADANNOTATIVE
1000
AnnotativeData
1002
{
1070
     1
1070
     0
1002
}
  0
LINE
  5
40
  8
HIBINO-BASE
  6
CONTINUOUS
 62
     7
 10
43.125000000000021
 20
-379.18637000000001
 30
0.0
 11
54.375000000000071
 21
-367.93637000000001
 31
0.0
  0
TEXT
  5
41
  8
HIBINO-BASE
 62
     7
 10
41.250000000000007
 20
-371.2632000000001
 30
0.0
 40
4.8865234374999993
  1
1
 41
0.7
 11
41.250000000000007
 21
-366.37667656250011
 31
0.0
 73
     3
1001
ACADANNOTATIVE
1000
AnnotativeData
1002
{
1070
     1
1070
     0
1002
}
  0
LINE
  5
42
  8
HIBINO-BASE
  6
CONTINUOUS
 62
     7
 10
37.500000000000021
 20
-382.93637000000001
 30
0.0
 11
37.500000000000021
 21
-352.93637000000001
 31
0.0
  0
LINE
  5
43
  8
HIBINO-BASE
  6
CONTINUOUS
 62
     7
 10
67.499999999999972
 20
-382.93637000000001
 30
0.0
 11
67.499999999999972
 21
-352.93637000000001
 31
0.0
  0
LINE
  5
44
  8
HIBINO-BASE
  6
CONTINUOUS
 62
     7
 10
142.49999999999989
 20
-352.93637000000001
 30
0.0
 11
142.49999999999989
 21
-382.93637000000001
 31
0.0
  0
LINE
  5
45
  8
HIBINO-BASE
  6
CONTINUOUS
 62
     7
 10
217.50000000000011
 20
-352.93637000000001
 30
0.0
 11
217.50000000000011
 21
-382.93637000000001
 31
0.0
  0
LINE
  5
46
  8
HIBINO-BASE
  6
CONTINUOUS
 62
     7
 10
179.99999999999989
 20
-382.93637000000001
 30
0.0
 11
179.99999999999989
 21
-352.93637000000001
 31
0.0
  0
TEXT
  5
47
  8
HIBINO-BASE
 62
     7
 10
70.069620000000043
 20
-374.34543000000002
 30
0.0
 40
4.8865234374999993
  1
'13.12.
 41
0.7
 11
70.069620000000043
 21
-369.45890656249998
 31
0.0
 73
     3
1001
ACADANNOTATIVE
1000
AnnotativeData
1002
{
1070
     1
1070
     0
1002
}
  0
TEXT
  5
48
  8
HIBINO-BASE
 62
     7
 10
52.500000000000021
 20
-376.88819999999998
 30
0.0
 40
4.8865234374999993
  1
3
 41
0.7
 11
52.500000000000021
 21
-372.00167656249999
 31
0.0
 73
     3
1001
ACADANNOTATIVE
1000
AnnotativeData
1002
{
1070
     1
1070
     0
1002
}
  0
TEXT
  5
49
  8
HIBINO-BASE
 62
     7
 10
147.01743003310381
 20
-374.34543000000002
 30
0.0
 40
4.8865234374999993
  1
Ootake
 41
0.7
 11
147.01743003310381
 21
-369.45890656249998
 31
0.0
 73
     3
1001
ACADANNOTATIVE
1000
AnnotativeData
1002
{
1070
     1
1070
     0
1002
}
  0
TEXT
  5
4A
  8
HIBINO-BASE
 62
     7
 10
11.65000000000008
 20
-377.00837000000001
 30
0.0
 40
9.7730468749999986
  1
A4
 41
0.7
 11
11.65000000000008
 21
-367.23532312499998
 31
0.0
 73
     3
1001
ACADANNOTATIVE
1000
AnnotativeData
1002
{
1070
     1
1070
     0
1002
}
  0
TEXT
  5
4B
  8
HIBINO-BASE
 62
     7
 10
2.8750000000000062
 20
-360.794735
 30
0.0
 40
4.8865234374999993
  1
PAPER SIZE
 41
0.7
 11
2.8750000000000071
 21
-355.90821156250001
 31
0.0
 73
     3
1001
ACADANNOTATIVE
1000
AnnotativeData
1002
{
1070
     1
1070
     0
1002
}
  0
TEXT
  5
4C
  8
HIBINO-BASE
 62
     7
 10
-248.44799999999989
 20
-402.1624033999999
 30
0.0
 40
10.800132539062499
  1
Hibino Corporation
 41
0.7
 11
-248.44799999999989
 21
-391.36227086093749
 31
0.0
 73
     3
1001
ACADANNOTATIVE
1000
AnnotativeData
1002
{
1070
     1
1070
     0
1002
}
  0
TEXT
  5
4D
  8
HIBINO-BASE
 62
     7
 10
150.20517000000001
 20
-402.1624033999999
 30
0.0
 40
10.800132539062499
  1
ヒビノ株式会社
 41
0.7
 11
150.20517000000001
 21
-391.36227086093749
 31
0.0
 73
     3
1001
ACADANNOTATIVE
1000
AnnotativeData
1002
{
1070
     1
1070
     0
1002
}
  0
TEXT
  5
4E
  8
SPEC
 62
     7
 10
-243.74999999999989
 20
371.24343999999991
 30
0.0
 40
7.3297851562499989
  1
仕様
 41
0.7
 11
-243.74999999999989
 21
378.57322515624992
 31
0.0
 73
     3
1001
ACADANNOTATIVE
1000
AnnotativeData
1002
{
1070
     1
1070
     0
1002
}
  0
LINE
  5
4F
  8
SPEC
  6
CONTINUOUS
 62
     7
 10
-247.49999999999989
 20
367.06362999999999
 30
0.0
 11
195.00000000000011
 21
367.06362999999999
 31
0.0
  0
LINE
  5
50
  8
SPEC
  6
CONTINUOUS
 62
     7
 10
-247.49999999999989
 20
310.81362999999999
 30
0.0
 11
195.00000000000011
 21
310.81362999999999
 31
0.0
  0
LINE
  5
51
  8
SPEC
  6
CONTINUOUS
 62
     7
 10
-247.49999999999989
 20
322.06362999999999
 30
0.0
 11
195.00000000000011
 21
322.06362999999999
 31
0.0
  0
LINE
  5
52
  8
SPEC
  6
CONTINUOUS
 62
     7
 10
-247.49999999999989
 20
333.31362999999999
 30
0.0
 11
195.00000000000011
 21
333.31362999999999
 31
0.0
  0
LINE
  5
53
  8
SPEC
  6
CONTINUOUS
 62
     7
 10
-247.49999999999989
 20
299.56362999999999
 30
0.0
 11
195.00000000000011
 21
299.56362999999999
 31
0.0
  0
LINE
  5
54
  8
SPEC
  6
CONTINUOUS
 62
     7
 10
-247.49999999999989
 20
288.31362999999999
 30
0.0
 11
195.00000000000011
 21
288.31362999999999
 31
0.0
  0
LINE
  5
55
  8
SPEC
  6
CONTINUOUS
 62
     7
 10
-247.49999999999989
 20
344.56362999999999
 30
0.0
 11
195.00000000000011
 21
344.56362999999999
 31
0.0
  0
LINE
  5
56
  8
SPEC
  6
CONTINUOUS
 62
     7
 10
-247.49999999999989
 20
367.06362999999999
 30
0.0
 11
-247.49999999999989
 21
288.31362999999999
 31
0.0
  0
LINE
  5
57
  8
SPEC
  6
CONTINUOUS
 62
     7
 10
-149.99999999999989
 20
367.06362999999999
 30
0.0
 11
-149.99999999999989
 21
288.31362999999999
 31
0.0
  0
LINE
  5
58
  8
SPEC
  6
CONTINUOUS
 62
     7
 10
195.00000000000011
 20
367.06362999999999
 30
0.0
 11
195.00000000000011
 21
288.31362999999999
 31
0.0
  0
TEXT
  5
59
  8
SPEC
 62
     7
 10
-244.80000000000001
 20
301.9273833333333
 30
0.0
 40
5.7009440104166673
  1
寸法(W\U+00D7H\U+00D7D)
 41
0.7
 11
-244.80000000000001
 21
307.62832734375002
 31
0.0
 73
     3
1001
ACADANNOTATIVE
1000
AnnotativeData
1002
{
1070
     1
1070
     0
1002
}
  0
TEXT
  5
5A
  8
SPEC
 62
     7
 10
-244.80000000000001
 20
290.67738333333341
 30
0.0
 40
5.7009440104166673
  1
質量
 41
0.7
 11
-244.80000000000001
 21
296.37832734375002
 31
0.0
 73
     3
1001
ACADANNOTATIVE
1000
AnnotativeData
1002
{
1070
     1
1070
     0
1002
}
  0
TEXT
  5
5B
  8
SPEC
 62
     7
 10
-147.2999999999999
 20
301.9273833333333
 30
0.0
 40
5.7009440104166673
  1
114\U+00D7127\U+00D787.0mm(除突起部)
 41
0.7
 11
-147.2999999999999
 21
307.62832734375002
 31
0.0
 73
     3
1001
ACADANNOTATIVE
1000
AnnotativeData
1002
{
1070
     1
1070
     0
1002
}
  0
TEXT
  5
5C
  8
SPEC
 62
     7
 10
-147.2999999999999
 20
290.67738333333341
 30
0.0
 40
5.7009440104166673
  1
1.4kg
 41
0.7
 11
-147.2999999999999
 21
296.37832734375002
 31
0.0
 73
     3
1001
ACADANNOTATIVE
1000
AnnotativeData
1002
{
1070
     1
1070
     0
1002
}
  0
TEXT
  5
5D
  8
SPEC
 62
     7
 10
-244.80000000000001
 20
358.17738333333318
 30
0.0
 40
5.7009440104166647
  1
トランスタップ
 41
0.7
 11
-244.80000000000001
 21
363.87832734374979
 31
0.0
 73
     3
1001
ACADANNOTATIVE
1000
AnnotativeData
1002
{
1070
     1
1070
     0
1002
}
  0
TEXT
  5
5E
  8
SPEC
 62
     7
 10
-147.2999999999999
 20
358.17738333333318
 30
0.0
 40
5.7009440104166647
  1
100V：120W、60W、30W
 41
0.7
 11
-147.2999999999999
 21
363.87832734374979
 31
0.0
 73
     3
1001
ACADANNOTATIVE
1000
AnnotativeData
1002
{
1070
     1
1070
     0
1002
}
  0
TEXT
  5
5F
  8
SPEC
 62
     7
 10
-147.2999999999999
 20
346.92738333333341
 30
0.0
 40
5.7009440104166647
  1
70V：120W、60W、30W、15W
 41
0.7
 11
-147.2999999999999
 21
352.62832734375002
 31
0.0
 73
     3
1001
ACADANNOTATIVE
1000
AnnotativeData
1002
{
1070
     1
1070
     0
1002
}
  0
TEXT
  5
60
  8
SPEC
 62
     7
 10
-244.80000000000001
 20
335.6773833333333
 30
0.0
 40
5.7009440104166647
  1
入力端子
 41
0.7
 11
-244.80000000000001
 21
341.37832734375002
 31
0.0
 73
     3
1001
ACADANNOTATIVE
1000
AnnotativeData
1002
{
1070
     1
1070
     0
1002
}
  0
TEXT
  5
61
  8
SPEC
 62
     7
 10
-147.2999999999999
 20
335.6773833333333
 30
0.0
 40
5.7009440104166647
  1
ねじ止め端子
 41
0.7
 11
-147.2999999999999
 21
341.37832734375002
 31
0.0
 73
     3
1001
ACADANNOTATIVE
1000
AnnotativeData
1002
{
1070
     1
1070
     0
1002
}
  0
TEXT
  5
62
  8
SPEC
 62
     7
 10
-244.80000000000001
 20
324.42738333333341
 30
0.0
 40
5.7009440104166647
  1
出力端子
 41
0.7
 11
-244.80000000000001
 21
330.12832734375002
 31
0.0
 73
     3
1001
ACADANNOTATIVE
1000
AnnotativeData
1002
{
1070
     1
1070
     0
1002
}
  0
TEXT
  5
63
  8
SPEC
 62
     7
 10
-147.2999999999999
 20
324.42738333333341
 30
0.0
 40
5.7009440104166647
  1
ねじ止め端子
 41
0.7
 11
-147.2999999999999
 21
330.12832734375002
 31
0.0
 73
     3
1001
ACADANNOTATIVE
1000
AnnotativeData
1002
{
1070
     1
1070
     0
1002
}
  0
TEXT
  5
64
  8
SPEC
 62
     7
 10
-147.2999999999999
 20
313.17738333333341
 30
0.0
 40
5.7009440104166647
  1
4.0～9.0mm
 41
0.7
 11
-147.2999999999999
 21
318.87832734375002
 31
0.0
 73
     3
1001
ACADANNOTATIVE
1000
AnnotativeData
1002
{
1070
     1
1070
     0
1002
}
  0
TEXT
  5
65
  8
SPEC
 62
     7
 10
-244.80000000000001
 20
313.17738333333341
 30
0.0
 40
5.7009440104166647
  1
適合スピーカーケーブル径
 41
0.7
 11
-244.80000000000001
 21
318.87832734375002
 31
0.0
 73
     3
1001
ACADANNOTATIVE
1000
AnnotativeData
1002
{
1070
     1
1070
     0
1002
}
  0
TEXT
  5
66
  8
DIMNSIONS
 62
     7
 10
-59.999999999999979
 20
-346.12790000000001
 30
0.0
 40
7.3297851562499989
  1
(単位：mm)
 41
0.7
 11
-59.999999999999979
 21
-338.79811484374989
 31
0.0
 73
     3
1001
ACADANNOTATIVE
1000
AnnotativeData
1002
{
1070
     1
1070
     0
1002
}
  0
LINE
  5
67
  8
DIMNSIONS
  6
CONTINUOUS
 62
     7
 10
-171.76671997405941
 20
-49.99244618800553
 30
0.0
 11
-231.0
 21
-49.99244618800553
 31
0.0
  0
LINE
  5
68
  8
DIMNSIONS
  6
CONTINUOUS
 62
     7
 10
-171.76671997405941
 20
77.0
 30
0.0
 11
-231.0
 21
77.0
 31
0.0
  0
LINE
  5
69
  8
DIMNSIONS
  6
CONTINUOUS
 62
     7
 10
-225.0
 20
-49.99244618800553
 30
0.0
 11
-225.0
 21
77.0
 31
0.0
  0
LINE
  5
6A
  8
DIMNSIONS
  6
CONTINUOUS
 62
     7
 10
-225.0
 20
-49.99244618800553
 30
0.0
 11
-227.01011938545071
 21
-42.490578512224268
 31
0.0
  0
LINE
  5
6B
  8
DIMNSIONS
  6
CONTINUOUS
 62
     7
 10
-225.0
 20
-49.99244618800553
 30
0.0
 11
-222.98988061454929
 21
-42.490578512224268
 31
0.0
  0
LINE
  5
6C
  8
DIMNSIONS
  6
CONTINUOUS
 62
     7
 10
-225.0
 20
77.0
 30
0.0
 11
-222.98988061454929
 21
69.498132324218744
 31
0.0
  0
LINE
  5
6D
  8
DIMNSIONS
  6
CONTINUOUS
 62
     7
 10
-225.0
 20
77.0
 30
0.0
 11
-227.01011938545071
 21
69.498132324218744
 31
0.0
  0
TEXT
  5
6E
  8
DIMNSIONS
 62
     7
 10
-227.9816666666666
 20
5.566276905997241
 30
0.0
 40
8.1442057291666661
  1
127
 50
90.0
 41
0.7
 11
-236.12587239583331
 21
5.5662769059972419
 31
0.0
 73
     3
1001
ACADANNOTATIVE
1000
AnnotativeData
1002
{
1070
     1
1070
     0
1002
}
  0
LINE
  5
6F
  8
DIMNSIONS
  6
CONTINUOUS
 62
     7
 10
-185.0
 20
-250.0
 30
0.0
 11
-231.0
 21
-250.0
 31
0.0
  0
LINE
  5
70
  8
DIMNSIONS
  6
CONTINUOUS
 62
     7
 10
-188.0
 20
-162.99999999999989
 30
0.0
 11
-231.0
 21
-162.99999999999989
 31
0.0
  0
LINE
  5
71
  8
DIMNSIONS
  6
CONTINUOUS
 62
     7
 10
-225.0
 20
-250.0
 30
0.0
 11
-225.0
 21
-162.99999999999989
 31
0.0
  0
LINE
  5
72
  8
DIMNSIONS
  6
CONTINUOUS
 62
     7
 10
-225.0
 20
-250.0
 30
0.0
 11
-227.01011938545071
 21
-242.49813232421869
 31
0.0
  0
LINE
  5
73
  8
DIMNSIONS
  6
CONTINUOUS
 62
     7
 10
-225.0
 20
-250.0
 30
0.0
 11
-222.98988061454929
 21
-242.49813232421869
 31
0.0
  0
LINE
  5
74
  8
DIMNSIONS
  6
CONTINUOUS
 62
     7
 10
-225.0
 20
-162.99999999999989
 30
0.0
 11
-222.98988061454929
 21
-170.5018676757812
 31
0.0
  0
LINE
  5
75
  8
DIMNSIONS
  6
CONTINUOUS
 62
     7
 10
-225.0
 20
-162.99999999999989
 30
0.0
 11
-227.01011938545071
 21
-170.5018676757812
 31
0.0
  0
TEXT
  5
76
  8
DIMNSIONS
 62
     7
 10
-227.98166666666671
 20
-217.08333333333329
 30
0.0
 40
8.1442057291666661
  1
87.0
 50
90.0
 41
0.7
 11
-236.12587239583331
 21
-217.08333333333329
 31
0.0
 73
     3
1001
ACADANNOTATIVE
1000
AnnotativeData
1002
{
1070
     1
1070
     0
1002
}
  0
LINE
  5
77
  8
DIMNSIONS
  6
CONTINUOUS
 62
     7
 10
-185.0
 20
-250.0
 30
0.0
 11
-206.0
 21
-250.0
 31
0.0
  0
LINE
  5
78
  8
DIMNSIONS
  6
CONTINUOUS
 62
     7
 10
-164.5
 20
-221.0
 30
0.0
 11
-206.0
 21
-221.0
 31
0.0
  0
LINE
  5
79
  8
DIMNSIONS
  6
CONTINUOUS
 62
     7
 10
-200.0
 20
-250.0
 30
0.0
 11
-200.0
 21
-221.0
 31
0.0
  0
LINE
  5
7A
  8
DIMNSIONS
  6
CONTINUOUS
 62
     7
 10
-200.0
 20
-250.0
 30
0.0
 11
-202.01011938545071
 21
-242.49813232421869
 31
0.0
  0
LINE
  5
7B
  8
DIMNSIONS
  6
CONTINUOUS
 62
     7
 10
-200.0
 20
-250.0
 30
0.0
 11
-197.98988061454929
 21
-242.49813232421869
 31
0.0
  0
LINE
  5
7C
  8
DIMNSIONS
  6
CONTINUOUS
 62
     7
 10
-200.0
 20
-221.0
 30
0.0
 11
-197.98988061454929
 21
-228.5018676757812
 31
0.0
  0
LINE
  5
7D
  8
DIMNSIONS
  6
CONTINUOUS
 62
     7
 10
-200.0
 20
-221.0
 30
0.0
 11
-202.01011938545071
 21
-228.5018676757812
 31
0.0
  0
TEXT
  5
7E
  8
DIMNSIONS
 62
     7
 10
-202.98166666666671
 20
-246.08333333333329
 30
0.0
 40
8.1442057291666661
  1
29.0
 50
90.0
 41
0.7
 11
-211.12587239583331
 21
-246.08333333333329
 31
0.0
 73
     3
1001
ACADANNOTATIVE
1000
AnnotativeData
1002
{
1070
     1
1070
     0
1002
}
  0
LINE
  5
7F
  8
DIMNSIONS
  6
CONTINUOUS
 62
     7
 10
-156.0
 20
-77.0
 30
0.0
 11
-231.0
 21
-77.0
 31
0.0
  0
LINE
  5
80
  8
DIMNSIONS
  6
CONTINUOUS
 62
     7
 10
-177.76671997405941
 20
-49.99244618800553
 30
0.0
 11
-231.0
 21
-49.99244618800553
 31
0.0
  0
LINE
  5
81
  8
DIMNSIONS
  6
CONTINUOUS
 62
     7
 10
-225.0
 20
-77.0
 30
0.0
 11
-225.0
 21
-49.99244618800553
 31
0.0
  0
LINE
  5
82
  8
DIMNSIONS
  6
CONTINUOUS
 62
     7
 10
-225.0
 20
-77.0
 30
0.0
 11
-227.01011938545071
 21
-69.498132324218744
 31
0.0
  0
LINE
  5
83
  8
DIMNSIONS
  6
CONTINUOUS
 62
     7
 10
-225.0
 20
-77.0
 30
0.0
 11
-222.98988061454929
 21
-69.498132324218744
 31
0.0
  0
LINE
  5
84
  8
DIMNSIONS
  6
CONTINUOUS
 62
     7
 10
-225.0
 20
-49.99244618800553
 30
0.0
 11
-222.98988061454929
 21
-57.494313863786772
 31
0.0
  0
LINE
  5
85
  8
DIMNSIONS
  6
CONTINUOUS
 62
     7
 10
-225.0
 20
-49.99244618800553
 30
0.0
 11
-227.01011938545071
 21
-57.494313863786772
 31
0.0
  0
TEXT
  5
86
  8
DIMNSIONS
 62
     7
 10
-227.98166666666671
 20
-74.079556427336087
 30
0.0
 40
8.1442057291666661
  1
27.0
 50
90.0
 41
0.7
 11
-236.12587239583331
 21
-74.079556427336087
 31
0.0
 73
     3
1001
ACADANNOTATIVE
1000
AnnotativeData
1002
{
1070
     1
1070
     0
1002
}
  0
LINE
  5
87
  8
DIMNSIONS
  6
CONTINUOUS
 62
     7
 10
-182.0
 20
-39.378108111381138
 30
0.0
 11
-182.0
 21
-131.0
 31
0.0
  0
LINE
  5
88
  8
DIMNSIONS
  6
CONTINUOUS
 62
     7
 10
-68.0
 20
-39.378108111381138
 30
0.0
 11
-68.0
 21
-131.0
 31
0.0
  0
LINE
  5
89
  8
DIMNSIONS
  6
CONTINUOUS
 62
     7
 10
-182.0
 20
-125.0
 30
0.0
 11
-68.0
 21
-125.0
 31
0.0
  0
LINE
  5
8A
  8
DIMNSIONS
  6
CONTINUOUS
 62
     7
 10
-182.0
 20
-125.0
 30
0.0
 11
-174.49813232421869
 21
-122.98988061454919
 31
0.0
  0
LINE
  5
8B
  8
DIMNSIONS
  6
CONTINUOUS
 62
     7
 10
-182.0
 20
-125.0
 30
0.0
 11
-174.49813232421869
 21
-127.01011938545069
 31
0.0
  0
LINE
  5
8C
  8
DIMNSIONS
  6
CONTINUOUS
 62
     7
 10
-68.0
 20
-125.0
 30
0.0
 11
-75.501867675781256
 21
-127.01011938545069
 31
0.0
  0
LINE
  5
8D
  8
DIMNSIONS
  6
CONTINUOUS
 62
     7
 10
-68.0
 20
-125.0
 30
0.0
 11
-75.501867675781256
 21
-122.98988061454919
 31
0.0
  0
TEXT
  5
8E
  8
DIMNSIONS
 62
     7
 10
-132.9375
 20
-122.0183333333333
 30
0.0
 40
8.1442057291666661
  1
114
 41
0.7
 11
-132.9375
 21
-113.8741276041667
 31
0.0
 73
     3
1001
ACADANNOTATIVE
1000
AnnotativeData
1002
{
1070
     1
1070
     0
1002
}
  0
LINE
  5
8F
  8
DIMNSIONS
  6
CONTINUOUS
 62
     7
 10
-179.0
 20
-256.0
 30
0.0
 11
-179.0
 21
-293.5
 31
0.0
  0
LINE
  5
90
  8
DIMNSIONS
  6
CONTINUOUS
 62
     7
 10
-71.0
 20
-256.0
 30
0.0
 11
-71.0
 21
-293.5
 31
0.0
  0
LINE
  5
91
  8
DIMNSIONS
  6
CONTINUOUS
 62
     7
 10
-179.0
 20
-287.5
 30
0.0
 11
-71.0
 21
-287.5
 31
0.0
  0
LINE
  5
92
  8
DIMNSIONS
  6
CONTINUOUS
 62
     7
 10
-179.0
 20
-287.5
 30
0.0
 11
-171.49813232421869
 21
-285.48988061454918
 31
0.0
  0
LINE
  5
93
  8
DIMNSIONS
  6
CONTINUOUS
 62
     7
 10
-179.0
 20
-287.5
 30
0.0
 11
-171.49813232421869
 21
-289.51011938545071
 31
0.0
  0
LINE
  5
94
  8
DIMNSIONS
  6
CONTINUOUS
 62
     7
 10
-71.0
 20
-287.5
 30
0.0
 11
-78.501867675781256
 21
-289.51011938545071
 31
0.0
  0
LINE
  5
95
  8
DIMNSIONS
  6
CONTINUOUS
 62
     7
 10
-71.0
 20
-287.5
 30
0.0
 11
-78.501867675781256
 21
-285.48988061454918
 31
0.0
  0
TEXT
  5
96
  8
DIMNSIONS
 62
     7
 10
-132.9375
 20
-284.51833333333337
 30
0.0
 40
8.1442057291666661
  1
108
 41
0.7
 11
-132.9375
 21
-276.37412760416669
 31
0.0
 73
     3
1001
ACADANNOTATIVE
1000
AnnotativeData
1002
{
1070
     1
1070
     0
1002
}
  0
LINE
  5
97
  8
DIMNSIONS
  6
CONTINUOUS
 62
     7
 10
68.0
 20
-47.033957926550272
 30
0.0
 11
93.499999999999986
 21
-47.033957926550272
 31
0.0
  0
LINE
  5
98
  8
DIMNSIONS
  6
CONTINUOUS
 62
     7
 10
68.0
 20
73.966042073449742
 30
0.0
 11
93.499999999999986
 21
73.966042073449742
 31
0.0
  0
LINE
  5
99
  8
DIMNSIONS
  6
CONTINUOUS
 62
     7
 10
87.5
 20
-47.033957926550272
 30
0.0
 11
87.5
 21
73.966042073449742
 31
0.0
  0
LINE
  5
9A
  8
DIMNSIONS
  6
CONTINUOUS
 62
     7
 10
87.5
 20
-47.033957926550272
 30
0.0
 11
85.489880614549264
 21
-39.532090250769031
 31
0.0
  0
LINE
  5
9B
  8
DIMNSIONS
  6
CONTINUOUS
 62
     7
 10
87.5
 20
-47.033957926550272
 30
0.0
 11
89.510119385450722
 21
-39.532090250769031
 31
0.0
  0
LINE
  5
9C
  8
DIMNSIONS
  6
CONTINUOUS
 62
     7
 10
87.5
 20
73.966042073449742
 30
0.0
 11
89.510119385450722
 21
66.464174397668472
 31
0.0
  0
LINE
  5
9D
  8
DIMNSIONS
  6
CONTINUOUS
 62
     7
 10
87.5
 20
73.966042073449742
 30
0.0
 11
85.489880614549264
 21
66.464174397668472
 31
0.0
  0
TEXT
  5
9E
  8
DIMNSIONS
 62
     7
 10
84.518333333333345
 20
5.528542073449727
 30
0.0
 40
8.1442057291666661
  1
121
 50
90.0
 41
0.7
 11
76.374127604166674
 21
5.5285420734497279
 31
0.0
 73
     3
1001
ACADANNOTATIVE
1000
AnnotativeData
1002
{
1070
     1
1070
     0
1002
}
  0
LINE
  5
9F
  8
DIMNSIONS
  6
CONTINUOUS
 62
     7
 10
155.25
 20
13.5
 30
0.0
 11
119.0
 21
13.5
 31
0.0
  0
LINE
  5
A0
  8
DIMNSIONS
  6
CONTINUOUS
 62
     7
 10
156.0
 20
73.966042073449742
 30
0.0
 11
119.0
 21
73.966042073449742
 31
0.0
  0
LINE
  5
A1
  8
DIMNSIONS
  6
CONTINUOUS
 62
     7
 10
125.0
 20
13.5
 30
0.0
 11
125.0
 21
73.966042073449742
 31
0.0
  0
LINE
  5
A2
  8
DIMNSIONS
  6
CONTINUOUS
 62
     7
 10
125.0
 20
13.5
 30
0.0
 11
122.98988061454919
 21
21.001867675781259
 31
0.0
  0
LINE
  5
A3
  8
DIMNSIONS
  6
CONTINUOUS
 62
     7
 10
125.0
 20
13.5
 30
0.0
 11
127.01011938545069
 21
21.001867675781259
 31
0.0
  0
LINE
  5
A4
  8
DIMNSIONS
  6
CONTINUOUS
 62
     7
 10
125.0
 20
73.966042073449742
 30
0.0
 11
127.01011938545069
 21
66.464174397668472
 31
0.0
  0
LINE
  5
A5
  8
DIMNSIONS
  6
CONTINUOUS
 62
     7
 10
125.0
 20
73.966042073449742
 30
0.0
 11
122.98988061454919
 21
66.464174397668472
 31
0.0
  0
TEXT
  5
A6
  8
DIMNSIONS
 62
     7
 10
122.0183333333333
 20
33.149687703391542
 30
0.0
 40
8.1442057291666661
  1
60.5
 50
90.0
 41
0.7
 11
113.8741276041667
 21
33.149687703391542
 31
0.0
 73
     3
1001
ACADANNOTATIVE
1000
AnnotativeData
1002
{
1070
     1
1070
     0
1002
}
  0
LINE
  5
A7
  8
DIMNSIONS
  6
CONTINUOUS
 62
     7
 10
165.0
 20
3.750000000000008
 30
0.0
 11
165.0
 21
-18.5
 31
0.0
  0
LINE
  5
A8
  8
DIMNSIONS
  6
CONTINUOUS
 62
     7
 10
235.0
 20
3.750000000000008
 30
0.0
 11
235.0
 21
-18.5
 31
0.0
  0
LINE
  5
A9
  8
DIMNSIONS
  6
CONTINUOUS
 62
     7
 10
165.0
 20
-12.5
 30
0.0
 11
235.0
 21
-12.5
 31
0.0
  0
LINE
  5
AA
  8
DIMNSIONS
  6
CONTINUOUS
 62
     7
 10
165.0
 20
-12.5
 30
0.0
 11
172.5018676757812
 21
-10.48988061454927
 31
0.0
  0
LINE
  5
AB
  8
DIMNSIONS
  6
CONTINUOUS
 62
     7
 10
165.0
 20
-12.5
 30
0.0
 11
172.5018676757812
 21
-14.51011938545072
 31
0.0
  0
LINE
  5
AC
  8
DIMNSIONS
  6
CONTINUOUS
 62
     7
 10
235.0
 20
-12.5
 30
0.0
 11
227.4981323242188
 21
-14.51011938545073
 31
0.0
  0
LINE
  5
AD
  8
DIMNSIONS
  6
CONTINUOUS
 62
     7
 10
235.0
 20
-12.5
 30
0.0
 11
227.4981323242188
 21
-10.48988061454927
 31
0.0
  0
TEXT
  5
AE
  8
DIMNSIONS
 62
     7
 10
189.4166666666666
 20
-9.5183333333333326
 30
0.0
 40
8.1442057291666661
  1
70.0
 41
0.7
 11
189.4166666666666
 21
-1.3741276041666659
 31
0.0
 73
     3
1001
ACADANNOTATIVE
1000
AnnotativeData
1002
{
1070
     1
1070
     0
1002
}
  0
LINE
  5
AF
  8
DIMNSIONS
  6
CONTINUOUS
 62
     7
 10
166.44230769230771
 20
16.961538461538449
 30
0.0
 11
175.0
 21
37.5
 31
0.0
  0
LINE
  5
B0
  8
DIMNSIONS
  6
CONTINUOUS
 62
     7
 10
166.44230769230771
 20
16.961538461538449
 30
0.0
 11
167.5231962647166
 21
24.652460282928399
 31
0.0
  0
LINE
  5
B1
  8
DIMNSIONS
  6
CONTINUOUS
 62
     7
 10
166.44230769230771
 20
16.961538461538449
 30
0.0
 11
171.22384556536909
 21
23.08162785117775
 31
0.0
  0
LINE
  5
B2
  8
DIMNSIONS
  6
CONTINUOUS
 62
     7
 10
175.0
 20
37.5
 30
0.0
 11
218.0416666666666
 21
37.5
 31
0.0
  0
TEXT
  5
B3
  8
DIMNSIONS
 62
     7
 10
181.0
 20
40.481666666666662
 30
0.0
 40
8.1442057291666661
  1
2-\U+03C67.5
 41
0.7
 11
181.0
 21
48.625872395833341
 31
0.0
 73
     3
1001
ACADANNOTATIVE
1000
AnnotativeData
1002
{
1070
     1
1070
     0
1002
}
  0
LINE
  5
B4
  8
DIMNSIONS
  6
CONTINUOUS
 62
     7
 10
-145.0
 20
-83.0
 30
0.0
 11
-145.0
 21
-106.0
 31
0.0
  0
LINE
  5
B5
  8
DIMNSIONS
  6
CONTINUOUS
 62
     7
 10
-105.0
 20
-83.0
 30
0.0
 11
-105.0
 21
-106.0
 31
0.0
  0
LINE
  5
B6
  8
DIMNSIONS
  6
CONTINUOUS
 62
     7
 10
-145.0
 20
-100.0
 30
0.0
 11
-105.0
 21
-100.0
 31
0.0
  0
LINE
  5
B7
  8
DIMNSIONS
  6
CONTINUOUS
 62
     7
 10
-145.0
 20
-100.0
 30
0.0
 11
-137.49813232421869
 21
-97.989880614549264
 31
0.0
  0
LINE
  5
B8
  8
DIMNSIONS
  6
CONTINUOUS
 62
     7
 10
-145.0
 20
-100.0
 30
0.0
 11
-137.49813232421869
 21
-102.01011938545069
 31
0.0
  0
LINE
  5
B9
  8
DIMNSIONS
  6
CONTINUOUS
 62
     7
 10
-105.0
 20
-100.0
 30
0.0
 11
-112.5018676757812
 21
-102.01011938545069
 31
0.0
  0
LINE
  5
BA
  8
DIMNSIONS
  6
CONTINUOUS
 62
     7
 10
-105.0
 20
-100.0
 30
0.0
 11
-112.5018676757812
 21
-97.989880614549264
 31
0.0
  0
TEXT
  5
BB
  8
DIMNSIONS
 62
     7
 10
-135.58333333333329
 20
-97.018333333333345
 30
0.0
 40
8.1442057291666661
  1
40.0
 41
0.7
 11
-135.58333333333329
 21
-88.874127604166674
 31
0.0
 73
     3
1001
ACADANNOTATIVE
1000
AnnotativeData
1002
{
1070
     1
1070
     0
1002
}
  0
LINE
  5
BC
  8
TANSI
  6
STYLE_02
 62
     7
 10
-145.0
 20
-50.0
 30
0.0
 11
-145.0
 21
-41.999999999999993
 31
0.0
  0
LINE
  5
BD
  8
TANSI
  6
STYLE_02
 62
     7
 10
-159.04726351392259
 20
-41.999999999999993
 30
0.0
 11
-159.04726351392259
 21
-50.0
 31
0.0
  0
LINE
  5
BE
  8
TANSI
  6
STYLE_02
 62
     7
 10
-131.04726351392259
 20
-41.999999999999993
 30
0.0
 11
-131.04726351392259
 21
-50.0
 31
0.0
  0
LINE
  5
BF
  8
TANSI
  6
STYLE_02
 62
     7
 10
-159.04726351392259
 20
-41.999999999999993
 30
0.0
 11
-131.04726351392259
 21
-41.999999999999993
 31
0.0
  0
LINE
  5
C0
  8
TANSI
  6
STYLE_02
 62
     7
 10
-105.59999999999999
 20
-50.0
 30
0.0
 11
-105.59999999999999
 21
-41.999999999999993
 31
0.0
  0
LINE
  5
C1
  8
TANSI
  6
STYLE_02
 62
     7
 10
-119.6472635139226
 20
-41.999999999999993
 30
0.0
 11
-119.6472635139226
 21
-50.0
 31
0.0
  0
LINE
  5
C2
  8
TANSI
  6
STYLE_02
 62
     7
 10
-91.647263513922596
 20
-41.999999999999993
 30
0.0
 11
-91.647263513922596
 21
-50.0
 31
0.0
  0
LINE
  5
C3
  8
TANSI
  6
STYLE_02
 62
     7
 10
-119.6472635139226
 20
-41.999999999999993
 30
0.0
 11
-91.647263513922596
 21
-41.999999999999993
 31
0.0
  0
POLYLINE
  5
C4
  8
TANSI
  6
STYLE_02
 62
     7
 66
     1
 10
0.0
 20
0.0
 30
0.0
 70
     1
  0
VERTEX
  5
6E9
  8
TANSI
  6
STYLE_02
 62
     7
 10
-173.00320478719999
 20
1.508121326394487
 30
0.0
  0
VERTEX
  5
6EA
  8
TANSI
  6
STYLE_02
 62
     7
 10
-76.996795212800023
 20
1.508121326394487
 30
0.0
  0
VERTEX
  5
6EB
  8
TANSI
  6
STYLE_02
 62
     7
 10
-76.996795212800023
 20
-15.4930137024055
 30
0.0
  0
VERTEX
  5
6EC
  8
TANSI
  6
STYLE_02
 62
     7
 10
-173.00320478719999
 20
-15.4930137024055
 30
0.0
  0
SEQEND
  5
6ED
  8
TANSI
  6
STYLE_02
 62
     7
  0
LINE
  5
CB
  8
TANSI
  6
STYLE_02
 62
     7
 10
-125.8000534131203
 20
-15.493013702405531
 30
0.0
 11
-125.8000534131203
 21
1.508121326394473
 31
0.0
  0
LINE
  5
CC
  8
TANSI
  6
STYLE_02
 62
     7
 10
-124.1999465868803
 20
1.508121326394505
 30
0.0
 11
-124.1999465868803
 21
-15.4930137024055
 31
0.0
  0
LINE
  5
CD
  8
TANSI
  6
STYLE_02
 62
     7
 10
-116.2994191323203
 20
-15.493013702405531
 30
0.0
 11
-116.2994191323203
 21
1.508121326394473
 31
0.0
  0
LINE
  5
CE
  8
TANSI
  6
STYLE_02
 62
     7
 10
-114.6993123060802
 20
1.508121326394505
 30
0.0
 11
-114.6993123060802
 21
-15.4930137024055
 31
0.0
  0
LINE
  5
CF
  8
TANSI
  6
STYLE_02
 62
     7
 10
-106.7987848515203
 20
-15.493013702405531
 30
0.0
 11
-106.7987848515203
 21
1.508121326394473
 31
0.0
  0
LINE
  5
D0
  8
TANSI
  6
STYLE_02
 62
     7
 10
-105.1986780252803
 20
1.508121326394505
 30
0.0
 11
-105.1986780252803
 21
-15.4930137024055
 31
0.0
  0
LINE
  5
D1
  8
TANSI
  6
STYLE_02
 62
     7
 10
-97.298150570720153
 20
-15.493013702405531
 30
0.0
 11
-97.298150570720153
 21
1.508121326394473
 31
0.0
  0
LINE
  5
D2
  8
TANSI
  6
STYLE_02
 62
     7
 10
-95.698043744480131
 20
1.508121326394505
 30
0.0
 11
-95.698043744480131
 21
-15.4930137024055
 31
0.0
  0
LINE
  5
D3
  8
TANSI
  6
STYLE_02
 62
     7
 10
-87.797516289919855
 20
-15.493013702405531
 30
0.0
 11
-87.797516289919855
 21
1.508121326394473
 31
0.0
  0
LINE
  5
D4
  8
TANSI
  6
STYLE_02
 62
     7
 10
-86.197409463679875
 20
1.508121326394505
 30
0.0
 11
-86.197409463679875
 21
-15.4930137024055
 31
0.0
  0
LINE
  5
D5
  8
TANSI
  6
STYLE_02
 62
     7
 10
-135.30068769392011
 20
-15.493013702405531
 30
0.0
 11
-135.30068769392011
 21
1.508121326394473
 31
0.0
  0
LINE
  5
D6
  8
TANSI
  6
STYLE_02
 62
     7
 10
-133.70058086768009
 20
1.508121326394505
 30
0.0
 11
-133.70058086768009
 21
-15.4930137024055
 31
0.0
  0
LINE
  5
D7
  8
TANSI
  6
STYLE_02
 62
     7
 10
-144.80132197472
 20
-15.493013702405531
 30
0.0
 11
-144.80132197472
 21
1.508121326394473
 31
0.0
  0
LINE
  5
D8
  8
TANSI
  6
STYLE_02
 62
     7
 10
-143.20121514848
 20
1.508121326394505
 30
0.0
 11
-143.20121514848
 21
-15.4930137024055
 31
0.0
  0
LINE
  5
D9
  8
TANSI
  6
STYLE_02
 62
     7
 10
-154.30195625552
 20
-15.493013702405531
 30
0.0
 11
-154.30195625552
 21
1.508121326394473
 31
0.0
  0
LINE
  5
DA
  8
TANSI
  6
STYLE_02
 62
     7
 10
-152.70184942928
 20
1.508121326394505
 30
0.0
 11
-152.70184942928
 21
-15.4930137024055
 31
0.0
  0
LINE
  5
DB
  8
TANSI
  6
STYLE_02
 62
     7
 10
-163.80259053632
 20
-15.493013702405531
 30
0.0
 11
-163.80259053632
 21
1.508121326394473
 31
0.0
  0
LINE
  5
DC
  8
TANSI
  6
STYLE_02
 62
     7
 10
-162.20248371008
 20
1.508121326394505
 30
0.0
 11
-162.20248371008
 21
-15.4930137024055
 31
0.0
  0
ARC
  5
DD
  8
TANSI
  6
STYLE_02
 62
     7
 10
-129.7503171404
 20
-6.9924461880075617
 30
0.0
 40
3.3002203291220642
 50
79.082582684189433
 51
280.91741731580248
  0
ARC
  5
DE
  8
TANSI
  6
STYLE_02
 62
     7
 10
-129.7503171404
 20
-6.9924461880075617
 30
0.0
 40
3.3002203291220402
 50
280.9174173158026
 51
79.082582684197405
  0
POLYLINE
  5
DF
  8
TANSI
  6
STYLE_02
 62
     7
 66
     1
 10
0.0
 20
0.0
 30
0.0
 70
     1
  0
VERTEX
  5
6EE
  8
TANSI
  6
STYLE_02
 62
     7
 10
-133.50056751440019
 20
-3.242195814005512
 30
0.0
  0
VERTEX
  5
6EF
  8
TANSI
  6
STYLE_02
 62
     7
 10
-126.0000667664001
 20
-3.242195814005512
 30
0.0
  0
VERTEX
  5
6F0
  8
TANSI
  6
STYLE_02
 62
     7
 10
-126.0000667664001
 20
-10.7426965620055
 30
0.0
  0
VERTEX
  5
6F1
  8
TANSI
  6
STYLE_02
 62
     7
 10
-133.50056751440019
 20
-10.7426965620055
 30
0.0
  0
SEQEND
  5
6F2
  8
TANSI
  6
STYLE_02
 62
     7
  0
LINE
  5
E6
  8
TANSI
  6
STYLE_02
 62
     7
 10
-130.3753588694002
 20
-3.7519559384065881
 30
0.0
 11
-130.3753588694002
 21
-6.5924194814475072
 31
0.0
  0
LINE
  5
E7
  8
TANSI
  6
STYLE_02
 62
     7
 10
-130.3753588694002
 20
-7.3924728945675238
 30
0.0
 11
-130.3753588694002
 21
-10.23293643760441
 31
0.0
  0
LINE
  5
E8
  8
TANSI
  6
STYLE_02
 62
     7
 10
-129.1252754114002
 20
-10.23293643760441
 30
0.0
 11
-129.1252754114002
 21
-7.392472894567498
 31
0.0
  0
LINE
  5
E9
  8
TANSI
  6
STYLE_02
 62
     7
 10
-129.1252754114002
 20
-6.5924194814475072
 30
0.0
 11
-129.1252754114002
 21
-3.7519559384065881
 31
0.0
  0
LINE
  5
EA
  8
TANSI
  6
STYLE_02
 62
     7
 10
-131.4504306432799
 20
-7.3924728945675238
 30
0.0
 11
-131.4504306432799
 21
-6.5924194814475072
 31
0.0
  0
LINE
  5
EB
  8
TANSI
  6
STYLE_02
 62
     7
 10
-128.05020363752001
 20
-7.3924728945675238
 30
0.0
 11
-129.1252754114002
 21
-7.3924728945675238
 31
0.0
  0
LINE
  5
EC
  8
TANSI
  6
STYLE_02
 62
     7
 10
-130.3753588694002
 20
-7.3924728945675238
 30
0.0
 11
-131.4504306432799
 21
-7.3924728945675238
 31
0.0
  0
LINE
  5
ED
  8
TANSI
  6
STYLE_02
 62
     7
 10
-128.05020363752001
 20
-6.5924194814475072
 30
0.0
 11
-128.05020363752001
 21
-7.3924728945675238
 31
0.0
  0
LINE
  5
EE
  8
TANSI
  6
STYLE_02
 62
     7
 10
-131.4504306432799
 20
-6.5924194814475072
 30
0.0
 11
-130.3753588694002
 21
-6.5924194814475072
 31
0.0
  0
LINE
  5
EF
  8
TANSI
  6
STYLE_02
 62
     7
 10
-129.1252754114002
 20
-6.5924194814475072
 30
0.0
 11
-128.05020363752001
 21
-6.5924194814475072
 31
0.0
  0
LINE
  5
F0
  8
TANSI
  6
STYLE_02
 62
     7
 10
-133.50056751440019
 20
-6.4424094664875247
 30
0.0
 11
-133.00437826854889
 21
-6.4424094664875247
 31
0.0
  0
LINE
  5
F1
  8
TANSI
  6
STYLE_02
 62
     7
 10
-133.50056751440019
 20
-7.542482909527525
 30
0.0
 11
-133.00437826854889
 21
-7.542482909527525
 31
0.0
  0
LINE
  5
F2
  8
TANSI
  6
STYLE_02
 62
     7
 10
-126.496256012251
 20
-6.4424094664875247
 30
0.0
 11
-126.0000667664002
 21
-6.4424094664875247
 31
0.0
  0
LINE
  5
F3
  8
TANSI
  6
STYLE_02
 62
     7
 10
-126.496256012251
 20
-7.542482909527525
 30
0.0
 11
-126.0000667664002
 21
-7.542482909527525
 31
0.0
  0
LINE
  5
F4
  8
TANSI
  6
STYLE_02
 62
     7
 10
-129.2002804188802
 20
-3.2421958140075442
 30
0.0
 11
-129.2002804188802
 21
-3.7383850598588131
 31
0.0
  0
LINE
  5
F5
  8
TANSI
  6
STYLE_02
 62
     7
 10
-130.3003538619202
 20
-3.2421958140075442
 30
0.0
 11
-130.3003538619202
 21
-3.7383850598588131
 31
0.0
  0
LINE
  5
F6
  8
TANSI
  6
STYLE_02
 62
     7
 10
-129.2002804188802
 20
-10.24650731615672
 30
0.0
 11
-129.2002804188802
 21
-10.74269656200755
 31
0.0
  0
LINE
  5
F7
  8
TANSI
  6
STYLE_02
 62
     7
 10
-130.3003538619202
 20
-10.24650731615672
 30
0.0
 11
-130.3003538619202
 21
-10.74269656200755
 31
0.0
  0
LINE
  5
F8
  8
TANSI
  6
STYLE_02
 62
     7
 10
-129.2002804188802
 20
-3.2421958140075442
 30
0.0
 11
-129.2002804188802
 21
-3.7383850598588131
 31
0.0
  0
LINE
  5
F9
  8
TANSI
  6
STYLE_02
 62
     7
 10
-130.3003538619202
 20
-3.2421958140075442
 30
0.0
 11
-130.3003538619202
 21
-3.7383850598588131
 31
0.0
  0
LINE
  5
FA
  8
TANSI
  6
STYLE_02
 62
     7
 10
-129.2002804188802
 20
-10.24650731615672
 30
0.0
 11
-129.2002804188802
 21
-10.74269656200755
 31
0.0
  0
LINE
  5
FB
  8
TANSI
  6
STYLE_02
 62
     7
 10
-130.3003538619202
 20
-10.24650731615672
 30
0.0
 11
-130.3003538619202
 21
-10.74269656200755
 31
0.0
  0
LINE
  5
FC
  8
TANSI
  6
STYLE_02
 62
     7
 10
-129.2002804188802
 20
-3.2421958140075442
 30
0.0
 11
-129.2002804188802
 21
-3.7383850598588131
 31
0.0
  0
LINE
  5
FD
  8
TANSI
  6
STYLE_02
 62
     7
 10
-130.3003538619202
 20
-3.2421958140075442
 30
0.0
 11
-130.3003538619202
 21
-3.7383850598588131
 31
0.0
  0
LINE
  5
FE
  8
TANSI
  6
STYLE_02
 62
     7
 10
-129.2002804188802
 20
-10.24650731615672
 30
0.0
 11
-129.2002804188802
 21
-10.74269656200755
 31
0.0
  0
LINE
  5
FF
  8
TANSI
  6
STYLE_02
 62
     7
 10
-130.3003538619202
 20
-10.24650731615672
 30
0.0
 11
-130.3003538619202
 21
-10.74269656200755
 31
0.0
  0
LINE
  5
100
  8
TANSI
  6
STYLE_02
 62
     7
 10
-129.2002804188802
 20
-3.2421958140075442
 30
0.0
 11
-129.2002804188802
 21
-3.7383850598588131
 31
0.0
  0
LINE
  5
101
  8
TANSI
  6
STYLE_02
 62
     7
 10
-130.3003538619202
 20
-3.2421958140075442
 30
0.0
 11
-130.3003538619202
 21
-3.7383850598588131
 31
0.0
  0
LINE
  5
102
  8
TANSI
  6
STYLE_02
 62
     7
 10
-129.2002804188802
 20
-10.24650731615672
 30
0.0
 11
-129.2002804188802
 21
-10.74269656200755
 31
0.0
  0
LINE
  5
103
  8
TANSI
  6
STYLE_02
 62
     7
 10
-130.3003538619202
 20
-10.24650731615672
 30
0.0
 11
-130.3003538619202
 21
-10.74269656200755
 31
0.0
  0
LINE
  5
104
  8
TANSI
  6
STYLE_02
 62
     7
 10
-78.296882009119813
 20
-11.59275331344551
 30
0.0
 11
-86.197409463679804
 21
-11.59275331344551
 31
0.0
  0
LINE
  5
105
  8
TANSI
  6
STYLE_02
 62
     7
 10
-87.797516289919855
 20
-11.59275331344551
 30
0.0
 11
-95.698043744480131
 21
-11.59275331344551
 31
0.0
  0
LINE
  5
106
  8
TANSI
  6
STYLE_02
 62
     7
 10
-97.298150570720153
 20
-11.59275331344551
 30
0.0
 11
-105.1986780252803
 21
-11.59275331344551
 31
0.0
  0
LINE
  5
107
  8
TANSI
  6
STYLE_02
 62
     7
 10
-106.7987848515203
 20
-11.59275331344551
 30
0.0
 11
-114.6993123060802
 21
-11.59275331344551
 31
0.0
  0
LINE
  5
108
  8
TANSI
  6
STYLE_02
 62
     7
 10
-116.2994191323203
 20
-11.59275331344551
 30
0.0
 11
-124.1999465868803
 21
-11.59275331344551
 31
0.0
  0
LINE
  5
109
  8
TANSI
  6
STYLE_02
 62
     7
 10
-125.8000534131203
 20
-11.59275331344551
 30
0.0
 11
-133.70058086768009
 21
-11.59275331344551
 31
0.0
  0
LINE
  5
10A
  8
TANSI
  6
STYLE_02
 62
     7
 10
-135.30068769392011
 20
-11.59275331344551
 30
0.0
 11
-143.20121514848
 21
-11.59275331344551
 31
0.0
  0
LINE
  5
10B
  8
TANSI
  6
STYLE_02
 62
     7
 10
-144.80132197472
 20
-11.59275331344551
 30
0.0
 11
-152.70184942928
 21
-11.59275331344551
 31
0.0
  0
LINE
  5
10C
  8
TANSI
  6
STYLE_02
 62
     7
 10
-154.30195625552
 20
-11.59275331344551
 30
0.0
 11
-162.20248371008
 21
-11.59275331344551
 31
0.0
  0
LINE
  5
10D
  8
TANSI
  6
STYLE_02
 62
     7
 10
-163.80259053632
 20
-11.59275331344551
 30
0.0
 11
-171.70311799088009
 21
-11.59275331344551
 31
0.0
  0
LINE
  5
10E
  8
TANSI
  6
STYLE_02
 62
     7
 10
-171.70311799088009
 20
-2.392139062565529
 30
0.0
 11
-163.80259053632
 21
-2.392139062565529
 31
0.0
  0
LINE
  5
10F
  8
TANSI
  6
STYLE_02
 62
     7
 10
-162.20248371008
 20
-2.392139062565529
 30
0.0
 11
-154.30195625552
 21
-2.392139062565529
 31
0.0
  0
LINE
  5
110
  8
TANSI
  6
STYLE_02
 62
     7
 10
-152.70184942928
 20
-2.392139062565529
 30
0.0
 11
-144.80132197472
 21
-2.392139062565529
 31
0.0
  0
LINE
  5
111
  8
TANSI
  6
STYLE_02
 62
     7
 10
-143.20121514848
 20
-2.392139062565529
 30
0.0
 11
-135.30068769392011
 21
-2.392139062565529
 31
0.0
  0
LINE
  5
112
  8
TANSI
  6
STYLE_02
 62
     7
 10
-133.70058086768009
 20
-2.392139062565529
 30
0.0
 11
-125.8000534131203
 21
-2.392139062565529
 31
0.0
  0
LINE
  5
113
  8
TANSI
  6
STYLE_02
 62
     7
 10
-124.1999465868803
 20
-2.392139062565529
 30
0.0
 11
-116.2994191323203
 21
-2.392139062565529
 31
0.0
  0
LINE
  5
114
  8
TANSI
  6
STYLE_02
 62
     7
 10
-114.6993123060802
 20
-2.392139062565529
 30
0.0
 11
-106.7987848515203
 21
-2.392139062565529
 31
0.0
  0
LINE
  5
115
  8
TANSI
  6
STYLE_02
 62
     7
 10
-105.1986780252803
 20
-2.392139062565529
 30
0.0
 11
-97.298150570720153
 21
-2.392139062565529
 31
0.0
  0
LINE
  5
116
  8
TANSI
  6
STYLE_02
 62
     7
 10
-95.698043744480131
 20
-2.392139062565529
 30
0.0
 11
-87.797516289919855
 21
-2.392139062565529
 31
0.0
  0
LINE
  5
117
  8
TANSI
  6
STYLE_02
 62
     7
 10
-86.197409463679804
 20
-2.392139062565529
 30
0.0
 11
-78.296882009119813
 21
-2.392139062565529
 31
0.0
  0
LINE
  5
118
  8
TANSI
  6
STYLE_02
 62
     7
 10
-171.70311799088009
 20
-0.5920188830455331
 30
0.0
 11
-163.80259053632
 21
-0.5920188830455331
 31
0.0
  0
LINE
  5
119
  8
TANSI
  6
STYLE_02
 62
     7
 10
-162.20248371008
 20
-0.5920188830455331
 30
0.0
 11
-154.30195625552
 21
-0.5920188830455331
 31
0.0
  0
LINE
  5
11A
  8
TANSI
  6
STYLE_02
 62
     7
 10
-152.70184942928
 20
-0.5920188830455331
 30
0.0
 11
-144.80132197472
 21
-0.5920188830455331
 31
0.0
  0
LINE
  5
11B
  8
TANSI
  6
STYLE_02
 62
     7
 10
-143.20121514848
 20
-0.5920188830455331
 30
0.0
 11
-135.30068769392011
 21
-0.5920188830455331
 31
0.0
  0
LINE
  5
11C
  8
TANSI
  6
STYLE_02
 62
     7
 10
-133.70058086768009
 20
-0.5920188830455331
 30
0.0
 11
-125.8000534131203
 21
-0.5920188830455331
 31
0.0
  0
LINE
  5
11D
  8
TANSI
  6
STYLE_02
 62
     7
 10
-124.1999465868803
 20
-0.5920188830455331
 30
0.0
 11
-116.2994191323203
 21
-0.5920188830455331
 31
0.0
  0
LINE
  5
11E
  8
TANSI
  6
STYLE_02
 62
     7
 10
-114.6993123060802
 20
-0.5920188830455331
 30
0.0
 11
-106.7987848515203
 21
-0.5920188830455331
 31
0.0
  0
LINE
  5
11F
  8
TANSI
  6
STYLE_02
 62
     7
 10
-105.1986780252803
 20
-0.5920188830455331
 30
0.0
 11
-97.298150570720153
 21
-0.5920188830455331
 31
0.0
  0
LINE
  5
120
  8
TANSI
  6
STYLE_02
 62
     7
 10
-95.698043744480131
 20
-0.5920188830455331
 30
0.0
 11
-87.797516289919855
 21
-0.5920188830455331
 31
0.0
  0
LINE
  5
121
  8
TANSI
  6
STYLE_02
 62
     7
 10
-86.197409463679804
 20
-0.5920188830455331
 30
0.0
 11
-78.296882009119813
 21
-0.5920188830455331
 31
0.0
  0
LINE
  5
122
  8
TANSI
  6
STYLE_02
 62
     7
 10
-78.296882009119813
 20
-13.39287349296554
 30
0.0
 11
-86.197409463679804
 21
-13.39287349296554
 31
0.0
  0
LINE
  5
123
  8
TANSI
  6
STYLE_02
 62
     7
 10
-87.797516289919855
 20
-13.39287349296554
 30
0.0
 11
-95.698043744480131
 21
-13.39287349296554
 31
0.0
  0
LINE
  5
124
  8
TANSI
  6
STYLE_02
 62
     7
 10
-97.298150570720153
 20
-13.39287349296554
 30
0.0
 11
-105.1986780252803
 21
-13.39287349296554
 31
0.0
  0
LINE
  5
125
  8
TANSI
  6
STYLE_02
 62
     7
 10
-106.7987848515203
 20
-13.39287349296554
 30
0.0
 11
-114.6993123060802
 21
-13.39287349296554
 31
0.0
  0
LINE
  5
126
  8
TANSI
  6
STYLE_02
 62
     7
 10
-116.2994191323203
 20
-13.39287349296554
 30
0.0
 11
-124.1999465868803
 21
-13.39287349296554
 31
0.0
  0
LINE
  5
127
  8
TANSI
  6
STYLE_02
 62
     7
 10
-125.8000534131203
 20
-13.39287349296554
 30
0.0
 11
-133.70058086768009
 21
-13.39287349296554
 31
0.0
  0
LINE
  5
128
  8
TANSI
  6
STYLE_02
 62
     7
 10
-135.30068769392011
 20
-13.39287349296554
 30
0.0
 11
-143.20121514848
 21
-13.39287349296554
 31
0.0
  0
LINE
  5
129
  8
TANSI
  6
STYLE_02
 62
     7
 10
-144.80132197472
 20
-13.39287349296554
 30
0.0
 11
-152.70184942928
 21
-13.39287349296554
 31
0.0
  0
LINE
  5
12A
  8
TANSI
  6
STYLE_02
 62
     7
 10
-154.30195625552
 20
-13.39287349296554
 30
0.0
 11
-162.20248371008
 21
-13.39287349296554
 31
0.0
  0
LINE
  5
12B
  8
TANSI
  6
STYLE_02
 62
     7
 10
-163.80259053632
 20
-13.39287349296554
 30
0.0
 11
-171.70311799088009
 21
-13.39287349296554
 31
0.0
  0
LINE
  5
12C
  8
TANSI
  6
STYLE_02
 62
     7
 10
-171.70311799088009
 20
-15.493013702405531
 30
0.0
 11
-171.70311799088009
 21
1.508121326394473
 31
0.0
  0
LINE
  5
12D
  8
TANSI
  6
STYLE_02
 62
     7
 10
-78.296882009119869
 20
1.508121326394505
 30
0.0
 11
-78.296882009119869
 21
-15.4930137024055
 31
0.0
  0
ARC
  5
12E
  8
TANSI
  6
STYLE_02
 62
     7
 10
-148.7515857019998
 20
-6.9924461880075617
 30
0.0
 40
3.3002203291220642
 50
79.082582684189433
 51
280.9174173158035
  0
ARC
  5
12F
  8
TANSI
  6
STYLE_02
 62
     7
 10
-148.7515857019998
 20
-6.9924461880075617
 30
0.0
 40
3.3002203291220509
 50
280.91741731580362
 51
79.082582684196453
  0
POLYLINE
  5
130
  8
TANSI
  6
STYLE_02
 62
     7
 66
     1
 10
0.0
 20
0.0
 30
0.0
 70
     1
  0
VERTEX
  5
6F3
  8
TANSI
  6
STYLE_02
 62
     7
 10
-152.5018360760001
 20
-3.242195814005512
 30
0.0
  0
VERTEX
  5
6F4
  8
TANSI
  6
STYLE_02
 62
     7
 10
-145.00133532800001
 20
-3.242195814005512
 30
0.0
  0
VERTEX
  5
6F5
  8
TANSI
  6
STYLE_02
 62
     7
 10
-145.00133532800001
 20
-10.7426965620055
 30
0.0
  0
VERTEX
  5
6F6
  8
TANSI
  6
STYLE_02
 62
     7
 10
-152.5018360760001
 20
-10.7426965620055
 30
0.0
  0
SEQEND
  5
6F7
  8
TANSI
  6
STYLE_02
 62
     7
  0
LINE
  5
137
  8
TANSI
  6
STYLE_02
 62
     7
 10
-149.376627431
 20
-3.7519559384065881
 30
0.0
 11
-149.376627431
 21
-6.5924194814475072
 31
0.0
  0
LINE
  5
138
  8
TANSI
  6
STYLE_02
 62
     7
 10
-149.376627431
 20
-7.3924728945675238
 30
0.0
 11
-149.376627431
 21
-10.23293643760441
 31
0.0
  0
LINE
  5
139
  8
TANSI
  6
STYLE_02
 62
     7
 10
-148.126543973
 20
-10.23293643760441
 30
0.0
 11
-148.126543973
 21
-7.392472894567498
 31
0.0
  0
LINE
  5
13A
  8
TANSI
  6
STYLE_02
 62
     7
 10
-148.126543973
 20
-6.5924194814475072
 30
0.0
 11
-148.126543973
 21
-3.7519559384065881
 31
0.0
  0
LINE
  5
13B
  8
TANSI
  6
STYLE_02
 62
     7
 10
-150.45169920487979
 20
-7.3924728945675238
 30
0.0
 11
-150.45169920487979
 21
-6.5924194814475072
 31
0.0
  0
LINE
  5
13C
  8
TANSI
  6
STYLE_02
 62
     7
 10
-147.05147219911979
 20
-7.3924728945675238
 30
0.0
 11
-148.126543973
 21
-7.3924728945675238
 31
0.0
  0
LINE
  5
13D
  8
TANSI
  6
STYLE_02
 62
     7
 10
-149.376627431
 20
-7.3924728945675238
 30
0.0
 11
-150.45169920487979
 21
-7.3924728945675238
 31
0.0
  0
LINE
  5
13E
  8
TANSI
  6
STYLE_02
 62
     7
 10
-147.05147219911979
 20
-6.5924194814475072
 30
0.0
 11
-147.05147219911979
 21
-7.3924728945675238
 31
0.0
  0
LINE
  5
13F
  8
TANSI
  6
STYLE_02
 62
     7
 10
-150.45169920487979
 20
-6.5924194814475072
 30
0.0
 11
-149.376627431
 21
-6.5924194814475072
 31
0.0
  0
LINE
  5
140
  8
TANSI
  6
STYLE_02
 62
     7
 10
-148.126543973
 20
-6.5924194814475072
 30
0.0
 11
-147.05147219911979
 21
-6.5924194814475072
 31
0.0
  0
LINE
  5
141
  8
TANSI
  6
STYLE_02
 62
     7
 10
-152.5018360760001
 20
-6.4424094664875247
 30
0.0
 11
-152.00564683014869
 21
-6.4424094664875247
 31
0.0
  0
LINE
  5
142
  8
TANSI
  6
STYLE_02
 62
     7
 10
-152.5018360760001
 20
-7.542482909527525
 30
0.0
 11
-152.00564683014869
 21
-7.542482909527525
 31
0.0
  0
LINE
  5
143
  8
TANSI
  6
STYLE_02
 62
     7
 10
-145.4975245738508
 20
-6.4424094664875247
 30
0.0
 11
-145.00133532800001
 21
-6.4424094664875247
 31
0.0
  0
LINE
  5
144
  8
TANSI
  6
STYLE_02
 62
     7
 10
-145.4975245738508
 20
-7.542482909527525
 30
0.0
 11
-145.00133532800001
 21
-7.542482909527525
 31
0.0
  0
LINE
  5
145
  8
TANSI
  6
STYLE_02
 62
     7
 10
-148.20154898048
 20
-3.2421958140075442
 30
0.0
 11
-148.20154898048
 21
-3.7383850598588131
 31
0.0
  0
LINE
  5
146
  8
TANSI
  6
STYLE_02
 62
     7
 10
-149.30162242352
 20
-3.2421958140075442
 30
0.0
 11
-149.30162242352
 21
-3.7383850598588131
 31
0.0
  0
LINE
  5
147
  8
TANSI
  6
STYLE_02
 62
     7
 10
-148.20154898048
 20
-10.24650731615672
 30
0.0
 11
-148.20154898048
 21
-10.74269656200755
 31
0.0
  0
LINE
  5
148
  8
TANSI
  6
STYLE_02
 62
     7
 10
-149.30162242352
 20
-10.24650731615672
 30
0.0
 11
-149.30162242352
 21
-10.74269656200755
 31
0.0
  0
LINE
  5
149
  8
TANSI
  6
STYLE_02
 62
     7
 10
-148.20154898048
 20
-3.2421958140075442
 30
0.0
 11
-148.20154898048
 21
-3.7383850598588131
 31
0.0
  0
LINE
  5
14A
  8
TANSI
  6
STYLE_02
 62
     7
 10
-149.30162242352
 20
-3.2421958140075442
 30
0.0
 11
-149.30162242352
 21
-3.7383850598588131
 31
0.0
  0
LINE
  5
14B
  8
TANSI
  6
STYLE_02
 62
     7
 10
-148.20154898048
 20
-10.24650731615672
 30
0.0
 11
-148.20154898048
 21
-10.74269656200755
 31
0.0
  0
LINE
  5
14C
  8
TANSI
  6
STYLE_02
 62
     7
 10
-149.30162242352
 20
-10.24650731615672
 30
0.0
 11
-149.30162242352
 21
-10.74269656200755
 31
0.0
  0
LINE
  5
14D
  8
TANSI
  6
STYLE_02
 62
     7
 10
-148.20154898048
 20
-3.2421958140075442
 30
0.0
 11
-148.20154898048
 21
-3.7383850598588131
 31
0.0
  0
LINE
  5
14E
  8
TANSI
  6
STYLE_02
 62
     7
 10
-149.30162242352
 20
-3.2421958140075442
 30
0.0
 11
-149.30162242352
 21
-3.7383850598588131
 31
0.0
  0
LINE
  5
14F
  8
TANSI
  6
STYLE_02
 62
     7
 10
-148.20154898048
 20
-10.24650731615672
 30
0.0
 11
-148.20154898048
 21
-10.74269656200755
 31
0.0
  0
LINE
  5
150
  8
TANSI
  6
STYLE_02
 62
     7
 10
-149.30162242352
 20
-10.24650731615672
 30
0.0
 11
-149.30162242352
 21
-10.74269656200755
 31
0.0
  0
LINE
  5
151
  8
TANSI
  6
STYLE_02
 62
     7
 10
-148.20154898048
 20
-3.2421958140075442
 30
0.0
 11
-148.20154898048
 21
-3.7383850598588131
 31
0.0
  0
LINE
  5
152
  8
TANSI
  6
STYLE_02
 62
     7
 10
-149.30162242352
 20
-3.2421958140075442
 30
0.0
 11
-149.30162242352
 21
-3.7383850598588131
 31
0.0
  0
LINE
  5
153
  8
TANSI
  6
STYLE_02
 62
     7
 10
-148.20154898048
 20
-10.24650731615672
 30
0.0
 11
-148.20154898048
 21
-10.74269656200755
 31
0.0
  0
LINE
  5
154
  8
TANSI
  6
STYLE_02
 62
     7
 10
-149.30162242352
 20
-10.24650731615672
 30
0.0
 11
-149.30162242352
 21
-10.74269656200755
 31
0.0
  0
ARC
  5
155
  8
TANSI
  6
STYLE_02
 62
     7
 10
-158.2522199827998
 20
-6.9924461880075617
 30
0.0
 40
3.3002203291220642
 50
79.082582684189433
 51
280.9174173158035
  0
ARC
  5
156
  8
TANSI
  6
STYLE_02
 62
     7
 10
-158.2522199827998
 20
-6.9924461880075617
 30
0.0
 40
3.3002203291220509
 50
280.91741731580362
 51
79.082582684196453
  0
POLYLINE
  5
157
  8
TANSI
  6
STYLE_02
 62
     7
 66
     1
 10
0.0
 20
0.0
 30
0.0
 70
     1
  0
VERTEX
  5
6F8
  8
TANSI
  6
STYLE_02
 62
     7
 10
-162.0024703568001
 20
-3.242195814005512
 30
0.0
  0
VERTEX
  5
6F9
  8
TANSI
  6
STYLE_02
 62
     7
 10
-154.5019696088001
 20
-3.242195814005512
 30
0.0
  0
VERTEX
  5
6FA
  8
TANSI
  6
STYLE_02
 62
     7
 10
-154.5019696088001
 20
-10.7426965620055
 30
0.0
  0
VERTEX
  5
6FB
  8
TANSI
  6
STYLE_02
 62
     7
 10
-162.0024703568001
 20
-10.7426965620055
 30
0.0
  0
SEQEND
  5
6FC
  8
TANSI
  6
STYLE_02
 62
     7
  0
LINE
  5
15E
  8
TANSI
  6
STYLE_02
 62
     7
 10
-158.8772617118
 20
-3.7519559384065881
 30
0.0
 11
-158.8772617118
 21
-6.5924194814475072
 31
0.0
  0
LINE
  5
15F
  8
TANSI
  6
STYLE_02
 62
     7
 10
-158.8772617118
 20
-7.3924728945675238
 30
0.0
 11
-158.8772617118
 21
-10.23293643760441
 31
0.0
  0
LINE
  5
160
  8
TANSI
  6
STYLE_02
 62
     7
 10
-157.6271782538
 20
-10.23293643760441
 30
0.0
 11
-157.6271782538
 21
-7.392472894567498
 31
0.0
  0
LINE
  5
161
  8
TANSI
  6
STYLE_02
 62
     7
 10
-157.6271782538
 20
-6.5924194814475072
 30
0.0
 11
-157.6271782538
 21
-3.7519559384065881
 31
0.0
  0
LINE
  5
162
  8
TANSI
  6
STYLE_02
 62
     7
 10
-159.95233348567979
 20
-7.3924728945675238
 30
0.0
 11
-159.95233348567979
 21
-6.5924194814475072
 31
0.0
  0
LINE
  5
163
  8
TANSI
  6
STYLE_02
 62
     7
 10
-156.55210647991979
 20
-7.3924728945675238
 30
0.0
 11
-157.6271782538
 21
-7.3924728945675238
 31
0.0
  0
LINE
  5
164
  8
TANSI
  6
STYLE_02
 62
     7
 10
-158.8772617118
 20
-7.3924728945675238
 30
0.0
 11
-159.95233348567979
 21
-7.3924728945675238
 31
0.0
  0
LINE
  5
165
  8
TANSI
  6
STYLE_02
 62
     7
 10
-156.55210647991979
 20
-6.5924194814475072
 30
0.0
 11
-156.55210647991979
 21
-7.3924728945675238
 31
0.0
  0
LINE
  5
166
  8
TANSI
  6
STYLE_02
 62
     7
 10
-159.95233348567979
 20
-6.5924194814475072
 30
0.0
 11
-158.8772617118
 21
-6.5924194814475072
 31
0.0
  0
LINE
  5
167
  8
TANSI
  6
STYLE_02
 62
     7
 10
-157.6271782538
 20
-6.5924194814475072
 30
0.0
 11
-156.55210647991979
 21
-6.5924194814475072
 31
0.0
  0
LINE
  5
168
  8
TANSI
  6
STYLE_02
 62
     7
 10
-162.0024703568001
 20
-6.4424094664875247
 30
0.0
 11
-161.50628111094881
 21
-6.4424094664875247
 31
0.0
  0
LINE
  5
169
  8
TANSI
  6
STYLE_02
 62
     7
 10
-162.0024703568001
 20
-7.542482909527525
 30
0.0
 11
-161.50628111094881
 21
-7.542482909527525
 31
0.0
  0
LINE
  5
16A
  8
TANSI
  6
STYLE_02
 62
     7
 10
-154.9981588546508
 20
-6.4424094664875247
 30
0.0
 11
-154.5019696088001
 21
-6.4424094664875247
 31
0.0
  0
LINE
  5
16B
  8
TANSI
  6
STYLE_02
 62
     7
 10
-154.9981588546508
 20
-7.542482909527525
 30
0.0
 11
-154.5019696088001
 21
-7.542482909527525
 31
0.0
  0
LINE
  5
16C
  8
TANSI
  6
STYLE_02
 62
     7
 10
-157.70218326128
 20
-3.2421958140075442
 30
0.0
 11
-157.70218326128
 21
-3.7383850598588131
 31
0.0
  0
LINE
  5
16D
  8
TANSI
  6
STYLE_02
 62
     7
 10
-158.80225670432
 20
-3.2421958140075442
 30
0.0
 11
-158.80225670432
 21
-3.7383850598588131
 31
0.0
  0
LINE
  5
16E
  8
TANSI
  6
STYLE_02
 62
     7
 10
-157.70218326128
 20
-10.24650731615672
 30
0.0
 11
-157.70218326128
 21
-10.74269656200755
 31
0.0
  0
LINE
  5
16F
  8
TANSI
  6
STYLE_02
 62
     7
 10
-158.80225670432
 20
-10.24650731615672
 30
0.0
 11
-158.80225670432
 21
-10.74269656200755
 31
0.0
  0
LINE
  5
170
  8
TANSI
  6
STYLE_02
 62
     7
 10
-157.70218326128
 20
-3.2421958140075442
 30
0.0
 11
-157.70218326128
 21
-3.7383850598588131
 31
0.0
  0
LINE
  5
171
  8
TANSI
  6
STYLE_02
 62
     7
 10
-158.80225670432
 20
-3.2421958140075442
 30
0.0
 11
-158.80225670432
 21
-3.7383850598588131
 31
0.0
  0
LINE
  5
172
  8
TANSI
  6
STYLE_02
 62
     7
 10
-157.70218326128
 20
-10.24650731615672
 30
0.0
 11
-157.70218326128
 21
-10.74269656200755
 31
0.0
  0
LINE
  5
173
  8
TANSI
  6
STYLE_02
 62
     7
 10
-158.80225670432
 20
-10.24650731615672
 30
0.0
 11
-158.80225670432
 21
-10.74269656200755
 31
0.0
  0
LINE
  5
174
  8
TANSI
  6
STYLE_02
 62
     7
 10
-157.70218326128
 20
-3.2421958140075442
 30
0.0
 11
-157.70218326128
 21
-3.7383850598588131
 31
0.0
  0
LINE
  5
175
  8
TANSI
  6
STYLE_02
 62
     7
 10
-158.80225670432
 20
-3.2421958140075442
 30
0.0
 11
-158.80225670432
 21
-3.7383850598588131
 31
0.0
  0
LINE
  5
176
  8
TANSI
  6
STYLE_02
 62
     7
 10
-157.70218326128
 20
-10.24650731615672
 30
0.0
 11
-157.70218326128
 21
-10.74269656200755
 31
0.0
  0
LINE
  5
177
  8
TANSI
  6
STYLE_02
 62
     7
 10
-158.80225670432
 20
-10.24650731615672
 30
0.0
 11
-158.80225670432
 21
-10.74269656200755
 31
0.0
  0
LINE
  5
178
  8
TANSI
  6
STYLE_02
 62
     7
 10
-157.70218326128
 20
-3.2421958140075442
 30
0.0
 11
-157.70218326128
 21
-3.7383850598588131
 31
0.0
  0
LINE
  5
179
  8
TANSI
  6
STYLE_02
 62
     7
 10
-158.80225670432
 20
-3.2421958140075442
 30
0.0
 11
-158.80225670432
 21
-3.7383850598588131
 31
0.0
  0
LINE
  5
17A
  8
TANSI
  6
STYLE_02
 62
     7
 10
-157.70218326128
 20
-10.24650731615672
 30
0.0
 11
-157.70218326128
 21
-10.74269656200755
 31
0.0
  0
LINE
  5
17B
  8
TANSI
  6
STYLE_02
 62
     7
 10
-158.80225670432
 20
-10.24650731615672
 30
0.0
 11
-158.80225670432
 21
-10.74269656200755
 31
0.0
  0
ARC
  5
17C
  8
TANSI
  6
STYLE_02
 62
     7
 10
-120.2496828596
 20
-6.9924461880075617
 30
0.0
 40
3.300220329122074
 50
79.082582684188452
 51
280.9174173158035
  0
ARC
  5
17D
  8
TANSI
  6
STYLE_02
 62
     7
 10
-120.2496828596
 20
-6.9924461880075617
 30
0.0
 40
3.3002203291220509
 50
280.91741731580362
 51
79.082582684196453
  0
POLYLINE
  5
17E
  8
TANSI
  6
STYLE_02
 62
     7
 66
     1
 10
0.0
 20
0.0
 30
0.0
 70
     1
  0
VERTEX
  5
6FD
  8
TANSI
  6
STYLE_02
 62
     7
 10
-123.9999332336002
 20
-3.242195814005512
 30
0.0
  0
VERTEX
  5
6FE
  8
TANSI
  6
STYLE_02
 62
     7
 10
-116.49943248560029
 20
-3.242195814005512
 30
0.0
  0
VERTEX
  5
6FF
  8
TANSI
  6
STYLE_02
 62
     7
 10
-116.49943248560029
 20
-10.7426965620055
 30
0.0
  0
VERTEX
  5
700
  8
TANSI
  6
STYLE_02
 62
     7
 10
-123.9999332336002
 20
-10.7426965620055
 30
0.0
  0
SEQEND
  5
701
  8
TANSI
  6
STYLE_02
 62
     7
  0
LINE
  5
185
  8
TANSI
  6
STYLE_02
 62
     7
 10
-120.8747245886002
 20
-3.7519559384065881
 30
0.0
 11
-120.8747245886002
 21
-6.5924194814475072
 31
0.0
  0
LINE
  5
186
  8
TANSI
  6
STYLE_02
 62
     7
 10
-120.8747245886002
 20
-7.3924728945675238
 30
0.0
 11
-120.8747245886002
 21
-10.23293643760441
 31
0.0
  0
LINE
  5
187
  8
TANSI
  6
STYLE_02
 62
     7
 10
-119.6246411306002
 20
-10.23293643760441
 30
0.0
 11
-119.6246411306002
 21
-7.392472894567498
 31
0.0
  0
LINE
  5
188
  8
TANSI
  6
STYLE_02
 62
     7
 10
-119.6246411306002
 20
-6.5924194814475072
 30
0.0
 11
-119.6246411306002
 21
-3.7519559384065881
 31
0.0
  0
LINE
  5
189
  8
TANSI
  6
STYLE_02
 62
     7
 10
-121.9497963624801
 20
-7.3924728945675238
 30
0.0
 11
-121.9497963624801
 21
-6.5924194814475072
 31
0.0
  0
LINE
  5
18A
  8
TANSI
  6
STYLE_02
 62
     7
 10
-118.54956935672
 20
-7.3924728945675238
 30
0.0
 11
-119.6246411306002
 21
-7.3924728945675238
 31
0.0
  0
LINE
  5
18B
  8
TANSI
  6
STYLE_02
 62
     7
 10
-120.8747245886002
 20
-7.3924728945675238
 30
0.0
 11
-121.9497963624801
 21
-7.3924728945675238
 31
0.0
  0
LINE
  5
18C
  8
TANSI
  6
STYLE_02
 62
     7
 10
-118.54956935672
 20
-6.5924194814475072
 30
0.0
 11
-118.54956935672
 21
-7.3924728945675238
 31
0.0
  0
LINE
  5
18D
  8
TANSI
  6
STYLE_02
 62
     7
 10
-121.9497963624801
 20
-6.5924194814475072
 30
0.0
 11
-120.8747245886002
 21
-6.5924194814475072
 31
0.0
  0
LINE
  5
18E
  8
TANSI
  6
STYLE_02
 62
     7
 10
-119.6246411306002
 20
-6.5924194814475072
 30
0.0
 11
-118.54956935672
 21
-6.5924194814475072
 31
0.0
  0
LINE
  5
18F
  8
TANSI
  6
STYLE_02
 62
     7
 10
-123.9999332336002
 20
-6.4424094664875247
 30
0.0
 11
-123.503743987749
 21
-6.4424094664875247
 31
0.0
  0
LINE
  5
190
  8
TANSI
  6
STYLE_02
 62
     7
 10
-123.9999332336002
 20
-7.542482909527525
 30
0.0
 11
-123.503743987749
 21
-7.542482909527525
 31
0.0
  0
LINE
  5
191
  8
TANSI
  6
STYLE_02
 62
     7
 10
-116.995621731451
 20
-6.4424094664875247
 30
0.0
 11
-116.49943248560029
 21
-6.4424094664875247
 31
0.0
  0
LINE
  5
192
  8
TANSI
  6
STYLE_02
 62
     7
 10
-116.995621731451
 20
-7.542482909527525
 30
0.0
 11
-116.49943248560029
 21
-7.542482909527525
 31
0.0
  0
LINE
  5
193
  8
TANSI
  6
STYLE_02
 62
     7
 10
-119.6996461380802
 20
-3.2421958140075442
 30
0.0
 11
-119.6996461380802
 21
-3.7383850598588131
 31
0.0
  0
LINE
  5
194
  8
TANSI
  6
STYLE_02
 62
     7
 10
-120.7997195811202
 20
-3.2421958140075442
 30
0.0
 11
-120.7997195811202
 21
-3.7383850598588131
 31
0.0
  0
LINE
  5
195
  8
TANSI
  6
STYLE_02
 62
     7
 10
-119.6996461380802
 20
-10.24650731615672
 30
0.0
 11
-119.6996461380802
 21
-10.74269656200755
 31
0.0
  0
LINE
  5
196
  8
TANSI
  6
STYLE_02
 62
     7
 10
-120.7997195811202
 20
-10.24650731615672
 30
0.0
 11
-120.7997195811202
 21
-10.74269656200755
 31
0.0
  0
LINE
  5
197
  8
TANSI
  6
STYLE_02
 62
     7
 10
-119.6996461380802
 20
-3.2421958140075442
 30
0.0
 11
-119.6996461380802
 21
-3.7383850598588131
 31
0.0
  0
LINE
  5
198
  8
TANSI
  6
STYLE_02
 62
     7
 10
-120.7997195811202
 20
-3.2421958140075442
 30
0.0
 11
-120.7997195811202
 21
-3.7383850598588131
 31
0.0
  0
LINE
  5
199
  8
TANSI
  6
STYLE_02
 62
     7
 10
-119.6996461380802
 20
-10.24650731615672
 30
0.0
 11
-119.6996461380802
 21
-10.74269656200755
 31
0.0
  0
LINE
  5
19A
  8
TANSI
  6
STYLE_02
 62
     7
 10
-120.7997195811202
 20
-10.24650731615672
 30
0.0
 11
-120.7997195811202
 21
-10.74269656200755
 31
0.0
  0
LINE
  5
19B
  8
TANSI
  6
STYLE_02
 62
     7
 10
-119.6996461380802
 20
-3.2421958140075442
 30
0.0
 11
-119.6996461380802
 21
-3.7383850598588131
 31
0.0
  0
LINE
  5
19C
  8
TANSI
  6
STYLE_02
 62
     7
 10
-120.7997195811202
 20
-3.2421958140075442
 30
0.0
 11
-120.7997195811202
 21
-3.7383850598588131
 31
0.0
  0
LINE
  5
19D
  8
TANSI
  6
STYLE_02
 62
     7
 10
-119.6996461380802
 20
-10.24650731615672
 30
0.0
 11
-119.6996461380802
 21
-10.74269656200755
 31
0.0
  0
LINE
  5
19E
  8
TANSI
  6
STYLE_02
 62
     7
 10
-120.7997195811202
 20
-10.24650731615672
 30
0.0
 11
-120.7997195811202
 21
-10.74269656200755
 31
0.0
  0
LINE
  5
19F
  8
TANSI
  6
STYLE_02
 62
     7
 10
-119.6996461380802
 20
-3.2421958140075442
 30
0.0
 11
-119.6996461380802
 21
-3.7383850598588131
 31
0.0
  0
LINE
  5
1A0
  8
TANSI
  6
STYLE_02
 62
     7
 10
-120.7997195811202
 20
-3.2421958140075442
 30
0.0
 11
-120.7997195811202
 21
-3.7383850598588131
 31
0.0
  0
LINE
  5
1A1
  8
TANSI
  6
STYLE_02
 62
     7
 10
-119.6996461380802
 20
-10.24650731615672
 30
0.0
 11
-119.6996461380802
 21
-10.74269656200755
 31
0.0
  0
LINE
  5
1A2
  8
TANSI
  6
STYLE_02
 62
     7
 10
-120.7997195811202
 20
-10.24650731615672
 30
0.0
 11
-120.7997195811202
 21
-10.74269656200755
 31
0.0
  0
LINE
  5
1A3
  8
TANSI
  6
STYLE_02
 62
     7
 10
-116.2994191323203
 20
-11.59275331344551
 30
0.0
 11
-124.1999465868803
 21
-11.59275331344551
 31
0.0
  0
ARC
  5
1A4
  8
TANSI
  6
STYLE_02
 62
     7
 10
-110.7490485788001
 20
-6.9924461880075617
 30
0.0
 40
3.300220329122074
 50
79.082582684188452
 51
280.9174173158035
  0
ARC
  5
1A5
  8
TANSI
  6
STYLE_02
 62
     7
 10
-110.7490485788001
 20
-6.9924461880075617
 30
0.0
 40
3.3002203291220509
 50
280.91741731580362
 51
79.082582684196453
  0
POLYLINE
  5
1A6
  8
TANSI
  6
STYLE_02
 62
     7
 66
     1
 10
0.0
 20
0.0
 30
0.0
 70
     1
  0
VERTEX
  5
702
  8
TANSI
  6
STYLE_02
 62
     7
 10
-114.4992989528002
 20
-3.242195814005512
 30
0.0
  0
VERTEX
  5
703
  8
TANSI
  6
STYLE_02
 62
     7
 10
-106.9987982048002
 20
-3.242195814005512
 30
0.0
  0
VERTEX
  5
704
  8
TANSI
  6
STYLE_02
 62
     7
 10
-106.9987982048002
 20
-10.7426965620055
 30
0.0
  0
VERTEX
  5
705
  8
TANSI
  6
STYLE_02
 62
     7
 10
-114.4992989528002
 20
-10.7426965620055
 30
0.0
  0
SEQEND
  5
706
  8
TANSI
  6
STYLE_02
 62
     7
  0
LINE
  5
1AD
  8
TANSI
  6
STYLE_02
 62
     7
 10
-111.3740903078002
 20
-3.7519559384065881
 30
0.0
 11
-111.3740903078002
 21
-6.5924194814475072
 31
0.0
  0
LINE
  5
1AE
  8
TANSI
  6
STYLE_02
 62
     7
 10
-111.3740903078002
 20
-7.3924728945675238
 30
0.0
 11
-111.3740903078002
 21
-10.23293643760441
 31
0.0
  0
LINE
  5
1AF
  8
TANSI
  6
STYLE_02
 62
     7
 10
-110.1240068498002
 20
-10.23293643760441
 30
0.0
 11
-110.1240068498002
 21
-7.392472894567498
 31
0.0
  0
LINE
  5
1B0
  8
TANSI
  6
STYLE_02
 62
     7
 10
-110.1240068498002
 20
-6.5924194814475072
 30
0.0
 11
-110.1240068498002
 21
-3.7519559384065881
 31
0.0
  0
LINE
  5
1B1
  8
TANSI
  6
STYLE_02
 62
     7
 10
-112.44916208168
 20
-7.3924728945675238
 30
0.0
 11
-112.44916208168
 21
-6.5924194814475072
 31
0.0
  0
LINE
  5
1B2
  8
TANSI
  6
STYLE_02
 62
     7
 10
-109.04893507592
 20
-7.3924728945675238
 30
0.0
 11
-110.1240068498002
 21
-7.3924728945675238
 31
0.0
  0
LINE
  5
1B3
  8
TANSI
  6
STYLE_02
 62
     7
 10
-111.3740903078002
 20
-7.3924728945675238
 30
0.0
 11
-112.44916208168
 21
-7.3924728945675238
 31
0.0
  0
LINE
  5
1B4
  8
TANSI
  6
STYLE_02
 62
     7
 10
-109.04893507592
 20
-6.5924194814475072
 30
0.0
 11
-109.04893507592
 21
-7.3924728945675238
 31
0.0
  0
LINE
  5
1B5
  8
TANSI
  6
STYLE_02
 62
     7
 10
-112.44916208168
 20
-6.5924194814475072
 30
0.0
 11
-111.3740903078002
 21
-6.5924194814475072
 31
0.0
  0
LINE
  5
1B6
  8
TANSI
  6
STYLE_02
 62
     7
 10
-110.1240068498002
 20
-6.5924194814475072
 30
0.0
 11
-109.04893507592
 21
-6.5924194814475072
 31
0.0
  0
LINE
  5
1B7
  8
TANSI
  6
STYLE_02
 62
     7
 10
-114.4992989528002
 20
-6.4424094664875247
 30
0.0
 11
-114.003109706949
 21
-6.4424094664875247
 31
0.0
  0
LINE
  5
1B8
  8
TANSI
  6
STYLE_02
 62
     7
 10
-114.4992989528002
 20
-7.542482909527525
 30
0.0
 11
-114.003109706949
 21
-7.542482909527525
 31
0.0
  0
LINE
  5
1B9
  8
TANSI
  6
STYLE_02
 62
     7
 10
-107.494987450651
 20
-6.4424094664875247
 30
0.0
 11
-106.99879820480029
 21
-6.4424094664875247
 31
0.0
  0
LINE
  5
1BA
  8
TANSI
  6
STYLE_02
 62
     7
 10
-107.494987450651
 20
-7.542482909527525
 30
0.0
 11
-106.99879820480029
 21
-7.542482909527525
 31
0.0
  0
LINE
  5
1BB
  8
TANSI
  6
STYLE_02
 62
     7
 10
-110.1990118572802
 20
-3.2421958140075442
 30
0.0
 11
-110.1990118572802
 21
-3.7383850598588131
 31
0.0
  0
LINE
  5
1BC
  8
TANSI
  6
STYLE_02
 62
     7
 10
-111.2990853003202
 20
-3.2421958140075442
 30
0.0
 11
-111.2990853003202
 21
-3.7383850598588131
 31
0.0
  0
LINE
  5
1BD
  8
TANSI
  6
STYLE_02
 62
     7
 10
-110.1990118572802
 20
-10.24650731615672
 30
0.0
 11
-110.1990118572802
 21
-10.74269656200755
 31
0.0
  0
LINE
  5
1BE
  8
TANSI
  6
STYLE_02
 62
     7
 10
-111.2990853003202
 20
-10.24650731615672
 30
0.0
 11
-111.2990853003202
 21
-10.74269656200755
 31
0.0
  0
LINE
  5
1BF
  8
TANSI
  6
STYLE_02
 62
     7
 10
-110.1990118572802
 20
-3.2421958140075442
 30
0.0
 11
-110.1990118572802
 21
-3.7383850598588131
 31
0.0
  0
LINE
  5
1C0
  8
TANSI
  6
STYLE_02
 62
     7
 10
-111.2990853003202
 20
-3.2421958140075442
 30
0.0
 11
-111.2990853003202
 21
-3.7383850598588131
 31
0.0
  0
LINE
  5
1C1
  8
TANSI
  6
STYLE_02
 62
     7
 10
-110.1990118572802
 20
-10.24650731615672
 30
0.0
 11
-110.1990118572802
 21
-10.74269656200755
 31
0.0
  0
LINE
  5
1C2
  8
TANSI
  6
STYLE_02
 62
     7
 10
-111.2990853003202
 20
-10.24650731615672
 30
0.0
 11
-111.2990853003202
 21
-10.74269656200755
 31
0.0
  0
LINE
  5
1C3
  8
TANSI
  6
STYLE_02
 62
     7
 10
-110.1990118572802
 20
-3.2421958140075442
 30
0.0
 11
-110.1990118572802
 21
-3.7383850598588131
 31
0.0
  0
LINE
  5
1C4
  8
TANSI
  6
STYLE_02
 62
     7
 10
-111.2990853003202
 20
-3.2421958140075442
 30
0.0
 11
-111.2990853003202
 21
-3.7383850598588131
 31
0.0
  0
LINE
  5
1C5
  8
TANSI
  6
STYLE_02
 62
     7
 10
-110.1990118572802
 20
-10.24650731615672
 30
0.0
 11
-110.1990118572802
 21
-10.74269656200755
 31
0.0
  0
LINE
  5
1C6
  8
TANSI
  6
STYLE_02
 62
     7
 10
-111.2990853003202
 20
-10.24650731615672
 30
0.0
 11
-111.2990853003202
 21
-10.74269656200755
 31
0.0
  0
LINE
  5
1C7
  8
TANSI
  6
STYLE_02
 62
     7
 10
-110.1990118572802
 20
-3.2421958140075442
 30
0.0
 11
-110.1990118572802
 21
-3.7383850598588131
 31
0.0
  0
LINE
  5
1C8
  8
TANSI
  6
STYLE_02
 62
     7
 10
-111.2990853003202
 20
-3.2421958140075442
 30
0.0
 11
-111.2990853003202
 21
-3.7383850598588131
 31
0.0
  0
LINE
  5
1C9
  8
TANSI
  6
STYLE_02
 62
     7
 10
-110.1990118572802
 20
-10.24650731615672
 30
0.0
 11
-110.1990118572802
 21
-10.74269656200755
 31
0.0
  0
LINE
  5
1CA
  8
TANSI
  6
STYLE_02
 62
     7
 10
-111.2990853003202
 20
-10.24650731615672
 30
0.0
 11
-111.2990853003202
 21
-10.74269656200755
 31
0.0
  0
LINE
  5
1CB
  8
TANSI
  6
STYLE_02
 62
     7
 10
-106.7987848515203
 20
-11.59275331344551
 30
0.0
 11
-114.6993123060802
 21
-11.59275331344551
 31
0.0
  0
ARC
  5
1CC
  8
TANSI
  6
STYLE_02
 62
     7
 10
-101.248414298
 20
-6.9924461880075617
 30
0.0
 40
3.300220329122074
 50
79.082582684188452
 51
280.9174173158035
  0
ARC
  5
1CD
  8
TANSI
  6
STYLE_02
 62
     7
 10
-101.248414298
 20
-6.9924461880075617
 30
0.0
 40
3.3002203291220509
 50
280.91741731580362
 51
79.082582684196453
  0
POLYLINE
  5
1CE
  8
TANSI
  6
STYLE_02
 62
     7
 66
     1
 10
0.0
 20
0.0
 30
0.0
 70
     1
  0
VERTEX
  5
707
  8
TANSI
  6
STYLE_02
 62
     7
 10
-104.9986646720002
 20
-3.242195814005512
 30
0.0
  0
VERTEX
  5
708
  8
TANSI
  6
STYLE_02
 62
     7
 10
-97.498163924000153
 20
-3.242195814005512
 30
0.0
  0
VERTEX
  5
709
  8
TANSI
  6
STYLE_02
 62
     7
 10
-97.498163924000153
 20
-10.7426965620055
 30
0.0
  0
VERTEX
  5
70A
  8
TANSI
  6
STYLE_02
 62
     7
 10
-104.9986646720002
 20
-10.7426965620055
 30
0.0
  0
SEQEND
  5
70B
  8
TANSI
  6
STYLE_02
 62
     7
  0
LINE
  5
1D5
  8
TANSI
  6
STYLE_02
 62
     7
 10
-101.8734560270002
 20
-3.7519559384065881
 30
0.0
 11
-101.8734560270002
 21
-6.5924194814475072
 31
0.0
  0
LINE
  5
1D6
  8
TANSI
  6
STYLE_02
 62
     7
 10
-101.8734560270002
 20
-7.3924728945675238
 30
0.0
 11
-101.8734560270002
 21
-10.23293643760441
 31
0.0
  0
LINE
  5
1D7
  8
TANSI
  6
STYLE_02
 62
     7
 10
-100.6233725690002
 20
-10.23293643760441
 30
0.0
 11
-100.6233725690002
 21
-7.392472894567498
 31
0.0
  0
LINE
  5
1D8
  8
TANSI
  6
STYLE_02
 62
     7
 10
-100.6233725690002
 20
-6.5924194814475072
 30
0.0
 11
-100.6233725690002
 21
-3.7519559384065881
 31
0.0
  0
LINE
  5
1D9
  8
TANSI
  6
STYLE_02
 62
     7
 10
-102.94852780088
 20
-7.3924728945675238
 30
0.0
 11
-102.94852780088
 21
-6.5924194814475072
 31
0.0
  0
LINE
  5
1DA
  8
TANSI
  6
STYLE_02
 62
     7
 10
-99.548300795119985
 20
-7.3924728945675238
 30
0.0
 11
-100.6233725690002
 21
-7.3924728945675238
 31
0.0
  0
LINE
  5
1DB
  8
TANSI
  6
STYLE_02
 62
     7
 10
-101.8734560270002
 20
-7.3924728945675238
 30
0.0
 11
-102.94852780088
 21
-7.3924728945675238
 31
0.0
  0
LINE
  5
1DC
  8
TANSI
  6
STYLE_02
 62
     7
 10
-99.548300795119985
 20
-6.5924194814475072
 30
0.0
 11
-99.548300795119985
 21
-7.3924728945675238
 31
0.0
  0
LINE
  5
1DD
  8
TANSI
  6
STYLE_02
 62
     7
 10
-102.94852780088
 20
-6.5924194814475072
 30
0.0
 11
-101.8734560270002
 21
-6.5924194814475072
 31
0.0
  0
LINE
  5
1DE
  8
TANSI
  6
STYLE_02
 62
     7
 10
-100.6233725690002
 20
-6.5924194814475072
 30
0.0
 11
-99.548300795119985
 21
-6.5924194814475072
 31
0.0
  0
LINE
  5
1DF
  8
TANSI
  6
STYLE_02
 62
     7
 10
-104.9986646720002
 20
-6.4424094664875247
 30
0.0
 11
-104.502475426149
 21
-6.4424094664875247
 31
0.0
  0
LINE
  5
1E0
  8
TANSI
  6
STYLE_02
 62
     7
 10
-104.9986646720002
 20
-7.542482909527525
 30
0.0
 11
-104.502475426149
 21
-7.542482909527525
 31
0.0
  0
LINE
  5
1E1
  8
TANSI
  6
STYLE_02
 62
     7
 10
-97.994353169851024
 20
-6.4424094664875247
 30
0.0
 11
-97.498163924000153
 21
-6.4424094664875247
 31
0.0
  0
LINE
  5
1E2
  8
TANSI
  6
STYLE_02
 62
     7
 10
-97.994353169851024
 20
-7.542482909527525
 30
0.0
 11
-97.498163924000153
 21
-7.542482909527525
 31
0.0
  0
LINE
  5
1E3
  8
TANSI
  6
STYLE_02
 62
     7
 10
-100.6983775764802
 20
-3.2421958140075442
 30
0.0
 11
-100.6983775764802
 21
-3.7383850598588131
 31
0.0
  0
LINE
  5
1E4
  8
TANSI
  6
STYLE_02
 62
     7
 10
-101.7984510195202
 20
-3.2421958140075442
 30
0.0
 11
-101.7984510195202
 21
-3.7383850598588131
 31
0.0
  0
LINE
  5
1E5
  8
TANSI
  6
STYLE_02
 62
     7
 10
-100.6983775764802
 20
-10.24650731615672
 30
0.0
 11
-100.6983775764802
 21
-10.74269656200755
 31
0.0
  0
LINE
  5
1E6
  8
TANSI
  6
STYLE_02
 62
     7
 10
-101.7984510195202
 20
-10.24650731615672
 30
0.0
 11
-101.7984510195202
 21
-10.74269656200755
 31
0.0
  0
LINE
  5
1E7
  8
TANSI
  6
STYLE_02
 62
     7
 10
-100.6983775764802
 20
-3.2421958140075442
 30
0.0
 11
-100.6983775764802
 21
-3.7383850598588131
 31
0.0
  0
LINE
  5
1E8
  8
TANSI
  6
STYLE_02
 62
     7
 10
-101.7984510195202
 20
-3.2421958140075442
 30
0.0
 11
-101.7984510195202
 21
-3.7383850598588131
 31
0.0
  0
LINE
  5
1E9
  8
TANSI
  6
STYLE_02
 62
     7
 10
-100.6983775764802
 20
-10.24650731615672
 30
0.0
 11
-100.6983775764802
 21
-10.74269656200755
 31
0.0
  0
LINE
  5
1EA
  8
TANSI
  6
STYLE_02
 62
     7
 10
-101.7984510195202
 20
-10.24650731615672
 30
0.0
 11
-101.7984510195202
 21
-10.74269656200755
 31
0.0
  0
LINE
  5
1EB
  8
TANSI
  6
STYLE_02
 62
     7
 10
-100.6983775764802
 20
-3.2421958140075442
 30
0.0
 11
-100.6983775764802
 21
-3.7383850598588131
 31
0.0
  0
LINE
  5
1EC
  8
TANSI
  6
STYLE_02
 62
     7
 10
-101.7984510195202
 20
-3.2421958140075442
 30
0.0
 11
-101.7984510195202
 21
-3.7383850598588131
 31
0.0
  0
LINE
  5
1ED
  8
TANSI
  6
STYLE_02
 62
     7
 10
-100.6983775764802
 20
-10.24650731615672
 30
0.0
 11
-100.6983775764802
 21
-10.74269656200755
 31
0.0
  0
LINE
  5
1EE
  8
TANSI
  6
STYLE_02
 62
     7
 10
-101.7984510195202
 20
-10.24650731615672
 30
0.0
 11
-101.7984510195202
 21
-10.74269656200755
 31
0.0
  0
LINE
  5
1EF
  8
TANSI
  6
STYLE_02
 62
     7
 10
-100.6983775764802
 20
-3.2421958140075442
 30
0.0
 11
-100.6983775764802
 21
-3.7383850598588131
 31
0.0
  0
LINE
  5
1F0
  8
TANSI
  6
STYLE_02
 62
     7
 10
-101.7984510195202
 20
-3.2421958140075442
 30
0.0
 11
-101.7984510195202
 21
-3.7383850598588131
 31
0.0
  0
LINE
  5
1F1
  8
TANSI
  6
STYLE_02
 62
     7
 10
-100.6983775764802
 20
-10.24650731615672
 30
0.0
 11
-100.6983775764802
 21
-10.74269656200755
 31
0.0
  0
LINE
  5
1F2
  8
TANSI
  6
STYLE_02
 62
     7
 10
-101.7984510195202
 20
-10.24650731615672
 30
0.0
 11
-101.7984510195202
 21
-10.74269656200755
 31
0.0
  0
LINE
  5
1F3
  8
TANSI
  6
STYLE_02
 62
     7
 10
-97.298150570720153
 20
-11.59275331344551
 30
0.0
 11
-105.1986780252803
 21
-11.59275331344551
 31
0.0
  0
ARC
  5
1F4
  8
TANSI
  6
STYLE_02
 62
     7
 10
-91.747780017199759
 20
-6.9924461880075617
 30
0.0
 40
3.300220329122074
 50
79.082582684188452
 51
280.9174173158035
  0
ARC
  5
1F5
  8
TANSI
  6
STYLE_02
 62
     7
 10
-91.747780017199759
 20
-6.9924461880075617
 30
0.0
 40
3.3002203291220509
 50
280.91741731580362
 51
79.082582684197405
  0
POLYLINE
  5
1F6
  8
TANSI
  6
STYLE_02
 62
     7
 66
     1
 10
0.0
 20
0.0
 30
0.0
 70
     1
  0
VERTEX
  5
70C
  8
TANSI
  6
STYLE_02
 62
     7
 10
-95.498030391200118
 20
-3.242195814005512
 30
0.0
  0
VERTEX
  5
70D
  8
TANSI
  6
STYLE_02
 62
     7
 10
-87.997529643199925
 20
-3.242195814005512
 30
0.0
  0
VERTEX
  5
70E
  8
TANSI
  6
STYLE_02
 62
     7
 10
-87.997529643199925
 20
-10.7426965620055
 30
0.0
  0
VERTEX
  5
70F
  8
TANSI
  6
STYLE_02
 62
     7
 10
-95.498030391200118
 20
-10.7426965620055
 30
0.0
  0
SEQEND
  5
710
  8
TANSI
  6
STYLE_02
 62
     7
  0
LINE
  5
1FD
  8
TANSI
  6
STYLE_02
 62
     7
 10
-92.372821746200046
 20
-3.7519559384065881
 30
0.0
 11
-92.372821746200046
 21
-6.5924194814475072
 31
0.0
  0
LINE
  5
1FE
  8
TANSI
  6
STYLE_02
 62
     7
 10
-92.372821746200046
 20
-7.3924728945675238
 30
0.0
 11
-92.372821746200046
 21
-10.23293643760441
 31
0.0
  0
LINE
  5
1FF
  8
TANSI
  6
STYLE_02
 62
     7
 10
-91.122738288199983
 20
-10.23293643760441
 30
0.0
 11
-91.122738288199983
 21
-7.392472894567498
 31
0.0
  0
LINE
  5
200
  8
TANSI
  6
STYLE_02
 62
     7
 10
-91.122738288199983
 20
-6.5924194814475072
 30
0.0
 11
-91.122738288199983
 21
-3.7519559384065881
 31
0.0
  0
LINE
  5
201
  8
TANSI
  6
STYLE_02
 62
     7
 10
-93.447893520079845
 20
-7.3924728945675238
 30
0.0
 11
-93.447893520079845
 21
-6.5924194814475072
 31
0.0
  0
LINE
  5
202
  8
TANSI
  6
STYLE_02
 62
     7
 10
-90.047666514319729
 20
-7.3924728945675238
 30
0.0
 11
-91.122738288199983
 21
-7.3924728945675238
 31
0.0
  0
LINE
  5
203
  8
TANSI
  6
STYLE_02
 62
     7
 10
-92.372821746200046
 20
-7.3924728945675238
 30
0.0
 11
-93.447893520079845
 21
-7.3924728945675238
 31
0.0
  0
LINE
  5
204
  8
TANSI
  6
STYLE_02
 62
     7
 10
-90.047666514319729
 20
-6.5924194814475072
 30
0.0
 11
-90.047666514319729
 21
-7.3924728945675238
 31
0.0
  0
LINE
  5
205
  8
TANSI
  6
STYLE_02
 62
     7
 10
-93.447893520079845
 20
-6.5924194814475072
 30
0.0
 11
-92.372821746200046
 21
-6.5924194814475072
 31
0.0
  0
LINE
  5
206
  8
TANSI
  6
STYLE_02
 62
     7
 10
-91.122738288199983
 20
-6.5924194814475072
 30
0.0
 11
-90.047666514319729
 21
-6.5924194814475072
 31
0.0
  0
LINE
  5
207
  8
TANSI
  6
STYLE_02
 62
     7
 10
-95.498030391200118
 20
-6.4424094664875247
 30
0.0
 11
-95.001841145348806
 21
-6.4424094664875247
 31
0.0
  0
LINE
  5
208
  8
TANSI
  6
STYLE_02
 62
     7
 10
-95.498030391200118
 20
-7.542482909527525
 30
0.0
 11
-95.001841145348848
 21
-7.542482909527525
 31
0.0
  0
LINE
  5
209
  8
TANSI
  6
STYLE_02
 62
     7
 10
-88.493718889050726
 20
-6.4424094664875247
 30
0.0
 11
-87.997529643199883
 21
-6.4424094664875247
 31
0.0
  0
LINE
  5
20A
  8
TANSI
  6
STYLE_02
 62
     7
 10
-88.493718889050726
 20
-7.542482909527525
 30
0.0
 11
-87.997529643199883
 21
-7.542482909527525
 31
0.0
  0
LINE
  5
20B
  8
TANSI
  6
STYLE_02
 62
     7
 10
-91.197743295679999
 20
-3.2421958140075442
 30
0.0
 11
-91.197743295679999
 21
-3.7383850598588131
 31
0.0
  0
LINE
  5
20C
  8
TANSI
  6
STYLE_02
 62
     7
 10
-92.297816738719945
 20
-3.2421958140075442
 30
0.0
 11
-92.297816738719945
 21
-3.7383850598588131
 31
0.0
  0
LINE
  5
20D
  8
TANSI
  6
STYLE_02
 62
     7
 10
-91.197743295679999
 20
-10.24650731615672
 30
0.0
 11
-91.197743295679999
 21
-10.74269656200755
 31
0.0
  0
LINE
  5
20E
  8
TANSI
  6
STYLE_02
 62
     7
 10
-92.297816738719945
 20
-10.24650731615672
 30
0.0
 11
-92.297816738719945
 21
-10.74269656200755
 31
0.0
  0
LINE
  5
20F
  8
TANSI
  6
STYLE_02
 62
     7
 10
-91.197743295679999
 20
-3.2421958140075442
 30
0.0
 11
-91.197743295679999
 21
-3.7383850598588131
 31
0.0
  0
LINE
  5
210
  8
TANSI
  6
STYLE_02
 62
     7
 10
-92.297816738719945
 20
-3.2421958140075442
 30
0.0
 11
-92.297816738719945
 21
-3.7383850598588131
 31
0.0
  0
LINE
  5
211
  8
TANSI
  6
STYLE_02
 62
     7
 10
-91.197743295679999
 20
-10.24650731615672
 30
0.0
 11
-91.197743295679999
 21
-10.74269656200755
 31
0.0
  0
LINE
  5
212
  8
TANSI
  6
STYLE_02
 62
     7
 10
-92.297816738719945
 20
-10.24650731615672
 30
0.0
 11
-92.297816738719945
 21
-10.74269656200755
 31
0.0
  0
LINE
  5
213
  8
TANSI
  6
STYLE_02
 62
     7
 10
-91.197743295679999
 20
-3.2421958140075442
 30
0.0
 11
-91.197743295679999
 21
-3.7383850598588131
 31
0.0
  0
LINE
  5
214
  8
TANSI
  6
STYLE_02
 62
     7
 10
-92.297816738719945
 20
-3.2421958140075442
 30
0.0
 11
-92.297816738719945
 21
-3.7383850598588131
 31
0.0
  0
LINE
  5
215
  8
TANSI
  6
STYLE_02
 62
     7
 10
-91.197743295679999
 20
-10.24650731615672
 30
0.0
 11
-91.197743295679999
 21
-10.74269656200755
 31
0.0
  0
LINE
  5
216
  8
TANSI
  6
STYLE_02
 62
     7
 10
-92.297816738719945
 20
-10.24650731615672
 30
0.0
 11
-92.297816738719945
 21
-10.74269656200755
 31
0.0
  0
LINE
  5
217
  8
TANSI
  6
STYLE_02
 62
     7
 10
-91.197743295679999
 20
-3.2421958140075442
 30
0.0
 11
-91.197743295679999
 21
-3.7383850598588131
 31
0.0
  0
LINE
  5
218
  8
TANSI
  6
STYLE_02
 62
     7
 10
-92.297816738719945
 20
-3.2421958140075442
 30
0.0
 11
-92.297816738719945
 21
-3.7383850598588131
 31
0.0
  0
LINE
  5
219
  8
TANSI
  6
STYLE_02
 62
     7
 10
-91.197743295679999
 20
-10.24650731615672
 30
0.0
 11
-91.197743295679999
 21
-10.74269656200755
 31
0.0
  0
LINE
  5
21A
  8
TANSI
  6
STYLE_02
 62
     7
 10
-92.297816738719945
 20
-10.24650731615672
 30
0.0
 11
-92.297816738719945
 21
-10.74269656200755
 31
0.0
  0
CIRCLE
  5
21B
  8
TANSI
  6
STYLE_02
 62
     7
 10
-139.2509514212
 20
-6.9924461880054967
 30
0.0
 40
1.500100149599916
  0
CIRCLE
  5
21C
  8
TANSI
  6
STYLE_02
 62
     7
 10
-167.75285426360011
 20
-6.9924461880055437
 30
0.0
 40
2.1155258520000761
  0
LINE
  5
21D
  8
TANSI
  6
STYLE_02
 62
     7
 10
-168.8426706116
 20
-6.9924461880055437
 30
0.0
 11
-166.6630379156
 21
-6.9924461880055437
 31
0.0
  0
LINE
  5
21E
  8
TANSI
  6
STYLE_02
 62
     7
 10
-167.75285426360011
 20
-8.0822625360055191
 30
0.0
 11
-167.75285426360011
 21
-5.9026298400055479
 31
0.0
  0
CIRCLE
  5
21F
  8
TANSI
  6
STYLE_02
 62
     7
 10
-82.234324367599882
 20
-6.9924461880055437
 30
0.0
 40
2.115525852000018
  0
LINE
  5
220
  8
TANSI
  6
STYLE_02
 62
     7
 10
-83.324140715599853
 20
-6.9924461880055437
 30
0.0
 11
-81.144508019599868
 21
-6.9924461880055437
 31
0.0
  0
LINE
  5
221
  8
TANSI
  6
STYLE_02
 62
     7
 10
-82.234324367599882
 20
-8.0822625360055191
 30
0.0
 11
-82.234324367599882
 21
-5.9026298400055479
 31
0.0
  0
LINE
  5
222
  8
TANSI
  6
STYLE_02
 62
     7
 10
-159.44167999351481
 20
18.0
 30
0.0
 11
-159.44167999351481
 21
52.0
 31
0.0
  0
LINE
  5
223
  8
TANSI
  6
STYLE_02
 62
     7
 10
-80.941679993514825
 20
18.0
 30
0.0
 11
-168.94167999351481
 21
18.0
 31
0.0
  0
LINE
  5
224
  8
TANSI
  6
STYLE_02
 62
     7
 10
-90.441679993514853
 20
52.0
 30
0.0
 11
-90.441679993514853
 21
18.0
 31
0.0
  0
LINE
  5
225
  8
TANSI
  6
STYLE_02
 62
     7
 10
-168.94167999351481
 20
52.0
 30
0.0
 11
-80.941679993514825
 21
52.0
 31
0.0
  0
LINE
  5
226
  8
TANSI
  6
STYLE_02
 62
     7
 10
-146.5
 20
18.0
 30
0.0
 11
-146.5
 21
14.0
 31
0.0
  0
LINE
  5
227
  8
TANSI
  6
STYLE_02
 62
     7
 10
-103.5
 20
14.0
 30
0.0
 11
-103.5
 21
18.0
 31
0.0
  0
LINE
  5
228
  8
TANSI
  6
STYLE_02
 62
     7
 10
-139.5
 20
7.0
 30
0.0
 11
-110.5
 21
7.0
 31
0.0
  0
ARC
  5
229
  8
TANSI
  6
STYLE_02
 62
     7
 10
-139.5
 20
14.0
 30
0.0
 40
7.0
 50
180.0
 51
270.0
  0
ARC
  5
22A
  8
TANSI
  6
STYLE_02
 62
     7
 10
-110.5
 20
14.0
 30
0.0
 40
7.0
 50
270.0
 51
0.0
  0
LINE
  5
22B
  8
TANSI
  6
STYLE_02
 62
     7
 10
-169.94167999351481
 20
19.0
 30
0.0
 11
-169.94167999351481
 21
51.0
 31
0.0
  0
LINE
  5
22C
  8
TANSI
  6
STYLE_02
 62
     7
 10
-79.941679993514839
 20
51.0
 30
0.0
 11
-79.941679993514839
 21
19.0
 31
0.0
  0
CIRCLE
  5
22D
  8
TANSI
  6
STYLE_02
 62
     7
 10
-163.5
 20
35.0
 30
0.0
 40
2.1155258520000761
  0
LINE
  5
22E
  8
TANSI
  6
STYLE_02
 62
     7
 10
-164.58981634799991
 20
35.0
 30
0.0
 11
-162.41018365199989
 21
35.0
 31
0.0
  0
LINE
  5
22F
  8
TANSI
  6
STYLE_02
 62
     7
 10
-163.5
 20
33.910183652000022
 30
0.0
 11
-163.5
 21
36.089816347999999
 31
0.0
  0
CIRCLE
  5
230
  8
TANSI
  6
STYLE_02
 62
     7
 10
-86.5
 20
35.0
 30
0.0
 40
2.1155258520000761
  0
LINE
  5
231
  8
TANSI
  6
STYLE_02
 62
     7
 10
-87.589816347999871
 20
35.0
 30
0.0
 11
-85.410183651999859
 21
35.0
 31
0.0
  0
LINE
  5
232
  8
TANSI
  6
STYLE_02
 62
     7
 10
-86.5
 20
33.910183652000022
 30
0.0
 11
-86.5
 21
36.089816347999999
 31
0.0
  0
ARC
  5
233
  8
TANSI
  6
STYLE_02
 62
     7
 10
-168.94167999351481
 20
51.0
 30
0.0
 40
1.0
 50
90.0
 51
180.0
  0
ARC
  5
234
  8
TANSI
  6
STYLE_02
 62
     7
 10
-168.94167999351481
 20
19.0
 30
0.0
 40
1.0
 50
180.0
 51
270.0
  0
ARC
  5
235
  8
TANSI
  6
STYLE_02
 62
     7
 10
-80.941679993514825
 20
51.0
 30
0.0
 40
1.0
 50
0.0
 51
90.0
  0
ARC
  5
236
  8
TANSI
  6
STYLE_02
 62
     7
 10
-80.941679993514825
 20
19.0
 30
0.0
 40
1.0
 50
270.0
 51
0.0
  0
LINE
  5
237
  8
TANSI
  6
STYLE_02
 62
     7
 10
44.0
 20
52.0
 30
0.0
 11
44.0
 21
18.0
 31
0.0
  0
LINE
  5
238
  8
TANSI
  6
STYLE_02
 62
     7
 10
-16.0
 20
52.0
 30
0.0
 11
43.999999999999993
 21
52.0
 31
0.0
  0
LINE
  5
239
  8
TANSI
  6
STYLE_02
 62
     7
 10
-16.0
 20
18.0
 30
0.0
 11
44.0
 21
18.0
 31
0.0
  0
LINE
  5
23A
  8
TANSI
  6
STYLE_02
 62
     7
 10
-16.0
 20
52.0
 30
0.0
 11
-16.0
 21
18.0
 31
0.0
  0
LINE
  5
23B
  8
TANSI
  6
STYLE_02
 62
     7
 10
-5.0
 20
63.0
 30
0.0
 11
30.0
 21
63.0
 31
0.0
  0
LINE
  5
23C
  8
TANSI
  6
STYLE_02
 62
     7
 10
-5.0
 20
7.0
 30
0.0
 11
30.000000000000011
 21
7.0
 31
0.0
  0
LINE
  5
23D
  8
TANSI
  6
STYLE_02
 62
     7
 10
42.700000000000003
 20
52.0
 30
0.0
 11
42.700000000000003
 21
18.0
 31
0.0
  0
LINE
  5
23E
  8
TANSI
  6
STYLE_02
 62
     7
 10
-5.0
 20
63.0
 30
0.0
 11
-5.0
 21
52.0
 31
0.0
  0
LINE
  5
23F
  8
TANSI
  6
STYLE_02
 62
     7
 10
-5.0
 20
17.999999999999989
 30
0.0
 11
-5.0
 21
7.0
 31
0.0
  0
LINE
  5
240
  8
TANSI
  6
STYLE_02
 62
     7
 10
30.0
 20
63.0
 30
0.0
 11
30.0
 21
52.0
 31
0.0
  0
LINE
  5
241
  8
TANSI
  6
STYLE_02
 62
     7
 10
30.0
 20
17.999999999999989
 30
0.0
 11
30.0
 21
7.0
 31
0.0
  0
LINE
  5
242
  8
TANSI
  6
STYLE_02
 62
     7
 10
14.199999999999999
 20
1.508121326394487
 30
0.0
 11
22.0
 21
1.508121326394487
 31
0.0
  0
LINE
  5
243
  8
TANSI
  6
STYLE_02
 62
     7
 10
14.199999999999999
 20
-15.4930137024055
 30
0.0
 11
22.0
 21
-15.4930137024055
 31
0.0
  0
LINE
  5
244
  8
TANSI
  6
STYLE_02
 62
     7
 10
7.0
 20
-0.8055210014554798
 30
0.0
 11
7.0
 21
-13.17937137455554
 31
0.0
  0
LINE
  5
245
  8
TANSI
  6
STYLE_02
 62
     7
 10
14.199999999999999
 20
1.508121326394487
 30
0.0
 11
14.199999999999999
 21
-15.4930137024055
 31
0.0
  0
LINE
  5
246
  8
TANSI
  6
STYLE_02
 62
     7
 10
7.7959717928273049
 20
0.1734440084799603
 30
0.0
 11
14.199999999999999
 21
1.508121326394487
 31
0.0
  0
LINE
  5
247
  8
TANSI
  6
STYLE_02
 62
     7
 10
14.199999999999999
 20
-15.4930137024055
 30
0.0
 11
7.7959717928273049
 21
-14.158336384490971
 31
0.0
  0
ARC
  5
248
  8
TANSI
  6
STYLE_02
 62
     7
 10
8.0
 20
-0.805521001455479
 30
0.0
 40
0.9999999999999992
 50
101.7726171407578
 51
180.0
  0
ARC
  5
249
  8
TANSI
  6
STYLE_02
 62
     7
 10
7.9999999999999956
 20
-13.179371374555529
 30
0.0
 40
0.9999999999999965
 50
180.00000000000011
 51
258.22738285924243
  0
LINE
  5
24A
  8
TANSI
  6
STYLE_02
 62
     7
 10
22.0
 20
-17.992446188005498
 30
0.0
 11
22.0
 21
4.0075538119944953
 31
0.0
  0
LINE
  5
24B
  8
TANSI
  6
STYLE_02
 62
     7
 10
61.999999999999993
 20
-17.992446188005498
 30
0.0
 11
22.0
 21
-17.992446188005498
 31
0.0
  0
LINE
  5
24C
  8
TANSI
  6
STYLE_02
 62
     7
 10
22.0
 20
4.00755381199449
 30
0.0
 11
62.000000000000021
 21
4.00755381199449
 31
0.0
  0
LINE
  5
24D
  8
TANSI
  6
STYLE_02
 62
     7
 10
62.0
 20
20.0
 30
0.0
 11
44.0
 21
20.0
 31
0.0
  0
LINE
  5
24E
  8
TANSI
  6
STYLE_02
 62
     7
 10
44.0
 20
50.0
 30
0.0
 11
61.999999999999993
 21
50.0
 31
0.0
  0
LINE
  5
24F
  8
TANSI
  6
STYLE_02
 62
     7
 10
-146.5
 20
52.0
 30
0.0
 11
-146.5
 21
56.0
 31
0.0
  0
LINE
  5
250
  8
TANSI
  6
STYLE_02
 62
     7
 10
-103.5
 20
56.0
 30
0.0
 11
-103.5
 21
52.0
 31
0.0
  0
LINE
  5
251
  8
TANSI
  6
STYLE_02
 62
     7
 10
-139.5
 20
63.0
 30
0.0
 11
-110.5
 21
63.0
 31
0.0
  0
ARC
  5
252
  8
TANSI
  6
STYLE_02
 62
     7
 10
-139.5
 20
56.0
 30
0.0
 40
7.0
 50
90.0
 51
180.0
  0
ARC
  5
253
  8
TANSI
  6
STYLE_02
 62
     7
 10
-110.5
 20
56.0
 30
0.0
 40
7.0
 50
0.0
 51
90.0
  0
TEXT
  5
254
  8
DATA
 62
     7
 10
149.99999999999989
 20
-348.6227838239277
 30
0.0
 40
7.3297851562499989
  1
MTC-CBT-70T
 41
0.7
 11
149.99999999999989
 21
-341.29299866767758
 31
0.0
 73
     3
1001
ACADANNOTATIVE
1000
AnnotativeData
1002
{
1070
     1
1070
     0
1002
}
  0
TEXT
  5
255
  8
DATA
 62
     7
 10
144.8022904401812
 20
-335.92227815981931
 30
0.0
 40
4.8865311328124994
  1
入力トランス
 41
0.7
 11
144.8022904401812
 21
-331.03574702700678
 31
0.0
 73
     3
1001
ACADANNOTATIVE
1000
AnnotativeData
1002
{
1070
     1
1070
     0
1002
}
  0
TEXT
  5
256
  8
DATA
 62
     7
 10
-262.5
 20
-359.30753666666669
 30
0.0
 40
5.7009440104166673
  1
※仕様及び外観は予告なく変更されることがあります。
 41
0.7
 11
-262.5
 21
-353.60659265625009
 31
0.0
 73
     3
1001
ACADANNOTATIVE
1000
AnnotativeData
1002
{
1070
     1
1070
     0
1002
}
  0
TEXT
  5
257
  8
DATA
 62
     7
 10
-262.5
 20
-366.71586999999988
 30
0.0
 40
5.7009440104166673
  1
　また、同一商品でも若干の個体差があることがあります。ご了承ください。
 41
0.7
 11
-262.5
 21
-361.01492598958328
 31
0.0
 73
     3
1001
ACADANNOTATIVE
1000
AnnotativeData
1002
{
1070
     1
1070
     0
1002
}
  0
LINE
  5
258
  8
DATA
  6
CONTINUOUS
 62
     7
 10
-182.0
 20
-33.378108111381152
 30
0.0
 11
-182.0
 21
60.378108111381152
 31
0.0
  0
LINE
  5
259
  8
DATA
  6
CONTINUOUS
 62
     7
 10
-84.621891888618933
 20
-50.0
 30
0.0
 11
-165.3781081113811
 21
-50.0
 31
0.0
  0
LINE
  5
25A
  8
DATA
  6
CONTINUOUS
 62
     7
 10
-68.0
 20
13.5
 30
0.0
 11
-68.0
 21
-33.378108111381152
 31
0.0
  0
LINE
  5
25B
  8
DATA
  6
CONTINUOUS
 62
     7
 10
-165.3781081113811
 20
77.0
 30
0.0
 11
-84.621891888618933
 21
77.0
 31
0.0
  0
CIRCLE
  5
25C
  8
DATA
  6
CONTINUOUS
 62
     7
 10
-168.0
 20
63.0
 30
0.0
 40
5.0
  0
LINE
  5
25D
  8
DATA
  6
CONTINUOUS
 62
     7
 10
-169.56519471319851
 20
63.0
 30
0.0
 11
-166.43480528680149
 21
63.0
 31
0.0
  0
LINE
  5
25E
  8
DATA
  6
CONTINUOUS
 62
     7
 10
-168.0
 20
61.434805286801513
 30
0.0
 11
-168.0
 21
64.56519471319848
 31
0.0
  0
CIRCLE
  5
25F
  8
DATA
  6
CONTINUOUS
 62
     7
 10
-82.0
 20
63.0
 30
0.0
 40
5.0
  0
LINE
  5
260
  8
DATA
  6
CONTINUOUS
 62
     7
 10
-80.43480528680152
 20
63.0
 30
0.0
 11
-83.565194713198466
 21
63.0
 31
0.0
  0
LINE
  5
261
  8
DATA
  6
CONTINUOUS
 62
     7
 10
-82.0
 20
61.434805286801513
 30
0.0
 11
-82.0
 21
64.56519471319848
 31
0.0
  0
CIRCLE
  5
262
  8
DATA
  6
CONTINUOUS
 62
     7
 10
-168.0
 20
-36.0
 30
0.0
 40
5.0
  0
LINE
  5
263
  8
DATA
  6
CONTINUOUS
 62
     7
 10
-169.56519471319851
 20
-36.0
 30
0.0
 11
-166.43480528680149
 21
-36.0
 31
0.0
  0
LINE
  5
264
  8
DATA
  6
CONTINUOUS
 62
     7
 10
-168.0
 20
-34.43480528680152
 30
0.0
 11
-168.0
 21
-37.565194713198473
 31
0.0
  0
CIRCLE
  5
265
  8
DATA
  6
CONTINUOUS
 62
     7
 10
-82.0
 20
-36.0
 30
0.0
 40
5.0
  0
LINE
  5
266
  8
DATA
  6
CONTINUOUS
 62
     7
 10
-80.43480528680152
 20
-36.0
 30
0.0
 11
-83.565194713198466
 21
-36.0
 31
0.0
  0
LINE
  5
267
  8
DATA
  6
CONTINUOUS
 62
     7
 10
-82.0
 20
-34.43480528680152
 30
0.0
 11
-82.0
 21
-37.565194713198473
 31
0.0
  0
ARC
  5
268
  8
DATA
  6
CONTINUOUS
 62
     7
 10
-165.3781081113811
 20
67.000000000000128
 30
0.0
 40
9.9999999999998721
 50
90.0
 51
98.908571075422884
  0
ARC
  5
269
  8
DATA
  6
CONTINUOUS
 62
     7
 10
-164.14718681922011
 20
59.147186819220138
 30
0.0
 40
17.948700653548681
 50
98.908571075422813
 51
171.0914289245766
  0
ARC
  5
26A
  8
DATA
  6
CONTINUOUS
 62
     7
 10
-171.99999999999849
 20
60.378108111381152
 30
0.0
 40
10.000000000001391
 50
171.09142892457771
 51
180.0
  0
ARC
  5
26B
  8
DATA
  6
CONTINUOUS
 62
     7
 10
-84.621891888618933
 20
67.000000000000128
 30
0.0
 40
9.9999999999998863
 50
81.091428924577087
 51
90.0
  0
ARC
  5
26C
  8
DATA
  6
CONTINUOUS
 62
     7
 10
-85.852813180779876
 20
59.147186819220138
 30
0.0
 40
17.94870065354867
 50
8.9085710754234366
 51
81.091428924577215
  0
ARC
  5
26D
  8
DATA
  6
CONTINUOUS
 62
     7
 10
-78.000000000001393
 20
60.378108111381152
 30
0.0
 40
10.000000000001391
 50
0.0
 51
8.9085710754222305
  0
LINE
  5
26E
  8
DATA
  6
CONTINUOUS
 62
     7
 10
-68.0
 20
60.378108111381152
 30
0.0
 11
-68.0
 21
13.5
 31
0.0
  0
ARC
  5
26F
  8
DATA
  6
CONTINUOUS
 62
     7
 10
-165.3781081113811
 20
-40.000000000000099
 30
0.0
 40
9.9999999999998863
 50
261.09142892457709
 51
270.0
  0
ARC
  5
270
  8
DATA
  6
CONTINUOUS
 62
     7
 10
-164.14718681922011
 20
-32.147186819220131
 30
0.0
 40
17.94870065354867
 50
188.9085710754234
 51
261.0914289245772
  0
ARC
  5
271
  8
DATA
  6
CONTINUOUS
 62
     7
 10
-171.99999999999849
 20
-33.378108111381138
 30
0.0
 40
10.000000000001391
 50
180.0
 51
188.90857107542229
  0
ARC
  5
272
  8
DATA
  6
CONTINUOUS
 62
     7
 10
-84.621891888618933
 20
-40.000000000000099
 30
0.0
 40
9.9999999999998561
 50
270.0
 51
278.90857107542303
  0
ARC
  5
273
  8
DATA
  6
CONTINUOUS
 62
     7
 10
-85.852813180779876
 20
-32.147186819220131
 30
0.0
 40
17.948700653548681
 50
278.9085710754228
 51
351.09142892457658
  0
ARC
  5
274
  8
DATA
  6
CONTINUOUS
 62
     7
 10
-78.000000000001393
 20
-33.378108111381138
 30
0.0
 40
10.000000000001391
 50
351.09142892457771
 51
0.0
  0
LINE
  5
275
  8
DATA
  6
CONTINUOUS
 62
     7
 10
-145.0
 20
-50.0
 30
0.0
 11
-145.0
 21
-51.0
 31
0.0
  0
LINE
  5
276
  8
DATA
  6
CONTINUOUS
 62
     7
 10
-157.68905405569049
 20
-51.0
 30
0.0
 11
-157.68905405569049
 21
-50.0
 31
0.0
  0
LINE
  5
277
  8
DATA
  6
CONTINUOUS
 62
     7
 10
-132.68905405569049
 20
-51.0
 30
0.0
 11
-157.68905405569049
 21
-51.0
 31
0.0
  0
LINE
  5
278
  8
DATA
  6
CONTINUOUS
 62
     7
 10
-132.68905405569049
 20
-50.0
 30
0.0
 11
-132.68905405569049
 21
-51.0
 31
0.0
  0
LINE
  5
279
  8
DATA
  6
CONTINUOUS
 62
     7
 10
-156.18905405569049
 20
-55.182653674636697
 30
0.0
 11
-156.18905405569049
 21
-51.0
 31
0.0
  0
LINE
  5
27A
  8
DATA
  6
CONTINUOUS
 62
     7
 10
-134.18905405569049
 20
-51.0
 30
0.0
 11
-134.18905405569049
 21
-55.182653674636697
 31
0.0
  0
LINE
  5
27B
  8
DATA
  6
CONTINUOUS
 62
     7
 10
-158.49999999999989
 20
-57.0
 30
0.0
 11
-131.5
 21
-57.0
 31
0.0
  0
LINE
  5
27C
  8
DATA
  6
CONTINUOUS
 62
     7
 10
-158.5
 20
-56.999999999999972
 30
0.0
 11
-158.5
 21
-55.182653674636697
 31
0.0
  0
LINE
  5
27D
  8
DATA
  6
CONTINUOUS
 62
     7
 10
-131.5
 20
-55.182653674636697
 30
0.0
 11
-131.5
 21
-57.0
 31
0.0
  0
LINE
  5
27E
  8
DATA
  6
CONTINUOUS
 62
     7
 10
-158.5
 20
-55.182653674636697
 30
0.0
 11
-131.5
 21
-55.182653674636697
 31
0.0
  0
LINE
  5
27F
  8
DATA
  6
CONTINUOUS
 62
     7
 10
-157.0
 20
-67.0
 30
0.0
 11
-157.0
 21
-57.0
 31
0.0
  0
LINE
  5
280
  8
DATA
  6
CONTINUOUS
 62
     7
 10
-133.0
 20
-57.0
 30
0.0
 11
-133.0
 21
-67.0
 31
0.0
  0
LINE
  5
281
  8
DATA
  6
CONTINUOUS
 62
     7
 10
-145.75
 20
-67.0
 30
0.0
 11
-144.24999999999989
 21
-67.0
 31
0.0
  0
POLYLINE
  5
282
  8
DATA
  6
CONTINUOUS
 62
     7
 66
     1
 10
0.0
 20
0.0
 30
0.0
  0
VERTEX
  5
711
  8
DATA
  6
CONTINUOUS
 62
     7
 10
-145.75
 20
-67.000000000000014
 30
0.0
  0
VERTEX
  5
712
  8
DATA
  6
CONTINUOUS
 62
     7
 10
-145.75
 20
-57.0
 30
0.0
  0
VERTEX
  5
713
  8
DATA
  6
CONTINUOUS
 62
     7
 10
-144.25
 20
-57.0
 30
0.0
  0
VERTEX
  5
714
  8
DATA
  6
CONTINUOUS
 62
     7
 10
-144.25
 20
-67.0
 30
0.0
  0
SEQEND
  5
715
  8
DATA
  6
CONTINUOUS
 62
     7
  0
ARC
  5
289
  8
DATA
  6
CONTINUOUS
 62
     7
 10
-151.375
 20
-51.6796875
 30
0.0
 40
16.3203125
 50
249.83880402491539
 51
290.16119597508469
  0
ARC
  5
28A
  8
DATA
  6
CONTINUOUS
 62
     7
 10
-138.62499999999989
 20
-51.6796875
 30
0.0
 40
16.3203125
 50
249.83880402491539
 51
290.16119597508469
  0
LINE
  5
28B
  8
DATA
  6
CONTINUOUS
 62
     7
 10
-182.0
 20
-167.99999999999989
 30
0.0
 11
-182.0
 21
-162.99999999999989
 31
0.0
  0
LINE
  5
28C
  8
DATA
  6
CONTINUOUS
 62
     7
 10
-71.0
 20
-250.0
 30
0.0
 11
-179.0
 21
-250.0
 31
0.0
  0
LINE
  5
28D
  8
DATA
  6
CONTINUOUS
 62
     7
 10
-68.0
 20
-162.99999999999989
 30
0.0
 11
-68.0
 21
-167.99999999999989
 31
0.0
  0
LINE
  5
28E
  8
DATA
  6
CONTINUOUS
 62
     7
 10
-182.0
 20
-162.99999999999989
 30
0.0
 11
-68.0
 21
-162.99999999999989
 31
0.0
  0
LINE
  5
28F
  8
DATA
  6
CONTINUOUS
 62
     7
 10
-182.0
 20
-167.99999999999989
 30
0.0
 11
-68.0
 21
-167.99999999999989
 31
0.0
  0
LINE
  5
290
  8
DATA
  6
CONTINUOUS
 62
     7
 10
-179.0
 20
-250.0
 30
0.0
 11
-182.0
 21
-167.99999999999989
 31
0.0
  0
LINE
  5
291
  8
DATA
  6
CONTINUOUS
 62
     7
 10
-71.0
 20
-250.0
 30
0.0
 11
-68.0
 21
-167.99999999999989
 31
0.0
  0
ARC
  5
292
  8
DATA
  6
CONTINUOUS
 62
     7
 10
-145.0
 20
-65.357325956116284
 30
0.0
 40
11.6426740438837
 50
188.97900570972811
 51
351.02099429027191
  0
LINE
  5
293
  8
DATA
  6
CONTINUOUS
 62
     7
 10
-156.3387888590407
 20
-68.0
 30
0.0
 11
-133.66121114095921
 21
-68.0
 31
0.0
  0
LINE
  5
294
  8
DATA
  6
CONTINUOUS
 62
     7
 10
-156.18905405569049
 20
-55.182653674636697
 30
0.0
 11
-134.18905405569049
 21
-54.345543405598313
 31
0.0
  0
LINE
  5
295
  8
DATA
  6
CONTINUOUS
 62
     7
 10
-156.18905405569049
 20
-54.182653674636697
 30
0.0
 11
-134.18905405569049
 21
-53.345543405598313
 31
0.0
  0
LINE
  5
296
  8
DATA
  6
CONTINUOUS
 62
     7
 10
-156.18905405569049
 20
-53.182653674636697
 30
0.0
 11
-134.18905405569049
 21
-52.34554340559832
 31
0.0
  0
LINE
  5
297
  8
DATA
  6
CONTINUOUS
 62
     7
 10
-156.18905405569049
 20
-52.182653674636697
 30
0.0
 11
-134.18905405569049
 21
-51.345543405598313
 31
0.0
  0
LINE
  5
298
  8
DATA
  6
CONTINUOUS
 62
     7
 10
-147.25
 20
-57.0
 30
0.0
 11
-147.25
 21
-67.470095192572643
 31
0.0
  0
LINE
  5
299
  8
DATA
  6
CONTINUOUS
 62
     7
 10
-148.75
 20
-57.0
 30
0.0
 11
-148.75
 21
-67.787510912790992
 31
0.0
  0
LINE
  5
29A
  8
DATA
  6
CONTINUOUS
 62
     7
 10
-150.25
 20
-57.0
 30
0.0
 11
-150.25
 21
-68.0
 31
0.0
  0
LINE
  5
29B
  8
DATA
  6
CONTINUOUS
 62
     7
 10
-151.75
 20
-57.0
 30
0.0
 11
-151.75
 21
-68.0
 31
0.0
  0
LINE
  5
29C
  8
DATA
  6
CONTINUOUS
 62
     7
 10
-153.25
 20
-57.0
 30
0.0
 11
-153.25
 21
-67.891935188018365
 31
0.0
  0
LINE
  5
29D
  8
DATA
  6
CONTINUOUS
 62
     7
 10
-154.75
 20
-57.0
 30
0.0
 11
-154.75
 21
-67.647216272407348
 31
0.0
  0
LINE
  5
29E
  8
DATA
  6
CONTINUOUS
 62
     7
 10
-156.25
 20
-57.0
 30
0.0
 11
-156.25
 21
-67.254891354128461
 31
0.0
  0
LINE
  5
29F
  8
DATA
  6
CONTINUOUS
 62
     7
 10
-144.25
 20
-57.0
 30
0.0
 11
-144.25
 21
-67.0
 31
0.0
  0
LINE
  5
2A0
  8
DATA
  6
CONTINUOUS
 62
     7
 10
-142.75
 20
-57.0
 30
0.0
 11
-142.75
 21
-67.470095192572614
 31
0.0
  0
LINE
  5
2A1
  8
DATA
  6
CONTINUOUS
 62
     7
 10
-141.25
 20
-57.0
 30
0.0
 11
-141.25
 21
-67.787510912790935
 31
0.0
  0
LINE
  5
2A2
  8
DATA
  6
CONTINUOUS
 62
     7
 10
-139.75
 20
-57.0
 30
0.0
 11
-139.75
 21
-67.961179295829282
 31
0.0
  0
LINE
  5
2A3
  8
DATA
  6
CONTINUOUS
 62
     7
 10
-138.25
 20
-57.0
 30
0.0
 11
-138.25
 21
-67.995691149719391
 31
0.0
  0
LINE
  5
2A4
  8
DATA
  6
CONTINUOUS
 62
     7
 10
-136.75
 20
-57.0
 30
0.0
 11
-136.75
 21
-67.891935188018365
 31
0.0
  0
LINE
  5
2A5
  8
DATA
  6
CONTINUOUS
 62
     7
 10
-135.25
 20
-57.0
 30
0.0
 11
-135.25
 21
-67.647216272407348
 31
0.0
  0
LINE
  5
2A6
  8
DATA
  6
CONTINUOUS
 62
     7
 10
-133.75
 20
-57.0
 30
0.0
 11
-133.75
 21
-67.254891354128461
 31
0.0
  0
LINE
  5
2A7
  8
DATA
  6
CONTINUOUS
 62
     7
 10
-105.59999999999999
 20
-50.0
 30
0.0
 11
-105.59999999999999
 21
-51.0
 31
0.0
  0
LINE
  5
2A8
  8
DATA
  6
CONTINUOUS
 62
     7
 10
-118.2890540556905
 20
-51.0
 30
0.0
 11
-118.2890540556905
 21
-50.0
 31
0.0
  0
LINE
  5
2A9
  8
DATA
  6
CONTINUOUS
 62
     7
 10
-93.289054055690556
 20
-51.0
 30
0.0
 11
-118.2890540556905
 21
-51.0
 31
0.0
  0
LINE
  5
2AA
  8
DATA
  6
CONTINUOUS
 62
     7
 10
-93.289054055690556
 20
-50.0
 30
0.0
 11
-93.289054055690556
 21
-51.0
 31
0.0
  0
LINE
  5
2AB
  8
DATA
  6
CONTINUOUS
 62
     7
 10
-116.7890540556905
 20
-55.182653674636697
 30
0.0
 11
-116.7890540556905
 21
-51.0
 31
0.0
  0
LINE
  5
2AC
  8
DATA
  6
CONTINUOUS
 62
     7
 10
-94.789054055690556
 20
-51.0
 30
0.0
 11
-94.789054055690556
 21
-55.182653674636697
 31
0.0
  0
LINE
  5
2AD
  8
DATA
  6
CONTINUOUS
 62
     7
 10
-119.09999999999989
 20
-57.0
 30
0.0
 11
-92.099999999999994
 21
-57.0
 31
0.0
  0
LINE
  5
2AE
  8
DATA
  6
CONTINUOUS
 62
     7
 10
-119.09999999999999
 20
-56.999999999999972
 30
0.0
 11
-119.09999999999999
 21
-55.182653674636697
 31
0.0
  0
LINE
  5
2AF
  8
DATA
  6
CONTINUOUS
 62
     7
 10
-92.099999999999994
 20
-55.182653674636697
 30
0.0
 11
-92.099999999999994
 21
-57.0
 31
0.0
  0
LINE
  5
2B0
  8
DATA
  6
CONTINUOUS
 62
     7
 10
-119.09999999999999
 20
-55.182653674636697
 30
0.0
 11
-92.099999999999994
 21
-55.182653674636697
 31
0.0
  0
LINE
  5
2B1
  8
DATA
  6
CONTINUOUS
 62
     7
 10
-117.59999999999989
 20
-67.0
 30
0.0
 11
-117.59999999999989
 21
-57.0
 31
0.0
  0
LINE
  5
2B2
  8
DATA
  6
CONTINUOUS
 62
     7
 10
-93.599999999999966
 20
-57.0
 30
0.0
 11
-93.599999999999966
 21
-67.0
 31
0.0
  0
LINE
  5
2B3
  8
DATA
  6
CONTINUOUS
 62
     7
 10
-106.34999999999999
 20
-67.0
 30
0.0
 11
-104.84999999999989
 21
-67.0
 31
0.0
  0
POLYLINE
  5
2B4
  8
DATA
  6
CONTINUOUS
 62
     7
 66
     1
 10
0.0
 20
0.0
 30
0.0
  0
VERTEX
  5
716
  8
DATA
  6
CONTINUOUS
 62
     7
 10
-106.34999999999999
 20
-67.000000000000014
 30
0.0
  0
VERTEX
  5
717
  8
DATA
  6
CONTINUOUS
 62
     7
 10
-106.34999999999999
 20
-57.0
 30
0.0
  0
VERTEX
  5
718
  8
DATA
  6
CONTINUOUS
 62
     7
 10
-104.84999999999999
 20
-57.0
 30
0.0
  0
VERTEX
  5
719
  8
DATA
  6
CONTINUOUS
 62
     7
 10
-104.84999999999999
 20
-67.0
 30
0.0
  0
SEQEND
  5
71A
  8
DATA
  6
CONTINUOUS
 62
     7
  0
ARC
  5
2BB
  8
DATA
  6
CONTINUOUS
 62
     7
 10
-111.97499999999999
 20
-51.6796875
 30
0.0
 40
16.3203125
 50
249.83880402491539
 51
290.16119597508469
  0
ARC
  5
2BC
  8
DATA
  6
CONTINUOUS
 62
     7
 10
-99.224999999999923
 20
-51.6796875
 30
0.0
 40
16.3203125
 50
249.83880402491539
 51
290.16119597508469
  0
ARC
  5
2BD
  8
DATA
  6
CONTINUOUS
 62
     7
 10
-105.59999999999999
 20
-65.357325956116284
 30
0.0
 40
11.6426740438837
 50
188.97900570972811
 51
351.02099429027191
  0
LINE
  5
2BE
  8
DATA
  6
CONTINUOUS
 62
     7
 10
-116.9387888590407
 20
-68.0
 30
0.0
 11
-94.261211140959247
 21
-68.0
 31
0.0
  0
LINE
  5
2BF
  8
DATA
  6
CONTINUOUS
 62
     7
 10
-116.7890540556905
 20
-55.182653674636697
 30
0.0
 11
-94.789054055690556
 21
-54.345543405598313
 31
0.0
  0
LINE
  5
2C0
  8
DATA
  6
CONTINUOUS
 62
     7
 10
-116.7890540556905
 20
-54.182653674636697
 30
0.0
 11
-94.789054055690556
 21
-53.345543405598313
 31
0.0
  0
LINE
  5
2C1
  8
DATA
  6
CONTINUOUS
 62
     7
 10
-116.7890540556905
 20
-53.182653674636697
 30
0.0
 11
-94.789054055690556
 21
-52.34554340559832
 31
0.0
  0
LINE
  5
2C2
  8
DATA
  6
CONTINUOUS
 62
     7
 10
-116.7890540556905
 20
-52.182653674636697
 30
0.0
 11
-94.789054055690556
 21
-51.345543405598313
 31
0.0
  0
LINE
  5
2C3
  8
DATA
  6
CONTINUOUS
 62
     7
 10
-107.84999999999999
 20
-57.0
 30
0.0
 11
-107.84999999999999
 21
-67.470095192572643
 31
0.0
  0
LINE
  5
2C4
  8
DATA
  6
CONTINUOUS
 62
     7
 10
-109.34999999999999
 20
-57.0
 30
0.0
 11
-109.34999999999999
 21
-67.787510912790992
 31
0.0
  0
LINE
  5
2C5
  8
DATA
  6
CONTINUOUS
 62
     7
 10
-110.84999999999999
 20
-57.0
 30
0.0
 11
-110.84999999999999
 21
-68.0
 31
0.0
  0
LINE
  5
2C6
  8
DATA
  6
CONTINUOUS
 62
     7
 10
-112.34999999999999
 20
-57.0
 30
0.0
 11
-112.34999999999999
 21
-68.0
 31
0.0
  0
LINE
  5
2C7
  8
DATA
  6
CONTINUOUS
 62
     7
 10
-113.84999999999999
 20
-57.0
 30
0.0
 11
-113.84999999999999
 21
-67.891935188018365
 31
0.0
  0
LINE
  5
2C8
  8
DATA
  6
CONTINUOUS
 62
     7
 10
-115.34999999999999
 20
-57.0
 30
0.0
 11
-115.34999999999999
 21
-67.647216272407348
 31
0.0
  0
LINE
  5
2C9
  8
DATA
  6
CONTINUOUS
 62
     7
 10
-116.84999999999999
 20
-57.0
 30
0.0
 11
-116.84999999999999
 21
-67.254891354128461
 31
0.0
  0
LINE
  5
2CA
  8
DATA
  6
CONTINUOUS
 62
     7
 10
-104.84999999999999
 20
-57.0
 30
0.0
 11
-104.84999999999999
 21
-67.0
 31
0.0
  0
LINE
  5
2CB
  8
DATA
  6
CONTINUOUS
 62
     7
 10
-103.34999999999999
 20
-57.0
 30
0.0
 11
-103.34999999999999
 21
-67.470095192572614
 31
0.0
  0
LINE
  5
2CC
  8
DATA
  6
CONTINUOUS
 62
     7
 10
-101.84999999999999
 20
-57.0
 30
0.0
 11
-101.84999999999999
 21
-67.787510912790935
 31
0.0
  0
LINE
  5
2CD
  8
DATA
  6
CONTINUOUS
 62
     7
 10
-100.34999999999999
 20
-57.0
 30
0.0
 11
-100.34999999999999
 21
-67.961179295829282
 31
0.0
  0
LINE
  5
2CE
  8
DATA
  6
CONTINUOUS
 62
     7
 10
-98.849999999999994
 20
-57.0
 30
0.0
 11
-98.849999999999994
 21
-67.995691149719391
 31
0.0
  0
LINE
  5
2CF
  8
DATA
  6
CONTINUOUS
 62
     7
 10
-97.349999999999994
 20
-57.0
 30
0.0
 11
-97.349999999999994
 21
-67.891935188018365
 31
0.0
  0
LINE
  5
2D0
  8
DATA
  6
CONTINUOUS
 62
     7
 10
-95.849999999999994
 20
-57.0
 30
0.0
 11
-95.849999999999994
 21
-67.647216272407348
 31
0.0
  0
LINE
  5
2D1
  8
DATA
  6
CONTINUOUS
 62
     7
 10
-94.349999999999994
 20
-57.0
 30
0.0
 11
-94.349999999999994
 21
-67.254891354128461
 31
0.0
  0
CIRCLE
  5
2D2
  8
DATA
  6
CONTINUOUS
 62
     7
 10
-145.0
 20
-221.0
 30
0.0
 40
13.5
  0
CIRCLE
  5
2D3
  8
DATA
  6
CONTINUOUS
 62
     7
 10
-145.0
 20
-221.0
 30
0.0
 40
12.0
  0
POLYLINE
  5
2D4
  8
DATA
  6
CONTINUOUS
 62
     7
 66
     1
 10
0.0
 20
0.0
 30
0.0
 70
     1
  0
VERTEX
  5
71B
  8
DATA
  6
CONTINUOUS
 62
     7
 10
-145.0
 20
-209.0
 30
0.0
  0
VERTEX
  5
71C
  8
DATA
  6
CONTINUOUS
 62
     7
 10
-155.39230484541321
 20
-215.0
 30
0.0
  0
VERTEX
  5
71D
  8
DATA
  6
CONTINUOUS
 62
     7
 10
-155.39230484541321
 20
-227.0
 30
0.0
  0
VERTEX
  5
71E
  8
DATA
  6
CONTINUOUS
 62
     7
 10
-145.0
 20
-233.0
 30
0.0
  0
VERTEX
  5
71F
  8
DATA
  6
CONTINUOUS
 62
     7
 10
-134.60769515458671
 20
-227.0
 30
0.0
  0
VERTEX
  5
720
  8
DATA
  6
CONTINUOUS
 62
     7
 10
-134.60769515458671
 20
-215.0
 30
0.0
  0
SEQEND
  5
721
  8
DATA
  6
CONTINUOUS
 62
     7
  0
CIRCLE
  5
2DD
  8
DATA
  6
CONTINUOUS
 62
     7
 10
-145.0
 20
-221.0
 30
0.0
 40
10.260000000000019
  0
CIRCLE
  5
2DE
  8
DATA
  6
CONTINUOUS
 62
     7
 10
-145.0
 20
-221.0
 30
0.0
 40
6.5
  0
CIRCLE
  5
2DF
  8
DATA
  6
CONTINUOUS
 62
     7
 10
-145.0
 20
-221.0
 30
0.0
 40
4.5
  0
CIRCLE
  5
2E0
  8
DATA
  6
CONTINUOUS
 62
     7
 10
-105.0
 20
-221.0
 30
0.0
 40
13.5
  0
CIRCLE
  5
2E1
  8
DATA
  6
CONTINUOUS
 62
     7
 10
-105.0
 20
-221.0
 30
0.0
 40
12.0
  0
POLYLINE
  5
2E2
  8
DATA
  6
CONTINUOUS
 62
     7
 66
     1
 10
0.0
 20
0.0
 30
0.0
 70
     1
  0
VERTEX
  5
722
  8
DATA
  6
CONTINUOUS
 62
     7
 10
-105.0
 20
-209.0
 30
0.0
  0
VERTEX
  5
723
  8
DATA
  6
CONTINUOUS
 62
     7
 10
-115.39230484541319
 20
-215.0
 30
0.0
  0
VERTEX
  5
724
  8
DATA
  6
CONTINUOUS
 62
     7
 10
-115.39230484541319
 20
-227.0
 30
0.0
  0
VERTEX
  5
725
  8
DATA
  6
CONTINUOUS
 62
     7
 10
-105.0
 20
-233.0
 30
0.0
  0
VERTEX
  5
726
  8
DATA
  6
CONTINUOUS
 62
     7
 10
-94.607695154586722
 20
-227.0
 30
0.0
  0
VERTEX
  5
727
  8
DATA
  6
CONTINUOUS
 62
     7
 10
-94.607695154586722
 20
-215.0
 30
0.0
  0
SEQEND
  5
728
  8
DATA
  6
CONTINUOUS
 62
     7
  0
CIRCLE
  5
2EB
  8
DATA
  6
CONTINUOUS
 62
     7
 10
-105.0
 20
-221.0
 30
0.0
 40
10.260000000000019
  0
CIRCLE
  5
2EC
  8
DATA
  6
CONTINUOUS
 62
     7
 10
-105.0
 20
-221.0
 30
0.0
 40
6.5
  0
CIRCLE
  5
2ED
  8
DATA
  6
CONTINUOUS
 62
     7
 10
-105.0
 20
-221.0
 30
0.0
 40
4.5
  0
LINE
  5
2EE
  8
DATA
  6
CONTINUOUS
 62
     7
 10
-182.0
 20
104.9999999999999
 30
0.0
 11
-182.0
 21
99.999999999999915
 31
0.0
  0
LINE
  5
2EF
  8
DATA
  6
CONTINUOUS
 62
     7
 10
-71.0
 20
186.99999999999989
 30
0.0
 11
-179.0
 21
186.99999999999989
 31
0.0
  0
LINE
  5
2F0
  8
DATA
  6
CONTINUOUS
 62
     7
 10
-68.0
 20
99.999999999999915
 30
0.0
 11
-68.0
 21
104.9999999999999
 31
0.0
  0
LINE
  5
2F1
  8
DATA
  6
CONTINUOUS
 62
     7
 10
-182.0
 20
99.999999999999915
 30
0.0
 11
-68.0
 21
99.999999999999915
 31
0.0
  0
LINE
  5
2F2
  8
DATA
  6
CONTINUOUS
 62
     7
 10
-182.0
 20
104.9999999999999
 30
0.0
 11
-68.0
 21
104.9999999999999
 31
0.0
  0
LINE
  5
2F3
  8
DATA
  6
CONTINUOUS
 62
     7
 10
-179.0
 20
186.99999999999989
 30
0.0
 11
-182.0
 21
104.9999999999999
 31
0.0
  0
LINE
  5
2F4
  8
DATA
  6
CONTINUOUS
 62
     7
 10
-71.0
 20
186.99999999999989
 30
0.0
 11
-68.0
 21
104.9999999999999
 31
0.0
  0
LINE
  5
2F5
  8
DATA
  6
CONTINUOUS
 62
     7
 10
-25.0
 20
-50.0
 30
0.0
 11
-25.0
 21
76.932084146899456
 31
0.0
  0
LINE
  5
2F6
  8
DATA
  6
CONTINUOUS
 62
     7
 10
62.0
 20
-47.033957926550293
 30
0.0
 11
62.0
 21
73.966042073449742
 31
0.0
  0
LINE
  5
2F7
  8
DATA
  6
CONTINUOUS
 62
     7
 10
-25.000000000000011
 20
76.93208414689947
 30
0.0
 11
-20.0
 21
76.93208414689947
 31
0.0
  0
LINE
  5
2F8
  8
DATA
  6
CONTINUOUS
 62
     7
 10
-25.0
 20
-49.999999999999972
 30
0.0
 11
-19.999999999999591
 21
-49.999999999999972
 31
0.0
  0
LINE
  5
2F9
  8
DATA
  6
CONTINUOUS
 62
     7
 10
-20.0
 20
-50.0
 30
0.0
 11
-20.0
 21
76.932084146899456
 31
0.0
  0
LINE
  5
2FA
  8
DATA
  6
CONTINUOUS
 62
     7
 10
62.0
 20
73.966042073449742
 30
0.0
 11
-20.0
 21
76.932084146899456
 31
0.0
  0
LINE
  5
2FB
  8
DATA
  6
CONTINUOUS
 62
     7
 10
62.0
 20
-47.033957926550272
 30
0.0
 11
-20.0
 21
-50.0
 31
0.0
  0
LINE
  5
2FC
  8
DATA
  6
CONTINUOUS
 62
     7
 10
220.0
 20
-47.033957926550293
 30
0.0
 11
220.0
 21
-51.008452738924682
 31
0.0
  0
LINE
  5
2FD
  8
DATA
  6
CONTINUOUS
 62
     7
 10
232.6890540556906
 20
-51.008452738924682
 30
0.0
 11
232.6890540556906
 21
-47.033957926550272
 31
0.0
  0
LINE
  5
2FE
  8
DATA
  6
CONTINUOUS
 62
     7
 10
207.6890540556906
 20
-51.008452738924682
 30
0.0
 11
232.6890540556906
 21
-51.008452738924682
 31
0.0
  0
LINE
  5
2FF
  8
DATA
  6
CONTINUOUS
 62
     7
 10
207.6890540556906
 20
-47.033957926550272
 30
0.0
 11
207.6890540556906
 21
-51.008452738924682
 31
0.0
  0
LINE
  5
300
  8
DATA
  6
CONTINUOUS
 62
     7
 10
231.1890540556906
 20
-55.182653674636697
 30
0.0
 11
231.1890540556906
 21
-51.008452738924703
 31
0.0
  0
LINE
  5
301
  8
DATA
  6
CONTINUOUS
 62
     7
 10
209.1890540556906
 20
-51.008452738924703
 30
0.0
 11
209.1890540556906
 21
-55.182653674636697
 31
0.0
  0
LINE
  5
302
  8
DATA
  6
CONTINUOUS
 62
     7
 10
233.5
 20
-57.0
 30
0.0
 11
206.5
 21
-57.0
 31
0.0
  0
LINE
  5
303
  8
DATA
  6
CONTINUOUS
 62
     7
 10
233.5
 20
-56.999999999999972
 30
0.0
 11
233.5
 21
-55.182653674636697
 31
0.0
  0
LINE
  5
304
  8
DATA
  6
CONTINUOUS
 62
     7
 10
206.5
 20
-55.182653674636697
 30
0.0
 11
206.5
 21
-57.0
 31
0.0
  0
LINE
  5
305
  8
DATA
  6
CONTINUOUS
 62
     7
 10
233.5
 20
-55.182653674636697
 30
0.0
 11
206.5
 21
-55.182653674636697
 31
0.0
  0
LINE
  5
306
  8
DATA
  6
CONTINUOUS
 62
     7
 10
232.0
 20
-67.0
 30
0.0
 11
232.0
 21
-57.0
 31
0.0
  0
LINE
  5
307
  8
DATA
  6
CONTINUOUS
 62
     7
 10
208.0
 20
-57.0
 30
0.0
 11
208.0
 21
-67.0
 31
0.0
  0
LINE
  5
308
  8
DATA
  6
CONTINUOUS
 62
     7
 10
220.75
 20
-67.0
 30
0.0
 11
219.25
 21
-67.0
 31
0.0
  0
POLYLINE
  5
309
  8
DATA
  6
CONTINUOUS
 62
     7
 66
     1
 10
0.0
 20
0.0
 30
0.0
  0
VERTEX
  5
729
  8
DATA
  6
CONTINUOUS
 62
     7
 10
220.75
 20
-67.000000000000014
 30
0.0
  0
VERTEX
  5
72A
  8
DATA
  6
CONTINUOUS
 62
     7
 10
220.75
 20
-57.0
 30
0.0
  0
VERTEX
  5
72B
  8
DATA
  6
CONTINUOUS
 62
     7
 10
219.25
 20
-57.0
 30
0.0
  0
VERTEX
  5
72C
  8
DATA
  6
CONTINUOUS
 62
     7
 10
219.25
 20
-67.0
 30
0.0
  0
SEQEND
  5
72D
  8
DATA
  6
CONTINUOUS
 62
     7
  0
ARC
  5
310
  8
DATA
  6
CONTINUOUS
 62
     7
 10
226.375
 20
-51.6796875
 30
0.0
 40
16.3203125
 50
249.83880402491539
 51
290.16119597508469
  0
ARC
  5
311
  8
DATA
  6
CONTINUOUS
 62
     7
 10
213.625
 20
-51.6796875
 30
0.0
 40
16.3203125
 50
249.83880402491539
 51
290.16119597508469
  0
ARC
  5
312
  8
DATA
  6
CONTINUOUS
 62
     7
 10
220.0
 20
-65.357325956116284
 30
0.0
 40
11.6426740438837
 50
188.97900570972811
 51
351.02099429027191
  0
LINE
  5
313
  8
DATA
  6
CONTINUOUS
 62
     7
 10
231.33878885904079
 20
-68.0
 30
0.0
 11
208.6612111409593
 21
-68.0
 31
0.0
  0
LINE
  5
314
  8
DATA
  6
CONTINUOUS
 62
     7
 10
231.1890540556906
 20
-55.182653674636697
 30
0.0
 11
209.1890540556906
 21
-54.345543405598313
 31
0.0
  0
LINE
  5
315
  8
DATA
  6
CONTINUOUS
 62
     7
 10
231.1890540556906
 20
-54.182653674636697
 30
0.0
 11
209.1890540556906
 21
-53.345543405598313
 31
0.0
  0
LINE
  5
316
  8
DATA
  6
CONTINUOUS
 62
     7
 10
231.1890540556906
 20
-53.182653674636697
 30
0.0
 11
209.1890540556906
 21
-52.34554340559832
 31
0.0
  0
LINE
  5
317
  8
DATA
  6
CONTINUOUS
 62
     7
 10
231.1890540556906
 20
-52.182653674636697
 30
0.0
 11
209.1890540556906
 21
-51.345543405598313
 31
0.0
  0
LINE
  5
318
  8
DATA
  6
CONTINUOUS
 62
     7
 10
222.25
 20
-57.0
 30
0.0
 11
222.25
 21
-67.470095192572643
 31
0.0
  0
LINE
  5
319
  8
DATA
  6
CONTINUOUS
 62
     7
 10
223.75
 20
-57.0
 30
0.0
 11
223.75
 21
-67.787510912790992
 31
0.0
  0
LINE
  5
31A
  8
DATA
  6
CONTINUOUS
 62
     7
 10
225.25
 20
-57.0
 30
0.0
 11
225.25
 21
-68.0
 31
0.0
  0
LINE
  5
31B
  8
DATA
  6
CONTINUOUS
 62
     7
 10
226.75
 20
-57.0
 30
0.0
 11
226.75
 21
-68.0
 31
0.0
  0
LINE
  5
31C
  8
DATA
  6
CONTINUOUS
 62
     7
 10
228.25
 20
-57.0
 30
0.0
 11
228.25
 21
-67.891935188018365
 31
0.0
  0
LINE
  5
31D
  8
DATA
  6
CONTINUOUS
 62
     7
 10
229.75
 20
-57.0
 30
0.0
 11
229.75
 21
-67.647216272407348
 31
0.0
  0
LINE
  5
31E
  8
DATA
  6
CONTINUOUS
 62
     7
 10
231.25
 20
-57.0
 30
0.0
 11
231.25
 21
-67.254891354128461
 31
0.0
  0
LINE
  5
31F
  8
DATA
  6
CONTINUOUS
 62
     7
 10
219.25
 20
-57.0
 30
0.0
 11
219.25
 21
-67.0
 31
0.0
  0
LINE
  5
320
  8
DATA
  6
CONTINUOUS
 62
     7
 10
217.75
 20
-57.0
 30
0.0
 11
217.75
 21
-67.470095192572614
 31
0.0
  0
LINE
  5
321
  8
DATA
  6
CONTINUOUS
 62
     7
 10
216.25
 20
-57.0
 30
0.0
 11
216.25
 21
-67.787510912790935
 31
0.0
  0
LINE
  5
322
  8
DATA
  6
CONTINUOUS
 62
     7
 10
214.75
 20
-57.0
 30
0.0
 11
214.75
 21
-67.961179295829282
 31
0.0
  0
LINE
  5
323
  8
DATA
  6
CONTINUOUS
 62
     7
 10
213.25
 20
-57.0
 30
0.0
 11
213.25
 21
-67.995691149719391
 31
0.0
  0
LINE
  5
324
  8
DATA
  6
CONTINUOUS
 62
     7
 10
211.75
 20
-57.0
 30
0.0
 11
211.75
 21
-67.891935188018365
 31
0.0
  0
LINE
  5
325
  8
DATA
  6
CONTINUOUS
 62
     7
 10
210.25
 20
-57.0
 30
0.0
 11
210.25
 21
-67.647216272407348
 31
0.0
  0
LINE
  5
326
  8
DATA
  6
CONTINUOUS
 62
     7
 10
208.75
 20
-57.0
 30
0.0
 11
208.75
 21
-67.254891354128461
 31
0.0
  0
LINE
  5
327
  8
DATA
  6
CONTINUOUS
 62
     7
 10
180.59999999999999
 20
-47.033957926550272
 30
0.0
 11
180.59999999999999
 21
-51.008452738924682
 31
0.0
  0
LINE
  5
328
  8
DATA
  6
CONTINUOUS
 62
     7
 10
193.28905405569051
 20
-51.008452738924682
 30
0.0
 11
193.28905405569051
 21
-47.033957926550272
 31
0.0
  0
LINE
  5
329
  8
DATA
  6
CONTINUOUS
 62
     7
 10
168.28905405569051
 20
-51.008452738924682
 30
0.0
 11
193.28905405569051
 21
-51.008452738924682
 31
0.0
  0
LINE
  5
32A
  8
DATA
  6
CONTINUOUS
 62
     7
 10
168.28905405569051
 20
-47.033957926550272
 30
0.0
 11
168.28905405569051
 21
-51.008452738924682
 31
0.0
  0
LINE
  5
32B
  8
DATA
  6
CONTINUOUS
 62
     7
 10
191.78905405569051
 20
-55.182653674636697
 30
0.0
 11
191.78905405569051
 21
-51.008452738924703
 31
0.0
  0
LINE
  5
32C
  8
DATA
  6
CONTINUOUS
 62
     7
 10
169.78905405569051
 20
-51.000000000000021
 30
0.0
 11
169.78905405569051
 21
-55.182653674636697
 31
0.0
  0
LINE
  5
32D
  8
DATA
  6
CONTINUOUS
 62
     7
 10
194.09999999999999
 20
-57.0
 30
0.0
 11
167.09999999999999
 21
-57.0
 31
0.0
  0
LINE
  5
32E
  8
DATA
  6
CONTINUOUS
 62
     7
 10
194.09999999999999
 20
-56.999999999999972
 30
0.0
 11
194.09999999999999
 21
-55.182653674636697
 31
0.0
  0
LINE
  5
32F
  8
DATA
  6
CONTINUOUS
 62
     7
 10
167.09999999999999
 20
-55.182653674636697
 30
0.0
 11
167.09999999999999
 21
-57.0
 31
0.0
  0
LINE
  5
330
  8
DATA
  6
CONTINUOUS
 62
     7
 10
194.09999999999999
 20
-55.182653674636697
 30
0.0
 11
167.09999999999999
 21
-55.182653674636697
 31
0.0
  0
LINE
  5
331
  8
DATA
  6
CONTINUOUS
 62
     7
 10
192.59999999999999
 20
-67.0
 30
0.0
 11
192.59999999999999
 21
-57.0
 31
0.0
  0
LINE
  5
332
  8
DATA
  6
CONTINUOUS
 62
     7
 10
168.59999999999999
 20
-57.0
 30
0.0
 11
168.59999999999999
 21
-67.0
 31
0.0
  0
LINE
  5
333
  8
DATA
  6
CONTINUOUS
 62
     7
 10
181.34999999999999
 20
-67.0
 30
0.0
 11
179.84999999999991
 21
-67.0
 31
0.0
  0
POLYLINE
  5
334
  8
DATA
  6
CONTINUOUS
 62
     7
 66
     1
 10
0.0
 20
0.0
 30
0.0
  0
VERTEX
  5
72E
  8
DATA
  6
CONTINUOUS
 62
     7
 10
181.34999999999999
 20
-67.000000000000014
 30
0.0
  0
VERTEX
  5
72F
  8
DATA
  6
CONTINUOUS
 62
     7
 10
181.34999999999999
 20
-57.0
 30
0.0
  0
VERTEX
  5
730
  8
DATA
  6
CONTINUOUS
 62
     7
 10
179.84999999999999
 20
-57.0
 30
0.0
  0
VERTEX
  5
731
  8
DATA
  6
CONTINUOUS
 62
     7
 10
179.84999999999999
 20
-67.0
 30
0.0
  0
SEQEND
  5
732
  8
DATA
  6
CONTINUOUS
 62
     7
  0
ARC
  5
33B
  8
DATA
  6
CONTINUOUS
 62
     7
 10
186.97499999999999
 20
-51.6796875
 30
0.0
 40
16.3203125
 50
249.83880402491539
 51
290.16119597508469
  0
ARC
  5
33C
  8
DATA
  6
CONTINUOUS
 62
     7
 10
174.22499999999991
 20
-51.6796875
 30
0.0
 40
16.3203125
 50
249.83880402491539
 51
290.16119597508469
  0
ARC
  5
33D
  8
DATA
  6
CONTINUOUS
 62
     7
 10
180.59999999999999
 20
-65.357325956116284
 30
0.0
 40
11.6426740438837
 50
188.97900570972811
 51
351.02099429027191
  0
LINE
  5
33E
  8
DATA
  6
CONTINUOUS
 62
     7
 10
191.93878885904081
 20
-68.0
 30
0.0
 11
169.2612111409592
 21
-68.0
 31
0.0
  0
LINE
  5
33F
  8
DATA
  6
CONTINUOUS
 62
     7
 10
191.78905405569051
 20
-55.182653674636697
 30
0.0
 11
169.78905405569051
 21
-54.345543405598313
 31
0.0
  0
LINE
  5
340
  8
DATA
  6
CONTINUOUS
 62
     7
 10
191.78905405569051
 20
-54.182653674636697
 30
0.0
 11
169.78905405569051
 21
-53.345543405598313
 31
0.0
  0
LINE
  5
341
  8
DATA
  6
CONTINUOUS
 62
     7
 10
191.78905405569051
 20
-53.182653674636697
 30
0.0
 11
169.78905405569051
 21
-52.34554340559832
 31
0.0
  0
LINE
  5
342
  8
DATA
  6
CONTINUOUS
 62
     7
 10
191.78905405569051
 20
-52.182653674636697
 30
0.0
 11
169.78905405569051
 21
-51.345543405598313
 31
0.0
  0
LINE
  5
343
  8
DATA
  6
CONTINUOUS
 62
     7
 10
182.84999999999999
 20
-57.0
 30
0.0
 11
182.84999999999999
 21
-67.470095192572643
 31
0.0
  0
LINE
  5
344
  8
DATA
  6
CONTINUOUS
 62
     7
 10
184.34999999999999
 20
-57.0
 30
0.0
 11
184.34999999999999
 21
-67.787510912790992
 31
0.0
  0
LINE
  5
345
  8
DATA
  6
CONTINUOUS
 62
     7
 10
185.84999999999999
 20
-57.0
 30
0.0
 11
185.84999999999999
 21
-68.0
 31
0.0
  0
LINE
  5
346
  8
DATA
  6
CONTINUOUS
 62
     7
 10
187.34999999999999
 20
-57.0
 30
0.0
 11
187.34999999999999
 21
-68.0
 31
0.0
  0
LINE
  5
347
  8
DATA
  6
CONTINUOUS
 62
     7
 10
188.84999999999999
 20
-57.0
 30
0.0
 11
188.84999999999999
 21
-67.891935188018365
 31
0.0
  0
LINE
  5
348
  8
DATA
  6
CONTINUOUS
 62
     7
 10
190.34999999999999
 20
-57.0
 30
0.0
 11
190.34999999999999
 21
-67.647216272407348
 31
0.0
  0
LINE
  5
349
  8
DATA
  6
CONTINUOUS
 62
     7
 10
191.84999999999999
 20
-57.0
 30
0.0
 11
191.84999999999999
 21
-67.254891354128461
 31
0.0
  0
LINE
  5
34A
  8
DATA
  6
CONTINUOUS
 62
     7
 10
179.84999999999999
 20
-57.0
 30
0.0
 11
179.84999999999999
 21
-67.0
 31
0.0
  0
LINE
  5
34B
  8
DATA
  6
CONTINUOUS
 62
     7
 10
178.34999999999999
 20
-57.0
 30
0.0
 11
178.34999999999999
 21
-67.470095192572614
 31
0.0
  0
LINE
  5
34C
  8
DATA
  6
CONTINUOUS
 62
     7
 10
176.84999999999999
 20
-57.0
 30
0.0
 11
176.84999999999999
 21
-67.787510912790935
 31
0.0
  0
LINE
  5
34D
  8
DATA
  6
CONTINUOUS
 62
     7
 10
175.34999999999999
 20
-57.0
 30
0.0
 11
175.34999999999999
 21
-67.961179295829282
 31
0.0
  0
LINE
  5
34E
  8
DATA
  6
CONTINUOUS
 62
     7
 10
173.84999999999999
 20
-57.0
 30
0.0
 11
173.84999999999999
 21
-67.995691149719391
 31
0.0
  0
LINE
  5
34F
  8
DATA
  6
CONTINUOUS
 62
     7
 10
172.34999999999999
 20
-57.0
 30
0.0
 11
172.34999999999999
 21
-67.891935188018365
 31
0.0
  0
LINE
  5
350
  8
DATA
  6
CONTINUOUS
 62
     7
 10
170.84999999999999
 20
-57.0
 30
0.0
 11
170.84999999999999
 21
-67.647216272407348
 31
0.0
  0
LINE
  5
351
  8
DATA
  6
CONTINUOUS
 62
     7
 10
169.34999999999999
 20
-57.0
 30
0.0
 11
169.34999999999999
 21
-67.254891354128461
 31
0.0
  0
LINE
  5
352
  8
DATA
  6
CONTINUOUS
 62
     7
 10
162.0
 20
73.966042073449742
 30
0.0
 11
238.0
 21
73.966042073449742
 31
0.0
  0
LINE
  5
353
  8
DATA
  6
CONTINUOUS
 62
     7
 10
162.0
 20
-47.033957926550272
 30
0.0
 11
238.0
 21
-47.033957926550272
 31
0.0
  0
LINE
  5
354
  8
DATA
  6
CONTINUOUS
 62
     7
 10
146.0
 20
57.966042073449728
 30
0.0
 11
146.0
 21
-31.033957926550269
 31
0.0
  0
LINE
  5
355
  8
DATA
  6
CONTINUOUS
 62
     7
 10
254.0
 20
57.966042073449728
 30
0.0
 11
254.0
 21
-31.033957926550269
 31
0.0
  0
CIRCLE
  5
356
  8
DATA
  6
CONTINUOUS
 62
     7
 10
165.0
 20
13.5
 30
0.0
 40
3.75
  0
CIRCLE
  5
357
  8
DATA
  6
CONTINUOUS
 62
     7
 10
235.0
 20
13.5
 30
0.0
 40
3.75
  0
ARC
  5
358
  8
DATA
  6
CONTINUOUS
 62
     7
 10
162.0
 20
57.966042073449728
 30
0.0
 40
16.0
 50
90.0
 51
180.0
  0
ARC
  5
359
  8
DATA
  6
CONTINUOUS
 62
     7
 10
238.0
 20
57.966042073449728
 30
0.0
 40
16.0
 50
0.0
 51
90.0
  0
ARC
  5
35A
  8
DATA
  6
CONTINUOUS
 62
     7
 10
162.0
 20
-31.033957926550269
 30
0.0
 40
16.0
 50
180.0
 51
270.0
  0
ARC
  5
35B
  8
DATA
  6
CONTINUOUS
 62
     7
 10
238.0
 20
-31.033957926550269
 30
0.0
 40
16.0
 50
270.0
 51
0.0
  0
CIRCLE
  5
35C
  8
DATA
  6
CONTINUOUS
 62
     7
 10
185.5
 20
130.0
 30
0.0
 40
6.75
  0
LINE
  5
35D
  8
DATA
  6
CONTINUOUS
 62
     7
 10
182.84999999999999
 20
130.0
 30
0.0
 11
188.15000000000001
 21
130.0
 31
0.0
  0
LINE
  5
35E
  8
DATA
  6
CONTINUOUS
 62
     7
 10
185.5
 20
127.34999999999999
 30
0.0
 11
185.5
 21
132.65000000000001
 31
0.0
  0
LINE
  5
35F
  8
DATA
  6
CONTINUOUS
 62
     7
 10
205.5
 20
123.25
 30
0.0
 11
205.5
 21
136.75
 31
0.0
  0
ARC
  5
360
  8
DATA
  6
CONTINUOUS
 62
     7
 10
209.1953125
 20
130.0
 30
0.0
 40
7.6953125
 50
118.69866408589419
 51
241.30133591410569
  0
LINE
  5
361
  8
DATA
  6
CONTINUOUS
 62
     7
 10
220.5
 20
127.2
 30
0.0
 11
220.5
 21
132.80000000000001
 31
0.0
  0
LINE
  5
362
  8
DATA
  6
CONTINUOUS
 62
     7
 10
220.5
 20
127.2
 30
0.0
 11
205.5
 21
127.2
 31
0.0
  0
LINE
  5
363
  8
DATA
  6
CONTINUOUS
 62
     7
 10
205.5
 20
132.80000000000001
 30
0.0
 11
220.5
 21
132.80000000000001
 31
0.0
  0
LINE
  5
364
  8
DATA
  6
CONTINUOUS
 62
     7
 10
205.5
 20
132.80000000000001
 30
0.0
 11
206.2179487179487
 21
127.2
 31
0.0
  0
LINE
  5
365
  8
DATA
  6
CONTINUOUS
 62
     7
 10
207.0
 20
132.80000000000001
 30
0.0
 11
207.7179487179487
 21
127.2
 31
0.0
  0
LINE
  5
366
  8
DATA
  6
CONTINUOUS
 62
     7
 10
208.5
 20
132.80000000000001
 30
0.0
 11
209.21794871794879
 21
127.2
 31
0.0
  0
LINE
  5
367
  8
DATA
  6
CONTINUOUS
 62
     7
 10
210.0
 20
132.80000000000001
 30
0.0
 11
210.71794871794879
 21
127.2
 31
0.0
  0
LINE
  5
368
  8
DATA
  6
CONTINUOUS
 62
     7
 10
211.5
 20
132.80000000000001
 30
0.0
 11
212.2179487179487
 21
127.2
 31
0.0
  0
LINE
  5
369
  8
DATA
  6
CONTINUOUS
 62
     7
 10
213.0
 20
132.80000000000001
 30
0.0
 11
213.71794871794879
 21
127.2
 31
0.0
  0
LINE
  5
36A
  8
DATA
  6
CONTINUOUS
 62
     7
 10
214.5
 20
132.80000000000001
 30
0.0
 11
215.21794871794879
 21
127.2
 31
0.0
  0
LINE
  5
36B
  8
DATA
  6
CONTINUOUS
 62
     7
 10
216.0
 20
132.80000000000001
 30
0.0
 11
216.71794871794879
 21
127.2
 31
0.0
  0
LINE
  5
36C
  8
DATA
  6
CONTINUOUS
 62
     7
 10
217.5
 20
132.80000000000001
 30
0.0
 11
218.2179487179487
 21
127.2
 31
0.0
  0
LINE
  5
36D
  8
DATA
  6
CONTINUOUS
 62
     7
 10
219.0
 20
132.80000000000001
 30
0.0
 11
219.71794871794879
 21
127.2
 31
0.0
  0
TEXT
  5
36E
  8
DATA
 62
     7
 10
153.382840561416
 20
102.8347791434087
 30
0.0
 40
8.1442063359573602
  1
固定ねじ 2-M6\U+00D715
 41
0.7
 11
153.382840561416
 21
106.90688231138731
 31
0.0
 73
     2
1001
ACADANNOTATIVE
1000
AnnotativeData
1002
{
1070
     1
1070
     0
1002
}
  0
LINE
  5
36F
  8
DATA
  6
CONTINUOUS
 62
     7
 10
150.5
 20
100.0
 30
0.0
 11
249.5
 21
100.0
 31
0.0
  0
TEXT
  5
370
  8
DATA
 62
     7
 10
149.99999999999989
 20
-326.98789834593669
 30
0.0
 40
7.3297851562499989
  1
JBL PROFESSIONAL
 41
0.7
 11
149.99999999999989
 21
-319.65811318968667
 31
0.0
 73
     3
1001
ACADANNOTATIVE
1000
AnnotativeData
1002
{
1070
     1
1070
     0
1002
}
  0
POLYLINE
  5
371
  8
DATA
  6
CONTINUOUS
 62
     7
 66
     1
 10
0.0
 20
0.0
 30
0.0
 70
     1
  0
VERTEX
  5
733
  8
DATA
  6
CONTINUOUS
 62
     7
 10
35.14400000000002
 20
-184.08799999999999
 30
0.0
  0
VERTEX
  5
734
  8
DATA
  6
CONTINUOUS
 62
     7
 10
214.85599999999999
 20
-184.08799999999999
 30
0.0
  0
VERTEX
  5
735
  8
DATA
  6
CONTINUOUS
 62
     7
 10
214.85599999999999
 20
-215.91200000000001
 30
0.0
  0
VERTEX
  5
736
  8
DATA
  6
CONTINUOUS
 62
     7
 10
35.14400000000002
 20
-215.91200000000001
 30
0.0
  0
SEQEND
  5
737
  8
DATA
  6
CONTINUOUS
 62
     7
  0
LINE
  5
378
  8
DATA
  6
CONTINUOUS
 62
     7
 10
123.5023999999997
 20
-215.91200000000009
 30
0.0
 11
123.5023999999997
 21
-184.08799999999999
 31
0.0
  0
LINE
  5
379
  8
DATA
  6
CONTINUOUS
 62
     7
 10
126.49759999999959
 20
-184.08799999999999
 30
0.0
 11
126.49759999999959
 21
-215.91200000000001
 31
0.0
  0
LINE
  5
37A
  8
DATA
  6
CONTINUOUS
 62
     7
 10
141.2863999999997
 20
-215.91200000000009
 30
0.0
 11
141.2863999999997
 21
-184.08799999999999
 31
0.0
  0
LINE
  5
37B
  8
DATA
  6
CONTINUOUS
 62
     7
 10
144.2815999999996
 20
-184.08799999999999
 30
0.0
 11
144.2815999999996
 21
-215.91200000000001
 31
0.0
  0
LINE
  5
37C
  8
DATA
  6
CONTINUOUS
 62
     7
 10
159.07039999999969
 20
-215.91200000000009
 30
0.0
 11
159.07039999999969
 21
-184.08799999999999
 31
0.0
  0
LINE
  5
37D
  8
DATA
  6
CONTINUOUS
 62
     7
 10
162.06559999999971
 20
-184.08799999999999
 30
0.0
 11
162.06559999999971
 21
-215.91200000000001
 31
0.0
  0
LINE
  5
37E
  8
DATA
  6
CONTINUOUS
 62
     7
 10
176.8543999999998
 20
-215.91200000000009
 30
0.0
 11
176.8543999999998
 21
-184.08799999999999
 31
0.0
  0
LINE
  5
37F
  8
DATA
  6
CONTINUOUS
 62
     7
 10
179.8495999999999
 20
-184.08799999999999
 30
0.0
 11
179.8495999999999
 21
-215.91200000000001
 31
0.0
  0
LINE
  5
380
  8
DATA
  6
CONTINUOUS
 62
     7
 10
194.63840000000039
 20
-215.91200000000009
 30
0.0
 11
194.63840000000039
 21
-184.08799999999999
 31
0.0
  0
LINE
  5
381
  8
DATA
  6
CONTINUOUS
 62
     7
 10
197.6336000000004
 20
-184.08799999999999
 30
0.0
 11
197.6336000000004
 21
-215.91200000000001
 31
0.0
  0
LINE
  5
382
  8
DATA
  6
CONTINUOUS
 62
     7
 10
105.7183999999998
 20
-215.91200000000009
 30
0.0
 11
105.7183999999998
 21
-184.08799999999999
 31
0.0
  0
LINE
  5
383
  8
DATA
  6
CONTINUOUS
 62
     7
 10
108.7135999999998
 20
-184.08799999999999
 30
0.0
 11
108.7135999999998
 21
-215.91200000000001
 31
0.0
  0
LINE
  5
384
  8
DATA
  6
CONTINUOUS
 62
     7
 10
87.934400000000025
 20
-215.91200000000009
 30
0.0
 11
87.934400000000025
 21
-184.08799999999999
 31
0.0
  0
LINE
  5
385
  8
DATA
  6
CONTINUOUS
 62
     7
 10
90.929600000000036
 20
-184.08799999999999
 30
0.0
 11
90.929600000000036
 21
-215.91200000000001
 31
0.0
  0
LINE
  5
386
  8
DATA
  6
CONTINUOUS
 62
     7
 10
70.150400000000062
 20
-215.91200000000009
 30
0.0
 11
70.150400000000062
 21
-184.08799999999999
 31
0.0
  0
LINE
  5
387
  8
DATA
  6
CONTINUOUS
 62
     7
 10
73.145600000000073
 20
-184.08799999999999
 30
0.0
 11
73.145600000000073
 21
-215.91200000000001
 31
0.0
  0
LINE
  5
388
  8
DATA
  6
CONTINUOUS
 62
     7
 10
52.36640000000007
 20
-215.91200000000009
 30
0.0
 11
52.36640000000007
 21
-184.08799999999999
 31
0.0
  0
LINE
  5
389
  8
DATA
  6
CONTINUOUS
 62
     7
 10
55.361600000000053
 20
-184.08799999999999
 30
0.0
 11
55.361600000000053
 21
-215.91200000000001
 31
0.0
  0
ARC
  5
38A
  8
DATA
  6
CONTINUOUS
 62
     7
 10
116.1080000000001
 20
-200.00000000000389
 30
0.0
 40
6.1776000000038724
 50
79.082582684189262
 51
280.91741731580299
  0
ARC
  5
38B
  8
DATA
  6
CONTINUOUS
 62
     7
 10
116.1080000000001
 20
-200.00000000000389
 30
0.0
 40
6.1776000000038271
 50
280.91741731580299
 51
79.082582684197263
  0
POLYLINE
  5
38C
  8
DATA
  6
CONTINUOUS
 62
     7
 66
     1
 10
0.0
 20
0.0
 30
0.0
 70
     1
  0
VERTEX
  5
738
  8
DATA
  6
CONTINUOUS
 62
     7
 10
109.08799999999979
 20
-192.97999999999999
 30
0.0
  0
VERTEX
  5
739
  8
DATA
  6
CONTINUOUS
 62
     7
 10
123.1279999999999
 20
-192.97999999999999
 30
0.0
  0
VERTEX
  5
73A
  8
DATA
  6
CONTINUOUS
 62
     7
 10
123.1279999999999
 20
-207.02000000000001
 30
0.0
  0
VERTEX
  5
73B
  8
DATA
  6
CONTINUOUS
 62
     7
 10
109.08799999999979
 20
-207.02000000000001
 30
0.0
  0
SEQEND
  5
73C
  8
DATA
  6
CONTINUOUS
 62
     7
  0
LINE
  5
393
  8
DATA
  6
CONTINUOUS
 62
     7
 10
114.9379999999997
 20
-193.93420724389631
 30
0.0
 11
114.9379999999997
 21
-199.25120000000371
 31
0.0
  0
LINE
  5
394
  8
DATA
  6
CONTINUOUS
 62
     7
 10
114.9379999999997
 20
-200.74880000000371
 30
0.0
 11
114.9379999999997
 21
-206.06579275610369
 31
0.0
  0
LINE
  5
395
  8
DATA
  6
CONTINUOUS
 62
     7
 10
117.27799999999969
 20
-206.06579275610369
 30
0.0
 11
117.27799999999969
 21
-200.74880000000371
 31
0.0
  0
LINE
  5
396
  8
DATA
  6
CONTINUOUS
 62
     7
 10
117.27799999999969
 20
-199.25120000000371
 30
0.0
 11
117.27799999999969
 21
-193.93420724389631
 31
0.0
  0
LINE
  5
397
  8
DATA
  6
CONTINUOUS
 62
     7
 10
112.9256000000002
 20
-200.74880000000371
 30
0.0
 11
112.9256000000002
 21
-199.25120000000371
 31
0.0
  0
LINE
  5
398
  8
DATA
  6
CONTINUOUS
 62
     7
 10
119.2904000000001
 20
-200.74880000000371
 30
0.0
 11
117.27799999999969
 21
-200.74880000000371
 31
0.0
  0
LINE
  5
399
  8
DATA
  6
CONTINUOUS
 62
     7
 10
114.9379999999998
 20
-200.74880000000371
 30
0.0
 11
112.9256000000002
 21
-200.74880000000371
 31
0.0
  0
LINE
  5
39A
  8
DATA
  6
CONTINUOUS
 62
     7
 10
119.2904000000001
 20
-199.25120000000371
 30
0.0
 11
119.2904000000001
 21
-200.74880000000371
 31
0.0
  0
LINE
  5
39B
  8
DATA
  6
CONTINUOUS
 62
     7
 10
112.9256000000002
 20
-199.25120000000371
 30
0.0
 11
114.9379999999998
 21
-199.25120000000371
 31
0.0
  0
LINE
  5
39C
  8
DATA
  6
CONTINUOUS
 62
     7
 10
117.27799999999969
 20
-199.25120000000371
 30
0.0
 11
119.2904000000001
 21
-199.25120000000371
 31
0.0
  0
LINE
  5
39D
  8
DATA
  6
CONTINUOUS
 62
     7
 10
109.08799999999979
 20
-198.97040000000371
 30
0.0
 11
110.016804255317
 21
-198.97040000000371
 31
0.0
  0
LINE
  5
39E
  8
DATA
  6
CONTINUOUS
 62
     7
 10
109.08799999999979
 20
-201.0296000000038
 30
0.0
 11
110.0168042553169
 21
-201.0296000000038
 31
0.0
  0
LINE
  5
39F
  8
DATA
  6
CONTINUOUS
 62
     7
 10
122.19919574468329
 20
-198.97040000000371
 30
0.0
 11
123.1279999999996
 21
-198.97040000000371
 31
0.0
  0
LINE
  5
3A0
  8
DATA
  6
CONTINUOUS
 62
     7
 10
122.19919574468339
 20
-201.0296000000038
 30
0.0
 11
123.1279999999996
 21
-201.0296000000038
 31
0.0
  0
LINE
  5
3A1
  8
DATA
  6
CONTINUOUS
 62
     7
 10
117.13759999999969
 20
-192.9800000000038
 30
0.0
 11
117.13759999999969
 21
-193.90880425532089
 31
0.0
  0
LINE
  5
3A2
  8
DATA
  6
CONTINUOUS
 62
     7
 10
115.0783999999998
 20
-192.9800000000038
 30
0.0
 11
115.0783999999998
 21
-193.90880425532089
 31
0.0
  0
LINE
  5
3A3
  8
DATA
  6
CONTINUOUS
 62
     7
 10
117.13759999999969
 20
-206.0911957446875
 30
0.0
 11
117.13759999999969
 21
-207.02000000000379
 31
0.0
  0
LINE
  5
3A4
  8
DATA
  6
CONTINUOUS
 62
     7
 10
115.0783999999998
 20
-206.0911957446875
 30
0.0
 11
115.0783999999998
 21
-207.02000000000379
 31
0.0
  0
LINE
  5
3A5
  8
DATA
  6
CONTINUOUS
 62
     7
 10
117.13759999999969
 20
-192.9800000000038
 30
0.0
 11
117.13759999999969
 21
-193.90880425532089
 31
0.0
  0
LINE
  5
3A6
  8
DATA
  6
CONTINUOUS
 62
     7
 10
115.0783999999998
 20
-192.9800000000038
 30
0.0
 11
115.0783999999998
 21
-193.90880425532089
 31
0.0
  0
LINE
  5
3A7
  8
DATA
  6
CONTINUOUS
 62
     7
 10
117.13759999999969
 20
-206.0911957446875
 30
0.0
 11
117.13759999999969
 21
-207.02000000000379
 31
0.0
  0
LINE
  5
3A8
  8
DATA
  6
CONTINUOUS
 62
     7
 10
115.0783999999998
 20
-206.0911957446875
 30
0.0
 11
115.0783999999998
 21
-207.02000000000379
 31
0.0
  0
LINE
  5
3A9
  8
DATA
  6
CONTINUOUS
 62
     7
 10
117.13759999999969
 20
-192.9800000000038
 30
0.0
 11
117.13759999999969
 21
-193.90880425532089
 31
0.0
  0
LINE
  5
3AA
  8
DATA
  6
CONTINUOUS
 62
     7
 10
115.0783999999998
 20
-192.9800000000038
 30
0.0
 11
115.0783999999998
 21
-193.90880425532089
 31
0.0
  0
LINE
  5
3AB
  8
DATA
  6
CONTINUOUS
 62
     7
 10
117.13759999999969
 20
-206.0911957446875
 30
0.0
 11
117.13759999999969
 21
-207.02000000000379
 31
0.0
  0
LINE
  5
3AC
  8
DATA
  6
CONTINUOUS
 62
     7
 10
115.0783999999998
 20
-206.0911957446875
 30
0.0
 11
115.0783999999998
 21
-207.02000000000379
 31
0.0
  0
LINE
  5
3AD
  8
DATA
  6
CONTINUOUS
 62
     7
 10
117.13759999999969
 20
-192.9800000000038
 30
0.0
 11
117.13759999999969
 21
-193.90880425532089
 31
0.0
  0
LINE
  5
3AE
  8
DATA
  6
CONTINUOUS
 62
     7
 10
115.0783999999998
 20
-192.9800000000038
 30
0.0
 11
115.0783999999998
 21
-193.90880425532089
 31
0.0
  0
LINE
  5
3AF
  8
DATA
  6
CONTINUOUS
 62
     7
 10
117.13759999999969
 20
-206.0911957446875
 30
0.0
 11
117.13759999999969
 21
-207.02000000000379
 31
0.0
  0
LINE
  5
3B0
  8
DATA
  6
CONTINUOUS
 62
     7
 10
115.0783999999998
 20
-206.0911957446875
 30
0.0
 11
115.0783999999998
 21
-207.02000000000379
 31
0.0
  0
LINE
  5
3B1
  8
DATA
  6
CONTINUOUS
 62
     7
 10
212.42240000000049
 20
-208.6112
 30
0.0
 11
197.6336000000004
 21
-208.6112
 31
0.0
  0
LINE
  5
3B2
  8
DATA
  6
CONTINUOUS
 62
     7
 10
194.63840000000039
 20
-208.6112
 30
0.0
 11
179.8495999999999
 21
-208.6112
 31
0.0
  0
LINE
  5
3B3
  8
DATA
  6
CONTINUOUS
 62
     7
 10
176.8543999999998
 20
-208.6112
 30
0.0
 11
162.06559999999971
 21
-208.6112
 31
0.0
  0
LINE
  5
3B4
  8
DATA
  6
CONTINUOUS
 62
     7
 10
159.07039999999969
 20
-208.6112
 30
0.0
 11
144.2815999999996
 21
-208.6112
 31
0.0
  0
LINE
  5
3B5
  8
DATA
  6
CONTINUOUS
 62
     7
 10
141.2863999999997
 20
-208.6112
 30
0.0
 11
126.49759999999959
 21
-208.6112
 31
0.0
  0
LINE
  5
3B6
  8
DATA
  6
CONTINUOUS
 62
     7
 10
123.5023999999997
 20
-208.6112
 30
0.0
 11
108.7135999999998
 21
-208.6112
 31
0.0
  0
LINE
  5
3B7
  8
DATA
  6
CONTINUOUS
 62
     7
 10
105.7183999999999
 20
-208.6112
 30
0.0
 11
90.929600000000093
 21
-208.6112
 31
0.0
  0
LINE
  5
3B8
  8
DATA
  6
CONTINUOUS
 62
     7
 10
87.934400000000025
 20
-208.6112
 30
0.0
 11
73.14560000000003
 21
-208.6112
 31
0.0
  0
LINE
  5
3B9
  8
DATA
  6
CONTINUOUS
 62
     7
 10
70.150400000000062
 20
-208.6112
 30
0.0
 11
55.361600000000067
 21
-208.6112
 31
0.0
  0
LINE
  5
3BA
  8
DATA
  6
CONTINUOUS
 62
     7
 10
52.366400000000077
 20
-208.6112
 30
0.0
 11
37.577600000000011
 21
-208.6112
 31
0.0
  0
LINE
  5
3BB
  8
DATA
  6
CONTINUOUS
 62
     7
 10
37.577600000000032
 20
-191.3888
 30
0.0
 11
52.36640000000007
 21
-191.3888
 31
0.0
  0
LINE
  5
3BC
  8
DATA
  6
CONTINUOUS
 62
     7
 10
55.361600000000053
 20
-191.3888
 30
0.0
 11
70.150400000000062
 21
-191.3888
 31
0.0
  0
LINE
  5
3BD
  8
DATA
  6
CONTINUOUS
 62
     7
 10
73.14560000000003
 20
-191.3888
 30
0.0
 11
87.934400000000025
 21
-191.3888
 31
0.0
  0
LINE
  5
3BE
  8
DATA
  6
CONTINUOUS
 62
     7
 10
90.92960000000005
 20
-191.3888
 30
0.0
 11
105.7183999999999
 21
-191.3888
 31
0.0
  0
LINE
  5
3BF
  8
DATA
  6
CONTINUOUS
 62
     7
 10
108.7135999999998
 20
-191.3888
 30
0.0
 11
123.5023999999996
 21
-191.3888
 31
0.0
  0
LINE
  5
3C0
  8
DATA
  6
CONTINUOUS
 62
     7
 10
126.49759999999959
 20
-191.3888
 30
0.0
 11
141.2863999999997
 21
-191.3888
 31
0.0
  0
LINE
  5
3C1
  8
DATA
  6
CONTINUOUS
 62
     7
 10
144.2815999999996
 20
-191.3888
 30
0.0
 11
159.07039999999969
 21
-191.3888
 31
0.0
  0
LINE
  5
3C2
  8
DATA
  6
CONTINUOUS
 62
     7
 10
162.06559999999971
 20
-191.3888
 30
0.0
 11
176.8543999999998
 21
-191.3888
 31
0.0
  0
LINE
  5
3C3
  8
DATA
  6
CONTINUOUS
 62
     7
 10
179.8495999999999
 20
-191.3888
 30
0.0
 11
194.63840000000039
 21
-191.3888
 31
0.0
  0
LINE
  5
3C4
  8
DATA
  6
CONTINUOUS
 62
     7
 10
197.6336000000004
 20
-191.3888
 30
0.0
 11
212.42240000000049
 21
-191.3888
 31
0.0
  0
LINE
  5
3C5
  8
DATA
  6
CONTINUOUS
 62
     7
 10
37.577600000000032
 20
-188.01920000000001
 30
0.0
 11
52.36640000000007
 21
-188.01920000000001
 31
0.0
  0
LINE
  5
3C6
  8
DATA
  6
CONTINUOUS
 62
     7
 10
55.361600000000053
 20
-188.01920000000001
 30
0.0
 11
70.150400000000062
 21
-188.01920000000001
 31
0.0
  0
LINE
  5
3C7
  8
DATA
  6
CONTINUOUS
 62
     7
 10
73.14560000000003
 20
-188.01920000000001
 30
0.0
 11
87.934400000000025
 21
-188.01920000000001
 31
0.0
  0
LINE
  5
3C8
  8
DATA
  6
CONTINUOUS
 62
     7
 10
90.92960000000005
 20
-188.01920000000001
 30
0.0
 11
105.7183999999999
 21
-188.01920000000001
 31
0.0
  0
LINE
  5
3C9
  8
DATA
  6
CONTINUOUS
 62
     7
 10
108.7135999999998
 20
-188.01920000000001
 30
0.0
 11
123.5023999999996
 21
-188.01920000000001
 31
0.0
  0
LINE
  5
3CA
  8
DATA
  6
CONTINUOUS
 62
     7
 10
126.49759999999959
 20
-188.01920000000001
 30
0.0
 11
141.2863999999997
 21
-188.01920000000001
 31
0.0
  0
LINE
  5
3CB
  8
DATA
  6
CONTINUOUS
 62
     7
 10
144.2815999999996
 20
-188.01920000000001
 30
0.0
 11
159.07039999999969
 21
-188.01920000000001
 31
0.0
  0
LINE
  5
3CC
  8
DATA
  6
CONTINUOUS
 62
     7
 10
162.06559999999971
 20
-188.01920000000001
 30
0.0
 11
176.8543999999998
 21
-188.01920000000001
 31
0.0
  0
LINE
  5
3CD
  8
DATA
  6
CONTINUOUS
 62
     7
 10
179.8495999999999
 20
-188.01920000000001
 30
0.0
 11
194.63840000000039
 21
-188.01920000000001
 31
0.0
  0
LINE
  5
3CE
  8
DATA
  6
CONTINUOUS
 62
     7
 10
197.6336000000004
 20
-188.01920000000001
 30
0.0
 11
212.42240000000049
 21
-188.01920000000001
 31
0.0
  0
LINE
  5
3CF
  8
DATA
  6
CONTINUOUS
 62
     7
 10
212.42240000000049
 20
-211.98079999999999
 30
0.0
 11
197.6336000000004
 21
-211.98079999999999
 31
0.0
  0
LINE
  5
3D0
  8
DATA
  6
CONTINUOUS
 62
     7
 10
194.63840000000039
 20
-211.98079999999999
 30
0.0
 11
179.8495999999999
 21
-211.98079999999999
 31
0.0
  0
LINE
  5
3D1
  8
DATA
  6
CONTINUOUS
 62
     7
 10
176.8543999999998
 20
-211.98079999999999
 30
0.0
 11
162.06559999999971
 21
-211.98079999999999
 31
0.0
  0
LINE
  5
3D2
  8
DATA
  6
CONTINUOUS
 62
     7
 10
159.07039999999969
 20
-211.98079999999999
 30
0.0
 11
144.2815999999996
 21
-211.98079999999999
 31
0.0
  0
LINE
  5
3D3
  8
DATA
  6
CONTINUOUS
 62
     7
 10
141.2863999999997
 20
-211.98079999999999
 30
0.0
 11
126.49759999999959
 21
-211.98079999999999
 31
0.0
  0
LINE
  5
3D4
  8
DATA
  6
CONTINUOUS
 62
     7
 10
123.5023999999997
 20
-211.98079999999999
 30
0.0
 11
108.7135999999998
 21
-211.98079999999999
 31
0.0
  0
LINE
  5
3D5
  8
DATA
  6
CONTINUOUS
 62
     7
 10
105.7183999999999
 20
-211.98079999999999
 30
0.0
 11
90.929600000000093
 21
-211.98079999999999
 31
0.0
  0
LINE
  5
3D6
  8
DATA
  6
CONTINUOUS
 62
     7
 10
87.934400000000025
 20
-211.98079999999999
 30
0.0
 11
73.14560000000003
 21
-211.98079999999999
 31
0.0
  0
LINE
  5
3D7
  8
DATA
  6
CONTINUOUS
 62
     7
 10
70.150400000000062
 20
-211.98079999999999
 30
0.0
 11
55.361600000000067
 21
-211.98079999999999
 31
0.0
  0
LINE
  5
3D8
  8
DATA
  6
CONTINUOUS
 62
     7
 10
52.366400000000077
 20
-211.98079999999999
 30
0.0
 11
37.577600000000011
 21
-211.98079999999999
 31
0.0
  0
LINE
  5
3D9
  8
DATA
  6
CONTINUOUS
 62
     7
 10
37.577600000000032
 20
-215.91200000000009
 30
0.0
 11
37.577600000000032
 21
-184.08799999999999
 31
0.0
  0
LINE
  5
3DA
  8
DATA
  6
CONTINUOUS
 62
     7
 10
212.42240000000041
 20
-184.08799999999999
 30
0.0
 11
212.42240000000041
 21
-215.91200000000001
 31
0.0
  0
ARC
  5
3DB
  8
DATA
  6
CONTINUOUS
 62
     7
 10
80.540000000000504
 20
-200.00000000000389
 30
0.0
 40
6.1776000000038733
 50
79.082582684189134
 51
280.91741731580311
  0
ARC
  5
3DC
  8
DATA
  6
CONTINUOUS
 62
     7
 10
80.540000000000504
 20
-200.00000000000389
 30
0.0
 40
6.177600000003828
 50
280.91741731580322
 51
79.082582684197163
  0
POLYLINE
  5
3DD
  8
DATA
  6
CONTINUOUS
 62
     7
 66
     1
 10
0.0
 20
0.0
 30
0.0
 70
     1
  0
VERTEX
  5
73D
  8
DATA
  6
CONTINUOUS
 62
     7
 10
73.520000000000053
 20
-192.97999999999999
 30
0.0
  0
VERTEX
  5
73E
  8
DATA
  6
CONTINUOUS
 62
     7
 10
87.560000000000045
 20
-192.97999999999999
 30
0.0
  0
VERTEX
  5
73F
  8
DATA
  6
CONTINUOUS
 62
     7
 10
87.560000000000045
 20
-207.02000000000001
 30
0.0
  0
VERTEX
  5
740
  8
DATA
  6
CONTINUOUS
 62
     7
 10
73.520000000000053
 20
-207.02000000000001
 30
0.0
  0
SEQEND
  5
741
  8
DATA
  6
CONTINUOUS
 62
     7
  0
LINE
  5
3E4
  8
DATA
  6
CONTINUOUS
 62
     7
 10
79.370000000000061
 20
-193.93420724389631
 30
0.0
 11
79.370000000000061
 21
-199.25120000000371
 31
0.0
  0
LINE
  5
3E5
  8
DATA
  6
CONTINUOUS
 62
     7
 10
79.370000000000061
 20
-200.74880000000371
 30
0.0
 11
79.370000000000061
 21
-206.06579275610369
 31
0.0
  0
LINE
  5
3E6
  8
DATA
  6
CONTINUOUS
 62
     7
 10
81.710000000000036
 20
-206.06579275610369
 30
0.0
 11
81.710000000000036
 21
-200.74880000000371
 31
0.0
  0
LINE
  5
3E7
  8
DATA
  6
CONTINUOUS
 62
     7
 10
81.710000000000036
 20
-199.25120000000371
 30
0.0
 11
81.710000000000036
 21
-193.93420724389631
 31
0.0
  0
LINE
  5
3E8
  8
DATA
  6
CONTINUOUS
 62
     7
 10
77.357600000000474
 20
-200.74880000000371
 30
0.0
 11
77.357600000000474
 21
-199.25120000000371
 31
0.0
  0
LINE
  5
3E9
  8
DATA
  6
CONTINUOUS
 62
     7
 10
83.722400000000448
 20
-200.74880000000371
 30
0.0
 11
81.710000000000036
 21
-200.74880000000371
 31
0.0
  0
LINE
  5
3EA
  8
DATA
  6
CONTINUOUS
 62
     7
 10
79.370000000000061
 20
-200.74880000000371
 30
0.0
 11
77.357600000000474
 21
-200.74880000000371
 31
0.0
  0
LINE
  5
3EB
  8
DATA
  6
CONTINUOUS
 62
     7
 10
83.722400000000448
 20
-199.25120000000371
 30
0.0
 11
83.722400000000448
 21
-200.74880000000371
 31
0.0
  0
LINE
  5
3EC
  8
DATA
  6
CONTINUOUS
 62
     7
 10
77.357600000000474
 20
-199.25120000000371
 30
0.0
 11
79.370000000000061
 21
-199.25120000000371
 31
0.0
  0
LINE
  5
3ED
  8
DATA
  6
CONTINUOUS
 62
     7
 10
81.710000000000036
 20
-199.25120000000371
 30
0.0
 11
83.722400000000448
 21
-199.25120000000371
 31
0.0
  0
LINE
  5
3EE
  8
DATA
  6
CONTINUOUS
 62
     7
 10
73.520000000000053
 20
-198.97040000000371
 30
0.0
 11
74.448804255317228
 21
-198.97040000000371
 31
0.0
  0
LINE
  5
3EF
  8
DATA
  6
CONTINUOUS
 62
     7
 10
73.520000000000053
 20
-201.0296000000038
 30
0.0
 11
74.448804255317228
 21
-201.0296000000038
 31
0.0
  0
LINE
  5
3F0
  8
DATA
  6
CONTINUOUS
 62
     7
 10
86.631195744683765
 20
-198.97040000000371
 30
0.0
 11
87.560000000000045
 21
-198.97040000000371
 31
0.0
  0
LINE
  5
3F1
  8
DATA
  6
CONTINUOUS
 62
     7
 10
86.631195744683765
 20
-201.0296000000038
 30
0.0
 11
87.560000000000045
 21
-201.0296000000038
 31
0.0
  0
LINE
  5
3F2
  8
DATA
  6
CONTINUOUS
 62
     7
 10
81.569600000000065
 20
-192.9800000000038
 30
0.0
 11
81.569600000000065
 21
-193.90880425532089
 31
0.0
  0
LINE
  5
3F3
  8
DATA
  6
CONTINUOUS
 62
     7
 10
79.510400000000061
 20
-192.9800000000038
 30
0.0
 11
79.510400000000061
 21
-193.90880425532089
 31
0.0
  0
LINE
  5
3F4
  8
DATA
  6
CONTINUOUS
 62
     7
 10
81.569600000000065
 20
-206.0911957446875
 30
0.0
 11
81.569600000000065
 21
-207.02000000000379
 31
0.0
  0
LINE
  5
3F5
  8
DATA
  6
CONTINUOUS
 62
     7
 10
79.510400000000061
 20
-206.0911957446875
 30
0.0
 11
79.510400000000061
 21
-207.02000000000379
 31
0.0
  0
LINE
  5
3F6
  8
DATA
  6
CONTINUOUS
 62
     7
 10
81.569600000000065
 20
-192.9800000000038
 30
0.0
 11
81.569600000000065
 21
-193.90880425532089
 31
0.0
  0
LINE
  5
3F7
  8
DATA
  6
CONTINUOUS
 62
     7
 10
79.510400000000061
 20
-192.9800000000038
 30
0.0
 11
79.510400000000061
 21
-193.90880425532089
 31
0.0
  0
LINE
  5
3F8
  8
DATA
  6
CONTINUOUS
 62
     7
 10
81.569600000000065
 20
-206.0911957446875
 30
0.0
 11
81.569600000000065
 21
-207.02000000000379
 31
0.0
  0
LINE
  5
3F9
  8
DATA
  6
CONTINUOUS
 62
     7
 10
79.510400000000061
 20
-206.0911957446875
 30
0.0
 11
79.510400000000061
 21
-207.02000000000379
 31
0.0
  0
LINE
  5
3FA
  8
DATA
  6
CONTINUOUS
 62
     7
 10
81.569600000000065
 20
-192.9800000000038
 30
0.0
 11
81.569600000000065
 21
-193.90880425532089
 31
0.0
  0
LINE
  5
3FB
  8
DATA
  6
CONTINUOUS
 62
     7
 10
79.510400000000061
 20
-192.9800000000038
 30
0.0
 11
79.510400000000061
 21
-193.90880425532089
 31
0.0
  0
LINE
  5
3FC
  8
DATA
  6
CONTINUOUS
 62
     7
 10
81.569600000000065
 20
-206.0911957446875
 30
0.0
 11
81.569600000000065
 21
-207.02000000000379
 31
0.0
  0
LINE
  5
3FD
  8
DATA
  6
CONTINUOUS
 62
     7
 10
79.510400000000061
 20
-206.0911957446875
 30
0.0
 11
79.510400000000061
 21
-207.02000000000379
 31
0.0
  0
LINE
  5
3FE
  8
DATA
  6
CONTINUOUS
 62
     7
 10
81.569600000000065
 20
-192.9800000000038
 30
0.0
 11
81.569600000000065
 21
-193.90880425532089
 31
0.0
  0
LINE
  5
3FF
  8
DATA
  6
CONTINUOUS
 62
     7
 10
79.510400000000061
 20
-192.9800000000038
 30
0.0
 11
79.510400000000061
 21
-193.90880425532089
 31
0.0
  0
LINE
  5
400
  8
DATA
  6
CONTINUOUS
 62
     7
 10
81.569600000000065
 20
-206.0911957446875
 30
0.0
 11
81.569600000000065
 21
-207.02000000000379
 31
0.0
  0
LINE
  5
401
  8
DATA
  6
CONTINUOUS
 62
     7
 10
79.510400000000061
 20
-206.0911957446875
 30
0.0
 11
79.510400000000061
 21
-207.02000000000379
 31
0.0
  0
ARC
  5
402
  8
DATA
  6
CONTINUOUS
 62
     7
 10
62.756000000000498
 20
-200.00000000000389
 30
0.0
 40
6.1776000000038733
 50
79.082582684189134
 51
280.91741731580288
  0
ARC
  5
403
  8
DATA
  6
CONTINUOUS
 62
     7
 10
62.756000000000498
 20
-200.00000000000389
 30
0.0
 40
6.1776000000038236
 50
280.91741731580288
 51
79.082582684197121
  0
POLYLINE
  5
404
  8
DATA
  6
CONTINUOUS
 62
     7
 66
     1
 10
0.0
 20
0.0
 30
0.0
 70
     1
  0
VERTEX
  5
742
  8
DATA
  6
CONTINUOUS
 62
     7
 10
55.736000000000061
 20
-192.97999999999999
 30
0.0
  0
VERTEX
  5
743
  8
DATA
  6
CONTINUOUS
 62
     7
 10
69.776000000000053
 20
-192.97999999999999
 30
0.0
  0
VERTEX
  5
744
  8
DATA
  6
CONTINUOUS
 62
     7
 10
69.776000000000053
 20
-207.02000000000001
 30
0.0
  0
VERTEX
  5
745
  8
DATA
  6
CONTINUOUS
 62
     7
 10
55.736000000000061
 20
-207.02000000000001
 30
0.0
  0
SEQEND
  5
746
  8
DATA
  6
CONTINUOUS
 62
     7
  0
LINE
  5
40B
  8
DATA
  6
CONTINUOUS
 62
     7
 10
61.586000000000062
 20
-193.93420724389631
 30
0.0
 11
61.586000000000062
 21
-199.25120000000371
 31
0.0
  0
LINE
  5
40C
  8
DATA
  6
CONTINUOUS
 62
     7
 10
61.586000000000062
 20
-200.74880000000371
 30
0.0
 11
61.586000000000062
 21
-206.06579275610369
 31
0.0
  0
LINE
  5
40D
  8
DATA
  6
CONTINUOUS
 62
     7
 10
63.926000000000059
 20
-206.06579275610369
 30
0.0
 11
63.926000000000059
 21
-200.74880000000371
 31
0.0
  0
LINE
  5
40E
  8
DATA
  6
CONTINUOUS
 62
     7
 10
63.926000000000059
 20
-199.25120000000371
 30
0.0
 11
63.926000000000059
 21
-193.93420724389631
 31
0.0
  0
LINE
  5
40F
  8
DATA
  6
CONTINUOUS
 62
     7
 10
59.573600000000503
 20
-200.74880000000371
 30
0.0
 11
59.573600000000503
 21
-199.25120000000371
 31
0.0
  0
LINE
  5
410
  8
DATA
  6
CONTINUOUS
 62
     7
 10
65.938400000000485
 20
-200.74880000000371
 30
0.0
 11
63.926000000000059
 21
-200.74880000000371
 31
0.0
  0
LINE
  5
411
  8
DATA
  6
CONTINUOUS
 62
     7
 10
61.586000000000062
 20
-200.74880000000371
 30
0.0
 11
59.573600000000503
 21
-200.74880000000371
 31
0.0
  0
LINE
  5
412
  8
DATA
  6
CONTINUOUS
 62
     7
 10
65.938400000000485
 20
-199.25120000000371
 30
0.0
 11
65.938400000000485
 21
-200.74880000000371
 31
0.0
  0
LINE
  5
413
  8
DATA
  6
CONTINUOUS
 62
     7
 10
59.573600000000503
 20
-199.25120000000371
 30
0.0
 11
61.586000000000062
 21
-199.25120000000371
 31
0.0
  0
LINE
  5
414
  8
DATA
  6
CONTINUOUS
 62
     7
 10
63.926000000000059
 20
-199.25120000000371
 30
0.0
 11
65.938400000000485
 21
-199.25120000000371
 31
0.0
  0
LINE
  5
415
  8
DATA
  6
CONTINUOUS
 62
     7
 10
55.736000000000061
 20
-198.97040000000371
 30
0.0
 11
56.664804255317208
 21
-198.97040000000371
 31
0.0
  0
LINE
  5
416
  8
DATA
  6
CONTINUOUS
 62
     7
 10
55.736000000000061
 20
-201.0296000000038
 30
0.0
 11
56.664804255317208
 21
-201.0296000000038
 31
0.0
  0
LINE
  5
417
  8
DATA
  6
CONTINUOUS
 62
     7
 10
68.847195744683759
 20
-198.97040000000371
 30
0.0
 11
69.776000000000053
 21
-198.97040000000371
 31
0.0
  0
LINE
  5
418
  8
DATA
  6
CONTINUOUS
 62
     7
 10
68.847195744683773
 20
-201.0296000000038
 30
0.0
 11
69.776000000000053
 21
-201.0296000000038
 31
0.0
  0
LINE
  5
419
  8
DATA
  6
CONTINUOUS
 62
     7
 10
63.785600000000073
 20
-192.9800000000038
 30
0.0
 11
63.785600000000073
 21
-193.90880425532089
 31
0.0
  0
LINE
  5
41A
  8
DATA
  6
CONTINUOUS
 62
     7
 10
61.726400000000083
 20
-192.9800000000038
 30
0.0
 11
61.726400000000083
 21
-193.90880425532089
 31
0.0
  0
LINE
  5
41B
  8
DATA
  6
CONTINUOUS
 62
     7
 10
63.785600000000073
 20
-206.0911957446875
 30
0.0
 11
63.785600000000073
 21
-207.02000000000379
 31
0.0
  0
LINE
  5
41C
  8
DATA
  6
CONTINUOUS
 62
     7
 10
61.726400000000083
 20
-206.0911957446875
 30
0.0
 11
61.726400000000083
 21
-207.02000000000379
 31
0.0
  0
LINE
  5
41D
  8
DATA
  6
CONTINUOUS
 62
     7
 10
63.785600000000073
 20
-192.9800000000038
 30
0.0
 11
63.785600000000073
 21
-193.90880425532089
 31
0.0
  0
LINE
  5
41E
  8
DATA
  6
CONTINUOUS
 62
     7
 10
61.726400000000083
 20
-192.9800000000038
 30
0.0
 11
61.726400000000083
 21
-193.90880425532089
 31
0.0
  0
LINE
  5
41F
  8
DATA
  6
CONTINUOUS
 62
     7
 10
63.785600000000073
 20
-206.0911957446875
 30
0.0
 11
63.785600000000073
 21
-207.02000000000379
 31
0.0
  0
LINE
  5
420
  8
DATA
  6
CONTINUOUS
 62
     7
 10
61.726400000000083
 20
-206.0911957446875
 30
0.0
 11
61.726400000000083
 21
-207.02000000000379
 31
0.0
  0
LINE
  5
421
  8
DATA
  6
CONTINUOUS
 62
     7
 10
63.785600000000073
 20
-192.9800000000038
 30
0.0
 11
63.785600000000073
 21
-193.90880425532089
 31
0.0
  0
LINE
  5
422
  8
DATA
  6
CONTINUOUS
 62
     7
 10
61.726400000000083
 20
-192.9800000000038
 30
0.0
 11
61.726400000000083
 21
-193.90880425532089
 31
0.0
  0
LINE
  5
423
  8
DATA
  6
CONTINUOUS
 62
     7
 10
63.785600000000073
 20
-206.0911957446875
 30
0.0
 11
63.785600000000073
 21
-207.02000000000379
 31
0.0
  0
LINE
  5
424
  8
DATA
  6
CONTINUOUS
 62
     7
 10
61.726400000000083
 20
-206.0911957446875
 30
0.0
 11
61.726400000000083
 21
-207.02000000000379
 31
0.0
  0
LINE
  5
425
  8
DATA
  6
CONTINUOUS
 62
     7
 10
63.785600000000073
 20
-192.9800000000038
 30
0.0
 11
63.785600000000073
 21
-193.90880425532089
 31
0.0
  0
LINE
  5
426
  8
DATA
  6
CONTINUOUS
 62
     7
 10
61.726400000000083
 20
-192.9800000000038
 30
0.0
 11
61.726400000000083
 21
-193.90880425532089
 31
0.0
  0
LINE
  5
427
  8
DATA
  6
CONTINUOUS
 62
     7
 10
63.785600000000073
 20
-206.0911957446875
 30
0.0
 11
63.785600000000073
 21
-207.02000000000379
 31
0.0
  0
LINE
  5
428
  8
DATA
  6
CONTINUOUS
 62
     7
 10
61.726400000000083
 20
-206.0911957446875
 30
0.0
 11
61.726400000000083
 21
-207.02000000000379
 31
0.0
  0
ARC
  5
429
  8
DATA
  6
CONTINUOUS
 62
     7
 10
133.89200000000011
 20
-200.00000000000389
 30
0.0
 40
6.1776000000038733
 50
79.082582684189134
 51
280.91741731580311
  0
ARC
  5
42A
  8
DATA
  6
CONTINUOUS
 62
     7
 10
133.89200000000011
 20
-200.00000000000389
 30
0.0
 40
6.177600000003828
 50
280.91741731580322
 51
79.082582684197163
  0
POLYLINE
  5
42B
  8
DATA
  6
CONTINUOUS
 62
     7
 66
     1
 10
0.0
 20
0.0
 30
0.0
 70
     1
  0
VERTEX
  5
747
  8
DATA
  6
CONTINUOUS
 62
     7
 10
126.8719999999996
 20
-192.97999999999999
 30
0.0
  0
VERTEX
  5
748
  8
DATA
  6
CONTINUOUS
 62
     7
 10
140.91199999999961
 20
-192.97999999999999
 30
0.0
  0
VERTEX
  5
749
  8
DATA
  6
CONTINUOUS
 62
     7
 10
140.91199999999961
 20
-207.02000000000001
 30
0.0
  0
VERTEX
  5
74A
  8
DATA
  6
CONTINUOUS
 62
     7
 10
126.8719999999996
 20
-207.02000000000001
 30
0.0
  0
SEQEND
  5
74B
  8
DATA
  6
CONTINUOUS
 62
     7
  0
LINE
  5
432
  8
DATA
  6
CONTINUOUS
 62
     7
 10
132.7219999999997
 20
-193.93420724389631
 30
0.0
 11
132.7219999999997
 21
-199.25120000000371
 31
0.0
  0
LINE
  5
433
  8
DATA
  6
CONTINUOUS
 62
     7
 10
132.7219999999997
 20
-200.74880000000371
 30
0.0
 11
132.7219999999997
 21
-206.06579275610369
 31
0.0
  0
LINE
  5
434
  8
DATA
  6
CONTINUOUS
 62
     7
 10
135.0619999999997
 20
-206.06579275610369
 30
0.0
 11
135.0619999999997
 21
-200.74880000000371
 31
0.0
  0
LINE
  5
435
  8
DATA
  6
CONTINUOUS
 62
     7
 10
135.0619999999997
 20
-199.25120000000371
 30
0.0
 11
135.0619999999997
 21
-193.93420724389631
 31
0.0
  0
LINE
  5
436
  8
DATA
  6
CONTINUOUS
 62
     7
 10
130.70960000000011
 20
-200.74880000000371
 30
0.0
 11
130.70960000000011
 21
-199.25120000000371
 31
0.0
  0
LINE
  5
437
  8
DATA
  6
CONTINUOUS
 62
     7
 10
137.07440000000011
 20
-200.74880000000371
 30
0.0
 11
135.0619999999997
 21
-200.74880000000371
 31
0.0
  0
LINE
  5
438
  8
DATA
  6
CONTINUOUS
 62
     7
 10
132.7219999999997
 20
-200.74880000000371
 30
0.0
 11
130.70960000000011
 21
-200.74880000000371
 31
0.0
  0
LINE
  5
439
  8
DATA
  6
CONTINUOUS
 62
     7
 10
137.07440000000011
 20
-199.25120000000371
 30
0.0
 11
137.07440000000011
 21
-200.74880000000371
 31
0.0
  0
LINE
  5
43A
  8
DATA
  6
CONTINUOUS
 62
     7
 10
130.70960000000011
 20
-199.25120000000371
 30
0.0
 11
132.7219999999997
 21
-199.25120000000371
 31
0.0
  0
LINE
  5
43B
  8
DATA
  6
CONTINUOUS
 62
     7
 10
135.0619999999997
 20
-199.25120000000371
 30
0.0
 11
137.07440000000011
 21
-199.25120000000371
 31
0.0
  0
LINE
  5
43C
  8
DATA
  6
CONTINUOUS
 62
     7
 10
126.8719999999996
 20
-198.97040000000371
 30
0.0
 11
127.80080425531681
 21
-198.97040000000371
 31
0.0
  0
LINE
  5
43D
  8
DATA
  6
CONTINUOUS
 62
     7
 10
126.8719999999996
 20
-201.0296000000038
 30
0.0
 11
127.80080425531681
 21
-201.0296000000038
 31
0.0
  0
LINE
  5
43E
  8
DATA
  6
CONTINUOUS
 62
     7
 10
139.98319574468329
 20
-198.97040000000371
 30
0.0
 11
140.91199999999969
 21
-198.97040000000371
 31
0.0
  0
LINE
  5
43F
  8
DATA
  6
CONTINUOUS
 62
     7
 10
139.98319574468329
 20
-201.0296000000038
 30
0.0
 11
140.91199999999969
 21
-201.0296000000038
 31
0.0
  0
LINE
  5
440
  8
DATA
  6
CONTINUOUS
 62
     7
 10
134.9215999999997
 20
-192.9800000000038
 30
0.0
 11
134.9215999999997
 21
-193.90880425532089
 31
0.0
  0
LINE
  5
441
  8
DATA
  6
CONTINUOUS
 62
     7
 10
132.8623999999997
 20
-192.9800000000038
 30
0.0
 11
132.8623999999997
 21
-193.90880425532089
 31
0.0
  0
LINE
  5
442
  8
DATA
  6
CONTINUOUS
 62
     7
 10
134.9215999999997
 20
-206.0911957446875
 30
0.0
 11
134.9215999999997
 21
-207.02000000000379
 31
0.0
  0
LINE
  5
443
  8
DATA
  6
CONTINUOUS
 62
     7
 10
132.8623999999997
 20
-206.0911957446875
 30
0.0
 11
132.8623999999997
 21
-207.02000000000379
 31
0.0
  0
LINE
  5
444
  8
DATA
  6
CONTINUOUS
 62
     7
 10
134.9215999999997
 20
-192.9800000000038
 30
0.0
 11
134.9215999999997
 21
-193.90880425532089
 31
0.0
  0
LINE
  5
445
  8
DATA
  6
CONTINUOUS
 62
     7
 10
132.8623999999997
 20
-192.9800000000038
 30
0.0
 11
132.8623999999997
 21
-193.90880425532089
 31
0.0
  0
LINE
  5
446
  8
DATA
  6
CONTINUOUS
 62
     7
 10
134.9215999999997
 20
-206.0911957446875
 30
0.0
 11
134.9215999999997
 21
-207.02000000000379
 31
0.0
  0
LINE
  5
447
  8
DATA
  6
CONTINUOUS
 62
     7
 10
132.8623999999997
 20
-206.0911957446875
 30
0.0
 11
132.8623999999997
 21
-207.02000000000379
 31
0.0
  0
LINE
  5
448
  8
DATA
  6
CONTINUOUS
 62
     7
 10
134.9215999999997
 20
-192.9800000000038
 30
0.0
 11
134.9215999999997
 21
-193.90880425532089
 31
0.0
  0
LINE
  5
449
  8
DATA
  6
CONTINUOUS
 62
     7
 10
132.8623999999997
 20
-192.9800000000038
 30
0.0
 11
132.8623999999997
 21
-193.90880425532089
 31
0.0
  0
LINE
  5
44A
  8
DATA
  6
CONTINUOUS
 62
     7
 10
134.9215999999997
 20
-206.0911957446875
 30
0.0
 11
134.9215999999997
 21
-207.02000000000379
 31
0.0
  0
LINE
  5
44B
  8
DATA
  6
CONTINUOUS
 62
     7
 10
132.8623999999997
 20
-206.0911957446875
 30
0.0
 11
132.8623999999997
 21
-207.02000000000379
 31
0.0
  0
LINE
  5
44C
  8
DATA
  6
CONTINUOUS
 62
     7
 10
134.9215999999997
 20
-192.9800000000038
 30
0.0
 11
134.9215999999997
 21
-193.90880425532089
 31
0.0
  0
LINE
  5
44D
  8
DATA
  6
CONTINUOUS
 62
     7
 10
132.8623999999997
 20
-192.9800000000038
 30
0.0
 11
132.8623999999997
 21
-193.90880425532089
 31
0.0
  0
LINE
  5
44E
  8
DATA
  6
CONTINUOUS
 62
     7
 10
134.9215999999997
 20
-206.0911957446875
 30
0.0
 11
134.9215999999997
 21
-207.02000000000379
 31
0.0
  0
LINE
  5
44F
  8
DATA
  6
CONTINUOUS
 62
     7
 10
132.8623999999997
 20
-206.0911957446875
 30
0.0
 11
132.8623999999997
 21
-207.02000000000379
 31
0.0
  0
LINE
  5
450
  8
DATA
  6
CONTINUOUS
 62
     7
 10
141.2863999999997
 20
-208.6112
 30
0.0
 11
126.49759999999959
 21
-208.6112
 31
0.0
  0
ARC
  5
451
  8
DATA
  6
CONTINUOUS
 62
     7
 10
151.6760000000001
 20
-200.00000000000389
 30
0.0
 40
6.1776000000038733
 50
79.082582684189134
 51
280.91741731580311
  0
ARC
  5
452
  8
DATA
  6
CONTINUOUS
 62
     7
 10
151.6760000000001
 20
-200.00000000000389
 30
0.0
 40
6.177600000003828
 50
280.91741731580322
 51
79.082582684197163
  0
POLYLINE
  5
453
  8
DATA
  6
CONTINUOUS
 62
     7
 66
     1
 10
0.0
 20
0.0
 30
0.0
 70
     1
  0
VERTEX
  5
74C
  8
DATA
  6
CONTINUOUS
 62
     7
 10
144.65599999999969
 20
-192.97999999999999
 30
0.0
  0
VERTEX
  5
74D
  8
DATA
  6
CONTINUOUS
 62
     7
 10
158.6959999999996
 20
-192.97999999999999
 30
0.0
  0
VERTEX
  5
74E
  8
DATA
  6
CONTINUOUS
 62
     7
 10
158.6959999999996
 20
-207.02000000000001
 30
0.0
  0
VERTEX
  5
74F
  8
DATA
  6
CONTINUOUS
 62
     7
 10
144.65599999999969
 20
-207.02000000000001
 30
0.0
  0
SEQEND
  5
750
  8
DATA
  6
CONTINUOUS
 62
     7
  0
LINE
  5
45A
  8
DATA
  6
CONTINUOUS
 62
     7
 10
150.50599999999969
 20
-193.93420724389631
 30
0.0
 11
150.50599999999969
 21
-199.25120000000371
 31
0.0
  0
LINE
  5
45B
  8
DATA
  6
CONTINUOUS
 62
     7
 10
150.50599999999969
 20
-200.74880000000371
 30
0.0
 11
150.50599999999969
 21
-206.06579275610369
 31
0.0
  0
LINE
  5
45C
  8
DATA
  6
CONTINUOUS
 62
     7
 10
152.84599999999961
 20
-206.06579275610369
 30
0.0
 11
152.84599999999961
 21
-200.74880000000371
 31
0.0
  0
LINE
  5
45D
  8
DATA
  6
CONTINUOUS
 62
     7
 10
152.84599999999961
 20
-199.25120000000371
 30
0.0
 11
152.84599999999961
 21
-193.93420724389631
 31
0.0
  0
LINE
  5
45E
  8
DATA
  6
CONTINUOUS
 62
     7
 10
148.4936000000001
 20
-200.74880000000371
 30
0.0
 11
148.4936000000001
 21
-199.25120000000371
 31
0.0
  0
LINE
  5
45F
  8
DATA
  6
CONTINUOUS
 62
     7
 10
154.8584000000001
 20
-200.74880000000371
 30
0.0
 11
152.84599999999961
 21
-200.74880000000371
 31
0.0
  0
LINE
  5
460
  8
DATA
  6
CONTINUOUS
 62
     7
 10
150.50599999999969
 20
-200.74880000000371
 30
0.0
 11
148.4936000000001
 21
-200.74880000000371
 31
0.0
  0
LINE
  5
461
  8
DATA
  6
CONTINUOUS
 62
     7
 10
154.8584000000001
 20
-199.25120000000371
 30
0.0
 11
154.8584000000001
 21
-200.74880000000371
 31
0.0
  0
LINE
  5
462
  8
DATA
  6
CONTINUOUS
 62
     7
 10
148.4936000000001
 20
-199.25120000000371
 30
0.0
 11
150.50599999999969
 21
-199.25120000000371
 31
0.0
  0
LINE
  5
463
  8
DATA
  6
CONTINUOUS
 62
     7
 10
152.84599999999961
 20
-199.25120000000371
 30
0.0
 11
154.8584000000001
 21
-199.25120000000371
 31
0.0
  0
LINE
  5
464
  8
DATA
  6
CONTINUOUS
 62
     7
 10
144.65599999999969
 20
-198.97040000000371
 30
0.0
 11
145.58480425531681
 21
-198.97040000000371
 31
0.0
  0
LINE
  5
465
  8
DATA
  6
CONTINUOUS
 62
     7
 10
144.65599999999969
 20
-201.0296000000038
 30
0.0
 11
145.58480425531681
 21
-201.0296000000038
 31
0.0
  0
LINE
  5
466
  8
DATA
  6
CONTINUOUS
 62
     7
 10
157.76719574468339
 20
-198.97040000000371
 30
0.0
 11
158.6959999999996
 21
-198.97040000000371
 31
0.0
  0
LINE
  5
467
  8
DATA
  6
CONTINUOUS
 62
     7
 10
157.76719574468339
 20
-201.0296000000038
 30
0.0
 11
158.6959999999996
 21
-201.0296000000038
 31
0.0
  0
LINE
  5
468
  8
DATA
  6
CONTINUOUS
 62
     7
 10
152.70559999999969
 20
-192.9800000000038
 30
0.0
 11
152.70559999999969
 21
-193.90880425532089
 31
0.0
  0
LINE
  5
469
  8
DATA
  6
CONTINUOUS
 62
     7
 10
150.64639999999969
 20
-192.9800000000038
 30
0.0
 11
150.64639999999969
 21
-193.90880425532089
 31
0.0
  0
LINE
  5
46A
  8
DATA
  6
CONTINUOUS
 62
     7
 10
152.70559999999969
 20
-206.0911957446875
 30
0.0
 11
152.70559999999969
 21
-207.02000000000379
 31
0.0
  0
LINE
  5
46B
  8
DATA
  6
CONTINUOUS
 62
     7
 10
150.64639999999969
 20
-206.0911957446875
 30
0.0
 11
150.64639999999969
 21
-207.02000000000379
 31
0.0
  0
LINE
  5
46C
  8
DATA
  6
CONTINUOUS
 62
     7
 10
152.70559999999969
 20
-192.9800000000038
 30
0.0
 11
152.70559999999969
 21
-193.90880425532089
 31
0.0
  0
LINE
  5
46D
  8
DATA
  6
CONTINUOUS
 62
     7
 10
150.64639999999969
 20
-192.9800000000038
 30
0.0
 11
150.64639999999969
 21
-193.90880425532089
 31
0.0
  0
LINE
  5
46E
  8
DATA
  6
CONTINUOUS
 62
     7
 10
152.70559999999969
 20
-206.0911957446875
 30
0.0
 11
152.70559999999969
 21
-207.02000000000379
 31
0.0
  0
LINE
  5
46F
  8
DATA
  6
CONTINUOUS
 62
     7
 10
150.64639999999969
 20
-206.0911957446875
 30
0.0
 11
150.64639999999969
 21
-207.02000000000379
 31
0.0
  0
LINE
  5
470
  8
DATA
  6
CONTINUOUS
 62
     7
 10
152.70559999999969
 20
-192.9800000000038
 30
0.0
 11
152.70559999999969
 21
-193.90880425532089
 31
0.0
  0
LINE
  5
471
  8
DATA
  6
CONTINUOUS
 62
     7
 10
150.64639999999969
 20
-192.9800000000038
 30
0.0
 11
150.64639999999969
 21
-193.90880425532089
 31
0.0
  0
LINE
  5
472
  8
DATA
  6
CONTINUOUS
 62
     7
 10
152.70559999999969
 20
-206.0911957446875
 30
0.0
 11
152.70559999999969
 21
-207.02000000000379
 31
0.0
  0
LINE
  5
473
  8
DATA
  6
CONTINUOUS
 62
     7
 10
150.64639999999969
 20
-206.0911957446875
 30
0.0
 11
150.64639999999969
 21
-207.02000000000379
 31
0.0
  0
LINE
  5
474
  8
DATA
  6
CONTINUOUS
 62
     7
 10
152.70559999999969
 20
-192.9800000000038
 30
0.0
 11
152.70559999999969
 21
-193.90880425532089
 31
0.0
  0
LINE
  5
475
  8
DATA
  6
CONTINUOUS
 62
     7
 10
150.64639999999969
 20
-192.9800000000038
 30
0.0
 11
150.64639999999969
 21
-193.90880425532089
 31
0.0
  0
LINE
  5
476
  8
DATA
  6
CONTINUOUS
 62
     7
 10
152.70559999999969
 20
-206.0911957446875
 30
0.0
 11
152.70559999999969
 21
-207.02000000000379
 31
0.0
  0
LINE
  5
477
  8
DATA
  6
CONTINUOUS
 62
     7
 10
150.64639999999969
 20
-206.0911957446875
 30
0.0
 11
150.64639999999969
 21
-207.02000000000379
 31
0.0
  0
LINE
  5
478
  8
DATA
  6
CONTINUOUS
 62
     7
 10
159.07039999999969
 20
-208.6112
 30
0.0
 11
144.2815999999996
 21
-208.6112
 31
0.0
  0
ARC
  5
479
  8
DATA
  6
CONTINUOUS
 62
     7
 10
169.46000000000009
 20
-200.00000000000389
 30
0.0
 40
6.1776000000038733
 50
79.082582684189134
 51
280.91741731580339
  0
ARC
  5
47A
  8
DATA
  6
CONTINUOUS
 62
     7
 10
169.46000000000009
 20
-200.00000000000389
 30
0.0
 40
6.1776000000038351
 50
280.91741731580339
 51
79.082582684197121
  0
POLYLINE
  5
47B
  8
DATA
  6
CONTINUOUS
 62
     7
 66
     1
 10
0.0
 20
0.0
 30
0.0
 70
     1
  0
VERTEX
  5
751
  8
DATA
  6
CONTINUOUS
 62
     7
 10
162.4399999999996
 20
-192.97999999999999
 30
0.0
  0
VERTEX
  5
752
  8
DATA
  6
CONTINUOUS
 62
     7
 10
176.47999999999979
 20
-192.97999999999999
 30
0.0
  0
VERTEX
  5
753
  8
DATA
  6
CONTINUOUS
 62
     7
 10
176.47999999999979
 20
-207.02000000000001
 30
0.0
  0
VERTEX
  5
754
  8
DATA
  6
CONTINUOUS
 62
     7
 10
162.4399999999996
 20
-207.02000000000001
 30
0.0
  0
SEQEND
  5
755
  8
DATA
  6
CONTINUOUS
 62
     7
  0
LINE
  5
482
  8
DATA
  6
CONTINUOUS
 62
     7
 10
168.28999999999959
 20
-193.93420724389631
 30
0.0
 11
168.28999999999959
 21
-199.25120000000371
 31
0.0
  0
LINE
  5
483
  8
DATA
  6
CONTINUOUS
 62
     7
 10
168.28999999999959
 20
-200.74880000000371
 30
0.0
 11
168.28999999999959
 21
-206.06579275610369
 31
0.0
  0
LINE
  5
484
  8
DATA
  6
CONTINUOUS
 62
     7
 10
170.62999999999971
 20
-206.06579275610369
 30
0.0
 11
170.62999999999971
 21
-200.74880000000371
 31
0.0
  0
LINE
  5
485
  8
DATA
  6
CONTINUOUS
 62
     7
 10
170.62999999999971
 20
-199.25120000000371
 30
0.0
 11
170.62999999999971
 21
-193.93420724389631
 31
0.0
  0
LINE
  5
486
  8
DATA
  6
CONTINUOUS
 62
     7
 10
166.27760000000009
 20
-200.74880000000371
 30
0.0
 11
166.27760000000009
 21
-199.25120000000371
 31
0.0
  0
LINE
  5
487
  8
DATA
  6
CONTINUOUS
 62
     7
 10
172.64240000000009
 20
-200.74880000000371
 30
0.0
 11
170.62999999999971
 21
-200.74880000000371
 31
0.0
  0
LINE
  5
488
  8
DATA
  6
CONTINUOUS
 62
     7
 10
168.28999999999959
 20
-200.74880000000371
 30
0.0
 11
166.27760000000009
 21
-200.74880000000371
 31
0.0
  0
LINE
  5
489
  8
DATA
  6
CONTINUOUS
 62
     7
 10
172.64240000000009
 20
-199.25120000000371
 30
0.0
 11
172.64240000000009
 21
-200.74880000000371
 31
0.0
  0
LINE
  5
48A
  8
DATA
  6
CONTINUOUS
 62
     7
 10
166.27760000000009
 20
-199.25120000000371
 30
0.0
 11
168.28999999999959
 21
-199.25120000000371
 31
0.0
  0
LINE
  5
48B
  8
DATA
  6
CONTINUOUS
 62
     7
 10
170.62999999999971
 20
-199.25120000000371
 30
0.0
 11
172.64240000000009
 21
-199.25120000000371
 31
0.0
  0
LINE
  5
48C
  8
DATA
  6
CONTINUOUS
 62
     7
 10
162.4399999999996
 20
-198.97040000000371
 30
0.0
 11
163.3688042553168
 21
-198.97040000000371
 31
0.0
  0
LINE
  5
48D
  8
DATA
  6
CONTINUOUS
 62
     7
 10
162.4399999999996
 20
-201.0296000000038
 30
0.0
 11
163.36880425531669
 21
-201.0296000000038
 31
0.0
  0
LINE
  5
48E
  8
DATA
  6
CONTINUOUS
 62
     7
 10
175.5511957446835
 20
-198.97040000000371
 30
0.0
 11
176.47999999999979
 21
-198.97040000000371
 31
0.0
  0
LINE
  5
48F
  8
DATA
  6
CONTINUOUS
 62
     7
 10
175.5511957446835
 20
-201.0296000000038
 30
0.0
 11
176.47999999999979
 21
-201.0296000000038
 31
0.0
  0
LINE
  5
490
  8
DATA
  6
CONTINUOUS
 62
     7
 10
170.48959999999971
 20
-192.9800000000038
 30
0.0
 11
170.48959999999971
 21
-193.90880425532089
 31
0.0
  0
LINE
  5
491
  8
DATA
  6
CONTINUOUS
 62
     7
 10
168.43039999999971
 20
-192.9800000000038
 30
0.0
 11
168.43039999999971
 21
-193.90880425532089
 31
0.0
  0
LINE
  5
492
  8
DATA
  6
CONTINUOUS
 62
     7
 10
170.48959999999971
 20
-206.0911957446875
 30
0.0
 11
170.48959999999971
 21
-207.02000000000379
 31
0.0
  0
LINE
  5
493
  8
DATA
  6
CONTINUOUS
 62
     7
 10
168.43039999999971
 20
-206.0911957446875
 30
0.0
 11
168.43039999999971
 21
-207.02000000000379
 31
0.0
  0
LINE
  5
494
  8
DATA
  6
CONTINUOUS
 62
     7
 10
170.48959999999971
 20
-192.9800000000038
 30
0.0
 11
170.48959999999971
 21
-193.90880425532089
 31
0.0
  0
LINE
  5
495
  8
DATA
  6
CONTINUOUS
 62
     7
 10
168.43039999999971
 20
-192.9800000000038
 30
0.0
 11
168.43039999999971
 21
-193.90880425532089
 31
0.0
  0
LINE
  5
496
  8
DATA
  6
CONTINUOUS
 62
     7
 10
170.48959999999971
 20
-206.0911957446875
 30
0.0
 11
170.48959999999971
 21
-207.02000000000379
 31
0.0
  0
LINE
  5
497
  8
DATA
  6
CONTINUOUS
 62
     7
 10
168.43039999999971
 20
-206.0911957446875
 30
0.0
 11
168.43039999999971
 21
-207.02000000000379
 31
0.0
  0
LINE
  5
498
  8
DATA
  6
CONTINUOUS
 62
     7
 10
170.48959999999971
 20
-192.9800000000038
 30
0.0
 11
170.48959999999971
 21
-193.90880425532089
 31
0.0
  0
LINE
  5
499
  8
DATA
  6
CONTINUOUS
 62
     7
 10
168.43039999999971
 20
-192.9800000000038
 30
0.0
 11
168.43039999999971
 21
-193.90880425532089
 31
0.0
  0
LINE
  5
49A
  8
DATA
  6
CONTINUOUS
 62
     7
 10
170.48959999999971
 20
-206.0911957446875
 30
0.0
 11
170.48959999999971
 21
-207.02000000000379
 31
0.0
  0
LINE
  5
49B
  8
DATA
  6
CONTINUOUS
 62
     7
 10
168.43039999999971
 20
-206.0911957446875
 30
0.0
 11
168.43039999999971
 21
-207.02000000000379
 31
0.0
  0
LINE
  5
49C
  8
DATA
  6
CONTINUOUS
 62
     7
 10
170.48959999999971
 20
-192.9800000000038
 30
0.0
 11
170.48959999999971
 21
-193.90880425532089
 31
0.0
  0
LINE
  5
49D
  8
DATA
  6
CONTINUOUS
 62
     7
 10
168.43039999999971
 20
-192.9800000000038
 30
0.0
 11
168.43039999999971
 21
-193.90880425532089
 31
0.0
  0
LINE
  5
49E
  8
DATA
  6
CONTINUOUS
 62
     7
 10
170.48959999999971
 20
-206.0911957446875
 30
0.0
 11
170.48959999999971
 21
-207.02000000000379
 31
0.0
  0
LINE
  5
49F
  8
DATA
  6
CONTINUOUS
 62
     7
 10
168.43039999999971
 20
-206.0911957446875
 30
0.0
 11
168.43039999999971
 21
-207.02000000000379
 31
0.0
  0
LINE
  5
4A0
  8
DATA
  6
CONTINUOUS
 62
     7
 10
176.8543999999998
 20
-208.6112
 30
0.0
 11
162.06559999999971
 21
-208.6112
 31
0.0
  0
ARC
  5
4A1
  8
DATA
  6
CONTINUOUS
 62
     7
 10
187.24400000000051
 20
-200.00000000000389
 30
0.0
 40
6.1776000000038964
 50
79.082582684188083
 51
280.9174173158039
  0
ARC
  5
4A2
  8
DATA
  6
CONTINUOUS
 62
     7
 10
187.24400000000051
 20
-200.00000000000389
 30
0.0
 40
6.177600000003844
 50
280.9174173158039
 51
79.082582684196623
  0
POLYLINE
  5
4A3
  8
DATA
  6
CONTINUOUS
 62
     7
 66
     1
 10
0.0
 20
0.0
 30
0.0
 70
     1
  0
VERTEX
  5
756
  8
DATA
  6
CONTINUOUS
 62
     7
 10
180.2239999999999
 20
-192.97999999999999
 30
0.0
  0
VERTEX
  5
757
  8
DATA
  6
CONTINUOUS
 62
     7
 10
194.26400000000021
 20
-192.97999999999999
 30
0.0
  0
VERTEX
  5
758
  8
DATA
  6
CONTINUOUS
 62
     7
 10
194.26400000000021
 20
-207.02000000000001
 30
0.0
  0
VERTEX
  5
759
  8
DATA
  6
CONTINUOUS
 62
     7
 10
180.2239999999999
 20
-207.02000000000001
 30
0.0
  0
SEQEND
  5
75A
  8
DATA
  6
CONTINUOUS
 62
     7
  0
LINE
  5
4AA
  8
DATA
  6
CONTINUOUS
 62
     7
 10
186.0740000000001
 20
-193.93420724389631
 30
0.0
 11
186.0740000000001
 21
-199.25120000000371
 31
0.0
  0
LINE
  5
4AB
  8
DATA
  6
CONTINUOUS
 62
     7
 10
186.0740000000001
 20
-200.74880000000371
 30
0.0
 11
186.0740000000001
 21
-206.06579275610369
 31
0.0
  0
LINE
  5
4AC
  8
DATA
  6
CONTINUOUS
 62
     7
 10
188.41400000000019
 20
-206.06579275610369
 30
0.0
 11
188.41400000000019
 21
-200.74880000000371
 31
0.0
  0
LINE
  5
4AD
  8
DATA
  6
CONTINUOUS
 62
     7
 10
188.41400000000019
 20
-199.25120000000371
 30
0.0
 11
188.41400000000019
 21
-193.93420724389631
 31
0.0
  0
LINE
  5
4AE
  8
DATA
  6
CONTINUOUS
 62
     7
 10
184.0616000000004
 20
-200.74880000000371
 30
0.0
 11
184.0616000000004
 21
-199.25120000000371
 31
0.0
  0
LINE
  5
4AF
  8
DATA
  6
CONTINUOUS
 62
     7
 10
190.4264000000006
 20
-200.74880000000371
 30
0.0
 11
188.41400000000019
 21
-200.74880000000371
 31
0.0
  0
LINE
  5
4B0
  8
DATA
  6
CONTINUOUS
 62
     7
 10
186.0740000000001
 20
-200.74880000000371
 30
0.0
 11
184.0616000000004
 21
-200.74880000000371
 31
0.0
  0
LINE
  5
4B1
  8
DATA
  6
CONTINUOUS
 62
     7
 10
190.4264000000006
 20
-199.25120000000371
 30
0.0
 11
190.4264000000006
 21
-200.74880000000371
 31
0.0
  0
LINE
  5
4B2
  8
DATA
  6
CONTINUOUS
 62
     7
 10
184.0616000000004
 20
-199.25120000000371
 30
0.0
 11
186.0740000000001
 21
-199.25120000000371
 31
0.0
  0
LINE
  5
4B3
  8
DATA
  6
CONTINUOUS
 62
     7
 10
188.41400000000019
 20
-199.25120000000371
 30
0.0
 11
190.4264000000006
 21
-199.25120000000371
 31
0.0
  0
LINE
  5
4B4
  8
DATA
  6
CONTINUOUS
 62
     7
 10
180.2239999999999
 20
-198.97040000000371
 30
0.0
 11
181.15280425531719
 21
-198.97040000000371
 31
0.0
  0
LINE
  5
4B5
  8
DATA
  6
CONTINUOUS
 62
     7
 10
180.2239999999999
 20
-201.0296000000038
 30
0.0
 11
181.15280425531711
 21
-201.0296000000038
 31
0.0
  0
LINE
  5
4B6
  8
DATA
  6
CONTINUOUS
 62
     7
 10
193.335195744684
 20
-198.97040000000371
 30
0.0
 11
194.26400000000041
 21
-198.97040000000371
 31
0.0
  0
LINE
  5
4B7
  8
DATA
  6
CONTINUOUS
 62
     7
 10
193.335195744684
 20
-201.0296000000038
 30
0.0
 11
194.26400000000041
 21
-201.0296000000038
 31
0.0
  0
LINE
  5
4B8
  8
DATA
  6
CONTINUOUS
 62
     7
 10
188.2736000000001
 20
-192.9800000000038
 30
0.0
 11
188.2736000000001
 21
-193.90880425532089
 31
0.0
  0
LINE
  5
4B9
  8
DATA
  6
CONTINUOUS
 62
     7
 10
186.2144000000001
 20
-192.9800000000038
 30
0.0
 11
186.2144000000001
 21
-193.90880425532089
 31
0.0
  0
LINE
  5
4BA
  8
DATA
  6
CONTINUOUS
 62
     7
 10
188.2736000000001
 20
-206.0911957446875
 30
0.0
 11
188.2736000000001
 21
-207.02000000000379
 31
0.0
  0
LINE
  5
4BB
  8
DATA
  6
CONTINUOUS
 62
     7
 10
186.2144000000001
 20
-206.0911957446875
 30
0.0
 11
186.2144000000001
 21
-207.02000000000379
 31
0.0
  0
LINE
  5
4BC
  8
DATA
  6
CONTINUOUS
 62
     7
 10
188.2736000000001
 20
-192.9800000000038
 30
0.0
 11
188.2736000000001
 21
-193.90880425532089
 31
0.0
  0
LINE
  5
4BD
  8
DATA
  6
CONTINUOUS
 62
     7
 10
186.2144000000001
 20
-192.9800000000038
 30
0.0
 11
186.2144000000001
 21
-193.90880425532089
 31
0.0
  0
LINE
  5
4BE
  8
DATA
  6
CONTINUOUS
 62
     7
 10
188.2736000000001
 20
-206.0911957446875
 30
0.0
 11
188.2736000000001
 21
-207.02000000000379
 31
0.0
  0
LINE
  5
4BF
  8
DATA
  6
CONTINUOUS
 62
     7
 10
186.2144000000001
 20
-206.0911957446875
 30
0.0
 11
186.2144000000001
 21
-207.02000000000379
 31
0.0
  0
LINE
  5
4C0
  8
DATA
  6
CONTINUOUS
 62
     7
 10
188.2736000000001
 20
-192.9800000000038
 30
0.0
 11
188.2736000000001
 21
-193.90880425532089
 31
0.0
  0
LINE
  5
4C1
  8
DATA
  6
CONTINUOUS
 62
     7
 10
186.2144000000001
 20
-192.9800000000038
 30
0.0
 11
186.2144000000001
 21
-193.90880425532089
 31
0.0
  0
LINE
  5
4C2
  8
DATA
  6
CONTINUOUS
 62
     7
 10
188.2736000000001
 20
-206.0911957446875
 30
0.0
 11
188.2736000000001
 21
-207.02000000000379
 31
0.0
  0
LINE
  5
4C3
  8
DATA
  6
CONTINUOUS
 62
     7
 10
186.2144000000001
 20
-206.0911957446875
 30
0.0
 11
186.2144000000001
 21
-207.02000000000379
 31
0.0
  0
LINE
  5
4C4
  8
DATA
  6
CONTINUOUS
 62
     7
 10
188.2736000000001
 20
-192.9800000000038
 30
0.0
 11
188.2736000000001
 21
-193.90880425532089
 31
0.0
  0
LINE
  5
4C5
  8
DATA
  6
CONTINUOUS
 62
     7
 10
186.2144000000001
 20
-192.9800000000038
 30
0.0
 11
186.2144000000001
 21
-193.90880425532089
 31
0.0
  0
LINE
  5
4C6
  8
DATA
  6
CONTINUOUS
 62
     7
 10
188.2736000000001
 20
-206.0911957446875
 30
0.0
 11
188.2736000000001
 21
-207.02000000000379
 31
0.0
  0
LINE
  5
4C7
  8
DATA
  6
CONTINUOUS
 62
     7
 10
186.2144000000001
 20
-206.0911957446875
 30
0.0
 11
186.2144000000001
 21
-207.02000000000379
 31
0.0
  0
CIRCLE
  5
4C8
  8
DATA
  6
CONTINUOUS
 62
     7
 10
98.323999999999984
 20
-200.0
 30
0.0
 40
2.8079999999999639
  0
TEXT
  5
4C9
  8
DATA
 62
     7
 10
56.190929694867151
 20
-172.2557085066916
 30
0.0
 40
6.8411328124999988
  1
(-)
 41
0.7
 11
56.190929694867151
 21
-165.4145756941916
 31
0.0
 73
     3
1001
ACADANNOTATIVE
1000
AnnotativeData
1002
{
1070
     1
1070
     0
1002
}
  0
TEXT
  5
4CA
  8
DATA
 62
     7
 10
73.859377195887816
 20
-172.33644613494869
 30
0.0
 40
6.8411328124999988
  1
(+)
 41
0.7
 11
73.859377195887816
 21
-165.49531332244871
 31
0.0
 73
     3
1001
ACADANNOTATIVE
1000
AnnotativeData
1002
{
1070
     1
1070
     0
1002
}
  0
TEXT
  5
4CB
  8
DATA
 62
     7
 10
93.975119566338748
 20
-172.0995373115945
 30
0.0
 40
6.8411328124999988
  1
NC
 41
0.7
 11
93.975119566338748
 21
-165.2584044990945
 31
0.0
 73
     3
1001
ACADANNOTATIVE
1000
AnnotativeData
1002
{
1070
     1
1070
     0
1002
}
  0
TEXT
  5
4CC
  8
DATA
 62
     7
 10
109.44128091450629
 20
-178.27597461489739
 30
0.0
 40
6.8411328124999988
  1
15W
 41
0.7
 11
109.44128091450629
 21
-171.43484180239739
 31
0.0
 73
     3
1001
ACADANNOTATIVE
1000
AnnotativeData
1002
{
1070
     1
1070
     0
1002
}
  0
TEXT
  5
4CD
  8
DATA
 62
     7
 10
127.2972809145061
 20
-178.5181877884101
 30
0.0
 40
6.8411328124999988
  1
30W
 41
0.7
 11
127.2972809145061
 21
-171.6770549759101
 31
0.0
 73
     3
1001
ACADANNOTATIVE
1000
AnnotativeData
1002
{
1070
     1
1070
     0
1002
}
  0
TEXT
  5
4CE
  8
DATA
 62
     7
 10
144.91106767602679
 20
-178.27597451383821
 30
0.0
 40
6.8411328124999988
  1
60W
 41
0.7
 11
144.91106767602679
 21
-171.4348417013382
 31
0.0
 73
     3
1001
ACADANNOTATIVE
1000
AnnotativeData
1002
{
1070
     1
1070
     0
1002
}
  0
TEXT
  5
4CF
  8
DATA
 62
     7
 10
160.5871488545462
 20
-178.39708174304209
 30
0.0
 40
6.8411328124999988
  1
120W
 41
0.7
 11
160.5871488545462
 21
-171.55594893054209
 31
0.0
 73
     3
1001
ACADANNOTATIVE
1000
AnnotativeData
1002
{
1070
     1
1070
     0
1002
}
  0
TEXT
  5
4D0
  8
DATA
 62
     7
 10
180.623068065827
 20
-178.51818836589101
 30
0.0
 40
6.8411328124999988
  1
COM(-)
 41
0.7
 11
180.623068065827
 21
-171.677055553391
 31
0.0
 73
     3
1001
ACADANNOTATIVE
1000
AnnotativeData
1002
{
1070
     1
1070
     0
1002
}
  0
TEXT
  5
4D1
  8
DATA
 62
     7
 10
109.44128091450629
 20
-164.6410358398619
 30
0.0
 40
6.8411328124999988
  1
30W
 41
0.7
 11
109.44128091450629
 21
-157.79990302736189
 31
0.0
 73
     3
1001
ACADANNOTATIVE
1000
AnnotativeData
1002
{
1070
     1
1070
     0
1002
}
  0
TEXT
  5
4D2
  8
DATA
 62
     7
 10
127.2972809145061
 20
-164.88324901337461
 30
0.0
 40
6.8411328124999988
  1
60W
 41
0.7
 11
127.2972809145061
 21
-158.0421162008746
 31
0.0
 73
     3
1001
ACADANNOTATIVE
1000
AnnotativeData
1002
{
1070
     1
1070
     0
1002
}
  0
TEXT
  5
4D3
  8
DATA
 62
     7
 10
144.91106767602679
 20
-164.64103573880271
 30
0.0
 40
6.8411328124999988
  1
120W
 41
0.7
 11
144.91106767602679
 21
-157.79990292630271
 31
0.0
 73
     3
1001
ACADANNOTATIVE
1000
AnnotativeData
1002
{
1070
     1
1070
     0
1002
}
  0
TEXT
  5
4D4
  8
DATA
 62
     7
 10
165.6534383957374
 20
-164.7621429680066
 30
0.0
 40
6.8411328124999988
  1
NC
 41
0.7
 11
165.6534383957374
 21
-157.92101015550659
 31
0.0
 73
     3
1001
ACADANNOTATIVE
1000
AnnotativeData
1002
{
1070
     1
1070
     0
1002
}
  0
TEXT
  5
4D5
  8
DATA
 62
     7
 10
180.623068065827
 20
-164.88324959085551
 30
0.0
 40
6.8411328124999988
  1
COM(-)
 41
0.7
 11
180.623068065827
 21
-158.04211677835551
 31
0.0
 73
     3
1001
ACADANNOTATIVE
1000
AnnotativeData
1002
{
1070
     1
1070
     0
1002
}
  0
TEXT
  5
4D6
  8
DATA
 62
     7
 10
232.228600530406
 20
-178.39708187297529
 30
0.0
 40
6.8411328124999988
  1
70V
 41
0.7
 11
232.228600530406
 21
-171.55594906047531
 31
0.0
 73
     3
1001
ACADANNOTATIVE
1000
AnnotativeData
1002
{
1070
     1
1070
     0
1002
}
  0
TEXT
  5
4D7
  8
DATA
 62
     7
 10
227.74766029252541
 20
-165.2637741911484
 30
0.0
 40
6.8411328124999988
  1
100V
 41
0.7
 11
227.74766029252541
 21
-158.42264137864839
 31
0.0
 73
     3
1001
ACADANNOTATIVE
1000
AnnotativeData
1002
{
1070
     1
1070
     0
1002
}
  0
LINE
  5
4D8
  8
DATA
  6
CONTINUOUS
 62
     7
 10
210.42462928414349
 20
-174.99483765074311
 30
0.0
 11
225.24658409167731
 21
-174.99483765074311
 31
0.0
  0
LINE
  5
4D9
  8
DATA
  6
CONTINUOUS
 62
     7
 10
210.42462928414349
 20
-174.99483765074311
 30
0.0
 11
213.50066580038029
 21
-173.21888714005669
 31
0.0
  0
LINE
  5
4DA
  8
DATA
  6
CONTINUOUS
 62
     7
 10
210.42462928414349
 20
-174.99483765074311
 30
0.0
 11
213.50066580038029
 21
-176.77078816142949
 31
0.0
  0
LINE
  5
4DB
  8
DATA
  6
CONTINUOUS
 62
     7
 10
210.42462928414349
 20
-161.86675992486369
 30
0.0
 11
225.24658409167731
 21
-161.86675992486369
 31
0.0
  0
LINE
  5
4DC
  8
DATA
  6
CONTINUOUS
 62
     7
 10
210.42462928414349
 20
-161.86675992486369
 30
0.0
 11
213.50066580038029
 21
-160.09080941417739
 31
0.0
  0
LINE
  5
4DD
  8
DATA
  6
CONTINUOUS
 62
     7
 10
210.42462928414349
 20
-161.86675992486369
 30
0.0
 11
213.50066580038029
 21
-163.6427104355501
 31
0.0
  0
TEXT
  5
4DE
  8
DATA
 62
     7
 10
58.350442468742017
 20
-253.4844127304145
 30
0.0
 40
6.8411328124999988
  1
Out to
 41
0.7
 11
58.350442468742017
 21
-246.64327991791461
 31
0.0
 73
     3
1001
ACADANNOTATIVE
1000
AnnotativeData
1002
{
1070
     1
1070
     0
1002
}
  0
TEXT
  5
4DF
  8
DATA
 62
     7
 10
51.810697893185178
 20
-263.4203701138515
 30
0.0
 40
6.8411328124999988
  1
CBT Input
 41
0.7
 11
51.810697893185178
 21
-256.57923730135161
 31
0.0
 73
     3
1001
ACADANNOTATIVE
1000
AnnotativeData
1002
{
1070
     1
1070
     0
1002
}
  0
TEXT
  5
4E0
  8
DATA
 62
     7
 10
51.810697893185178
 20
-274.38573175227549
 30
0.0
 40
6.8411328124999988
  1
Terminals
 41
0.7
 11
51.810697893185178
 21
-267.54459893977548
 31
0.0
 73
     3
1001
ACADANNOTATIVE
1000
AnnotativeData
1002
{
1070
     1
1070
     0
1002
}
  0
LINE
  5
4E1
  8
DATA
  6
CONTINUOUS
 62
     7
 10
71.313761774244867
 20
-218.21302048521451
 30
0.0
 11
71.313761774244867
 21
-242.2730204852146
 31
0.0
  0
LINE
  5
4E2
  8
DATA
  6
CONTINUOUS
 62
     7
 10
71.313761774244867
 20
-242.2730204852146
 30
0.0
 11
68.761545716338432
 21
-232.7480204852146
 31
0.0
  0
LINE
  5
4E3
  8
DATA
  6
CONTINUOUS
 62
     7
 10
71.313761774244867
 20
-242.2730204852146
 30
0.0
 11
73.86597783215133
 21
-232.7480204852146
 31
0.0
  0
LINE
  5
4E4
  8
DATA
  6
CONTINUOUS
 62
     7
 10
151.48164874940821
 20
-242.2730204852146
 30
0.0
 11
151.48164874940821
 21
-218.21302048521451
 31
0.0
  0
LINE
  5
4E5
  8
DATA
  6
CONTINUOUS
 62
     7
 10
151.48164874940821
 20
-218.21302048521451
 30
0.0
 11
154.03386480731459
 21
-227.73802048521449
 31
0.0
  0
LINE
  5
4E6
  8
DATA
  6
CONTINUOUS
 62
     7
 10
151.48164874940821
 20
-218.21302048521451
 30
0.0
 11
148.92943269150169
 21
-227.73802048521449
 31
0.0
  0
TEXT
  5
4E7
  8
DATA
 62
     7
 10
137.8858338904129
 20
-253.4844127304145
 30
0.0
 40
6.8411328124999988
  1
In from
 41
0.7
 11
137.8858338904129
 21
-246.64327991791461
 31
0.0
 73
     3
1001
ACADANNOTATIVE
1000
AnnotativeData
1002
{
1070
     1
1070
     0
1002
}
  0
TEXT
  5
4E8
  8
DATA
 62
     7
 10
136.25089423833271
 20
-263.4203701138515
 30
0.0
 40
6.8411328124999988
  1
70V/100V
 41
0.7
 11
136.25089423833271
 21
-256.57923730135161
 31
0.0
 73
     3
1001
ACADANNOTATIVE
1000
AnnotativeData
1002
{
1070
     1
1070
     0
1002
}
  0
TEXT
  5
4E9
  8
DATA
 62
     7
 10
134.0709809390097
 20
-274.38573175227549
 30
0.0
 40
6.8411328124999988
  1
Amplifier
 41
0.7
 11
134.0709809390097
 21
-267.54459893977548
 31
0.0
 73
     3
1001
ACADANNOTATIVE
1000
AnnotativeData
1002
{
1070
     1
1070
     0
1002
}
  0
CIRCLE
  5
4EA
  8
DATA
  6
CONTINUOUS
 62
     7
 10
44.97200000000003
 20
-200.00000000000011
 30
0.0
 40
3.9600000000000222
  0
LINE
  5
4EB
  8
DATA
  6
CONTINUOUS
 62
     7
 10
42.932000000000052
 20
-200.00000000000011
 30
0.0
 11
47.012000000000057
 21
-200.00000000000011
 31
0.0
  0
LINE
  5
4EC
  8
DATA
  6
CONTINUOUS
 62
     7
 10
44.97200000000003
 20
-202.03999999999999
 30
0.0
 11
44.97200000000003
 21
-197.96000000000009
 31
0.0
  0
CIRCLE
  5
4ED
  8
DATA
  6
CONTINUOUS
 62
     7
 10
205.05200000000039
 20
-200.00000000000011
 30
0.0
 40
3.9600000000000359
  0
LINE
  5
4EE
  8
DATA
  6
CONTINUOUS
 62
     7
 10
203.01200000000051
 20
-200.00000000000011
 30
0.0
 11
207.09200000000041
 21
-200.00000000000011
 31
0.0
  0
LINE
  5
4EF
  8
DATA
  6
CONTINUOUS
 62
     7
 10
205.05200000000039
 20
-202.03999999999999
 30
0.0
 11
205.05200000000039
 21
-197.96000000000009
 31
0.0
  0
TEXT
  5
4F0
  8
DATA
 62
     7
 10
191.11467027769839
 20
-230.3321831732203
 30
0.0
 40
6.8411328124999988
  1
Connect"-"to COM
 41
0.7
 11
191.11467027769839
 21
-223.49105036072029
 31
0.0
 73
     3
1001
ACADANNOTATIVE
1000
AnnotativeData
1002
{
1070
     1
1070
     0
1002
}
  0
TEXT
  5
4F1
  8
DATA
 62
     7
 10
208.996882498368
 20
-240.14702633092881
 30
0.0
 40
6.8411328124999988
  1
and"+"to
 41
0.7
 11
208.996882498368
 21
-233.3058935184288
 31
0.0
 73
     3
1001
ACADANNOTATIVE
1000
AnnotativeData
1002
{
1070
     1
1070
     0
1002
}
  0
TEXT
  5
4F2
  8
DATA
 62
     7
 10
191.11467027769839
 20
-250.1540229892473
 30
0.0
 40
6.8411328124999988
  1
properinput tap
 41
0.7
 11
191.11467027769839
 21
-243.31289017674729
 31
0.0
 73
     3
1001
ACADANNOTATIVE
1000
AnnotativeData
1002
{
1070
     1
1070
     0
1002
}
  0
TEXT
  5
4F3
  8
DATA
 62
     7
 10
70.62274854767945
 20
-297.14170083478098
 30
0.0
 40
8.1442057291666661
  1
トランス端子部拡大図
 41
0.7
 11
70.62274854767945
 21
-288.99749510561441
 31
0.0
 73
     3
1001
ACADANNOTATIVE
1000
AnnotativeData
1002
{
1070
     1
1070
     0
1002
}
  0
LINE
  5
4F4
  8
DATA
  6
CONTINUOUS
 62
     7
 10
70.799999999999997
 20
-300.0
 30
0.0
 11
179.1999999999999
 21
-300.0
 31
0.0
  0
TEXT
  5
4F5
  8
DATA
 62
     7
 10
65.423000000000499
 20
-151.13321735409519
 30
0.0
 40
5.7009440104166647
  1
Green
 50
90.0
 41
0.7
 11
59.722055989583829
 21
-151.13321735409519
 31
0.0
 73
     3
1001
ACADANNOTATIVE
1000
AnnotativeData
1002
{
1070
     1
1070
     0
1002
}
  0
TEXT
  5
4F6
  8
DATA
 62
     7
 10
83.223000000000482
 20
-151.13321735409519
 30
0.0
 40
5.7009440104166647
  1
Yellow
 50
90.0
 41
0.7
 11
77.522055989583819
 21
-151.13321735409519
 31
0.0
 73
     3
1001
ACADANNOTATIVE
1000
AnnotativeData
1002
{
1070
     1
1070
     0
1002
}
  0
TEXT
  5
4F7
  8
DATA
 62
     7
 10
101.02300000000049
 20
-151.13321735409519
 30
0.0
 40
5.7009440104166647
  1
(none)
 50
90.0
 41
0.7
 11
95.322055989583816
 21
-151.13321735409519
 31
0.0
 73
     3
1001
ACADANNOTATIVE
1000
AnnotativeData
1002
{
1070
     1
1070
     0
1002
}
  0
TEXT
  5
4F8
  8
DATA
 62
     7
 10
118.8230000000005
 20
-151.13321735409519
 30
0.0
 40
5.7009440104166647
  1
White
 50
90.0
 41
0.7
 11
113.1220559895838
 21
-151.13321735409519
 31
0.0
 73
     3
1001
ACADANNOTATIVE
1000
AnnotativeData
1002
{
1070
     1
1070
     0
1002
}
  0
TEXT
  5
4F9
  8
DATA
 62
     7
 10
136.62300000000039
 20
-151.13321735409519
 30
0.0
 40
5.7009440104166647
  1
Blue
 50
90.0
 41
0.7
 11
130.92205598958381
 21
-151.13321735409519
 31
0.0
 73
     3
1001
ACADANNOTATIVE
1000
AnnotativeData
1002
{
1070
     1
1070
     0
1002
}
  0
TEXT
  5
4FA
  8
DATA
 62
     7
 10
154.42300000000051
 20
-151.13321735409519
 30
0.0
 40
5.7009440104166647
  1
Purple
 50
90.0
 41
0.7
 11
148.72205598958379
 21
-151.13321735409519
 31
0.0
 73
     3
1001
ACADANNOTATIVE
1000
AnnotativeData
1002
{
1070
     1
1070
     0
1002
}
  0
TEXT
  5
4FB
  8
DATA
 62
     7
 10
172.2230000000005
 20
-151.13321735409519
 30
0.0
 40
5.7009440104166647
  1
Orange
 50
90.0
 41
0.7
 11
166.52205598958381
 21
-151.13321735409519
 31
0.0
 73
     3
1001
ACADANNOTATIVE
1000
AnnotativeData
1002
{
1070
     1
1070
     0
1002
}
  0
TEXT
  5
4FC
  8
DATA
 62
     7
 10
190.02300000000039
 20
-151.13321735409519
 30
0.0
 40
5.7009440104166647
  1
Black
 50
90.0
 41
0.7
 11
184.3220559895837
 21
-151.13321735409519
 31
0.0
 73
     3
1001
ACADANNOTATIVE
1000
AnnotativeData
1002
{
1070
     1
1070
     0
1002
}
  0
ENDSEC
  0
EOF
