  0
SECTION
  2
HEADER
  9
$ACADVER
  1
AC1009
  9
$INSBASE
 10
0.0
 20
0.0
 30
0.0
  9
$EXTMIN
 10
-575.04119558730315
 20
-867.37377437613566
 30
-0.0015258207003583
  9
$EXTMAX
 10
775.04120187373019
 20
1138.0179281775629
 30
0.0000000349246037
  9
$LIMMIN
 10
0.0
 20
0.0
  9
$LIMMAX
 10
0.0
 20
0.0
  9
$ORTHOMODE
 70
     0
  9
$REGENMODE
 70
     1
  9
$FILLMODE
 70
     1
  9
$QTEXTMODE
 70
     0
  9
$MIRRTEXT
 70
     1
  9
$DRAGMODE
 70
     2
  9
$LTSCALE
 40
38.100000000000001
  9
$OSMODE
 70
   167
  9
$ATTMODE
 70
     1
  9
$TEXTSIZE
 40
0.0
  9
$TRACEWID
 40
1.0
  9
$TEXTSTYLE
  7
STANDARD
  9
$CLAYER
  8
DATA
  9
$CELTYPE
  6
CONTINUOUS
  9
$CECOLOR
 62
   256
  9
$DIMSCALE
 40
1.0
  9
$DIMASZ
 40
0.18
  9
$DIMEXO
 40
0.0625
  9
$DIMDLI
 40
0.38
  9
$DIMRND
 40
0.0
  9
$DIMDLE
 40
0.0
  9
$DIMEXE
 40
0.18
  9
$DIMTP
 40
0.0
  9
$DIMTM
 40
0.0
  9
$DIMTXT
 40
0.18
  9
$DIMCEN
 40
0.09
  9
$DIMTSZ
 40
0.0
  9
$DIMTOL
 70
     0
  9
$DIMLIM
 70
     0
  9
$DIMTIH
 70
     1
  9
$DIMTOH
 70
     1
  9
$DIMSE1
 70
     0
  9
$DIMSE2
 70
     0
  9
$DIMTAD
 70
     0
  9
$DIMZIN
 70
     0
  9
$DIMBLK
  1

  9
$DIMASO
 70
     1
  9
$DIMSHO
 70
     1
  9
$DIMPOST
  1

  9
$DIMAPOST
  1

  9
$DIMALT
 70
     0
  9
$DIMALTD
 70
     2
  9
$DIMALTF
 40
25.399999999999999
  9
$DIMLFAC
 40
1.0
  9
$DIMTOFL
 70
     0
  9
$DIMTVP
 40
0.0
  9
$DIMTIX
 70
     0
  9
$DIMSOXD
 70
     0
  9
$DIMSAH
 70
     0
  9
$DIMBLK1
  1

  9
$DIMBLK2
  1

  9
$DIMSTYLE
  2
STANDARD
  9
$DIMCLRD
 70
     0
  9
$DIMCLRE
 70
     0
  9
$DIMCLRT
 70
     0
  9
$DIMTFAC
 40
1.0
  9
$DIMGAP
 40
0.09
  9
$LUNITS
 70
     2
  9
$LUPREC
 70
     4
  9
$SKETCHINC
 40
0.1
  9
$FILLETRAD
 40
0.0
  9
$AUNITS
 70
     0
  9
$AUPREC
 70
     0
  9
$MENU
  1
acad
  9
$ELEVATION
 40
0.0
  9
$PELEVATION
 40
0.0
  9
$THICKNESS
 40
0.0
  9
$LIMCHECK
 70
     0
  9
$BLIPMODE
 70
     0
  9
$CHAMFERA
 40
0.0
  9
$CHAMFERB
 40
0.0
  9
$SKPOLY
 70
     0
  9
$TDCREATE
 40
2452744.7532291668
  9
$TDUPDATE
 40
2452744.7535497681
  9
$TDINDWG
 40
0.0002498843
  9
$TDUSRTIMER
 40
0.0002498843
  9
$USRTIMER
 70
     1
  9
$ANGBASE
 50
0.0
  9
$ANGDIR
 70
     0
  9
$PDMODE
 70
     1
  9
$PDSIZE
 40
-2.0
  9
$PLINEWID
 40
0.0
  9
$COORDS
 70
     0
  9
$SPLFRAME
 70
     0
  9
$SPLINETYPE
 70
     6
  9
$SPLINESEGS
 70
     8
  9
$ATTDIA
 70
     0
  9
$ATTREQ
 70
     1
  9
$HANDLING
 70
     1
  9
$HANDSEED
  5
19B
  9
$SURFTAB1
 70
     6
  9
$SURFTAB2
 70
     6
  9
$SURFTYPE
 70
     6
  9
$SURFU
 70
     6
  9
$SURFV
 70
     6
  9
$UCSNAME
  2

  9
$UCSORG
 10
0.0
 20
0.0
 30
0.0
  9
$UCSXDIR
 10
1.0
 20
0.0
 30
0.0
  9
$UCSYDIR
 10
0.0
 20
1.0
 30
0.0
  9
$PUCSNAME
  2

  9
$PUCSORG
 10
0.0
 20
0.0
 30
0.0
  9
$PUCSXDIR
 10
1.0
 20
0.0
 30
0.0
  9
$PUCSYDIR
 10
0.0
 20
1.0
 30
0.0
  9
$USERI1
 70
     0
  9
$USERI2
 70
     0
  9
$USERI3
 70
     0
  9
$USERI4
 70
     0
  9
$USERI5
 70
     0
  9
$USERR1
 40
0.0
  9
$USERR2
 40
0.0
  9
$USERR3
 40
0.0
  9
$USERR4
 40
0.0
  9
$USERR5
 40
0.0
  9
$WORLDVIEW
 70
     1
  9
$SHADEDGE
 70
     3
  9
$SHADEDIF
 70
    70
  9
$TILEMODE
 70
     1
  9
$MAXACTVP
 70
    16
  9
$PLIMCHECK
 70
     0
  9
$PEXTMIN
 10
1.0000000000000000E+020
 20
1.0000000000000000E+020
 30
1.0000000000000000E+020
  9
$PEXTMAX
 10
-1.0000000000000000E+020
 20
-1.0000000000000000E+020
 30
-1.0000000000000000E+020
  9
$PLIMMIN
 10
0.0
 20
0.0
  9
$PLIMMAX
 10
12.0
 20
9.0
  9
$UNITMODE
 70
     0
  9
$VISRETAIN
 70
     0
  9
$PLINEGEN
 70
     1
  9
$PSLTSCALE
 70
     0
  0
ENDSEC
  0
SECTION
  2
TABLES
  0
TABLE
  2
VPORT
 70
     2
  0
VPORT
  2
*ACTIVE
 70
     0
 10
0.0
 20
0.0
 11
1.0
 21
1.0
 12
100.0000031432136
 22
135.32207690071391
 13
0.0
 23
0.0
 14
1.0
 24
1.0
 15
0.0
 25
0.0
 16
0.0
 26
0.0
 36
1.0
 17
0.0
 27
0.0
 37
0.0
 40
2026.9550541940609
 41
1.703770197486534
 42
50.0
 43
0.0
 44
0.0
 50
0.0
 51
0.0
 71
     0
 72
   100
 73
     1
 74
     1
 75
     0
 76
     0
 77
     0
 78
     0
  0
ENDTAB
  0
TABLE
  2
LTYPE
 70
    11
  0
LTYPE
  2
CONTINUOUS
 70
     0
  3
Solid line
 72
    65
 73
     0
 40
0.0
  0
LTYPE
  2
STYLE_01
 70
     0
  3

 72
    65
 73
     2
 40
0.4166412353515625
 49
0.208282470703125
 49
-0.2083587646484375
  0
LTYPE
  2
STYLE_02
 70
     0
  3

 72
    65
 73
     2
 40
0.694427490234375
 49
0.4860687255859375
 49
-0.2083587646484375
  0
LTYPE
  2
STYLE_03
 70
     0
  3

 72
    65
 73
     2
 40
1.25
 49
1.0416412353515621
 49
-0.2083587646484375
  0
LTYPE
  2
STYLE_04
 70
     0
  3

 72
    65
 73
     2
 40
1.5277099609375
 49
1.319427490234375
 49
-0.208282470703125
  0
LTYPE
  2
STYLE_05
 70
     0
  3

 72
    65
 73
     2
 40
0.208282470703125
 49
0.069427490234375
 49
-0.13885498046875
  0
LTYPE
  2
STYLE_06
 70
     0
  3

 72
    65
 73
     4
 40
1.0416412353515621
 49
0.625
 49
-0.208282470703125
 49
0.069427490234375
 49
-0.1389312744140625
  0
LTYPE
  2
STYLE_07
 70
     0
  3

 72
    65
 73
     6
 40
1.875
 49
0.625
 49
-0.208282470703125
 49
0.625
 49
-0.2083587646484375
 49
0.069427490234375
 49
-0.1389312744140625
  0
LTYPE
  2
STYLE_08
 70
     0
  3

 72
    65
 73
     6
 40
1.25
 49
0.625
 49
-0.208282470703125
 49
0.069427490234375
 49
-0.1389312744140625
 49
0.069427490234375
 49
-0.1389312744140625
  0
LTYPE
  2
STYLE_09
 70
     0
  3

 72
    65
 73
     4
 40
5.0
 49
3.75
 49
-0.2777862548828125
 49
0.694427490234375
 49
-0.2777862548828125
  0
LTYPE
  2
STYLE_10
 70
     0
  3

 72
    65
 73
     6
 40
5.9375
 49
3.75
 49
-0.2777862548828125
 49
0.694427490234375
 49
-0.2777862548828125
 49
0.625
 49
-0.3125
  0
ENDTAB
  0
TABLE
  2
LAYER
 70
     4
  0
LAYER
  2
0
 70
     0
 62
     7
  6
CONTINUOUS
  0
LAYER
  2
HIBINO-BASE
 70
     0
 62
     7
  6
CONTINUOUS
  0
LAYER
  2
DIMNSIONS
 70
     0
 62
     7
  6
CONTINUOUS
  0
LAYER
  2
DATA
 70
     0
 62
     7
  6
CONTINUOUS
  0
ENDTAB
  0
TABLE
  2
STYLE
 70
     2
  0
STYLE
  2
STANDARD
 70
     0
 40
0.0
 41
1.0
 50
0.0
 71
     0
 42
0.0
  3
txt
  4
BIGFONT.SHX
  0
ENDTAB
  0
TABLE
  2
VIEW
 70
     0
  0
ENDTAB
  0
TABLE
  2
UCS
 70
     0
  0
ENDTAB
  0
TABLE
  2
APPID
 70
     1
  0
APPID
  2
ACAD
 70
     0
  0
ENDTAB
  0
TABLE
  2
DIMSTYLE
 70
     1
  0
DIMSTYLE
  2
STANDARD
 70
     0
  3

  4

  5

  6

  7

 40
1.0
 41
0.18
 42
0.0625
 43
0.38
 44
0.18
 45
0.0
 46
0.0
 47
0.0
 48
0.0
140
0.18
141
0.09
142
0.0
143
25.399999999999999
144
1.0
145
0.0
146
1.0
147
0.09
 71
     0
 72
     0
 73
     1
 74
     1
 75
     0
 76
     0
 77
     0
 78
     0
170
     0
171
     2
172
     0
173
     0
174
     0
175
     0
176
     0
177
     0
178
     0
  0
ENDTAB
  0
ENDSEC
  0
SECTION
  2
BLOCKS
  0
BLOCK
  8
0
  2
$MODEL_SPACE
 70
     0
 10
0.0
 20
0.0
 30
0.0
  3
$MODEL_SPACE
  1

  0
ENDBLK
  5
17E
  8
0
  0
BLOCK
 67
     1
  8
0
  2
$PAPER_SPACE
 70
     0
 10
0.0
 20
0.0
 30
0.0
  3
$PAPER_SPACE
  1

  0
ENDBLK
  5
17A
 67
     1
  8
0
  0
ENDSEC
  0
SECTION
  2
ENTITIES
  0
LINE
  5
2B
  8
HIBINO-BASE
  6
CONTINUOUS
 62
     7
 10
-574.99999999999989
 20
1137.9567975
 30
0.0
 11
775.0
 21
1137.9567975
 31
0.0
  0
LINE
  5
2C
  8
HIBINO-BASE
  6
CONTINUOUS
 62
     7
 10
775.0
 20
-812.04320250000012
 30
0.0
 11
-574.99999999999989
 21
-812.04320250000012
 31
0.0
  0
LINE
  5
2D
  8
HIBINO-BASE
  6
CONTINUOUS
 62
     7
 10
-574.99999999999989
 20
-812.04320250000012
 30
0.0
 11
-574.99999999999989
 21
1137.9567975
 31
0.0
  0
TEXT
  5
2E
  8
HIBINO-BASE
  6
CONTINUOUS
 62
     7
 10
-521.11999999999978
 20
-858.00308249999989
 30
0.0
 40
28.069379999999988
  1
Hibino Corporation
 41
0.85
 11
-521.11999999999978
 21
-829.93370249999987
 31
0.0
 73
     3
  0
LINE
  5
2F
  8
HIBINO-BASE
  6
CONTINUOUS
 62
     7
 10
775.0
 20
1137.9567975
 30
0.0
 11
775.0
 21
-812.04320250000012
 31
0.0
  0
LINE
  5
30
  8
HIBINO-BASE
  6
CONTINUOUS
 62
     7
 10
90.625000000000071
 20
-643.29320250000001
 30
0.0
 11
775.0
 21
-643.29320250000001
 31
0.0
  0
TEXT
  5
31
  8
HIBINO-BASE
  6
CONTINUOUS
 62
     7
 10
475.512925
 20
-858.00308249999989
 30
0.0
 40
28.069379999999988
  1
ヒビノ株式会社
 41
0.85
 11
475.512925
 21
-829.93370249999987
 31
0.0
 73
     3
  0
LINE
  5
32
  8
HIBINO-BASE
  6
CONTINUOUS
 62
     7
 10
90.625000000000071
 20
-737.04320250000001
 30
0.0
 11
775.0
 21
-737.04320250000001
 31
0.0
  0
TEXT
  5
33
  8
HIBINO-BASE
  6
CONTINUOUS
 62
     7
 10
463.0
 20
-754.4835025000001
 30
0.0
 40
12.69999999999999
  1
DRAWN
 41
0.85
 11
463.0
 21
-741.78350250000005
 31
0.0
 73
     3
  0
TEXT
  5
34
  8
HIBINO-BASE
  6
CONTINUOUS
 62
     7
 10
650.49999999999989
 20
-754.4835025000001
 30
0.0
 40
12.69999999999999
  1
DRAWING NO.
 41
0.85
 11
650.49999999999989
 21
-741.78350250000005
 31
0.0
 73
     3
  0
TEXT
  5
35
  8
HIBINO-BASE
  6
CONTINUOUS
 62
     7
 10
556.74999999999989
 20
-754.4835025000001
 30
0.0
 40
12.69999999999999
  1
CHECK
 41
0.85
 11
556.74999999999989
 21
-741.78350250000005
 31
0.0
 73
     3
  0
LINE
  5
36
  8
HIBINO-BASE
  6
CONTINUOUS
 62
     7
 10
456.25
 20
-737.04320250000001
 30
0.0
 11
456.25
 21
-812.04320250000012
 31
0.0
  0
LINE
  5
37
  8
HIBINO-BASE
  6
CONTINUOUS
 62
     7
 10
643.75
 20
-737.04320250000001
 30
0.0
 11
643.75
 21
-812.04320250000012
 31
0.0
  0
LINE
  5
38
  8
HIBINO-BASE
  6
CONTINUOUS
 62
     7
 10
549.99999999999989
 20
-812.04320250000012
 30
0.0
 11
549.99999999999989
 21
-737.04320250000001
 31
0.0
  0
TEXT
  5
39
  8
HIBINO-BASE
  6
CONTINUOUS
 62
     7
 10
467.54357508275967
 20
-789.61335250000025
 30
0.0
 40
12.69999999999999
  1
N.Sasaki
 41
0.85
 11
467.54357508275967
 21
-776.91335250000009
 31
0.0
 73
     3
  0
TEXT
  5
3A
  8
HIBINO-BASE
  6
CONTINUOUS
 62
     7
 10
129.12500000000011
 20
-795.31820249999998
 30
0.0
 40
25.399999999999991
  1
A4
 41
0.85
 11
129.12500000000011
 21
-769.91820249999989
 31
0.0
 73
     3
  0
TEXT
  5
3B
  8
HIBINO-BASE
  6
CONTINUOUS
 62
     7
 10
284.875
 20
-754.4835025000001
 30
0.0
 40
12.69999999999999
  1
DATE
 41
0.85
 11
284.875
 21
-741.78350250000005
 31
0.0
 73
     3
  0
TEXT
  5
3C
  8
HIBINO-BASE
  6
CONTINUOUS
 62
     7
 10
209.875
 20
-754.4835025000001
 30
0.0
 40
12.69999999999999
  1
SCALE
 41
0.85
 11
209.875
 21
-741.78350250000005
 31
0.0
 73
     3
  0
LINE
  5
3D
  8
HIBINO-BASE
  6
CONTINUOUS
 62
     7
 10
217.1875
 20
-802.66820250000012
 30
0.0
 11
245.3125
 21
-774.54320250000001
 31
0.0
  0
TEXT
  5
3E
  8
HIBINO-BASE
  6
CONTINUOUS
 62
     7
 10
212.5
 20
-781.90777750000007
 30
0.0
 40
12.69999999999999
  1
1
 41
0.85
 11
212.5
 21
-769.20777750000002
 31
0.0
 73
     3
  0
LINE
  5
3F
  8
HIBINO-BASE
  6
CONTINUOUS
 62
     7
 10
203.125
 20
-812.04320250000012
 30
0.0
 11
203.125
 21
-737.04320250000001
 31
0.0
  0
LINE
  5
40
  8
HIBINO-BASE
  6
CONTINUOUS
 62
     7
 10
278.125
 20
-812.04320250000012
 30
0.0
 11
278.125
 21
-737.04320250000001
 31
0.0
  0
TEXT
  5
41
  8
HIBINO-BASE
  6
CONTINUOUS
 62
     7
 10
284.54905000000002
 20
-789.61335250000025
 30
0.0
 40
12.69999999999999
  1
'98.09.
 41
0.85
 11
284.54905000000002
 21
-776.91335250000009
 31
0.0
 73
     3
  0
TEXT
  5
42
  8
HIBINO-BASE
  6
CONTINUOUS
 62
     7
 10
240.625
 20
-795.97027750000007
 30
0.0
 40
12.69999999999999
  1
7.5
 41
0.85
 11
240.625
 21
-783.27027750000002
 31
0.0
 73
     3
  0
LINE
  5
43
  8
HIBINO-BASE
  6
CONTINUOUS
 62
     7
 10
371.875
 20
-812.04320250000012
 30
0.0
 11
371.875
 21
-643.29320250000001
 31
0.0
  0
TEXT
  5
44
  8
HIBINO-BASE
  6
CONTINUOUS
 62
     7
 10
378.625
 20
-661.15590250000002
 30
0.0
 40
12.69999999999999
  1
TITLE
 41
0.85
 11
378.625
 21
-648.45590249999998
 31
0.0
 73
     3
  0
TEXT
  5
45
  8
HIBINO-BASE
  6
CONTINUOUS
 62
     7
 10
378.625
 20
-754.4835025000001
 30
0.0
 40
12.69999999999999
  1
DESIGN
 41
0.85
 11
378.625
 21
-741.78350250000005
 31
0.0
 73
     3
  0
LINE
  5
46
  8
HIBINO-BASE
  6
CONTINUOUS
 62
     7
 10
90.625000000000071
 20
-812.04320250000012
 30
0.0
 11
90.625000000000071
 21
-643.29320250000001
 31
0.0
  0
TEXT
  5
47
  8
HIBINO-BASE
  6
CONTINUOUS
 62
     7
 10
97.375000000000071
 20
-661.15590250000002
 30
0.0
 40
12.69999999999999
  1
NOTE
 41
0.85
 11
97.375000000000071
 21
-648.45590249999998
 31
0.0
 73
     3
  0
TEXT
  5
48
  8
HIBINO-BASE
  6
CONTINUOUS
 62
     7
 10
97.812500000000142
 20
-755.73661500000003
 30
0.0
 40
12.69999999999999
  1
PAPER SIZE
 41
0.85
 11
97.812500000000142
 21
-743.03661499999998
 31
0.0
 73
     3
  0
TEXT
  5
49
  8
DIMNSIONS
  6
CONTINUOUS
 62
     7
 10
-50.000000000000021
 20
-718.5932775
 30
0.0
 40
19.050000000000001
  1
(単位：mm)
 41
0.85
 11
-50.000000000000021
 21
-699.54327750000004
 31
0.0
 73
     3
  0
LINE
  5
4A
  8
DIMNSIONS
  6
CONTINUOUS
 62
     7
 10
24.000000000007201
 20
482.0000000000008
 30
0.0
 11
24.000000000007201
 21
565.0
 31
0.0
  0
LINE
  5
4B
  8
DIMNSIONS
  6
CONTINUOUS
 62
     7
 10
-124.00000000000681
 20
482.0000000000008
 30
0.0
 11
-124.00000000000681
 21
565.0
 31
0.0
  0
LINE
  5
4D
  8
DIMNSIONS
  6
CONTINUOUS
 62
     7
 10
24.000000000007201
 20
550.0
 30
0.0
 11
5.245330810554079
 21
544.97470153637323
 31
0.0
  0
LINE
  5
4E
  8
DIMNSIONS
  6
CONTINUOUS
 62
     7
 10
24.000000000007201
 20
550.0
 30
0.0
 11
5.245330810554079
 21
555.02529846362677
 31
0.0
  0
LINE
  5
4F
  8
DIMNSIONS
  6
CONTINUOUS
 62
     7
 10
-124.00000000000681
 20
550.0
 30
0.0
 11
-105.2453308105537
 21
555.02529846362677
 31
0.0
  0
LINE
  5
50
  8
DIMNSIONS
  6
CONTINUOUS
 62
     7
 10
-124.00000000000681
 20
550.0
 30
0.0
 11
-105.2453308105537
 21
544.97470153637323
 31
0.0
  0
LINE
  5
4C
  8
DIMNSIONS
  6
CONTINUOUS
 62
     7
 10
24.000000000007201
 20
550.0
 30
0.0
 11
-124.00000000000681
 21
550.0
 31
0.0
  0
TEXT
  5
51
  8
DIMNSIONS
  6
CONTINUOUS
 62
     7
 10
-69.843749999999844
 20
559.04166666666663
 30
0.0
 40
21.166666666666671
  1
148
 41
0.85
 11
-69.843749999999844
 21
580.20833333333326
 31
0.0
 73
     3
  0
LINE
  5
52
  8
DIMNSIONS
  6
CONTINUOUS
 62
     7
 10
-139.00000000000679
 20
467.0000000000008
 30
0.0
 11
-465.0
 21
467.0000000000008
 31
0.0
  0
LINE
  5
53
  8
DIMNSIONS
  6
CONTINUOUS
 62
     7
 10
-358.0
 20
100.0
 30
0.0
 11
-465.0
 21
100.0
 31
0.0
  0
LINE
  5
55
  8
DIMNSIONS
  6
CONTINUOUS
 62
     7
 10
-450.0
 20
467.0000000000008
 30
0.0
 11
-444.97470153637317
 21
448.24533081054773
 31
0.0
  0
LINE
  5
56
  8
DIMNSIONS
  6
CONTINUOUS
 62
     7
 10
-450.0
 20
467.0000000000008
 30
0.0
 11
-455.02529846362683
 21
448.24533081054773
 31
0.0
  0
LINE
  5
57
  8
DIMNSIONS
  6
CONTINUOUS
 62
     7
 10
-450.0
 20
100.0
 30
0.0
 11
-455.02529846362683
 21
118.7546691894531
 31
0.0
  0
LINE
  5
58
  8
DIMNSIONS
  6
CONTINUOUS
 62
     7
 10
-450.0
 20
100.0
 30
0.0
 11
-444.97470153637317
 21
118.7546691894531
 31
0.0
  0
LINE
  5
54
  8
DIMNSIONS
  6
CONTINUOUS
 62
     7
 10
-450.0
 20
467.0000000000008
 30
0.0
 11
-450.0
 21
100.0
 31
0.0
  0
TEXT
  5
59
  8
DIMNSIONS
  6
CONTINUOUS
 62
     7
 10
-459.04166666666657
 20
263.6562500000004
 30
0.0
 40
21.166666666666671
  1
367
 50
90.0
 41
0.85
 11
-480.20833333333331
 21
263.6562500000004
 31
0.0
 73
     3
  0
LINE
  5
5A
  8
DIMNSIONS
  6
CONTINUOUS
 62
     7
 10
-169.25
 20
-97.0
 30
0.0
 11
-465.0
 21
-97.0
 31
0.0
  0
LINE
  5
5B
  8
DIMNSIONS
  6
CONTINUOUS
 62
     7
 10
-363.0
 20
-299.99999999999989
 30
0.0
 11
-465.0
 21
-299.99999999999989
 31
0.0
  0
LINE
  5
5D
  8
DIMNSIONS
  6
CONTINUOUS
 62
     7
 10
-450.0
 20
-97.0
 30
0.0
 11
-444.97470153637317
 21
-115.7546691894531
 31
0.0
  0
LINE
  5
5E
  8
DIMNSIONS
  6
CONTINUOUS
 62
     7
 10
-450.0
 20
-97.0
 30
0.0
 11
-455.02529846362683
 21
-115.7546691894531
 31
0.0
  0
LINE
  5
5F
  8
DIMNSIONS
  6
CONTINUOUS
 62
     7
 10
-450.0
 20
-299.99999999999989
 30
0.0
 11
-455.02529846362683
 21
-281.24533081054682
 31
0.0
  0
LINE
  5
60
  8
DIMNSIONS
  6
CONTINUOUS
 62
     7
 10
-450.0
 20
-299.99999999999989
 30
0.0
 11
-444.97470153637317
 21
-281.24533081054682
 31
0.0
  0
LINE
  5
5C
  8
DIMNSIONS
  6
CONTINUOUS
 62
     7
 10
-450.0
 20
-97.0
 30
0.0
 11
-450.0
 21
-299.99999999999989
 31
0.0
  0
TEXT
  5
61
  8
DIMNSIONS
  6
CONTINUOUS
 62
     7
 10
-459.04166666666657
 20
-218.34374999999989
 30
0.0
 40
21.166666666666671
  1
203
 50
90.0
 41
0.85
 11
-480.20833333333331
 21
-218.34374999999989
 31
0.0
 73
     3
  0
LINE
  5
62
  8
DIMNSIONS
  6
CONTINUOUS
 62
     7
 10
-141.85557209737971
 20
-100.16000487614571
 30
0.0
 11
-141.85557209737971
 21
15.0
 31
0.0
  0
LINE
  5
63
  8
DIMNSIONS
  6
CONTINUOUS
 62
     7
 10
-154.24999999999989
 20
-82.0
 30
0.0
 11
-154.24999999999989
 21
15.0
 31
0.0
  0
LINE
  5
64
  8
DIMNSIONS
  6
CONTINUOUS
 62
     7
 10
-154.24999999999989
 20
0.0
 30
0.0
 11
-141.85557209737971
 21
0.0
 31
0.0
  0
LINE
  5
66
  8
DIMNSIONS
  6
CONTINUOUS
 62
     7
 10
-141.85557209737971
 20
0.0
 30
0.0
 11
-123.1009029079265
 21
5.0252984636268252
 31
0.0
  0
LINE
  5
67
  8
DIMNSIONS
  6
CONTINUOUS
 62
     7
 10
-141.85557209737971
 20
0.0
 30
0.0
 11
-123.1009029079265
 21
-5.0252984636268252
 31
0.0
  0
LINE
  5
65
  8
DIMNSIONS
  6
CONTINUOUS
 62
     7
 10
-141.85557209737971
 20
0.0
 30
0.0
 11
-104.35557209737961
 21
0.0
 31
0.0
  0
LINE
  5
69
  8
DIMNSIONS
  6
CONTINUOUS
 62
     7
 10
-154.24999999999989
 20
0.0
 30
0.0
 11
-173.0046691894531
 21
-5.0252984636268252
 31
0.0
  0
LINE
  5
6A
  8
DIMNSIONS
  6
CONTINUOUS
 62
     7
 10
-154.24999999999989
 20
0.0
 30
0.0
 11
-173.0046691894531
 21
5.0252984636268252
 31
0.0
  0
LINE
  5
68
  8
DIMNSIONS
  6
CONTINUOUS
 62
     7
 10
-154.24999999999989
 20
0.0
 30
0.0
 11
-201.4583333333332
 21
0.0
 31
0.0
  0
TEXT
  5
6B
  8
DIMNSIONS
  6
CONTINUOUS
 62
     7
 10
-201.45833333333329
 20
9.0416666666666714
 30
0.0
 40
21.166666666666671
  1
12
 41
0.85
 11
-201.45833333333329
 21
30.208333333333339
 31
0.0
 73
     3
  0
LINE
  5
6C
  8
DIMNSIONS
  6
CONTINUOUS
 62
     7
 10
-141.85557209737971
 20
-100.16000487614571
 30
0.0
 11
-141.85557209737971
 21
15.0
 31
0.0
  0
LINE
  5
6D
  8
DIMNSIONS
  6
CONTINUOUS
 62
     7
 10
-50.000000000000021
 20
-103.84399999999989
 30
0.0
 11
-50.000000000000021
 21
15.0
 31
0.0
  0
LINE
  5
6F
  8
DIMNSIONS
  6
CONTINUOUS
 62
     7
 10
-141.85557209737971
 20
0.0
 30
0.0
 11
-123.1009029079265
 21
5.0252984636268252
 31
0.0
  0
LINE
  5
70
  8
DIMNSIONS
  6
CONTINUOUS
 62
     7
 10
-141.85557209737971
 20
0.0
 30
0.0
 11
-123.1009029079265
 21
-5.0252984636268252
 31
0.0
  0
LINE
  5
71
  8
DIMNSIONS
  6
CONTINUOUS
 62
     7
 10
-50.000000000000021
 20
0.0
 30
0.0
 11
-68.754669189453125
 21
-5.0252984636268252
 31
0.0
  0
LINE
  5
72
  8
DIMNSIONS
  6
CONTINUOUS
 62
     7
 10
-50.000000000000021
 20
0.0
 30
0.0
 11
-68.754669189453125
 21
5.0252984636268252
 31
0.0
  0
LINE
  5
6E
  8
DIMNSIONS
  6
CONTINUOUS
 62
     7
 10
-141.85557209737971
 20
0.0
 30
0.0
 11
-50.000000000000021
 21
0.0
 31
0.0
  0
TEXT
  5
73
  8
DIMNSIONS
  6
CONTINUOUS
 62
     7
 10
-109.1569527153565
 20
9.0416666666666714
 30
0.0
 40
21.166666666666671
  1
92
 41
0.85
 11
-109.1569527153565
 21
30.208333333333339
 31
0.0
 73
     3
  0
LINE
  5
74
  8
DIMNSIONS
  6
CONTINUOUS
 62
     7
 10
-50.000000000000021
 20
-103.84399999999989
 30
0.0
 11
-50.000000000000021
 21
15.0
 31
0.0
  0
LINE
  5
75
  8
DIMNSIONS
  6
CONTINUOUS
 62
     7
 10
41.855572097379657
 20
-100.16000487614571
 30
0.0
 11
41.855572097379657
 21
15.0
 31
0.0
  0
LINE
  5
77
  8
DIMNSIONS
  6
CONTINUOUS
 62
     7
 10
-50.000000000000021
 20
0.0
 30
0.0
 11
-31.245330810546889
 21
5.0252984636268252
 31
0.0
  0
LINE
  5
78
  8
DIMNSIONS
  6
CONTINUOUS
 62
     7
 10
-50.000000000000021
 20
0.0
 30
0.0
 11
-31.245330810546889
 21
-5.0252984636268252
 31
0.0
  0
LINE
  5
79
  8
DIMNSIONS
  6
CONTINUOUS
 62
     7
 10
41.855572097379657
 20
0.0
 30
0.0
 11
23.100902907926528
 21
-5.0252984636268252
 31
0.0
  0
LINE
  5
7A
  8
DIMNSIONS
  6
CONTINUOUS
 62
     7
 10
41.855572097379657
 20
0.0
 30
0.0
 11
23.100902907926528
 21
5.0252984636268252
 31
0.0
  0
LINE
  5
76
  8
DIMNSIONS
  6
CONTINUOUS
 62
     7
 10
-50.000000000000021
 20
0.0
 30
0.0
 11
41.855572097379657
 21
0.0
 31
0.0
  0
TEXT
  5
7B
  8
DIMNSIONS
  6
CONTINUOUS
 62
     7
 10
-17.301380617976839
 20
9.0416666666666714
 30
0.0
 40
21.166666666666671
  1
92
 41
0.85
 11
-17.301380617976839
 21
30.208333333333339
 31
0.0
 73
     3
  0
LINE
  5
7C
  8
DIMNSIONS
  6
CONTINUOUS
 62
     7
 10
69.249999999999986
 20
-96.999999999999773
 30
0.0
 11
165.0
 21
-96.999999999999773
 31
0.0
  0
LINE
  5
7D
  8
DIMNSIONS
  6
CONTINUOUS
 62
     7
 10
59.49499999999999
 20
-118.86
 30
0.0
 11
165.0
 21
-118.86
 31
0.0
  0
LINE
  5
7E
  8
DIMNSIONS
  6
CONTINUOUS
 62
     7
 10
150.0
 20
-118.86
 30
0.0
 11
150.0
 21
-96.999999999999773
 31
0.0
  0
LINE
  5
80
  8
DIMNSIONS
  6
CONTINUOUS
 62
     7
 10
150.0
 20
-96.999999999999773
 30
0.0
 11
144.97470153637309
 21
-78.245330810546662
 31
0.0
  0
LINE
  5
81
  8
DIMNSIONS
  6
CONTINUOUS
 62
     7
 10
150.0
 20
-96.999999999999773
 30
0.0
 11
155.0252984636268
 21
-78.245330810546662
 31
0.0
  0
LINE
  5
7F
  8
DIMNSIONS
  6
CONTINUOUS
 62
     7
 10
150.0
 20
-96.999999999999773
 30
0.0
 11
150.0
 21
-48.541666666666657
 31
0.0
  0
LINE
  5
83
  8
DIMNSIONS
  6
CONTINUOUS
 62
     7
 10
150.0
 20
-118.86
 30
0.0
 11
155.0252984636268
 21
-137.61466918945311
 31
0.0
  0
LINE
  5
84
  8
DIMNSIONS
  6
CONTINUOUS
 62
     7
 10
150.0
 20
-118.86
 30
0.0
 11
144.97470153637309
 21
-137.61466918945311
 31
0.0
  0
LINE
  5
82
  8
DIMNSIONS
  6
CONTINUOUS
 62
     7
 10
150.0
 20
-118.86
 30
0.0
 11
150.0
 21
-156.36000000000001
 31
0.0
  0
TEXT
  5
85
  8
DIMNSIONS
  6
CONTINUOUS
 62
     7
 10
140.95833333333329
 20
-74.999999999999972
 30
0.0
 40
21.166666666666671
  1
22
 50
90.0
 41
0.85
 11
119.7916666666666
 21
-74.999999999999972
 31
0.0
 73
     3
  0
LINE
  5
86
  8
DIMNSIONS
  6
CONTINUOUS
 62
     7
 10
59.49499999999999
 20
-118.86
 30
0.0
 11
165.0
 21
-118.86
 31
0.0
  0
LINE
  5
87
  8
DIMNSIONS
  6
CONTINUOUS
 62
     7
 10
59.49499999999999
 20
-169.66
 30
0.0
 11
165.0
 21
-169.66
 31
0.0
  0
LINE
  5
89
  8
DIMNSIONS
  6
CONTINUOUS
 62
     7
 10
150.0
 20
-118.86
 30
0.0
 11
155.0252984636268
 21
-137.61466918945311
 31
0.0
  0
LINE
  5
8A
  8
DIMNSIONS
  6
CONTINUOUS
 62
     7
 10
150.0
 20
-118.86
 30
0.0
 11
144.97470153637309
 21
-137.61466918945311
 31
0.0
  0
LINE
  5
8B
  8
DIMNSIONS
  6
CONTINUOUS
 62
     7
 10
150.0
 20
-169.66
 30
0.0
 11
144.97470153637309
 21
-150.9053308105469
 31
0.0
  0
LINE
  5
8C
  8
DIMNSIONS
  6
CONTINUOUS
 62
     7
 10
150.0
 20
-169.66
 30
0.0
 11
155.0252984636268
 21
-150.9053308105469
 31
0.0
  0
LINE
  5
88
  8
DIMNSIONS
  6
CONTINUOUS
 62
     7
 10
150.0
 20
-118.86
 30
0.0
 11
150.0
 21
-169.66
 31
0.0
  0
TEXT
  5
8D
  8
DIMNSIONS
  6
CONTINUOUS
 62
     7
 10
140.95833333333329
 20
-157.48916666666659
 30
0.0
 40
21.166666666666671
  1
51
 50
90.0
 41
0.85
 11
119.7916666666666
 21
-157.48916666666659
 31
0.0
 73
     3
  0
LINE
  5
8E
  8
DIMNSIONS
  6
CONTINUOUS
 62
     7
 10
59.49499999999999
 20
-169.66
 30
0.0
 11
165.0
 21
-169.66
 31
0.0
  0
LINE
  5
8F
  8
DIMNSIONS
  6
CONTINUOUS
 62
     7
 10
59.49499999999999
 20
-220.46000000000001
 30
0.0
 11
165.0
 21
-220.46000000000001
 31
0.0
  0
LINE
  5
91
  8
DIMNSIONS
  6
CONTINUOUS
 62
     7
 10
150.0
 20
-169.66
 30
0.0
 11
155.0252984636268
 21
-188.41466918945309
 31
0.0
  0
LINE
  5
92
  8
DIMNSIONS
  6
CONTINUOUS
 62
     7
 10
150.0
 20
-169.66
 30
0.0
 11
144.97470153637309
 21
-188.41466918945309
 31
0.0
  0
LINE
  5
93
  8
DIMNSIONS
  6
CONTINUOUS
 62
     7
 10
150.0
 20
-220.46000000000001
 30
0.0
 11
144.97470153637309
 21
-201.7053308105468
 31
0.0
  0
LINE
  5
94
  8
DIMNSIONS
  6
CONTINUOUS
 62
     7
 10
150.0
 20
-220.46000000000001
 30
0.0
 11
155.0252984636268
 21
-201.7053308105468
 31
0.0
  0
LINE
  5
90
  8
DIMNSIONS
  6
CONTINUOUS
 62
     7
 10
150.0
 20
-169.66
 30
0.0
 11
150.0
 21
-220.46000000000001
 31
0.0
  0
TEXT
  5
95
  8
DIMNSIONS
  6
CONTINUOUS
 62
     7
 10
140.95833333333329
 20
-208.28916666666669
 30
0.0
 40
21.166666666666671
  1
51
 50
90.0
 41
0.85
 11
119.7916666666666
 21
-208.28916666666669
 31
0.0
 73
     3
  0
LINE
  5
96
  8
DIMNSIONS
  6
CONTINUOUS
 62
     7
 10
-348.0
 20
-314.99999999999989
 30
0.0
 11
-348.0
 21
-415.0
 31
0.0
  0
LINE
  5
97
  8
DIMNSIONS
  6
CONTINUOUS
 62
     7
 10
247.99999999999969
 20
-314.99999999999989
 30
0.0
 11
247.99999999999969
 21
-415.0
 31
0.0
  0
LINE
  5
99
  8
DIMNSIONS
  6
CONTINUOUS
 62
     7
 10
-348.0
 20
-400.0
 30
0.0
 11
-329.24533081054682
 21
-394.97470153637317
 31
0.0
  0
LINE
  5
9A
  8
DIMNSIONS
  6
CONTINUOUS
 62
     7
 10
-348.0
 20
-400.0
 30
0.0
 11
-329.24533081054682
 21
-405.02529846362683
 31
0.0
  0
LINE
  5
9B
  8
DIMNSIONS
  6
CONTINUOUS
 62
     7
 10
247.99999999999969
 20
-400.0
 30
0.0
 11
229.24533081054659
 21
-405.02529846362683
 31
0.0
  0
LINE
  5
9C
  8
DIMNSIONS
  6
CONTINUOUS
 62
     7
 10
247.99999999999969
 20
-400.0
 30
0.0
 11
229.24533081054659
 21
-394.97470153637312
 31
0.0
  0
LINE
  5
98
  8
DIMNSIONS
  6
CONTINUOUS
 62
     7
 10
-348.0
 20
-400.0
 30
0.0
 11
247.99999999999969
 21
-400.0
 31
0.0
  0
TEXT
  5
9D
  8
DIMNSIONS
  6
CONTINUOUS
 62
     7
 10
-69.843750000000128
 20
-390.95833333333331
 30
0.0
 40
21.166666666666671
  1
596
 41
0.85
 11
-69.843750000000128
 21
-369.79166666666657
 31
0.0
 73
     3
  0
LINE
  5
9E
  8
DIMNSIONS
  6
CONTINUOUS
 62
     7
 10
302.0
 20
-314.99999999999989
 30
0.0
 11
302.0
 21
-414.99999999999989
 31
0.0
  0
LINE
  5
9F
  8
DIMNSIONS
  6
CONTINUOUS
 62
     7
 10
669.0
 20
-314.99999999999989
 30
0.0
 11
669.0
 21
-414.99999999999989
 31
0.0
  0
LINE
  5
A1
  8
DIMNSIONS
  6
CONTINUOUS
 62
     7
 10
302.0
 20
-399.99999999999989
 30
0.0
 11
320.75466918945312
 21
-394.97470153637312
 31
0.0
  0
LINE
  5
A2
  8
DIMNSIONS
  6
CONTINUOUS
 62
     7
 10
302.0
 20
-399.99999999999989
 30
0.0
 11
320.75466918945312
 21
-405.0252984636266
 31
0.0
  0
LINE
  5
A3
  8
DIMNSIONS
  6
CONTINUOUS
 62
     7
 10
669.0
 20
-399.99999999999989
 30
0.0
 11
650.24533081054687
 21
-405.0252984636266
 31
0.0
  0
LINE
  5
A4
  8
DIMNSIONS
  6
CONTINUOUS
 62
     7
 10
669.0
 20
-399.99999999999989
 30
0.0
 11
650.24533081054687
 21
-394.974701536373
 31
0.0
  0
LINE
  5
A0
  8
DIMNSIONS
  6
CONTINUOUS
 62
     7
 10
302.0
 20
-399.99999999999989
 30
0.0
 11
669.0
 21
-399.99999999999989
 31
0.0
  0
TEXT
  5
A5
  8
DIMNSIONS
  6
CONTINUOUS
 62
     7
 10
465.65624999999989
 20
-390.9583333333332
 30
0.0
 40
21.166666666666671
  1
367
 41
0.85
 11
465.65624999999989
 21
-369.79166666666652
 31
0.0
 73
     3
  0
LINE
  5
A7
  8
DIMNSIONS
  6
CONTINUOUS
 62
     7
 10
187.1787835177139
 20
-256.01370035984121
 30
0.0
 11
193.81953632670081
 21
-237.76838196896941
 31
0.0
  0
LINE
  5
A8
  8
DIMNSIONS
  6
CONTINUOUS
 62
     7
 10
187.1787835177139
 20
-256.01370035984121
 30
0.0
 11
202.0525033459854
 21
-243.5331675377044
 31
0.0
  0
LINE
  5
A6
  8
DIMNSIONS
  6
CONTINUOUS
 62
     7
 10
187.1787835177139
 20
-256.01370035984121
 30
0.0
 11
225.0
 21
-200.0
 31
0.0
  0
LINE
  5
A9
  8
DIMNSIONS
  6
CONTINUOUS
 62
     7
 10
225.0
 20
-200.0
 30
0.0
 11
306.1458333333332
 21
-200.0
 31
0.0
  0
TEXT
  5
AA
  8
DIMNSIONS
  6
CONTINUOUS
 62
     7
 10
240.0
 20
-190.95833333333329
 30
0.0
 40
21.166666666666671
  1
3-φ6
 41
0.85
 11
240.0
 21
-169.7916666666666
 31
0.0
 73
     3
  0
LINE
  5
AC
  8
DIMNSIONS
  6
CONTINUOUS
 62
     7
 10
42.433290376564301
 20
-115.2152335034061
 30
0.0
 11
45.135511807586738
 21
-95.987928949931245
 31
0.0
  0
LINE
  5
AD
  8
DIMNSIONS
  6
CONTINUOUS
 62
     7
 10
42.433290376564301
 20
-115.2152335034061
 30
0.0
 11
54.387135059217918
 21
-99.915010029307894
 31
0.0
  0
LINE
  5
AB
  8
DIMNSIONS
  6
CONTINUOUS
 62
     7
 10
42.433290376564301
 20
-115.2152335034061
 30
0.0
 11
100.0
 21
24.999999999999961
 31
0.0
  0
LINE
  5
AE
  8
DIMNSIONS
  6
CONTINUOUS
 62
     7
 10
100.0
 20
24.999999999999961
 30
0.0
 11
181.1458333333332
 21
24.999999999999961
 31
0.0
  0
TEXT
  5
AF
  8
DIMNSIONS
  6
CONTINUOUS
 62
     7
 10
115.0
 20
34.041666666666643
 30
0.0
 40
21.166666666666671
  1
6-φ7
 41
0.85
 11
115.0
 21
55.208333333333321
 31
0.0
 73
     3
  0
TEXT
  5
B0
  8
DATA
  6
CONTINUOUS
 62
     7
 10
475.0
 20
-672.75777749999997
 30
0.0
 40
19.050000000000001
  1
JBL
 41
0.85
 11
475.0
 21
-653.70777750000002
 31
0.0
 73
     3
  0
TEXT
  5
B1
  8
DATA
  6
CONTINUOUS
 62
     7
 10
-499.99999999999989
 20
-779.30570250000005
 30
0.0
 40
12.69999999999999
  1
仕様および外観は予告なく変更されることがありますので、ご了承ください。
 41
0.85
 11
-499.99999999999989
 21
-766.60570250000001
 31
0.0
 73
     3
  0
LINE
  5
B2
  8
DATA
  6
CONTINUOUS
 62
     7
 10
20.287510831904889
 20
461.23725830020408
 30
0.0
 11
241.34386001800061
 21
240.18090911410681
 31
0.0
  0
LINE
  5
B3
  8
DATA
  6
CONTINUOUS
 62
     7
 10
27.38299064212444
 20
458.66726188957813
 30
0.0
 11
243.6066017177981
 21
242.4436508139033
 31
0.0
  0
LINE
  5
B4
  8
DATA
  6
CONTINUOUS
 62
     7
 10
-348.0
 20
-299.99999999999989
 30
0.0
 11
247.99999999999969
 21
-299.99999999999989
 31
0.0
  0
LINE
  5
B5
  8
DATA
  6
CONTINUOUS
 62
     7
 10
-348.0
 20
-246.9999999999998
 30
0.0
 11
247.99999999999969
 21
-246.9999999999998
 31
0.0
  0
LINE
  5
B6
  8
DATA
  6
CONTINUOUS
 62
     7
 10
-315.5
 20
132.49999999999989
 30
0.0
 11
215.5
 21
132.49999999999989
 31
0.0
  0
LINE
  5
B7
  8
DATA
  6
CONTINUOUS
 62
     7
 10
-343.0
 20
103.2
 30
0.0
 11
243.0
 21
103.2
 31
0.0
  0
LINE
  5
B8
  8
DATA
  6
CONTINUOUS
 62
     7
 10
-343.0
 20
100.0
 30
0.0
 11
243.0
 21
100.0
 31
0.0
  0
LINE
  5
B9
  8
DATA
  6
CONTINUOUS
 62
     7
 10
3.811922830256647
 20
436.2763889243206
 30
0.0
 11
215.5
 21
224.5883117545761
 31
0.0
  0
LINE
  5
BA
  8
DATA
  6
CONTINUOUS
 62
     7
 10
-348.0
 20
-246.9999999999998
 30
0.0
 11
-348.0
 21
-299.99999999999989
 31
0.0
  0
LINE
  5
BB
  8
DATA
  6
CONTINUOUS
 62
     7
 10
-154.24999999999989
 20
-97.0
 30
0.0
 11
54.249999999999993
 21
-97.0
 31
0.0
  0
LINE
  5
BC
  8
DATA
  6
CONTINUOUS
 62
     7
 10
-124.0
 20
-246.9999999999998
 30
0.0
 11
-124.0
 21
-97.0
 31
0.0
  0
LINE
  5
BD
  8
DATA
  6
CONTINUOUS
 62
     7
 10
-154.24999999999989
 20
-246.99999999999969
 30
0.0
 11
-154.24999999999989
 21
-96.999999999999773
 31
0.0
  0
CIRCLE
  5
BE
  8
DATA
  6
CONTINUOUS
 62
     7
 10
-285.5
 20
-258.49999999999989
 30
0.0
 40
3.0
  0
LINE
  5
BF
  8
DATA
  6
CONTINUOUS
 62
     7
 10
23.999999999999979
 20
-246.9999999999998
 30
0.0
 11
23.999999999999979
 21
-97.0
 31
0.0
  0
LINE
  5
C0
  8
DATA
  6
CONTINUOUS
 62
     7
 10
54.249999999999993
 20
-246.99999999999969
 30
0.0
 11
54.249999999999993
 21
-96.999999999999773
 31
0.0
  0
CIRCLE
  5
C1
  8
DATA
  6
CONTINUOUS
 62
     7
 10
-50.000000000000242
 20
-258.49999999999989
 30
0.0
 40
3.0
  0
CIRCLE
  5
C2
  8
DATA
  6
CONTINUOUS
 62
     7
 10
-50.000000000000021
 20
-220.44399999999979
 30
0.0
 40
3.6829999999999918
  0
CIRCLE
  5
C3
  8
DATA
  6
CONTINUOUS
 62
     7
 10
-50.000000000000021
 20
-118.84399999999989
 30
0.0
 40
3.6829999999999918
  0
CIRCLE
  5
C4
  8
DATA
  6
CONTINUOUS
 62
     7
 10
-50.000000000000021
 20
-169.64400000000001
 30
0.0
 40
3.6829999999999918
  0
LINE
  5
C5
  8
DATA
  6
CONTINUOUS
 62
     7
 10
-341.34386001800129
 20
240.1809091141067
 30
0.0
 11
-120.28751083190311
 21
461.23725830020408
 31
0.0
  0
LINE
  5
C6
  8
DATA
  6
CONTINUOUS
 62
     7
 10
-343.60660171779813
 20
242.4436508139037
 30
0.0
 11
-127.38299064212281
 21
458.66726188957909
 31
0.0
  0
LINE
  5
C7
  8
DATA
  6
CONTINUOUS
 62
     7
 10
-315.5
 20
224.5883117545761
 30
0.0
 11
-103.8119228302553
 21
436.276388924321
 31
0.0
  0
LINE
  5
C8
  8
DATA
  6
CONTINUOUS
 62
     7
 10
-348.0
 20
105.0
 30
0.0
 11
-348.0
 21
231.8370490961058
 31
0.0
  0
LINE
  5
C9
  8
DATA
  6
CONTINUOUS
 62
     7
 10
-344.80000000000013
 20
105.0
 30
0.0
 11
-344.80000000000013
 21
231.83704909610549
 31
0.0
  0
ARC
  5
CA
  8
DATA
  6
CONTINUOUS
 62
     7
 10
-343.0
 20
105.0
 30
0.0
 40
5.0
 50
180.0
 51
270.0
  0
ARC
  5
CB
  8
DATA
  6
CONTINUOUS
 62
     7
 10
-343.0
 20
105.0
 30
0.0
 40
1.7999999999999541
 50
180.0
 51
270.0
  0
ARC
  5
CC
  8
DATA
  6
CONTINUOUS
 62
     7
 10
-333.0
 20
231.8370490961058
 30
0.0
 40
14.999999999999959
 50
135.0
 51
180.0
  0
ARC
  5
CD
  8
DATA
  6
CONTINUOUS
 62
     7
 10
-333.0
 20
231.83704909610549
 30
0.0
 40
11.80000000000012
 50
135.0
 51
180.0
  0
LINE
  5
CE
  8
DATA
  6
CONTINUOUS
 62
     7
 10
-315.5
 20
224.58831175457649
 30
0.0
 11
-315.5
 21
132.49999999999969
 31
0.0
  0
LINE
  5
CF
  8
DATA
  6
CONTINUOUS
 62
     7
 10
-115.71572875254471
 20
463.50000000000108
 30
0.0
 11
15.71572875254626
 21
463.50000000000011
 31
0.0
  0
LINE
  5
D0
  8
DATA
  6
CONTINUOUS
 62
     7
 10
-115.7157287525449
 20
467.0000000000008
 30
0.0
 11
15.715728752545131
 21
467.0000000000008
 31
0.0
  0
LINE
  5
D1
  8
DATA
  6
CONTINUOUS
 62
     7
 10
-121.5022958150644
 20
462.45204328336507
 30
0.0
 11
-103.8119228302557
 21
444.76167029855992
 31
0.0
  0
ARC
  5
D2
  8
DATA
  6
CONTINUOUS
 62
     7
 10
-115.7157287525449
 20
447.0000000000008
 30
0.0
 40
20.0
 50
90.0
 51
134.99999999999949
  0
LINE
  5
D3
  8
DATA
  6
CONTINUOUS
 62
     7
 10
-154.24999999999989
 20
436.7500000000075
 30
0.0
 11
-129.8578643762757
 21
461.14213562373192
 31
0.0
  0
ARC
  5
D4
  8
DATA
  6
CONTINUOUS
 62
     7
 10
-115.71572875254471
 20
447.0000000000008
 30
0.0
 40
16.5
 50
90.0
 51
135.00000000000051
  0
LINE
  5
D5
  8
DATA
  6
CONTINUOUS
 62
     7
 10
-154.24999999999989
 20
436.7500000000075
 30
0.0
 11
-151.77512626584689
 21
434.27512626585451
 31
0.0
  0
ARC
  5
D6
  8
DATA
  6
CONTINUOUS
 62
     7
 10
-108.0545635173744
 20
440.5190296114402
 30
0.0
 40
5.9999999999998872
 50
314.99999999999852
 51
45.000000000007667
  0
ARC
  5
D7
  8
DATA
  6
CONTINUOUS
 62
     7
 10
15.715728752545131
 20
447.0000000000008
 30
0.0
 40
20.00000000000016
 50
45.0
 51
90.0
  0
LINE
  5
D8
  8
DATA
  6
CONTINUOUS
 62
     7
 10
29.857864376276201
 20
461.14213562373192
 30
0.0
 11
54.249999999999993
 21
436.75000000000841
 31
0.0
  0
ARC
  5
D9
  8
DATA
  6
CONTINUOUS
 62
     7
 10
15.71572875254626
 20
447.00000000000051
 30
0.0
 40
16.499999999999879
 50
45.0
 51
90.0
  0
LINE
  5
DA
  8
DATA
  6
CONTINUOUS
 62
     7
 10
3.8119228302571031
 20
444.76167029855941
 30
0.0
 11
21.502295815066169
 21
462.45204328336479
 31
0.0
  0
LINE
  5
DB
  8
DATA
  6
CONTINUOUS
 62
     7
 10
54.249999999999993
 20
436.75000000000841
 30
0.0
 11
51.775126265847113
 21
434.27512626585502
 31
0.0
  0
ARC
  5
DC
  8
DATA
  6
CONTINUOUS
 62
     7
 10
8.0545635173761951
 20
440.5190296114402
 30
0.0
 40
6.000000000000048
 50
134.9999999999938
 51
225.0
  0
LINE
  5
DD
  8
DATA
  6
CONTINUOUS
 62
     7
 10
302.0
 20
-299.99999999999989
 30
0.0
 11
669.00000000000045
 21
-299.99999999999972
 31
0.0
  0
LINE
  5
DE
  8
DATA
  6
CONTINUOUS
 62
     7
 10
302.0
 20
-247.0
 30
0.0
 11
637.0
 21
-246.99999999999969
 31
0.0
  0
LINE
  5
DF
  8
DATA
  6
CONTINUOUS
 62
     7
 10
247.99999999999969
 20
-246.9999999999998
 30
0.0
 11
247.99999999999969
 21
-299.99999999999989
 31
0.0
  0
CIRCLE
  5
E0
  8
DATA
  6
CONTINUOUS
 62
     7
 10
185.5
 20
-258.49999999999989
 30
0.0
 40
3.0
  0
LINE
  5
E1
  8
DATA
  6
CONTINUOUS
 62
     7
 10
302.0
 20
-299.99999999999989
 30
0.0
 11
302.0
 21
-246.9999999999998
 31
0.0
  0
LINE
  5
E2
  8
DATA
  6
CONTINUOUS
 62
     7
 10
440.05025253170101
 20
-247.0
 30
0.0
 11
440.05025253170101
 21
-299.99999999999989
 31
0.0
  0
LINE
  5
E3
  8
DATA
  6
CONTINUOUS
 62
     7
 10
669.0
 20
-299.99999999999989
 30
0.0
 11
669.00000000000125
 21
-96.999999999999773
 31
0.0
  0
LINE
  5
E4
  8
DATA
  6
CONTINUOUS
 62
     7
 10
637.0
 20
-299.99999999999989
 30
0.0
 11
637.00000000000114
 21
-96.999999999999773
 31
0.0
  0
LINE
  5
E5
  8
DATA
  6
CONTINUOUS
 62
     7
 10
637.00000000000114
 20
-96.999999999999773
 30
0.0
 11
669.00000000000045
 21
-96.999999999999773
 31
0.0
  0
LINE
  5
E6
  8
DATA
  6
CONTINUOUS
 62
     7
 10
215.5
 20
132.49999999999989
 30
0.0
 11
215.5
 21
224.58831175457649
 31
0.0
  0
LINE
  5
E7
  8
DATA
  6
CONTINUOUS
 62
     7
 10
244.7999999999997
 20
231.8370490961058
 30
0.0
 11
244.7999999999999
 21
105.0000000000004
 31
0.0
  0
LINE
  5
E8
  8
DATA
  6
CONTINUOUS
 62
     7
 10
247.99999999999969
 20
105.0
 30
0.0
 11
248.0
 21
231.83704909610481
 31
0.0
  0
ARC
  5
E9
  8
DATA
  6
CONTINUOUS
 62
     7
 10
243.0
 20
105.0000000000004
 30
0.0
 40
1.7999999999999541
 50
270.0
 51
0.0
  0
ARC
  5
EA
  8
DATA
  6
CONTINUOUS
 62
     7
 10
243.0
 20
105.0
 30
0.0
 40
5.0
 50
270.0
 51
0.0
  0
ARC
  5
EB
  8
DATA
  6
CONTINUOUS
 62
     7
 10
232.99999999999949
 20
231.8370490961058
 30
0.0
 40
11.80000000000018
 50
0.0
 51
45.0
  0
ARC
  5
EC
  8
DATA
  6
CONTINUOUS
 62
     7
 10
233.0
 20
231.83704909610481
 30
0.0
 40
15.0
 50
0.0
 51
45.0
  0
TEXT
  5
ED
  8
DATA
  6
CONTINUOUS
 62
     7
 10
475.0
 20
-718.14998913853196
 30
0.0
 40
19.050000000000001
  1
MTC-SB2W
 41
0.85
 11
475.0
 21
-699.09998913853212
 31
0.0
 73
     3
  0
LINE
  5
EE
  8
DATA
  6
CONTINUOUS
 62
     7
 10
-124.00000000000681
 20
467.0000000000008
 30
0.0
 11
24.000000000007201
 21
467.0000000000008
 31
0.0
  0
LINE
  5
EF
  8
DATA
  6
CONTINUOUS
 62
     7
 10
24.000000000007201
 20
467.0000000000008
 30
0.0
 11
54.249999999999993
 21
436.75000000000841
 31
0.0
  0
LINE
  5
F0
  8
DATA
  6
CONTINUOUS
 62
     7
 10
-154.24999999999989
 20
436.7500000000075
 30
0.0
 11
-124.00000000000681
 21
467.0000000000008
 31
0.0
  0
ARC
  5
F1
  8
DATA
  6
CONTINUOUS
 62
     7
 10
-141.86046840338591
 20
-167.9307306205354
 30
0.0
 40
1.9707318268635909
 50
89.857647826987233
 51
126.1555082994452
  0
ARC
  5
F2
  8
DATA
  6
CONTINUOUS
 62
     7
 10
-141.3005647117165
 20
-168.7742133831122
 30
0.0
 40
2.982454929822842
 50
125.2802178769697
 51
152.63673302930431
  0
ARC
  5
F3
  8
DATA
  6
CONTINUOUS
 62
     7
 10
-139.6113924314802
 20
-169.6466520541324
 30
0.0
 40
4.883625809883732
 50
152.6551922913537
 51
180.1566012518895
  0
ARC
  5
F4
  8
DATA
  6
CONTINUOUS
 62
     7
 10
-141.86046840338591
 20
-171.38926937946451
 30
0.0
 40
1.9707318268635581
 50
233.84449170055481
 51
270.14235217301268
  0
ARC
  5
F5
  8
DATA
  6
CONTINUOUS
 62
     7
 10
-141.3005647117165
 20
-170.5457866168878
 30
0.0
 40
2.9824549298228602
 50
207.36326697069549
 51
234.71978212303031
  0
ARC
  5
F6
  8
DATA
  6
CONTINUOUS
 62
     7
 10
-139.6113924314802
 20
-169.6733479458675
 30
0.0
 40
4.8836258098837044
 50
179.8433987481105
 51
207.34480770864619
  0
ARC
  5
F7
  8
DATA
  6
CONTINUOUS
 62
     7
 10
-141.85953159661409
 20
-167.9307306205354
 30
0.0
 40
1.9707318268635581
 50
53.844491700554769
 51
90.142352173012753
  0
ARC
  5
F8
  8
DATA
  6
CONTINUOUS
 62
     7
 10
-142.41943528828349
 20
-168.7742133831122
 30
0.0
 40
2.9824549298228602
 50
27.363266970695619
 51
54.719782123030299
  0
ARC
  5
F9
  8
DATA
  6
CONTINUOUS
 62
     7
 10
-144.1086075685198
 20
-169.6466520541324
 30
0.0
 40
4.8836258098837044
 50
359.84339874811047
 51
27.344807708646272
  0
ARC
  5
FA
  8
DATA
  6
CONTINUOUS
 62
     7
 10
-141.85953159661409
 20
-171.38926937946451
 30
0.0
 40
1.9707318268635341
 50
269.8576478269872
 51
306.15550829944522
  0
ARC
  5
FB
  8
DATA
  6
CONTINUOUS
 62
     7
 10
-142.41943528828349
 20
-170.5457866168878
 30
0.0
 40
2.982454929822842
 50
305.28021787696969
 51
332.63673302930431
  0
ARC
  5
FC
  8
DATA
  6
CONTINUOUS
 62
     7
 10
-144.1086075685198
 20
-169.6733479458675
 30
0.0
 40
4.883625809883732
 50
332.65519229135373
 51
0.1566012518895263
  0
ARC
  5
FD
  8
DATA
  6
CONTINUOUS
 62
     7
 10
-141.86046840338591
 20
-218.73073062053541
 30
0.0
 40
1.9707318268635909
 50
89.857647826987233
 51
126.1555082994452
  0
ARC
  5
FE
  8
DATA
  6
CONTINUOUS
 62
     7
 10
-141.3005647117165
 20
-219.57421338311221
 30
0.0
 40
2.982454929822842
 50
125.2802178769697
 51
152.63673302930431
  0
ARC
  5
FF
  8
DATA
  6
CONTINUOUS
 62
     7
 10
-139.6113924314802
 20
-220.44665205413239
 30
0.0
 40
4.883625809883732
 50
152.6551922913537
 51
180.1566012518895
  0
ARC
  5
100
  8
DATA
  6
CONTINUOUS
 62
     7
 10
-141.86046840338591
 20
-222.18926937946449
 30
0.0
 40
1.9707318268635581
 50
233.84449170055481
 51
270.14235217301268
  0
ARC
  5
101
  8
DATA
  6
CONTINUOUS
 62
     7
 10
-141.3005647117165
 20
-221.34578661688781
 30
0.0
 40
2.9824549298228602
 50
207.36326697069549
 51
234.71978212303031
  0
ARC
  5
102
  8
DATA
  6
CONTINUOUS
 62
     7
 10
-139.6113924314802
 20
-220.47334794586749
 30
0.0
 40
4.8836258098837044
 50
179.8433987481105
 51
207.34480770864619
  0
ARC
  5
103
  8
DATA
  6
CONTINUOUS
 62
     7
 10
-141.85953159661409
 20
-218.73073062053541
 30
0.0
 40
1.9707318268635581
 50
53.844491700554769
 51
90.142352173012753
  0
ARC
  5
104
  8
DATA
  6
CONTINUOUS
 62
     7
 10
-142.41943528828349
 20
-219.57421338311221
 30
0.0
 40
2.9824549298228602
 50
27.363266970695619
 51
54.719782123030299
  0
ARC
  5
105
  8
DATA
  6
CONTINUOUS
 62
     7
 10
-144.1086075685198
 20
-220.44665205413239
 30
0.0
 40
4.8836258098837044
 50
359.84339874811047
 51
27.344807708646272
  0
ARC
  5
106
  8
DATA
  6
CONTINUOUS
 62
     7
 10
-141.85953159661409
 20
-222.18926937946449
 30
0.0
 40
1.9707318268635341
 50
269.8576478269872
 51
306.15550829944522
  0
ARC
  5
107
  8
DATA
  6
CONTINUOUS
 62
     7
 10
-142.41943528828349
 20
-221.34578661688781
 30
0.0
 40
2.982454929822842
 50
305.28021787696969
 51
332.63673302930431
  0
ARC
  5
108
  8
DATA
  6
CONTINUOUS
 62
     7
 10
-144.1086075685198
 20
-220.47334794586749
 30
0.0
 40
4.883625809883732
 50
332.65519229135373
 51
0.1566012518895263
  0
ARC
  5
109
  8
DATA
  6
CONTINUOUS
 62
     7
 10
-141.86046840338591
 20
-117.1307306205354
 30
0.0
 40
1.970731826863563
 50
89.857647826987233
 51
126.1555082994452
  0
ARC
  5
10A
  8
DATA
  6
CONTINUOUS
 62
     7
 10
-141.3005647117165
 20
-117.9742133831122
 30
0.0
 40
2.982454929822842
 50
125.2802178769697
 51
152.63673302930431
  0
ARC
  5
10B
  8
DATA
  6
CONTINUOUS
 62
     7
 10
-139.6113924314802
 20
-118.84665205413241
 30
0.0
 40
4.883625809883732
 50
152.6551922913537
 51
180.1566012518895
  0
ARC
  5
10C
  8
DATA
  6
CONTINUOUS
 62
     7
 10
-141.86046840338591
 20
-120.5892693794645
 30
0.0
 40
1.9707318268635581
 50
233.84449170055481
 51
270.14235217301268
  0
ARC
  5
10D
  8
DATA
  6
CONTINUOUS
 62
     7
 10
-141.3005647117165
 20
-119.7457866168877
 30
0.0
 40
2.9824549298228602
 50
207.36326697069549
 51
234.71978212303031
  0
ARC
  5
10E
  8
DATA
  6
CONTINUOUS
 62
     7
 10
-139.6113924314802
 20
-118.87334794586749
 30
0.0
 40
4.8836258098837044
 50
179.8433987481105
 51
207.34480770864619
  0
ARC
  5
10F
  8
DATA
  6
CONTINUOUS
 62
     7
 10
-141.85953159661409
 20
-117.1307306205354
 30
0.0
 40
1.9707318268635581
 50
53.844491700554769
 51
90.142352173012753
  0
ARC
  5
110
  8
DATA
  6
CONTINUOUS
 62
     7
 10
-142.41943528828349
 20
-117.9742133831122
 30
0.0
 40
2.9824549298228602
 50
27.363266970695619
 51
54.719782123030299
  0
ARC
  5
111
  8
DATA
  6
CONTINUOUS
 62
     7
 10
-144.1086075685198
 20
-118.84665205413241
 30
0.0
 40
4.8836258098837044
 50
359.84339874811047
 51
27.344807708646272
  0
ARC
  5
112
  8
DATA
  6
CONTINUOUS
 62
     7
 10
-141.85953159661409
 20
-120.5892693794645
 30
0.0
 40
1.9707318268635341
 50
269.8576478269872
 51
306.15550829944522
  0
ARC
  5
113
  8
DATA
  6
CONTINUOUS
 62
     7
 10
-142.41943528828349
 20
-119.7457866168877
 30
0.0
 40
2.982454929822842
 50
305.28021787696969
 51
332.63673302930431
  0
ARC
  5
114
  8
DATA
  6
CONTINUOUS
 62
     7
 10
-144.1086075685198
 20
-118.87334794586749
 30
0.0
 40
4.883625809883732
 50
332.65519229135373
 51
0.1566012518895263
  0
ARC
  5
115
  8
DATA
  6
CONTINUOUS
 62
     7
 10
41.85953159661409
 20
-117.1307306205354
 30
0.0
 40
1.970731826863563
 50
89.857647826987233
 51
126.1555082994452
  0
ARC
  5
116
  8
DATA
  6
CONTINUOUS
 62
     7
 10
42.41943528828353
 20
-117.9742133831122
 30
0.0
 40
2.982454929822842
 50
125.2802178769697
 51
152.63673302930431
  0
ARC
  5
117
  8
DATA
  6
CONTINUOUS
 62
     7
 10
44.108607568519751
 20
-118.84665205413241
 30
0.0
 40
4.883625809883732
 50
152.6551922913537
 51
180.1566012518895
  0
ARC
  5
118
  8
DATA
  6
CONTINUOUS
 62
     7
 10
41.85953159661409
 20
-120.5892693794645
 30
0.0
 40
1.9707318268635581
 50
233.84449170055481
 51
270.14235217301268
  0
ARC
  5
119
  8
DATA
  6
CONTINUOUS
 62
     7
 10
42.41943528828353
 20
-119.7457866168877
 30
0.0
 40
2.9824549298228602
 50
207.36326697069549
 51
234.71978212303031
  0
ARC
  5
11A
  8
DATA
  6
CONTINUOUS
 62
     7
 10
44.108607568519751
 20
-118.87334794586749
 30
0.0
 40
4.8836258098837044
 50
179.8433987481105
 51
207.34480770864619
  0
ARC
  5
11B
  8
DATA
  6
CONTINUOUS
 62
     7
 10
41.860468403385887
 20
-117.1307306205354
 30
0.0
 40
1.9707318268635581
 50
53.844491700554769
 51
90.142352173012753
  0
ARC
  5
11C
  8
DATA
  6
CONTINUOUS
 62
     7
 10
41.300564711716468
 20
-117.9742133831122
 30
0.0
 40
2.9824549298228602
 50
27.363266970695619
 51
54.719782123030299
  0
ARC
  5
11D
  8
DATA
  6
CONTINUOUS
 62
     7
 10
39.61139243148024
 20
-118.84665205413241
 30
0.0
 40
4.8836258098837044
 50
359.84339874811047
 51
27.344807708646272
  0
ARC
  5
11E
  8
DATA
  6
CONTINUOUS
 62
     7
 10
41.860468403385887
 20
-120.5892693794645
 30
0.0
 40
1.9707318268635341
 50
269.8576478269872
 51
306.15550829944522
  0
ARC
  5
11F
  8
DATA
  6
CONTINUOUS
 62
     7
 10
41.300564711716468
 20
-119.7457866168877
 30
0.0
 40
2.982454929822842
 50
305.28021787696969
 51
332.63673302930431
  0
ARC
  5
120
  8
DATA
  6
CONTINUOUS
 62
     7
 10
39.61139243148024
 20
-118.87334794586749
 30
0.0
 40
4.883625809883732
 50
332.65519229135373
 51
0.1566012518895263
  0
ARC
  5
121
  8
DATA
  6
CONTINUOUS
 62
     7
 10
41.85953159661409
 20
-167.9307306205354
 30
0.0
 40
1.9707318268635909
 50
89.857647826987233
 51
126.1555082994452
  0
ARC
  5
122
  8
DATA
  6
CONTINUOUS
 62
     7
 10
42.41943528828353
 20
-168.7742133831122
 30
0.0
 40
2.982454929822842
 50
125.2802178769697
 51
152.63673302930431
  0
ARC
  5
123
  8
DATA
  6
CONTINUOUS
 62
     7
 10
44.108607568519751
 20
-169.6466520541324
 30
0.0
 40
4.883625809883732
 50
152.6551922913537
 51
180.1566012518895
  0
ARC
  5
124
  8
DATA
  6
CONTINUOUS
 62
     7
 10
41.85953159661409
 20
-171.38926937946451
 30
0.0
 40
1.9707318268635581
 50
233.84449170055481
 51
270.14235217301268
  0
ARC
  5
125
  8
DATA
  6
CONTINUOUS
 62
     7
 10
42.41943528828353
 20
-170.5457866168878
 30
0.0
 40
2.9824549298228602
 50
207.36326697069549
 51
234.71978212303031
  0
ARC
  5
126
  8
DATA
  6
CONTINUOUS
 62
     7
 10
44.108607568519751
 20
-169.6733479458675
 30
0.0
 40
4.8836258098837044
 50
179.8433987481105
 51
207.34480770864619
  0
ARC
  5
127
  8
DATA
  6
CONTINUOUS
 62
     7
 10
41.860468403385887
 20
-167.9307306205354
 30
0.0
 40
1.9707318268635581
 50
53.844491700554769
 51
90.142352173012753
  0
ARC
  5
128
  8
DATA
  6
CONTINUOUS
 62
     7
 10
41.300564711716468
 20
-168.7742133831122
 30
0.0
 40
2.9824549298228602
 50
27.363266970695619
 51
54.719782123030299
  0
ARC
  5
129
  8
DATA
  6
CONTINUOUS
 62
     7
 10
39.61139243148024
 20
-169.6466520541324
 30
0.0
 40
4.8836258098837044
 50
359.84339874811047
 51
27.344807708646272
  0
ARC
  5
12A
  8
DATA
  6
CONTINUOUS
 62
     7
 10
41.860468403385887
 20
-171.38926937946451
 30
0.0
 40
1.9707318268635341
 50
269.8576478269872
 51
306.15550829944522
  0
ARC
  5
12B
  8
DATA
  6
CONTINUOUS
 62
     7
 10
41.300564711716468
 20
-170.5457866168878
 30
0.0
 40
2.982454929822842
 50
305.28021787696969
 51
332.63673302930431
  0
ARC
  5
12C
  8
DATA
  6
CONTINUOUS
 62
     7
 10
39.61139243148024
 20
-169.6733479458675
 30
0.0
 40
4.883625809883732
 50
332.65519229135373
 51
0.1566012518895263
  0
ARC
  5
12D
  8
DATA
  6
CONTINUOUS
 62
     7
 10
41.85953159661409
 20
-218.73073062053541
 30
0.0
 40
1.9707318268635909
 50
89.857647826987233
 51
126.1555082994452
  0
ARC
  5
12E
  8
DATA
  6
CONTINUOUS
 62
     7
 10
42.41943528828353
 20
-219.57421338311221
 30
0.0
 40
2.982454929822842
 50
125.2802178769697
 51
152.63673302930431
  0
ARC
  5
12F
  8
DATA
  6
CONTINUOUS
 62
     7
 10
44.108607568519751
 20
-220.44665205413239
 30
0.0
 40
4.883625809883732
 50
152.6551922913537
 51
180.1566012518895
  0
ARC
  5
130
  8
DATA
  6
CONTINUOUS
 62
     7
 10
41.85953159661409
 20
-222.18926937946449
 30
0.0
 40
1.9707318268635581
 50
233.84449170055481
 51
270.14235217301268
  0
ARC
  5
131
  8
DATA
  6
CONTINUOUS
 62
     7
 10
42.41943528828353
 20
-221.34578661688781
 30
0.0
 40
2.9824549298228602
 50
207.36326697069549
 51
234.71978212303031
  0
ARC
  5
132
  8
DATA
  6
CONTINUOUS
 62
     7
 10
44.108607568519751
 20
-220.47334794586749
 30
0.0
 40
4.8836258098837044
 50
179.8433987481105
 51
207.34480770864619
  0
ARC
  5
133
  8
DATA
  6
CONTINUOUS
 62
     7
 10
41.860468403385887
 20
-218.73073062053541
 30
0.0
 40
1.9707318268635581
 50
53.844491700554769
 51
90.142352173012753
  0
ARC
  5
134
  8
DATA
  6
CONTINUOUS
 62
     7
 10
41.300564711716468
 20
-219.57421338311221
 30
0.0
 40
2.9824549298228602
 50
27.363266970695619
 51
54.719782123030299
  0
ARC
  5
135
  8
DATA
  6
CONTINUOUS
 62
     7
 10
39.61139243148024
 20
-220.44665205413239
 30
0.0
 40
4.8836258098837044
 50
359.84339874811047
 51
27.344807708646272
  0
ARC
  5
136
  8
DATA
  6
CONTINUOUS
 62
     7
 10
41.860468403385887
 20
-222.18926937946449
 30
0.0
 40
1.9707318268635341
 50
269.8576478269872
 51
306.15550829944522
  0
ARC
  5
137
  8
DATA
  6
CONTINUOUS
 62
     7
 10
41.300564711716468
 20
-221.34578661688781
 30
0.0
 40
2.982454929822842
 50
305.28021787696969
 51
332.63673302930431
  0
ARC
  5
138
  8
DATA
  6
CONTINUOUS
 62
     7
 10
39.61139243148024
 20
-220.47334794586749
 30
0.0
 40
4.883625809883732
 50
332.65519229135373
 51
0.1566012518895263
  0
ARC
  5
139
  8
DATA
  6
CONTINUOUS
 62
     7
 10
649.37953159661424
 20
-117.1307306205354
 30
0.0
 40
1.970731826863563
 50
89.857647826987233
 51
126.15550829944721
  0
ARC
  5
13A
  8
DATA
  6
CONTINUOUS
 62
     7
 10
649.93943528828345
 20
-117.9742133831122
 30
0.0
 40
2.9824549298228922
 50
125.28021787697099
 51
152.63673302930431
  0
ARC
  5
13B
  8
DATA
  6
CONTINUOUS
 62
     7
 10
651.6286075685199
 20
-118.84665205413241
 30
0.0
 40
4.883625809883732
 50
152.6551922913537
 51
180.1566012518895
  0
ARC
  5
13C
  8
DATA
  6
CONTINUOUS
 62
     7
 10
649.37953159661424
 20
-120.5892693794645
 30
0.0
 40
1.970731826863608
 50
233.84449170055271
 51
270.14235217301268
  0
ARC
  5
13D
  8
DATA
  6
CONTINUOUS
 62
     7
 10
649.93943528828345
 20
-119.7457866168877
 30
0.0
 40
2.9824549298228602
 50
207.36326697069549
 51
234.71978212302889
  0
ARC
  5
13E
  8
DATA
  6
CONTINUOUS
 62
     7
 10
651.6286075685199
 20
-118.87334794586749
 30
0.0
 40
4.883625809883732
 50
179.8433987481105
 51
207.34480770864619
  0
ARC
  5
13F
  8
DATA
  6
CONTINUOUS
 62
     7
 10
649.38046840338586
 20
-117.1307306205354
 30
0.0
 40
1.970731826863608
 50
53.844491700552759
 51
90.142352173012753
  0
ARC
  5
140
  8
DATA
  6
CONTINUOUS
 62
     7
 10
648.82056471171654
 20
-117.9742133831122
 30
0.0
 40
2.9824549298228602
 50
27.363266970695619
 51
54.71978212302897
  0
ARC
  5
141
  8
DATA
  6
CONTINUOUS
 62
     7
 10
647.13139243148044
 20
-118.84665205413241
 30
0.0
 40
4.883625809883732
 50
359.84339874811047
 51
27.344807708646272
  0
ARC
  5
142
  8
DATA
  6
CONTINUOUS
 62
     7
 10
649.38046840338586
 20
-120.5892693794645
 30
0.0
 40
1.9707318268635341
 50
269.8576478269872
 51
306.15550829944721
  0
ARC
  5
143
  8
DATA
  6
CONTINUOUS
 62
     7
 10
648.82056471171654
 20
-119.7457866168877
 30
0.0
 40
2.9824549298228922
 50
305.28021787697099
 51
332.63673302930431
  0
ARC
  5
144
  8
DATA
  6
CONTINUOUS
 62
     7
 10
647.13139243148044
 20
-118.87334794586749
 30
0.0
 40
4.883625809883732
 50
332.65519229135373
 51
0.1566012518895263
  0
ARC
  5
145
  8
DATA
  6
CONTINUOUS
 62
     7
 10
649.37953159661424
 20
-167.9307306205354
 30
0.0
 40
1.9707318268635909
 50
89.857647826987233
 51
126.15550829944721
  0
ARC
  5
146
  8
DATA
  6
CONTINUOUS
 62
     7
 10
649.93943528828345
 20
-168.7742133831122
 30
0.0
 40
2.9824549298228922
 50
125.28021787697099
 51
152.63673302930431
  0
ARC
  5
147
  8
DATA
  6
CONTINUOUS
 62
     7
 10
651.6286075685199
 20
-169.6466520541324
 30
0.0
 40
4.883625809883732
 50
152.6551922913537
 51
180.1566012518895
  0
ARC
  5
148
  8
DATA
  6
CONTINUOUS
 62
     7
 10
649.37953159661424
 20
-171.38926937946451
 30
0.0
 40
1.970731826863608
 50
233.84449170055271
 51
270.14235217301268
  0
ARC
  5
149
  8
DATA
  6
CONTINUOUS
 62
     7
 10
649.93943528828345
 20
-170.5457866168878
 30
0.0
 40
2.9824549298228602
 50
207.36326697069549
 51
234.71978212302889
  0
ARC
  5
14A
  8
DATA
  6
CONTINUOUS
 62
     7
 10
651.6286075685199
 20
-169.6733479458675
 30
0.0
 40
4.883625809883732
 50
179.8433987481105
 51
207.34480770864619
  0
ARC
  5
14B
  8
DATA
  6
CONTINUOUS
 62
     7
 10
649.38046840338586
 20
-167.9307306205354
 30
0.0
 40
1.970731826863608
 50
53.844491700552759
 51
90.142352173012753
  0
ARC
  5
14C
  8
DATA
  6
CONTINUOUS
 62
     7
 10
648.82056471171654
 20
-168.7742133831122
 30
0.0
 40
2.9824549298228602
 50
27.363266970695619
 51
54.71978212302897
  0
ARC
  5
14D
  8
DATA
  6
CONTINUOUS
 62
     7
 10
647.13139243148044
 20
-169.6466520541324
 30
0.0
 40
4.883625809883732
 50
359.84339874811047
 51
27.344807708646272
  0
ARC
  5
14E
  8
DATA
  6
CONTINUOUS
 62
     7
 10
649.38046840338586
 20
-171.38926937946451
 30
0.0
 40
1.9707318268635341
 50
269.8576478269872
 51
306.15550829944721
  0
ARC
  5
14F
  8
DATA
  6
CONTINUOUS
 62
     7
 10
648.82056471171654
 20
-170.5457866168878
 30
0.0
 40
2.9824549298228922
 50
305.28021787697099
 51
332.63673302930431
  0
ARC
  5
150
  8
DATA
  6
CONTINUOUS
 62
     7
 10
647.13139243148044
 20
-169.6733479458675
 30
0.0
 40
4.883625809883732
 50
332.65519229135373
 51
0.1566012518895263
  0
ARC
  5
151
  8
DATA
  6
CONTINUOUS
 62
     7
 10
649.37953159661424
 20
-218.73073062053541
 30
0.0
 40
1.9707318268635909
 50
89.857647826987233
 51
126.15550829944721
  0
ARC
  5
152
  8
DATA
  6
CONTINUOUS
 62
     7
 10
649.93943528828345
 20
-219.57421338311221
 30
0.0
 40
2.9824549298228922
 50
125.28021787697099
 51
152.63673302930431
  0
ARC
  5
153
  8
DATA
  6
CONTINUOUS
 62
     7
 10
651.6286075685199
 20
-220.44665205413239
 30
0.0
 40
4.883625809883732
 50
152.6551922913537
 51
180.1566012518895
  0
ARC
  5
154
  8
DATA
  6
CONTINUOUS
 62
     7
 10
649.37953159661424
 20
-222.18926937946449
 30
0.0
 40
1.970731826863608
 50
233.84449170055271
 51
270.14235217301268
  0
ARC
  5
155
  8
DATA
  6
CONTINUOUS
 62
     7
 10
649.93943528828345
 20
-221.34578661688781
 30
0.0
 40
2.9824549298228602
 50
207.36326697069549
 51
234.71978212302889
  0
ARC
  5
156
  8
DATA
  6
CONTINUOUS
 62
     7
 10
651.6286075685199
 20
-220.47334794586749
 30
0.0
 40
4.883625809883732
 50
179.8433987481105
 51
207.34480770864619
  0
ARC
  5
157
  8
DATA
  6
CONTINUOUS
 62
     7
 10
649.38046840338586
 20
-218.73073062053541
 30
0.0
 40
1.970731826863608
 50
53.844491700552759
 51
90.142352173012753
  0
ARC
  5
158
  8
DATA
  6
CONTINUOUS
 62
     7
 10
648.82056471171654
 20
-219.57421338311221
 30
0.0
 40
2.9824549298228602
 50
27.363266970695619
 51
54.71978212302897
  0
ARC
  5
159
  8
DATA
  6
CONTINUOUS
 62
     7
 10
647.13139243148044
 20
-220.44665205413239
 30
0.0
 40
4.883625809883732
 50
359.84339874811047
 51
27.344807708646272
  0
ARC
  5
15A
  8
DATA
  6
CONTINUOUS
 62
     7
 10
649.38046840338586
 20
-222.18926937946449
 30
0.0
 40
1.9707318268635341
 50
269.8576478269872
 51
306.15550829944721
  0
ARC
  5
15B
  8
DATA
  6
CONTINUOUS
 62
     7
 10
648.82056471171654
 20
-221.34578661688781
 30
0.0
 40
2.9824549298228922
 50
305.28021787697099
 51
332.63673302930431
  0
ARC
  5
15C
  8
DATA
  6
CONTINUOUS
 62
     7
 10
647.13139243148044
 20
-220.47334794586749
 30
0.0
 40
4.883625809883732
 50
332.65519229135373
 51
0.1566012518895263
  0
ENDSEC
  0
EOF
