  0
SECTION
  2
HEADER
  9
$ACADVER
  1
AC1009
  9
$INSBASE
 10
0.0
 20
0.0
 30
0.0
  9
$EXTMIN
 10
-1350.0823911746061
 20
-2014.6849778984381
 30
-0.0015258207003583
  9
$EXTMAX
 10
1350.0824037474611
 20
1999.567671355127
 30
0.0000000349246037
  9
$LIMMIN
 10
0.0
 20
0.0
  9
$LIMMAX
 10
0.0
 20
0.0
  9
$ORTHOMODE
 70
     0
  9
$REGENMODE
 70
     1
  9
$FILLMODE
 70
     1
  9
$QTEXTMODE
 70
     0
  9
$MIRRTEXT
 70
     1
  9
$DRAGMODE
 70
     2
  9
$LTSCALE
 40
190.5
  9
$OSMODE
 70
   231
  9
$ATTMODE
 70
     1
  9
$TEXTSIZE
 40
0.0
  9
$TRACEWID
 40
1.0
  9
$TEXTSTYLE
  7
STANDARD
  9
$CLAYER
  8
DATA
  9
$CELTYPE
  6
BYLAYER
  9
$CECOLOR
 62
   256
  9
$DIMSCALE
 40
1.0
  9
$DIMASZ
 40
0.18
  9
$DIMEXO
 40
0.0625
  9
$DIMDLI
 40
0.38
  9
$DIMRND
 40
0.0
  9
$DIMDLE
 40
0.0
  9
$DIMEXE
 40
0.18
  9
$DIMTP
 40
0.0
  9
$DIMTM
 40
0.0
  9
$DIMTXT
 40
0.18
  9
$DIMCEN
 40
0.09
  9
$DIMTSZ
 40
0.0
  9
$DIMTOL
 70
     0
  9
$DIMLIM
 70
     0
  9
$DIMTIH
 70
     1
  9
$DIMTOH
 70
     1
  9
$DIMSE1
 70
     0
  9
$DIMSE2
 70
     0
  9
$DIMTAD
 70
     0
  9
$DIMZIN
 70
     0
  9
$DIMBLK
  1

  9
$DIMASO
 70
     1
  9
$DIMSHO
 70
     1
  9
$DIMPOST
  1

  9
$DIMAPOST
  1

  9
$DIMALT
 70
     0
  9
$DIMALTD
 70
     2
  9
$DIMALTF
 40
25.399999999999999
  9
$DIMLFAC
 40
1.0
  9
$DIMTOFL
 70
     0
  9
$DIMTVP
 40
0.0
  9
$DIMTIX
 70
     0
  9
$DIMSOXD
 70
     0
  9
$DIMSAH
 70
     0
  9
$DIMBLK1
  1

  9
$DIMBLK2
  1

  9
$DIMSTYLE
  2
STANDARD
  9
$DIMCLRD
 70
     0
  9
$DIMCLRE
 70
     0
  9
$DIMCLRT
 70
     0
  9
$DIMTFAC
 40
1.0
  9
$DIMGAP
 40
0.09
  9
$LUNITS
 70
     2
  9
$LUPREC
 70
     4
  9
$SKETCHINC
 40
0.1
  9
$FILLETRAD
 40
0.0
  9
$AUNITS
 70
     0
  9
$AUPREC
 70
     0
  9
$MENU
  1
acad
  9
$ELEVATION
 40
0.0
  9
$PELEVATION
 40
0.0
  9
$THICKNESS
 40
0.0
  9
$LIMCHECK
 70
     0
  9
$BLIPMODE
 70
     0
  9
$CHAMFERA
 40
0.0
  9
$CHAMFERB
 40
0.0
  9
$SKPOLY
 70
     0
  9
$TDCREATE
 40
2456693.7636689809
  9
$TDUPDATE
 40
2456693.7732290272
  9
$TDINDWG
 40
0.0003879977
  9
$TDUSRTIMER
 40
0.0003879282
  9
$USRTIMER
 70
     1
  9
$ANGBASE
 50
0.0
  9
$ANGDIR
 70
     0
  9
$PDMODE
 70
     1
  9
$PDSIZE
 40
-2.0
  9
$PLINEWID
 40
0.0
  9
$COORDS
 70
     2
  9
$SPLFRAME
 70
     0
  9
$SPLINETYPE
 70
     6
  9
$SPLINESEGS
 70
     8
  9
$ATTDIA
 70
     0
  9
$ATTREQ
 70
     1
  9
$HANDLING
 70
     1
  9
$HANDSEED
  5
51A
  9
$SURFTAB1
 70
     6
  9
$SURFTAB2
 70
     6
  9
$SURFTYPE
 70
     6
  9
$SURFU
 70
     6
  9
$SURFV
 70
     6
  9
$UCSNAME
  2

  9
$UCSORG
 10
0.0
 20
0.0
 30
0.0
  9
$UCSXDIR
 10
1.0
 20
0.0
 30
0.0
  9
$UCSYDIR
 10
0.0
 20
1.0
 30
0.0
  9
$PUCSNAME
  2

  9
$PUCSORG
 10
0.0
 20
0.0
 30
0.0
  9
$PUCSXDIR
 10
1.0
 20
0.0
 30
0.0
  9
$PUCSYDIR
 10
0.0
 20
1.0
 30
0.0
  9
$USERI1
 70
     0
  9
$USERI2
 70
     0
  9
$USERI3
 70
     0
  9
$USERI4
 70
     0
  9
$USERI5
 70
     0
  9
$USERR1
 40
0.0
  9
$USERR2
 40
0.0
  9
$USERR3
 40
0.0
  9
$USERR4
 40
0.0
  9
$USERR5
 40
0.0
  9
$WORLDVIEW
 70
     1
  9
$SHADEDGE
 70
     3
  9
$SHADEDIF
 70
    70
  9
$TILEMODE
 70
     1
  9
$MAXACTVP
 70
    64
  9
$PLIMCHECK
 70
     0
  9
$PEXTMIN
 10
1.0000000000000000E+020
 20
1.0000000000000000E+020
 30
1.0000000000000000E+020
  9
$PEXTMAX
 10
-1.0000000000000000E+020
 20
-1.0000000000000000E+020
 30
-1.0000000000000000E+020
  9
$PLIMMIN
 10
0.0
 20
0.0
  9
$PLIMMAX
 10
12.0
 20
9.0
  9
$UNITMODE
 70
     0
  9
$VISRETAIN
 70
     0
  9
$PLINEGEN
 70
     1
  9
$PSLTSCALE
 70
     0
  0
ENDSEC
  0
SECTION
  2
TABLES
  0
TABLE
  2
VPORT
 70
     1
  0
VPORT
  2
*ACTIVE
 70
     0
 10
0.0
 20
0.0
 11
1.0
 21
1.0
 12
0.0000062864282881
 22
-3.531805672908376
 13
0.0
 23
0.0
 14
1.0
 24
1.0
 15
0.0
 25
0.0
 16
0.0
 26
0.0
 36
1.0
 17
0.0
 27
0.0
 37
0.0
 40
4037.7438277100559
 41
2.1787122207621552
 42
50.0
 43
0.0
 44
0.0
 50
0.0
 51
0.0
 71
     0
 72
  2000
 73
     1
 74
     1
 75
     0
 76
     0
 77
     0
 78
     0
  0
ENDTAB
  0
TABLE
  2
LTYPE
 70
    12
  0
LTYPE
  2
CONTINUOUS
 70
     0
  3
Solid line
 72
    65
 73
     0
 40
0.0
  0
ENDTAB
  0
TABLE
  2
LAYER
 70
     5
  0
LAYER
  2
0
 70
     0
 62
     7
  6
CONTINUOUS
  0
LAYER
  2
DATA
 70
     0
 62
     7
  6
CONTINUOUS
  0
LAYER
  2
HIBINO-BASE
 70
     0
 62
     7
  6
CONTINUOUS
  0
LAYER
  2
SPEC
 70
     0
 62
     7
  6
CONTINUOUS
  0
LAYER
  2
DIMNSIONS
 70
     0
 62
     7
  6
CONTINUOUS
  0
ENDTAB
  0
TABLE
  2
STYLE
 70
     3
  0
STYLE
  2
STANDARD
 70
     0
 40
0.0
 41
1.0
 50
0.0
 71
     0
 42
0.0
  3
txt
  4
BIGFONT.SHX
  0
ENDTAB
  0
TABLE
  2
VIEW
 70
     0
  0
ENDTAB
  0
TABLE
  2
UCS
 70
     0
  0
ENDTAB
  0
TABLE
  2
APPID
 70
     4
  0
APPID
  2
ACAD
 70
     0
  0
APPID
  2
ACADANNOTATIVE
 70
     0
  0
APPID
  2
ACAD_NAV_VCDISPLAY
 70
     0
  0
APPID
  2
ACAD_MLEADERVER
 70
     0
  0
ENDTAB
  0
TABLE
  2
DIMSTYLE
 70
     2
  0
DIMSTYLE
  2
STANDARD
 70
     0
  3

  4

  5

  6

  7

 40
1.0
 41
0.18
 42
0.0625
 43
0.38
 44
0.18
 45
0.0
 46
0.0
 47
0.0
 48
0.0
140
0.18
141
0.09
142
0.0
143
25.399999999999999
144
1.0
145
0.0
146
1.0
147
0.09
 71
     0
 72
     0
 73
     1
 74
     1
 75
     0
 76
     0
 77
     0
 78
     0
170
     0
171
     2
172
     0
173
     0
174
     0
175
     0
176
     0
177
     0
178
     0
  0
ENDTAB
  0
ENDSEC
  0
SECTION
  2
BLOCKS
  0
BLOCK
  8
0
  2
$MODEL_SPACE
 70
     0
 10
0.0
 20
0.0
 30
0.0
  3
$MODEL_SPACE
  1

  0
ENDBLK
  5
48E
  8
0
  0
BLOCK
 67
     1
  8
0
  2
$PAPER_SPACE
 70
     0
 10
0.0
 20
0.0
 30
0.0
  3
$PAPER_SPACE
  1

  0
ENDBLK
  5
48A
 67
     1
  8
0
  0
ENDSEC
  0
SECTION
  2
ENTITIES
  0
LINE
  5
2D
  8
HIBINO-BASE
  6
CONTINUOUS
 62
     7
 10
-1350.0
 20
1999.44541
 30
0.0
 11
1350.0
 21
1999.44541
 31
0.0
  0
LINE
  5
2E
  8
HIBINO-BASE
  6
CONTINUOUS
 62
     7
 10
1350.0
 20
-1900.5545900000011
 30
0.0
 11
-1350.0
 21
-1900.5545900000011
 31
0.0
  0
LINE
  5
2F
  8
HIBINO-BASE
  6
CONTINUOUS
 62
     7
 10
-1350.0
 20
-1900.5545900000011
 30
0.0
 11
-1350.0
 21
1999.44541
 31
0.0
  0
LINE
  5
30
  8
HIBINO-BASE
  6
CONTINUOUS
 62
     7
 10
1350.0
 20
1999.44541
 30
0.0
 11
1350.0
 21
-1900.5545900000011
 31
0.0
  0
LINE
  5
31
  8
HIBINO-BASE
  6
CONTINUOUS
 62
     7
 10
0.0000000000001066
 20
-1563.0545900000011
 30
0.0
 11
1350.0
 21
-1563.0545900000011
 31
0.0
  0
LINE
  5
32
  8
HIBINO-BASE
  6
CONTINUOUS
 62
     7
 10
0.0000000000001066
 20
-1900.5545900000011
 30
0.0
 11
0.0000000000001066
 21
-1563.0545900000011
 31
0.0
  0
TEXT
  5
33
  8
HIBINO-BASE
 62
     7
 10
13.50000000000019
 20
-1600.68499
 30
0.0
 40
24.4326171875
  1
NOTE
 41
0.7
 11
13.50000000000019
 21
-1576.2523728125
 31
0.0
 73
     3
  0
LINE
  5
34
  8
HIBINO-BASE
  6
CONTINUOUS
 62
     7
 10
525.00000000000034
 20
-1900.5545900000011
 30
0.0
 11
525.00000000000034
 21
-1563.0545900000011
 31
0.0
  0
TEXT
  5
35
  8
HIBINO-BASE
 62
     7
 10
538.49999999999989
 20
-1600.68499
 30
0.0
 40
24.4326171875
  1
TITLE
 41
0.7
 11
538.49999999999989
 21
-1576.2523728125
 31
0.0
 73
     3
  0
LINE
  5
36
  8
HIBINO-BASE
  6
CONTINUOUS
 62
     7
 10
0.0000000000001066
 20
-1750.5545900000011
 30
0.0
 11
1350.0
 21
-1750.5545900000011
 31
0.0
  0
TEXT
  5
37
  8
HIBINO-BASE
 62
     7
 10
726.0
 20
-1787.3401899999999
 30
0.0
 40
24.4326171875
  1
DRAWN
 41
0.7
 11
726.0
 21
-1762.9075728124999
 31
0.0
 73
     3
  0
TEXT
  5
38
  8
HIBINO-BASE
 62
     7
 10
351.0
 20
-1787.3401899999999
 30
0.0
 40
24.4326171875
  1
DATE
 41
0.7
 11
351.0
 21
-1762.9075728124999
 31
0.0
 73
     3
  0
TEXT
  5
39
  8
HIBINO-BASE
 62
     7
 10
201.0
 20
-1787.3401899999999
 30
0.0
 40
24.4326171875
  1
SCALE
 41
0.7
 11
201.0
 21
-1762.9075728124999
 31
0.0
 73
     3
  0
TEXT
  5
3A
  8
HIBINO-BASE
 62
     7
 10
538.49999999999989
 20
-1787.3401899999999
 30
0.0
 40
24.4326171875
  1
DESIGN
 41
0.7
 11
538.49999999999989
 21
-1762.9075728124999
 31
0.0
 73
     3
  0
TEXT
  5
3B
  8
HIBINO-BASE
 62
     7
 10
1100.9999999999991
 20
-1787.3401899999999
 30
0.0
 40
24.4326171875
  1
DRAWING NO.
 41
0.7
 11
1100.9999999999991
 21
-1762.9075728124999
 31
0.0
 73
     3
  0
TEXT
  5
3C
  8
HIBINO-BASE
 62
     7
 10
913.49999999999989
 20
-1787.3401899999999
 30
0.0
 40
24.4326171875
  1
CHECK
 41
0.7
 11
913.49999999999989
 21
-1762.9075728124999
 31
0.0
 73
     3
  0
LINE
  5
3D
  8
HIBINO-BASE
  6
CONTINUOUS
 62
     7
 10
215.62500000000011
 20
-1881.8045900000011
 30
0.0
 11
271.8750000000004
 21
-1825.5545900000011
 31
0.0
  0
TEXT
  5
3E
  8
HIBINO-BASE
 62
     7
 10
206.25000000000011
 20
-1842.1887400000001
 30
0.0
 40
24.4326171875
  1
1
 41
0.7
 11
206.25000000000011
 21
-1817.7561228125001
 31
0.0
 73
     3
  0
LINE
  5
3F
  8
HIBINO-BASE
  6
CONTINUOUS
 62
     7
 10
187.50000000000011
 20
-1900.5545900000011
 30
0.0
 11
187.50000000000011
 21
-1750.5545900000011
 31
0.0
  0
LINE
  5
40
  8
HIBINO-BASE
  6
CONTINUOUS
 62
     7
 10
337.49999999999989
 20
-1900.5545900000011
 30
0.0
 11
337.49999999999989
 21
-1750.5545900000011
 31
0.0
  0
LINE
  5
41
  8
HIBINO-BASE
  6
CONTINUOUS
 62
     7
 10
712.49999999999955
 20
-1750.5545900000011
 30
0.0
 11
712.49999999999955
 21
-1900.5545900000011
 31
0.0
  0
LINE
  5
42
  8
HIBINO-BASE
  6
CONTINUOUS
 62
     7
 10
1087.5
 20
-1750.5545900000011
 30
0.0
 11
1087.5
 21
-1900.5545900000011
 31
0.0
  0
LINE
  5
43
  8
HIBINO-BASE
  6
CONTINUOUS
 62
     7
 10
899.99999999999955
 20
-1900.5545900000011
 30
0.0
 11
899.99999999999955
 21
-1750.5545900000011
 31
0.0
  0
TEXT
  5
44
  8
HIBINO-BASE
 62
     7
 10
350.34810000000022
 20
-1857.59989
 30
0.0
 40
24.4326171875
  1
'14.01.
 41
0.7
 11
350.34810000000022
 21
-1833.1672728125
 31
0.0
 73
     3
  0
TEXT
  5
45
  8
HIBINO-BASE
 62
     7
 10
262.5
 20
-1870.3137400000001
 30
0.0
 40
24.4326171875
  1
15
 41
0.7
 11
262.5
 21
-1845.8811228125001
 31
0.0
 73
     3
  0
TEXT
  5
46
  8
HIBINO-BASE
 62
     7
 10
735.08715016551935
 20
-1857.59989
 30
0.0
 40
24.4326171875
  1
N.Sasaki
 41
0.7
 11
735.08715016551935
 21
-1833.1672728125
 31
0.0
 73
     3
  0
TEXT
  5
47
  8
HIBINO-BASE
 62
     7
 10
58.250000000000412
 20
-1870.9145900000001
 30
0.0
 40
48.865234374999993
  1
A4
 41
0.7
 11
58.250000000000412
 21
-1822.0493556250001
 31
0.0
 73
     3
  0
TEXT
  5
48
  8
HIBINO-BASE
 62
     7
 10
14.37500000000003
 20
-1789.846415
 30
0.0
 40
24.4326171875
  1
PAPER SIZE
 41
0.7
 11
14.37500000000003
 21
-1765.4137978125
 31
0.0
 73
     3
  0
TEXT
  5
49
  8
HIBINO-BASE
 62
     7
 10
-1242.24
 20
-1996.684757
 30
0.0
 40
54.000662695312492
  1
Hibino Corporation
 41
0.7
 11
-1242.24
 21
-1942.684094304688
 31
0.0
 73
     3
  0
TEXT
  5
4A
  8
HIBINO-BASE
 62
     7
 10
751.02584999999999
 20
-1996.684757
 30
0.0
 40
54.000662695312492
  1
ヒビノ株式会社
 41
0.7
 11
751.02584999999999
 21
-1942.684094304688
 31
0.0
 73
     3
  0
LINE
  5
4B
  8
SPEC
  6
CONTINUOUS
 62
     7
 10
-1237.5
 20
1849.44541
 30
0.0
 11
975.00000000000034
 21
1849.44541
 31
0.0
  0
LINE
  5
4C
  8
SPEC
  6
CONTINUOUS
 62
     7
 10
-1237.5
 20
1793.1954099999989
 30
0.0
 11
975.00000000000034
 21
1793.1954099999989
 31
0.0
  0
LINE
  5
4D
  8
SPEC
  6
CONTINUOUS
 62
     7
 10
-1237.5
 20
1849.44541
 30
0.0
 11
-1237.5
 21
949.44540999999958
 31
0.0
  0
TEXT
  5
4E
  8
SPEC
 62
     7
 10
-1218.75
 20
1870.3444599999989
 30
0.0
 40
36.64892578125
  1
仕様
 41
0.7
 11
-1218.75
 21
1906.9933857812489
 31
0.0
 73
     3
  0
LINE
  5
4F
  8
SPEC
  6
CONTINUOUS
 62
     7
 10
-549.99999999999989
 20
1849.44541
 30
0.0
 11
-549.99999999999989
 21
949.44540999999958
 31
0.0
  0
LINE
  5
50
  8
SPEC
  6
CONTINUOUS
 62
     7
 10
975.00000000000034
 20
1849.44541
 30
0.0
 11
975.00000000000034
 21
949.44540999999958
 31
0.0
  0
LINE
  5
51
  8
SPEC
  6
CONTINUOUS
 62
     7
 10
-1237.5
 20
1736.9454099999989
 30
0.0
 11
975.00000000000034
 21
1736.9454099999989
 31
0.0
  0
TEXT
  5
52
  8
SPEC
 62
     7
 10
-1224.0
 20
1805.0141766666659
 30
0.0
 40
28.504720052083329
  1
形式
 41
0.7
 11
-1224.0
 21
1833.5188967187489
 31
0.0
 73
     3
  0
TEXT
  5
53
  8
SPEC
 62
     7
 10
-1224.0
 20
1751.7354099999991
 30
0.0
 40
28.504720052083329
  1
周波数レンジ(-10dB)
 41
0.7
 11
-1224.0
 21
1780.240130052083
 31
0.0
 73
     3
  0
TEXT
  5
54
  8
SPEC
 62
     7
 10
-1224.0
 20
1695.4854099999991
 30
0.0
 40
28.504720052083329
  1
最大音圧レベル(1m)
 41
0.7
 11
-1224.0
 21
1723.990130052083
 31
0.0
 73
     3
  0
TEXT
  5
55
  8
SPEC
 62
     7
 10
-1224.0
 20
1639.2354099999991
 30
0.0
 40
28.504720052083329
  1
ドライバー構成
 41
0.7
 11
-1224.0
 21
1667.740130052083
 31
0.0
 73
     3
  0
LINE
  5
56
  8
SPEC
  6
CONTINUOUS
 62
     7
 10
-1237.5
 20
1680.6954099999989
 30
0.0
 11
975.00000000000034
 21
1680.6954099999989
 31
0.0
  0
TEXT
  5
57
  8
SPEC
 62
     7
 10
-536.50000000000034
 20
1695.4854099999991
 30
0.0
 40
28.504720052083329
  1
131dB SPL(ピーク)
 41
0.7
 11
-536.50000000000034
 21
1723.990130052083
 31
0.0
 73
     3
  0
TEXT
  5
58
  8
SPEC
 62
     7
 10
-536.50000000000034
 20
1807.9854099999991
 30
0.0
 40
28.504720052083329
  1
パワード・サブウーファー
 41
0.7
 11
-536.50000000000034
 21
1836.490130052083
 31
0.0
 73
     3
  0
TEXT
  5
59
  8
SPEC
 62
     7
 10
-536.50000000000045
 20
1751.7354099999991
 30
0.0
 40
28.504720052083329
  1
37～113Hz
 41
0.7
 11
-536.50000000000045
 21
1780.240130052083
 31
0.0
 73
     3
  0
TEXT
  5
5A
  8
SPEC
 62
     7
 10
-536.50000000000045
 20
1639.2354099999991
 30
0.0
 40
28.504720052083329
  1
380mm(2275H)
 41
0.7
 11
-536.50000000000045
 21
1667.740130052083
 31
0.0
 73
     3
  0
LINE
  5
5B
  8
SPEC
  6
CONTINUOUS
 62
     7
 10
-1237.5
 20
1624.4454099999989
 30
0.0
 11
975.00000000000034
 21
1624.4454099999989
 31
0.0
  0
TEXT
  5
5C
  8
SPEC
 62
     7
 10
-1224.0
 20
1582.9854099999991
 30
0.0
 40
28.504720052083329
  1
クロスオーバー
 41
0.7
 11
-1224.0
 21
1611.4901300520819
 31
0.0
 73
     3
  0
LINE
  5
5D
  8
SPEC
  6
CONTINUOUS
 62
     7
 10
-1237.5
 20
1568.1954099999989
 30
0.0
 11
975.00000000000034
 21
1568.1954099999989
 31
0.0
  0
LINE
  5
5E
  8
SPEC
  6
CONTINUOUS
 62
     7
 10
-1237.5
 20
1511.9454099999989
 30
0.0
 11
975.00000000000034
 21
1511.9454099999989
 31
0.0
  0
LINE
  5
5F
  8
SPEC
  6
CONTINUOUS
 62
     7
 10
-900.0
 20
1399.4454099999989
 30
0.0
 11
975.00000000000034
 21
1399.4454099999989
 31
0.0
  0
LINE
  5
60
  8
SPEC
  6
CONTINUOUS
 62
     7
 10
-900.0
 20
1343.19541
 30
0.0
 11
975.00000000000034
 21
1343.19541
 31
0.0
  0
LINE
  5
61
  8
SPEC
  6
CONTINUOUS
 62
     7
 10
-1237.5
 20
1230.69541
 30
0.0
 11
975.00000000000034
 21
1230.69541
 31
0.0
  0
LINE
  5
62
  8
SPEC
  6
CONTINUOUS
 62
     7
 10
-1237.5
 20
1174.4454099999989
 30
0.0
 11
975.00000000000034
 21
1174.4454099999989
 31
0.0
  0
LINE
  5
63
  8
SPEC
  6
CONTINUOUS
 62
     7
 10
-1237.5
 20
1118.1954099999989
 30
0.0
 11
975.00000000000034
 21
1118.1954099999989
 31
0.0
  0
TEXT
  5
64
  8
SPEC
 62
     7
 10
-534.99631648924378
 20
1415.739093510756
 30
0.0
 40
28.504720052083329
  1
2
 41
0.7
 11
-534.99631648924378
 21
1444.243813562839
 31
0.0
 73
     3
  0
TEXT
  5
65
  8
SPEC
 62
     7
 10
-1224.0
 20
1526.7354099999991
 30
0.0
 40
28.504720052083329
  1
クロスオーバー周波数
 41
0.7
 11
-1224.0
 21
1555.2401300520819
 31
0.0
 73
     3
  0
TEXT
  5
66
  8
SPEC
 62
     7
 10
-1224.0
 20
1470.4854099999991
 30
0.0
 40
28.504720052083329
  1
パワーアンプ
 41
0.7
 11
-1224.0
 21
1498.9901300520819
 31
0.0
 73
     3
  0
TEXT
  5
67
  8
SPEC
 62
     7
 10
-1224.0
 20
1414.2354099999991
 30
0.0
 40
28.504720052083329
  1
入力
 41
0.7
 11
-1224.0
 21
1442.7401300520819
 31
0.0
 73
     3
  0
TEXT
  5
68
  8
SPEC
 62
     7
 10
-1224.0
 20
1245.4854099999991
 30
0.0
 40
28.504720052083329
  1
インジケーター
 41
0.7
 11
-1224.0
 21
1273.9901300520819
 31
0.0
 73
     3
  0
TEXT
  5
69
  8
SPEC
 62
     7
 10
-1224.0
 20
1189.2354099999991
 30
0.0
 40
28.504720052083329
  1
電源
 41
0.7
 11
-1224.0
 21
1217.7401300520819
 31
0.0
 73
     3
  0
TEXT
  5
6A
  8
SPEC
 62
     7
 10
-1224.0
 20
1132.9854099999991
 30
0.0
 40
28.504720052083329
  1
消費電力(1/8出力時、ピンクノイズ)
 41
0.7
 11
-1224.0
 21
1161.4901300520819
 31
0.0
 73
     3
  0
TEXT
  5
6B
  8
SPEC
 62
     7
 10
-1224.0
 20
1076.7354099999991
 30
0.0
 40
28.504720052083329
  1
エンクロージャー
 41
0.7
 11
-1224.0
 21
1105.2401300520819
 31
0.0
 73
     3
  0
TEXT
  5
6C
  8
SPEC
 62
     7
 10
-886.50000000000034
 20
1357.9854099999991
 30
0.0
 40
28.504720052083339
  1
端子・形式
 41
0.7
 11
-886.50000000000034
 21
1386.4901300520819
 31
0.0
 73
     3
  0
TEXT
  5
6D
  8
SPEC
 62
     7
 10
-886.50000000000034
 20
1301.7354099999991
 30
0.0
 40
28.504720052083339
  1
インピーダンス
 41
0.7
 11
-886.50000000000034
 21
1330.2401300520819
 31
0.0
 73
     3
  0
LINE
  5
6E
  8
SPEC
  6
CONTINUOUS
 62
     7
 10
-1237.5
 20
1455.6954099999989
 30
0.0
 11
975.00000000000034
 21
1455.6954099999989
 31
0.0
  0
LINE
  5
6F
  8
SPEC
  6
CONTINUOUS
 62
     7
 10
-1237.5
 20
1286.9454099999989
 30
0.0
 11
975.00000000000034
 21
1286.9454099999989
 31
0.0
  0
LINE
  5
70
  8
SPEC
  6
CONTINUOUS
 62
     7
 10
-900.0
 20
1455.6954099999989
 30
0.0
 11
-900.0
 21
1286.9454099999989
 31
0.0
  0
TEXT
  5
71
  8
SPEC
 62
     7
 10
-886.50000000000034
 20
1414.2354099999991
 30
0.0
 40
28.504720052083329
  1
チャンネル数
 41
0.7
 11
-886.50000000000034
 21
1442.7401300520819
 31
0.0
 73
     3
  0
TEXT
  5
72
  8
SPEC
 62
     7
 10
-536.50000000000034
 20
1470.4854099999991
 30
0.0
 40
28.504720052083329
  1
Class D
 41
0.7
 11
-536.50000000000034
 21
1498.9901300520819
 31
0.0
 73
     3
  0
TEXT
  5
73
  8
SPEC
 62
     7
 10
-536.50000000000034
 20
1357.9854099999991
 30
0.0
 40
28.504720052083329
  1
XLRと標準フォーンジャック(3P)対応の複合型 端子\U+00D72
 41
0.7
 11
-536.50000000000034
 21
1386.4901300520819
 31
0.0
 73
     3
  0
TEXT
  5
74
  8
SPEC
 62
     7
 10
-531.13181529524684
 20
1304.8347328843481
 30
0.0
 40
28.504720052083329
  1
20k\U+03A9(バランス)
 41
0.7
 11
-531.13181529524684
 21
1333.3394529364309
 31
0.0
 73
     3
  0
TEXT
  5
75
  8
SPEC
 62
     7
 10
-536.3192331559103
 20
1189.416176844089
 30
0.0
 40
28.504720052083329
  1
AC100V、50/60Hz
 41
0.7
 11
-536.3192331559103
 21
1217.9208968961721
 31
0.0
 73
     3
  0
TEXT
  5
76
  8
SPEC
 62
     7
 10
-536.3192331559103
 20
1076.916176844089
 30
0.0
 40
28.504720052083329
  1
25/18mm合板、黒、DuraFlex仕上げ
 41
0.7
 11
-536.3192331559103
 21
1105.4208968961721
 31
0.0
 73
     3
  0
TEXT
  5
77
  8
SPEC
 62
     7
 10
-536.50000000000045
 20
1582.9854099999991
 30
0.0
 40
28.504720052083329
  1
DSP制御、48dB/Oct
 41
0.7
 11
-536.50000000000045
 21
1611.4901300520819
 31
0.0
 73
     3
  0
TEXT
  5
78
  8
SPEC
 62
     7
 10
-536.50000000000045
 20
1526.7354099999991
 30
0.0
 40
28.504720052083329
  1
90Hz
 41
0.7
 11
-536.50000000000045
 21
1555.240130052083
 31
0.0
 73
     3
  0
TEXT
  5
79
  8
SPEC
 62
     7
 10
-536.31923315591007
 20
1245.666176844089
 30
0.0
 40
28.504720052083329
  1
PASS THRU、Limit、Signal、Power(前面、背面)
 41
0.7
 11
-536.31923315591007
 21
1274.1708968961721
 31
0.0
 73
     3
  0
TEXT
  5
7A
  8
SPEC
 62
     7
 10
-536.50000000000034
 20
1132.9854099999991
 30
0.0
 40
28.504720052083329
  1
70W(63Hz)
 41
0.7
 11
-536.50000000000034
 21
1161.4901300520819
 31
0.0
 73
     3
  0
TEXT
  5
7B
  8
SPEC
 62
     7
 10
-536.50000000000034
 20
964.23540999999955
 30
0.0
 40
28.504720052083339
  1
26kg
 41
0.7
 11
-536.50000000000034
 21
992.74013005208269
 31
0.0
 73
     3
  0
TEXT
  5
7C
  8
SPEC
 62
     7
 10
-536.50000000000034
 20
1020.485409999999
 30
0.0
 40
28.504720052083329
  1
447\U+00D7544\U+00D7572(除突起部)
 41
0.7
 11
-536.50000000000034
 21
1048.9901300520819
 31
0.0
 73
     3
  0
LINE
  5
7D
  8
SPEC
  6
CONTINUOUS
 62
     7
 10
-1237.5
 20
949.44540999999958
 30
0.0
 11
975.00000000000034
 21
949.44540999999958
 31
0.0
  0
LINE
  5
7E
  8
SPEC
  6
CONTINUOUS
 62
     7
 10
-1237.5
 20
1005.695409999999
 30
0.0
 11
975.00000000000034
 21
1005.695409999999
 31
0.0
  0
TEXT
  5
7F
  8
SPEC
 62
     7
 10
-1224.0
 20
1020.485409999999
 30
0.0
 40
28.504720052083339
  1
寸法(W\U+00D7H\U+00D7D)
 41
0.7
 11
-1224.0
 21
1048.9901300520819
 31
0.0
 73
     3
  0
TEXT
  5
80
  8
SPEC
 62
     7
 10
-1224.0
 20
964.23540999999909
 30
0.0
 40
28.504720052083339
  1
質量
 41
0.7
 11
-1224.0
 21
992.74013005208246
 31
0.0
 73
     3
  0
LINE
  5
81
  8
SPEC
  6
CONTINUOUS
 62
     7
 10
-1237.5
 20
1061.9454099999989
 30
0.0
 11
975.00000000000034
 21
1061.9454099999989
 31
0.0
  0
TEXT
  5
82
  8
DIMNSIONS
 62
     7
 10
-299.99999999999989
 20
-1716.51224
 30
0.0
 40
36.64892578125
  1
(単位：mm)
 41
0.7
 11
-299.99999999999989
 21
-1679.86331421875
 31
0.0
 73
     3
  0
LINE
  5
83
  8
DIMNSIONS
  6
CONTINUOUS
 62
     7
 10
-1083.5
 20
371.49999999999989
 30
0.0
 11
-1205.0
 21
371.49999999999989
 31
0.0
  0
LINE
  5
84
  8
DIMNSIONS
  6
CONTINUOUS
 62
     7
 10
-880.00000000000091
 20
-200.0
 30
0.0
 11
-1205.0
 21
-200.0
 31
0.0
  0
LINE
  5
85
  8
DIMNSIONS
  6
CONTINUOUS
 62
     7
 10
-1175.0
 20
371.49999999999989
 30
0.0
 11
-1175.0
 21
-200.0
 31
0.0
  0
LINE
  5
86
  8
DIMNSIONS
  6
CONTINUOUS
 62
     7
 10
-1175.0
 20
371.49999999999989
 30
0.0
 11
-1164.949403072746
 21
333.99066162109358
 31
0.0
  0
LINE
  5
87
  8
DIMNSIONS
  6
CONTINUOUS
 62
     7
 10
-1175.0
 20
371.49999999999989
 30
0.0
 11
-1185.0505969272531
 21
333.99066162109358
 31
0.0
  0
LINE
  5
88
  8
DIMNSIONS
  6
CONTINUOUS
 62
     7
 10
-1175.0
 20
-200.0
 30
0.0
 11
-1185.0505969272531
 21
-162.49066162109381
 31
0.0
  0
LINE
  5
89
  8
DIMNSIONS
  6
CONTINUOUS
 62
     7
 10
-1175.0
 20
-200.0
 30
0.0
 11
-1164.949403072746
 21
-162.49066162109381
 31
0.0
  0
TEXT
  5
8A
  8
DIMNSIONS
 62
     7
 10
-1189.9083366451171
 20
46.062482337156837
 30
0.0
 40
40.721046849555528
  1
572
 50
90.0
 41
0.7
 11
-1230.6293834946721
 21
46.062482337156851
 31
0.0
 73
     3
  0
LINE
  5
8B
  8
DIMNSIONS
  6
CONTINUOUS
 62
     7
 10
-1083.5
 20
-356.5
 30
0.0
 11
-1205.0
 21
-356.5
 31
0.0
  0
LINE
  5
8C
  8
DIMNSIONS
  6
CONTINUOUS
 62
     7
 10
-1083.5
 20
-900.0
 30
0.0
 11
-1205.0
 21
-900.0
 31
0.0
  0
LINE
  5
8D
  8
DIMNSIONS
  6
CONTINUOUS
 62
     7
 10
-1175.0
 20
-356.5
 30
0.0
 11
-1175.0
 21
-900.0
 31
0.0
  0
LINE
  5
8E
  8
DIMNSIONS
  6
CONTINUOUS
 62
     7
 10
-1175.0
 20
-356.5
 30
0.0
 11
-1164.949403072746
 21
-394.00933837890631
 31
0.0
  0
LINE
  5
8F
  8
DIMNSIONS
  6
CONTINUOUS
 62
     7
 10
-1175.0
 20
-356.5
 30
0.0
 11
-1185.0505969272531
 21
-394.00933837890631
 31
0.0
  0
LINE
  5
90
  8
DIMNSIONS
  6
CONTINUOUS
 62
     7
 10
-1175.0
 20
-900.0
 30
0.0
 11
-1185.0505969272531
 21
-862.49066162109375
 31
0.0
  0
LINE
  5
91
  8
DIMNSIONS
  6
CONTINUOUS
 62
     7
 10
-1175.0
 20
-900.0
 30
0.0
 11
-1164.949403072746
 21
-862.49066162109375
 31
0.0
  0
TEXT
  5
92
  8
DIMNSIONS
 62
     7
 10
-1189.9083366451171
 20
-667.93751766284311
 30
0.0
 40
40.721046849555528
  1
544
 50
90.0
 41
0.7
 11
-1230.6293834946721
 21
-667.93751766284311
 31
0.0
 73
     3
  0
LINE
  5
93
  8
DIMNSIONS
  6
CONTINUOUS
 62
     7
 10
-1083.0
 20
-900.0
 30
0.0
 11
-1205.0
 21
-900.0
 31
0.0
  0
LINE
  5
94
  8
DIMNSIONS
  6
CONTINUOUS
 62
     7
 10
-1078.0
 20
-904.0
 30
0.0
 11
-1205.0
 21
-904.0
 31
0.0
  0
LINE
  5
95
  8
DIMNSIONS
  6
CONTINUOUS
 62
     7
 10
-1175.0
 20
-904.0
 30
0.0
 11
-1175.0
 21
-900.0
 31
0.0
  0
LINE
  5
96
  8
DIMNSIONS
  6
CONTINUOUS
 62
     7
 10
-1175.0
 20
-900.0
 30
0.0
 11
-1175.0
 21
-825.0
 31
0.0
  0
LINE
  5
97
  8
DIMNSIONS
  6
CONTINUOUS
 62
     7
 10
-1175.0
 20
-900.0
 30
0.0
 11
-1185.0505969272531
 21
-862.49066162109375
 31
0.0
  0
LINE
  5
98
  8
DIMNSIONS
  6
CONTINUOUS
 62
     7
 10
-1175.0
 20
-900.0
 30
0.0
 11
-1164.949403072746
 21
-862.49066162109375
 31
0.0
  0
LINE
  5
99
  8
DIMNSIONS
  6
CONTINUOUS
 62
     7
 10
-1175.0
 20
-904.0
 30
0.0
 11
-1175.0
 21
-991.68751766284333
 31
0.0
  0
LINE
  5
9A
  8
DIMNSIONS
  6
CONTINUOUS
 62
     7
 10
-1175.0
 20
-904.0
 30
0.0
 11
-1164.949403072746
 21
-941.50933837890625
 31
0.0
  0
LINE
  5
9B
  8
DIMNSIONS
  6
CONTINUOUS
 62
     7
 10
-1175.0
 20
-904.0
 30
0.0
 11
-1185.0505969272531
 21
-941.50933837890625
 31
0.0
  0
TEXT
  5
9C
  8
DIMNSIONS
 62
     7
 10
-1189.9083366451171
 20
-991.68751766284333
 30
0.0
 40
40.721046849555528
  1
4.0
 50
90.0
 41
0.7
 11
-1230.6293834946721
 21
-991.68751766284333
 31
0.0
 73
     3
  0
LINE
  5
9D
  8
DIMNSIONS
  6
CONTINUOUS
 62
     7
 10
-1073.5
 20
-920.0
 30
0.0
 11
-1073.5
 21
-1030.0
 31
0.0
  0
LINE
  5
9E
  8
DIMNSIONS
  6
CONTINUOUS
 62
     7
 10
-626.5
 20
-920.0
 30
0.0
 11
-626.5
 21
-1030.0
 31
0.0
  0
LINE
  5
9F
  8
DIMNSIONS
  6
CONTINUOUS
 62
     7
 10
-1073.5
 20
-1000.0
 30
0.0
 11
-626.5
 21
-1000.0
 31
0.0
  0
LINE
  5
A0
  8
DIMNSIONS
  6
CONTINUOUS
 62
     7
 10
-1073.5
 20
-1000.0
 30
0.0
 11
-1035.9906616210931
 21
-989.94940307274646
 31
0.0
  0
LINE
  5
A1
  8
DIMNSIONS
  6
CONTINUOUS
 62
     7
 10
-1073.5
 20
-1000.0
 30
0.0
 11
-1035.9906616210931
 21
-1010.050596927253
 31
0.0
  0
LINE
  5
A2
  8
DIMNSIONS
  6
CONTINUOUS
 62
     7
 10
-626.5
 20
-1000.0
 30
0.0
 11
-664.00933837890625
 21
-1010.050596927253
 31
0.0
  0
LINE
  5
A3
  8
DIMNSIONS
  6
CONTINUOUS
 62
     7
 10
-626.5
 20
-1000.0
 30
0.0
 11
-664.00933837890625
 21
-989.94940307274646
 31
0.0
  0
TEXT
  5
A4
  8
DIMNSIONS
 62
     7
 10
-889.68751766284299
 20
-985.09166335488294
 30
0.0
 40
40.721046849555528
  1
447
 41
0.7
 11
-889.68751766284299
 21
-944.37061650532723
 31
0.0
 73
     3
  0
LINE
  5
A5
  8
DIMNSIONS
  6
CONTINUOUS
 62
     7
 10
-839.16650948541428
 20
57.906694330567028
 30
0.0
 11
-600.0
 21
100.0
 31
0.0
  0
LINE
  5
A6
  8
DIMNSIONS
  6
CONTINUOUS
 62
     7
 10
-839.16650948541428
 20
57.906694330567028
 30
0.0
 11
-803.69123305878099
 21
73.701305014953988
 31
0.0
  0
LINE
  5
A7
  8
DIMNSIONS
  6
CONTINUOUS
 62
     7
 10
-839.16650948541428
 20
57.906694330567028
 30
0.0
 11
-800.54671355148128
 21
53.847590212814502
 31
0.0
  0
LINE
  5
A8
  8
DIMNSIONS
  6
CONTINUOUS
 62
     7
 10
-600.0
 20
100.0
 30
0.0
 11
144.375
 21
100.0
 31
0.0
  0
TEXT
  5
A9
  8
DIMNSIONS
 62
     7
 10
-570.0
 20
114.9083333333333
 30
0.0
 40
40.721028645833343
  1
M20ねじ込み式ポールソケット
 41
0.7
 11
-570.0
 21
155.6293619791667
 31
0.0
 73
     3
  0
LINE
  5
AA
  8
DIMNSIONS
  6
CONTINUOUS
 62
     7
 10
-766.5
 20
56.0
 30
0.0
 11
-520.0
 21
56.0
 31
0.0
  0
LINE
  5
AB
  8
DIMNSIONS
  6
CONTINUOUS
 62
     7
 10
-820.0
 20
-200.0
 30
0.0
 11
-520.0
 21
-200.0
 31
0.0
  0
LINE
  5
AC
  8
DIMNSIONS
  6
CONTINUOUS
 62
     7
 10
-550.0
 20
56.0
 30
0.0
 11
-550.0
 21
-200.0
 31
0.0
  0
LINE
  5
AD
  8
DIMNSIONS
  6
CONTINUOUS
 62
     7
 10
-550.0
 20
56.0
 30
0.0
 11
-539.94940307274635
 21
18.49066162109375
 31
0.0
  0
LINE
  5
AE
  8
DIMNSIONS
  6
CONTINUOUS
 62
     7
 10
-550.0
 20
56.0
 30
0.0
 11
-560.05059692725365
 21
18.49066162109375
 31
0.0
  0
LINE
  5
AF
  8
DIMNSIONS
  6
CONTINUOUS
 62
     7
 10
-550.0
 20
-200.0
 30
0.0
 11
-560.05059692725365
 21
-162.49066162109369
 31
0.0
  0
LINE
  5
B0
  8
DIMNSIONS
  6
CONTINUOUS
 62
     7
 10
-550.0
 20
-200.0
 30
0.0
 11
-539.94940307274635
 21
-162.49066162109369
 31
0.0
  0
TEXT
  5
B1
  8
DIMNSIONS
 62
     7
 10
-564.9083333333333
 20
-111.6875
 30
0.0
 40
40.721028645833343
  1
256
 50
90.0
 41
0.7
 11
-605.62936197916667
 21
-111.6875
 31
0.0
 73
     3
  0
ARC
  5
B2
  8
DATA
  6
CONTINUOUS
 62
     7
 10
-850.00000000000034
 20
631.35879775778255
 30
0.0
 40
761.35879775778244
 50
262.0282867166261
 51
277.97171328337703
  0
TEXT
  5
B3
  8
DATA
 62
     7
 10
-1312.5
 20
-1782.4104233333339
 30
0.0
 40
28.504720052083339
  1
※仕様及び外観は予告なく変更されることがあります。
 41
0.7
 11
-1312.5
 21
-1753.9057032812509
 31
0.0
 73
     3
  0
TEXT
  5
B4
  8
DATA
 62
     7
 10
-1312.5
 20
-1819.45209
 30
0.0
 40
28.504720052083339
  1
　また、同一商品でも若干の個体差があることがあります。ご了承ください。
 41
0.7
 11
-1312.5
 21
-1790.947369947917
 31
0.0
 73
     3
  0
TEXT
  5
B5
  8
DATA
 62
     7
 10
749.99999999999955
 20
-1733.59124
 30
0.0
 40
36.64892578125
  1
PRX715XLF
 41
0.7
 11
749.99999999999955
 21
-1696.94231421875
 31
0.0
 73
     3
  0
TEXT
  5
B6
  8
DATA
 62
     7
 10
749.99999999999955
 20
-1624.84124
 30
0.0
 40
36.64892578125
  1
JBL PROFESSIONAL
 41
0.7
 11
749.99999999999955
 21
-1588.19231421875
 31
0.0
 73
     3
  0
TEXT
  5
B7
  8
DATA
 62
     7
 10
510.75321220423291
 20
855.94999999999993
 30
0.0
 40
40.721028645833343
  1
コネクターパネル拡大図
 41
0.7
 11
510.75321220423291
 21
896.6710286458333
 31
0.0
 73
     3
  0
LINE
  5
B8
  8
DATA
  6
CONTINUOUS
 62
     7
 10
500.0
 20
825.0
 30
0.0
 11
1100.0
 21
825.0
 31
0.0
  0
LINE
  5
B9
  8
DATA
  6
CONTINUOUS
 62
     7
 10
-1073.5
 20
-890.0
 30
0.0
 11
-1073.5
 21
-366.5
 31
0.0
  0
LINE
  5
BA
  8
DATA
  6
CONTINUOUS
 62
     7
 10
-1063.5
 20
-875.0
 30
0.0
 11
-1063.5
 21
-381.5
 31
0.0
  0
LINE
  5
BB
  8
DATA
  6
CONTINUOUS
 62
     7
 10
-1048.5
 20
-860.0
 30
0.0
 11
-1048.5
 21
-835.0
 31
0.0
  0
LINE
  5
BC
  8
DATA
  6
CONTINUOUS
 62
     7
 10
-1048.5
 20
-828.0
 30
0.0
 11
-1048.5
 21
-396.5
 31
0.0
  0
LINE
  5
BD
  8
DATA
  6
CONTINUOUS
 62
     7
 10
-646.49999999999989
 20
-900.0
 30
0.0
 11
-1053.5
 21
-900.0
 31
0.0
  0
LINE
  5
BE
  8
DATA
  6
CONTINUOUS
 62
     7
 10
-1053.5
 20
-900.0
 30
0.0
 11
-1073.5
 21
-890.0
 31
0.0
  0
LINE
  5
BF
  8
DATA
  6
CONTINUOUS
 62
     7
 10
-646.49999999999989
 20
-900.0
 30
0.0
 11
-626.5
 21
-890.0
 31
0.0
  0
LINE
  5
C0
  8
DATA
  6
CONTINUOUS
 62
     7
 10
-626.5
 20
-890.0
 30
0.0
 11
-1073.5
 21
-890.0
 31
0.0
  0
LINE
  5
C1
  8
DATA
  6
CONTINUOUS
 62
     7
 10
-636.5
 20
-875.0
 30
0.0
 11
-1063.5
 21
-875.0
 31
0.0
  0
LINE
  5
C2
  8
DATA
  6
CONTINUOUS
 62
     7
 10
-651.5
 20
-860.0
 30
0.0
 11
-1048.5
 21
-860.0
 31
0.0
  0
LINE
  5
C3
  8
DATA
  6
CONTINUOUS
 62
     7
 10
-983.0
 20
-835.0
 30
0.0
 11
-1048.5
 21
-835.0
 31
0.0
  0
LINE
  5
C4
  8
DATA
  6
CONTINUOUS
 62
     7
 10
-987.06225774829772
 20
-828.0
 30
0.0
 11
-1048.5
 21
-828.0
 31
0.0
  0
LINE
  5
C5
  8
DATA
  6
CONTINUOUS
 62
     7
 10
-626.5
 20
-366.5
 30
0.0
 11
-626.5
 21
-890.0
 31
0.0
  0
LINE
  5
C6
  8
DATA
  6
CONTINUOUS
 62
     7
 10
-636.5
 20
-381.5
 30
0.0
 11
-636.5
 21
-875.0
 31
0.0
  0
LINE
  5
C7
  8
DATA
  6
CONTINUOUS
 62
     7
 10
-651.5
 20
-396.5
 30
0.0
 11
-651.5
 21
-828.0
 31
0.0
  0
LINE
  5
C8
  8
DATA
  6
CONTINUOUS
 62
     7
 10
-651.5
 20
-835.0
 30
0.0
 11
-651.5
 21
-860.0
 31
0.0
  0
LINE
  5
C9
  8
DATA
  6
CONTINUOUS
 62
     7
 10
-1053.5
 20
-356.5
 30
0.0
 11
-646.49999999999989
 21
-356.5
 31
0.0
  0
LINE
  5
CA
  8
DATA
  6
CONTINUOUS
 62
     7
 10
-646.49999999999989
 20
-356.5
 30
0.0
 11
-626.5
 21
-366.5
 31
0.0
  0
LINE
  5
CB
  8
DATA
  6
CONTINUOUS
 62
     7
 10
-1053.5
 20
-356.5
 30
0.0
 11
-1073.5
 21
-366.5
 31
0.0
  0
LINE
  5
CC
  8
DATA
  6
CONTINUOUS
 62
     7
 10
-1073.5
 20
-366.5
 30
0.0
 11
-626.5
 21
-366.5
 31
0.0
  0
LINE
  5
CD
  8
DATA
  6
CONTINUOUS
 62
     7
 10
-1063.5
 20
-381.5
 30
0.0
 11
-636.5
 21
-381.5
 31
0.0
  0
LINE
  5
CE
  8
DATA
  6
CONTINUOUS
 62
     7
 10
-1048.5
 20
-396.5
 30
0.0
 11
-651.5
 21
-396.5
 31
0.0
  0
CIRCLE
  5
CF
  8
DATA
  6
CONTINUOUS
 62
     7
 10
-1055.5
 20
-867.0
 30
0.0
 40
3.2500000000003899
  0
LINE
  5
D0
  8
DATA
  6
CONTINUOUS
 62
     7
 10
-1055.5
 20
-869.0
 30
0.0
 11
-1055.5
 21
-865.0
 31
0.0
  0
LINE
  5
D1
  8
DATA
  6
CONTINUOUS
 62
     7
 10
-1057.5
 20
-867.0
 30
0.0
 11
-1053.5
 21
-867.0
 31
0.0
  0
CIRCLE
  5
D2
  8
DATA
  6
CONTINUOUS
 62
     7
 10
-942.0
 20
-867.0
 30
0.0
 40
3.2500000000003899
  0
LINE
  5
D3
  8
DATA
  6
CONTINUOUS
 62
     7
 10
-942.0
 20
-869.0
 30
0.0
 11
-942.0
 21
-865.0
 31
0.0
  0
LINE
  5
D4
  8
DATA
  6
CONTINUOUS
 62
     7
 10
-944.0
 20
-867.0
 30
0.0
 11
-940.0
 21
-867.0
 31
0.0
  0
CIRCLE
  5
D5
  8
DATA
  6
CONTINUOUS
 62
     7
 10
-644.5
 20
-867.0
 30
0.0
 40
3.2500000000003899
  0
LINE
  5
D6
  8
DATA
  6
CONTINUOUS
 62
     7
 10
-644.5
 20
-869.0
 30
0.0
 11
-644.5
 21
-865.0
 31
0.0
  0
LINE
  5
D7
  8
DATA
  6
CONTINUOUS
 62
     7
 10
-642.49999999999989
 20
-867.0
 30
0.0
 11
-646.49999999999989
 21
-867.0
 31
0.0
  0
CIRCLE
  5
D8
  8
DATA
  6
CONTINUOUS
 62
     7
 10
-758.0
 20
-867.0
 30
0.0
 40
3.2500000000003899
  0
LINE
  5
D9
  8
DATA
  6
CONTINUOUS
 62
     7
 10
-758.0
 20
-869.0
 30
0.0
 11
-758.0
 21
-865.0
 31
0.0
  0
LINE
  5
DA
  8
DATA
  6
CONTINUOUS
 62
     7
 10
-756.0
 20
-867.0
 30
0.0
 11
-760.0
 21
-867.0
 31
0.0
  0
CIRCLE
  5
DB
  8
DATA
  6
CONTINUOUS
 62
     7
 10
-1055.5
 20
-389.5
 30
0.0
 40
3.2500000000003899
  0
LINE
  5
DC
  8
DATA
  6
CONTINUOUS
 62
     7
 10
-1055.5
 20
-387.5
 30
0.0
 11
-1055.5
 21
-391.5
 31
0.0
  0
LINE
  5
DD
  8
DATA
  6
CONTINUOUS
 62
     7
 10
-1057.5
 20
-389.5
 30
0.0
 11
-1053.5
 21
-389.5
 31
0.0
  0
CIRCLE
  5
DE
  8
DATA
  6
CONTINUOUS
 62
     7
 10
-942.0
 20
-389.5
 30
0.0
 40
3.2500000000003899
  0
LINE
  5
DF
  8
DATA
  6
CONTINUOUS
 62
     7
 10
-942.0
 20
-387.5
 30
0.0
 11
-942.0
 21
-391.5
 31
0.0
  0
LINE
  5
E0
  8
DATA
  6
CONTINUOUS
 62
     7
 10
-944.0
 20
-389.5
 30
0.0
 11
-940.0
 21
-389.5
 31
0.0
  0
CIRCLE
  5
E1
  8
DATA
  6
CONTINUOUS
 62
     7
 10
-644.5
 20
-389.5
 30
0.0
 40
3.2500000000003899
  0
LINE
  5
E2
  8
DATA
  6
CONTINUOUS
 62
     7
 10
-644.5
 20
-387.5
 30
0.0
 11
-644.5
 21
-391.5
 31
0.0
  0
LINE
  5
E3
  8
DATA
  6
CONTINUOUS
 62
     7
 10
-642.49999999999989
 20
-389.5
 30
0.0
 11
-646.49999999999989
 21
-389.5
 31
0.0
  0
CIRCLE
  5
E4
  8
DATA
  6
CONTINUOUS
 62
     7
 10
-758.0
 20
-389.5
 30
0.0
 40
3.2500000000003899
  0
LINE
  5
E5
  8
DATA
  6
CONTINUOUS
 62
     7
 10
-758.0
 20
-387.5
 30
0.0
 11
-758.0
 21
-391.5
 31
0.0
  0
LINE
  5
E6
  8
DATA
  6
CONTINUOUS
 62
     7
 10
-756.0
 20
-389.5
 30
0.0
 11
-760.0
 21
-389.5
 31
0.0
  0
CIRCLE
  5
E7
  8
DATA
  6
CONTINUOUS
 62
     7
 10
-850.0
 20
-867.0
 30
0.0
 40
2.000000000000163
  0
CIRCLE
  5
E8
  8
DATA
  6
CONTINUOUS
 62
     7
 10
-1055.5
 20
-628.24999999999989
 30
0.0
 40
3.2500000000003162
  0
LINE
  5
E9
  8
DATA
  6
CONTINUOUS
 62
     7
 10
-1055.5
 20
-630.25
 30
0.0
 11
-1055.5
 21
-626.25
 31
0.0
  0
LINE
  5
EA
  8
DATA
  6
CONTINUOUS
 62
     7
 10
-1057.5
 20
-628.24999999999989
 30
0.0
 11
-1053.5
 21
-628.24999999999989
 31
0.0
  0
CIRCLE
  5
EB
  8
DATA
  6
CONTINUOUS
 62
     7
 10
-644.5
 20
-628.24999999999989
 30
0.0
 40
3.2500000000003162
  0
LINE
  5
EC
  8
DATA
  6
CONTINUOUS
 62
     7
 10
-644.5
 20
-630.25
 30
0.0
 11
-644.5
 21
-626.25
 31
0.0
  0
LINE
  5
ED
  8
DATA
  6
CONTINUOUS
 62
     7
 10
-642.49999999999989
 20
-628.24999999999989
 30
0.0
 11
-646.49999999999989
 21
-628.24999999999989
 31
0.0
  0
LINE
  5
EE
  8
DATA
  6
CONTINUOUS
 62
     7
 10
-983.0
 20
-835.0
 30
0.0
 11
-963.0
 21
-800.0
 31
0.0
  0
LINE
  5
EF
  8
DATA
  6
CONTINUOUS
 62
     7
 10
-987.06225774829772
 20
-828.0
 30
0.0
 11
-967.06225774829784
 21
-793.0
 31
0.0
  0
LINE
  5
F0
  8
DATA
  6
CONTINUOUS
 62
     7
 10
-963.0
 20
-800.0
 30
0.0
 11
-737.0
 21
-800.0
 31
0.0
  0
LINE
  5
F1
  8
DATA
  6
CONTINUOUS
 62
     7
 10
-967.06225774829784
 20
-793.0
 30
0.0
 11
-732.93774225170182
 21
-793.0
 31
0.0
  0
LINE
  5
F2
  8
DATA
  6
CONTINUOUS
 62
     7
 10
-717.0
 20
-835.0
 30
0.0
 11
-651.5
 21
-835.0
 31
0.0
  0
LINE
  5
F3
  8
DATA
  6
CONTINUOUS
 62
     7
 10
-712.93774225170182
 20
-828.0
 30
0.0
 11
-651.5
 21
-828.0
 31
0.0
  0
LINE
  5
F4
  8
DATA
  6
CONTINUOUS
 62
     7
 10
-717.0
 20
-835.0
 30
0.0
 11
-737.0
 21
-800.0
 31
0.0
  0
LINE
  5
F5
  8
DATA
  6
CONTINUOUS
 62
     7
 10
-712.93774225170182
 20
-828.0
 30
0.0
 11
-732.93774225170182
 21
-793.0
 31
0.0
  0
LINE
  5
F6
  8
DATA
  6
CONTINUOUS
 62
     7
 10
-875.0
 20
-756.0
 30
0.0
 11
-875.0
 21
-696.0
 31
0.0
  0
LINE
  5
F7
  8
DATA
  6
CONTINUOUS
 62
     7
 10
-825.0
 20
-756.0
 30
0.0
 11
-875.0
 21
-756.0
 31
0.0
  0
LINE
  5
F8
  8
DATA
  6
CONTINUOUS
 62
     7
 10
-825.0
 20
-696.0
 30
0.0
 11
-825.0
 21
-756.0
 31
0.0
  0
LINE
  5
F9
  8
DATA
  6
CONTINUOUS
 62
     7
 10
-875.0
 20
-696.0
 30
0.0
 11
-825.0
 21
-696.0
 31
0.0
  0
LINE
  5
FA
  8
DATA
  6
CONTINUOUS
 62
     7
 10
-865.0
 20
-745.0
 30
0.0
 11
-865.0
 21
-707.0
 31
0.0
  0
LINE
  5
FB
  8
DATA
  6
CONTINUOUS
 62
     7
 10
-835.0
 20
-745.0
 30
0.0
 11
-865.0
 21
-745.0
 31
0.0
  0
LINE
  5
FC
  8
DATA
  6
CONTINUOUS
 62
     7
 10
-835.0
 20
-707.0
 30
0.0
 11
-835.0
 21
-745.0
 31
0.0
  0
LINE
  5
FD
  8
DATA
  6
CONTINUOUS
 62
     7
 10
-865.0
 20
-707.0
 30
0.0
 11
-835.0
 21
-707.0
 31
0.0
  0
LINE
  5
FE
  8
DATA
  6
CONTINUOUS
 62
     7
 10
723.5
 20
-890.0
 30
0.0
 11
723.5
 21
-366.5
 31
0.0
  0
LINE
  5
FF
  8
DATA
  6
CONTINUOUS
 62
     7
 10
703.5
 20
-900.0
 30
0.0
 11
723.5
 21
-890.0
 31
0.0
  0
LINE
  5
100
  8
DATA
  6
CONTINUOUS
 62
     7
 10
296.5
 20
-900.0
 30
0.0
 11
276.5
 21
-890.0
 31
0.0
  0
LINE
  5
101
  8
DATA
  6
CONTINUOUS
 62
     7
 10
276.5
 20
-890.0
 30
0.0
 11
723.5
 21
-890.0
 31
0.0
  0
LINE
  5
102
  8
DATA
  6
CONTINUOUS
 62
     7
 10
276.5
 20
-366.5
 30
0.0
 11
276.5
 21
-890.0
 31
0.0
  0
LINE
  5
103
  8
DATA
  6
CONTINUOUS
 62
     7
 10
703.5
 20
-356.5
 30
0.0
 11
296.5
 21
-356.5
 31
0.0
  0
LINE
  5
104
  8
DATA
  6
CONTINUOUS
 62
     7
 10
296.5
 20
-356.5
 30
0.0
 11
276.5
 21
-366.5
 31
0.0
  0
LINE
  5
105
  8
DATA
  6
CONTINUOUS
 62
     7
 10
703.5
 20
-356.5
 30
0.0
 11
723.5
 21
-366.5
 31
0.0
  0
LINE
  5
106
  8
DATA
  6
CONTINUOUS
 62
     7
 10
723.5
 20
-366.5
 30
0.0
 11
276.5
 21
-366.5
 31
0.0
  0
TEXT
  5
107
  8
DATA
 62
     7
 10
484.54594726562499
 20
-548.52936197916677
 30
0.0
 40
3.462890625
  1
Signal
 41
0.7
 72
     1
 11
490.0
 21
-546.79791666666665
 31
0.0
 73
     2
  0
CIRCLE
  5
108
  8
DATA
  6
CONTINUOUS
 62
     7
 10
465.0012795833336
 20
-559.25
 30
0.0
 40
3.9999999999999978
  0
CIRCLE
  5
109
  8
DATA
  6
CONTINUOUS
 62
     7
 10
465.0012795833336
 20
-546.25
 30
0.0
 40
2.0005858333332398
  0
LINE
  5
10A
  8
DATA
  6
CONTINUOUS
 62
     7
 10
455.60396821971972
 20
-638.75
 30
0.0
 11
455.60396821972
 21
-633.25
 31
0.0
  0
TEXT
  5
10B
  8
DATA
 62
     7
 10
505.95996093749989
 20
-548.52936197916677
 30
0.0
 40
3.462890625
  1
Limit
 41
0.7
 72
     1
 11
510.0
 21
-546.79791666666665
 31
0.0
 73
     2
  0
TEXT
  5
10C
  8
DATA
 62
     7
 10
453.86792756192358
 20
-541.64767030477253
 30
0.0
 40
3.462890625
  1
0\U+00B0
 41
0.7
 72
     1
 11
455.28194123379859
 21
-539.91622499227253
 31
0.0
 73
     2
  0
TEXT
  5
10D
  8
DATA
 62
     7
 10
474.4504671973412
 20
-541.64767030477253
 30
0.0
 40
3.462890625
  1
180\U+00B0
 41
0.7
 72
     1
 11
477.8845004004661
 21
-539.91622499227253
 31
0.0
 73
     2
  0
TEXT
  5
10E
  8
DATA
 62
     7
 10
531.17870088541622
 20
-541.64767030477253
 30
0.0
 40
3.462890625
  1
ON
 41
0.7
 72
     1
 11
533.19872041666622
 21
-539.91622499227253
 31
0.0
 73
     2
  0
TEXT
  5
10F
  8
DATA
 62
     7
 10
552.5692483333338
 20
-541.64767030477253
 30
0.0
 40
3.462890625
  1
OFF
 41
0.7
 72
     1
 11
555.80127958333367
 21
-539.91622499227253
 31
0.0
 73
     2
  0
TEXT
  5
110
  8
DATA
 62
     7
 10
470.16979724232431
 20
-580.25107697616352
 30
0.0
 40
3.462890625
  1
CH1
 41
0.7
 72
     1
 11
472.99782458607439
 21
-578.51963166366352
 31
0.0
 73
     2
  0
LINE
  5
111
  8
DATA
  6
CONTINUOUS
 62
     7
 10
478.52829682508758
 20
-580.75
 30
0.0
 11
477.12334039274992
 21
-576.28926332732692
 31
0.0
  0
LINE
  5
112
  8
DATA
  6
CONTINUOUS
 62
     7
 10
467.46735234706119
 20
-580.75
 30
0.0
 11
468.87230877939891
 21
-576.28926332732692
 31
0.0
  0
LINE
  5
113
  8
DATA
  6
CONTINUOUS
 62
     7
 10
468.87230877939891
 20
-576.28926332732692
 30
0.0
 11
477.12334039274992
 21
-576.28926332732692
 31
0.0
  0
LINE
  5
114
  8
DATA
  6
CONTINUOUS
 62
     7
 10
539.39603178028017
 20
-580.75
 30
0.0
 11
521.49603179517987
 21
-580.75
 31
0.0
  0
ARC
  5
115
  8
DATA
  6
CONTINUOUS
 62
     7
 10
539.39603178028017
 20
-585.74999999999989
 30
0.0
 40
5.0
 50
0.0
 51
90.0
  0
LINE
  5
116
  8
DATA
  6
CONTINUOUS
 62
     7
 10
412.5
 20
-810.25
 30
0.0
 11
412.5
 21
-446.25
 31
0.0
  0
LINE
  5
117
  8
DATA
  6
CONTINUOUS
 62
     7
 10
432.5
 20
-800.24999999999989
 30
0.0
 11
432.5
 21
-456.25
 31
0.0
  0
LINE
  5
118
  8
DATA
  6
CONTINUOUS
 62
     7
 10
577.5
 20
-820.25
 30
0.0
 11
422.49999999999989
 21
-820.25
 31
0.0
  0
LINE
  5
119
  8
DATA
  6
CONTINUOUS
 62
     7
 10
432.5
 20
-800.24999999999989
 30
0.0
 11
567.49999999999989
 21
-800.24999999999989
 31
0.0
  0
LINE
  5
11A
  8
DATA
  6
CONTINUOUS
 62
     7
 10
567.49999999999989
 20
-750.25
 30
0.0
 11
432.5
 21
-750.25
 31
0.0
  0
LINE
  5
11B
  8
DATA
  6
CONTINUOUS
 62
     7
 10
567.49999999999989
 20
-745.25
 30
0.0
 11
432.5
 21
-745.25
 31
0.0
  0
LINE
  5
11C
  8
DATA
  6
CONTINUOUS
 62
     7
 10
587.5
 20
-446.25
 30
0.0
 11
587.5
 21
-810.25
 31
0.0
  0
LINE
  5
11D
  8
DATA
  6
CONTINUOUS
 62
     7
 10
567.49999999999989
 20
-456.25
 30
0.0
 11
567.49999999999989
 21
-800.24999999999989
 31
0.0
  0
LINE
  5
11E
  8
DATA
  6
CONTINUOUS
 62
     7
 10
422.49999999999989
 20
-436.24999999999989
 30
0.0
 11
577.5
 21
-436.24999999999989
 31
0.0
  0
LINE
  5
11F
  8
DATA
  6
CONTINUOUS
 62
     7
 10
432.5
 20
-456.25
 30
0.0
 11
567.49999999999989
 21
-456.25
 31
0.0
  0
ARC
  5
120
  8
DATA
  6
CONTINUOUS
 62
     7
 10
422.49999999999989
 20
-810.25
 30
0.0
 40
10.0
 50
180.0
 51
270.0
  0
ARC
  5
121
  8
DATA
  6
CONTINUOUS
 62
     7
 10
577.5
 20
-810.25
 30
0.0
 40
10.0
 50
270.0
 51
0.0
  0
ARC
  5
122
  8
DATA
  6
CONTINUOUS
 62
     7
 10
422.49999999999989
 20
-446.25
 30
0.0
 40
10.0
 50
90.0
 51
180.0
  0
ARC
  5
123
  8
DATA
  6
CONTINUOUS
 62
     7
 10
577.5
 20
-446.25
 30
0.0
 40
10.0
 50
0.0
 51
90.0
  0
CIRCLE
  5
124
  8
DATA
  6
CONTINUOUS
 62
     7
 10
533.49999999999989
 20
-795.25
 30
0.0
 40
2.5000000000004241
  0
CIRCLE
  5
125
  8
DATA
  6
CONTINUOUS
 62
     7
 10
466.5
 20
-795.25
 30
0.0
 40
2.5000000000004241
  0
LINE
  5
126
  8
DATA
  6
CONTINUOUS
 62
     7
 10
465.0
 20
-795.25
 30
0.0
 11
468.0
 21
-795.25
 31
0.0
  0
LINE
  5
127
  8
DATA
  6
CONTINUOUS
 62
     7
 10
466.42000000000007
 20
-796.75
 30
0.0
 11
466.42000000000007
 21
-793.75
 31
0.0
  0
LINE
  5
128
  8
DATA
  6
CONTINUOUS
 62
     7
 10
535.0
 20
-795.25
 30
0.0
 11
532.0
 21
-795.25
 31
0.0
  0
LINE
  5
129
  8
DATA
  6
CONTINUOUS
 62
     7
 10
533.57999999999981
 20
-796.75
 30
0.0
 11
533.57999999999981
 21
-793.75
 31
0.0
  0
ARC
  5
12A
  8
DATA
  6
CONTINUOUS
 62
     7
 10
474.50000000003638
 20
-716.24999999994873
 30
0.0
 40
23.249999999937408
 50
60.356338108124589
 51
143.44380664840369
  0
ARC
  5
12B
  8
DATA
  6
CONTINUOUS
 62
     7
 10
474.50000000003638
 20
-716.24999999994873
 30
0.0
 40
23.249999999938169
 50
150.35633810836481
 51
233.44380664831979
  0
ARC
  5
12C
  8
DATA
  6
CONTINUOUS
 62
     7
 10
474.50000000003638
 20
-716.24999999994873
 30
0.0
 40
23.249999999937589
 50
240.35633810827451
 51
323.44380664809802
  0
ARC
  5
12D
  8
DATA
  6
CONTINUOUS
 62
     7
 10
474.50000000003638
 20
-716.24999999994873
 30
0.0
 40
23.249999999937032
 50
330.35633810803893
 51
53.443806648181237
  0
ARC
  5
12E
  8
DATA
  6
CONTINUOUS
 62
     7
 10
474.49999999997078
 20
-716.25000000006139
 30
0.0
 40
19.000000000067772
 50
68.200922830828603
 51
149.13323278369131
  0
ARC
  5
12F
  8
DATA
  6
CONTINUOUS
 62
     7
 10
474.49999999997078
 20
-716.25000000006139
 30
0.0
 40
19.000000000066802
 50
158.2009228304685
 51
239.13323278374969
  0
ARC
  5
130
  8
DATA
  6
CONTINUOUS
 62
     7
 10
474.49999999997078
 20
-716.25000000006139
 30
0.0
 40
19.000000000067349
 50
248.20092283053259
 51
329.13323278407648
  0
ARC
  5
131
  8
DATA
  6
CONTINUOUS
 62
     7
 10
474.49999999997078
 20
-716.25000000006139
 30
0.0
 40
19.000000000067988
 50
338.20092283089531
 51
59.133232784015888
  0
ARC
  5
132
  8
DATA
  6
CONTINUOUS
 62
     7
 10
474.50000000000171
 20
-716.24999999998875
 30
0.0
 40
16.499999999988589
 50
75.407766102218673
 51
154.09772123936361
  0
ARC
  5
133
  8
DATA
  6
CONTINUOUS
 62
     7
 10
474.50000000000171
 20
-716.24999999998875
 30
0.0
 40
16.499999999988251
 50
165.40776610230151
 51
244.097721239371
  0
ARC
  5
134
  8
DATA
  6
CONTINUOUS
 62
     7
 10
474.50000000000171
 20
-716.24999999998875
 30
0.0
 40
16.499999999988329
 50
255.40776610230969
 51
334.0977212393035
  0
ARC
  5
135
  8
DATA
  6
CONTINUOUS
 62
     7
 10
474.50000000000171
 20
-716.24999999998875
 30
0.0
 40
16.49999999998883
 50
345.40776610223122
 51
64.097721239291559
  0
ARC
  5
136
  8
DATA
  6
CONTINUOUS
 62
     7
 10
474.5
 20
-716.25000000000102
 30
0.0
 40
11.75000000000086
 50
119.9999999999975
 51
171.92777458635189
  0
ARC
  5
137
  8
DATA
  6
CONTINUOUS
 62
     7
 10
474.5
 20
-716.25000000000102
 30
0.0
 40
11.750000000000099
 50
210.00000000000219
 51
261.9277745863443
  0
ARC
  5
138
  8
DATA
  6
CONTINUOUS
 62
     7
 10
474.5
 20
-716.25000000000102
 30
0.0
 40
11.75000000000132
 50
300.00000000000148
 51
351.92777458635459
  0
ARC
  5
139
  8
DATA
  6
CONTINUOUS
 62
     7
 10
474.5
 20
-716.25000000000102
 30
0.0
 40
11.75000000000168
 50
29.999999999997829
 51
81.927774586357813
  0
LINE
  5
13A
  8
DATA
  6
CONTINUOUS
 62
     7
 10
464.32420150553293
 20
-722.125
 30
0.0
 11
458.53223508643879
 21
-712.09301988639697
 31
0.0
  0
LINE
  5
13B
  8
DATA
  6
CONTINUOUS
 62
     7
 10
456.85865564466792
 20
-709.19429526274678
 30
0.0
 11
454.2930001816631
 21
-704.75044964610595
 31
0.0
  0
LINE
  5
13C
  8
DATA
  6
CONTINUOUS
 62
     7
 10
462.86642082844628
 20
-714.60004980099541
 30
0.0
 11
459.65758330402957
 21
-709.04218017547043
 31
0.0
  0
LINE
  5
13D
  8
DATA
  6
CONTINUOUS
 62
     7
 10
458.19111009955759
 20
-706.50217407738728
 30
0.0
 11
455.82390051114362
 21
-702.40204679808994
 31
0.0
  0
LINE
  5
13E
  8
DATA
  6
CONTINUOUS
 62
     7
 10
468.625
 20
-706.07420150553287
 30
0.0
 11
478.6569801136165
 21
-700.28223508643146
 31
0.0
  0
LINE
  5
13F
  8
DATA
  6
CONTINUOUS
 62
     7
 10
481.55570473717489
 20
-698.60865564471294
 30
0.0
 11
485.99955035389388
 21
-696.0430001816635
 31
0.0
  0
LINE
  5
140
  8
DATA
  6
CONTINUOUS
 62
     7
 10
476.14995019900653
 20
-704.61642082844639
 30
0.0
 11
481.707819824539
 21
-701.40758330402423
 31
0.0
  0
LINE
  5
141
  8
DATA
  6
CONTINUOUS
 62
     7
 10
484.2478259225536
 20
-699.94111009959261
 30
0.0
 11
488.34795320191188
 21
-697.57390051114328
 31
0.0
  0
LINE
  5
142
  8
DATA
  6
CONTINUOUS
 62
     7
 10
484.67579849446702
 20
-710.37499999999989
 30
0.0
 11
490.46776491355911
 21
-720.40698011360109
 31
0.0
  0
LINE
  5
143
  8
DATA
  6
CONTINUOUS
 62
     7
 10
492.14134435532651
 20
-723.30570473724504
 30
0.0
 11
494.70699981833599
 21
-727.74955035389394
 31
0.0
  0
LINE
  5
144
  8
DATA
  6
CONTINUOUS
 62
     7
 10
486.13357917155543
 20
-717.89995019900834
 30
0.0
 11
489.34241669596662
 21
-723.45781982452286
 31
0.0
  0
LINE
  5
145
  8
DATA
  6
CONTINUOUS
 62
     7
 10
490.80888990044878
 20
-725.99782592262545
 30
0.0
 11
493.17609948885638
 21
-730.09795320191085
 31
0.0
  0
LINE
  5
146
  8
DATA
  6
CONTINUOUS
 62
     7
 10
480.37499999999989
 20
-726.42579849446702
 30
0.0
 11
470.34301988641158
 21
-732.21776491355195
 31
0.0
  0
LINE
  5
147
  8
DATA
  6
CONTINUOUS
 62
     7
 10
467.44429526267601
 20
-733.89134435537278
 30
0.0
 11
463.00044964610601
 21
-736.45699981833639
 31
0.0
  0
LINE
  5
148
  8
DATA
  6
CONTINUOUS
 62
     7
 10
472.8500498009916
 20
-727.88357917155486
 30
0.0
 11
467.2921801754855
 21
-731.0924166959619
 31
0.0
  0
LINE
  5
149
  8
DATA
  6
CONTINUOUS
 62
     7
 10
464.75217407731361
 20
-732.55888990048436
 30
0.0
 11
460.65204679808892
 21
-734.92609948885661
 31
0.0
  0
LINE
  5
14A
  8
DATA
  6
CONTINUOUS
 62
     7
 10
528.0
 20
-733.25
 30
0.0
 11
528.0
 21
-690.24999999999989
 31
0.0
  0
LINE
  5
14B
  8
DATA
  6
CONTINUOUS
 62
     7
 10
530.0
 20
-710.25
 30
0.0
 11
530.0
 21
-692.25
 31
0.0
  0
LINE
  5
14C
  8
DATA
  6
CONTINUOUS
 62
     7
 10
532.0
 20
-708.25
 30
0.0
 11
532.0
 21
-694.24999999999989
 31
0.0
  0
LINE
  5
14D
  8
DATA
  6
CONTINUOUS
 62
     7
 10
556.0
 20
-733.25
 30
0.0
 11
528.0
 21
-733.25
 31
0.0
  0
LINE
  5
14E
  8
DATA
  6
CONTINUOUS
 62
     7
 10
556.0
 20
-690.24999999999989
 30
0.0
 11
556.0
 21
-733.25
 31
0.0
  0
LINE
  5
14F
  8
DATA
  6
CONTINUOUS
 62
     7
 10
554.0
 20
-692.25
 30
0.0
 11
554.0
 21
-710.25
 31
0.0
  0
LINE
  5
150
  8
DATA
  6
CONTINUOUS
 62
     7
 10
552.0
 20
-694.24999999999989
 30
0.0
 11
552.0
 21
-708.25
 31
0.0
  0
LINE
  5
151
  8
DATA
  6
CONTINUOUS
 62
     7
 10
528.0
 20
-690.24999999999989
 30
0.0
 11
556.0
 21
-690.24999999999989
 31
0.0
  0
LINE
  5
152
  8
DATA
  6
CONTINUOUS
 62
     7
 10
530.0
 20
-692.25
 30
0.0
 11
554.0
 21
-692.25
 31
0.0
  0
LINE
  5
153
  8
DATA
  6
CONTINUOUS
 62
     7
 10
530.0
 20
-723.24999999999989
 30
0.0
 11
530.0
 21
-712.25
 31
0.0
  0
LINE
  5
154
  8
DATA
  6
CONTINUOUS
 62
     7
 10
535.0
 20
-728.24999999999989
 30
0.0
 11
530.0
 21
-723.24999999999989
 31
0.0
  0
LINE
  5
155
  8
DATA
  6
CONTINUOUS
 62
     7
 10
549.0
 20
-728.24999999999989
 30
0.0
 11
535.0
 21
-728.24999999999989
 31
0.0
  0
LINE
  5
156
  8
DATA
  6
CONTINUOUS
 62
     7
 10
554.0
 20
-723.24999999999989
 30
0.0
 11
549.0
 21
-728.24999999999989
 31
0.0
  0
LINE
  5
157
  8
DATA
  6
CONTINUOUS
 62
     7
 10
554.0
 20
-712.25
 30
0.0
 11
554.0
 21
-723.24999999999989
 31
0.0
  0
LINE
  5
158
  8
DATA
  6
CONTINUOUS
 62
     7
 10
530.0
 20
-712.25
 30
0.0
 11
554.0
 21
-712.25
 31
0.0
  0
LINE
  5
159
  8
DATA
  6
CONTINUOUS
 62
     7
 10
530.0
 20
-710.25
 30
0.0
 11
554.0
 21
-710.25
 31
0.0
  0
ARC
  5
15A
  8
DATA
  6
CONTINUOUS
 62
     7
 10
453.27505366881809
 20
-763.90294519633346
 30
0.0
 40
0.2869048033359047
 50
307.64190249759048
 51
354.2670192896154
  0
LINE
  5
15B
  8
DATA
  6
CONTINUOUS
 62
     7
 10
445.9055554416027
 20
-759.38178983701823
 30
0.0
 11
447.25056944160121
 21
-756.17699783701858
 31
0.0
  0
LINE
  5
15C
  8
DATA
  6
CONTINUOUS
 62
     7
 10
445.9055554416027
 20
-759.38178983701823
 30
0.0
 11
444.57713744160168
 21
-756.17699783701858
 31
0.0
  0
LINE
  5
15D
  8
DATA
  6
CONTINUOUS
 62
     7
 10
456.10111544160281
 20
-765.17699783701869
 30
0.0
 11
456.10111544160281
 21
-756.17699783701858
 31
0.0
  0
LINE
  5
15E
  8
DATA
  6
CONTINUOUS
 62
     7
 10
457.82805344160249
 20
-756.17699783701858
 30
0.0
 11
457.82805344160249
 21
-763.79877383701785
 31
0.0
  0
LINE
  5
15F
  8
DATA
  6
CONTINUOUS
 62
     7
 10
447.88156844160221
 20
-756.17699783701858
 30
0.0
 11
447.88156844160221
 21
-763.79877383701785
 31
0.0
  0
LINE
  5
160
  8
DATA
  6
CONTINUOUS
 62
     7
 10
449.54208644160269
 20
-756.17699783701858
 30
0.0
 11
449.54208644160269
 21
-763.79877383701785
 31
0.0
  0
LINE
  5
161
  8
DATA
  6
CONTINUOUS
 62
     7
 10
450.4055554416027
 20
-756.17699783701858
 30
0.0
 11
450.4055554416027
 21
-765.17699783701869
 31
0.0
  0
LINE
  5
162
  8
DATA
  6
CONTINUOUS
 62
     7
 10
451.91662844160243
 20
-757.02385283701744
 30
0.0
 11
451.91662844160243
 21
-759.9131588370177
 31
0.0
  0
LINE
  5
163
  8
DATA
  6
CONTINUOUS
 62
     7
 10
455.15535044160242
 20
-759.74597483701859
 30
0.0
 11
455.15535044160242
 21
-757.63825583701782
 31
0.0
  0
LINE
  5
164
  8
DATA
  6
CONTINUOUS
 62
     7
 10
453.56052344160162
 20
-757.42238183701829
 30
0.0
 11
453.56052344160162
 21
-759.51463883701877
 31
0.0
  0
ARC
  5
165
  8
DATA
  6
CONTINUOUS
 62
     7
 10
447.54835244160307
 20
-762.86597783701768
 30
0.0
 40
2.3209680826510288
 50
264.69085622148839
 51
323.9911991542312
  0
LINE
  5
166
  8
DATA
  6
CONTINUOUS
 62
     7
 10
446.61957944160349
 20
-762.35411183701785
 30
0.0
 11
446.61957944160349
 21
-763.79875583701767
 31
0.0
  0
LINE
  5
167
  8
DATA
  6
CONTINUOUS
 62
     7
 10
446.61957944160349
 20
-762.35411183701785
 30
0.0
 11
445.12511144160271
 21
-762.35411183701785
 31
0.0
  0
LINE
  5
168
  8
DATA
  6
CONTINUOUS
 62
     7
 10
445.12511144160271
 20
-762.35411183701785
 30
0.0
 11
445.12511144160271
 21
-763.79875583701767
 31
0.0
  0
ARC
  5
169
  8
DATA
  6
CONTINUOUS
 62
     7
 10
447.25373744160242
 20
-763.8182318370184
 30
0.0
 40
0.6281359436174772
 50
269.71184879276251
 51
1.775987005712067
  0
ARC
  5
16A
  8
DATA
  6
CONTINUOUS
 62
     7
 10
447.2474104416014
 20
-763.8182318370184
 30
0.0
 40
0.6281327317115519
 50
178.22401299438391
 51
270.28815120729058
  0
ARC
  5
16B
  8
DATA
  6
CONTINUOUS
 62
     7
 10
447.11884544160228
 20
-762.86597783701768
 30
0.0
 40
2.3209643132525319
 50
216.00880084574641
 51
275.30914377847182
  0
ARC
  5
16C
  8
DATA
  6
CONTINUOUS
 62
     7
 10
446.1740074416029
 20
-763.74787883701833
 30
0.0
 40
1.0501201873593851
 50
182.7769954499737
 51
207.35960666708209
  0
CIRCLE
  5
16D
  8
DATA
  6
CONTINUOUS
 62
     7
 10
445.99688744160261
 20
-760.62718283701815
 30
0.0
 40
0.8551619999998366
  0
LINE
  5
16E
  8
DATA
  6
CONTINUOUS
 62
     7
 10
460.60111544160281
 20
-765.17698883701735
 30
0.0
 11
456.10111544160281
 21
-765.17698883701735
 31
0.0
  0
LINE
  5
16F
  8
DATA
  6
CONTINUOUS
 62
     7
 10
460.60111544160281
 20
-765.17698883701735
 30
0.0
 11
460.60111544160281
 21
-762.35410283701935
 31
0.0
  0
LINE
  5
170
  8
DATA
  6
CONTINUOUS
 62
     7
 10
460.60111544160281
 20
-762.35411183701785
 30
0.0
 11
459.0900514416025
 21
-762.35411183701785
 31
0.0
  0
LINE
  5
171
  8
DATA
  6
CONTINUOUS
 62
     7
 10
459.0900514416025
 20
-762.35411183701785
 30
0.0
 11
459.0900514416025
 21
-763.79875583701767
 31
0.0
  0
LINE
  5
172
  8
DATA
  6
CONTINUOUS
 62
     7
 10
450.4055554416027
 20
-765.17698883701735
 30
0.0
 11
453.56052344160162
 21
-765.17697983701783
 31
0.0
  0
LINE
  5
173
  8
DATA
  6
CONTINUOUS
 62
     7
 10
451.9166194416029
 20
-764.33012483701827
 30
0.0
 11
452.73027344160249
 21
-764.33012483701827
 31
0.0
  0
LINE
  5
174
  8
DATA
  6
CONTINUOUS
 62
     7
 10
451.91662844160243
 20
-764.33012483701827
 30
0.0
 11
451.91662844160243
 21
-760.77661883701785
 31
0.0
  0
LINE
  5
175
  8
DATA
  6
CONTINUOUS
 62
     7
 10
451.9166194416029
 20
-760.77661883701785
 30
0.0
 11
452.73027344160249
 21
-760.77661883701785
 31
0.0
  0
LINE
  5
176
  8
DATA
  6
CONTINUOUS
 62
     7
 10
453.56052344160162
 20
-763.93160483701763
 30
0.0
 11
453.56052344160162
 21
-761.17513883701872
 31
0.0
  0
ARC
  5
177
  8
DATA
  6
CONTINUOUS
 62
     7
 10
448.49319044160262
 20
-763.74787883701833
 30
0.0
 40
1.0501186930780719
 50
332.64039333284268
 51
357.22300455000988
  0
ARC
  5
178
  8
DATA
  6
CONTINUOUS
 62
     7
 10
458.46221144160342
 20
-763.8182318370184
 30
0.0
 40
0.6281359436174772
 50
269.71184879276251
 51
1.775987005712067
  0
ARC
  5
179
  8
DATA
  6
CONTINUOUS
 62
     7
 10
458.45589344160169
 20
-763.8182318370184
 30
0.0
 40
0.62813273171337
 50
178.22401299438889
 51
270.28815120728967
  0
LINE
  5
17A
  8
DATA
  6
CONTINUOUS
 62
     7
 10
455.15462144160301
 20
-763.73233583701881
 30
0.0
 11
455.15462144160301
 21
-761.34119783701783
 31
0.0
  0
LINE
  5
17B
  8
DATA
  6
CONTINUOUS
 62
     7
 10
451.9166194416029
 20
-759.9131588370177
 30
0.0
 11
452.73027344160249
 21
-759.9131588370177
 31
0.0
  0
ARC
  5
17C
  8
DATA
  6
CONTINUOUS
 62
     7
 10
453.4461154416021
 20
-763.46845583701827
 30
0.0
 40
1.7123502705459379
 50
273.83098160909748
 51
351.1351473098112
  0
LINE
  5
17D
  8
DATA
  6
CONTINUOUS
 62
     7
 10
447.88156844160221
 20
-756.17699783701858
 30
0.0
 11
449.54208644160269
 21
-756.17699783701858
 31
0.0
  0
LINE
  5
17E
  8
DATA
  6
CONTINUOUS
 62
     7
 10
444.57713744160168
 20
-756.17699783701858
 30
0.0
 11
447.25056944160121
 21
-756.17699783701858
 31
0.0
  0
LINE
  5
17F
  8
DATA
  6
CONTINUOUS
 62
     7
 10
456.10111544160281
 20
-756.17699783701858
 30
0.0
 11
457.82805344160249
 21
-756.17699783701858
 31
0.0
  0
LINE
  5
180
  8
DATA
  6
CONTINUOUS
 62
     7
 10
450.4055554416027
 20
-756.17699783701858
 30
0.0
 11
453.57786655693423
 21
-756.17700512138447
 31
0.0
  0
LINE
  5
181
  8
DATA
  6
CONTINUOUS
 62
     7
 10
451.9166194416029
 20
-757.02386183701776
 30
0.0
 11
452.73027344160249
 21
-757.02386183701776
 31
0.0
  0
ARC
  5
182
  8
DATA
  6
CONTINUOUS
 62
     7
 10
453.46318844160311
 20
-757.88291183701892
 30
0.0
 40
1.709756939619852
 50
8.2269238590440068
 51
86.154126692181322
  0
ARC
  5
183
  8
DATA
  6
CONTINUOUS
 62
     7
 10
452.73988135794559
 20
-762.75180567248958
 30
0.0
 40
1.5783484080439929
 50
269.65121993760812
 51
282.82648280688181
  0
ARC
  5
184
  8
DATA
  6
CONTINUOUS
 62
     7
 10
452.9171548663216
 20
-763.41910011712321
 30
0.0
 40
0.8886941133236042
 50
281.23310362276038
 51
306.8620088940894
  0
ARC
  5
185
  8
DATA
  6
CONTINUOUS
 62
     7
 10
453.27505366881809
 20
-761.20379847770266
 30
0.0
 40
0.2869048033358559
 50
5.7329807103845116
 51
52.358097502381838
  0
ARC
  5
186
  8
DATA
  6
CONTINUOUS
 62
     7
 10
452.73988135794559
 20
-762.35493800154666
 30
0.0
 40
1.578348408043986
 50
77.173517193118244
 51
90.348780062391782
  0
ARC
  5
187
  8
DATA
  6
CONTINUOUS
 62
     7
 10
452.9171548663216
 20
-761.68764355691314
 30
0.0
 40
0.8886941133235801
 50
53.137991105901783
 51
78.766896377236819
  0
ARC
  5
188
  8
DATA
  6
CONTINUOUS
 62
     7
 10
454.2837094416027
 20
-761.40006683701824
 30
0.0
 40
0.8728993475227257
 50
3.867006359847649
 51
88.361634567947604
  0
ARC
  5
189
  8
DATA
  6
CONTINUOUS
 62
     7
 10
454.2829084416025
 20
-759.65413883701785
 30
0.0
 40
0.8737667459524635
 50
271.689282104634
 51
356.07828298258949
  0
ARC
  5
18A
  8
DATA
  6
CONTINUOUS
 62
     7
 10
453.27505366881809
 20
-759.48597919633301
 30
0.0
 40
0.2869048033359047
 50
307.64190249759048
 51
354.26701928925399
  0
ARC
  5
18B
  8
DATA
  6
CONTINUOUS
 62
     7
 10
452.73988135794559
 20
-758.33483967248981
 30
0.0
 40
1.5783484080430841
 50
269.651219937608
 51
282.82648280688909
  0
ARC
  5
18C
  8
DATA
  6
CONTINUOUS
 62
     7
 10
452.9171548663216
 20
-759.00213411712252
 30
0.0
 40
0.8886941133253882
 50
281.23310362273747
 51
306.86200889415687
  0
ARC
  5
18D
  8
DATA
  6
CONTINUOUS
 62
     7
 10
453.27505366881809
 20
-757.45104147770235
 30
0.0
 40
0.2869048033358559
 50
5.7329807103845116
 51
52.358097502381838
  0
ARC
  5
18E
  8
DATA
  6
CONTINUOUS
 62
     7
 10
452.73988135794559
 20
-758.60218100154646
 30
0.0
 40
1.578348408043986
 50
77.173517193118244
 51
90.348780062391782
  0
ARC
  5
18F
  8
DATA
  6
CONTINUOUS
 62
     7
 10
452.9171548663216
 20
-757.93488655691294
 30
0.0
 40
0.8886941133235801
 50
53.137991105901783
 51
78.766896377236819
  0
POLYLINE
  5
190
  8
DATA
  6
CONTINUOUS
 62
     7
 66
     1
 10
0.0
 20
0.0
 30
0.0
 70
     1
  0
VERTEX
  5
4BF
  8
DATA
  6
CONTINUOUS
 62
     7
 10
440.79999999999922
 20
-754.25
 30
0.0
  0
VERTEX
  5
4C0
  8
DATA
  6
CONTINUOUS
 62
     7
 10
465.79999999999922
 20
-754.25
 30
0.0
  0
VERTEX
  5
4C1
  8
DATA
  6
CONTINUOUS
 62
     7
 10
465.79999999999922
 20
-779.25
 30
0.0
  0
VERTEX
  5
4C2
  8
DATA
  6
CONTINUOUS
 62
     7
 10
440.79999999999922
 20
-779.25
 30
0.0
  0
SEQEND
  5
4C3
  8
DATA
  6
CONTINUOUS
 62
     7
  0
LINE
  5
197
  8
DATA
  6
CONTINUOUS
 62
     7
 10
552.0
 20
-708.25
 30
0.0
 11
532.0
 21
-708.25
 31
0.0
  0
LINE
  5
198
  8
DATA
  6
CONTINUOUS
 62
     7
 10
532.0
 20
-694.24999999999989
 30
0.0
 11
552.0
 21
-694.24999999999989
 31
0.0
  0
LINE
  5
199
  8
DATA
  6
CONTINUOUS
 62
     7
 10
532.0
 20
-696.25
 30
0.0
 11
552.0
 21
-696.25
 31
0.0
  0
CIRCLE
  5
19A
  8
DATA
  6
CONTINUOUS
 62
     7
 10
542.0
 20
-706.25
 30
0.0
 40
1.2499999999999081
  0
LINE
  5
19B
  8
DATA
  6
CONTINUOUS
 62
     7
 10
542.0
 20
-699.79999999999995
 30
0.0
 11
542.0
 21
-697.29999999999995
 31
0.0
  0
CIRCLE
  5
19C
  8
DATA
  6
CONTINUOUS
 62
     7
 10
542.0
 20
-686.24999999999977
 30
0.0
 40
2.7499999999998379
  0
LINE
  5
19D
  8
DATA
  6
CONTINUOUS
 62
     7
 10
540.5
 20
-686.24999999999977
 30
0.0
 11
543.5
 21
-686.24999999999977
 31
0.0
  0
LINE
  5
19E
  8
DATA
  6
CONTINUOUS
 62
     7
 10
542.0
 20
-687.74999999999955
 30
0.0
 11
542.0
 21
-684.74999999999966
 31
0.0
  0
CIRCLE
  5
19F
  8
DATA
  6
CONTINUOUS
 62
     7
 10
542.0
 20
-737.25000000000011
 30
0.0
 40
2.7499999999998379
  0
LINE
  5
1A0
  8
DATA
  6
CONTINUOUS
 62
     7
 10
540.5
 20
-737.25000000000011
 30
0.0
 11
543.5
 21
-737.25000000000011
 31
0.0
  0
LINE
  5
1A1
  8
DATA
  6
CONTINUOUS
 62
     7
 10
542.0
 20
-735.75000000000011
 30
0.0
 11
542.0
 21
-738.75000000000011
 31
0.0
  0
CIRCLE
  5
1A2
  8
DATA
  6
CONTINUOUS
 62
     7
 10
470.00000000044918
 20
-628.24999999999989
 30
0.0
 40
1.6499999998359269
  0
CIRCLE
  5
1A3
  8
DATA
  6
CONTINUOUS
 62
     7
 10
478.99999999955071
 20
-628.24999999999989
 30
0.0
 40
1.6499999998341079
  0
CIRCLE
  5
1A4
  8
DATA
  6
CONTINUOUS
 62
     7
 10
474.5
 20
-628.24999999999989
 30
0.0
 40
11.9999999988
  0
CIRCLE
  5
1A5
  8
DATA
  6
CONTINUOUS
 62
     7
 10
483.99744083238329
 20
-640.24999999879992
 30
0.0
 40
2.5
  0
LINE
  5
1A6
  8
DATA
  6
CONTINUOUS
 62
     7
 10
482.49488166571609
 20
-640.24999999879992
 30
0.0
 11
485.49488166571598
 21
-640.24999999879992
 31
0.0
  0
LINE
  5
1A7
  8
DATA
  6
CONTINUOUS
 62
     7
 10
483.99744083238329
 20
-638.7488283321336
 30
0.0
 11
483.99744083238329
 21
-641.74882833213348
 31
0.0
  0
CIRCLE
  5
1A8
  8
DATA
  6
CONTINUOUS
 62
     7
 10
465.00255916761671
 20
-616.25000000119996
 30
0.0
 40
2.5
  0
LINE
  5
1A9
  8
DATA
  6
CONTINUOUS
 62
     7
 10
463.5000000009494
 20
-616.25000000119996
 30
0.0
 11
466.5000000009494
 21
-616.25000000119996
 31
0.0
  0
LINE
  5
1AA
  8
DATA
  6
CONTINUOUS
 62
     7
 10
465.00255916761671
 20
-614.74882833453319
 30
0.0
 11
465.00255916761671
 21
-617.74882833453319
 31
0.0
  0
CIRCLE
  5
1AB
  8
DATA
  6
CONTINUOUS
 62
     7
 10
474.5
 20
-628.24999999999989
 30
0.0
 40
9.7500000156815751
  0
CIRCLE
  5
1AC
  8
DATA
  6
CONTINUOUS
 62
     7
 10
474.5
 20
-624.3000000003949
 30
0.0
 40
1.6499999998341079
  0
CIRCLE
  5
1AD
  8
DATA
  6
CONTINUOUS
 62
     7
 10
525.49999999999989
 20
-596.25
 30
0.0
 40
7.899999852375986
  0
CIRCLE
  5
1AE
  8
DATA
  6
CONTINUOUS
 62
     7
 10
525.49999999999989
 20
-596.25
 30
0.0
 40
9.7499999990251833
  0
CIRCLE
  5
1AF
  8
DATA
  6
CONTINUOUS
 62
     7
 10
525.49999999999989
 20
-596.25
 30
0.0
 40
11.999999998800201
  0
LINE
  5
1B0
  8
DATA
  6
CONTINUOUS
 62
     7
 10
527.89999999975953
 20
-588.72338057367926
 30
0.0
 11
527.89999999975953
 21
-588.72338072779712
 31
0.0
  0
LINE
  5
1B1
  8
DATA
  6
CONTINUOUS
 62
     7
 10
522.65000000028419
 20
-588.88199500073677
 30
0.0
 11
522.65000000028419
 21
-588.88199515817269
 31
0.0
  0
ARC
  5
1B2
  8
DATA
  6
CONTINUOUS
 62
     7
 10
521.00000000044906
 20
-596.25
 30
0.0
 40
1.999999999800095
 50
32.089183874050867
 51
327.91081612594922
  0
ARC
  5
1B3
  8
DATA
  6
CONTINUOUS
 62
     7
 10
529.9999999995498
 20
-596.25
 30
0.0
 40
1.999999999800095
 50
212.0891838740508
 51
147.91081612594911
  0
ARC
  5
1B4
  8
DATA
  6
CONTINUOUS
 62
     7
 10
525.49999999999989
 20
-600.19999999960567
 30
0.0
 40
1.99999999980077
 50
137.8522840898888
 51
42.147715910128611
  0
ARC
  5
1B5
  8
DATA
  6
CONTINUOUS
 62
     7
 10
520.05527766721025
 20
-590.80527800054472
 30
0.0
 40
0.7999999999207108
 50
56.612913999968789
 51
213.3870860000219
  0
ARC
  5
1B6
  8
DATA
  6
CONTINUOUS
 62
     7
 10
525.49999999999989
 20
-596.25
 30
0.0
 40
2.9999999999997442
 50
20.741916485081301
 51
159.25808351492489
  0
ARC
  5
1B7
  8
DATA
  6
CONTINUOUS
 62
     7
 10
525.49999999999989
 20
-596.25
 30
0.0
 40
3.0000000000005942
 50
200.74191648507511
 51
240.3778367991917
  0
ARC
  5
1B8
  8
DATA
  6
CONTINUOUS
 62
     7
 10
525.49999999999989
 20
-596.25
 30
0.0
 40
2.999999999999643
 50
299.6221632007933
 51
339.25808351491872
  0
CIRCLE
  5
1B9
  8
DATA
  6
CONTINUOUS
 62
     7
 10
534.99999999904958
 20
-608.24999999879992
 30
0.0
 40
2.5
  0
LINE
  5
1BA
  8
DATA
  6
CONTINUOUS
 62
     7
 10
533.49744083238329
 20
-608.24999999879992
 30
0.0
 11
536.49744083238318
 21
-608.24999999879992
 31
0.0
  0
LINE
  5
1BB
  8
DATA
  6
CONTINUOUS
 62
     7
 10
534.99999999904958
 20
-606.7488283321336
 30
0.0
 11
534.99999999904958
 21
-609.7488283321336
 31
0.0
  0
CIRCLE
  5
1BC
  8
DATA
  6
CONTINUOUS
 62
     7
 10
515.99744083428322
 20
-584.24882833453307
 30
0.0
 40
2.5
  0
LINE
  5
1BD
  8
DATA
  6
CONTINUOUS
 62
     7
 10
514.49488166761694
 20
-584.24882833453307
 30
0.0
 11
517.49488166761694
 21
-584.24882833453307
 31
0.0
  0
LINE
  5
1BE
  8
DATA
  6
CONTINUOUS
 62
     7
 10
515.99744083428322
 20
-582.74765666786698
 30
0.0
 11
515.99744083428322
 21
-585.74765666786686
 31
0.0
  0
LINE
  5
1BF
  8
DATA
  6
CONTINUOUS
 62
     7
 10
523.10000000023967
 20
-586.80000000094515
 30
0.0
 11
523.10000000023967
 21
-584.54626128234179
 31
0.0
  0
LINE
  5
1C0
  8
DATA
  6
CONTINUOUS
 62
     7
 10
527.89999999975953
 20
-586.80000000094492
 30
0.0
 11
527.89999999975953
 21
-584.54626128234179
 31
0.0
  0
CIRCLE
  5
1C1
  8
DATA
  6
CONTINUOUS
 62
     7
 10
474.5
 20
-596.25
 30
0.0
 40
7.899999852375986
  0
CIRCLE
  5
1C2
  8
DATA
  6
CONTINUOUS
 62
     7
 10
474.5
 20
-596.25
 30
0.0
 40
9.7499999990251833
  0
CIRCLE
  5
1C3
  8
DATA
  6
CONTINUOUS
 62
     7
 10
474.5
 20
-596.25
 30
0.0
 40
11.999999998800201
  0
LINE
  5
1C4
  8
DATA
  6
CONTINUOUS
 62
     7
 10
476.89999999975947
 20
-588.72338057367926
 30
0.0
 11
476.89999999975947
 21
-588.72338072779712
 31
0.0
  0
LINE
  5
1C5
  8
DATA
  6
CONTINUOUS
 62
     7
 10
471.65000000028431
 20
-588.88199500073677
 30
0.0
 11
471.65000000028431
 21
-588.88199515817269
 31
0.0
  0
ARC
  5
1C6
  8
DATA
  6
CONTINUOUS
 62
     7
 10
470.00000000044918
 20
-596.25
 30
0.0
 40
1.999999999800095
 50
32.089183874050867
 51
327.91081612594922
  0
ARC
  5
1C7
  8
DATA
  6
CONTINUOUS
 62
     7
 10
478.99999999954969
 20
-596.25
 30
0.0
 40
1.999999999800095
 50
212.0891838740508
 51
147.91081612594911
  0
ARC
  5
1C8
  8
DATA
  6
CONTINUOUS
 62
     7
 10
474.5
 20
-600.19999999960567
 30
0.0
 40
1.99999999980077
 50
137.8522840898888
 51
42.147715910128611
  0
ARC
  5
1C9
  8
DATA
  6
CONTINUOUS
 62
     7
 10
469.05527766721019
 20
-590.80527800054472
 30
0.0
 40
0.7999999999207108
 50
56.612913999968789
 51
213.3870860000219
  0
ARC
  5
1CA
  8
DATA
  6
CONTINUOUS
 62
     7
 10
474.5
 20
-596.25
 30
0.0
 40
2.9999999999997442
 50
20.741916485081301
 51
159.25808351492489
  0
ARC
  5
1CB
  8
DATA
  6
CONTINUOUS
 62
     7
 10
474.5
 20
-596.25
 30
0.0
 40
3.0000000000005942
 50
200.74191648507511
 51
240.3778367991917
  0
ARC
  5
1CC
  8
DATA
  6
CONTINUOUS
 62
     7
 10
474.5
 20
-596.25
 30
0.0
 40
2.999999999999643
 50
299.6221632007933
 51
339.25808351491872
  0
CIRCLE
  5
1CD
  8
DATA
  6
CONTINUOUS
 62
     7
 10
483.99999999904952
 20
-608.24999999879992
 30
0.0
 40
2.5
  0
LINE
  5
1CE
  8
DATA
  6
CONTINUOUS
 62
     7
 10
482.49744083238318
 20
-608.24999999879992
 30
0.0
 11
485.49744083238318
 21
-608.24999999879992
 31
0.0
  0
LINE
  5
1CF
  8
DATA
  6
CONTINUOUS
 62
     7
 10
483.99999999904952
 20
-606.7488283321336
 30
0.0
 11
483.99999999904952
 21
-609.7488283321336
 31
0.0
  0
CIRCLE
  5
1D0
  8
DATA
  6
CONTINUOUS
 62
     7
 10
464.99744083428322
 20
-584.24882833453307
 30
0.0
 40
2.5
  0
LINE
  5
1D1
  8
DATA
  6
CONTINUOUS
 62
     7
 10
463.49488166761688
 20
-584.24882833453307
 30
0.0
 11
466.49488166761688
 21
-584.24882833453307
 31
0.0
  0
LINE
  5
1D2
  8
DATA
  6
CONTINUOUS
 62
     7
 10
464.99744083428322
 20
-582.74765666786698
 30
0.0
 11
464.99744083428322
 21
-585.74765666786686
 31
0.0
  0
LINE
  5
1D3
  8
DATA
  6
CONTINUOUS
 62
     7
 10
472.10000000023962
 20
-586.80000000094515
 30
0.0
 11
472.10000000023962
 21
-584.54626128234179
 31
0.0
  0
LINE
  5
1D4
  8
DATA
  6
CONTINUOUS
 62
     7
 10
476.89999999975947
 20
-586.80000000094492
 30
0.0
 11
476.89999999975947
 21
-584.54626128234179
 31
0.0
  0
CIRCLE
  5
1D5
  8
DATA
  6
CONTINUOUS
 62
     7
 10
490.0
 20
-552.74999999999989
 30
0.0
 40
1.5
  0
CIRCLE
  5
1D6
  8
DATA
  6
CONTINUOUS
 62
     7
 10
510.0
 20
-552.74999999999989
 30
0.0
 40
1.4999999999998519
  0
CIRCLE
  5
1D7
  8
DATA
  6
CONTINUOUS
 62
     7
 10
465.0012795833336
 20
-534.25
 30
0.0
 40
3.9999999999999978
  0
CIRCLE
  5
1D8
  8
DATA
  6
CONTINUOUS
 62
     7
 10
465.0012795833336
 20
-521.25
 30
0.0
 40
2.0005858333332398
  0
CIRCLE
  5
1D9
  8
DATA
  6
CONTINUOUS
 62
     7
 10
544.5
 20
-534.25
 30
0.0
 40
3.9999999999999978
  0
CIRCLE
  5
1DA
  8
DATA
  6
CONTINUOUS
 62
     7
 10
544.5
 20
-521.25
 30
0.0
 40
2.0005858333332398
  0
TEXT
  5
1DB
  8
DATA
 62
     7
 10
493.82397732204862
 20
-598.28605143229152
 30
0.0
 40
4.072102864583333
  1
INPUT
 41
0.7
 72
     1
 11
500.0
 21
-596.24999999999977
 31
0.0
 73
     2
  0
TEXT
  5
1DC
  8
DATA
 62
     7
 10
494.774134657118
 20
-630.28605143229152
 30
0.0
 40
4.072102864583333
  1
THRU
 41
0.7
 72
     1
 11
500.0
 21
-628.24999999999977
 31
0.0
 73
     2
  0
LINE
  5
1DD
  8
DATA
  6
CONTINUOUS
 62
     7
 10
460.60396821971972
 20
-580.75
 30
0.0
 11
478.52829682508758
 21
-580.75
 31
0.0
  0
ARC
  5
1DE
  8
DATA
  6
CONTINUOUS
 62
     7
 10
460.60396821971972
 20
-585.74999999999989
 30
0.0
 40
5.0
 50
90.0
 51
180.0
  0
TEXT
  5
1DF
  8
DATA
 62
     7
 10
495.2492133246036
 20
-558.75486421154528
 30
0.0
 40
4.072102864583333
  1
GAIN
 41
0.7
 72
     1
 11
499.99999999995077
 21
-556.71881277925365
 31
0.0
 73
     2
  0
TEXT
  5
1E0
  8
DATA
 62
     7
 10
454.54954889756971
 20
-529.64021809895814
 30
0.0
 40
4.072102864583333
  1
POLARITY
 41
0.7
 72
     1
 11
465.0012795833336
 21
-527.60416666666652
 31
0.0
 73
     2
  0
TEXT
  5
1E1
  8
DATA
 62
     7
 10
532.71804904513886
 20
-529.64021809895814
 30
0.0
 40
4.072102864583333
  1
FRONT LED
 41
0.7
 72
     1
 11
544.5
 21
-527.60416666666652
 31
0.0
 73
     2
  0
LINE
  5
1E2
  8
DATA
  6
CONTINUOUS
 62
     7
 10
457.69999999999987
 20
-536.24999999999989
 30
0.0
 11
449.69999999999982
 21
-536.24999999999989
 31
0.0
  0
LINE
  5
1E3
  8
DATA
  6
CONTINUOUS
 62
     7
 10
451.19999999999982
 20
-536.24999999999989
 30
0.0
 11
451.19999999999982
 21
-534.25
 31
0.0
  0
LINE
  5
1E4
  8
DATA
  6
CONTINUOUS
 62
     7
 10
456.19999999999982
 20
-534.25
 30
0.0
 11
456.19999999999982
 21
-536.24999999999989
 31
0.0
  0
LINE
  5
1E5
  8
DATA
  6
CONTINUOUS
 62
     7
 10
451.19999999999982
 20
-534.25
 30
0.0
 11
456.19999999999982
 21
-534.25
 31
0.0
  0
LINE
  5
1E6
  8
DATA
  6
CONTINUOUS
 62
     7
 10
480.30255916666732
 20
-536.24999999999989
 30
0.0
 11
472.30255916666732
 21
-536.24999999999989
 31
0.0
  0
LINE
  5
1E7
  8
DATA
  6
CONTINUOUS
 62
     7
 10
473.80255916666738
 20
-536.24999999999989
 30
0.0
 11
473.80255916666738
 21
-531.25
 31
0.0
  0
LINE
  5
1E8
  8
DATA
  6
CONTINUOUS
 62
     7
 10
478.80255916666738
 20
-531.25
 30
0.0
 11
478.80255916666738
 21
-536.24999999999989
 31
0.0
  0
LINE
  5
1E9
  8
DATA
  6
CONTINUOUS
 62
     7
 10
473.80255916666738
 20
-533.25
 30
0.0
 11
478.80255916666738
 21
-533.25
 31
0.0
  0
LINE
  5
1EA
  8
DATA
  6
CONTINUOUS
 62
     7
 10
473.80255916666738
 20
-531.25
 30
0.0
 11
478.80255916666738
 21
-531.25
 31
0.0
  0
LINE
  5
1EB
  8
DATA
  6
CONTINUOUS
 62
     7
 10
537.19872041666622
 20
-536.24999999999989
 30
0.0
 11
529.19872041666622
 21
-536.24999999999989
 31
0.0
  0
LINE
  5
1EC
  8
DATA
  6
CONTINUOUS
 62
     7
 10
530.69872041666622
 20
-536.24999999999989
 30
0.0
 11
530.69872041666622
 21
-534.25
 31
0.0
  0
LINE
  5
1ED
  8
DATA
  6
CONTINUOUS
 62
     7
 10
535.69872041666622
 20
-534.25
 30
0.0
 11
535.69872041666622
 21
-536.24999999999989
 31
0.0
  0
LINE
  5
1EE
  8
DATA
  6
CONTINUOUS
 62
     7
 10
530.69872041666622
 20
-534.25
 30
0.0
 11
535.69872041666622
 21
-534.25
 31
0.0
  0
LINE
  5
1EF
  8
DATA
  6
CONTINUOUS
 62
     7
 10
559.80127958333367
 20
-536.24999999999989
 30
0.0
 11
551.80127958333367
 21
-536.24999999999989
 31
0.0
  0
LINE
  5
1F0
  8
DATA
  6
CONTINUOUS
 62
     7
 10
553.30127958333378
 20
-536.24999999999989
 30
0.0
 11
553.30127958333378
 21
-531.25
 31
0.0
  0
LINE
  5
1F1
  8
DATA
  6
CONTINUOUS
 62
     7
 10
558.30127958333367
 20
-531.25
 30
0.0
 11
558.30127958333367
 21
-536.24999999999989
 31
0.0
  0
LINE
  5
1F2
  8
DATA
  6
CONTINUOUS
 62
     7
 10
553.30127958333378
 20
-533.25
 30
0.0
 11
558.30127958333367
 21
-533.25
 31
0.0
  0
LINE
  5
1F3
  8
DATA
  6
CONTINUOUS
 62
     7
 10
553.30127958333378
 20
-531.25
 30
0.0
 11
558.30127958333367
 21
-531.25
 31
0.0
  0
TEXT
  5
1F4
  8
DATA
 62
     7
 10
533.09811197916656
 20
-518.6396322656251
 30
0.0
 40
4.072102864583333
  1
PWR/STBY
 41
0.7
 72
     1
 11
544.5
 21
-516.60358083333335
 31
0.0
 73
     2
  0
CIRCLE
  5
1F5
  8
DATA
  6
CONTINUOUS
 62
     7
 10
466.5
 20
-813.25
 30
0.0
 40
4.7500000000002034
  0
LINE
  5
1F6
  8
DATA
  6
CONTINUOUS
 62
     7
 10
464.0
 20
-813.25
 30
0.0
 11
469.0
 21
-813.25
 31
0.0
  0
LINE
  5
1F7
  8
DATA
  6
CONTINUOUS
 62
     7
 10
466.5
 20
-815.75
 30
0.0
 11
466.5
 21
-810.74999999999989
 31
0.0
  0
CIRCLE
  5
1F8
  8
DATA
  6
CONTINUOUS
 62
     7
 10
533.49999999999989
 20
-813.25
 30
0.0
 40
4.7500000000002034
  0
LINE
  5
1F9
  8
DATA
  6
CONTINUOUS
 62
     7
 10
531.0
 20
-813.25
 30
0.0
 11
536.0
 21
-813.25
 31
0.0
  0
LINE
  5
1FA
  8
DATA
  6
CONTINUOUS
 62
     7
 10
533.49999999999989
 20
-815.75
 30
0.0
 11
533.49999999999989
 21
-810.74999999999989
 31
0.0
  0
CIRCLE
  5
1FB
  8
DATA
  6
CONTINUOUS
 62
     7
 10
466.5
 20
-443.25
 30
0.0
 40
4.7500000000002034
  0
LINE
  5
1FC
  8
DATA
  6
CONTINUOUS
 62
     7
 10
464.0
 20
-443.25
 30
0.0
 11
469.0
 21
-443.25
 31
0.0
  0
LINE
  5
1FD
  8
DATA
  6
CONTINUOUS
 62
     7
 10
466.5
 20
-440.74999999999989
 30
0.0
 11
466.5
 21
-445.75
 31
0.0
  0
CIRCLE
  5
1FE
  8
DATA
  6
CONTINUOUS
 62
     7
 10
533.49999999999989
 20
-443.25
 30
0.0
 40
4.7500000000002034
  0
LINE
  5
1FF
  8
DATA
  6
CONTINUOUS
 62
     7
 10
531.0
 20
-443.25
 30
0.0
 11
536.0
 21
-443.25
 31
0.0
  0
LINE
  5
200
  8
DATA
  6
CONTINUOUS
 62
     7
 10
533.49999999999989
 20
-440.74999999999989
 30
0.0
 11
533.49999999999989
 21
-445.75
 31
0.0
  0
CIRCLE
  5
201
  8
DATA
  6
CONTINUOUS
 62
     7
 10
419.5
 20
-617.24999999999966
 30
0.0
 40
4.7500000000002034
  0
LINE
  5
202
  8
DATA
  6
CONTINUOUS
 62
     7
 10
417.0
 20
-617.24999999999966
 30
0.0
 11
422.0
 21
-617.24999999999966
 31
0.0
  0
LINE
  5
203
  8
DATA
  6
CONTINUOUS
 62
     7
 10
419.5
 20
-619.74999999999977
 30
0.0
 11
419.5
 21
-614.74999999999977
 31
0.0
  0
CIRCLE
  5
204
  8
DATA
  6
CONTINUOUS
 62
     7
 10
419.5
 20
-509.25
 30
0.0
 40
4.7500000000002034
  0
LINE
  5
205
  8
DATA
  6
CONTINUOUS
 62
     7
 10
417.0
 20
-509.25
 30
0.0
 11
422.0
 21
-509.25
 31
0.0
  0
LINE
  5
206
  8
DATA
  6
CONTINUOUS
 62
     7
 10
419.5
 20
-511.74999999999989
 30
0.0
 11
419.5
 21
-506.74999999999989
 31
0.0
  0
CIRCLE
  5
207
  8
DATA
  6
CONTINUOUS
 62
     7
 10
419.5
 20
-725.25
 30
0.0
 40
4.7500000000002034
  0
LINE
  5
208
  8
DATA
  6
CONTINUOUS
 62
     7
 10
417.0
 20
-725.25
 30
0.0
 11
422.0
 21
-725.25
 31
0.0
  0
LINE
  5
209
  8
DATA
  6
CONTINUOUS
 62
     7
 10
419.5
 20
-727.74999999999989
 30
0.0
 11
419.5
 21
-722.75
 31
0.0
  0
CIRCLE
  5
20A
  8
DATA
  6
CONTINUOUS
 62
     7
 10
580.49999999999989
 20
-617.24999999999966
 30
0.0
 40
4.7500000000002034
  0
LINE
  5
20B
  8
DATA
  6
CONTINUOUS
 62
     7
 10
583.0
 20
-617.24999999999966
 30
0.0
 11
578.0
 21
-617.24999999999966
 31
0.0
  0
LINE
  5
20C
  8
DATA
  6
CONTINUOUS
 62
     7
 10
580.49999999999989
 20
-619.74999999999977
 30
0.0
 11
580.49999999999989
 21
-614.74999999999977
 31
0.0
  0
CIRCLE
  5
20D
  8
DATA
  6
CONTINUOUS
 62
     7
 10
580.49999999999989
 20
-509.25
 30
0.0
 40
4.7500000000002034
  0
LINE
  5
20E
  8
DATA
  6
CONTINUOUS
 62
     7
 10
583.0
 20
-509.25
 30
0.0
 11
578.0
 21
-509.25
 31
0.0
  0
LINE
  5
20F
  8
DATA
  6
CONTINUOUS
 62
     7
 10
580.49999999999989
 20
-511.74999999999989
 30
0.0
 11
580.49999999999989
 21
-506.74999999999989
 31
0.0
  0
CIRCLE
  5
210
  8
DATA
  6
CONTINUOUS
 62
     7
 10
580.49999999999989
 20
-725.25
 30
0.0
 40
4.7500000000002034
  0
LINE
  5
211
  8
DATA
  6
CONTINUOUS
 62
     7
 10
583.0
 20
-725.25
 30
0.0
 11
578.0
 21
-725.25
 31
0.0
  0
LINE
  5
212
  8
DATA
  6
CONTINUOUS
 62
     7
 10
580.49999999999989
 20
-727.74999999999989
 30
0.0
 11
580.49999999999989
 21
-722.75
 31
0.0
  0
CIRCLE
  5
213
  8
DATA
  6
CONTINUOUS
 62
     7
 10
533.49999999999989
 20
-461.24999999999989
 30
0.0
 40
2.5000000000002212
  0
CIRCLE
  5
214
  8
DATA
  6
CONTINUOUS
 62
     7
 10
466.5
 20
-461.24999999999989
 30
0.0
 40
2.5000000000002212
  0
LINE
  5
215
  8
DATA
  6
CONTINUOUS
 62
     7
 10
465.0
 20
-461.24999999999989
 30
0.0
 11
468.0
 21
-461.24999999999989
 31
0.0
  0
LINE
  5
216
  8
DATA
  6
CONTINUOUS
 62
     7
 10
466.42000000000007
 20
-459.75
 30
0.0
 11
466.42000000000007
 21
-462.75
 31
0.0
  0
LINE
  5
217
  8
DATA
  6
CONTINUOUS
 62
     7
 10
535.0
 20
-461.24999999999989
 30
0.0
 11
532.0
 21
-461.24999999999989
 31
0.0
  0
LINE
  5
218
  8
DATA
  6
CONTINUOUS
 62
     7
 10
533.57999999999981
 20
-459.75
 30
0.0
 11
533.57999999999981
 21
-462.75
 31
0.0
  0
CIRCLE
  5
219
  8
DATA
  6
CONTINUOUS
 62
     7
 10
563.42000000000007
 20
-509.25
 30
0.0
 40
2.5000000000002212
  0
LINE
  5
21A
  8
DATA
  6
CONTINUOUS
 62
     7
 10
564.92000000000019
 20
-509.25
 30
0.0
 11
561.92000000000007
 21
-509.25
 31
0.0
  0
LINE
  5
21B
  8
DATA
  6
CONTINUOUS
 62
     7
 10
563.49999999999989
 20
-507.74999999999989
 30
0.0
 11
563.49999999999989
 21
-510.74999999999989
 31
0.0
  0
CIRCLE
  5
21C
  8
DATA
  6
CONTINUOUS
 62
     7
 10
563.42000000000007
 20
-617.24999999999966
 30
0.0
 40
2.5000000000002212
  0
LINE
  5
21D
  8
DATA
  6
CONTINUOUS
 62
     7
 10
564.92000000000019
 20
-617.24999999999966
 30
0.0
 11
561.92000000000007
 21
-617.24999999999966
 31
0.0
  0
LINE
  5
21E
  8
DATA
  6
CONTINUOUS
 62
     7
 10
563.49999999999989
 20
-615.74999999999966
 30
0.0
 11
563.49999999999989
 21
-618.74999999999977
 31
0.0
  0
CIRCLE
  5
21F
  8
DATA
  6
CONTINUOUS
 62
     7
 10
563.42000000000007
 20
-725.25
 30
0.0
 40
2.5000000000002212
  0
LINE
  5
220
  8
DATA
  6
CONTINUOUS
 62
     7
 10
564.92000000000019
 20
-725.25
 30
0.0
 11
561.92000000000007
 21
-725.25
 31
0.0
  0
LINE
  5
221
  8
DATA
  6
CONTINUOUS
 62
     7
 10
563.49999999999989
 20
-723.74999999999989
 30
0.0
 11
563.49999999999989
 21
-726.75
 31
0.0
  0
CIRCLE
  5
222
  8
DATA
  6
CONTINUOUS
 62
     7
 10
436.57999999999993
 20
-509.25
 30
0.0
 40
2.5000000000002212
  0
LINE
  5
223
  8
DATA
  6
CONTINUOUS
 62
     7
 10
435.07999999999993
 20
-509.25
 30
0.0
 11
438.07999999999993
 21
-509.25
 31
0.0
  0
LINE
  5
224
  8
DATA
  6
CONTINUOUS
 62
     7
 10
436.5
 20
-507.74999999999989
 30
0.0
 11
436.5
 21
-510.74999999999989
 31
0.0
  0
CIRCLE
  5
225
  8
DATA
  6
CONTINUOUS
 62
     7
 10
436.57999999999993
 20
-617.24999999999966
 30
0.0
 40
2.5000000000002212
  0
LINE
  5
226
  8
DATA
  6
CONTINUOUS
 62
     7
 10
435.07999999999993
 20
-617.24999999999966
 30
0.0
 11
438.07999999999993
 21
-617.24999999999966
 31
0.0
  0
LINE
  5
227
  8
DATA
  6
CONTINUOUS
 62
     7
 10
436.5
 20
-615.74999999999966
 30
0.0
 11
436.5
 21
-618.74999999999977
 31
0.0
  0
CIRCLE
  5
228
  8
DATA
  6
CONTINUOUS
 62
     7
 10
436.57999999999993
 20
-725.25
 30
0.0
 40
2.5000000000002212
  0
LINE
  5
229
  8
DATA
  6
CONTINUOUS
 62
     7
 10
435.07999999999993
 20
-725.25
 30
0.0
 11
438.07999999999993
 21
-725.25
 31
0.0
  0
LINE
  5
22A
  8
DATA
  6
CONTINUOUS
 62
     7
 10
436.5
 20
-723.74999999999989
 30
0.0
 11
436.5
 21
-726.75
 31
0.0
  0
TEXT
  5
22B
  8
DATA
 62
     7
 10
462.76909993489551
 20
-511.66648763020828
 30
0.0
 40
12.21630859375
  1
PRX715XLF
 41
0.7
 72
     1
 11
498.39999999999969
 21
-505.55833333333328
 31
0.0
 73
     2
  0
TEXT
  5
22C
  8
DATA
 62
     7
 10
447.23593749999992
 20
-566.64767030477253
 30
0.0
 40
3.462890625
  1
HIPASS
 41
0.7
 72
     1
 11
453.69999999999987
 21
-564.91622499227253
 31
0.0
 73
     2
  0
TEXT
  5
22D
  8
DATA
 62
     7
 10
471.85851619791742
 20
-566.24975363810574
 30
0.0
 40
3.462890625
  1
FULL
 41
0.7
 72
     1
 11
476.30255916666732
 21
-564.51830832560574
 31
0.0
 73
     2
  0
TEXT
  5
22E
  8
DATA
 62
     7
 10
470.64650447916739
 20
-570.74975363810574
 30
0.0
 40
3.462890625
  1
RANGE
 41
0.7
 72
     1
 11
476.30255916666732
 21
-569.01830832560574
 31
0.0
 73
     2
  0
TEXT
  5
22F
  8
DATA
 62
     7
 10
453.21932862847251
 20
-554.64021809895814
 30
0.0
 40
4.072102864583333
  1
PASS THRU
 41
0.7
 72
     1
 11
465.0012795833336
 21
-552.60416666666652
 31
0.0
 73
     2
  0
LINE
  5
230
  8
DATA
  6
CONTINUOUS
 62
     7
 10
457.69999999999987
 20
-561.24999999999989
 30
0.0
 11
449.69999999999982
 21
-561.24999999999989
 31
0.0
  0
LINE
  5
231
  8
DATA
  6
CONTINUOUS
 62
     7
 10
451.19999999999982
 20
-561.24999999999989
 30
0.0
 11
451.19999999999982
 21
-559.25
 31
0.0
  0
LINE
  5
232
  8
DATA
  6
CONTINUOUS
 62
     7
 10
456.19999999999982
 20
-559.25
 30
0.0
 11
456.19999999999982
 21
-561.24999999999989
 31
0.0
  0
LINE
  5
233
  8
DATA
  6
CONTINUOUS
 62
     7
 10
451.19999999999982
 20
-559.25
 30
0.0
 11
456.19999999999982
 21
-559.25
 31
0.0
  0
LINE
  5
234
  8
DATA
  6
CONTINUOUS
 62
     7
 10
480.30255916666732
 20
-561.24999999999989
 30
0.0
 11
472.30255916666732
 21
-561.24999999999989
 31
0.0
  0
LINE
  5
235
  8
DATA
  6
CONTINUOUS
 62
     7
 10
473.80255916666738
 20
-561.24999999999989
 30
0.0
 11
473.80255916666738
 21
-556.25
 31
0.0
  0
LINE
  5
236
  8
DATA
  6
CONTINUOUS
 62
     7
 10
478.80255916666738
 20
-556.25
 30
0.0
 11
478.80255916666738
 21
-561.24999999999989
 31
0.0
  0
LINE
  5
237
  8
DATA
  6
CONTINUOUS
 62
     7
 10
473.80255916666738
 20
-558.25
 30
0.0
 11
478.80255916666738
 21
-558.25
 31
0.0
  0
LINE
  5
238
  8
DATA
  6
CONTINUOUS
 62
     7
 10
473.80255916666738
 20
-556.25
 30
0.0
 11
478.80255916666738
 21
-556.25
 31
0.0
  0
CIRCLE
  5
239
  8
DATA
  6
CONTINUOUS
 62
     7
 10
499.99999999995077
 20
-569.25000000007788
 30
0.0
 40
6.4999999999993809
  0
LINE
  5
23A
  8
DATA
  6
CONTINUOUS
 62
     7
 10
503.82060413985261
 20
-574.50861046351577
 30
0.0
 11
505.87785252287529
 21
-577.34016994382785
 31
0.0
  0
LINE
  5
23B
  8
DATA
  6
CONTINUOUS
 62
     7
 10
506.18186735587
 20
-567.24138953664044
 30
0.0
 11
509.51056516290191
 21
-566.15983005632847
 31
0.0
  0
LINE
  5
23C
  8
DATA
  6
CONTINUOUS
 62
     7
 10
499.99999999995077
 20
-562.75000000007799
 30
0.0
 11
499.99999999995077
 21
-559.25000000007799
 31
0.0
  0
LINE
  5
23D
  8
DATA
  6
CONTINUOUS
 62
     7
 10
493.81813264403161
 20
-567.24138953664044
 30
0.0
 11
490.48943483699998
 21
-566.15983005632847
 31
0.0
  0
LINE
  5
23E
  8
DATA
  6
CONTINUOUS
 62
     7
 10
496.17939586058668
 20
-574.50861046277294
 30
0.0
 11
494.12214747702632
 21
-577.34016994382705
 31
0.0
  0
LINE
  5
23F
  8
DATA
  6
CONTINUOUS
 62
     7
 10
497.49527141995509
 20
-573.54811394161845
 30
0.0
 11
496.89006384320408
 21
-574.38111070839045
 31
0.0
  0
LINE
  5
240
  8
DATA
  6
CONTINUOUS
 62
     7
 10
499.59549150281231
 20
-568.95610737385414
 30
0.0
 11
499.56580231848591
 21
-568.99697103039375
 31
0.0
  0
LINE
  5
241
  8
DATA
  6
CONTINUOUS
 62
     7
 10
496.68625442557999
 20
-572.96032868932639
 30
0.0
 11
496.08104684882971
 21
-573.7933254560977
 31
0.0
  0
LINE
  5
242
  8
DATA
  6
CONTINUOUS
 62
     7
 10
493.59874960537121
 20
-568.12128684524282
 30
0.0
 11
492.12153797585319
 21
-567.86081457874252
 31
0.0
  0
LINE
  5
243
  8
DATA
  6
CONTINUOUS
 62
     7
 10
493.5039596243268
 20
-569.02315327151155
 30
0.0
 11
492.00487338379833
 21
-568.97080402645793
 31
0.0
  0
LINE
  5
244
  8
DATA
  6
CONTINUOUS
 62
     7
 10
493.5356076800561
 20
-569.92943501131765
 30
0.0
 11
492.04382483700471
 21
-570.08622770621889
 31
0.0
  0
LINE
  5
245
  8
DATA
  6
CONTINUOUS
 62
     7
 10
493.69307777915679
 20
-570.82249232147547
 30
0.0
 11
492.23763418974329
 21
-571.18537516487504
 31
0.0
  0
LINE
  5
246
  8
DATA
  6
CONTINUOUS
 62
     7
 10
493.97330494526602
 20
-571.68494285728161
 30
0.0
 11
492.58252916341729
 21
-572.246852747405
 31
0.0
  0
LINE
  5
247
  8
DATA
  6
CONTINUOUS
 62
     7
 10
494.3708348753525
 20
-572.50000000007753
 30
0.0
 11
493.07179676967547
 21
-573.25000000007765
 31
0.0
  0
LINE
  5
248
  8
DATA
  6
CONTINUOUS
 62
     7
 10
494.87793010150739
 20
-573.25179958969431
 30
0.0
 11
493.69591397109798
 21
-574.17529180268286
 31
0.0
  0
LINE
  5
249
  8
DATA
  6
CONTINUOUS
 62
     7
 10
495.48472059196672
 20
-573.92570870227905
 30
0.0
 11
494.44273303627949
 21
-575.00471840278692
 31
0.0
  0
LINE
  5
24A
  8
DATA
  6
CONTINUOUS
 62
     7
 10
504.51527940793397
 20
-573.92570870227848
 30
0.0
 11
505.55726696362308
 21
-575.00471840278738
 31
0.0
  0
LINE
  5
24B
  8
DATA
  6
CONTINUOUS
 62
     7
 10
505.12206989839427
 20
-573.2517995896942
 30
0.0
 11
506.3040860288047
 21
-574.17529180268286
 31
0.0
  0
LINE
  5
24C
  8
DATA
  6
CONTINUOUS
 62
     7
 10
505.62916512455001
 20
-572.50000000007833
 30
0.0
 11
506.92820323022721
 21
-573.25000000007788
 31
0.0
  0
LINE
  5
24D
  8
DATA
  6
CONTINUOUS
 62
     7
 10
506.02669505463558
 20
-571.68494285728161
 30
0.0
 11
507.41747083648619
 21
-572.24685274740546
 31
0.0
  0
LINE
  5
24E
  8
DATA
  6
CONTINUOUS
 62
     7
 10
506.30692222074492
 20
-570.82249232147626
 30
0.0
 11
507.76236581015831
 21
-571.18537516487515
 31
0.0
  0
LINE
  5
24F
  8
DATA
  6
CONTINUOUS
 62
     7
 10
506.46439231984448
 20
-569.92943501131799
 30
0.0
 11
507.95617516289713
 21
-570.08622770621889
 31
0.0
  0
LINE
  5
250
  8
DATA
  6
CONTINUOUS
 62
     7
 10
506.49604037557481
 20
-569.02315327151109
 30
0.0
 11
507.99512661610407
 21
-568.97080402645793
 31
0.0
  0
LINE
  5
251
  8
DATA
  6
CONTINUOUS
 62
     7
 10
506.40125039453039
 20
-568.12128684524282
 30
0.0
 11
507.87846202404762
 21
-567.86081457874275
 31
0.0
  0
LINE
  5
252
  8
DATA
  6
CONTINUOUS
 62
     7
 10
505.84216130089578
 20
-566.40058754594907
 30
0.0
 11
507.19035237034387
 21
-565.74303082576546
 31
0.0
  0
LINE
  5
253
  8
DATA
  6
CONTINUOUS
 62
     7
 10
505.38874422155908
 20
-565.61524612751748
 30
0.0
 11
506.63230058039051
 21
-564.77645677231214
 31
0.0
  0
LINE
  5
254
  8
DATA
  6
CONTINUOUS
 62
     7
 10
504.83044136555498
 20
-564.90065105874532
 30
0.0
 11
505.94515860377021
 21
-563.89695514920709
 31
0.0
  0
LINE
  5
255
  8
DATA
  6
CONTINUOUS
 62
     7
 10
504.17811946291368
 20
-564.27071111980467
 30
0.0
 11
505.14230087744357
 21
-563.12164445512565
 31
0.0
  0
LINE
  5
256
  8
DATA
  6
CONTINUOUS
 62
     7
 10
503.44447521746758
 20
-563.73768737506111
 30
0.0
 11
504.2393541138162
 21
-562.46561523082676
 31
0.0
  0
LINE
  5
257
  8
DATA
  6
CONTINUOUS
 62
     7
 10
502.64378817994378
 20
-563.31195452540169
 30
0.0
 11
503.25389314455703
 21
-561.94163633893709
 31
0.0
  0
LINE
  5
258
  8
DATA
  6
CONTINUOUS
 62
     7
 10
501.79164281276093
 20
-563.00179897647888
 30
0.0
 11
502.20509884648709
 21
-561.55990643257155
 31
0.0
  0
LINE
  5
259
  8
DATA
  6
CONTINUOUS
 62
     7
 10
500.90462515619117
 20
-562.81325755325793
 30
0.0
 11
501.11338480763152
 21
-561.32785545014644
 31
0.0
  0
LINE
  5
25A
  8
DATA
  6
CONTINUOUS
 62
     7
 10
499.0953748437114
 20
-562.81325755326327
 30
0.0
 11
498.8866151922702
 21
-561.32785545014553
 31
0.0
  0
LINE
  5
25B
  8
DATA
  6
CONTINUOUS
 62
     7
 10
498.20835718714
 20
-563.00179897647786
 30
0.0
 11
497.79490115341463
 21
-561.55990643257212
 31
0.0
  0
LINE
  5
25C
  8
DATA
  6
CONTINUOUS
 62
     7
 10
497.35621181995788
 20
-563.31195452540044
 30
0.0
 11
496.74610685534378
 21
-561.94163633893766
 31
0.0
  0
LINE
  5
25D
  8
DATA
  6
CONTINUOUS
 62
     7
 10
496.5555247824359
 20
-563.73768737506111
 30
0.0
 11
495.7606458860846
 21
-562.46561523082596
 31
0.0
  0
LINE
  5
25E
  8
DATA
  6
CONTINUOUS
 62
     7
 10
495.82188053698877
 20
-564.27071111980456
 30
0.0
 11
494.85769912245797
 21
-563.12164445512622
 31
0.0
  0
LINE
  5
25F
  8
DATA
  6
CONTINUOUS
 62
     7
 10
495.16955863434839
 20
-564.90065105874532
 30
0.0
 11
494.05484139613139
 21
-563.89695514920709
 31
0.0
  0
LINE
  5
260
  8
DATA
  6
CONTINUOUS
 62
     7
 10
494.61125577834252
 20
-565.61524612751839
 30
0.0
 11
493.3676994195103
 21
-564.77645677231214
 31
0.0
  0
LINE
  5
261
  8
DATA
  6
CONTINUOUS
 62
     7
 10
494.15783869900582
 20
-566.40058754594907
 30
0.0
 11
492.80964762955858
 21
-565.74303082576603
 31
0.0
  0
ARC
  5
262
  8
DATA
  6
CONTINUOUS
 62
     7
 10
500.62717077955682
 20
-563.28286862786854
 30
0.0
 40
0.4999999999990113
 50
351.61198453549321
 51
176.3880154644454
  0
ARC
  5
263
  8
DATA
  6
CONTINUOUS
 62
     7
 10
499.99999999994731
 20
-569.25000000008265
 30
0.0
 40
5.9999999999939684
 50
238.78019184717519
 51
229.2198081527709
  0
ARC
  5
264
  8
DATA
  6
CONTINUOUS
 62
     7
 10
500.0
 20
-569.24999999999989
 30
0.0
 40
5.0000000000923901
 50
239.73026269141371
 51
228.2608295228726
  0
ARC
  5
265
  8
DATA
  6
CONTINUOUS
 62
     7
 10
498.53053686922237
 20
-571.2725424860065
 30
0.0
 40
2.500000000008828
 50
245.53695903275849
 51
222.46304096722159
  0
ARC
  5
266
  8
DATA
  6
CONTINUOUS
 62
     7
 10
497.5595801414928
 20
-563.76872725422174
 30
0.0
 40
0.5000000000004735
 50
21.61198453550028
 51
206.38801546441431
  0
ARC
  5
267
  8
DATA
  6
CONTINUOUS
 62
     7
 10
495.14589803369557
 20
-565.72328848632321
 30
0.0
 40
0.4999999999997923
 50
51.61198453558476
 51
236.38801546443511
  0
ARC
  5
268
  8
DATA
  6
CONTINUOUS
 62
     7
 10
494.03286862773348
 20
-568.62282922047405
 30
0.0
 40
0.4999999999995867
 50
81.611984535581826
 51
266.3880154644163
  0
ARC
  5
269
  8
DATA
  6
CONTINUOUS
 62
     7
 10
494.51872725408703
 20
-571.69041985853755
 30
0.0
 40
0.5000000000002182
 50
111.6119845355679
 51
296.38801546446058
  0
ARC
  5
26A
  8
DATA
  6
CONTINUOUS
 62
     7
 10
496.47328848618781
 20
-574.10410196633507
 30
0.0
 40
0.4999999999997766
 50
144.00000000006671
 51
324.0000000000457
  0
ARC
  5
26B
  8
DATA
  6
CONTINUOUS
 62
     7
 10
499.37282922033961
 20
-575.21713137229688
 30
0.0
 40
0.4999999999999111
 50
171.6119845355083
 51
356.38801546446501
  0
ARC
  5
26C
  8
DATA
  6
CONTINUOUS
 62
     7
 10
502.44041985840158
 20
-574.73127274594322
 30
0.0
 40
0.5000000000006409
 50
201.6119845355488
 51
26.388015464390971
  0
ARC
  5
26D
  8
DATA
  6
CONTINUOUS
 62
     7
 10
504.85410196619972
 20
-572.7767115138422
 30
0.0
 40
0.4999999999998225
 50
231.6119845354545
 51
56.388015464435092
  0
ARC
  5
26E
  8
DATA
  6
CONTINUOUS
 62
     7
 10
505.96713137216091
 20
-569.87717077969126
 30
0.0
 40
0.5000000000000365
 50
261.61198453558939
 51
86.388015464419524
  0
ARC
  5
26F
  8
DATA
  6
CONTINUOUS
 62
     7
 10
505.48127274580838
 20
-566.80958014162798
 30
0.0
 40
0.4999999999996719
 50
291.61198453548059
 51
116.388015464449
  0
ARC
  5
270
  8
DATA
  6
CONTINUOUS
 62
     7
 10
503.52671151370657
 20
-564.39589803383035
 30
0.0
 40
0.5000000000007875
 50
321.6119845356086
 51
146.3880154644277
  0
CIRCLE
  5
271
  8
DATA
  6
CONTINUOUS
 62
     7
 10
521.00000000044906
 20
-628.24999999999989
 30
0.0
 40
1.6499999998359269
  0
CIRCLE
  5
272
  8
DATA
  6
CONTINUOUS
 62
     7
 10
529.99999999955082
 20
-628.24999999999989
 30
0.0
 40
1.6499999998341079
  0
CIRCLE
  5
273
  8
DATA
  6
CONTINUOUS
 62
     7
 10
525.49999999999989
 20
-628.24999999999989
 30
0.0
 40
11.9999999988
  0
CIRCLE
  5
274
  8
DATA
  6
CONTINUOUS
 62
     7
 10
534.99744083238318
 20
-640.24999999879992
 30
0.0
 40
2.5
  0
LINE
  5
275
  8
DATA
  6
CONTINUOUS
 62
     7
 10
533.49488166571609
 20
-640.24999999879992
 30
0.0
 11
536.49488166571598
 21
-640.24999999879992
 31
0.0
  0
LINE
  5
276
  8
DATA
  6
CONTINUOUS
 62
     7
 10
534.99744083238318
 20
-638.7488283321336
 30
0.0
 11
534.99744083238318
 21
-641.74882833213348
 31
0.0
  0
CIRCLE
  5
277
  8
DATA
  6
CONTINUOUS
 62
     7
 10
516.0025591676166
 20
-616.25000000119996
 30
0.0
 40
2.5
  0
LINE
  5
278
  8
DATA
  6
CONTINUOUS
 62
     7
 10
514.50000000094951
 20
-616.25000000119996
 30
0.0
 11
517.50000000094951
 21
-616.25000000119996
 31
0.0
  0
LINE
  5
279
  8
DATA
  6
CONTINUOUS
 62
     7
 10
516.0025591676166
 20
-614.74882833453319
 30
0.0
 11
516.0025591676166
 21
-617.74882833453319
 31
0.0
  0
CIRCLE
  5
27A
  8
DATA
  6
CONTINUOUS
 62
     7
 10
525.49999999999989
 20
-628.24999999999989
 30
0.0
 40
9.7500000156815751
  0
CIRCLE
  5
27B
  8
DATA
  6
CONTINUOUS
 62
     7
 10
525.49999999999989
 20
-624.3000000003949
 30
0.0
 40
1.6499999998341079
  0
ARC
  5
27C
  8
DATA
  6
CONTINUOUS
 62
     7
 10
539.39603178028017
 20
-638.75
 30
0.0
 40
5.0
 50
270.0
 51
0.0
  0
LINE
  5
27D
  8
DATA
  6
CONTINUOUS
 62
     7
 10
460.60396821971972
 20
-643.75
 30
0.0
 11
486.49744083238318
 21
-643.75
 31
0.0
  0
ARC
  5
27E
  8
DATA
  6
CONTINUOUS
 62
     7
 10
460.60396821971972
 20
-638.75
 30
0.0
 40
5.0
 50
180.0
 51
270.0
  0
TEXT
  5
27F
  8
DATA
 62
     7
 10
453.58394868846989
 20
-595.73144531249989
 30
0.0
 40
3.462890625
  1
+4
 41
0.7
 72
     1
 11
455.60396821972
 21
-594.0
 31
0.0
 73
     2
  0
TEXT
  5
280
  8
DATA
 62
     7
 10
452.37193696972002
 20
-600.23144531249989
 30
0.0
 40
3.462890625
  1
dBu
 41
0.7
 72
     1
 11
455.60396821972
 21
-598.5
 31
0.0
 73
     2
  0
LINE
  5
281
  8
DATA
  6
CONTINUOUS
 62
     7
 10
544.39603178028028
 20
-638.75
 30
0.0
 11
544.39603178028028
 21
-585.74999999999989
 31
0.0
  0
LINE
  5
282
  8
DATA
  6
CONTINUOUS
 62
     7
 10
539.39603178028017
 20
-643.75
 30
0.0
 11
513.50255916761671
 21
-643.75
 31
0.0
  0
LINE
  5
283
  8
DATA
  6
CONTINUOUS
 62
     7
 10
455.60396821972
 20
-623.24999999999989
 30
0.0
 11
455.60396821972
 21
-601.25
 31
0.0
  0
LINE
  5
284
  8
DATA
  6
CONTINUOUS
 62
     7
 10
455.60396821972
 20
-591.25
 30
0.0
 11
455.60396821971972
 21
-585.74999999999989
 31
0.0
  0
LINE
  5
285
  8
DATA
  6
CONTINUOUS
 62
     7
 10
55.499999999999893
 20
-904.0
 30
0.0
 11
55.499999999999893
 21
-900.0
 31
0.0
  0
LINE
  5
286
  8
DATA
  6
CONTINUOUS
 62
     7
 10
95.499999999999886
 20
-904.0
 30
0.0
 11
55.499999999999893
 21
-904.0
 31
0.0
  0
LINE
  5
287
  8
DATA
  6
CONTINUOUS
 62
     7
 10
95.499999999999886
 20
-900.0
 30
0.0
 11
95.499999999999886
 21
-904.0
 31
0.0
  0
LINE
  5
288
  8
DATA
  6
CONTINUOUS
 62
     7
 10
-1073.5
 20
-1651.5
 30
0.0
 11
-1073.5
 21
-1167.6566274122399
 31
0.0
  0
LINE
  5
289
  8
DATA
  6
CONTINUOUS
 62
     7
 10
-1053.5
 20
-1636.5
 30
0.0
 11
-1053.5
 21
-1177.149097971421
 31
0.0
  0
LINE
  5
28A
  8
DATA
  6
CONTINUOUS
 62
     7
 10
-1062.061726894781
 20
-1149.58187063437
 30
0.0
 11
-981.12286579606359
 21
-1111.242410113925
 31
0.0
  0
LINE
  5
28B
  8
DATA
  6
CONTINUOUS
 62
     7
 10
-1044.9212951710861
 20
-1163.593030388018
 30
0.0
 11
-974.55021965302956
 21
-1130.2593630373599
 31
0.0
  0
LINE
  5
28C
  8
DATA
  6
CONTINUOUS
 62
     7
 10
-646.49999999999989
 20
-1671.5
 30
0.0
 11
-1053.5
 21
-1671.5
 31
0.0
  0
LINE
  5
28D
  8
DATA
  6
CONTINUOUS
 62
     7
 10
-661.5
 20
-1651.5
 30
0.0
 11
-1038.5
 21
-1651.5
 31
0.0
  0
LINE
  5
28E
  8
DATA
  6
CONTINUOUS
 62
     7
 10
-626.5
 20
-1167.6566274122399
 30
0.0
 11
-626.5
 21
-1651.5
 31
0.0
  0
LINE
  5
28F
  8
DATA
  6
CONTINUOUS
 62
     7
 10
-646.49999999999989
 20
-1177.149097971421
 30
0.0
 11
-646.49999999999989
 21
-1636.5
 31
0.0
  0
LINE
  5
290
  8
DATA
  6
CONTINUOUS
 62
     7
 10
-637.93827310521931
 20
-1149.58187063437
 30
0.0
 11
-718.87713420393629
 21
-1111.242410113925
 31
0.0
  0
LINE
  5
291
  8
DATA
  6
CONTINUOUS
 62
     7
 10
-655.07870482891383
 20
-1163.593030388018
 30
0.0
 11
-725.44978034696942
 21
-1130.2593630373599
 31
0.0
  0
ARC
  5
292
  8
DATA
  6
CONTINUOUS
 62
     7
 10
-1053.5
 20
-1167.6566274122399
 30
0.0
 40
19.999999999999972
 50
115.3461759419464
 51
180.0
  0
ARC
  5
293
  8
DATA
  6
CONTINUOUS
 62
     7
 10
-972.56113890130189
 20
-1129.3171668917551
 30
0.0
 40
19.999999999955019
 50
98.730069975228204
 51
115.3461759419463
  0
ARC
  5
294
  8
DATA
  6
CONTINUOUS
 62
     7
 10
-727.438861098698
 20
-1129.3171668917551
 30
0.0
 40
19.999999999955421
 50
64.653824058053658
 51
81.26993002477181
  0
ARC
  5
295
  8
DATA
  6
CONTINUOUS
 62
     7
 10
-646.49999999999989
 20
-1167.6566274122399
 30
0.0
 40
20.0
 50
0.0
 51
64.653824058053601
  0
ARC
  5
296
  8
DATA
  6
CONTINUOUS
 62
     7
 10
-1053.5
 20
-1651.5
 30
0.0
 40
20.0
 50
180.0
 51
270.0
  0
ARC
  5
297
  8
DATA
  6
CONTINUOUS
 62
     7
 10
-646.49999999999989
 20
-1651.5
 30
0.0
 40
20.0
 50
270.0
 51
0.0
  0
ARC
  5
298
  8
DATA
  6
CONTINUOUS
 62
     7
 10
-661.4999999999992
 20
-1177.149097971421
 30
0.0
 40
14.999999999999091
 50
0.0000000000008527
 51
64.653824058055477
  0
ARC
  5
299
  8
DATA
  6
CONTINUOUS
 62
     7
 10
-731.87107551808185
 20
-1143.8154306208201
 30
0.0
 40
15.000000000063039
 50
64.653824058054283
 51
81.428221361292728
  0
ARC
  5
29A
  8
DATA
  6
CONTINUOUS
 62
     7
 10
-661.5
 20
-1636.5
 30
0.0
 40
15.0
 50
270.0
 51
0.0
  0
ARC
  5
29B
  8
DATA
  6
CONTINUOUS
 62
     7
 10
-1038.5
 20
-1636.5
 30
0.0
 40
15.0
 50
180.0
 51
270.0
  0
ARC
  5
29C
  8
DATA
  6
CONTINUOUS
 62
     7
 10
-1038.5
 20
-1177.149097971421
 30
0.0
 40
14.99999999999976
 50
115.3461759419487
 51
180.00000000000171
  0
ARC
  5
29D
  8
DATA
  6
CONTINUOUS
 62
     7
 10
-968.1289244819227
 20
-1143.815430620806
 30
0.0
 40
15.000000000048759
 50
98.571778638694312
 51
115.3461759419485
  0
LINE
  5
29E
  8
DATA
  6
CONTINUOUS
 62
     7
 10
-646.50000000000011
 20
371.49999999999989
 30
0.0
 11
-1053.5
 21
371.49999999999989
 31
0.0
  0
LINE
  5
29F
  8
DATA
  6
CONTINUOUS
 62
     7
 10
-661.50000000000011
 20
351.49999999999977
 30
0.0
 11
-1038.5
 21
351.49999999999977
 31
0.0
  0
LINE
  5
2A0
  8
DATA
  6
CONTINUOUS
 62
     7
 10
-711.50000000000011
 20
301.49999999999989
 30
0.0
 11
-988.49999999999989
 21
301.49999999999989
 31
0.0
  0
ARC
  5
2A1
  8
DATA
  6
CONTINUOUS
 62
     7
 10
-1053.5
 20
351.49999999999977
 30
0.0
 40
20.0
 50
90.0
 51
180.0
  0
ARC
  5
2A2
  8
DATA
  6
CONTINUOUS
 62
     7
 10
-646.50000000000011
 20
351.49999999999977
 30
0.0
 40
20.0
 50
0.0
 51
90.0
  0
ARC
  5
2A3
  8
DATA
  6
CONTINUOUS
 62
     7
 10
-988.49999999999989
 20
286.49999999999989
 30
0.0
 40
15.0
 50
90.0
 51
180.0
  0
ARC
  5
2A4
  8
DATA
  6
CONTINUOUS
 62
     7
 10
-711.50000000000011
 20
286.49999999999989
 30
0.0
 40
15.0
 50
0.0
 51
90.0
  0
ARC
  5
2A5
  8
DATA
  6
CONTINUOUS
 62
     7
 10
-661.50000000000011
 20
336.49999999999989
 30
0.0
 40
15.0
 50
0.0
 51
90.0
  0
ARC
  5
2A6
  8
DATA
  6
CONTINUOUS
 62
     7
 10
-1038.5
 20
336.49999999999989
 30
0.0
 40
15.0
 50
90.0
 51
180.0
  0
LINE
  5
2A7
  8
DATA
  6
CONTINUOUS
 62
     7
 10
-1062.061726894781
 20
-150.41812936563039
 30
0.0
 11
-981.12286579606382
 21
-188.75758988607521
 31
0.0
  0
LINE
  5
2A8
  8
DATA
  6
CONTINUOUS
 62
     7
 10
-1044.9212951710861
 20
-136.40696961198199
 30
0.0
 11
-974.55021965302967
 21
-169.74063696264031
 31
0.0
  0
LINE
  5
2A9
  8
DATA
  6
CONTINUOUS
 62
     7
 10
-994.92129517108617
 20
-104.7654010813805
 30
0.0
 11
-959.91966084874855
 21
-121.34512260248781
 31
0.0
  0
LINE
  5
2AA
  8
DATA
  6
CONTINUOUS
 62
     7
 10
-637.93827310521931
 20
-150.41812936563039
 30
0.0
 11
-718.87713420393629
 21
-188.75758988607521
 31
0.0
  0
LINE
  5
2AB
  8
DATA
  6
CONTINUOUS
 62
     7
 10
-655.07870482891406
 20
-136.40696961198199
 30
0.0
 11
-725.44978034696942
 21
-169.7406369626398
 31
0.0
  0
LINE
  5
2AC
  8
DATA
  6
CONTINUOUS
 62
     7
 10
-705.07870482891417
 20
-104.7654010813803
 30
0.0
 11
-740.08033915121553
 21
-121.3451226024703
 31
0.0
  0
ARC
  5
2AD
  8
DATA
  6
CONTINUOUS
 62
     7
 10
-1053.5
 20
-132.3433725877596
 30
0.0
 40
20.0
 50
180.0
 51
244.6538240580536
  0
ARC
  5
2AE
  8
DATA
  6
CONTINUOUS
 62
     7
 10
-972.56113890130234
 20
-170.68283310824469
 30
0.0
 40
19.999999999955421
 50
244.65382405805369
 51
261.2699300247719
  0
ARC
  5
2AF
  8
DATA
  6
CONTINUOUS
 62
     7
 10
-727.43886109869811
 20
-170.68283310824489
 30
0.0
 40
19.999999999954799
 50
278.73006997522828
 51
295.34617594194663
  0
ARC
  5
2B0
  8
DATA
  6
CONTINUOUS
 62
     7
 10
-661.4999999999992
 20
-122.8509020285787
 30
0.0
 40
14.999999999999989
 50
295.34617594194452
 51
359.99999999999909
  0
ARC
  5
2B1
  8
DATA
  6
CONTINUOUS
 62
     7
 10
-731.87107551808185
 20
-156.18456937917969
 30
0.0
 40
15.00000000006283
 50
278.57177863870731
 51
295.3461759419456
  0
ARC
  5
2B2
  8
DATA
  6
CONTINUOUS
 62
     7
 10
-711.4999999999992
 20
-91.209333497976985
 30
0.0
 40
14.999999999999989
 50
295.34617594194452
 51
359.99999999999909
  0
ARC
  5
2B3
  8
DATA
  6
CONTINUOUS
 62
     7
 10
-746.50163432240606
 20
-107.7890550188451
 30
0.0
 40
15.000000000245331
 50
278.00951875833488
 51
295.34617594194577
  0
ARC
  5
2B4
  8
DATA
  6
CONTINUOUS
 62
     7
 10
-953.49836567767215
 20
-107.7890550191059
 30
0.0
 40
14.999999999976779
 50
244.65382405805201
 51
261.99048124197662
  0
ARC
  5
2B5
  8
DATA
  6
CONTINUOUS
 62
     7
 10
-988.49999999999989
 20
-91.209333497977866
 30
0.0
 40
15.0
 50
179.99999999999829
 51
244.65382405805121
  0
ARC
  5
2B6
  8
DATA
  6
CONTINUOUS
 62
     7
 10
-1038.5
 20
-122.8509020285794
 30
0.0
 40
15.0
 50
179.99999999999829
 51
244.65382405805121
  0
ARC
  5
2B7
  8
DATA
  6
CONTINUOUS
 62
     7
 10
-968.12892448192292
 20
-156.18456937919331
 30
0.0
 40
15.000000000048781
 50
244.6538240580515
 51
261.4282213613057
  0
LINE
  5
2B8
  8
DATA
  6
CONTINUOUS
 62
     7
 10
-1073.5
 20
351.49999999999977
 30
0.0
 11
-1073.5
 21
-132.3433725877596
 31
0.0
  0
LINE
  5
2B9
  8
DATA
  6
CONTINUOUS
 62
     7
 10
-1053.5
 20
336.49999999999989
 30
0.0
 11
-1053.5
 21
-122.8509020285789
 31
0.0
  0
LINE
  5
2BA
  8
DATA
  6
CONTINUOUS
 62
     7
 10
-1003.5
 20
286.49999999999989
 30
0.0
 11
-1003.5
 21
-91.209333497977426
 31
0.0
  0
LINE
  5
2BB
  8
DATA
  6
CONTINUOUS
 62
     7
 10
-626.50000000000011
 20
-132.3433725877596
 30
0.0
 11
-626.50000000000011
 21
351.49999999999977
 31
0.0
  0
LINE
  5
2BC
  8
DATA
  6
CONTINUOUS
 62
     7
 10
-646.50000000000011
 20
-122.8509020285789
 30
0.0
 11
-646.50000000000011
 21
336.49999999999989
 31
0.0
  0
LINE
  5
2BD
  8
DATA
  6
CONTINUOUS
 62
     7
 10
-696.50000000000011
 20
-91.209333497977198
 30
0.0
 11
-696.50000000000011
 21
286.49999999999989
 31
0.0
  0
LINE
  5
2BE
  8
DATA
  6
CONTINUOUS
 62
     7
 10
101.4999999999999
 20
-900.0
 30
0.0
 11
121.4999999999998
 21
-890.0
 31
0.0
  0
LINE
  5
2BF
  8
DATA
  6
CONTINUOUS
 62
     7
 10
121.4999999999998
 20
-366.5
 30
0.0
 11
121.4999999999998
 21
-890.0
 31
0.0
  0
LINE
  5
2C0
  8
DATA
  6
CONTINUOUS
 62
     7
 10
101.4999999999999
 20
-356.5
 30
0.0
 11
121.4999999999998
 21
-366.5
 31
0.0
  0
LINE
  5
2C1
  8
DATA
  6
CONTINUOUS
 62
     7
 10
-450.0
 20
-381.5
 30
0.0
 11
-408.0
 21
-381.5
 31
0.0
  0
LINE
  5
2C2
  8
DATA
  6
CONTINUOUS
 62
     7
 10
-450.0
 20
-396.5
 30
0.0
 11
-411.0
 21
-396.5
 31
0.0
  0
LINE
  5
2C3
  8
DATA
  6
CONTINUOUS
 62
     7
 10
-450.0
 20
-890.0
 30
0.0
 11
-450.0
 21
-366.5
 31
0.0
  0
LINE
  5
2C4
  8
DATA
  6
CONTINUOUS
 62
     7
 10
-405.0
 20
-890.0
 30
0.0
 11
-405.0
 21
-366.5
 31
0.0
  0
LINE
  5
2C5
  8
DATA
  6
CONTINUOUS
 62
     7
 10
-408.0
 20
-875.0
 30
0.0
 11
-408.0
 21
-381.5
 31
0.0
  0
LINE
  5
2C6
  8
DATA
  6
CONTINUOUS
 62
     7
 10
-411.0
 20
-860.0
 30
0.0
 11
-411.0
 21
-835.0
 31
0.0
  0
LINE
  5
2C7
  8
DATA
  6
CONTINUOUS
 62
     7
 10
-411.0
 20
-828.0
 30
0.0
 11
-411.0
 21
-396.5
 31
0.0
  0
LINE
  5
2C8
  8
DATA
  6
CONTINUOUS
 62
     7
 10
-430.0
 20
-900.0
 30
0.0
 11
-450.0
 21
-890.0
 31
0.0
  0
LINE
  5
2C9
  8
DATA
  6
CONTINUOUS
 62
     7
 10
-430.0
 20
-356.5
 30
0.0
 11
-450.0
 21
-366.5
 31
0.0
  0
LINE
  5
2CA
  8
DATA
  6
CONTINUOUS
 62
     7
 10
-450.0
 20
-835.0
 30
0.0
 11
-411.0
 21
-835.0
 31
0.0
  0
LINE
  5
2CB
  8
DATA
  6
CONTINUOUS
 62
     7
 10
-450.0
 20
-828.0
 30
0.0
 11
-411.0
 21
-828.0
 31
0.0
  0
LINE
  5
2CC
  8
DATA
  6
CONTINUOUS
 62
     7
 10
-450.0
 20
-875.0
 30
0.0
 11
-408.0
 21
-875.0
 31
0.0
  0
LINE
  5
2CD
  8
DATA
  6
CONTINUOUS
 62
     7
 10
-450.0
 20
-860.0
 30
0.0
 11
-411.0
 21
-860.0
 31
0.0
  0
LINE
  5
2CE
  8
DATA
  6
CONTINUOUS
 62
     7
 10
101.4999999999999
 20
-900.0
 30
0.0
 11
-430.0
 21
-900.0
 31
0.0
  0
LINE
  5
2CF
  8
DATA
  6
CONTINUOUS
 62
     7
 10
121.4999999999998
 20
-890.0
 30
0.0
 11
-450.0
 21
-890.0
 31
0.0
  0
LINE
  5
2D0
  8
DATA
  6
CONTINUOUS
 62
     7
 10
-430.0
 20
-356.5
 30
0.0
 11
101.4999999999999
 21
-356.5
 31
0.0
  0
LINE
  5
2D1
  8
DATA
  6
CONTINUOUS
 62
     7
 10
-450.0
 20
-366.5
 30
0.0
 11
121.4999999999998
 21
-366.5
 31
0.0
  0
LINE
  5
2D2
  8
DATA
  6
CONTINUOUS
 62
     7
 10
-978.42129765228549
 20
-356.5
 30
0.0
 11
-978.42129765228549
 21
-900.0
 31
0.0
  0
LINE
  5
2D3
  8
DATA
  6
CONTINUOUS
 62
     7
 10
-721.5787023477144
 20
-356.5
 30
0.0
 11
-721.5787023477144
 21
-900.0
 31
0.0
  0
CIRCLE
  5
2D4
  8
DATA
  6
CONTINUOUS
 62
     7
 10
-850.0
 20
56.0
 30
0.0
 40
53.500000000000149
  0
CIRCLE
  5
2D5
  8
DATA
  6
CONTINUOUS
 62
     7
 10
-850.0
 20
56.0
 30
0.0
 40
51.499999999998877
  0
CIRCLE
  5
2D6
  8
DATA
  6
CONTINUOUS
 62
     7
 10
-850.0
 20
56.0
 30
0.0
 40
10.999999999999799
  0
CIRCLE
  5
2D7
  8
DATA
  6
CONTINUOUS
 62
     7
 10
-815.35898384862242
 20
75.999999999999872
 30
0.0
 40
6.000000000000056
  0
CIRCLE
  5
2D8
  8
DATA
  6
CONTINUOUS
 62
     7
 10
-850.0
 20
16.0
 30
0.0
 40
6.0
  0
CIRCLE
  5
2D9
  8
DATA
  6
CONTINUOUS
 62
     7
 10
-884.64101615137747
 20
76.0
 30
0.0
 40
6.0
  0
POLYLINE
  5
2DA
  8
DATA
  6
CONTINUOUS
 62
     7
 66
     1
 10
0.0
 20
0.0
 30
0.0
 70
     1
  0
VERTEX
  5
4C4
  8
DATA
  6
CONTINUOUS
 62
     7
 10
-883.09804866896889
 20
77.272498073957991
 30
0.0
  0
VERTEX
  5
4C5
  8
DATA
  6
CONTINUOUS
 62
     7
 10
-884.97154806848835
 20
77.972498073958164
 30
0.0
  0
VERTEX
  5
4C6
  8
DATA
  6
CONTINUOUS
 62
     7
 10
-886.51451555089704
 20
76.700000000000273
 30
0.0
  0
VERTEX
  5
4C7
  8
DATA
  6
CONTINUOUS
 62
     7
 10
-886.18398363378685
 20
74.727501926040532
 30
0.0
  0
VERTEX
  5
4C8
  8
DATA
  6
CONTINUOUS
 62
     7
 10
-884.31048423426739
 20
74.027501926040273
 30
0.0
  0
VERTEX
  5
4C9
  8
DATA
  6
CONTINUOUS
 62
     7
 10
-882.7675167518579
 20
75.299999999999841
 30
0.0
  0
SEQEND
  5
4CA
  8
DATA
  6
CONTINUOUS
 62
     7
  0
POLYLINE
  5
2E3
  8
DATA
  6
CONTINUOUS
 62
     7
 66
     1
 10
0.0
 20
0.0
 30
0.0
 70
     1
  0
VERTEX
  5
4CB
  8
DATA
  6
CONTINUOUS
 62
     7
 10
-813.81601636621394
 20
77.272498073957877
 30
0.0
  0
VERTEX
  5
4CC
  8
DATA
  6
CONTINUOUS
 62
     7
 10
-815.68951576573318
 20
77.972498073958036
 30
0.0
  0
VERTEX
  5
4CD
  8
DATA
  6
CONTINUOUS
 62
     7
 10
-817.23248324814176
 20
76.700000000000145
 30
0.0
  0
VERTEX
  5
4CE
  8
DATA
  6
CONTINUOUS
 62
     7
 10
-816.90195133103168
 20
74.727501926040418
 30
0.0
  0
VERTEX
  5
4CF
  8
DATA
  6
CONTINUOUS
 62
     7
 10
-815.02845193151245
 20
74.027501926040145
 30
0.0
  0
VERTEX
  5
4D0
  8
DATA
  6
CONTINUOUS
 62
     7
 10
-813.48548444910284
 20
75.299999999999699
 30
0.0
  0
SEQEND
  5
4D1
  8
DATA
  6
CONTINUOUS
 62
     7
  0
POLYLINE
  5
2EC
  8
DATA
  6
CONTINUOUS
 62
     7
 66
     1
 10
0.0
 20
0.0
 30
0.0
 70
     1
  0
VERTEX
  5
4D2
  8
DATA
  6
CONTINUOUS
 62
     7
 10
-848.45703251759164
 20
17.27249807395787
 30
0.0
  0
VERTEX
  5
4D3
  8
DATA
  6
CONTINUOUS
 62
     7
 10
-850.3305319171111
 20
17.97249807395815
 30
0.0
  0
VERTEX
  5
4D4
  8
DATA
  6
CONTINUOUS
 62
     7
 10
-851.87349939951935
 20
16.700000000000159
 30
0.0
  0
VERTEX
  5
4D5
  8
DATA
  6
CONTINUOUS
 62
     7
 10
-851.54296748240904
 20
14.72750192604042
 30
0.0
  0
VERTEX
  5
4D6
  8
DATA
  6
CONTINUOUS
 62
     7
 10
-849.66946808288969
 20
14.02750192604026
 30
0.0
  0
VERTEX
  5
4D7
  8
DATA
  6
CONTINUOUS
 62
     7
 10
-848.12650060048065
 20
15.29999999999972
 30
0.0
  0
SEQEND
  5
4D8
  8
DATA
  6
CONTINUOUS
 62
     7
  0
CIRCLE
  5
2F5
  8
DATA
  6
CONTINUOUS
 62
     7
 10
-850.0
 20
56.0
 30
0.0
 40
9.9999999999996305
  0
ARC
  5
2F6
  8
DATA
  6
CONTINUOUS
 62
     7
 10
-646.49999999999989
 20
-132.3433725877596
 30
0.0
 40
19.999999999999972
 50
295.34617594194651
 51
0.0
  0
ARC
  5
2F7
  8
DATA
  6
CONTINUOUS
 62
     7
 10
-850.00000000000034
 20
630.88567801923625
 30
0.0
 40
810.88567801923648
 50
261.46369704671349
 51
278.53630295328679
  0
ARC
  5
2F8
  8
DATA
  6
CONTINUOUS
 62
     7
 10
-850.0
 20
630.76342608397658
 30
0.0
 40
830.7634260839767
 50
261.30455086896097
 51
278.69544913103903
  0
ARC
  5
2F9
  8
DATA
  6
CONTINUOUS
 62
     7
 10
-849.99999999999955
 20
-1930.8856780192359
 30
0.0
 40
810.88567801923648
 50
81.463697046713364
 51
98.536302953286764
  0
ARC
  5
2FA
  8
DATA
  6
CONTINUOUS
 62
     7
 10
-850.0
 20
-1930.763426083977
 30
0.0
 40
830.7634260839767
 50
81.304550868960973
 51
98.695449131038941
  0
CIRCLE
  5
2FB
  8
DATA
  6
CONTINUOUS
 62
     7
 10
-1028.0
 20
-1179.5
 30
0.0
 40
20.00000000000016
  0
CIRCLE
  5
2FC
  8
DATA
  6
CONTINUOUS
 62
     7
 10
-1028.0
 20
-1179.5
 30
0.0
 40
9.9999999999998117
  0
CIRCLE
  5
2FD
  8
DATA
  6
CONTINUOUS
 62
     7
 10
-1028.0
 20
-1179.5
 30
0.0
 40
5.5
  0
CIRCLE
  5
2FE
  8
DATA
  6
CONTINUOUS
 62
     7
 10
-672.0
 20
-1179.5
 30
0.0
 40
20.00000000000016
  0
CIRCLE
  5
2FF
  8
DATA
  6
CONTINUOUS
 62
     7
 10
-672.0
 20
-1179.5
 30
0.0
 40
9.9999999999998117
  0
CIRCLE
  5
300
  8
DATA
  6
CONTINUOUS
 62
     7
 10
-672.0
 20
-1179.5
 30
0.0
 40
5.5
  0
CIRCLE
  5
301
  8
DATA
  6
CONTINUOUS
 62
     7
 10
-1028.0
 20
-1625.5
 30
0.0
 40
20.00000000000016
  0
CIRCLE
  5
302
  8
DATA
  6
CONTINUOUS
 62
     7
 10
-1028.0
 20
-1625.5
 30
0.0
 40
9.9999999999998117
  0
CIRCLE
  5
303
  8
DATA
  6
CONTINUOUS
 62
     7
 10
-1028.0
 20
-1625.5
 30
0.0
 40
5.5
  0
CIRCLE
  5
304
  8
DATA
  6
CONTINUOUS
 62
     7
 10
-672.0
 20
-1625.5
 30
0.0
 40
20.00000000000016
  0
CIRCLE
  5
305
  8
DATA
  6
CONTINUOUS
 62
     7
 10
-672.0
 20
-1625.5
 30
0.0
 40
9.9999999999998117
  0
CIRCLE
  5
306
  8
DATA
  6
CONTINUOUS
 62
     7
 10
-672.0
 20
-1625.5
 30
0.0
 40
5.5
  0
LINE
  5
307
  8
DATA
  6
CONTINUOUS
 62
     7
 10
-1008.0
 20
-904.0
 30
0.0
 11
-1008.0
 21
-900.0
 31
0.0
  0
LINE
  5
308
  8
DATA
  6
CONTINUOUS
 62
     7
 10
-1048.0
 20
-904.0
 30
0.0
 11
-1008.0
 21
-904.0
 31
0.0
  0
LINE
  5
309
  8
DATA
  6
CONTINUOUS
 62
     7
 10
-1048.0
 20
-900.0
 30
0.0
 11
-1048.0
 21
-904.0
 31
0.0
  0
LINE
  5
30A
  8
DATA
  6
CONTINUOUS
 62
     7
 10
-692.0
 20
-904.0
 30
0.0
 11
-692.0
 21
-900.0
 31
0.0
  0
LINE
  5
30B
  8
DATA
  6
CONTINUOUS
 62
     7
 10
-652.0
 20
-904.0
 30
0.0
 11
-692.0
 21
-904.0
 31
0.0
  0
LINE
  5
30C
  8
DATA
  6
CONTINUOUS
 62
     7
 10
-652.0
 20
-900.0
 30
0.0
 11
-652.0
 21
-904.0
 31
0.0
  0
LINE
  5
30D
  8
DATA
  6
CONTINUOUS
 62
     7
 10
-350.50000000000011
 20
-904.0
 30
0.0
 11
-350.50000000000011
 21
-900.0
 31
0.0
  0
LINE
  5
30E
  8
DATA
  6
CONTINUOUS
 62
     7
 10
-390.50000000000011
 20
-904.0
 30
0.0
 11
-350.50000000000011
 21
-904.0
 31
0.0
  0
LINE
  5
30F
  8
DATA
  6
CONTINUOUS
 62
     7
 10
-390.50000000000011
 20
-900.0
 30
0.0
 11
-390.50000000000011
 21
-904.0
 31
0.0
  0
LINE
  5
310
  8
DATA
  6
CONTINUOUS
 62
     7
 10
703.5
 20
-900.0
 30
0.0
 11
296.5
 21
-900.0
 31
0.0
  0
LINE
  5
311
  8
DATA
  6
CONTINUOUS
 62
     7
 10
342.0
 20
-904.0
 30
0.0
 11
342.0
 21
-900.0
 31
0.0
  0
LINE
  5
312
  8
DATA
  6
CONTINUOUS
 62
     7
 10
302.0
 20
-904.0
 30
0.0
 11
342.0
 21
-904.0
 31
0.0
  0
LINE
  5
313
  8
DATA
  6
CONTINUOUS
 62
     7
 10
302.0
 20
-900.0
 30
0.0
 11
302.0
 21
-904.0
 31
0.0
  0
LINE
  5
314
  8
DATA
  6
CONTINUOUS
 62
     7
 10
658.0
 20
-904.0
 30
0.0
 11
658.0
 21
-900.0
 31
0.0
  0
LINE
  5
315
  8
DATA
  6
CONTINUOUS
 62
     7
 10
698.0
 20
-904.0
 30
0.0
 11
658.0
 21
-904.0
 31
0.0
  0
LINE
  5
316
  8
DATA
  6
CONTINUOUS
 62
     7
 10
698.0
 20
-900.0
 30
0.0
 11
698.0
 21
-904.0
 31
0.0
  0
LINE
  5
317
  8
DATA
  6
CONTINUOUS
 62
     7
 10
-87.068387945210034
 20
-714.0
 30
0.0
 11
-220.93161205479021
 21
-714.0
 31
0.0
  0
LINE
  5
318
  8
DATA
  6
CONTINUOUS
 62
     7
 10
-98.075571041610715
 20
-699.0
 30
0.0
 11
-209.9244289583896
 21
-699.0
 31
0.0
  0
LINE
  5
319
  8
DATA
  6
CONTINUOUS
 62
     7
 10
-98.075571041610715
 20
-691.0
 30
0.0
 11
-209.9244289583896
 21
-691.0
 31
0.0
  0
LINE
  5
31A
  8
DATA
  6
CONTINUOUS
 62
     7
 10
-220.93161205479021
 20
-508.0
 30
0.0
 11
-87.068387945210034
 21
-508.0
 31
0.0
  0
LINE
  5
31B
  8
DATA
  6
CONTINUOUS
 62
     7
 10
-209.9244289583896
 20
-523.0
 30
0.0
 11
-98.075571041610715
 21
-523.0
 31
0.0
  0
LINE
  5
31C
  8
DATA
  6
CONTINUOUS
 62
     7
 10
-209.9244289583896
 20
-531.0
 30
0.0
 11
-98.075571041610715
 21
-531.0
 31
0.0
  0
LINE
  5
31D
  8
DATA
  6
CONTINUOUS
 62
     7
 10
-214.00552727474869
 20
-614.0
 30
0.0
 11
-93.994472725251526
 21
-614.0
 31
0.0
  0
LINE
  5
31E
  8
DATA
  6
CONTINUOUS
 62
     7
 10
-214.00552727474869
 20
-606.0
 30
0.0
 11
-93.994472725251526
 21
-606.0
 31
0.0
  0
LINE
  5
31F
  8
DATA
  6
CONTINUOUS
 62
     7
 10
-241.50000000000011
 20
-628.0
 30
0.0
 11
-241.36582096683929
 21
-628.0
 31
0.0
  0
LINE
  5
320
  8
DATA
  6
CONTINUOUS
 62
     7
 10
-213.4395491253091
 20
-628.0
 30
0.0
 11
-94.560450874691142
 21
-628.0
 31
0.0
  0
LINE
  5
321
  8
DATA
  6
CONTINUOUS
 62
     7
 10
-213.4395491253091
 20
-636.0
 30
0.0
 11
-94.560450874691142
 21
-636.0
 31
0.0
  0
LINE
  5
322
  8
DATA
  6
CONTINUOUS
 62
     7
 10
-66.634179033160891
 20
-628.0
 30
0.0
 11
-66.500000000000099
 21
-628.0
 31
0.0
  0
ARC
  5
323
  8
DATA
  6
CONTINUOUS
 62
     7
 10
-770.85000000000025
 20
-611.0
 30
0.0
 40
704.42098385837448
 50
352.66656866709002
 51
7.3334313329099787
  0
ARC
  5
324
  8
DATA
  6
CONTINUOUS
 62
     7
 10
-770.85000000000025
 20
-611.0
 30
0.0
 40
689.42098385837426
 50
353.48109737401433
 51
357.54759612915598
  0
ARC
  5
325
  8
DATA
  6
CONTINUOUS
 62
     7
 10
-770.85000000000025
 20
-611.0
 30
0.0
 40
681.42098385837335
 50
353.48109737401433
 51
357.54759612915598
  0
ARC
  5
326
  8
DATA
  6
CONTINUOUS
 62
     7
 10
-770.85000000000025
 20
-611.0
 30
0.0
 40
689.42098385837437
 50
0.7895566874362966
 51
6.51890262598892
  0
ARC
  5
327
  8
DATA
  6
CONTINUOUS
 62
     7
 10
-770.85000000000025
 20
-611.0
 30
0.0
 40
681.42098385837392
 50
0.7895566874363046
 51
6.5189026259889227
  0
ARC
  5
328
  8
DATA
  6
CONTINUOUS
 62
     7
 10
462.85000000000019
 20
-611.0
 30
0.0
 40
704.42098385837448
 50
172.66656866708999
 51
187.33343133291001
  0
ARC
  5
329
  8
DATA
  6
CONTINUOUS
 62
     7
 10
462.85000000000019
 20
-611.0
 30
0.0
 40
689.42098385837346
 50
173.4810973740108
 51
179.2104866720847
  0
ARC
  5
32A
  8
DATA
  6
CONTINUOUS
 62
     7
 10
462.85000000000019
 20
-611.0
 30
0.0
 40
681.42098385837437
 50
173.4810973740108
 51
179.21048667208481
  0
ARC
  5
32B
  8
DATA
  6
CONTINUOUS
 62
     7
 10
462.85000000000019
 20
-611.0
 30
0.0
 40
689.42098385837437
 50
182.4523973684436
 51
186.51890262597729
  0
ARC
  5
32C
  8
DATA
  6
CONTINUOUS
 62
     7
 10
462.85000000000019
 20
-611.0
 30
0.0
 40
681.42098385837426
 50
182.4523973684436
 51
186.51890262597709
  0
ARC
  5
32D
  8
DATA
  6
CONTINUOUS
 62
     7
 10
-87.068387945210034
 20
-698.99999999999852
 30
0.0
 40
15.000000000001361
 50
270.0
 51
352.66656866708468
  0
ARC
  5
32E
  8
DATA
  6
CONTINUOUS
 62
     7
 10
-220.93161205479021
 20
-698.99999999999852
 30
0.0
 40
15.000000000000959
 50
187.3334313329153
 51
270.0
  0
ARC
  5
32F
  8
DATA
  6
CONTINUOUS
 62
     7
 10
-220.93161205479021
 20
-523.00000000000125
 30
0.0
 40
15.000000000001361
 50
90.0
 51
172.66656866708459
  0
ARC
  5
330
  8
DATA
  6
CONTINUOUS
 62
     7
 10
-87.068387945210034
 20
-523.00000000000125
 30
0.0
 40
15.000000000000959
 50
7.3334313329153584
 51
90.0
  0
ARC
  5
331
  8
DATA
  6
CONTINUOUS
 62
     7
 10
-209.9244289583896
 20
-535.49999999999966
 30
0.0
 40
12.499999999999771
 50
90.0
 51
180.00000002149341
  0
ARC
  5
332
  8
DATA
  6
CONTINUOUS
 62
     7
 10
-209.9244289583896
 20
-535.49999999999966
 30
0.0
 40
4.5
 50
90.0
 51
180.0000000214954
  0
ARC
  5
333
  8
DATA
  6
CONTINUOUS
 62
     7
 10
-98.075571041610715
 20
-535.49999999999966
 30
0.0
 40
12.5
 50
0.0000000090890625
 51
90.0
  0
ARC
  5
334
  8
DATA
  6
CONTINUOUS
 62
     7
 10
-98.075571041610715
 20
-535.49999999999966
 30
0.0
 40
4.5
 50
0.0000000090874413
 51
90.0
  0
ARC
  5
335
  8
DATA
  6
CONTINUOUS
 62
     7
 10
-209.9244289583896
 20
-686.49999999999875
 30
0.0
 40
12.5
 50
180.00000000909219
 51
270.0
  0
ARC
  5
336
  8
DATA
  6
CONTINUOUS
 62
     7
 10
-98.075571041610715
 20
-686.49999999999875
 30
0.0
 40
12.499999999999771
 50
270.0
 51
0.0000000112995622
  0
ARC
  5
337
  8
DATA
  6
CONTINUOUS
 62
     7
 10
-98.075571041610715
 20
-686.49999999999875
 30
0.0
 40
4.5
 50
270.0
 51
0.0000000112992211
  0
ARC
  5
338
  8
DATA
  6
CONTINUOUS
 62
     7
 10
-213.4395491253091
 20
-640.49999999999966
 30
0.0
 40
12.499999999999771
 50
90.0
 51
184.99535975900201
  0
ARC
  5
339
  8
DATA
  6
CONTINUOUS
 62
     7
 10
-213.4395491253091
 20
-640.49999999999966
 30
0.0
 40
4.5
 50
90.0
 51
184.99535975900031
  0
ARC
  5
33A
  8
DATA
  6
CONTINUOUS
 62
     7
 10
-94.560450874691142
 20
-640.49999999999966
 30
0.0
 40
12.49999999999976
 50
355.00464040666532
 51
90.0
  0
ARC
  5
33B
  8
DATA
  6
CONTINUOUS
 62
     7
 10
-214.00552727474869
 20
-601.50000000000011
 30
0.0
 40
12.49999999999973
 50
178.39175985443919
 51
270.0
  0
ARC
  5
33C
  8
DATA
  6
CONTINUOUS
 62
     7
 10
-214.00552727474869
 20
-601.50000000000011
 30
0.0
 40
4.4999999999997566
 50
178.39175985444029
 51
270.0
  0
ARC
  5
33D
  8
DATA
  6
CONTINUOUS
 62
     7
 10
-93.994472725251526
 20
-601.50000000000011
 30
0.0
 40
12.499999999999771
 50
270.0
 51
1.6082451096108339
  0
ARC
  5
33E
  8
DATA
  6
CONTINUOUS
 62
     7
 10
-93.994472725251526
 20
-601.50000000000011
 30
0.0
 40
4.5
 50
270.0
 51
1.6082401455597051
  0
ARC
  5
33F
  8
DATA
  6
CONTINUOUS
 62
     7
 10
-94.560450874691142
 20
-640.5
 30
0.0
 40
4.5000000000005969
 50
355.00464024099961
 51
90.0
  0
ARC
  5
340
  8
DATA
  6
CONTINUOUS
 62
     7
 10
-209.9244289583896
 20
-686.49999999999875
 30
0.0
 40
4.5
 50
179.99999998870069
 51
270.0
  0
TEXT
  5
341
  8
DATA
 62
     7
 10
453.58394868846989
 20
-627.7314453125
 30
0.0
 40
3.462890625
  1
+4
 41
0.7
 72
     1
 11
455.60396821972
 21
-626.0
 31
0.0
 73
     2
  0
TEXT
  5
342
  8
DATA
 62
     7
 10
452.37193696972002
 20
-632.2314453125
 30
0.0
 40
3.462890625
  1
dBu
 41
0.7
 72
     1
 11
455.60396821972
 21
-630.49999999999989
 31
0.0
 73
     2
  0
TEXT
  5
343
  8
DATA
 62
     7
 10
523.7944727841932
 20
-580.25107697616352
 30
0.0
 40
3.462890625
  1
CH2
 41
0.7
 72
     1
 11
527.02650403419307
 21
-578.51963166366352
 31
0.0
 73
     2
  0
LINE
  5
344
  8
DATA
  6
CONTINUOUS
 62
     7
 10
532.55697627320626
 20
-580.75
 30
0.0
 11
531.15201984086866
 21
-576.28926332732692
 31
0.0
  0
LINE
  5
345
  8
DATA
  6
CONTINUOUS
 62
     7
 10
521.49603179517987
 20
-580.75
 30
0.0
 11
522.90098822751759
 21
-576.28926332732692
 31
0.0
  0
LINE
  5
346
  8
DATA
  6
CONTINUOUS
 62
     7
 10
522.90098822751759
 20
-576.28926332732692
 30
0.0
 11
531.15201984086866
 21
-576.28926332732692
 31
0.0
  0
TEXT
  5
347
  8
DATA
 62
     7
 10
712.49999999999955
 20
-1676.9955650000011
 30
0.0
 40
24.4326171875
  1
パワード・サブウーファー
 41
0.7
 11
712.49999999999955
 21
-1652.5629478124999
 31
0.0
 73
     3
  0
ARC
  5
348
  8
DATA
  6
CONTINUOUS
 62
     7
 10
575.0
 20
1725.0
 30
0.0
 40
976.28120948833168
 50
256.6754687381092
 51
283.32453126189068
  0
ARC
  5
349
  8
DATA
  6
CONTINUOUS
 62
     7
 10
1025.0
 20
-175.0
 30
0.0
 40
976.28120948833168
 50
76.675468738109217
 51
103.3245312618907
  0
ARC
  5
34A
  8
DATA
  6
CONTINUOUS
 62
     7
 10
575.0
 20
725.0
 30
0.0
 40
976.28120948833168
 50
256.6754687381092
 51
283.32453126189068
  0
ARC
  5
34B
  8
DATA
  6
CONTINUOUS
 62
     7
 10
1025.0
 20
-1175.0
 30
0.0
 40
976.28120948833168
 50
76.675468738109217
 51
103.3245312618907
  0
TEXT
  5
34C
  8
DATA
 62
     7
 10
707.27568359375005
 20
417.17382812499972
 30
0.0
 40
20.77734375
  1
Signal
 41
0.7
 72
     1
 11
740.0
 21
427.56249999999977
 31
0.0
 73
     2
  0
CIRCLE
  5
34D
  8
DATA
  6
CONTINUOUS
 62
     7
 10
590.00767750000148
 20
352.85000000000042
 30
0.0
 40
23.999999999999989
  0
CIRCLE
  5
34E
  8
DATA
  6
CONTINUOUS
 62
     7
 10
590.00767750000148
 20
430.85000000000031
 30
0.0
 40
12.003514999999441
  0
LINE
  5
34F
  8
DATA
  6
CONTINUOUS
 62
     7
 10
533.62380931831819
 20
-124.14999999999959
 30
0.0
 11
533.62380931831956
 21
-91.149999999999636
 31
0.0
  0
TEXT
  5
350
  8
DATA
 62
     7
 10
835.759765625
 20
417.17382812499972
 30
0.0
 40
20.77734375
  1
Limit
 41
0.7
 72
     1
 11
860.0
 21
427.56249999999977
 31
0.0
 73
     2
  0
TEXT
  5
351
  8
DATA
 62
     7
 10
523.20756537154125
 20
458.46397817136523
 30
0.0
 40
20.77734375
  1
0\U+00B0
 41
0.7
 72
     1
 11
531.6916474027912
 21
468.85265004636523
 31
0.0
 73
     2
  0
TEXT
  5
352
  8
DATA
 62
     7
 10
646.7028031840465
 20
458.46397817136523
 30
0.0
 40
20.77734375
  1
180\U+00B0
 41
0.7
 72
     1
 11
667.30700240279646
 21
468.85265004636523
 31
0.0
 73
     2
  0
TEXT
  5
353
  8
DATA
 62
     7
 10
987.07220531249709
 20
458.46397817136523
 30
0.0
 40
20.77734375
  1
ON
 41
0.7
 72
     1
 11
999.19232249999698
 21
468.85265004636523
 31
0.0
 73
     2
  0
TEXT
  5
354
  8
DATA
 62
     7
 10
1115.4154900000019
 20
458.46397817136523
 30
0.0
 40
20.77734375
  1
OFF
 41
0.7
 72
     1
 11
1134.8076775000029
 21
468.85265004636523
 31
0.0
 73
     2
  0
TEXT
  5
355
  8
DATA
 62
     7
 10
621.01878345394596
 20
226.84353814301929
 30
0.0
 40
20.77734375
  1
CH1
 41
0.7
 72
     1
 11
637.98694751644598
 21
237.23221001801929
 31
0.0
 73
     2
  0
LINE
  5
356
  8
DATA
  6
CONTINUOUS
 62
     7
 10
671.16978095052571
 20
223.85000000000039
 30
0.0
 11
662.74004235649943
 21
250.6144200360381
 31
0.0
  0
LINE
  5
357
  8
DATA
  6
CONTINUOUS
 62
     7
 10
604.80411408236739
 20
223.85000000000039
 30
0.0
 11
613.23385267639378
 21
250.6144200360381
 31
0.0
  0
LINE
  5
358
  8
DATA
  6
CONTINUOUS
 62
     7
 10
613.23385267639378
 20
250.6144200360381
 30
0.0
 11
662.74004235649943
 21
250.6144200360381
 31
0.0
  0
LINE
  5
359
  8
DATA
  6
CONTINUOUS
 62
     7
 10
1036.376190681681
 20
223.85000000000039
 30
0.0
 11
928.97619077108016
 21
223.85000000000039
 31
0.0
  0
ARC
  5
35A
  8
DATA
  6
CONTINUOUS
 62
     7
 10
1036.376190681681
 20
193.85000000000039
 30
0.0
 40
30.0
 50
0.0
 51
90.0
  0
LINE
  5
35B
  8
DATA
  6
CONTINUOUS
 62
     7
 10
395.0
 20
-234.5441626105596
 30
0.0
 11
395.0
 21
765.45583738944015
 31
0.0
  0
LINE
  5
35C
  8
DATA
  6
CONTINUOUS
 62
     7
 10
1205.0
 20
784.54416261055974
 30
0.0
 11
1205.0
 21
-215.45583738944009
 31
0.0
  0
CIRCLE
  5
35D
  8
DATA
  6
CONTINUOUS
 62
     7
 10
620.00000000269563
 20
-61.149999999999629
 30
0.0
 40
9.8999999990155612
  0
CIRCLE
  5
35E
  8
DATA
  6
CONTINUOUS
 62
     7
 10
673.99999999730426
 20
-61.149999999999629
 30
0.0
 40
9.8999999990046472
  0
CIRCLE
  5
35F
  8
DATA
  6
CONTINUOUS
 62
     7
 10
647.0
 20
-61.149999999999629
 30
0.0
 40
71.999999992799999
  0
CIRCLE
  5
360
  8
DATA
  6
CONTINUOUS
 62
     7
 10
703.98464499429963
 20
-133.14999999279911
 30
0.0
 40
15.0
  0
LINE
  5
361
  8
DATA
  6
CONTINUOUS
 62
     7
 10
694.96928999429656
 20
-133.14999999279911
 30
0.0
 11
712.96928999429645
 21
-133.14999999279911
 31
0.0
  0
LINE
  5
362
  8
DATA
  6
CONTINUOUS
 62
     7
 10
703.98464499429963
 20
-124.1429699928012
 30
0.0
 11
703.98464499429963
 21
-142.1429699928012
 31
0.0
  0
CIRCLE
  5
363
  8
DATA
  6
CONTINUOUS
 62
     7
 10
590.01535500570026
 20
10.849999992799891
 30
0.0
 40
15.0
  0
LINE
  5
364
  8
DATA
  6
CONTINUOUS
 62
     7
 10
581.00000000569696
 20
10.849999992799891
 30
0.0
 11
599.00000000569696
 21
10.849999992799891
 31
0.0
  0
LINE
  5
365
  8
DATA
  6
CONTINUOUS
 62
     7
 10
590.01535500570026
 20
19.857029992800559
 30
0.0
 11
590.01535500570026
 21
1.857029992800562
 31
0.0
  0
CIRCLE
  5
366
  8
DATA
  6
CONTINUOUS
 62
     7
 10
647.0
 20
-61.149999999999629
 30
0.0
 40
58.500000094089458
  0
CIRCLE
  5
367
  8
DATA
  6
CONTINUOUS
 62
     7
 10
647.0
 20
-37.450000002369052
 30
0.0
 40
9.8999999990046472
  0
CIRCLE
  5
368
  8
DATA
  6
CONTINUOUS
 62
     7
 10
953.0
 20
130.85000000000031
 30
0.0
 40
47.39999911425592
  0
CIRCLE
  5
369
  8
DATA
  6
CONTINUOUS
 62
     7
 10
953.0
 20
130.85000000000031
 30
0.0
 40
58.499999994151111
  0
CIRCLE
  5
36A
  8
DATA
  6
CONTINUOUS
 62
     7
 10
953.0
 20
130.85000000000031
 30
0.0
 40
71.99999999280125
  0
LINE
  5
36B
  8
DATA
  6
CONTINUOUS
 62
     7
 10
967.39999999855706
 20
176.0097165579254
 30
0.0
 11
967.39999999855706
 21
176.00971563321761
 31
0.0
  0
LINE
  5
36C
  8
DATA
  6
CONTINUOUS
 62
     7
 10
935.90000000170585
 20
175.05802999557909
 30
0.0
 11
935.90000000170585
 21
175.05802905096419
 31
0.0
  0
ARC
  5
36D
  8
DATA
  6
CONTINUOUS
 62
     7
 10
926.00000000269563
 20
130.85000000000031
 30
0.0
 40
11.99999999880057
 50
32.089183874050867
 51
327.91081612594922
  0
ARC
  5
36E
  8
DATA
  6
CONTINUOUS
 62
     7
 10
979.99999999729869
 20
130.85000000000031
 30
0.0
 40
11.99999999880057
 50
212.0891838740508
 51
147.91081612594911
  0
ARC
  5
36F
  8
DATA
  6
CONTINUOUS
 62
     7
 10
953.0
 20
107.15000000236699
 30
0.0
 40
11.99999999880462
 50
137.8522840898888
 51
42.147715910128809
  0
ARC
  5
370
  8
DATA
  6
CONTINUOUS
 62
     7
 10
920.3316660032616
 20
163.51833199673271
 30
0.0
 40
4.7999999995242639
 50
56.612913999968789
 51
213.38708600002141
  0
ARC
  5
371
  8
DATA
  6
CONTINUOUS
 62
     7
 10
953.0
 20
130.85000000000031
 30
0.0
 40
17.999999999998462
 50
20.741916485081301
 51
159.25808351492489
  0
ARC
  5
372
  8
DATA
  6
CONTINUOUS
 62
     7
 10
953.0
 20
130.85000000000031
 30
0.0
 40
18.00000000000357
 50
200.74191648507511
 51
240.37783679919201
  0
ARC
  5
373
  8
DATA
  6
CONTINUOUS
 62
     7
 10
953.0
 20
130.85000000000031
 30
0.0
 40
17.999999999997851
 50
299.6221632007933
 51
339.25808351491889
  0
CIRCLE
  5
374
  8
DATA
  6
CONTINUOUS
 62
     7
 10
1009.999999994297
 20
58.850000007200833
 30
0.0
 40
15.0
  0
LINE
  5
375
  8
DATA
  6
CONTINUOUS
 62
     7
 10
1000.9846449942989
 20
58.850000007200833
 30
0.0
 11
1018.9846449942989
 21
58.850000007200833
 31
0.0
  0
LINE
  5
376
  8
DATA
  6
CONTINUOUS
 62
     7
 10
1009.999999994297
 20
67.857030007198773
 30
0.0
 11
1009.999999994297
 21
49.857030007198773
 31
0.0
  0
CIRCLE
  5
377
  8
DATA
  6
CONTINUOUS
 62
     7
 10
895.98464500569935
 20
202.85702999280059
 30
0.0
 40
15.0
  0
LINE
  5
378
  8
DATA
  6
CONTINUOUS
 62
     7
 10
886.96929000570162
 20
202.85702999280059
 30
0.0
 11
904.96929000570151
 21
202.85702999280059
 31
0.0
  0
LINE
  5
379
  8
DATA
  6
CONTINUOUS
 62
     7
 10
895.98464500569935
 20
211.8640599927985
 30
0.0
 11
895.98464500569935
 21
193.8640599927985
 31
0.0
  0
LINE
  5
37A
  8
DATA
  6
CONTINUOUS
 62
     7
 10
938.60000000143691
 20
187.5499999943294
 30
0.0
 11
938.60000000143691
 21
201.07243230594889
 31
0.0
  0
LINE
  5
37B
  8
DATA
  6
CONTINUOUS
 62
     7
 10
967.39999999855706
 20
187.54999999433079
 30
0.0
 11
967.39999999855706
 21
201.07243230594889
 31
0.0
  0
CIRCLE
  5
37C
  8
DATA
  6
CONTINUOUS
 62
     7
 10
647.0
 20
130.85000000000031
 30
0.0
 40
47.39999911425592
  0
CIRCLE
  5
37D
  8
DATA
  6
CONTINUOUS
 62
     7
 10
647.0
 20
130.85000000000031
 30
0.0
 40
58.499999994151111
  0
CIRCLE
  5
37E
  8
DATA
  6
CONTINUOUS
 62
     7
 10
647.0
 20
130.85000000000031
 30
0.0
 40
71.99999999280125
  0
LINE
  5
37F
  8
DATA
  6
CONTINUOUS
 62
     7
 10
661.39999999855729
 20
176.0097165579254
 30
0.0
 11
661.39999999855729
 21
176.00971563321761
 31
0.0
  0
LINE
  5
380
  8
DATA
  6
CONTINUOUS
 62
     7
 10
629.90000000170585
 20
175.05802999557909
 30
0.0
 11
629.90000000170585
 21
175.05802905096419
 31
0.0
  0
ARC
  5
381
  8
DATA
  6
CONTINUOUS
 62
     7
 10
620.00000000269563
 20
130.85000000000031
 30
0.0
 40
11.99999999880057
 50
32.089183874050867
 51
327.91081612594922
  0
ARC
  5
382
  8
DATA
  6
CONTINUOUS
 62
     7
 10
673.99999999729869
 20
130.85000000000031
 30
0.0
 40
11.99999999880057
 50
212.0891838740508
 51
147.91081612594911
  0
ARC
  5
383
  8
DATA
  6
CONTINUOUS
 62
     7
 10
647.0
 20
107.15000000236699
 30
0.0
 40
11.99999999880462
 50
137.8522840898888
 51
42.147715910128809
  0
ARC
  5
384
  8
DATA
  6
CONTINUOUS
 62
     7
 10
614.33166600326138
 20
163.51833199673271
 30
0.0
 40
4.7999999995242639
 50
56.612913999968789
 51
213.38708600002141
  0
ARC
  5
385
  8
DATA
  6
CONTINUOUS
 62
     7
 10
647.0
 20
130.85000000000031
 30
0.0
 40
17.999999999998462
 50
20.741916485081301
 51
159.25808351492489
  0
ARC
  5
386
  8
DATA
  6
CONTINUOUS
 62
     7
 10
647.0
 20
130.85000000000031
 30
0.0
 40
18.00000000000357
 50
200.74191648507511
 51
240.37783679919201
  0
ARC
  5
387
  8
DATA
  6
CONTINUOUS
 62
     7
 10
647.0
 20
130.85000000000031
 30
0.0
 40
17.999999999997851
 50
299.6221632007933
 51
339.25808351491889
  0
CIRCLE
  5
388
  8
DATA
  6
CONTINUOUS
 62
     7
 10
703.99999999429735
 20
58.850000007200833
 30
0.0
 40
15.0
  0
LINE
  5
389
  8
DATA
  6
CONTINUOUS
 62
     7
 10
694.98464499429963
 20
58.850000007200833
 30
0.0
 11
712.98464499429963
 21
58.850000007200833
 31
0.0
  0
LINE
  5
38A
  8
DATA
  6
CONTINUOUS
 62
     7
 10
703.99999999429735
 20
67.857030007198773
 30
0.0
 11
703.99999999429735
 21
49.857030007198773
 31
0.0
  0
CIRCLE
  5
38B
  8
DATA
  6
CONTINUOUS
 62
     7
 10
589.98464500569935
 20
202.85702999280059
 30
0.0
 40
15.0
  0
LINE
  5
38C
  8
DATA
  6
CONTINUOUS
 62
     7
 10
580.96929000570162
 20
202.85702999280059
 30
0.0
 11
598.96929000570162
 21
202.85702999280059
 31
0.0
  0
LINE
  5
38D
  8
DATA
  6
CONTINUOUS
 62
     7
 10
589.98464500569935
 20
211.8640599927985
 30
0.0
 11
589.98464500569935
 21
193.8640599927985
 31
0.0
  0
LINE
  5
38E
  8
DATA
  6
CONTINUOUS
 62
     7
 10
632.60000000143725
 20
187.5499999943294
 30
0.0
 11
632.60000000143725
 21
201.07243230594889
 31
0.0
  0
LINE
  5
38F
  8
DATA
  6
CONTINUOUS
 62
     7
 10
661.39999999855729
 20
187.54999999433079
 30
0.0
 11
661.39999999855729
 21
201.07243230594889
 31
0.0
  0
CIRCLE
  5
390
  8
DATA
  6
CONTINUOUS
 62
     7
 10
740.0
 20
391.85000000000042
 30
0.0
 40
9.0
  0
CIRCLE
  5
391
  8
DATA
  6
CONTINUOUS
 62
     7
 10
860.0
 20
391.85000000000042
 30
0.0
 40
8.9999999999991172
  0
CIRCLE
  5
392
  8
DATA
  6
CONTINUOUS
 62
     7
 10
590.00767750000148
 20
502.85000000000031
 30
0.0
 40
23.999999999999989
  0
CIRCLE
  5
393
  8
DATA
  6
CONTINUOUS
 62
     7
 10
590.00767750000148
 20
580.85000000000025
 30
0.0
 40
12.003514999999441
  0
CIRCLE
  5
394
  8
DATA
  6
CONTINUOUS
 62
     7
 10
1067.0
 20
502.85000000000031
 30
0.0
 40
23.999999999999989
  0
CIRCLE
  5
395
  8
DATA
  6
CONTINUOUS
 62
     7
 10
1067.0
 20
580.85000000000025
 30
0.0
 40
12.003514999999441
  0
TEXT
  5
396
  8
DATA
 62
     7
 10
762.94386393229172
 20
118.633691406251
 30
0.0
 40
24.4326171875
  1
INPUT
 41
0.7
 72
     1
 11
800.0
 21
130.85000000000099
 31
0.0
 73
     2
  0
TEXT
  5
397
  8
DATA
 62
     7
 10
768.64480794270833
 20
-73.366308593748954
 30
0.0
 40
24.4326171875
  1
THRU
 41
0.7
 72
     1
 11
800.0
 21
-61.149999999998961
 31
0.0
 73
     2
  0
LINE
  5
398
  8
DATA
  6
CONTINUOUS
 62
     7
 10
563.62380931831842
 20
223.85000000000039
 30
0.0
 11
671.16978095052571
 21
223.85000000000039
 31
0.0
  0
ARC
  5
399
  8
DATA
  6
CONTINUOUS
 62
     7
 10
563.62380931831842
 20
193.85000000000039
 30
0.0
 40
30.0
 50
90.0
 51
180.0
  0
TEXT
  5
39A
  8
DATA
 62
     7
 10
771.49527994762184
 20
355.82081473072839
 30
0.0
 40
24.4326171875
  1
GAIN
 41
0.7
 72
     1
 11
799.99999999970521
 21
368.03712332447839
 31
0.0
 73
     2
  0
TEXT
  5
39B
  8
DATA
 62
     7
 10
527.29729338541824
 20
530.50869140625036
 30
0.0
 40
24.4326171875
  1
POLARITY
 41
0.7
 72
     1
 11
590.00767750000148
 21
542.72500000000048
 31
0.0
 73
     2
  0
TEXT
  5
39C
  8
DATA
 62
     7
 10
996.30829427083336
 20
530.50869140625036
 30
0.0
 40
24.4326171875
  1
FRONT LED
 41
0.7
 72
     1
 11
1067.0
 21
542.72500000000048
 31
0.0
 73
     2
  0
LINE
  5
39D
  8
DATA
  6
CONTINUOUS
 62
     7
 10
546.19999999999891
 20
490.85000000000031
 30
0.0
 11
498.19999999999879
 21
490.85000000000031
 31
0.0
  0
LINE
  5
39E
  8
DATA
  6
CONTINUOUS
 62
     7
 10
507.19999999999879
 20
490.85000000000031
 30
0.0
 11
507.19999999999879
 21
502.85000000000031
 31
0.0
  0
LINE
  5
39F
  8
DATA
  6
CONTINUOUS
 62
     7
 10
537.19999999999891
 20
502.85000000000031
 30
0.0
 11
537.19999999999891
 21
490.85000000000031
 31
0.0
  0
LINE
  5
3A0
  8
DATA
  6
CONTINUOUS
 62
     7
 10
507.19999999999879
 20
502.85000000000031
 30
0.0
 11
537.19999999999891
 21
502.85000000000031
 31
0.0
  0
LINE
  5
3A1
  8
DATA
  6
CONTINUOUS
 62
     7
 10
681.81535500000416
 20
490.85000000000031
 30
0.0
 11
633.81535500000416
 21
490.85000000000031
 31
0.0
  0
LINE
  5
3A2
  8
DATA
  6
CONTINUOUS
 62
     7
 10
642.81535500000416
 20
490.85000000000031
 30
0.0
 11
642.81535500000416
 21
520.85000000000025
 31
0.0
  0
LINE
  5
3A3
  8
DATA
  6
CONTINUOUS
 62
     7
 10
672.81535500000416
 20
520.85000000000025
 30
0.0
 11
672.81535500000416
 21
490.85000000000031
 31
0.0
  0
LINE
  5
3A4
  8
DATA
  6
CONTINUOUS
 62
     7
 10
642.81535500000416
 20
508.85000000000031
 30
0.0
 11
672.81535500000416
 21
508.85000000000031
 31
0.0
  0
LINE
  5
3A5
  8
DATA
  6
CONTINUOUS
 62
     7
 10
642.81535500000416
 20
520.85000000000025
 30
0.0
 11
672.81535500000416
 21
520.85000000000025
 31
0.0
  0
LINE
  5
3A6
  8
DATA
  6
CONTINUOUS
 62
     7
 10
1023.192322499997
 20
490.85000000000031
 30
0.0
 11
975.19232249999698
 21
490.85000000000031
 31
0.0
  0
LINE
  5
3A7
  8
DATA
  6
CONTINUOUS
 62
     7
 10
984.19232249999709
 20
490.85000000000031
 30
0.0
 11
984.19232249999709
 21
502.85000000000031
 31
0.0
  0
LINE
  5
3A8
  8
DATA
  6
CONTINUOUS
 62
     7
 10
1014.192322499997
 20
502.85000000000031
 30
0.0
 11
1014.192322499997
 21
490.85000000000031
 31
0.0
  0
LINE
  5
3A9
  8
DATA
  6
CONTINUOUS
 62
     7
 10
984.19232249999709
 20
502.85000000000031
 30
0.0
 11
1014.192322499997
 21
502.85000000000031
 31
0.0
  0
LINE
  5
3AA
  8
DATA
  6
CONTINUOUS
 62
     7
 10
1158.8076775000029
 20
490.85000000000031
 30
0.0
 11
1110.8076775000029
 21
490.85000000000031
 31
0.0
  0
LINE
  5
3AB
  8
DATA
  6
CONTINUOUS
 62
     7
 10
1119.807677500002
 20
490.85000000000031
 30
0.0
 11
1119.807677500002
 21
520.85000000000025
 31
0.0
  0
LINE
  5
3AC
  8
DATA
  6
CONTINUOUS
 62
     7
 10
1149.8076775000029
 20
520.85000000000025
 30
0.0
 11
1149.8076775000029
 21
490.85000000000031
 31
0.0
  0
LINE
  5
3AD
  8
DATA
  6
CONTINUOUS
 62
     7
 10
1119.807677500002
 20
508.85000000000031
 30
0.0
 11
1149.8076775000029
 21
508.85000000000031
 31
0.0
  0
LINE
  5
3AE
  8
DATA
  6
CONTINUOUS
 62
     7
 10
1119.807677500002
 20
520.85000000000025
 30
0.0
 11
1149.8076775000029
 21
520.85000000000025
 31
0.0
  0
TEXT
  5
3AF
  8
DATA
 62
     7
 10
998.58867187500005
 20
596.51220640624956
 30
0.0
 40
24.4326171875
  1
PWR/STBY
 41
0.7
 72
     1
 11
1067.0
 21
608.72851499999956
 31
0.0
 73
     2
  0
CIRCLE
  5
3B0
  8
DATA
  6
CONTINUOUS
 62
     7
 10
1180.52
 20
652.85000000000025
 30
0.0
 40
15.00000000000133
  0
LINE
  5
3B1
  8
DATA
  6
CONTINUOUS
 62
     7
 10
1189.52
 20
652.85000000000025
 30
0.0
 11
1171.52
 21
652.85000000000025
 31
0.0
  0
LINE
  5
3B2
  8
DATA
  6
CONTINUOUS
 62
     7
 10
1181.0
 20
661.85000000000025
 30
0.0
 11
1181.0
 21
643.85000000000025
 31
0.0
  0
CIRCLE
  5
3B3
  8
DATA
  6
CONTINUOUS
 62
     7
 10
1180.52
 20
4.850000000001728
 30
0.0
 40
15.00000000000133
  0
LINE
  5
3B4
  8
DATA
  6
CONTINUOUS
 62
     7
 10
1189.52
 20
4.850000000001728
 30
0.0
 11
1171.52
 21
4.850000000001728
 31
0.0
  0
LINE
  5
3B5
  8
DATA
  6
CONTINUOUS
 62
     7
 10
1181.0
 20
13.850000000001719
 30
0.0
 11
1181.0
 21
-4.1499999999982711
 31
0.0
  0
CIRCLE
  5
3B6
  8
DATA
  6
CONTINUOUS
 62
     7
 10
419.47999999999962
 20
652.85000000000025
 30
0.0
 40
15.00000000000133
  0
LINE
  5
3B7
  8
DATA
  6
CONTINUOUS
 62
     7
 10
410.47999999999962
 20
652.85000000000025
 30
0.0
 11
428.47999999999962
 21
652.85000000000025
 31
0.0
  0
LINE
  5
3B8
  8
DATA
  6
CONTINUOUS
 62
     7
 10
419.0
 20
661.85000000000025
 30
0.0
 11
419.0
 21
643.85000000000025
 31
0.0
  0
CIRCLE
  5
3B9
  8
DATA
  6
CONTINUOUS
 62
     7
 10
419.47999999999962
 20
4.850000000001728
 30
0.0
 40
15.00000000000133
  0
LINE
  5
3BA
  8
DATA
  6
CONTINUOUS
 62
     7
 10
410.47999999999962
 20
4.850000000001728
 30
0.0
 11
428.47999999999962
 21
4.850000000001728
 31
0.0
  0
LINE
  5
3BB
  8
DATA
  6
CONTINUOUS
 62
     7
 10
419.0
 20
13.850000000001719
 30
0.0
 11
419.0
 21
-4.1499999999982711
 31
0.0
  0
TEXT
  5
3BC
  8
DATA
 62
     7
 10
576.61459960937282
 20
638.35107421875
 30
0.0
 40
73.2978515625
  1
PRX715XLF
 41
0.7
 72
     1
 11
790.39999999999759
 21
675.0
 31
0.0
 73
     2
  0
TEXT
  5
3BD
  8
DATA
 62
     7
 10
483.41562499999878
 20
308.46397817136523
 30
0.0
 40
20.77734375
  1
HIPASS
 41
0.7
 72
     1
 11
522.19999999999879
 21
318.85265004636523
 31
0.0
 73
     2
  0
TEXT
  5
3BE
  8
DATA
 62
     7
 10
631.15109718750432
 20
310.85147817136522
 30
0.0
 40
20.77734375
  1
FULL
 41
0.7
 72
     1
 11
657.81535500000427
 21
321.24015004636522
 31
0.0
 73
     2
  0
TEXT
  5
3BF
  8
DATA
 62
     7
 10
623.87902687500423
 20
283.85147817136522
 30
0.0
 40
20.77734375
  1
RANGE
 41
0.7
 72
     1
 11
657.81535500000427
 21
294.24015004636522
 31
0.0
 73
     2
  0
TEXT
  5
3C0
  8
DATA
 62
     7
 10
519.31597177083495
 20
380.50869140625048
 30
0.0
 40
24.4326171875
  1
PASS THRU
 41
0.7
 72
     1
 11
590.00767750000148
 21
392.72500000000048
 31
0.0
 73
     2
  0
LINE
  5
3C1
  8
DATA
  6
CONTINUOUS
 62
     7
 10
546.19999999999891
 20
340.85000000000042
 30
0.0
 11
498.19999999999879
 21
340.85000000000042
 31
0.0
  0
LINE
  5
3C2
  8
DATA
  6
CONTINUOUS
 62
     7
 10
507.19999999999879
 20
340.85000000000042
 30
0.0
 11
507.19999999999879
 21
352.85000000000042
 31
0.0
  0
LINE
  5
3C3
  8
DATA
  6
CONTINUOUS
 62
     7
 10
537.19999999999891
 20
352.85000000000042
 30
0.0
 11
537.19999999999891
 21
340.85000000000042
 31
0.0
  0
LINE
  5
3C4
  8
DATA
  6
CONTINUOUS
 62
     7
 10
507.19999999999879
 20
352.85000000000042
 30
0.0
 11
537.19999999999891
 21
352.85000000000042
 31
0.0
  0
LINE
  5
3C5
  8
DATA
  6
CONTINUOUS
 62
     7
 10
681.81535500000416
 20
340.85000000000042
 30
0.0
 11
633.81535500000416
 21
340.85000000000042
 31
0.0
  0
LINE
  5
3C6
  8
DATA
  6
CONTINUOUS
 62
     7
 10
642.81535500000416
 20
340.85000000000042
 30
0.0
 11
642.81535500000416
 21
370.85000000000042
 31
0.0
  0
LINE
  5
3C7
  8
DATA
  6
CONTINUOUS
 62
     7
 10
672.81535500000416
 20
370.85000000000042
 30
0.0
 11
672.81535500000416
 21
340.85000000000042
 31
0.0
  0
LINE
  5
3C8
  8
DATA
  6
CONTINUOUS
 62
     7
 10
642.81535500000416
 20
358.85000000000042
 30
0.0
 11
672.81535500000416
 21
358.85000000000042
 31
0.0
  0
LINE
  5
3C9
  8
DATA
  6
CONTINUOUS
 62
     7
 10
642.81535500000416
 20
370.85000000000042
 30
0.0
 11
672.81535500000416
 21
370.85000000000042
 31
0.0
  0
CIRCLE
  5
3CA
  8
DATA
  6
CONTINUOUS
 62
     7
 10
799.99999999970521
 20
292.84999999953237
 30
0.0
 40
38.999999999996291
  0
LINE
  5
3CB
  8
DATA
  6
CONTINUOUS
 62
     7
 10
822.9236248391154
 20
261.29833721890509
 30
0.0
 11
835.2671151372524
 21
244.30898033703261
 31
0.0
  0
LINE
  5
3CC
  8
DATA
  6
CONTINUOUS
 62
     7
 10
837.09120413522044
 20
304.9016627801571
 30
0.0
 11
857.06339097741136
 21
311.39101966202952
 31
0.0
  0
LINE
  5
3CD
  8
DATA
  6
CONTINUOUS
 62
     7
 10
799.99999999970521
 20
331.84999999953237
 30
0.0
 11
799.99999999970521
 21
352.84999999953249
 31
0.0
  0
LINE
  5
3CE
  8
DATA
  6
CONTINUOUS
 62
     7
 10
762.90879586419021
 20
304.9016627801571
 30
0.0
 11
742.93660902199895
 21
311.39101966202952
 31
0.0
  0
LINE
  5
3CF
  8
DATA
  6
CONTINUOUS
 62
     7
 10
777.07637516352031
 20
261.29833722336213
 30
0.0
 11
764.73288486215824
 21
244.30898033703801
 31
0.0
  0
LINE
  5
3D0
  8
DATA
  6
CONTINUOUS
 62
     7
 10
784.97162851973189
 20
267.06131635028902
 30
0.0
 11
781.34038305922513
 21
262.0633357496576
 31
0.0
  0
LINE
  5
3D1
  8
DATA
  6
CONTINUOUS
 62
     7
 10
797.57294901687419
 20
294.61335575687559
 30
0.0
 11
797.39481391091613
 21
294.3681738176378
 31
0.0
  0
LINE
  5
3D2
  8
DATA
  6
CONTINUOUS
 62
     7
 10
780.11752655348005
 20
270.58802786404073
 30
0.0
 11
776.48628109297886
 21
265.5900472634134
 31
0.0
  0
LINE
  5
3D3
  8
DATA
  6
CONTINUOUS
 62
     7
 10
761.59249763222749
 20
299.62227892854338
 30
0.0
 11
752.72922785511935
 21
301.18511252754519
 31
0.0
  0
LINE
  5
3D4
  8
DATA
  6
CONTINUOUS
 62
     7
 10
761.02375774596112
 20
294.21108037093097
 30
0.0
 11
752.02924030279053
 21
294.5251758412528
 31
0.0
  0
LINE
  5
3D5
  8
DATA
  6
CONTINUOUS
 62
     7
 10
761.21364608033764
 20
288.7733899320952
 30
0.0
 11
752.26294902202778
 21
287.83263376268638
 31
0.0
  0
LINE
  5
3D6
  8
DATA
  6
CONTINUOUS
 62
     7
 10
762.15846667494054
 20
283.41504607114621
 30
0.0
 11
753.42580513846053
 21
281.23774901075001
 31
0.0
  0
LINE
  5
3D7
  8
DATA
  6
CONTINUOUS
 62
     7
 10
763.83982967159659
 20
278.24034285631069
 30
0.0
 11
755.4951749805042
 21
274.86888351557042
 31
0.0
  0
LINE
  5
3D8
  8
DATA
  6
CONTINUOUS
 62
     7
 10
766.22500925211534
 20
273.3499999995351
 30
0.0
 11
758.43078061805318
 21
268.84999999953379
 31
0.0
  0
LINE
  5
3D9
  8
DATA
  6
CONTINUOUS
 62
     7
 10
769.26758060904467
 20
268.83920246183368
 30
0.0
 11
762.17548382658788
 21
263.2982491839025
 31
0.0
  0
LINE
  5
3DA
  8
DATA
  6
CONTINUOUS
 62
     7
 10
772.908323551801
 20
264.79574778632599
 30
0.0
 11
766.65639821767763
 21
258.3216895832789
 31
0.0
  0
LINE
  5
3DB
  8
DATA
  6
CONTINUOUS
 62
     7
 10
827.09167644760441
 20
264.79574778632877
 30
0.0
 11
833.34360178173847
 21
258.32168958327611
 31
0.0
  0
LINE
  5
3DC
  8
DATA
  6
CONTINUOUS
 62
     7
 10
830.73241939036598
 20
268.83920246183521
 30
0.0
 11
837.82451617282823
 21
263.2982491839025
 31
0.0
  0
LINE
  5
3DD
  8
DATA
  6
CONTINUOUS
 62
     7
 10
833.77499074730054
 20
273.3499999995297
 30
0.0
 11
841.56921938136293
 21
268.84999999953237
 31
0.0
  0
LINE
  5
3DE
  8
DATA
  6
CONTINUOUS
 62
     7
 10
836.1601703278136
 20
278.24034285631069
 30
0.0
 11
844.50482501891747
 21
274.86888351556757
 31
0.0
  0
LINE
  5
3DF
  8
DATA
  6
CONTINUOUS
 62
     7
 10
837.84153332447011
 20
283.41504607114211
 30
0.0
 11
846.57419486095034
 21
281.23774901074881
 31
0.0
  0
LINE
  5
3E0
  8
DATA
  6
CONTINUOUS
 62
     7
 10
838.78635391906755
 20
288.77338993209241
 30
0.0
 11
847.73705097738275
 21
287.83263376268638
 31
0.0
  0
LINE
  5
3E1
  8
DATA
  6
CONTINUOUS
 62
     7
 10
838.97624225344953
 20
294.21108037093239
 30
0.0
 11
847.97075969662546
 21
294.5251758412528
 31
0.0
  0
LINE
  5
3E2
  8
DATA
  6
CONTINUOUS
 62
     7
 10
838.40750236718293
 20
299.62227892854338
 30
0.0
 11
847.27077214428573
 21
301.18511252754388
 31
0.0
  0
LINE
  5
3E3
  8
DATA
  6
CONTINUOUS
 62
     7
 10
835.05296780537526
 20
309.94647472430597
 30
0.0
 11
843.14211422206404
 21
313.89181504540687
 31
0.0
  0
LINE
  5
3E4
  8
DATA
  6
CONTINUOUS
 62
     7
 10
832.33246532935482
 20
314.6585232348948
 30
0.0
 11
839.79380348234361
 21
319.69125936612681
 31
0.0
  0
LINE
  5
3E5
  8
DATA
  6
CONTINUOUS
 62
     7
 10
828.98264819333053
 20
318.9460936475283
 30
0.0
 11
835.67095162262194
 21
324.96826910475778
 31
0.0
  0
LINE
  5
3E6
  8
DATA
  6
CONTINUOUS
 62
     7
 10
825.0687167774829
 20
322.7257332811709
 30
0.0
 11
830.8538052646619
 21
329.6201332692458
 31
0.0
  0
LINE
  5
3E7
  8
DATA
  6
CONTINUOUS
 62
     7
 10
820.66685130480607
 20
325.92387574963368
 30
0.0
 11
825.43612468289734
 21
333.5563086150392
 31
0.0
  0
LINE
  5
3E8
  8
DATA
  6
CONTINUOUS
 62
     7
 10
815.86272907966281
 20
328.47827284758893
 30
0.0
 11
819.5233588673417
 21
336.70018196637778
 31
0.0
  0
LINE
  5
3E9
  8
DATA
  6
CONTINUOUS
 62
     7
 10
810.7498568765659
 20
330.33920614112628
 30
0.0
 11
813.23059307892242
 21
338.99056140456969
 31
0.0
  0
LINE
  5
3EA
  8
DATA
  6
CONTINUOUS
 62
     7
 10
805.42775093714772
 20
331.4704546804528
 30
0.0
 11
806.68030884578911
 21
340.3828672991217
 31
0.0
  0
LINE
  5
3EB
  8
DATA
  6
CONTINUOUS
 62
     7
 10
794.5722490622685
 20
331.47045468042012
 30
0.0
 11
793.31969115362153
 21
340.38286729912721
 31
0.0
  0
LINE
  5
3EC
  8
DATA
  6
CONTINUOUS
 62
     7
 10
789.2501431228394
 20
330.33920614113322
 30
0.0
 11
786.76940692048811
 21
338.99056140456702
 31
0.0
  0
LINE
  5
3ED
  8
DATA
  6
CONTINUOUS
 62
     7
 10
784.13727091974738
 20
328.478272847597
 30
0.0
 11
780.47664113206349
 21
336.70018196637511
 31
0.0
  0
LINE
  5
3EE
  8
DATA
  6
CONTINUOUS
 62
     7
 10
779.33314869461526
 20
325.92387574963368
 30
0.0
 11
774.56387531650762
 21
333.55630861504471
 31
0.0
  0
LINE
  5
3EF
  8
DATA
  6
CONTINUOUS
 62
     7
 10
774.93128322193286
 20
322.72573328117369
 30
0.0
 11
769.14619473474863
 21
329.62013326924313
 31
0.0
  0
LINE
  5
3F0
  8
DATA
  6
CONTINUOUS
 62
     7
 10
771.01735180609103
 20
318.9460936475283
 30
0.0
 11
764.32904837678848
 21
324.96826910475778
 31
0.0
  0
LINE
  5
3F1
  8
DATA
  6
CONTINUOUS
 62
     7
 10
767.66753467005583
 20
314.65852323488929
 30
0.0
 11
760.20619651706136
 21
319.69125936612681
 31
0.0
  0
LINE
  5
3F2
  8
DATA
  6
CONTINUOUS
 62
     7
 10
764.94703219403505
 20
309.94647472430597
 30
0.0
 11
756.85788577735184
 21
313.8918150454042
 31
0.0
  0
ARC
  5
3F3
  8
DATA
  6
CONTINUOUS
 62
     7
 10
803.76302467734047
 20
328.65278823278919
 30
0.0
 40
2.999999999994067
 50
351.61198453549321
 51
176.38801546444509
  0
ARC
  5
3F4
  8
DATA
  6
CONTINUOUS
 62
     7
 10
799.9999999996835
 20
292.84999999950372
 30
0.0
 40
35.999999999963812
 50
238.78019184717519
 51
229.2198081527709
  0
ARC
  5
3F5
  8
DATA
  6
CONTINUOUS
 62
     7
 10
800.0
 20
292.85000000000042
 30
0.0
 40
30.000000000554351
 50
239.73026269141371
 51
228.2608295228726
  0
ARC
  5
3F6
  8
DATA
  6
CONTINUOUS
 62
     7
 10
791.18322121533492
 20
280.71474508396068
 30
0.0
 40
15.000000000052969
 50
245.53695903275849
 51
222.4630409672217
  0
ARC
  5
3F7
  8
DATA
  6
CONTINUOUS
 62
     7
 10
785.35748084895772
 20
325.73763647466922
 30
0.0
 40
3.00000000000284
 50
21.61198453550028
 51
206.38801546441431
  0
ARC
  5
3F8
  8
DATA
  6
CONTINUOUS
 62
     7
 10
770.87538820217378
 20
314.0102690820604
 30
0.0
 40
2.9999999999987521
 50
51.61198453558476
 51
236.38801546443511
  0
ARC
  5
3F9
  8
DATA
  6
CONTINUOUS
 62
     7
 10
764.19721176640076
 20
296.61302467715541
 30
0.0
 40
2.9999999999975202
 50
81.611984535581826
 51
266.3880154644167
  0
ARC
  5
3FA
  8
DATA
  6
CONTINUOUS
 62
     7
 10
767.11236352452204
 20
278.20748084877511
 30
0.0
 40
3.0000000000013078
 50
111.6119845355679
 51
296.38801546445887
  0
ARC
  5
3FB
  8
DATA
  6
CONTINUOUS
 62
     7
 10
778.83973091712664
 20
263.72538820198997
 30
0.0
 40
2.9999999999986589
 50
144.00000000006671
 51
324.00000000004508
  0
ARC
  5
3FC
  8
DATA
  6
CONTINUOUS
 62
     7
 10
796.23697532203721
 20
257.04721176621842
 30
0.0
 40
2.9999999999994662
 50
171.6119845355083
 51
356.38801546446467
  0
ARC
  5
3FD
  8
DATA
  6
CONTINUOUS
 62
     7
 10
814.6425191504095
 20
259.96236352434107
 30
0.0
 40
3.0000000000038449
 50
201.6119845355488
 51
26.388015464390971
  0
ARC
  5
3FE
  8
DATA
  6
CONTINUOUS
 62
     7
 10
829.12461179719855
 20
271.68973091694721
 30
0.0
 40
2.9999999999989342
 50
231.6119845354545
 51
56.388015464433863
  0
ARC
  5
3FF
  8
DATA
  6
CONTINUOUS
 62
     7
 10
835.80278823296612
 20
289.08697532185352
 30
0.0
 40
3.000000000000218
 50
261.61198453558939
 51
86.388015464419922
  0
ARC
  5
400
  8
DATA
  6
CONTINUOUS
 62
     7
 10
832.88763647485018
 20
307.49251915023251
 30
0.0
 40
2.9999999999980309
 50
291.61198453548059
 51
116.3880154644508
  0
ARC
  5
401
  8
DATA
  6
CONTINUOUS
 62
     7
 10
821.16026908224012
 20
321.97461179701759
 30
0.0
 40
3.0000000000047242
 50
321.6119845356086
 51
146.3880154644277
  0
CIRCLE
  5
402
  8
DATA
  6
CONTINUOUS
 62
     7
 10
926.00000000269563
 20
-61.149999999999629
 30
0.0
 40
9.8999999990155612
  0
CIRCLE
  5
403
  8
DATA
  6
CONTINUOUS
 62
     7
 10
979.99999999730403
 20
-61.149999999999629
 30
0.0
 40
9.8999999990046472
  0
CIRCLE
  5
404
  8
DATA
  6
CONTINUOUS
 62
     7
 10
953.0
 20
-61.149999999999629
 30
0.0
 40
71.999999992799999
  0
CIRCLE
  5
405
  8
DATA
  6
CONTINUOUS
 62
     7
 10
1009.9846449942989
 20
-133.14999999279911
 30
0.0
 40
15.0
  0
LINE
  5
406
  8
DATA
  6
CONTINUOUS
 62
     7
 10
1000.969289994296
 20
-133.14999999279911
 30
0.0
 11
1018.969289994296
 21
-133.14999999279911
 31
0.0
  0
LINE
  5
407
  8
DATA
  6
CONTINUOUS
 62
     7
 10
1009.9846449942989
 20
-124.1429699928012
 30
0.0
 11
1009.9846449942989
 21
-142.1429699928012
 31
0.0
  0
CIRCLE
  5
408
  8
DATA
  6
CONTINUOUS
 62
     7
 10
896.01535500570003
 20
10.849999992799891
 30
0.0
 40
15.0
  0
LINE
  5
409
  8
DATA
  6
CONTINUOUS
 62
     7
 10
887.00000000569696
 20
10.849999992799891
 30
0.0
 11
905.00000000569696
 21
10.849999992799891
 31
0.0
  0
LINE
  5
40A
  8
DATA
  6
CONTINUOUS
 62
     7
 10
896.01535500570003
 20
19.857029992800559
 30
0.0
 11
896.01535500570003
 21
1.857029992800562
 31
0.0
  0
CIRCLE
  5
40B
  8
DATA
  6
CONTINUOUS
 62
     7
 10
953.0
 20
-61.149999999999629
 30
0.0
 40
58.500000094089458
  0
CIRCLE
  5
40C
  8
DATA
  6
CONTINUOUS
 62
     7
 10
953.0
 20
-37.450000002369052
 30
0.0
 40
9.8999999990046472
  0
ARC
  5
40D
  8
DATA
  6
CONTINUOUS
 62
     7
 10
1036.376190681681
 20
-124.14999999999959
 30
0.0
 40
30.0
 50
270.0
 51
0.0
  0
LINE
  5
40E
  8
DATA
  6
CONTINUOUS
 62
     7
 10
563.62380931831842
 20
-154.14999999999961
 30
0.0
 11
718.98464499429963
 21
-154.14999999999961
 31
0.0
  0
ARC
  5
40F
  8
DATA
  6
CONTINUOUS
 62
     7
 10
563.62380931831842
 20
-124.14999999999959
 30
0.0
 40
30.0
 50
180.0
 51
270.0
  0
TEXT
  5
410
  8
DATA
 62
     7
 10
521.50369213081956
 20
133.96132812500039
 30
0.0
 40
20.77734375
  1
+4
 41
0.7
 72
     1
 11
533.62380931831956
 21
144.35000000000039
 31
0.0
 73
     2
  0
TEXT
  5
411
  8
DATA
 62
     7
 10
514.23162181831958
 20
106.96132812500031
 30
0.0
 40
20.77734375
  1
dBu
 41
0.7
 72
     1
 11
533.62380931831956
 21
117.35000000000031
 31
0.0
 73
     2
  0
LINE
  5
412
  8
DATA
  6
CONTINUOUS
 62
     7
 10
1066.376190681681
 20
-124.14999999999959
 30
0.0
 11
1066.376190681681
 21
193.85000000000039
 31
0.0
  0
LINE
  5
413
  8
DATA
  6
CONTINUOUS
 62
     7
 10
1036.376190681681
 20
-154.14999999999961
 30
0.0
 11
881.01535500570003
 21
-154.14999999999961
 31
0.0
  0
LINE
  5
414
  8
DATA
  6
CONTINUOUS
 62
     7
 10
533.62380931831956
 20
-31.14999999999965
 30
0.0
 11
533.62380931831956
 21
100.85000000000031
 31
0.0
  0
LINE
  5
415
  8
DATA
  6
CONTINUOUS
 62
     7
 10
533.62380931831956
 20
160.85000000000039
 30
0.0
 11
533.62380931831819
 21
193.85000000000039
 31
0.0
  0
TEXT
  5
416
  8
DATA
 62
     7
 10
521.50369213081956
 20
-58.038671874999643
 30
0.0
 40
20.77734375
  1
+4
 41
0.7
 72
     1
 11
533.62380931831956
 21
-47.649999999999643
 31
0.0
 73
     2
  0
TEXT
  5
417
  8
DATA
 62
     7
 10
514.23162181831958
 20
-85.038671874999608
 30
0.0
 40
20.77734375
  1
dBu
 41
0.7
 72
     1
 11
533.62380931831956
 21
-74.649999999999622
 31
0.0
 73
     2
  0
TEXT
  5
418
  8
DATA
 62
     7
 10
942.76683670515956
 20
226.84353814301929
 30
0.0
 40
20.77734375
  1
CH2
 41
0.7
 72
     1
 11
962.15902420515954
 21
237.23221001801929
 31
0.0
 73
     2
  0
LINE
  5
419
  8
DATA
  6
CONTINUOUS
 62
     7
 10
995.34185763923813
 20
223.85000000000039
 30
0.0
 11
986.91211904521185
 21
250.6144200360381
 31
0.0
  0
LINE
  5
41A
  8
DATA
  6
CONTINUOUS
 62
     7
 10
928.97619077108016
 20
223.85000000000039
 30
0.0
 11
937.40592936510609
 21
250.6144200360381
 31
0.0
  0
LINE
  5
41B
  8
DATA
  6
CONTINUOUS
 62
     7
 10
937.40592936510609
 20
250.6144200360381
 30
0.0
 11
986.91211904521185
 21
250.6144200360381
 31
0.0
  0
ENDSEC
  0
EOF
