  0
SECTION
  2
HEADER
  9
$ACADVER
  1
AC1009
  9
$DWGCODEPAGE
  3
ansi_932
  9
$INSBASE
 10
0.0
 20
0.0
 30
0.0
  9
$EXTMIN
 10
-1800.0
 20
-2698.168409531249
 30
0.0
  9
$EXTMAX
 10
1800.0
 20
2667.104485
 30
0.0
  9
$LIMMIN
 10
0.0
 20
0.0
  9
$LIMMAX
 10
0.0
 20
0.0
  9
$ORTHOMODE
 70
     0
  9
$REGENMODE
 70
     1
  9
$FILLMODE
 70
     1
  9
$QTEXTMODE
 70
     0
  9
$MIRRTEXT
 70
     1
  9
$DRAGMODE
 70
     2
  9
$LTSCALE
 40
254.0
  9
$OSMODE
 70
    37
  9
$ATTMODE
 70
     1
  9
$TEXTSIZE
 40
0.0
  9
$TRACEWID
 40
1.0
  9
$TEXTSTYLE
  7
STANDARD
  9
$CLAYER
  8
DATA
  9
$CELTYPE
  6
BYLAYER
  9
$CECOLOR
 62
   256
  9
$DIMSCALE
 40
1.0
  9
$DIMASZ
 40
0.18
  9
$DIMEXO
 40
0.0625
  9
$DIMDLI
 40
0.38
  9
$DIMRND
 40
0.0
  9
$DIMDLE
 40
0.0
  9
$DIMEXE
 40
0.18
  9
$DIMTP
 40
0.0
  9
$DIMTM
 40
0.0
  9
$DIMTXT
 40
0.18
  9
$DIMCEN
 40
0.09
  9
$DIMTSZ
 40
0.0
  9
$DIMTOL
 70
     0
  9
$DIMLIM
 70
     0
  9
$DIMTIH
 70
     1
  9
$DIMTOH
 70
     1
  9
$DIMSE1
 70
     0
  9
$DIMSE2
 70
     0
  9
$DIMTAD
 70
     0
  9
$DIMZIN
 70
     0
  9
$DIMBLK
  1

  9
$DIMASO
 70
     1
  9
$DIMSHO
 70
     1
  9
$DIMPOST
  1

  9
$DIMAPOST
  1

  9
$DIMALT
 70
     0
  9
$DIMALTD
 70
     2
  9
$DIMALTF
 40
25.4
  9
$DIMLFAC
 40
1.0
  9
$DIMTOFL
 70
     0
  9
$DIMTVP
 40
0.0
  9
$DIMTIX
 70
     0
  9
$DIMSOXD
 70
     0
  9
$DIMSAH
 70
     0
  9
$DIMBLK1
  1

  9
$DIMBLK2
  1

  9
$DIMSTYLE
  2
STANDARD
  9
$DIMCLRD
 70
     0
  9
$DIMCLRE
 70
     0
  9
$DIMCLRT
 70
     0
  9
$DIMTFAC
 40
1.0
  9
$DIMGAP
 40
0.09
  9
$LUNITS
 70
     2
  9
$LUPREC
 70
     2
  9
$SKETCHINC
 40
0.1
  9
$FILLETRAD
 40
0.0
  9
$AUNITS
 70
     0
  9
$AUPREC
 70
     0
  9
$MENU
  1
acad
  9
$ELEVATION
 40
0.0
  9
$PELEVATION
 40
0.0
  9
$THICKNESS
 40
0.0
  9
$LIMCHECK
 70
     0
  9
$CHAMFERA
 40
0.0
  9
$CHAMFERB
 40
0.0
  9
$SKPOLY
 70
     0
  9
$TDCREATE
 40
2459734.4321514
  9
$TDUPDATE
 40
2459734.432745371
  9
$TDINDWG
 40
2459734.057746007
  9
$TDUSRTIMER
 40
0.0005946065
  9
$USRTIMER
 70
     1
  9
$ANGBASE
 50
0.0
  9
$ANGDIR
 70
     0
  9
$PDMODE
 70
     1
  9
$PDSIZE
 40
-2.0
  9
$PLINEWID
 40
0.0
  9
$COORDS
 70
     1
  9
$SPLFRAME
 70
     0
  9
$SPLINETYPE
 70
     6
  9
$SPLINESEGS
 70
     8
  9
$ATTDIA
 70
     1
  9
$ATTREQ
 70
     1
  9
$HANDLING
 70
     1
  9
$HANDSEED
  5
80D
  9
$SURFTAB1
 70
     6
  9
$SURFTAB2
 70
     6
  9
$SURFTYPE
 70
     6
  9
$SURFU
 70
     6
  9
$SURFV
 70
     6
  9
$UCSNAME
  2

  9
$UCSORG
 10
0.0
 20
0.0
 30
0.0
  9
$UCSXDIR
 10
1.0
 20
0.0
 30
0.0
  9
$UCSYDIR
 10
0.0
 20
1.0
 30
0.0
  9
$PUCSNAME
  2

  9
$PUCSORG
 10
0.0
 20
0.0
 30
0.0
  9
$PUCSXDIR
 10
1.0
 20
0.0
 30
0.0
  9
$PUCSYDIR
 10
0.0
 20
1.0
 30
0.0
  9
$USERI1
 70
     0
  9
$USERI2
 70
     0
  9
$USERI3
 70
     0
  9
$USERI4
 70
     0
  9
$USERI5
 70
     0
  9
$USERR1
 40
0.0
  9
$USERR2
 40
0.0
  9
$USERR3
 40
0.0
  9
$USERR4
 40
0.0
  9
$USERR5
 40
0.0
  9
$WORLDVIEW
 70
     1
  9
$SHADEDGE
 70
     3
  9
$SHADEDIF
 70
    70
  9
$TILEMODE
 70
     1
  9
$MAXACTVP
 70
    64
  9
$PLIMCHECK
 70
     0
  9
$PEXTMIN
 10
1.000000000000000E+20
 20
1.000000000000000E+20
 30
1.000000000000000E+20
  9
$PEXTMAX
 10
-1.000000000000000E+20
 20
-1.000000000000000E+20
 30
-1.000000000000000E+20
  9
$PLIMMIN
 10
0.0
 20
0.0
  9
$PLIMMAX
 10
12.0
 20
9.0
  9
$UNITMODE
 70
     0
  9
$VISRETAIN
 70
     0
  9
$PLINEGEN
 70
     1
  9
$PSLTSCALE
 70
     0
  0
ENDSEC
  0
SECTION
  2
TABLES
  0
TABLE
  2
VPORT
 70
     1
  0
VPORT
  2
*ACTIVE
 70
     0
 10
0.0
 20
0.0
 11
1.0
 21
1.0
 12
0.0
 22
-3.531814999999369
 13
0.0
 23
0.0
 14
1.0
 24
1.0
 15
0.0
 25
0.0
 16
0.0
 26
0.0
 36
1.0
 17
0.0
 27
0.0
 37
0.0
 40
5341.272600000001
 41
2.794721407624633
 42
50.0
 43
0.0
 44
0.0
 50
0.0
 51
0.0
 71
     0
 72
  2000
 73
     1
 74
     1
 75
     0
 76
     0
 77
     0
 78
     0
  0
ENDTAB
  0
TABLE
  2
LTYPE
 70
    14
  0
LTYPE
  2
CONTINUOUS
 70
     0
  3
Solid line
 72
    65
 73
     0
 40
0.0
  0
LTYPE
  2
STYLE_11
 70
     0
  3

 72
    65
 73
     6
 40
0.75
 49
0.25
 49
-0.08331298828125
 49
0.25
 49
-0.083343505859375
 49
0.02777099609375
 49
-0.055572509765625
  0
LTYPE
  2
STYLE_12
 70
     0
  3

 72
    65
 73
     4
 40
2.182677165354331
 49
1.364173228346457
 49
-0.2728346456692914
 49
0.2728346456692914
 49
-0.2728346456692914
  0
LTYPE
  2
STYLE_13
 70
     0
  3

 72
    65
 73
     4
 40
0.416656494140625
 49
0.25
 49
-0.08331298828125
 49
0.02777099609375
 49
-0.055572509765625
  0
ENDTAB
  0
TABLE
  2
LAYER
 70
     5
  0
LAYER
  2
0
 70
     0
 62
     7
  6
CONTINUOUS
  0
LAYER
  2
HIBINO-BASE
 70
     0
 62
     7
  6
CONTINUOUS
  0
LAYER
  2
SPEC
 70
     0
 62
     7
  6
CONTINUOUS
  0
LAYER
  2
DIMNSIONS
 70
     0
 62
     7
  6
CONTINUOUS
  0
LAYER
  2
DATA
 70
     0
 62
     7
  6
CONTINUOUS
  0
ENDTAB
  0
TABLE
  2
STYLE
 70
     2
  0
STYLE
  2
STANDARD
 70
     0
 40
0.0
 41
1.0
 50
0.0
 71
     0
 42
0.0
  3
txt
  4
BIGFONT.SHX
  0
ENDTAB
  0
TABLE
  2
VIEW
 70
     0
  0
ENDTAB
  0
TABLE
  2
UCS
 70
     0
  0
ENDTAB
  0
TABLE
  2
APPID
 70
     5
  0
APPID
  2
ACAD
 70
     0
  0
APPID
  2
ACAECLAYERSTANDARD
 70
     0
  0
APPID
  2
ACCMTRANSPARENCY
 70
     0
  0
APPID
  2
ACAD_MLEADERVER
 70
     0
  0
APPID
  2
ACADANNOPO
 70
     0
  0
ENDTAB
  0
TABLE
  2
DIMSTYLE
 70
     1
  0
DIMSTYLE
  2
STANDARD
 70
     0
  3

  4

  5

  6

  7

 40
1.0
 41
0.18
 42
0.0625
 43
0.38
 44
0.18
 45
0.0
 46
0.0
 47
0.0
 48
0.0
140
0.18
141
0.09
142
0.0
143
25.4
144
1.0
145
0.0
146
1.0
147
0.09
 71
     0
 72
     0
 73
     1
 74
     1
 75
     0
 76
     0
 77
     0
 78
     0
170
     0
171
     2
172
     0
173
     0
174
     0
175
     0
176
     0
177
     0
178
     0
  0
ENDTAB
  0
ENDSEC
  0
SECTION
  2
BLOCKS
  0
BLOCK
  8
DATA
  2
$MODEL_SPACE
 70
     0
 10
0.0
 20
0.0
 30
0.0
  3
$MODEL_SPACE
  1

  0
ENDBLK
  5
7BB
  8
DATA
  6
CONTINUOUS
  0
BLOCK
 67
     1
  8
DATA
  2
$PAPER_SPACE
 70
     0
 10
0.0
 20
0.0
 30
0.0
  3
$PAPER_SPACE
  1

  0
ENDBLK
  5
7B9
 67
     1
  8
DATA
  6
CONTINUOUS
  0
ENDSEC
  0
SECTION
  2
ENTITIES
  0
LINE
  5
2F
  8
HIBINO-BASE
  6
CONTINUOUS
 62
     7
 10
-1800.0
 20
2667.104485
 30
0.0
 11
1800.0
 21
2667.104485
 31
0.0
  0
LINE
  5
30
  8
HIBINO-BASE
  6
CONTINUOUS
 62
     7
 10
1800.0
 20
-2532.895514999999
 30
0.0
 11
-1800.0
 21
-2532.895514999999
 31
0.0
  0
LINE
  5
31
  8
HIBINO-BASE
  6
CONTINUOUS
 62
     7
 10
-1800.0
 20
-2532.895514999999
 30
0.0
 11
-1800.0
 21
2667.104485
 31
0.0
  0
LINE
  5
32
  8
HIBINO-BASE
  6
CONTINUOUS
 62
     7
 10
1800.0
 20
2667.104485
 30
0.0
 11
1800.0
 21
-2532.895514999999
 31
0.0
  0
LINE
  5
33
  8
HIBINO-BASE
  6
CONTINUOUS
 62
     7
 10
0.0000000000002842
 20
-2082.895514999999
 30
0.0
 11
1800.0
 21
-2082.895514999999
 31
0.0
  0
LINE
  5
34
  8
HIBINO-BASE
  6
CONTINUOUS
 62
     7
 10
0.0000000000002842
 20
-2532.895514999999
 30
0.0
 11
0.0000000000002842
 21
-2082.895514999999
 31
0.0
  0
TEXT
  5
35
  8
HIBINO-BASE
 62
     7
 10
18.0000000000004
 20
-2133.069381666665
 30
0.0
 40
32.57682291666666
  1
NOTE
 41
0.7
 11
18.0000000000004
 21
-2100.492558749999
 31
0.0
 73
     3
  0
LINE
  5
36
  8
HIBINO-BASE
  6
CONTINUOUS
 62
     7
 10
700.0000000000002
 20
-2532.895514999999
 30
0.0
 11
700.0000000000002
 21
-2082.895514999999
 31
0.0
  0
TEXT
  5
37
  8
HIBINO-BASE
 62
     7
 10
717.9999999999998
 20
-2133.069381666665
 30
0.0
 40
32.57682291666666
  1
TITLE
 41
0.7
 11
717.9999999999998
 21
-2100.492558749999
 31
0.0
 73
     3
  0
LINE
  5
38
  8
HIBINO-BASE
  6
CONTINUOUS
 62
     7
 10
0.0000000000002842
 20
-2332.895514999999
 30
0.0
 11
1800.0
 21
-2332.895514999999
 31
0.0
  0
TEXT
  5
39
  8
HIBINO-BASE
 62
     7
 10
967.9999999999998
 20
-2381.942981666666
 30
0.0
 40
32.57682291666666
  1
DRAWN
 41
0.7
 11
967.9999999999998
 21
-2349.36615875
 31
0.0
 73
     3
  0
TEXT
  5
3A
  8
HIBINO-BASE
 62
     7
 10
467.9999999999998
 20
-2381.942981666666
 30
0.0
 40
32.57682291666666
  1
DATE
 41
0.7
 11
467.9999999999998
 21
-2349.36615875
 31
0.0
 73
     3
  0
TEXT
  5
3B
  8
HIBINO-BASE
 62
     7
 10
267.9999999999998
 20
-2381.942981666666
 30
0.0
 40
32.57682291666666
  1
SCALE
 41
0.7
 11
267.9999999999998
 21
-2349.36615875
 31
0.0
 73
     3
  0
TEXT
  5
3C
  8
HIBINO-BASE
 62
     7
 10
717.9999999999998
 20
-2381.942981666666
 30
0.0
 40
32.57682291666666
  1
DESIGN
 41
0.7
 11
717.9999999999998
 21
-2349.36615875
 31
0.0
 73
     3
  0
TEXT
  5
3D
  8
HIBINO-BASE
 62
     7
 10
1468.0
 20
-2381.942981666666
 30
0.0
 40
32.57682291666666
  1
DRAWING NO.
 41
0.7
 11
1468.0
 21
-2349.36615875
 31
0.0
 73
     3
  0
TEXT
  5
3E
  8
HIBINO-BASE
 62
     7
 10
1218.0
 20
-2381.942981666666
 30
0.0
 40
32.57682291666666
  1
CHECK
 41
0.7
 11
1218.0
 21
-2349.36615875
 31
0.0
 73
     3
  0
LINE
  5
3F
  8
HIBINO-BASE
  6
CONTINUOUS
 62
     7
 10
287.5000000000003
 20
-2507.895514999999
 30
0.0
 11
362.5000000000003
 21
-2432.895514999999
 31
0.0
  0
TEXT
  5
40
  8
HIBINO-BASE
 62
     7
 10
275.0000000000003
 20
-2455.074381666666
 30
0.0
 40
32.57682291666666
  1
1
 41
0.7
 11
275.0000000000003
 21
-2422.497558749999
 31
0.0
 73
     3
  0
LINE
  5
41
  8
HIBINO-BASE
  6
CONTINUOUS
 62
     7
 10
250.0000000000003
 20
-2532.895514999999
 30
0.0
 11
250.0000000000003
 21
-2332.895514999999
 31
0.0
  0
LINE
  5
42
  8
HIBINO-BASE
  6
CONTINUOUS
 62
     7
 10
449.9999999999997
 20
-2532.895514999999
 30
0.0
 11
449.9999999999997
 21
-2332.895514999999
 31
0.0
  0
LINE
  5
43
  8
HIBINO-BASE
  6
CONTINUOUS
 62
     7
 10
949.9999999999998
 20
-2332.895514999999
 30
0.0
 11
949.9999999999998
 21
-2532.895514999999
 31
0.0
  0
LINE
  5
44
  8
HIBINO-BASE
  6
CONTINUOUS
 62
     7
 10
1450.0
 20
-2332.895514999999
 30
0.0
 11
1450.0
 21
-2532.895514999999
 31
0.0
  0
LINE
  5
45
  8
HIBINO-BASE
  6
CONTINUOUS
 62
     7
 10
1200.0
 20
-2532.895514999999
 30
0.0
 11
1200.0
 21
-2332.895514999999
 31
0.0
  0
TEXT
  5
46
  8
HIBINO-BASE
 62
     7
 10
467.1308000000002
 20
-2475.622581666665
 30
0.0
 40
32.57682291666666
  1
'22.06.
 41
0.7
 11
467.1308000000002
 21
-2443.045758749999
 31
0.0
 73
     3
  0
TEXT
  5
47
  8
HIBINO-BASE
 62
     7
 10
350.0000000000003
 20
-2492.574381666666
 30
0.0
 40
32.57682291666666
  1
20
 41
0.7
 11
350.0000000000003
 21
-2459.997558749999
 31
0.0
 73
     3
  0
TEXT
  5
48
  8
HIBINO-BASE
 62
     7
 10
980.1162002206925
 20
-2475.622581666665
 30
0.0
 40
32.57682291666666
  1
N.Sasaki
 41
0.7
 11
980.1162002206925
 21
-2443.045758749999
 31
0.0
 73
     3
  0
TEXT
  5
49
  8
HIBINO-BASE
 62
     7
 10
77.66666666666737
 20
-2493.375514999999
 30
0.0
 40
65.15364583333333
  1
A4
 41
0.7
 11
77.66666666666737
 21
-2428.221869166666
 31
0.0
 73
     3
  0
TEXT
  5
4A
  8
HIBINO-BASE
 62
     7
 10
19.16666666666657
 20
-2385.284614999999
 30
0.0
 40
32.57682291666666
  1
PAPER SIZE
 41
0.7
 11
19.16666666666657
 21
-2352.707792083333
 31
0.0
 73
     3
  0
TEXT
  5
4B
  8
HIBINO-BASE
 62
     7
 10
-1656.319999999999
 20
-2661.069070999999
 30
0.0
 40
72.00088359374999
  1
Hibino Corporation
 41
0.7
 11
-1656.319999999999
 21
-2589.068187406249
 31
0.0
 73
     3
  0
TEXT
  5
4C
  8
HIBINO-BASE
 62
     7
 10
1001.3678
 20
-2661.069070999999
 30
0.0
 40
72.00088359374999
  1
ヒビノ株式会社
 41
0.7
 11
1001.3678
 21
-2589.068187406249
 31
0.0
 73
     3
  0
TEXT
  5
4D
  8
SPEC
 62
     7
 10
-1625.0
 20
2494.969885
 30
0.0
 40
48.86523437500001
  1
仕様
 41
0.7
 11
-1625.0
 21
2543.835119375
 31
0.0
 73
     3
  0
LINE
  5
4E
  8
SPEC
  6
CONTINUOUS
 62
     7
 10
-1650.0
 20
2467.104485000001
 30
0.0
 11
1299.999999992625
 21
2467.104485000001
 31
0.0
  0
LINE
  5
4F
  8
SPEC
  6
CONTINUOUS
 62
     7
 10
-1650.0
 20
2392.104485000188
 30
0.0
 11
1299.999999992625
 21
2392.104485000188
 31
0.0
  0
LINE
  5
50
  8
SPEC
  6
CONTINUOUS
 62
     7
 10
-1650.0
 20
2467.104485000001
 30
0.0
 11
-1650.0
 21
1042.104485003564
 31
0.0
  0
LINE
  5
51
  8
SPEC
  6
CONTINUOUS
 62
     7
 10
-775.0000000041255
 20
2467.104485000001
 30
0.0
 11
-775.0000000041255
 21
1042.104485003564
 31
0.0
  0
LINE
  5
52
  8
SPEC
  6
CONTINUOUS
 62
     7
 10
1299.999999992625
 20
2467.104485000001
 30
0.0
 11
1299.999999992625
 21
1042.104485003564
 31
0.0
  0
LINE
  5
53
  8
SPEC
  6
CONTINUOUS
 62
     7
 10
-1650.0
 20
2317.104485000375
 30
0.0
 11
1299.999999992625
 21
2317.104485000375
 31
0.0
  0
LINE
  5
54
  8
SPEC
  6
CONTINUOUS
 62
     7
 10
-1650.0
 20
2242.104485000563
 30
0.0
 11
1299.999999992625
 21
2242.104485000563
 31
0.0
  0
TEXT
  5
55
  8
SPEC
 62
     7
 10
-1632.000000000045
 20
2407.86284055566
 30
0.0
 40
38.00629340277779
  1
周波数レンジ(-10dB)
 41
0.7
 11
-1632.000000000045
 21
2445.869133958437
 31
0.0
 73
     3
  0
TEXT
  5
56
  8
SPEC
 62
     7
 10
-1632.000000000045
 20
2332.862840555847
 30
0.0
 40
38.00629340277779
  1
指向角度(水平×垂直)
 41
0.7
 11
-1632.000000000045
 21
2370.869133958625
 31
0.0
 73
     3
  0
TEXT
  5
57
  8
SPEC
 62
     7
 10
-1632.000000000045
 20
2257.862840556034
 30
0.0
 40
38.00629340277779
  1
最大音圧レベル
 41
0.7
 11
-1632.000000000045
 21
2295.869133958812
 31
0.0
 73
     3
  0
TEXT
  5
58
  8
SPEC
 62
     7
 10
-1632.000000000045
 20
2182.862840556222
 30
0.0
 40
38.00629340277779
  1
ドライバー構成
 41
0.7
 11
-1632.000000000045
 21
2220.869133959
 31
0.0
 73
     3
  0
TEXT
  5
59
  8
SPEC
 62
     7
 10
-757.00000000417
 20
2407.86284055566
 30
0.0
 40
38.00629340277779
  1
32Hz～20kHz
 41
0.7
 11
-757.00000000417
 21
2445.869133958437
 31
0.0
 73
     3
  0
TEXT
  5
5A
  8
SPEC
 62
     7
 10
-757.00000000417
 20
2332.862840555847
 30
0.0
 40
38.00629340277779
  1
90°×50°
 41
0.7
 11
-757.00000000417
 21
2370.869133958625
 31
0.0
 73
     3
  0
TEXT
  5
5B
  8
SPEC
 62
     7
 10
-757.00000000417
 20
2257.862840556034
 30
0.0
 40
38.00629340277779
  1
138dB SPL
 41
0.7
 11
-757.00000000417
 21
2295.869133958812
 31
0.0
 73
     3
  0
TEXT
  5
5C
  8
SPEC
 62
     7
 10
-757.00000000417
 20
2182.862840556222
 30
0.0
 40
38.00629340277779
  1
275G(15インチ(381mm))
 41
0.7
 11
-757.00000000417
 21
2220.869133959
 31
0.0
 73
     3
  0
LINE
  5
5D
  8
SPEC
  6
CONTINUOUS
 62
     7
 10
-1250.000000004125
 20
2242.104485000563
 30
0.0
 11
-1250.000000004125
 21
2017.104485001127
 31
0.0
  0
TEXT
  5
5E
  8
SPEC
 62
     7
 10
-1232.00000000417
 20
2182.862840556266
 30
0.0
 40
38.00629340268277
  1
LF
 41
0.7
 11
-1232.00000000417
 21
2220.869133958949
 31
0.0
 73
     3
  0
LINE
  5
5F
  8
SPEC
  6
CONTINUOUS
 62
     7
 10
-1250.000000004125
 20
2167.10448500075
 30
0.0
 11
1299.999999992625
 21
2167.10448500075
 31
0.0
  0
TEXT
  5
60
  8
SPEC
 62
     7
 10
-1232.00000000417
 20
2107.862840556454
 30
0.0
 40
38.00629340268277
  1
MF
 41
0.7
 11
-1232.00000000417
 21
2145.869133959136
 31
0.0
 73
     3
  0
TEXT
  5
61
  8
SPEC
 62
     7
 10
-757.00000000417
 20
1207.862840558599
 30
0.0
 40
38.00629340277779
  1
446×934×538mm(除突起部)
 41
0.7
 11
-757.00000000417
 21
1245.869133961377
 31
0.0
 73
     3
  0
TEXT
  5
62
  8
SPEC
 62
     7
 10
-757.00000000417
 20
1132.862840558848
 30
0.0
 40
38.00629340277779
  1
32kg
 41
0.7
 11
-757.00000000417
 21
1170.869133961626
 31
0.0
 73
     3
  0
TEXT
  5
63
  8
SPEC
 62
     7
 10
-1632.000000000045
 20
1057.86284055908
 30
0.0
 40
38.00629340268277
  1
付属品
 41
0.7
 11
-1632.000000000045
 21
1095.869133961763
 31
0.0
 73
     3
  0
TEXT
  5
64
  8
SPEC
 62
     7
 10
-1632.000000000045
 20
1207.862840558705
 30
0.0
 40
38.00629340268277
  1
寸法(W×H×D)
 41
0.7
 11
-1632.000000000045
 21
1245.869133961388
 31
0.0
 73
     3
  0
TEXT
  5
65
  8
SPEC
 62
     7
 10
-1632.000000000045
 20
1132.862840558893
 30
0.0
 40
38.00629340268277
  1
質量
 41
0.7
 11
-1632.000000000045
 21
1170.869133961575
 31
0.0
 73
     3
  0
LINE
  5
66
  8
SPEC
  6
CONTINUOUS
 62
     7
 10
-1250.000000004125
 20
2092.104485000938
 30
0.0
 11
1299.999999992625
 21
2092.104485000938
 31
0.0
  0
LINE
  5
67
  8
SPEC
  6
CONTINUOUS
 62
     7
 10
-1650.0
 20
2017.104485001127
 30
0.0
 11
1299.999999992625
 21
2017.104485001127
 31
0.0
  0
LINE
  5
68
  8
SPEC
  6
CONTINUOUS
 62
     7
 10
-1650.0
 20
1942.104485001314
 30
0.0
 11
1299.999999992625
 21
1942.104485001314
 31
0.0
  0
LINE
  5
69
  8
SPEC
  6
CONTINUOUS
 62
     7
 10
-1650.0
 20
1867.104485001501
 30
0.0
 11
1299.999999992625
 21
1867.104485001501
 31
0.0
  0
LINE
  5
6A
  8
SPEC
  6
CONTINUOUS
 62
     7
 10
-1250.000000004125
 20
1792.104485001689
 30
0.0
 11
1299.999999992625
 21
1792.104485001689
 31
0.0
  0
TEXT
  5
6B
  8
SPEC
 62
     7
 10
-757.00000000417
 20
1807.862840557205
 30
0.0
 40
38.00629340268277
  1
2
 41
0.7
 11
-757.00000000417
 21
1845.869133959888
 31
0.0
 73
     3
  0
LINE
  5
6C
  8
SPEC
  6
CONTINUOUS
 62
     7
 10
-1250.000000004125
 20
1567.104485002252
 30
0.0
 11
1299.999999992625
 21
1567.104485002252
 31
0.0
  0
LINE
  5
6D
  8
SPEC
  6
CONTINUOUS
 62
     7
 10
-1650.0
 20
1492.104485002439
 30
0.0
 11
1299.999999992625
 21
1492.104485002439
 31
0.0
  0
LINE
  5
6E
  8
SPEC
  6
CONTINUOUS
 62
     7
 10
-1650.0
 20
1417.104485002626
 30
0.0
 11
1299.999999992625
 21
1417.104485002626
 31
0.0
  0
LINE
  5
6F
  8
SPEC
  6
CONTINUOUS
 62
     7
 10
-1650.0
 20
1342.104485002814
 30
0.0
 11
1299.999999992625
 21
1342.104485002814
 31
0.0
  0
LINE
  5
70
  8
SPEC
  6
CONTINUOUS
 62
     7
 10
-1650.0
 20
1267.104485003001
 30
0.0
 11
1299.999999992625
 21
1267.104485003001
 31
0.0
  0
LINE
  5
71
  8
SPEC
  6
CONTINUOUS
 62
     7
 10
-1650.0
 20
1192.104485003189
 30
0.0
 11
1299.999999992625
 21
1192.104485003189
 31
0.0
  0
LINE
  5
72
  8
SPEC
  6
CONTINUOUS
 62
     7
 10
-1650.0
 20
1117.104485003377
 30
0.0
 11
1299.999999992625
 21
1117.104485003377
 31
0.0
  0
LINE
  5
73
  8
SPEC
  6
CONTINUOUS
 62
     7
 10
-1650.0
 20
1042.104485003564
 30
0.0
 11
1299.999999992625
 21
1042.104485003564
 31
0.0
  0
TEXT
  5
74
  8
SPEC
 62
     7
 10
-1632.000000000045
 20
1957.862840556786
 30
0.0
 40
38.00629340277779
  1
クロスオーバー周波数
 41
0.7
 11
-1632.000000000045
 21
1995.869133959563
 31
0.0
 73
     3
  0
TEXT
  5
75
  8
SPEC
 62
     7
 10
-1632.000000000045
 20
1882.862840556973
 30
0.0
 40
38.00629340277779
  1
パワーアンプ
 41
0.7
 11
-1632.000000000045
 21
1920.86913395975
 31
0.0
 73
     3
  0
TEXT
  5
76
  8
SPEC
 62
     7
 10
-757.00000000417
 20
1357.862840558285
 30
0.0
 40
38.00629340277779
  1
70W
 41
0.7
 11
-757.00000000417
 21
1395.869133961063
 31
0.0
 73
     3
  0
TEXT
  5
77
  8
SPEC
 62
     7
 10
-757.00000000417
 20
1957.862840556786
 30
0.0
 40
38.00629340277779
  1
580Hz、2.1kHz
 41
0.7
 11
-757.00000000417
 21
1995.869133959563
 31
0.0
 73
     3
  0
TEXT
  5
78
  8
SPEC
 62
     7
 10
-757.00000000417
 20
1882.862840556973
 30
0.0
 40
38.00629340277779
  1
1500W(750W×2)、Class D
 41
0.7
 11
-757.00000000417
 21
1920.86913395975
 31
0.0
 73
     3
  0
TEXT
  5
79
  8
SPEC
 62
     7
 10
-1232.00000000417
 20
2032.862840556642
 30
0.0
 40
38.00629340268277
  1
HF
 41
0.7
 11
-1232.00000000417
 21
2070.869133959325
 31
0.0
 73
     3
  0
TEXT
  5
7A
  8
SPEC
 62
     7
 10
-757.00000000417
 20
2032.862840556597
 30
0.0
 40
38.00629340277779
  1
2408H-2(1.5インチ(38mm))
 41
0.7
 11
-757.00000000417
 21
2070.869133959375
 31
0.0
 73
     3
  0
TEXT
  5
7B
  8
SPEC
 62
     7
 10
-757.00000000417
 20
1657.862840557535
 30
0.0
 40
38.00629340277779
  1
ch2:XLR(3P)と標準フォーン(3P)対応の複合型端子(バランス)
 41
0.7
 11
-757.00000000417
 21
1695.869133960313
 31
0.0
 73
     3
  0
TEXT
  5
7C
  8
SPEC
 62
     7
 10
-1632.000000000045
 20
1807.86284055716
 30
0.0
 40
38.00629340277779
  1
入力
 41
0.7
 11
-1632.000000000045
 21
1845.869133959938
 31
0.0
 73
     3
  0
LINE
  5
7D
  8
SPEC
  6
CONTINUOUS
 62
     7
 10
-1250.000000004125
 20
1867.104485001501
 30
0.0
 11
-1250.000000004125
 21
1492.104485002439
 31
0.0
  0
TEXT
  5
7E
  8
SPEC
 62
     7
 10
-1232.00000000417
 20
1807.86284055716
 30
0.0
 40
38.00629340277779
  1
チャンネル数
 41
0.7
 11
-1232.00000000417
 21
1845.869133959938
 31
0.0
 73
     3
  0
TEXT
  5
7F
  8
SPEC
 62
     7
 10
-1232.00000000417
 20
1732.862840557348
 30
0.0
 40
38.00629340277779
  1
端子・形式
 41
0.7
 11
-1232.00000000417
 21
1770.869133960126
 31
0.0
 73
     3
  0
TEXT
  5
80
  8
SPEC
 62
     7
 10
-1232.00000000417
 20
1507.86284055791
 30
0.0
 40
38.00629340277779
  1
インピーダンス
 41
0.7
 11
-1232.00000000417
 21
1545.869133960688
 31
0.0
 73
     3
  0
TEXT
  5
81
  8
SPEC
 62
     7
 10
-761.2777777819483
 20
1507.86284055791
 30
0.0
 40
38.00629340277779
  1
20kΩ(バランス)、10kΩ(アンバランス)
 41
0.7
 11
-761.2777777819483
 21
1545.869133960688
 31
0.0
 73
     3
  0
TEXT
  5
82
  8
SPEC
 62
     7
 10
-757.00000000417
 20
1732.862840557348
 30
0.0
 40
38.00629340277779
  1
ch1:XLR(3P)と標準フォーン(3P)対応の複合型端子(バランス)
 41
0.7
 11
-757.00000000417
 21
1770.869133960126
 31
0.0
 73
     3
  0
TEXT
  5
83
  8
SPEC
 62
     7
 10
-757.00000000417
 20
1582.862840557723
 30
0.0
 40
38.00629340277779
  1
またはRCA(アンバランス)
 41
0.7
 11
-757.00000000417
 21
1620.869133960501
 31
0.0
 73
     3
  0
TEXT
  5
84
  8
SPEC
 62
     7
 10
-757.00000000417
 20
1432.862840558098
 30
0.0
 40
38.00629340277779
  1
100V、50/60Hz
 41
0.7
 11
-757.00000000417
 21
1470.869133960875
 31
0.0
 73
     3
  0
TEXT
  5
85
  8
SPEC
 62
     7
 10
-757.00000000417
 20
1282.862840558473
 30
0.0
 40
38.00629340277779
  1
18mm合板、Duraflex仕上げ
 41
0.7
 11
-757.00000000417
 21
1320.869133961251
 31
0.0
 73
     3
  0
TEXT
  5
86
  8
SPEC
 62
     7
 10
-757.00000000417
 20
1057.862840559036
 30
0.0
 40
38.00629340277779
  1
電源コード、和文取扱説明書
 41
0.7
 11
-757.00000000417
 21
1095.869133961814
 31
0.0
 73
     3
  0
TEXT
  5
87
  8
SPEC
 62
     7
 10
-1632.000000000045
 20
1357.862840558285
 30
0.0
 40
38.00629340277779
  1
消費電力(1/8出力時、ピンクノイズ)
 41
0.7
 11
-1632.000000000045
 21
1395.869133961063
 31
0.0
 73
     3
  0
TEXT
  5
88
  8
SPEC
 62
     7
 10
-1632.000000000045
 20
1432.862840558098
 30
0.0
 40
38.00629340277779
  1
電源
 41
0.7
 11
-1632.000000000045
 21
1470.869133960875
 31
0.0
 73
     3
  0
TEXT
  5
89
  8
SPEC
 62
     7
 10
-1632.000000000045
 20
1282.862840558473
 30
0.0
 40
38.00629340277779
  1
エンクロージャー
 41
0.7
 11
-1632.000000000045
 21
1320.869133961251
 31
0.0
 73
     3
  0
TEXT
  5
8A
  8
SPEC
 62
     7
 10
-757.00000000417
 20
2107.862840556409
 30
0.0
 40
38.00629340277779
  1
196H(6.5インチ(165mm))
 41
0.7
 11
-757.00000000417
 21
2145.869133959187
 31
0.0
 73
     3
  0
TEXT
  5
8B
  8
DIMNSIONS
 62
     7
 10
-399.9999999999999
 20
-2287.505714999999
 30
0.0
 40
48.86523437500001
  1
(単位：mm)
 41
0.7
 11
-399.9999999999999
 21
-2238.640480624999
 31
0.0
 73
     3
  0
LINE
  5
8C
  8
DIMNSIONS
  6
CONTINUOUS
 62
     7
 10
-1324.0
 20
-349.9999999999991
 30
0.0
 11
-1620.0
 21
-349.9999999999991
 31
0.0
  0
LINE
  5
8D
  8
DIMNSIONS
  6
CONTINUOUS
 62
     7
 10
-1426.559795953995
 20
188.4800000000009
 30
0.0
 11
-1620.0
 21
188.4800000000009
 31
0.0
  0
LINE
  5
8E
  8
DIMNSIONS
  6
CONTINUOUS
 62
     7
 10
-1600.0
 20
-349.9999999999991
 30
0.0
 11
-1600.0
 21
188.4800000000009
 31
0.0
  0
LINE
  5
8F
  8
DIMNSIONS
  6
CONTINUOUS
 62
     7
 10
-1600.0
 20
-349.9999999999991
 30
0.0
 11
-1610.717313524412
 21
-310.0024414062491
 31
0.0
  0
LINE
  5
90
  8
DIMNSIONS
  6
CONTINUOUS
 62
     7
 10
-1600.0
 20
-349.9999999999991
 30
0.0
 11
-1589.282686475588
 21
-310.0024414062491
 31
0.0
  0
LINE
  5
91
  8
DIMNSIONS
  6
CONTINUOUS
 62
     7
 10
-1600.0
 20
188.4800000000009
 30
0.0
 11
-1589.282686475588
 21
148.4824414062509
 31
0.0
  0
LINE
  5
92
  8
DIMNSIONS
  6
CONTINUOUS
 62
     7
 10
-1600.0
 20
188.4800000000009
 30
0.0
 11
-1610.717313524412
 21
148.4824414062509
 31
0.0
  0
TEXT
  5
93
  8
DIMNSIONS
 62
     7
 10
-1619.877777777778
 20
-133.6766666666657
 30
0.0
 40
54.29470486111111
  1
538
 50
90.0
 41
0.7
 11
-1674.172482638889
 21
-133.6766666666657
 31
0.0
 73
     3
  0
TEXT
  5
94
  8
DIMNSIONS
 62
     7
 10
-1247.083333333334
 20
-412.2244444444435
 30
0.0
 40
38.00629340277779
  1
※
 41
0.7
 11
-1247.083333333334
 21
-374.2181510416657
 31
0.0
 73
     3
  0
LINE
  5
95
  8
DIMNSIONS
  6
CONTINUOUS
 62
     7
 10
-1480.75
 20
-244.5199999999991
 30
0.0
 11
-1480.75
 21
-494.9999999999991
 31
0.0
  0
LINE
  5
96
  8
DIMNSIONS
  6
CONTINUOUS
 62
     7
 10
-1119.25
 20
-244.5199999999991
 30
0.0
 11
-1119.25
 21
-494.9999999999991
 31
0.0
  0
LINE
  5
97
  8
DIMNSIONS
  6
CONTINUOUS
 62
     7
 10
-1480.75
 20
-474.9999999999991
 30
0.0
 11
-1119.25
 21
-474.9999999999991
 31
0.0
  0
LINE
  5
98
  8
DIMNSIONS
  6
CONTINUOUS
 62
     7
 10
-1480.75
 20
-474.9999999999991
 30
0.0
 11
-1440.75244140625
 21
-464.2826864755872
 31
0.0
  0
LINE
  5
99
  8
DIMNSIONS
  6
CONTINUOUS
 62
     7
 10
-1480.75
 20
-474.9999999999991
 30
0.0
 11
-1440.75244140625
 21
-485.7173135244109
 31
0.0
  0
LINE
  5
9A
  8
DIMNSIONS
  6
CONTINUOUS
 62
     7
 10
-1119.25
 20
-474.9999999999991
 30
0.0
 11
-1159.24755859375
 21
-485.7173135244109
 31
0.0
  0
LINE
  5
9B
  8
DIMNSIONS
  6
CONTINUOUS
 62
     7
 10
-1119.25
 20
-474.9999999999991
 30
0.0
 11
-1159.24755859375
 21
-464.2826864755872
 31
0.0
  0
TEXT
  5
9C
  8
DIMNSIONS
 62
     7
 10
-1352.916666666667
 20
-455.1222222222214
 30
0.0
 40
54.29470486111111
  1
362
 41
0.7
 11
-1352.916666666667
 21
-400.8275173611102
 31
0.0
 73
     3
  0
LINE
  5
9D
  8
DIMNSIONS
  6
CONTINUOUS
 62
     7
 10
-1077.25
 20
-129.111166500536
 30
0.0
 11
-1077.25
 21
276.3795568900318
 31
0.0
  0
LINE
  5
9E
  8
DIMNSIONS
  6
CONTINUOUS
 62
     7
 10
-1189.603484104
 20
205.8750311903411
 30
0.0
 11
-1205.307699567159
 21
257.2412054592541
 31
0.0
  0
ARC
  5
9F
  8
DIMNSIONS
  6
CONTINUOUS
 62
     7
 10
-1077.25
 20
-161.6166564870448
 30
0.0
 40
417.9962133770766
 50
90.0
 51
107.0
  0
LINE
  5
A0
  8
DIMNSIONS
  6
CONTINUOUS
 62
     7
 10
-1199.460265472705
 20
238.1151103399934
 30
0.0
 11
-1163.966236426815
 21
259.442074604289
 31
0.0
  0
LINE
  5
A1
  8
DIMNSIONS
  6
CONTINUOUS
 62
     7
 10
-1199.460265472705
 20
238.1151103399934
 30
0.0
 11
-1158.058052504153
 21
238.8377886555314
 31
0.0
  0
LINE
  5
A2
  8
DIMNSIONS
  6
CONTINUOUS
 62
     7
 10
-1077.25
 20
256.3795568900318
 30
0.0
 11
-1117.24755859375
 21
245.66224336562
 31
0.0
  0
LINE
  5
A3
  8
DIMNSIONS
  6
CONTINUOUS
 62
     7
 10
-1077.25
 20
256.3795568900318
 30
0.0
 11
-1117.24755859375
 21
267.0968704144436
 31
0.0
  0
TEXT
  5
A4
  8
DIMNSIONS
 62
     7
 10
-1221.476997846422
 20
265.1536560541792
 30
0.0
 40
54.29470486111111
  1
17.0°
 50
5.084983144213519
 41
0.7
 11
-1226.289313336415
 21
319.2346748646634
 31
0.0
 73
     3
  0
LINE
  5
A5
  8
DIMNSIONS
  6
CONTINUOUS
 62
     7
 10
-1276.0
 20
146.4800000000009
 30
0.0
 11
-930.0
 21
146.4800000000009
 31
0.0
  0
LINE
  5
A6
  8
DIMNSIONS
  6
CONTINUOUS
 62
     7
 10
-1095.25
 20
-220.5199999999991
 30
0.0
 11
-930.0
 21
-220.5199999999991
 31
0.0
  0
LINE
  5
A7
  8
DIMNSIONS
  6
CONTINUOUS
 62
     7
 10
-950.0
 20
146.4800000000009
 30
0.0
 11
-950.0
 21
-220.5199999999991
 31
0.0
  0
LINE
  5
A8
  8
DIMNSIONS
  6
CONTINUOUS
 62
     7
 10
-950.0
 20
146.4800000000009
 30
0.0
 11
-939.2826864755882
 21
106.4824414062509
 31
0.0
  0
LINE
  5
A9
  8
DIMNSIONS
  6
CONTINUOUS
 62
     7
 10
-950.0
 20
146.4800000000009
 30
0.0
 11
-960.7173135244118
 21
106.4824414062509
 31
0.0
  0
LINE
  5
AA
  8
DIMNSIONS
  6
CONTINUOUS
 62
     7
 10
-950.0
 20
-220.5199999999991
 30
0.0
 11
-960.7173135244118
 21
-180.5224414062491
 31
0.0
  0
LINE
  5
AB
  8
DIMNSIONS
  6
CONTINUOUS
 62
     7
 10
-950.0
 20
-220.5199999999991
 30
0.0
 11
-939.2826864755882
 21
-180.5224414062491
 31
0.0
  0
TEXT
  5
AC
  8
DIMNSIONS
 62
     7
 10
-969.877777777778
 20
-89.93666666666573
 30
0.0
 40
54.29470486111111
  1
367
 50
90.0
 41
0.7
 11
-1024.172482638889
 21
-89.93666666666573
 31
0.0
 73
     3
  0
LINE
  5
AD
  8
DIMNSIONS
  6
CONTINUOUS
 62
     7
 10
-1276.0
 20
146.4800000000009
 30
0.0
 11
-930.0
 21
146.4800000000009
 31
0.0
  0
LINE
  5
AE
  8
DIMNSIONS
  6
CONTINUOUS
 62
     7
 10
-1173.440204046005
 20
188.4800000000009
 30
0.0
 11
-930.0
 21
188.4800000000009
 31
0.0
  0
LINE
  5
AF
  8
DIMNSIONS
  6
CONTINUOUS
 62
     7
 10
-950.0
 20
188.4800000000009
 30
0.0
 11
-950.0
 21
146.4800000000009
 31
0.0
  0
LINE
  5
B0
  8
DIMNSIONS
  6
CONTINUOUS
 62
     7
 10
-950.0
 20
146.4800000000009
 30
0.0
 11
-950.0
 21
76.48000000000093
 31
0.0
  0
LINE
  5
B1
  8
DIMNSIONS
  6
CONTINUOUS
 62
     7
 10
-950.0
 20
146.4800000000009
 30
0.0
 11
-939.2826864755882
 21
106.4824414062509
 31
0.0
  0
LINE
  5
B2
  8
DIMNSIONS
  6
CONTINUOUS
 62
     7
 10
-950.0
 20
146.4800000000009
 30
0.0
 11
-960.7173135244118
 21
106.4824414062509
 31
0.0
  0
LINE
  5
B3
  8
DIMNSIONS
  6
CONTINUOUS
 62
     7
 10
-950.0
 20
188.4800000000009
 30
0.0
 11
-950.0
 21
341.111111111112
 31
0.0
  0
LINE
  5
B4
  8
DIMNSIONS
  6
CONTINUOUS
 62
     7
 10
-950.0
 20
188.4800000000009
 30
0.0
 11
-960.7173135244118
 21
228.4775585937509
 31
0.0
  0
LINE
  5
B5
  8
DIMNSIONS
  6
CONTINUOUS
 62
     7
 10
-950.0
 20
188.4800000000009
 30
0.0
 11
-939.2826864755882
 21
228.4775585937509
 31
0.0
  0
TEXT
  5
B6
  8
DIMNSIONS
 62
     7
 10
-969.877777777778
 20
200.0000000000009
 30
0.0
 40
54.29470486111111
  1
42.0
 50
90.0
 41
0.7
 11
-1024.172482638889
 21
200.0000000000009
 31
0.0
 73
     3
  0
LINE
  5
B7
  8
DIMNSIONS
  6
CONTINUOUS
 62
     7
 10
-1111.90828220402
 20
-228.9462776956593
 30
0.0
 11
-1050.0
 21
-299.9999999999991
 31
0.0
  0
LINE
  5
B8
  8
DIMNSIONS
  6
CONTINUOUS
 62
     7
 10
-1111.90828220402
 20
-228.9462776956593
 30
0.0
 11
-1077.180175480624
 21
-251.4989738992059
 31
0.0
  0
LINE
  5
B9
  8
DIMNSIONS
  6
CONTINUOUS
 62
     7
 10
-1111.90828220402
 20
-228.9462776956593
 30
0.0
 11
-1093.109207657996
 21
-265.8415388934612
 31
0.0
  0
LINE
  5
BA
  8
DIMNSIONS
  6
CONTINUOUS
 62
     7
 10
-1050.0
 20
-299.9999999999991
 30
0.0
 11
-1010.0
 21
-299.9999999999991
 31
0.0
  0
TEXT
  5
BB
  8
DIMNSIONS
 62
     7
 10
-1010.0
 20
-325.3999999999991
 30
0.0
 40
54.29470486111111
  1
M10(6ヵ所)
 41
0.7
 11
-1010.0
 21
-271.105295138888
 31
0.0
 73
     3
  0
LINE
  5
BC
  8
DIMNSIONS
  6
CONTINUOUS
 62
     7
 10
-1536.75
 20
-1449.999999999999
 30
0.0
 11
-1620.0
 21
-1449.999999999999
 31
0.0
  0
LINE
  5
BD
  8
DIMNSIONS
  6
CONTINUOUS
 62
     7
 10
-1536.75
 20
-515.9999999999991
 30
0.0
 11
-1620.0
 21
-515.9999999999991
 31
0.0
  0
LINE
  5
BE
  8
DIMNSIONS
  6
CONTINUOUS
 62
     7
 10
-1600.0
 20
-1449.999999999999
 30
0.0
 11
-1600.0
 21
-515.9999999999991
 31
0.0
  0
LINE
  5
BF
  8
DIMNSIONS
  6
CONTINUOUS
 62
     7
 10
-1600.0
 20
-1449.999999999999
 30
0.0
 11
-1610.717313524412
 21
-1410.002441406249
 31
0.0
  0
LINE
  5
C0
  8
DIMNSIONS
  6
CONTINUOUS
 62
     7
 10
-1600.0
 20
-1449.999999999999
 30
0.0
 11
-1589.282686475588
 21
-1410.002441406249
 31
0.0
  0
LINE
  5
C1
  8
DIMNSIONS
  6
CONTINUOUS
 62
     7
 10
-1600.0
 20
-515.9999999999991
 30
0.0
 11
-1589.282686475588
 21
-555.9975585937491
 31
0.0
  0
LINE
  5
C2
  8
DIMNSIONS
  6
CONTINUOUS
 62
     7
 10
-1600.0
 20
-515.9999999999991
 30
0.0
 11
-1610.717313524412
 21
-555.9975585937491
 31
0.0
  0
TEXT
  5
C3
  8
DIMNSIONS
 62
     7
 10
-1619.877777777778
 20
-1035.916666666666
 30
0.0
 40
54.29470486111111
  1
934
 50
90.0
 41
0.7
 11
-1674.172482638889
 21
-1035.916666666666
 31
0.0
 73
     3
  0
LINE
  5
C4
  8
DIMNSIONS
  6
CONTINUOUS
 62
     7
 10
-1522.75
 20
-1463.999999999999
 30
0.0
 11
-1522.75
 21
-1569.999999999999
 31
0.0
  0
LINE
  5
C5
  8
DIMNSIONS
  6
CONTINUOUS
 62
     7
 10
-1077.25
 20
-1463.999999999999
 30
0.0
 11
-1077.25
 21
-1569.999999999999
 31
0.0
  0
LINE
  5
C6
  8
DIMNSIONS
  6
CONTINUOUS
 62
     7
 10
-1522.75
 20
-1549.999999999999
 30
0.0
 11
-1077.25
 21
-1549.999999999999
 31
0.0
  0
LINE
  5
C7
  8
DIMNSIONS
  6
CONTINUOUS
 62
     7
 10
-1522.75
 20
-1549.999999999999
 30
0.0
 11
-1482.75244140625
 21
-1539.282686475587
 31
0.0
  0
LINE
  5
C8
  8
DIMNSIONS
  6
CONTINUOUS
 62
     7
 10
-1522.75
 20
-1549.999999999999
 30
0.0
 11
-1482.75244140625
 21
-1560.717313524411
 31
0.0
  0
LINE
  5
C9
  8
DIMNSIONS
  6
CONTINUOUS
 62
     7
 10
-1077.25
 20
-1549.999999999999
 30
0.0
 11
-1117.24755859375
 21
-1560.717313524411
 31
0.0
  0
LINE
  5
CA
  8
DIMNSIONS
  6
CONTINUOUS
 62
     7
 10
-1077.25
 20
-1549.999999999999
 30
0.0
 11
-1117.24755859375
 21
-1539.282686475587
 31
0.0
  0
TEXT
  5
CB
  8
DIMNSIONS
 62
     7
 10
-1352.916666666667
 20
-1530.122222222221
 30
0.0
 40
54.29470486111111
  1
446
 41
0.7
 11
-1352.916666666667
 21
-1475.82751736111
 31
0.0
 73
     3
  0
LINE
  5
CC
  8
DIMNSIONS
  6
CONTINUOUS
 62
     7
 10
-1536.75
 20
-1449.999999999999
 30
0.0
 11
-1620.0
 21
-1449.999999999999
 31
0.0
  0
LINE
  5
CD
  8
DIMNSIONS
  6
CONTINUOUS
 62
     7
 10
-1527.0
 20
-1453.499999999999
 30
0.0
 11
-1620.0
 21
-1453.499999999999
 31
0.0
  0
LINE
  5
CE
  8
DIMNSIONS
  6
CONTINUOUS
 62
     7
 10
-1600.0
 20
-1453.499999999999
 30
0.0
 11
-1600.0
 21
-1449.999999999999
 31
0.0
  0
LINE
  5
CF
  8
DIMNSIONS
  6
CONTINUOUS
 62
     7
 10
-1600.0
 20
-1449.999999999999
 30
0.0
 11
-1600.0
 21
-1379.999999999999
 31
0.0
  0
LINE
  5
D0
  8
DIMNSIONS
  6
CONTINUOUS
 62
     7
 10
-1600.0
 20
-1449.999999999999
 30
0.0
 11
-1610.717313524412
 21
-1410.002441406249
 31
0.0
  0
LINE
  5
D1
  8
DIMNSIONS
  6
CONTINUOUS
 62
     7
 10
-1600.0
 20
-1449.999999999999
 30
0.0
 11
-1589.282686475588
 21
-1410.002441406249
 31
0.0
  0
LINE
  5
D2
  8
DIMNSIONS
  6
CONTINUOUS
 62
     7
 10
-1600.0
 20
-1453.499999999999
 30
0.0
 11
-1600.0
 21
-1605.833333333332
 31
0.0
  0
LINE
  5
D3
  8
DIMNSIONS
  6
CONTINUOUS
 62
     7
 10
-1600.0
 20
-1453.499999999999
 30
0.0
 11
-1589.282686475588
 21
-1493.497558593749
 31
0.0
  0
LINE
  5
D4
  8
DIMNSIONS
  6
CONTINUOUS
 62
     7
 10
-1600.0
 20
-1453.499999999999
 30
0.0
 11
-1610.717313524412
 21
-1493.497558593749
 31
0.0
  0
TEXT
  5
D5
  8
DIMNSIONS
 62
     7
 10
-1619.877777777778
 20
-1605.833333333333
 30
0.0
 40
54.29470486111111
  1
3.5
 50
90.0
 41
0.7
 11
-1674.172482638889
 21
-1605.833333333333
 31
0.0
 73
     3
  0
TEXT
  5
D6
  8
DIMNSIONS
 62
     7
 10
-437.7755555555556
 20
-930.0833333333326
 30
0.0
 40
38.00629340277779
  1
※
 50
90.0
 41
0.7
 11
-475.7818489583333
 21
-930.0833333333326
 31
0.0
 73
     3
  0
LINE
  5
D7
  8
DIMNSIONS
  6
CONTINUOUS
 62
     7
 10
-871.5200000000004
 20
-557.9999999999991
 30
0.0
 11
-355.0000000000005
 21
-557.9999999999991
 31
0.0
  0
LINE
  5
D8
  8
DIMNSIONS
  6
CONTINUOUS
 62
     7
 10
-871.5200000000004
 20
-1407.999999999999
 30
0.0
 11
-355.0000000000005
 21
-1407.999999999999
 31
0.0
  0
LINE
  5
D9
  8
DIMNSIONS
  6
CONTINUOUS
 62
     7
 10
-375.0000000000005
 20
-557.9999999999991
 30
0.0
 11
-375.0000000000005
 21
-1407.999999999999
 31
0.0
  0
LINE
  5
DA
  8
DIMNSIONS
  6
CONTINUOUS
 62
     7
 10
-375.0000000000005
 20
-557.9999999999991
 30
0.0
 11
-364.2826864755886
 21
-597.9975585937491
 31
0.0
  0
LINE
  5
DB
  8
DIMNSIONS
  6
CONTINUOUS
 62
     7
 10
-375.0000000000005
 20
-557.9999999999991
 30
0.0
 11
-385.7173135244123
 21
-597.9975585937491
 31
0.0
  0
LINE
  5
DC
  8
DIMNSIONS
  6
CONTINUOUS
 62
     7
 10
-375.0000000000005
 20
-1407.999999999999
 30
0.0
 11
-385.7173135244123
 21
-1368.002441406249
 31
0.0
  0
LINE
  5
DD
  8
DIMNSIONS
  6
CONTINUOUS
 62
     7
 10
-375.0000000000005
 20
-1407.999999999999
 30
0.0
 11
-364.2826864755886
 21
-1368.002441406249
 31
0.0
  0
TEXT
  5
DE
  8
DIMNSIONS
 62
     7
 10
-394.8777777777782
 20
-1035.916666666666
 30
0.0
 40
54.29470486111111
  1
850
 50
90.0
 41
0.7
 11
-449.1724826388893
 21
-1035.916666666666
 31
0.0
 73
     3
  0
LINE
  5
DF
  8
DIMNSIONS
  6
CONTINUOUS
 62
     7
 10
-895.5200000000004
 20
-1431.999999999999
 30
0.0
 11
-895.5200000000004
 21
-1569.999999999999
 31
0.0
  0
LINE
  5
E0
  8
DIMNSIONS
  6
CONTINUOUS
 62
     7
 10
-486.5200000000004
 20
-1463.999999999999
 30
0.0
 11
-486.5200000000004
 21
-1569.999999999999
 31
0.0
  0
LINE
  5
E1
  8
DIMNSIONS
  6
CONTINUOUS
 62
     7
 10
-486.5200000000004
 20
-1549.999999999999
 30
0.0
 11
-895.5200000000004
 21
-1549.999999999999
 31
0.0
  0
LINE
  5
E2
  8
DIMNSIONS
  6
CONTINUOUS
 62
     7
 10
-895.5200000000004
 20
-1549.999999999999
 30
0.0
 11
-825.5200000000004
 21
-1549.999999999999
 31
0.0
  0
LINE
  5
E3
  8
DIMNSIONS
  6
CONTINUOUS
 62
     7
 10
-895.5200000000004
 20
-1549.999999999999
 30
0.0
 11
-855.5224414062504
 21
-1539.282686475587
 31
0.0
  0
LINE
  5
E4
  8
DIMNSIONS
  6
CONTINUOUS
 62
     7
 10
-895.5200000000004
 20
-1549.999999999999
 30
0.0
 11
-855.5224414062504
 21
-1560.717313524411
 31
0.0
  0
LINE
  5
E5
  8
DIMNSIONS
  6
CONTINUOUS
 62
     7
 10
-486.5200000000004
 20
-1549.999999999999
 30
0.0
 11
-556.5200000000004
 21
-1549.999999999999
 31
0.0
  0
LINE
  5
E6
  8
DIMNSIONS
  6
CONTINUOUS
 62
     7
 10
-486.5200000000004
 20
-1549.999999999999
 30
0.0
 11
-526.5175585937504
 21
-1560.717313524411
 31
0.0
  0
LINE
  5
E7
  8
DIMNSIONS
  6
CONTINUOUS
 62
     7
 10
-486.5200000000004
 20
-1549.999999999999
 30
0.0
 11
-526.5175585937504
 21
-1539.282686475587
 31
0.0
  0
TEXT
  5
E8
  8
DIMNSIONS
 62
     7
 10
-743.9366666666671
 20
-1530.122222222221
 30
0.0
 40
54.29470486111111
  1
409
 41
0.7
 11
-743.9366666666671
 21
-1475.82751736111
 31
0.0
 73
     3
  0
TEXT
  5
E9
  8
DIMNSIONS
 62
     7
 10
186.9188888888888
 20
-930.0833333333326
 30
0.0
 40
38.00629340277779
  1
※
 50
90.0
 41
0.7
 11
148.912595486111
 21
-930.0833333333326
 31
0.0
 73
     3
  0
LINE
  5
EA
  8
DIMNSIONS
  6
CONTINUOUS
 62
     7
 10
-76.0
 20
-557.9999999999991
 30
0.0
 11
270.0000000000001
 21
-557.9999999999991
 31
0.0
  0
LINE
  5
EB
  8
DIMNSIONS
  6
CONTINUOUS
 62
     7
 10
-76.0
 20
-1407.999999999999
 30
0.0
 11
270.0000000000001
 21
-1407.999999999999
 31
0.0
  0
LINE
  5
EC
  8
DIMNSIONS
  6
CONTINUOUS
 62
     7
 10
250.0000000000001
 20
-557.9999999999991
 30
0.0
 11
250.0000000000001
 21
-1407.999999999999
 31
0.0
  0
LINE
  5
ED
  8
DIMNSIONS
  6
CONTINUOUS
 62
     7
 10
250.0000000000001
 20
-557.9999999999991
 30
0.0
 11
260.7173135244119
 21
-597.9975585937491
 31
0.0
  0
LINE
  5
EE
  8
DIMNSIONS
  6
CONTINUOUS
 62
     7
 10
250.0000000000001
 20
-557.9999999999991
 30
0.0
 11
239.2826864755882
 21
-597.9975585937491
 31
0.0
  0
LINE
  5
EF
  8
DIMNSIONS
  6
CONTINUOUS
 62
     7
 10
250.0000000000001
 20
-1407.999999999999
 30
0.0
 11
239.2826864755882
 21
-1368.002441406249
 31
0.0
  0
LINE
  5
F0
  8
DIMNSIONS
  6
CONTINUOUS
 62
     7
 10
250.0000000000001
 20
-1407.999999999999
 30
0.0
 11
260.7173135244119
 21
-1368.002441406249
 31
0.0
  0
TEXT
  5
F1
  8
DIMNSIONS
 62
     7
 10
230.1222222222223
 20
-1035.916666666666
 30
0.0
 40
54.29470486111111
  1
850
 50
90.0
 41
0.7
 11
175.8275173611112
 21
-1035.916666666666
 31
0.0
 73
     3
  0
LINE
  5
F2
  8
DIMNSIONS
  6
CONTINUOUS
 62
     7
 10
-108.1594120278014
 20
-1415.637209658021
 30
0.0
 11
-225.0000000000003
 21
-1524.999999999999
 31
0.0
  0
LINE
  5
F3
  8
DIMNSIONS
  6
CONTINUOUS
 62
     7
 10
-108.1594120278014
 20
-1415.637209658021
 30
0.0
 11
-129.4863762920969
 21
-1451.131238703911
 31
0.0
  0
LINE
  5
F4
  8
DIMNSIONS
  6
CONTINUOUS
 62
     7
 10
-108.1594120278014
 20
-1415.637209658021
 30
0.0
 11
-144.3761193892291
 21
-1435.712458362276
 31
0.0
  0
LINE
  5
F5
  8
DIMNSIONS
  6
CONTINUOUS
 62
     7
 10
-225.0000000000003
 20
-1524.999999999999
 30
0.0
 11
-185.0000000000003
 21
-1524.999999999999
 31
0.0
  0
TEXT
  5
F6
  8
DIMNSIONS
 62
     7
 10
-185.0000000000003
 20
-1550.399999999999
 30
0.0
 40
54.29470486111111
  1
M10(2ヵ所)
 41
0.7
 11
-185.0000000000003
 21
-1496.105295138888
 31
0.0
 73
     3
  0
LINE
  5
F7
  8
DIMNSIONS
  6
CONTINUOUS
 62
     7
 10
-1283.068523013587
 20
-1877.841548471699
 30
0.0
 11
-1100.0
 21
-1924.999999999999
 31
0.0
  0
LINE
  5
F8
  8
DIMNSIONS
  6
CONTINUOUS
 62
     7
 10
-1283.068523013587
 20
-1877.841548471699
 30
0.0
 11
-1241.666310045036
 21
-1877.118870156161
 31
0.0
  0
LINE
  5
F9
  8
DIMNSIONS
  6
CONTINUOUS
 62
     7
 10
-1283.068523013587
 20
-1877.841548471699
 30
0.0
 11
-1246.851815652159
 21
-1897.916797175954
 31
0.0
  0
LINE
  5
FA
  8
DIMNSIONS
  6
CONTINUOUS
 62
     7
 10
-1100.0
 20
-1924.999999999999
 30
0.0
 11
-1060.0
 21
-1924.999999999999
 31
0.0
  0
TEXT
  5
FB
  8
DIMNSIONS
 62
     7
 10
-1060.0
 20
-1950.399999999999
 30
0.0
 40
54.29470486111111
  1
φ35.0×D80.0
 41
0.7
 11
-1060.0
 21
-1896.105295138888
 31
0.0
 73
     3
  0
LINE
  5
FC
  8
DIMNSIONS
  6
CONTINUOUS
 62
     7
 10
-893.4394588096629
 20
-547.0193659398858
 30
0.0
 11
-875.0000000000002
 21
-449.6999999999991
 31
0.0
  0
LINE
  5
FD
  8
DIMNSIONS
  6
CONTINUOUS
 62
     7
 10
-893.4394588096629
 20
-547.0193659398858
 30
0.0
 11
-896.3279711259689
 21
-505.7117153259916
 31
0.0
  0
LINE
  5
FE
  8
DIMNSIONS
  6
CONTINUOUS
 62
     7
 10
-893.4394588096629
 20
-547.0193659398858
 30
0.0
 11
-875.2871585477811
 21
-509.8016349794486
 31
0.0
  0
LINE
  5
FF
  8
DIMNSIONS
  6
CONTINUOUS
 62
     7
 10
-875.0000000000002
 20
-449.6999999999991
 30
0.0
 11
-835.0000000000002
 21
-449.6999999999991
 31
0.0
  0
TEXT
  5
100
  8
DIMNSIONS
 62
     7
 10
-835.0000000000002
 20
-475.0999999999991
 30
0.0
 40
54.29470486111111
  1
M10(4ヵ所)
 41
0.7
 11
-835.0000000000002
 21
-420.805295138888
 31
0.0
 73
     3
  0
TEXT
  5
101
  8
DIMNSIONS
 62
     7
 10
100.0
 20
-2025.399999999999
 30
0.0
 40
54.29470486111111
  1
※センター振り分け
 41
0.7
 11
100.0
 21
-1971.105295138888
 31
0.0
 73
     3
  0
LINE
  5
102
  8
DIMNSIONS
  6
CONTINUOUS
 62
     7
 10
-1426.559795953995
 20
-2163.479999999999
 30
0.0
 11
-1620.0
 21
-2163.479999999999
 31
0.0
  0
LINE
  5
103
  8
DIMNSIONS
  6
CONTINUOUS
 62
     7
 10
-1324.0
 20
-1873.479999999999
 30
0.0
 11
-1620.0
 21
-1873.479999999999
 31
0.0
  0
LINE
  5
104
  8
DIMNSIONS
  6
CONTINUOUS
 62
     7
 10
-1600.0
 20
-2163.479999999999
 30
0.0
 11
-1600.0
 21
-1873.479999999999
 31
0.0
  0
LINE
  5
105
  8
DIMNSIONS
  6
CONTINUOUS
 62
     7
 10
-1600.0
 20
-2163.479999999999
 30
0.0
 11
-1610.717313524412
 21
-2123.482441406249
 31
0.0
  0
LINE
  5
106
  8
DIMNSIONS
  6
CONTINUOUS
 62
     7
 10
-1600.0
 20
-2163.479999999999
 30
0.0
 11
-1589.282686475588
 21
-2123.482441406249
 31
0.0
  0
LINE
  5
107
  8
DIMNSIONS
  6
CONTINUOUS
 62
     7
 10
-1600.0
 20
-1873.479999999999
 30
0.0
 11
-1589.282686475588
 21
-1913.477558593749
 31
0.0
  0
LINE
  5
108
  8
DIMNSIONS
  6
CONTINUOUS
 62
     7
 10
-1600.0
 20
-1873.479999999999
 30
0.0
 11
-1610.717313524412
 21
-1913.477558593749
 31
0.0
  0
TEXT
  5
109
  8
DIMNSIONS
 62
     7
 10
-1619.877777777778
 20
-2071.396666666665
 30
0.0
 40
54.29470486111111
  1
290
 50
90.0
 41
0.7
 11
-1674.172482638889
 21
-2071.396666666665
 31
0.0
 73
     3
  0
TEXT
  5
10A
  8
DIMNSIONS
 62
     7
 10
-1060.0
 20
-2020.955555555555
 30
0.0
 40
54.29470486111111
  1
ポールソケット
 41
0.7
 11
-1060.0
 21
-1966.660850694444
 31
0.0
 73
     3
  0
TEXT
  5
10B
  8
DATA
 62
     7
 10
-1760.0
 20
-2375.369959444444
 30
0.0
 40
38.00629340277779
  1
※仕様及び外観は予告なく変更されることがあります。
 41
0.7
 11
-1760.0
 21
-2337.363666041666
 31
0.0
 73
     3
  0
TEXT
  5
10C
  8
DATA
 62
     7
 10
-1760.0
 20
-2424.758848333333
 30
0.0
 40
38.00629340277779
  1
　また、同一商品でも若干の個体差があることがあります。ご了承ください。
 41
0.7
 11
-1760.0
 21
-2386.752554930555
 31
0.0
 73
     3
  0
TEXT
  5
10D
  8
DATA
 62
     7
 10
1000.0
 20
-2165.277714999999
 30
0.0
 40
48.86523437500001
  1
JBL PROFESSIONAL
 41
0.7
 11
1000.0
 21
-2116.412480624999
 31
0.0
 73
     3
  0
ARC
  5
10E
  8
DATA
  6
CONTINUOUS
 62
     7
 10
-1300.0
 20
-3008.124999999999
 30
0.0
 40
1383.125
 50
84.59635838521646
 51
95.40364161478355
  0
LINE
  5
10F
  8
DATA
  6
CONTINUOUS
 62
     7
 10
-1433.53554606931
 20
-1632.039115389136
 30
0.0
 11
-1516.976182617407
 21
-1670.948123212841
 31
0.0
  0
ARC
  5
110
  8
DATA
  6
CONTINUOUS
 62
     7
 10
-1300.0
 20
-3008.124999999999
 30
0.0
 40
1370.13
 50
84.65485011383196
 51
95.34514988616806
  0
LINE
  5
111
  8
DATA
  6
CONTINUOUS
 62
     7
 10
-1429.282054751326
 20
-1644.399592760176
 30
0.0
 11
-1506.863091308704
 21
-1680.576224234485
 31
0.0
  0
LINE
  5
112
  8
DATA
  6
CONTINUOUS
 62
     7
 10
-1077.25
 20
-1680.011201083208
 30
0.0
 11
-1077.25
 21
-1786.196922275691
 31
0.0
  0
LINE
  5
113
  8
DATA
  6
CONTINUOUS
 62
     7
 10
-1090.25
 20
-1685.107763169668
 30
0.0
 11
-1090.25
 21
-1785.02271768623
 31
0.0
  0
LINE
  5
114
  8
DATA
  6
CONTINUOUS
 62
     7
 10
-1166.464453930689
 20
-1632.039115389136
 30
0.0
 11
-1083.023817382593
 21
-1670.948123212841
 31
0.0
  0
LINE
  5
115
  8
DATA
  6
CONTINUOUS
 62
     7
 10
-1170.717945248674
 20
-1644.399592760176
 30
0.0
 11
-1093.136908691296
 21
-1680.576224234484
 31
0.0
  0
ARC
  5
116
  8
DATA
  6
CONTINUOUS
 62
     7
 10
-1504.75
 20
-1685.107763169668
 30
0.0
 40
4.999999999999909
 50
115.0000000000016
 51
180.0
  0
ARC
  5
117
  8
DATA
  6
CONTINUOUS
 62
     7
 10
-1427.168963442622
 20
-1648.931131695358
 30
0.0
 40
4.999999999998604
 50
95.34514988616566
 51
115.0000000000071
  0
ARC
  5
118
  8
DATA
  6
CONTINUOUS
 62
     7
 10
-1172.831036557378
 20
-1648.93113169536
 30
0.0
 40
5.000000000000528
 50
65.00000000000166
 51
84.65485011383629
  0
ARC
  5
119
  8
DATA
  6
CONTINUOUS
 62
     7
 10
-1095.25
 20
-1685.107763169668
 30
0.0
 40
5.0
 50
0.0
 51
65.00000000000058
  0
ARC
  5
11A
  8
DATA
  6
CONTINUOUS
 62
     7
 10
-1087.25
 20
-1680.011201083208
 30
0.0
 40
10.0
 50
0.0
 51
64.99999999999949
  0
ARC
  5
11B
  8
DATA
  6
CONTINUOUS
 62
     7
 10
-1170.690636548098
 20
-1641.102193259507
 30
0.0
 40
10.0000000000043
 50
64.99999999999883
 51
84.59635838520768
  0
ARC
  5
11C
  8
DATA
  6
CONTINUOUS
 62
     7
 10
-1429.309363451903
 20
-1641.102193259504
 30
0.0
 40
10.00000000000071
 50
95.40364161478887
 51
114.9999999999994
  0
ARC
  5
11D
  8
DATA
  6
CONTINUOUS
 62
     7
 10
-1512.75
 20
-1680.011201083208
 30
0.0
 40
10.00000000000023
 50
115.0000000000005
 51
180.0
  0
LINE
  5
11E
  8
DATA
  6
CONTINUOUS
 62
     7
 10
-1402.559795953995
 20
-2163.479999999999
 30
0.0
 11
-1197.440204046005
 21
-2163.479999999999
 31
0.0
  0
LINE
  5
11F
  8
DATA
  6
CONTINUOUS
 62
     7
 10
-1396.60763271719
 20
-2150.479999999999
 30
0.0
 11
-1203.39236728281
 21
-2150.479999999999
 31
0.0
  0
CIRCLE
  5
120
  8
DATA
  6
CONTINUOUS
 62
     7
 10
-1300.0
 20
-2121.479999999999
 30
0.0
 40
11.17600000000039
  0
LINE
  5
121
  8
DATA
  6
CONTINUOUS
 62
     7
 10
-1298.222000000001
 20
-2124.273999999999
 30
0.0
 11
-1296.444
 21
-2121.479999999999
 31
0.0
  0
LINE
  5
122
  8
DATA
  6
CONTINUOUS
 62
     7
 10
-1301.524
 20
-2118.685999999999
 30
0.0
 11
-1303.302
 21
-2121.479999999999
 31
0.0
  0
LINE
  5
123
  8
DATA
  6
CONTINUOUS
 62
     7
 10
-1301.524
 20
-2124.273999999999
 30
0.0
 11
-1298.222000000001
 21
-2124.273999999999
 31
0.0
  0
LINE
  5
124
  8
DATA
  6
CONTINUOUS
 62
     7
 10
-1298.222000000001
 20
-2118.685999999999
 30
0.0
 11
-1301.524
 21
-2118.685999999999
 31
0.0
  0
LINE
  5
125
  8
DATA
  6
CONTINUOUS
 62
     7
 10
-1303.302
 20
-2121.479999999999
 30
0.0
 11
-1301.524
 21
-2124.273999999999
 31
0.0
  0
LINE
  5
126
  8
DATA
  6
CONTINUOUS
 62
     7
 10
-1296.444
 20
-2121.479999999999
 30
0.0
 11
-1298.222000000001
 21
-2118.685999999999
 31
0.0
  0
CIRCLE
  5
127
  8
DATA
  6
CONTINUOUS
 62
     7
 10
-1480.75
 20
-1754.479999999999
 30
0.0
 40
11.17600000000039
  0
LINE
  5
128
  8
DATA
  6
CONTINUOUS
 62
     7
 10
-1478.972000000001
 20
-1757.273999999999
 30
0.0
 11
-1477.194
 21
-1754.479999999999
 31
0.0
  0
LINE
  5
129
  8
DATA
  6
CONTINUOUS
 62
     7
 10
-1482.274
 20
-1751.685999999999
 30
0.0
 11
-1484.052
 21
-1754.479999999999
 31
0.0
  0
LINE
  5
12A
  8
DATA
  6
CONTINUOUS
 62
     7
 10
-1482.274
 20
-1757.273999999999
 30
0.0
 11
-1478.972000000001
 21
-1757.273999999999
 31
0.0
  0
LINE
  5
12B
  8
DATA
  6
CONTINUOUS
 62
     7
 10
-1478.972000000001
 20
-1751.685999999999
 30
0.0
 11
-1482.274
 21
-1751.685999999999
 31
0.0
  0
LINE
  5
12C
  8
DATA
  6
CONTINUOUS
 62
     7
 10
-1484.052
 20
-1754.479999999999
 30
0.0
 11
-1482.274
 21
-1757.273999999999
 31
0.0
  0
LINE
  5
12D
  8
DATA
  6
CONTINUOUS
 62
     7
 10
-1477.194
 20
-1754.479999999999
 30
0.0
 11
-1478.972000000001
 21
-1751.685999999999
 31
0.0
  0
CIRCLE
  5
12E
  8
DATA
  6
CONTINUOUS
 62
     7
 10
-1480.75
 20
-1754.479999999999
 30
0.0
 40
11.17600000000039
  0
LINE
  5
12F
  8
DATA
  6
CONTINUOUS
 62
     7
 10
-1478.972000000001
 20
-1757.273999999999
 30
0.0
 11
-1477.194
 21
-1754.479999999999
 31
0.0
  0
LINE
  5
130
  8
DATA
  6
CONTINUOUS
 62
     7
 10
-1482.274
 20
-1751.685999999999
 30
0.0
 11
-1484.052
 21
-1754.479999999999
 31
0.0
  0
LINE
  5
131
  8
DATA
  6
CONTINUOUS
 62
     7
 10
-1482.274
 20
-1757.273999999999
 30
0.0
 11
-1478.972000000001
 21
-1757.273999999999
 31
0.0
  0
LINE
  5
132
  8
DATA
  6
CONTINUOUS
 62
     7
 10
-1478.972000000001
 20
-1751.685999999999
 30
0.0
 11
-1482.274
 21
-1751.685999999999
 31
0.0
  0
LINE
  5
133
  8
DATA
  6
CONTINUOUS
 62
     7
 10
-1484.052
 20
-1754.479999999999
 30
0.0
 11
-1482.274
 21
-1757.273999999999
 31
0.0
  0
LINE
  5
134
  8
DATA
  6
CONTINUOUS
 62
     7
 10
-1477.194
 20
-1754.479999999999
 30
0.0
 11
-1478.972000000001
 21
-1751.685999999999
 31
0.0
  0
LINE
  5
135
  8
DATA
  6
CONTINUOUS
 62
     7
 10
-1077.671775051547
 20
-1789.070527474188
 30
0.0
 11
-1187.861979097552
 21
-2156.353605198496
 31
0.0
  0
LINE
  5
136
  8
DATA
  6
CONTINUOUS
 62
     7
 10
-1090.460887525774
 20
-1786.459520285479
 30
0.0
 11
-1198.603254808583
 21
-2146.916802599248
 31
0.0
  0
CIRCLE
  5
137
  8
DATA
  6
CONTINUOUS
 62
     7
 10
-1119.25
 20
-1754.479999999999
 30
0.0
 40
11.17600000000039
  0
LINE
  5
138
  8
DATA
  6
CONTINUOUS
 62
     7
 10
-1117.472000000001
 20
-1757.273999999999
 30
0.0
 11
-1115.694
 21
-1754.479999999999
 31
0.0
  0
LINE
  5
139
  8
DATA
  6
CONTINUOUS
 62
     7
 10
-1120.774
 20
-1751.685999999999
 30
0.0
 11
-1122.552
 21
-1754.479999999999
 31
0.0
  0
LINE
  5
13A
  8
DATA
  6
CONTINUOUS
 62
     7
 10
-1120.774
 20
-1757.273999999999
 30
0.0
 11
-1117.472000000001
 21
-1757.273999999999
 31
0.0
  0
LINE
  5
13B
  8
DATA
  6
CONTINUOUS
 62
     7
 10
-1117.472000000001
 20
-1751.685999999999
 30
0.0
 11
-1120.774
 21
-1751.685999999999
 31
0.0
  0
LINE
  5
13C
  8
DATA
  6
CONTINUOUS
 62
     7
 10
-1122.552
 20
-1754.479999999999
 30
0.0
 11
-1120.774
 21
-1757.273999999999
 31
0.0
  0
LINE
  5
13D
  8
DATA
  6
CONTINUOUS
 62
     7
 10
-1115.694
 20
-1754.479999999999
 30
0.0
 11
-1117.472000000001
 21
-1751.685999999999
 31
0.0
  0
CIRCLE
  5
13E
  8
DATA
  6
CONTINUOUS
 62
     7
 10
-1119.25
 20
-1754.479999999999
 30
0.0
 40
11.17600000000039
  0
LINE
  5
13F
  8
DATA
  6
CONTINUOUS
 62
     7
 10
-1117.472000000001
 20
-1757.273999999999
 30
0.0
 11
-1115.694
 21
-1754.479999999999
 31
0.0
  0
LINE
  5
140
  8
DATA
  6
CONTINUOUS
 62
     7
 10
-1120.774
 20
-1751.685999999999
 30
0.0
 11
-1122.552
 21
-1754.479999999999
 31
0.0
  0
LINE
  5
141
  8
DATA
  6
CONTINUOUS
 62
     7
 10
-1120.774
 20
-1757.273999999999
 30
0.0
 11
-1117.472000000001
 21
-1757.273999999999
 31
0.0
  0
LINE
  5
142
  8
DATA
  6
CONTINUOUS
 62
     7
 10
-1117.472000000001
 20
-1751.685999999999
 30
0.0
 11
-1120.774
 21
-1751.685999999999
 31
0.0
  0
LINE
  5
143
  8
DATA
  6
CONTINUOUS
 62
     7
 10
-1122.552
 20
-1754.479999999999
 30
0.0
 11
-1120.774
 21
-1757.273999999999
 31
0.0
  0
LINE
  5
144
  8
DATA
  6
CONTINUOUS
 62
     7
 10
-1115.694
 20
-1754.479999999999
 30
0.0
 11
-1117.472000000001
 21
-1751.685999999999
 31
0.0
  0
ARC
  5
145
  8
DATA
  6
CONTINUOUS
 62
     7
 10
-1087.25
 20
-1786.196922275691
 30
0.0
 40
9.9999999999996
 50
343.3000000000001
 51
0.0000000000026148
  0
ARC
  5
146
  8
DATA
  6
CONTINUOUS
 62
     7
 10
-1197.440204046005
 20
-2153.479999999999
 30
0.0
 40
10.0
 50
270.0
 51
343.3000000000016
  0
ARC
  5
147
  8
DATA
  6
CONTINUOUS
 62
     7
 10
-1203.39236728281
 20
-2145.479999999999
 30
0.0
 40
5.0
 50
270.0
 51
343.3000000000001
  0
ARC
  5
148
  8
DATA
  6
CONTINUOUS
 62
     7
 10
-1095.25
 20
-1785.022717686231
 30
0.0
 40
4.999999999999539
 50
343.3000000000101
 51
0.0000000000104023
  0
LINE
  5
149
  8
DATA
  6
CONTINUOUS
 62
     7
 10
-1522.75
 20
-1680.011201083208
 30
0.0
 11
-1522.75
 21
-1786.196922275691
 31
0.0
  0
LINE
  5
14A
  8
DATA
  6
CONTINUOUS
 62
     7
 10
-1509.75
 20
-1685.107763169668
 30
0.0
 11
-1509.75
 21
-1785.02271768623
 31
0.0
  0
LINE
  5
14B
  8
DATA
  6
CONTINUOUS
 62
     7
 10
-1522.328224948453
 20
-1789.070527474188
 30
0.0
 11
-1412.138020902448
 21
-2156.353605198496
 31
0.0
  0
LINE
  5
14C
  8
DATA
  6
CONTINUOUS
 62
     7
 10
-1509.539112474226
 20
-1786.459520285479
 30
0.0
 11
-1401.396745191417
 21
-2146.916802599248
 31
0.0
  0
ARC
  5
14D
  8
DATA
  6
CONTINUOUS
 62
     7
 10
-1512.75
 20
-1786.196922275691
 30
0.0
 40
10.0
 50
179.9999999999974
 51
196.6999999999991
  0
ARC
  5
14E
  8
DATA
  6
CONTINUOUS
 62
     7
 10
-1504.75
 20
-1785.022717686231
 30
0.0
 40
5.0
 50
179.9999999999896
 51
196.6999999999899
  0
ARC
  5
14F
  8
DATA
  6
CONTINUOUS
 62
     7
 10
-1396.60763271719
 20
-2145.479999999999
 30
0.0
 40
4.9999999999998
 50
196.6999999999999
 51
270.0
  0
ARC
  5
150
  8
DATA
  6
CONTINUOUS
 62
     7
 10
-1402.559795953995
 20
-2153.479999999999
 30
0.0
 40
10.00000000000047
 50
196.6999999999984
 51
270.0
  0
ARC
  5
151
  8
DATA
  6
CONTINUOUS
 62
     7
 10
-1300.0
 20
1033.125000000001
 30
0.0
 40
1383.125
 50
264.5963583852164
 51
275.4036416147835
  0
LINE
  5
152
  8
DATA
  6
CONTINUOUS
 62
     7
 10
-1433.53554606931
 20
-342.9608846108617
 30
0.0
 11
-1516.976182617407
 21
-304.0518767871567
 31
0.0
  0
ARC
  5
153
  8
DATA
  6
CONTINUOUS
 62
     7
 10
-1300.0
 20
1033.125000000001
 30
0.0
 40
1370.13
 50
264.654850113832
 51
275.345149886168
  0
LINE
  5
154
  8
DATA
  6
CONTINUOUS
 62
     7
 10
-1429.282054751326
 20
-330.6004072398217
 30
0.0
 11
-1506.863091308704
 21
-294.4237757655133
 31
0.0
  0
LINE
  5
155
  8
DATA
  6
STYLE_11
 62
     7
 10
-1300.0
 20
225.0000000000009
 30
0.0
 11
-1300.0
 21
-374.9999999999991
 31
0.0
  0
LINE
  5
156
  8
DATA
  6
CONTINUOUS
 62
     7
 10
-1077.25
 20
-294.9887989167902
 30
0.0
 11
-1077.25
 21
-188.8030777243073
 31
0.0
  0
LINE
  5
157
  8
DATA
  6
CONTINUOUS
 62
     7
 10
-1090.25
 20
-289.8922368303301
 30
0.0
 11
-1090.25
 21
-189.9772823137678
 31
0.0
  0
LINE
  5
158
  8
DATA
  6
CONTINUOUS
 62
     7
 10
-1166.464453930689
 20
-342.9608846108615
 30
0.0
 11
-1083.023817382593
 21
-304.0518767871567
 31
0.0
  0
LINE
  5
159
  8
DATA
  6
CONTINUOUS
 62
     7
 10
-1170.717945248674
 20
-330.6004072398216
 30
0.0
 11
-1093.136908691296
 21
-294.4237757655134
 31
0.0
  0
ARC
  5
15A
  8
DATA
  6
CONTINUOUS
 62
     7
 10
-1504.75
 20
-289.8922368303301
 30
0.0
 40
5.0
 50
179.9999999999987
 51
244.9999999999984
  0
ARC
  5
15B
  8
DATA
  6
CONTINUOUS
 62
     7
 10
-1427.168963442622
 20
-326.0688683046398
 30
0.0
 40
4.999999999998879
 50
244.9999999999929
 51
264.6548501138345
  0
ARC
  5
15C
  8
DATA
  6
CONTINUOUS
 62
     7
 10
-1172.831036557378
 20
-326.068868304638
 30
0.0
 40
5.000000000000415
 50
275.3451498861637
 51
294.9999999999995
  0
ARC
  5
15D
  8
DATA
  6
CONTINUOUS
 62
     7
 10
-1095.25
 20
-289.8922368303301
 30
0.0
 40
5.000000000000012
 50
295.0000000000011
 51
0.0
  0
ARC
  5
15E
  8
DATA
  6
CONTINUOUS
 62
     7
 10
-1087.25
 20
-294.9887989167901
 30
0.0
 40
10.00000000000023
 50
295.0000000000006
 51
359.9999999999993
  0
ARC
  5
15F
  8
DATA
  6
CONTINUOUS
 62
     7
 10
-1170.690636548098
 20
-333.8978067404913
 30
0.0
 40
10.00000000000407
 50
275.4036416147923
 51
295.0000000000015
  0
ARC
  5
160
  8
DATA
  6
CONTINUOUS
 62
     7
 10
-1429.309363451903
 20
-333.8978067404946
 30
0.0
 40
10.00000000000064
 50
245.0000000000005
 51
264.5963583852111
  0
ARC
  5
161
  8
DATA
  6
CONTINUOUS
 62
     7
 10
-1512.75
 20
-294.9887989167901
 30
0.0
 40
10.0
 50
180.0000000000006
 51
244.9999999999995
  0
LINE
  5
162
  8
DATA
  6
CONTINUOUS
 62
     7
 10
-1402.559795953995
 20
188.4800000000009
 30
0.0
 11
-1197.440204046005
 21
188.4800000000009
 31
0.0
  0
LINE
  5
163
  8
DATA
  6
CONTINUOUS
 62
     7
 10
-1396.60763271719
 20
175.4800000000009
 30
0.0
 11
-1203.39236728281
 21
175.4800000000009
 31
0.0
  0
CIRCLE
  5
164
  8
DATA
  6
CONTINUOUS
 62
     7
 10
-1300.0
 20
146.4800000000009
 30
0.0
 40
11.17600000000039
  0
LINE
  5
165
  8
DATA
  6
CONTINUOUS
 62
     7
 10
-1298.222000000001
 20
149.2740000000008
 30
0.0
 11
-1296.444
 21
146.4800000000009
 31
0.0
  0
LINE
  5
166
  8
DATA
  6
CONTINUOUS
 62
     7
 10
-1301.524
 20
143.6860000000011
 30
0.0
 11
-1303.302
 21
146.4800000000009
 31
0.0
  0
LINE
  5
167
  8
DATA
  6
CONTINUOUS
 62
     7
 10
-1301.524
 20
149.2740000000008
 30
0.0
 11
-1298.222000000001
 21
149.2740000000008
 31
0.0
  0
LINE
  5
168
  8
DATA
  6
CONTINUOUS
 62
     7
 10
-1298.222000000001
 20
143.6860000000011
 30
0.0
 11
-1301.524
 21
143.6860000000011
 31
0.0
  0
LINE
  5
169
  8
DATA
  6
CONTINUOUS
 62
     7
 10
-1303.302
 20
146.4800000000009
 30
0.0
 11
-1301.524
 21
149.2740000000008
 31
0.0
  0
LINE
  5
16A
  8
DATA
  6
CONTINUOUS
 62
     7
 10
-1296.444
 20
146.4800000000009
 30
0.0
 11
-1298.222000000001
 21
143.6860000000011
 31
0.0
  0
CIRCLE
  5
16B
  8
DATA
  6
CONTINUOUS
 62
     7
 10
-1480.75
 20
-220.5199999999991
 30
0.0
 40
11.17600000000039
  0
LINE
  5
16C
  8
DATA
  6
CONTINUOUS
 62
     7
 10
-1478.972000000001
 20
-217.7259999999992
 30
0.0
 11
-1477.194
 21
-220.5199999999991
 31
0.0
  0
LINE
  5
16D
  8
DATA
  6
CONTINUOUS
 62
     7
 10
-1482.274
 20
-223.3139999999989
 30
0.0
 11
-1484.052
 21
-220.5199999999991
 31
0.0
  0
LINE
  5
16E
  8
DATA
  6
CONTINUOUS
 62
     7
 10
-1482.274
 20
-217.7259999999992
 30
0.0
 11
-1478.972000000001
 21
-217.7259999999992
 31
0.0
  0
LINE
  5
16F
  8
DATA
  6
CONTINUOUS
 62
     7
 10
-1478.972000000001
 20
-223.3139999999989
 30
0.0
 11
-1482.274
 21
-223.3139999999989
 31
0.0
  0
LINE
  5
170
  8
DATA
  6
CONTINUOUS
 62
     7
 10
-1484.052
 20
-220.5199999999991
 30
0.0
 11
-1482.274
 21
-217.7259999999992
 31
0.0
  0
LINE
  5
171
  8
DATA
  6
CONTINUOUS
 62
     7
 10
-1477.194
 20
-220.5199999999991
 30
0.0
 11
-1478.972000000001
 21
-223.3139999999989
 31
0.0
  0
CIRCLE
  5
172
  8
DATA
  6
CONTINUOUS
 62
     7
 10
-1480.75
 20
-220.5199999999991
 30
0.0
 40
11.17600000000039
  0
LINE
  5
173
  8
DATA
  6
CONTINUOUS
 62
     7
 10
-1478.972000000001
 20
-217.7259999999992
 30
0.0
 11
-1477.194
 21
-220.5199999999991
 31
0.0
  0
LINE
  5
174
  8
DATA
  6
CONTINUOUS
 62
     7
 10
-1482.274
 20
-223.3139999999989
 30
0.0
 11
-1484.052
 21
-220.5199999999991
 31
0.0
  0
LINE
  5
175
  8
DATA
  6
CONTINUOUS
 62
     7
 10
-1482.274
 20
-217.7259999999992
 30
0.0
 11
-1478.972000000001
 21
-217.7259999999992
 31
0.0
  0
LINE
  5
176
  8
DATA
  6
CONTINUOUS
 62
     7
 10
-1478.972000000001
 20
-223.3139999999989
 30
0.0
 11
-1482.274
 21
-223.3139999999989
 31
0.0
  0
LINE
  5
177
  8
DATA
  6
CONTINUOUS
 62
     7
 10
-1484.052
 20
-220.5199999999991
 30
0.0
 11
-1482.274
 21
-217.7259999999992
 31
0.0
  0
LINE
  5
178
  8
DATA
  6
CONTINUOUS
 62
     7
 10
-1477.194
 20
-220.5199999999991
 30
0.0
 11
-1478.972000000001
 21
-223.3139999999989
 31
0.0
  0
LINE
  5
179
  8
DATA
  6
CONTINUOUS
 62
     7
 10
-1077.671775051547
 20
-185.9294725258101
 30
0.0
 11
-1187.861979097552
 21
181.353605198498
 31
0.0
  0
LINE
  5
17A
  8
DATA
  6
CONTINUOUS
 62
     7
 10
-1090.460887525774
 20
-188.5404797145193
 30
0.0
 11
-1198.603254808583
 21
171.9168025992495
 31
0.0
  0
CIRCLE
  5
17B
  8
DATA
  6
CONTINUOUS
 62
     7
 10
-1119.25
 20
-220.5199999999991
 30
0.0
 40
11.17600000000039
  0
LINE
  5
17C
  8
DATA
  6
CONTINUOUS
 62
     7
 10
-1117.472000000001
 20
-217.7259999999992
 30
0.0
 11
-1115.694
 21
-220.5199999999991
 31
0.0
  0
LINE
  5
17D
  8
DATA
  6
CONTINUOUS
 62
     7
 10
-1120.774
 20
-223.3139999999989
 30
0.0
 11
-1122.552
 21
-220.5199999999991
 31
0.0
  0
LINE
  5
17E
  8
DATA
  6
CONTINUOUS
 62
     7
 10
-1120.774
 20
-217.7259999999992
 30
0.0
 11
-1117.472000000001
 21
-217.7259999999992
 31
0.0
  0
LINE
  5
17F
  8
DATA
  6
CONTINUOUS
 62
     7
 10
-1117.472000000001
 20
-223.3139999999989
 30
0.0
 11
-1120.774
 21
-223.3139999999989
 31
0.0
  0
LINE
  5
180
  8
DATA
  6
CONTINUOUS
 62
     7
 10
-1122.552
 20
-220.5199999999991
 30
0.0
 11
-1120.774
 21
-217.7259999999992
 31
0.0
  0
LINE
  5
181
  8
DATA
  6
CONTINUOUS
 62
     7
 10
-1115.694
 20
-220.5199999999991
 30
0.0
 11
-1117.472000000001
 21
-223.3139999999989
 31
0.0
  0
CIRCLE
  5
182
  8
DATA
  6
CONTINUOUS
 62
     7
 10
-1119.25
 20
-220.5199999999991
 30
0.0
 40
11.17600000000039
  0
LINE
  5
183
  8
DATA
  6
CONTINUOUS
 62
     7
 10
-1117.472000000001
 20
-217.7259999999992
 30
0.0
 11
-1115.694
 21
-220.5199999999991
 31
0.0
  0
LINE
  5
184
  8
DATA
  6
CONTINUOUS
 62
     7
 10
-1120.774
 20
-223.3139999999989
 30
0.0
 11
-1122.552
 21
-220.5199999999991
 31
0.0
  0
LINE
  5
185
  8
DATA
  6
CONTINUOUS
 62
     7
 10
-1120.774
 20
-217.7259999999992
 30
0.0
 11
-1117.472000000001
 21
-217.7259999999992
 31
0.0
  0
LINE
  5
186
  8
DATA
  6
CONTINUOUS
 62
     7
 10
-1117.472000000001
 20
-223.3139999999989
 30
0.0
 11
-1120.774
 21
-223.3139999999989
 31
0.0
  0
LINE
  5
187
  8
DATA
  6
CONTINUOUS
 62
     7
 10
-1122.552
 20
-220.5199999999991
 30
0.0
 11
-1120.774
 21
-217.7259999999992
 31
0.0
  0
LINE
  5
188
  8
DATA
  6
CONTINUOUS
 62
     7
 10
-1115.694
 20
-220.5199999999991
 30
0.0
 11
-1117.472000000001
 21
-223.3139999999989
 31
0.0
  0
ARC
  5
189
  8
DATA
  6
CONTINUOUS
 62
     7
 10
-1087.25
 20
-188.8030777243071
 30
0.0
 40
10.0
 50
359.9999999999987
 51
16.69999999999987
  0
ARC
  5
18A
  8
DATA
  6
CONTINUOUS
 62
     7
 10
-1197.440204046005
 20
178.4800000000009
 30
0.0
 40
10.0000000000005
 50
16.69999999999903
 51
90.0
  0
ARC
  5
18B
  8
DATA
  6
CONTINUOUS
 62
     7
 10
-1203.39236728281
 20
170.4800000000009
 30
0.0
 40
4.999999999999833
 50
16.70000000000115
 51
90.0
  0
ARC
  5
18C
  8
DATA
  6
CONTINUOUS
 62
     7
 10
-1095.25
 20
-189.9772823137669
 30
0.0
 40
5.0
 50
359.9999999999895
 51
16.69999999998987
  0
LINE
  5
18D
  8
DATA
  6
CONTINUOUS
 62
     7
 10
-1522.75
 20
-294.9887989167902
 30
0.0
 11
-1522.75
 21
-188.8030777243073
 31
0.0
  0
LINE
  5
18E
  8
DATA
  6
CONTINUOUS
 62
     7
 10
-1509.75
 20
-289.8922368303301
 30
0.0
 11
-1509.75
 21
-189.9772823137678
 31
0.0
  0
LINE
  5
18F
  8
DATA
  6
CONTINUOUS
 62
     7
 10
-1522.328224948453
 20
-185.9294725258101
 30
0.0
 11
-1412.138020902448
 21
181.353605198498
 31
0.0
  0
LINE
  5
190
  8
DATA
  6
CONTINUOUS
 62
     7
 10
-1509.539112474226
 20
-188.5404797145193
 30
0.0
 11
-1401.396745191417
 21
171.9168025992495
 31
0.0
  0
ARC
  5
191
  8
DATA
  6
CONTINUOUS
 62
     7
 10
-1512.75
 20
-188.8030777243071
 30
0.0
 40
10.00000000000004
 50
163.3000000000009
 51
180.0000000000013
  0
ARC
  5
192
  8
DATA
  6
CONTINUOUS
 62
     7
 10
-1504.75
 20
-189.9772823137669
 30
0.0
 40
4.999999999999539
 50
163.3000000000101
 51
180.0000000000104
  0
ARC
  5
193
  8
DATA
  6
CONTINUOUS
 62
     7
 10
-1396.60763271719
 20
170.4800000000008
 30
0.0
 40
5.000000000000114
 50
90.0
 51
163.2999999999976
  0
ARC
  5
194
  8
DATA
  6
CONTINUOUS
 62
     7
 10
-1402.559795953995
 20
178.4800000000008
 30
0.0
 40
10.00000000000011
 50
90.0
 51
163.3000000000004
  0
LINE
  5
195
  8
DATA
  6
CONTINUOUS
 62
     7
 10
-1522.75
 20
-1439.999999999999
 30
0.0
 11
-1522.75
 21
-525.9999999999991
 31
0.0
  0
LINE
  5
196
  8
DATA
  6
CONTINUOUS
 62
     7
 10
-1087.25
 20
-1449.999999999999
 30
0.0
 11
-1512.75
 21
-1449.999999999999
 31
0.0
  0
LINE
  5
197
  8
DATA
  6
CONTINUOUS
 62
     7
 10
-1077.25
 20
-525.9999999999991
 30
0.0
 11
-1077.25
 21
-1439.999999999999
 31
0.0
  0
LINE
  5
198
  8
DATA
  6
CONTINUOUS
 62
     7
 10
-1512.75
 20
-515.9999999999991
 30
0.0
 11
-1087.25
 21
-515.9999999999991
 31
0.0
  0
LINE
  5
199
  8
DATA
  6
CONTINUOUS
 62
     7
 10
-1512.75
 20
-533.7499999999991
 30
0.0
 11
-1087.25
 21
-533.7499999999991
 31
0.0
  0
LINE
  5
19A
  8
DATA
  6
CONTINUOUS
 62
     7
 10
-1512.75
 20
-1432.249999999999
 30
0.0
 11
-1087.25
 21
-1432.249999999999
 31
0.0
  0
LINE
  5
19B
  8
DATA
  6
CONTINUOUS
 62
     7
 10
-1512.75
 20
-1432.249999999999
 30
0.0
 11
-1512.75
 21
-533.7499999999991
 31
0.0
  0
LINE
  5
19C
  8
DATA
  6
CONTINUOUS
 62
     7
 10
-1087.25
 20
-533.7499999999991
 30
0.0
 11
-1087.25
 21
-1432.249999999999
 31
0.0
  0
LINE
  5
19D
  8
DATA
  6
CONTINUOUS
 62
     7
 10
-1431.97330098504
 20
-515.9999999999991
 30
0.0
 11
-1431.97330098504
 21
-1449.999999999999
 31
0.0
  0
POLYLINE
  5
19E
  8
DATA
  6
CONTINUOUS
 62
     7
 66
     1
 10
0.0
 20
0.0
 30
0.0
 70
     1
  0
VERTEX
  5
806
  8
DATA
  6
CONTINUOUS
 62
     7
 10
-1319.0
 20
-1255.999999999999
 30
0.0
  0
VERTEX
  5
807
  8
DATA
  6
CONTINUOUS
 62
     7
 10
-1281.0
 20
-1255.999999999999
 30
0.0
  0
VERTEX
  5
808
  8
DATA
  6
CONTINUOUS
 62
     7
 10
-1281.0
 20
-1285.999999999999
 30
0.0
  0
VERTEX
  5
809
  8
DATA
  6
CONTINUOUS
 62
     7
 10
-1319.0
 20
-1285.999999999999
 30
0.0
  0
SEQEND
  5
80C
  8
DATA
  6
CONTINUOUS
 62
     7
  0
ARC
  5
1A5
  8
DATA
  6
CONTINUOUS
 62
     7
 10
-1300.0
 20
-1275.198672673423
 30
0.0
 40
0.4462963607459112
 50
307.6419024975729
 51
354.2670192894174
  0
LINE
  5
1A6
  8
DATA
  6
CONTINUOUS
 62
     7
 10
-1311.463663909002
 20
-1268.165764336711
 30
0.0
 11
-1309.371419909003
 21
-1263.180532336711
 31
0.0
  0
LINE
  5
1A7
  8
DATA
  6
CONTINUOUS
 62
     7
 10
-1311.463663909002
 20
-1268.165764336711
 30
0.0
 11
-1313.530091909002
 21
-1263.180532336711
 31
0.0
  0
LINE
  5
1A8
  8
DATA
  6
CONTINUOUS
 62
     7
 10
-1295.603903909003
 20
-1277.180532336711
 30
0.0
 11
-1295.603903909003
 21
-1263.180532336711
 31
0.0
  0
LINE
  5
1A9
  8
DATA
  6
CONTINUOUS
 62
     7
 10
-1292.917555909003
 20
-1263.180532336711
 30
0.0
 11
-1292.917555909003
 21
-1275.036628336711
 31
0.0
  0
LINE
  5
1AA
  8
DATA
  6
CONTINUOUS
 62
     7
 10
-1308.389865909003
 20
-1263.180532336711
 30
0.0
 11
-1308.389865909003
 21
-1275.036628336711
 31
0.0
  0
LINE
  5
1AB
  8
DATA
  6
CONTINUOUS
 62
     7
 10
-1305.806837909003
 20
-1263.180532336711
 30
0.0
 11
-1305.806837909003
 21
-1275.036628336711
 31
0.0
  0
LINE
  5
1AC
  8
DATA
  6
CONTINUOUS
 62
     7
 10
-1304.463663909002
 20
-1263.180532336711
 30
0.0
 11
-1304.463663909002
 21
-1277.180532336711
 31
0.0
  0
LINE
  5
1AD
  8
DATA
  6
CONTINUOUS
 62
     7
 10
-1302.113105909002
 20
-1264.497862336711
 30
0.0
 11
-1302.113105909002
 21
-1268.992338336711
 31
0.0
  0
LINE
  5
1AE
  8
DATA
  6
CONTINUOUS
 62
     7
 10
-1297.075093909003
 20
-1268.732274336711
 30
0.0
 11
-1297.075093909003
 21
-1265.453600336711
 31
0.0
  0
LINE
  5
1AF
  8
DATA
  6
CONTINUOUS
 62
     7
 10
-1299.555935909002
 20
-1265.117796336711
 30
0.0
 11
-1299.555935909002
 21
-1268.372418336711
 31
0.0
  0
ARC
  5
1B0
  8
DATA
  6
CONTINUOUS
 62
     7
 10
-1308.908201909002
 20
-1273.585612336711
 30
0.0
 40
3.610394795235051
 50
264.6908562215336
 51
323.9911991542304
  0
LINE
  5
1B1
  8
DATA
  6
CONTINUOUS
 62
     7
 10
-1310.352959909002
 20
-1272.789376336711
 30
0.0
 11
-1310.352959909002
 21
-1275.036600336711
 31
0.0
  0
LINE
  5
1B2
  8
DATA
  6
CONTINUOUS
 62
     7
 10
-1310.352959909002
 20
-1272.789376336711
 30
0.0
 11
-1312.677687909003
 21
-1272.789376336711
 31
0.0
  0
LINE
  5
1B3
  8
DATA
  6
CONTINUOUS
 62
     7
 10
-1312.677687909003
 20
-1272.789376336711
 30
0.0
 11
-1312.677687909003
 21
-1275.036600336711
 31
0.0
  0
ARC
  5
1B4
  8
DATA
  6
CONTINUOUS
 62
     7
 10
-1309.366491909002
 20
-1275.066896336711
 30
0.0
 40
0.9771003567389056
 50
269.7118487927448
 51
1.775987005694276
  0
ARC
  5
1B5
  8
DATA
  6
CONTINUOUS
 62
     7
 10
-1309.376333909003
 20
-1275.066896336711
 30
0.0
 40
0.9770953604430584
 50
178.2240129943164
 51
270.2881512072898
  0
ARC
  5
1B6
  8
DATA
  6
CONTINUOUS
 62
     7
 10
-1309.576323909003
 20
-1273.585612336711
 30
0.0
 40
3.610388931724527
 50
216.0088008457652
 51
275.3091437784719
  0
ARC
  5
1B7
  8
DATA
  6
CONTINUOUS
 62
     7
 10
-1311.046071909002
 20
-1274.957458336711
 30
0.0
 40
1.633520291446133
 50
182.7769954499883
 51
207.3596066671429
  0
CIRCLE
  5
1B8
  8
DATA
  6
CONTINUOUS
 62
     7
 10
-1311.321591909003
 20
-1270.103042336711
 30
0.0
 40
1.330251999999746
  0
LINE
  5
1B9
  8
DATA
  6
CONTINUOUS
 62
     7
 10
-1288.603903909003
 20
-1277.180518336711
 30
0.0
 11
-1295.603903909003
 21
-1277.180518336711
 31
0.0
  0
LINE
  5
1BA
  8
DATA
  6
CONTINUOUS
 62
     7
 10
-1288.603903909003
 20
-1277.180518336711
 30
0.0
 11
-1288.603903909003
 21
-1272.789362336711
 31
0.0
  0
LINE
  5
1BB
  8
DATA
  6
CONTINUOUS
 62
     7
 10
-1288.603903909003
 20
-1272.789376336711
 30
0.0
 11
-1290.954447909003
 21
-1272.789376336711
 31
0.0
  0
LINE
  5
1BC
  8
DATA
  6
CONTINUOUS
 62
     7
 10
-1290.954447909003
 20
-1272.789376336711
 30
0.0
 11
-1290.954447909003
 21
-1275.036600336711
 31
0.0
  0
LINE
  5
1BD
  8
DATA
  6
CONTINUOUS
 62
     7
 10
-1304.463663909002
 20
-1277.180518336711
 30
0.0
 11
-1299.555935909002
 21
-1277.180504336711
 31
0.0
  0
LINE
  5
1BE
  8
DATA
  6
CONTINUOUS
 62
     7
 10
-1302.113119909002
 20
-1275.863174336711
 30
0.0
 11
-1300.847435909002
 21
-1275.863174336711
 31
0.0
  0
LINE
  5
1BF
  8
DATA
  6
CONTINUOUS
 62
     7
 10
-1302.113105909002
 20
-1275.863174336711
 30
0.0
 11
-1302.113105909002
 21
-1270.335498336711
 31
0.0
  0
LINE
  5
1C0
  8
DATA
  6
CONTINUOUS
 62
     7
 10
-1302.113119909002
 20
-1270.335498336711
 30
0.0
 11
-1300.847435909002
 21
-1270.335498336711
 31
0.0
  0
LINE
  5
1C1
  8
DATA
  6
CONTINUOUS
 62
     7
 10
-1299.555935909002
 20
-1275.243254336711
 30
0.0
 11
-1299.555935909002
 21
-1270.955418336711
 31
0.0
  0
ARC
  5
1C2
  8
DATA
  6
CONTINUOUS
 62
     7
 10
-1307.438453909002
 20
-1274.957458336711
 30
0.0
 40
1.633517967010753
 50
332.6403933328453
 51
357.2230045500024
  0
ARC
  5
1C3
  8
DATA
  6
CONTINUOUS
 62
     7
 10
-1291.931087909003
 20
-1275.066896336711
 30
0.0
 40
0.9771003567389056
 50
269.7118487927448
 51
1.775987005692627
  0
ARC
  5
1C4
  8
DATA
  6
CONTINUOUS
 62
     7
 10
-1291.940915909003
 20
-1275.066896336711
 30
0.0
 40
0.9770953604430584
 50
178.2240129943164
 51
270.2881512072365
  0
LINE
  5
1C5
  8
DATA
  6
CONTINUOUS
 62
     7
 10
-1297.076227909003
 20
-1274.933280336711
 30
0.0
 11
-1297.076227909003
 21
-1271.213732336711
 31
0.0
  0
LINE
  5
1C6
  8
DATA
  6
CONTINUOUS
 62
     7
 10
-1302.113119909002
 20
-1268.992338336711
 30
0.0
 11
-1300.847435909002
 21
-1268.992338336711
 31
0.0
  0
ARC
  5
1C7
  8
DATA
  6
CONTINUOUS
 62
     7
 10
-1299.733903909002
 20
-1274.522800336711
 30
0.0
 40
2.663655976405099
 50
273.8309816091145
 51
351.1351473098002
  0
LINE
  5
1C8
  8
DATA
  6
CONTINUOUS
 62
     7
 10
-1308.389865909003
 20
-1263.180532336711
 30
0.0
 11
-1305.806837909003
 21
-1263.180532336711
 31
0.0
  0
LINE
  5
1C9
  8
DATA
  6
CONTINUOUS
 62
     7
 10
-1313.530091909002
 20
-1263.180532336711
 30
0.0
 11
-1309.371419909003
 21
-1263.180532336711
 31
0.0
  0
LINE
  5
1CA
  8
DATA
  6
CONTINUOUS
 62
     7
 10
-1295.603903909003
 20
-1263.180532336711
 30
0.0
 11
-1292.917555909003
 21
-1263.180532336711
 31
0.0
  0
LINE
  5
1CB
  8
DATA
  6
CONTINUOUS
 62
     7
 10
-1304.463663909002
 20
-1263.180532336711
 30
0.0
 11
-1299.528957729597
 21
-1263.180543667948
 31
0.0
  0
LINE
  5
1CC
  8
DATA
  6
CONTINUOUS
 62
     7
 10
-1302.113119909002
 20
-1264.497876336711
 30
0.0
 11
-1300.847435909002
 21
-1264.497876336711
 31
0.0
  0
ARC
  5
1CD
  8
DATA
  6
CONTINUOUS
 62
     7
 10
-1299.707345909002
 20
-1265.834176336711
 30
0.0
 40
2.659621906075527
 50
8.226923859013135
 51
86.15412669215198
  0
ARC
  5
1CE
  8
DATA
  6
CONTINUOUS
 62
     7
 10
-1300.832490261358
 20
-1273.408011191889
 30
0.0
 40
2.45520863473457
 50
269.6512199376128
 51
282.8264828068773
  0
ARC
  5
1CF
  8
DATA
  6
CONTINUOUS
 62
     7
 10
-1300.556731470549
 20
-1274.446024772429
 30
0.0
 40
1.382413065170816
 50
281.2331036226942
 51
306.8620088940675
  0
ARC
  5
1D0
  8
DATA
  6
CONTINUOUS
 62
     7
 10
-1300.0
 20
-1270.999999999999
 30
0.0
 40
0.4462963607462416
 50
5.732980710582587
 51
52.35809750242716
  0
ARC
  5
1D1
  8
DATA
  6
CONTINUOUS
 62
     7
 10
-1300.832490261358
 20
-1272.790661481533
 30
0.0
 40
2.455208634734332
 50
77.17351719312146
 51
90.34878006238719
  0
ARC
  5
1D2
  8
DATA
  6
CONTINUOUS
 62
     7
 10
-1300.556731470549
 20
-1271.752647900993
 30
0.0
 40
1.38241306517064
 50
53.13799110592124
 51
78.76689637730207
  0
ARC
  5
1D3
  8
DATA
  6
CONTINUOUS
 62
     7
 10
-1298.430979909002
 20
-1271.305306336711
 30
0.0
 40
1.357843429478545
 50
3.867006359825574
 51
88.36163456787905
  0
ARC
  5
1D4
  8
DATA
  6
CONTINUOUS
 62
     7
 10
-1298.432225909002
 20
-1268.589418336711
 30
0.0
 40
1.359192715926854
 50
271.6892821046201
 51
356.0782829826514
  0
ARC
  5
1D5
  8
DATA
  6
CONTINUOUS
 62
     7
 10
-1300.0
 20
-1268.327836673423
 30
0.0
 40
0.4462963607459112
 50
307.6419024975729
 51
354.2670192893768
  0
ARC
  5
1D6
  8
DATA
  6
CONTINUOUS
 62
     7
 10
-1300.832490261358
 20
-1266.537175191889
 30
0.0
 40
2.455208634734342
 50
269.6512199376128
 51
282.8264828068785
  0
ARC
  5
1D7
  8
DATA
  6
CONTINUOUS
 62
     7
 10
-1300.556731470549
 20
-1267.575188772429
 30
0.0
 40
1.382413065170816
 50
281.2331036226942
 51
306.8620088940675
  0
ARC
  5
1D8
  8
DATA
  6
CONTINUOUS
 62
     7
 10
-1300.0
 20
-1265.162377999999
 30
0.0
 40
0.446296360746287
 50
5.732980710640677
 51
52.35809750244498
  0
ARC
  5
1D9
  8
DATA
  6
CONTINUOUS
 62
     7
 10
-1300.832490261358
 20
-1266.953039481533
 30
0.0
 40
2.455208634734332
 50
77.17351719312146
 51
90.3487800623872
  0
ARC
  5
1DA
  8
DATA
  6
CONTINUOUS
 62
     7
 10
-1300.556731470549
 20
-1265.915025900993
 30
0.0
 40
1.382413065170822
 50
53.1379911059269
 51
78.76689637730391
  0
LINE
  5
1DB
  8
DATA
  6
CONTINUOUS
 62
     7
 10
-1499.5
 20
-1453.499999999999
 30
0.0
 11
-1499.5
 21
-1449.999999999999
 31
0.0
  0
LINE
  5
1DC
  8
DATA
  6
CONTINUOUS
 62
     7
 10
-1461.5
 20
-1453.499999999999
 30
0.0
 11
-1461.5
 21
-1449.999999999999
 31
0.0
  0
LINE
  5
1DD
  8
DATA
  6
CONTINUOUS
 62
     7
 10
-1461.5
 20
-1453.499999999999
 30
0.0
 11
-1499.5
 21
-1453.499999999999
 31
0.0
  0
LINE
  5
1DE
  8
DATA
  6
CONTINUOUS
 62
     7
 10
-1401.25
 20
-1453.499999999999
 30
0.0
 11
-1401.25
 21
-1449.999999999999
 31
0.0
  0
LINE
  5
1DF
  8
DATA
  6
CONTINUOUS
 62
     7
 10
-1363.25
 20
-1453.499999999999
 30
0.0
 11
-1363.25
 21
-1449.999999999999
 31
0.0
  0
LINE
  5
1E0
  8
DATA
  6
CONTINUOUS
 62
     7
 10
-1363.25
 20
-1453.499999999999
 30
0.0
 11
-1401.25
 21
-1453.499999999999
 31
0.0
  0
LINE
  5
1E1
  8
DATA
  6
CONTINUOUS
 62
     7
 10
-1138.5
 20
-1453.499999999999
 30
0.0
 11
-1138.5
 21
-1449.999999999999
 31
0.0
  0
LINE
  5
1E2
  8
DATA
  6
CONTINUOUS
 62
     7
 10
-1100.5
 20
-1453.499999999999
 30
0.0
 11
-1100.5
 21
-1449.999999999999
 31
0.0
  0
LINE
  5
1E3
  8
DATA
  6
CONTINUOUS
 62
     7
 10
-1100.5
 20
-1453.499999999999
 30
0.0
 11
-1138.5
 21
-1453.499999999999
 31
0.0
  0
ARC
  5
1E4
  8
DATA
  6
CONTINUOUS
 62
     7
 10
-1512.75
 20
-525.9999999999991
 30
0.0
 40
10.0
 50
90.0
 51
180.0
  0
ARC
  5
1E5
  8
DATA
  6
CONTINUOUS
 62
     7
 10
-1087.25
 20
-525.9999999999991
 30
0.0
 40
10.0
 50
0.0
 51
90.0
  0
LINE
  5
1E6
  8
DATA
  6
CONTINUOUS
 62
     7
 10
-1168.02669901496
 20
-515.9999999999991
 30
0.0
 11
-1168.02669901496
 21
-1449.999999999999
 31
0.0
  0
ARC
  5
1E7
  8
DATA
  6
CONTINUOUS
 62
     7
 10
-1512.75
 20
-1439.999999999999
 30
0.0
 40
10.0
 50
180.0
 51
270.0
  0
ARC
  5
1E8
  8
DATA
  6
CONTINUOUS
 62
     7
 10
-1087.25
 20
-1439.999999999999
 30
0.0
 40
10.0
 50
270.0
 51
0.0
  0
CIRCLE
  5
1E9
  8
DATA
  6
CONTINUOUS
 62
     7
 10
-1503.25
 20
-982.9999999999991
 30
0.0
 40
4.000000000000032
  0
LINE
  5
1EA
  8
DATA
  6
CONTINUOUS
 62
     7
 10
-1505.75
 20
-982.9999999999991
 30
0.0
 11
-1500.75
 21
-982.9999999999991
 31
0.0
  0
LINE
  5
1EB
  8
DATA
  6
CONTINUOUS
 62
     7
 10
-1503.25
 20
-985.4999999999991
 30
0.0
 11
-1503.25
 21
-980.4999999999991
 31
0.0
  0
CIRCLE
  5
1EC
  8
DATA
  6
CONTINUOUS
 62
     7
 10
-1096.75
 20
-982.9999999999991
 30
0.0
 40
4.000000000000353
  0
LINE
  5
1ED
  8
DATA
  6
CONTINUOUS
 62
     7
 10
-1094.25
 20
-982.9999999999991
 30
0.0
 11
-1099.25
 21
-982.9999999999991
 31
0.0
  0
LINE
  5
1EE
  8
DATA
  6
CONTINUOUS
 62
     7
 10
-1096.75
 20
-985.4999999999991
 30
0.0
 11
-1096.75
 21
-980.4999999999991
 31
0.0
  0
LINE
  5
1EF
  8
DATA
  6
CONTINUOUS
 62
     7
 10
-1198.75
 20
-1453.499999999999
 30
0.0
 11
-1198.75
 21
-1449.999999999999
 31
0.0
  0
LINE
  5
1F0
  8
DATA
  6
CONTINUOUS
 62
     7
 10
-1236.75
 20
-1453.499999999999
 30
0.0
 11
-1236.75
 21
-1449.999999999999
 31
0.0
  0
LINE
  5
1F1
  8
DATA
  6
CONTINUOUS
 62
     7
 10
-1236.75
 20
-1453.499999999999
 30
0.0
 11
-1198.75
 21
-1453.499999999999
 31
0.0
  0
LINE
  5
1F2
  8
DATA
  6
CONTINUOUS
 62
     7
 10
-1025.0
 20
-1439.999999999999
 30
0.0
 11
-1025.0
 21
-525.9999999999991
 31
0.0
  0
LINE
  5
1F3
  8
DATA
  6
CONTINUOUS
 62
     7
 10
-496.5200000000004
 20
-1449.999999999999
 30
0.0
 11
-1015.0
 21
-1449.999999999999
 31
0.0
  0
LINE
  5
1F4
  8
DATA
  6
CONTINUOUS
 62
     7
 10
-486.5200000000004
 20
-525.9999999999991
 30
0.0
 11
-486.5200000000004
 21
-1439.999999999999
 31
0.0
  0
LINE
  5
1F5
  8
DATA
  6
CONTINUOUS
 62
     7
 10
-1015.0
 20
-515.9999999999991
 30
0.0
 11
-496.5200000000004
 21
-515.9999999999991
 31
0.0
  0
ARC
  5
1F6
  8
DATA
  6
CONTINUOUS
 62
     7
 10
-1015.0
 20
-1439.999999999999
 30
0.0
 40
10.0
 50
180.0
 51
270.0
  0
ARC
  5
1F7
  8
DATA
  6
CONTINUOUS
 62
     7
 10
-496.5200000000004
 20
-1439.999999999999
 30
0.0
 40
10.0
 50
270.0
 51
0.0
  0
LINE
  5
1F8
  8
DATA
  6
CONTINUOUS
 62
     7
 10
-976.3595015248666
 20
-533.7499999999991
 30
0.0
 11
-1025.0
 21
-533.7499999999991
 31
0.0
  0
LINE
  5
1F9
  8
DATA
  6
CONTINUOUS
 62
     7
 10
-976.3595015248666
 20
-1432.249999999999
 30
0.0
 11
-1025.0
 21
-1432.249999999999
 31
0.0
  0
CIRCLE
  5
1FA
  8
DATA
  6
CONTINUOUS
 62
     7
 10
-895.5200000000004
 20
-557.9999999999991
 30
0.0
 40
11.17600000000039
  0
LINE
  5
1FB
  8
DATA
  6
CONTINUOUS
 62
     7
 10
-893.7420000000002
 20
-555.2059999999992
 30
0.0
 11
-891.9639999999999
 21
-557.9999999999991
 31
0.0
  0
LINE
  5
1FC
  8
DATA
  6
CONTINUOUS
 62
     7
 10
-897.0439999999999
 20
-560.793999999999
 30
0.0
 11
-898.8220000000001
 21
-557.9999999999991
 31
0.0
  0
LINE
  5
1FD
  8
DATA
  6
CONTINUOUS
 62
     7
 10
-897.0439999999999
 20
-555.2059999999992
 30
0.0
 11
-893.7420000000002
 21
-555.2059999999992
 31
0.0
  0
LINE
  5
1FE
  8
DATA
  6
CONTINUOUS
 62
     7
 10
-893.7420000000002
 20
-560.793999999999
 30
0.0
 11
-897.0439999999999
 21
-560.793999999999
 31
0.0
  0
LINE
  5
1FF
  8
DATA
  6
CONTINUOUS
 62
     7
 10
-898.8220000000001
 20
-557.9999999999991
 30
0.0
 11
-897.0439999999999
 21
-555.2059999999992
 31
0.0
  0
LINE
  5
200
  8
DATA
  6
CONTINUOUS
 62
     7
 10
-891.9639999999999
 20
-557.9999999999991
 30
0.0
 11
-893.7420000000002
 21
-560.793999999999
 31
0.0
  0
LINE
  5
201
  8
DATA
  6
CONTINUOUS
 62
     7
 10
-893.7420000000002
 20
-1410.793999999999
 30
0.0
 11
-891.9639999999999
 21
-1407.999999999999
 31
0.0
  0
LINE
  5
202
  8
DATA
  6
CONTINUOUS
 62
     7
 10
-897.0439999999999
 20
-1405.205999999999
 30
0.0
 11
-898.8220000000001
 21
-1407.999999999999
 31
0.0
  0
LINE
  5
203
  8
DATA
  6
CONTINUOUS
 62
     7
 10
-897.0439999999999
 20
-1410.793999999999
 30
0.0
 11
-893.7420000000002
 21
-1410.793999999999
 31
0.0
  0
LINE
  5
204
  8
DATA
  6
CONTINUOUS
 62
     7
 10
-893.7420000000002
 20
-1405.205999999999
 30
0.0
 11
-897.0439999999999
 21
-1405.205999999999
 31
0.0
  0
LINE
  5
205
  8
DATA
  6
CONTINUOUS
 62
     7
 10
-898.8220000000001
 20
-1407.999999999999
 30
0.0
 11
-897.0439999999999
 21
-1410.793999999999
 31
0.0
  0
LINE
  5
206
  8
DATA
  6
CONTINUOUS
 62
     7
 10
-891.9639999999999
 20
-1407.999999999999
 30
0.0
 11
-893.7420000000002
 21
-1405.205999999999
 31
0.0
  0
CIRCLE
  5
207
  8
DATA
  6
CONTINUOUS
 62
     7
 10
-895.5200000000004
 20
-1407.999999999999
 30
0.0
 40
11.17600000000039
  0
ARC
  5
208
  8
DATA
  6
CONTINUOUS
 62
     7
 10
-1015.0
 20
-525.9999999999991
 30
0.0
 40
10.0
 50
90.0
 51
180.0
  0
ARC
  5
209
  8
DATA
  6
CONTINUOUS
 62
     7
 10
-496.5200000000004
 20
-525.9999999999991
 30
0.0
 40
10.0
 50
0.0
 51
90.0
  0
LINE
  5
20A
  8
DATA
  6
CONTINUOUS
 62
     7
 10
-976.3595015248666
 20
-1432.249999999999
 30
0.0
 11
-976.3595015248666
 21
-533.7499999999991
 31
0.0
  0
LINE
  5
20B
  8
DATA
  6
CONTINUOUS
 62
     7
 10
-862.3353219874816
 20
-1449.999999999999
 30
0.0
 11
-862.3353219874816
 21
-515.9999999999991
 31
0.0
  0
LINE
  5
20C
  8
DATA
  6
CONTINUOUS
 62
     7
 10
-966.5200000000004
 20
-1453.499999999999
 30
0.0
 11
-966.5200000000004
 21
-1449.999999999999
 31
0.0
  0
LINE
  5
20D
  8
DATA
  6
CONTINUOUS
 62
     7
 10
-928.5200000000004
 20
-1453.499999999999
 30
0.0
 11
-928.5200000000004
 21
-1449.999999999999
 31
0.0
  0
LINE
  5
20E
  8
DATA
  6
CONTINUOUS
 62
     7
 10
-928.5200000000004
 20
-1453.499999999999
 30
0.0
 11
-966.5200000000004
 21
-1453.499999999999
 31
0.0
  0
LINE
  5
20F
  8
DATA
  6
CONTINUOUS
 62
     7
 10
-547.5200000000004
 20
-1453.499999999999
 30
0.0
 11
-547.5200000000004
 21
-1449.999999999999
 31
0.0
  0
LINE
  5
210
  8
DATA
  6
CONTINUOUS
 62
     7
 10
-509.5200000000004
 20
-1453.499999999999
 30
0.0
 11
-509.5200000000004
 21
-1449.999999999999
 31
0.0
  0
LINE
  5
211
  8
DATA
  6
CONTINUOUS
 62
     7
 10
-509.5200000000004
 20
-1453.499999999999
 30
0.0
 11
-547.5200000000004
 21
-1453.499999999999
 31
0.0
  0
ARC
  5
212
  8
DATA
  6
CONTINUOUS
 62
     7
 10
-810.063482167996
 20
-770.1047955629524
 30
0.0
 40
4.400000000000109
 50
179.1881395399583
 51
270.0
  0
ARC
  5
213
  8
DATA
  6
CONTINUOUS
 62
     7
 10
-695.4874211357537
 20
-770.1047955629524
 30
0.0
 40
4.400000000000091
 50
270.0
 51
0.8118604600417144
  0
ARC
  5
214
  8
DATA
  6
CONTINUOUS
 62
     7
 10
-699.4257880384703
 20
-703.9047955629526
 30
0.0
 40
4.399999999999746
 50
5.997388777063151
 51
90.0
  0
ARC
  5
215
  8
DATA
  6
CONTINUOUS
 62
     7
 10
-77.13865247444664
 20
-780.4907702535043
 30
0.0
 40
737.3984136760404
 50
174.0463394601275
 51
179.1753993446378
  0
ARC
  5
216
  8
DATA
  6
CONTINUOUS
 62
     7
 10
-102.1691312058001
 20
-779.4616240855316
 30
0.0
 40
720.0057933238888
 50
173.9843384552112
 51
179.2195144698897
  0
ARC
  5
217
  8
DATA
  6
CONTINUOUS
 62
     7
 10
-113.3799452169933
 20
-779.5047955629527
 30
0.0
 40
723.2407045190533
 50
172.8584026101602
 51
187.2486885208542
  0
LINE
  5
218
  8
DATA
  6
CONTINUOUS
 62
     7
 10
-688.0430957380604
 20
-882.5047955629525
 30
0.0
 11
-817.5078075656893
 21
-882.5047955629525
 31
0.0
  0
LINE
  5
219
  8
DATA
  6
CONTINUOUS
 62
     7
 10
-700.2464269022648
 20
-867.5047955629525
 30
0.0
 11
-805.3044764014849
 21
-867.5047955629525
 31
0.0
  0
LINE
  5
21A
  8
DATA
  6
CONTINUOUS
 62
     7
 10
-699.5963049106967
 20
-859.5047955629525
 30
0.0
 11
-805.954598393053
 21
-859.5047955629525
 31
0.0
  0
LINE
  5
21B
  8
DATA
  6
CONTINUOUS
 62
     7
 10
-816.7824705196854
 20
-676.5047955629525
 30
0.0
 11
-688.0430957380604
 21
-676.5047955629525
 31
0.0
  0
LINE
  5
21C
  8
DATA
  6
CONTINUOUS
 62
     7
 10
-805.7833509916964
 20
-691.5047955629525
 30
0.0
 11
-699.7675523120533
 21
-691.5047955629525
 31
0.0
  0
LINE
  5
21D
  8
DATA
  6
CONTINUOUS
 62
     7
 10
-806.1251152652785
 20
-699.5047955629525
 30
0.0
 11
-699.4257880384703
 21
-699.5047955629525
 31
0.0
  0
LINE
  5
21E
  8
DATA
  6
CONTINUOUS
 62
     7
 10
-809.7738542116258
 20
-782.5047955629525
 30
0.0
 11
-695.7770490921239
 21
-782.5047955629525
 31
0.0
  0
LINE
  5
21F
  8
DATA
  6
CONTINUOUS
 62
     7
 10
-810.063482167996
 20
-774.5047955629525
 30
0.0
 11
-695.4874211357537
 21
-774.5047955629525
 31
0.0
  0
LINE
  5
220
  8
DATA
  6
CONTINUOUS
 62
     1
 10
-836.4521177143743
 20
-796.5047955629525
 30
0.0
 11
-836.323801666942
 21
-796.5047955629525
 31
0.0
  0
LINE
  5
221
  8
DATA
  6
CONTINUOUS
 62
     7
 10
-808.6418963532424
 20
-796.5047955629525
 30
0.0
 11
-696.9090069505073
 21
-796.5047955629525
 31
0.0
  0
LINE
  5
222
  8
DATA
  6
CONTINUOUS
 62
     7
 10
-809.3138498106036
 20
-804.5047955629525
 30
0.0
 11
-696.2370534931451
 21
-804.5047955629525
 31
0.0
  0
LINE
  5
223
  8
DATA
  6
CONTINUOUS
 62
     1
 10
-669.2271016368077
 20
-796.5047955629525
 30
0.0
 11
-669.0987855893745
 21
-796.5047955629525
 31
0.0
  0
ARC
  5
224
  8
DATA
  6
CONTINUOUS
 62
     7
 10
-817.5716600967698
 20
-689.9237954263408
 30
0.0
 40
13.44218648591791
 50
86.63423442150889
 51
178.577708922943
  0
ARC
  5
225
  8
DATA
  6
CONTINUOUS
 62
     7
 10
-1392.170958086755
 20
-779.5047955629527
 30
0.0
 40
723.2407045190521
 50
352.7513114791457
 51
7.248688520854273
  0
ARC
  5
226
  8
DATA
  6
CONTINUOUS
 62
     7
 10
-817.5078075656893
 20
-869.0647955629524
 30
0.0
 40
13.43999999999983
 50
187.2486885208542
 51
270.0
  0
ARC
  5
227
  8
DATA
  6
CONTINUOUS
 62
     7
 10
-688.0430957380604
 20
-869.0647955629524
 30
0.0
 40
13.44000000000005
 50
270.0
 51
352.7513114791457
  0
ARC
  5
228
  8
DATA
  6
CONTINUOUS
 62
     7
 10
-688.0430957380604
 20
-689.9447955629525
 30
0.0
 40
13.43999999999983
 50
7.248688520854254
 51
90.0
  0
ARC
  5
229
  8
DATA
  6
CONTINUOUS
 62
     7
 10
-77.13865247444664
 20
-780.4907702535043
 30
0.0
 40
737.3984136760396
 50
174.0026112229376
 51
179.1881395399538
  0
ARC
  5
22A
  8
DATA
  6
CONTINUOUS
 62
     7
 10
-102.1691312058001
 20
-779.4616240855316
 30
0.0
 40
720.0057933238891
 50
173.8660135324156
 51
179.2472656364679
  0
ARC
  5
22B
  8
DATA
  6
CONTINUOUS
 62
     7
 10
-1428.412250829303
 20
-780.4907702535043
 30
0.0
 40
737.39841367604
 50
0.8118604600462361
 51
5.997388777062413
  0
ARC
  5
22C
  8
DATA
  6
CONTINUOUS
 62
     7
 10
-1403.38177209795
 20
-779.4616240855316
 30
0.0
 40
720.005793323889
 50
0.7527343635321219
 51
6.133986467584456
  0
ARC
  5
22D
  8
DATA
  6
CONTINUOUS
 62
     7
 10
-805.7833509916964
 20
-703.8447955629526
 30
0.0
 40
12.34000000000015
 50
90.0
 51
173.8660135324166
  0
ARC
  5
22E
  8
DATA
  6
CONTINUOUS
 62
     7
 10
-809.7738542116258
 20
-770.1647955629528
 30
0.0
 40
12.33999999999967
 50
179.2472656364673
 51
270.0
  0
ARC
  5
22F
  8
DATA
  6
CONTINUOUS
 62
     7
 10
-695.7770490921239
 20
-770.1647955629523
 30
0.0
 40
12.34000000000015
 50
270.0
 51
0.7527343635306352
  0
ARC
  5
230
  8
DATA
  6
CONTINUOUS
 62
     7
 10
-699.7675523120533
 20
-703.8447955629531
 30
0.0
 40
12.34000000000048
 50
6.133986467586541
 51
90.0
  0
ARC
  5
231
  8
DATA
  6
CONTINUOUS
 62
     7
 10
-806.1251152652785
 20
-703.9047955629526
 30
0.0
 40
4.400000000000091
 50
90.0
 51
174.0026112229381
  0
LINE
  5
232
  8
DATA
  6
CONTINUOUS
 62
     7
 10
-821.5068749778875
 20
-810.3547034465992
 30
0.0
 11
-818.1694550261309
 21
-855.5547034465994
 31
0.0
  0
LINE
  5
233
  8
DATA
  6
CONTINUOUS
 62
     7
 10
-810.5422748967376
 20
-855.2412837463207
 30
0.0
 11
-813.9015263142883
 21
-809.441283746321
 31
0.0
  0
ARC
  5
234
  8
DATA
  6
CONTINUOUS
 62
     7
 10
-808.6418963532424
 20
-809.4047955629526
 30
0.0
 40
12.90000000000009
 50
90.0
 51
184.2228696502446
  0
ARC
  5
235
  8
DATA
  6
CONTINUOUS
 62
     7
 10
-805.3044764014849
 20
-854.6047955629529
 30
0.0
 40
12.90000000000051
 50
184.2228696502443
 51
270.0
  0
LINE
  5
236
  8
DATA
  6
CONTINUOUS
 62
     7
 10
-684.0440283258613
 20
-810.3547034465992
 30
0.0
 11
-687.3814482776188
 21
-855.5547034465994
 31
0.0
  0
ARC
  5
237
  8
DATA
  6
CONTINUOUS
 62
     7
 10
-696.9090069505073
 20
-809.4047955629526
 30
0.0
 40
12.90000000000051
 50
355.7771303497557
 51
90.0
  0
ARC
  5
238
  8
DATA
  6
CONTINUOUS
 62
     7
 10
-700.2464269022648
 20
-854.6047955629524
 30
0.0
 40
12.90000000000009
 50
270.0
 51
355.7771303497537
  0
LINE
  5
239
  8
DATA
  6
CONTINUOUS
 62
     7
 10
-695.008628407013
 20
-855.2412837463207
 30
0.0
 11
-691.6493769894614
 21
-809.441283746321
 31
0.0
  0
ARC
  5
23A
  8
DATA
  6
CONTINUOUS
 62
     7
 10
-809.3138498106036
 20
-809.1047955629526
 30
0.0
 40
4.600000000000136
 50
90.0
 51
184.1949103978831
  0
ARC
  5
23B
  8
DATA
  6
CONTINUOUS
 62
     7
 10
-696.2370534931451
 20
-809.1047955629526
 30
0.0
 40
4.599999999999811
 50
355.8050896021161
 51
90.0
  0
ARC
  5
23C
  8
DATA
  6
CONTINUOUS
 62
     7
 10
-699.5963049106967
 20
-854.9047955629526
 30
0.0
 40
4.599999999999909
 50
270.0
 51
355.8050896021189
  0
ARC
  5
23D
  8
DATA
  6
CONTINUOUS
 62
     7
 10
-805.954598393053
 20
-854.9047955629526
 30
0.0
 40
4.600000000000702
 50
184.1949103978802
 51
270.0
  0
CIRCLE
  5
23E
  8
DATA
  6
CONTINUOUS
 62
     7
 10
-985.452500858888
 20
-982.9999999999991
 30
0.0
 40
3.999999999999711
  0
LINE
  5
23F
  8
DATA
  6
CONTINUOUS
 62
     7
 10
-982.952500858888
 20
-982.9999999999991
 30
0.0
 11
-987.952500858888
 21
-982.9999999999991
 31
0.0
  0
LINE
  5
240
  8
DATA
  6
CONTINUOUS
 62
     7
 10
-985.452500858888
 20
-985.4999999999991
 30
0.0
 11
-985.452500858888
 21
-980.4999999999991
 31
0.0
  0
CIRCLE
  5
241
  8
DATA
  6
CONTINUOUS
 62
     7
 10
-1503.25
 20
-837.9999999999991
 30
0.0
 40
4.000000000000032
  0
LINE
  5
242
  8
DATA
  6
CONTINUOUS
 62
     7
 10
-1505.75
 20
-837.9999999999991
 30
0.0
 11
-1500.75
 21
-837.9999999999991
 31
0.0
  0
LINE
  5
243
  8
DATA
  6
CONTINUOUS
 62
     7
 10
-1503.25
 20
-840.4999999999991
 30
0.0
 11
-1503.25
 21
-835.4999999999991
 31
0.0
  0
CIRCLE
  5
244
  8
DATA
  6
CONTINUOUS
 62
     7
 10
-1096.75
 20
-837.9999999999991
 30
0.0
 40
4.000000000000353
  0
LINE
  5
245
  8
DATA
  6
CONTINUOUS
 62
     7
 10
-1094.25
 20
-837.9999999999991
 30
0.0
 11
-1099.25
 21
-837.9999999999991
 31
0.0
  0
LINE
  5
246
  8
DATA
  6
CONTINUOUS
 62
     7
 10
-1096.75
 20
-840.4999999999991
 30
0.0
 11
-1096.75
 21
-835.4999999999991
 31
0.0
  0
CIRCLE
  5
247
  8
DATA
  6
CONTINUOUS
 62
     7
 10
-985.452500858888
 20
-837.9999999999991
 30
0.0
 40
3.999999999999711
  0
LINE
  5
248
  8
DATA
  6
CONTINUOUS
 62
     7
 10
-982.952500858888
 20
-837.9999999999991
 30
0.0
 11
-987.952500858888
 21
-837.9999999999991
 31
0.0
  0
LINE
  5
249
  8
DATA
  6
CONTINUOUS
 62
     7
 10
-985.452500858888
 20
-840.4999999999991
 30
0.0
 11
-985.452500858888
 21
-835.4999999999991
 31
0.0
  0
CIRCLE
  5
24A
  8
DATA
  6
CONTINUOUS
 62
     7
 10
-1503.25
 20
-692.9999999999991
 30
0.0
 40
4.000000000000032
  0
LINE
  5
24B
  8
DATA
  6
CONTINUOUS
 62
     7
 10
-1505.75
 20
-692.9999999999991
 30
0.0
 11
-1500.75
 21
-692.9999999999991
 31
0.0
  0
LINE
  5
24C
  8
DATA
  6
CONTINUOUS
 62
     7
 10
-1503.25
 20
-695.4999999999991
 30
0.0
 11
-1503.25
 21
-690.4999999999991
 31
0.0
  0
CIRCLE
  5
24D
  8
DATA
  6
CONTINUOUS
 62
     7
 10
-1096.75
 20
-692.9999999999991
 30
0.0
 40
4.000000000000353
  0
LINE
  5
24E
  8
DATA
  6
CONTINUOUS
 62
     7
 10
-1094.25
 20
-692.9999999999991
 30
0.0
 11
-1099.25
 21
-692.9999999999991
 31
0.0
  0
LINE
  5
24F
  8
DATA
  6
CONTINUOUS
 62
     7
 10
-1096.75
 20
-695.4999999999991
 30
0.0
 11
-1096.75
 21
-690.4999999999991
 31
0.0
  0
CIRCLE
  5
250
  8
DATA
  6
CONTINUOUS
 62
     7
 10
-985.452500858888
 20
-692.9999999999991
 30
0.0
 40
3.999999999999711
  0
LINE
  5
251
  8
DATA
  6
CONTINUOUS
 62
     7
 10
-982.952500858888
 20
-692.9999999999991
 30
0.0
 11
-987.952500858888
 21
-692.9999999999991
 31
0.0
  0
LINE
  5
252
  8
DATA
  6
CONTINUOUS
 62
     7
 10
-985.452500858888
 20
-695.4999999999991
 30
0.0
 11
-985.452500858888
 21
-690.4999999999991
 31
0.0
  0
CIRCLE
  5
253
  8
DATA
  6
CONTINUOUS
 62
     7
 10
-1503.25
 20
-547.9999999999991
 30
0.0
 40
4.000000000000032
  0
LINE
  5
254
  8
DATA
  6
CONTINUOUS
 62
     7
 10
-1505.75
 20
-547.9999999999991
 30
0.0
 11
-1500.75
 21
-547.9999999999991
 31
0.0
  0
LINE
  5
255
  8
DATA
  6
CONTINUOUS
 62
     7
 10
-1503.25
 20
-550.4999999999991
 30
0.0
 11
-1503.25
 21
-545.4999999999991
 31
0.0
  0
CIRCLE
  5
256
  8
DATA
  6
CONTINUOUS
 62
     7
 10
-1096.75
 20
-547.9999999999991
 30
0.0
 40
4.000000000000353
  0
LINE
  5
257
  8
DATA
  6
CONTINUOUS
 62
     7
 10
-1094.25
 20
-547.9999999999991
 30
0.0
 11
-1099.25
 21
-547.9999999999991
 31
0.0
  0
LINE
  5
258
  8
DATA
  6
CONTINUOUS
 62
     7
 10
-1096.75
 20
-550.4999999999991
 30
0.0
 11
-1096.75
 21
-545.4999999999991
 31
0.0
  0
CIRCLE
  5
259
  8
DATA
  6
CONTINUOUS
 62
     7
 10
-985.452500858888
 20
-547.9999999999991
 30
0.0
 40
3.999999999999711
  0
LINE
  5
25A
  8
DATA
  6
CONTINUOUS
 62
     7
 10
-982.952500858888
 20
-547.9999999999991
 30
0.0
 11
-987.952500858888
 21
-547.9999999999991
 31
0.0
  0
LINE
  5
25B
  8
DATA
  6
CONTINUOUS
 62
     7
 10
-985.452500858888
 20
-550.4999999999991
 30
0.0
 11
-985.452500858888
 21
-545.4999999999991
 31
0.0
  0
CIRCLE
  5
25C
  8
DATA
  6
CONTINUOUS
 62
     7
 10
-1503.25
 20
-1127.999999999999
 30
0.0
 40
4.000000000000032
  0
LINE
  5
25D
  8
DATA
  6
CONTINUOUS
 62
     7
 10
-1505.75
 20
-1127.999999999999
 30
0.0
 11
-1500.75
 21
-1127.999999999999
 31
0.0
  0
LINE
  5
25E
  8
DATA
  6
CONTINUOUS
 62
     7
 10
-1503.25
 20
-1130.499999999999
 30
0.0
 11
-1503.25
 21
-1125.499999999999
 31
0.0
  0
CIRCLE
  5
25F
  8
DATA
  6
CONTINUOUS
 62
     7
 10
-1096.75
 20
-1127.999999999999
 30
0.0
 40
4.000000000000353
  0
LINE
  5
260
  8
DATA
  6
CONTINUOUS
 62
     7
 10
-1094.25
 20
-1127.999999999999
 30
0.0
 11
-1099.25
 21
-1127.999999999999
 31
0.0
  0
LINE
  5
261
  8
DATA
  6
CONTINUOUS
 62
     7
 10
-1096.75
 20
-1130.499999999999
 30
0.0
 11
-1096.75
 21
-1125.499999999999
 31
0.0
  0
CIRCLE
  5
262
  8
DATA
  6
CONTINUOUS
 62
     7
 10
-985.452500858888
 20
-1127.999999999999
 30
0.0
 40
3.999999999999711
  0
LINE
  5
263
  8
DATA
  6
CONTINUOUS
 62
     7
 10
-982.952500858888
 20
-1127.999999999999
 30
0.0
 11
-987.952500858888
 21
-1127.999999999999
 31
0.0
  0
LINE
  5
264
  8
DATA
  6
CONTINUOUS
 62
     7
 10
-985.452500858888
 20
-1130.499999999999
 30
0.0
 11
-985.452500858888
 21
-1125.499999999999
 31
0.0
  0
CIRCLE
  5
265
  8
DATA
  6
CONTINUOUS
 62
     7
 10
-1503.25
 20
-1272.999999999999
 30
0.0
 40
4.000000000000032
  0
LINE
  5
266
  8
DATA
  6
CONTINUOUS
 62
     7
 10
-1505.75
 20
-1272.999999999999
 30
0.0
 11
-1500.75
 21
-1272.999999999999
 31
0.0
  0
LINE
  5
267
  8
DATA
  6
CONTINUOUS
 62
     7
 10
-1503.25
 20
-1275.499999999999
 30
0.0
 11
-1503.25
 21
-1270.499999999999
 31
0.0
  0
CIRCLE
  5
268
  8
DATA
  6
CONTINUOUS
 62
     7
 10
-1096.75
 20
-1272.999999999999
 30
0.0
 40
4.000000000000353
  0
LINE
  5
269
  8
DATA
  6
CONTINUOUS
 62
     7
 10
-1094.25
 20
-1272.999999999999
 30
0.0
 11
-1099.25
 21
-1272.999999999999
 31
0.0
  0
LINE
  5
26A
  8
DATA
  6
CONTINUOUS
 62
     7
 10
-1096.75
 20
-1275.499999999999
 30
0.0
 11
-1096.75
 21
-1270.499999999999
 31
0.0
  0
CIRCLE
  5
26B
  8
DATA
  6
CONTINUOUS
 62
     7
 10
-985.452500858888
 20
-1272.999999999999
 30
0.0
 40
3.999999999999711
  0
LINE
  5
26C
  8
DATA
  6
CONTINUOUS
 62
     7
 10
-982.952500858888
 20
-1272.999999999999
 30
0.0
 11
-987.952500858888
 21
-1272.999999999999
 31
0.0
  0
LINE
  5
26D
  8
DATA
  6
CONTINUOUS
 62
     7
 10
-985.452500858888
 20
-1275.499999999999
 30
0.0
 11
-985.452500858888
 21
-1270.499999999999
 31
0.0
  0
CIRCLE
  5
26E
  8
DATA
  6
CONTINUOUS
 62
     7
 10
-1503.25
 20
-1417.999999999999
 30
0.0
 40
4.000000000000032
  0
LINE
  5
26F
  8
DATA
  6
CONTINUOUS
 62
     7
 10
-1505.75
 20
-1417.999999999999
 30
0.0
 11
-1500.75
 21
-1417.999999999999
 31
0.0
  0
LINE
  5
270
  8
DATA
  6
CONTINUOUS
 62
     7
 10
-1503.25
 20
-1420.499999999999
 30
0.0
 11
-1503.25
 21
-1415.499999999999
 31
0.0
  0
CIRCLE
  5
271
  8
DATA
  6
CONTINUOUS
 62
     7
 10
-1096.75
 20
-1417.999999999999
 30
0.0
 40
4.000000000000353
  0
LINE
  5
272
  8
DATA
  6
CONTINUOUS
 62
     7
 10
-1094.25
 20
-1417.999999999999
 30
0.0
 11
-1099.25
 21
-1417.999999999999
 31
0.0
  0
LINE
  5
273
  8
DATA
  6
CONTINUOUS
 62
     7
 10
-1096.75
 20
-1420.499999999999
 30
0.0
 11
-1096.75
 21
-1415.499999999999
 31
0.0
  0
CIRCLE
  5
274
  8
DATA
  6
CONTINUOUS
 62
     7
 10
-985.452500858888
 20
-1417.999999999999
 30
0.0
 40
3.999999999999711
  0
LINE
  5
275
  8
DATA
  6
CONTINUOUS
 62
     7
 10
-982.952500858888
 20
-1417.999999999999
 30
0.0
 11
-987.952500858888
 21
-1417.999999999999
 31
0.0
  0
LINE
  5
276
  8
DATA
  6
CONTINUOUS
 62
     7
 10
-985.452500858888
 20
-1420.499999999999
 30
0.0
 11
-985.452500858888
 21
-1415.499999999999
 31
0.0
  0
TEXT
  5
277
  8
DATA
 62
     7
 10
-157.621484375
 20
-1088.990065577693
 30
0.0
 40
4.6171875
  1
NORM/BOOST
 41
0.7
 72
     1
 11
-142.0
 21
-1086.681471827693
 31
0.0
 73
     2
  0
LINE
  5
278
  8
DATA
  6
CONTINUOUS
 62
     7
 10
-187.5
 20
-1335.499999999999
 30
0.0
 11
-187.5
 21
-971.4999999999991
 31
0.0
  0
LINE
  5
279
  8
DATA
  6
CONTINUOUS
 62
     7
 10
-167.5
 20
-1325.499999999999
 30
0.0
 11
-167.5
 21
-981.4999999999991
 31
0.0
  0
LINE
  5
27A
  8
DATA
  6
CONTINUOUS
 62
     7
 10
-22.5
 20
-1345.499999999999
 30
0.0
 11
-177.5
 21
-1345.499999999999
 31
0.0
  0
LINE
  5
27B
  8
DATA
  6
CONTINUOUS
 62
     7
 10
-167.5
 20
-1325.499999999999
 30
0.0
 11
-32.5
 21
-1325.499999999999
 31
0.0
  0
LINE
  5
27C
  8
DATA
  6
CONTINUOUS
 62
     7
 10
-12.5
 20
-971.4999999999991
 30
0.0
 11
-12.5
 21
-1335.499999999999
 31
0.0
  0
LINE
  5
27D
  8
DATA
  6
CONTINUOUS
 62
     7
 10
-32.5
 20
-981.4999999999991
 30
0.0
 11
-32.5
 21
-1325.499999999999
 31
0.0
  0
LINE
  5
27E
  8
DATA
  6
CONTINUOUS
 62
     7
 10
-177.5
 20
-961.4999999999991
 30
0.0
 11
-22.5
 21
-961.4999999999991
 31
0.0
  0
LINE
  5
27F
  8
DATA
  6
CONTINUOUS
 62
     7
 10
-167.5
 20
-981.4999999999991
 30
0.0
 11
-32.5
 21
-981.4999999999991
 31
0.0
  0
ARC
  5
280
  8
DATA
  6
CONTINUOUS
 62
     7
 10
-177.5
 20
-1335.499999999999
 30
0.0
 40
10.0
 50
180.0
 51
270.0
  0
ARC
  5
281
  8
DATA
  6
CONTINUOUS
 62
     7
 10
-22.5
 20
-1335.499999999999
 30
0.0
 40
10.0
 50
270.0
 51
0.0
  0
ARC
  5
282
  8
DATA
  6
CONTINUOUS
 62
     7
 10
-177.5
 20
-971.4999999999991
 30
0.0
 40
10.0
 50
90.0
 51
180.0
  0
ARC
  5
283
  8
DATA
  6
CONTINUOUS
 62
     7
 10
-22.5
 20
-971.4999999999991
 30
0.0
 40
10.0
 50
0.0
 51
90.0
  0
CIRCLE
  5
284
  8
DATA
  6
CONTINUOUS
 62
     7
 10
-66.5
 20
-1320.499999999999
 30
0.0
 40
2.500000000000222
  0
CIRCLE
  5
285
  8
DATA
  6
CONTINUOUS
 62
     7
 10
-133.5
 20
-1320.499999999999
 30
0.0
 40
2.500000000000222
  0
LINE
  5
286
  8
DATA
  6
CONTINUOUS
 62
     7
 10
-135.0
 20
-1320.499999999999
 30
0.0
 11
-132.0
 21
-1320.499999999999
 31
0.0
  0
LINE
  5
287
  8
DATA
  6
CONTINUOUS
 62
     7
 10
-133.5799999999999
 20
-1321.999999999999
 30
0.0
 11
-133.5799999999999
 21
-1318.999999999999
 31
0.0
  0
LINE
  5
288
  8
DATA
  6
CONTINUOUS
 62
     7
 10
-65.0
 20
-1320.499999999999
 30
0.0
 11
-68.0
 21
-1320.499999999999
 31
0.0
  0
LINE
  5
289
  8
DATA
  6
CONTINUOUS
 62
     7
 10
-66.42000000000007
 20
-1321.999999999999
 30
0.0
 11
-66.42000000000007
 21
-1318.999999999999
 31
0.0
  0
LINE
  5
28A
  8
DATA
  6
CONTINUOUS
 62
     7
 10
-81.5
 20
-1258.499999999999
 30
0.0
 11
-81.5
 21
-1215.499999999999
 31
0.0
  0
LINE
  5
28B
  8
DATA
  6
CONTINUOUS
 62
     7
 10
-79.5
 20
-1235.499999999999
 30
0.0
 11
-79.5
 21
-1217.499999999999
 31
0.0
  0
LINE
  5
28C
  8
DATA
  6
CONTINUOUS
 62
     7
 10
-77.5
 20
-1233.499999999999
 30
0.0
 11
-77.5
 21
-1219.499999999999
 31
0.0
  0
LINE
  5
28D
  8
DATA
  6
CONTINUOUS
 62
     7
 10
-53.5
 20
-1258.499999999999
 30
0.0
 11
-81.5
 21
-1258.499999999999
 31
0.0
  0
LINE
  5
28E
  8
DATA
  6
CONTINUOUS
 62
     7
 10
-53.5
 20
-1215.499999999999
 30
0.0
 11
-53.5
 21
-1258.499999999999
 31
0.0
  0
LINE
  5
28F
  8
DATA
  6
CONTINUOUS
 62
     7
 10
-55.5
 20
-1217.499999999999
 30
0.0
 11
-55.5
 21
-1235.499999999999
 31
0.0
  0
LINE
  5
290
  8
DATA
  6
CONTINUOUS
 62
     7
 10
-57.5
 20
-1219.499999999999
 30
0.0
 11
-57.5
 21
-1233.499999999999
 31
0.0
  0
LINE
  5
291
  8
DATA
  6
CONTINUOUS
 62
     7
 10
-81.5
 20
-1215.499999999999
 30
0.0
 11
-53.5
 21
-1215.499999999999
 31
0.0
  0
LINE
  5
292
  8
DATA
  6
CONTINUOUS
 62
     7
 10
-79.5
 20
-1217.499999999999
 30
0.0
 11
-55.5
 21
-1217.499999999999
 31
0.0
  0
LINE
  5
293
  8
DATA
  6
CONTINUOUS
 62
     7
 10
-79.5
 20
-1248.499999999999
 30
0.0
 11
-79.5
 21
-1237.499999999999
 31
0.0
  0
LINE
  5
294
  8
DATA
  6
CONTINUOUS
 62
     7
 10
-74.5
 20
-1253.499999999999
 30
0.0
 11
-79.5
 21
-1248.499999999999
 31
0.0
  0
LINE
  5
295
  8
DATA
  6
CONTINUOUS
 62
     7
 10
-60.5
 20
-1253.499999999999
 30
0.0
 11
-74.5
 21
-1253.499999999999
 31
0.0
  0
LINE
  5
296
  8
DATA
  6
CONTINUOUS
 62
     7
 10
-55.5
 20
-1248.499999999999
 30
0.0
 11
-60.5
 21
-1253.499999999999
 31
0.0
  0
LINE
  5
297
  8
DATA
  6
CONTINUOUS
 62
     7
 10
-55.5
 20
-1237.499999999999
 30
0.0
 11
-55.5
 21
-1248.499999999999
 31
0.0
  0
LINE
  5
298
  8
DATA
  6
CONTINUOUS
 62
     7
 10
-79.5
 20
-1237.499999999999
 30
0.0
 11
-55.5
 21
-1237.499999999999
 31
0.0
  0
LINE
  5
299
  8
DATA
  6
CONTINUOUS
 62
     7
 10
-79.5
 20
-1235.499999999999
 30
0.0
 11
-55.5
 21
-1235.499999999999
 31
0.0
  0
LINE
  5
29A
  8
DATA
  6
CONTINUOUS
 62
     7
 10
-57.5
 20
-1233.499999999999
 30
0.0
 11
-77.5
 21
-1233.499999999999
 31
0.0
  0
LINE
  5
29B
  8
DATA
  6
CONTINUOUS
 62
     7
 10
-77.5
 20
-1219.499999999999
 30
0.0
 11
-57.5
 21
-1219.499999999999
 31
0.0
  0
LINE
  5
29C
  8
DATA
  6
CONTINUOUS
 62
     7
 10
-77.5
 20
-1221.499999999999
 30
0.0
 11
-57.5
 21
-1221.499999999999
 31
0.0
  0
CIRCLE
  5
29D
  8
DATA
  6
CONTINUOUS
 62
     7
 10
-67.5
 20
-1231.499999999999
 30
0.0
 40
1.249999999999908
  0
LINE
  5
29E
  8
DATA
  6
CONTINUOUS
 62
     7
 10
-67.5
 20
-1225.049999999999
 30
0.0
 11
-67.5
 21
-1222.549999999999
 31
0.0
  0
CIRCLE
  5
29F
  8
DATA
  6
CONTINUOUS
 62
     7
 10
-67.5
 20
-1211.499999999999
 30
0.0
 40
2.749999999999839
  0
LINE
  5
2A0
  8
DATA
  6
CONTINUOUS
 62
     7
 10
-69.0
 20
-1211.499999999999
 30
0.0
 11
-66.0
 21
-1211.499999999999
 31
0.0
  0
LINE
  5
2A1
  8
DATA
  6
CONTINUOUS
 62
     7
 10
-67.5
 20
-1212.999999999999
 30
0.0
 11
-67.5
 21
-1209.999999999999
 31
0.0
  0
CIRCLE
  5
2A2
  8
DATA
  6
CONTINUOUS
 62
     7
 10
-67.5
 20
-1262.5
 30
0.0
 40
2.749999999999839
  0
LINE
  5
2A3
  8
DATA
  6
CONTINUOUS
 62
     7
 10
-69.0
 20
-1262.5
 30
0.0
 11
-66.0
 21
-1262.5
 31
0.0
  0
LINE
  5
2A4
  8
DATA
  6
CONTINUOUS
 62
     7
 10
-67.5
 20
-1261.0
 30
0.0
 11
-67.5
 21
-1264.0
 31
0.0
  0
ARC
  5
2A5
  8
DATA
  6
CONTINUOUS
 62
     7
 10
-95.0
 20
-1135.499999999999
 30
0.0
 40
7.899999852386007
 50
140.692698054177
 51
129.3073054535597
  0
CIRCLE
  5
2A6
  8
DATA
  6
CONTINUOUS
 62
     7
 10
-95.00000000000728
 20
-1135.499999999992
 30
0.0
 40
9.749999999025183
  0
CIRCLE
  5
2A7
  8
DATA
  6
CONTINUOUS
 62
     7
 10
-95.00000000000728
 20
-1135.499999999992
 30
0.0
 40
10.75
  0
LINE
  5
2A8
  8
DATA
  6
CONTINUOUS
 62
     7
 10
-92.60000000024775
 20
-1127.973380573671
 30
0.0
 11
-92.60000000024775
 21
-1127.973380727789
 31
0.0
  0
LINE
  5
2A9
  8
DATA
  6
CONTINUOUS
 62
     7
 10
-97.84999999972297
 20
-1128.131995000729
 30
0.0
 11
-97.84999999972297
 21
-1128.131995158165
 31
0.0
  0
ARC
  5
2AA
  8
DATA
  6
CONTINUOUS
 62
     7
 10
-99.49999999955799
 20
-1135.499999999992
 30
0.0
 40
1.999999999800095
 50
32.08918387405087
 51
327.9108161259492
  0
ARC
  5
2AB
  8
DATA
  6
CONTINUOUS
 62
     7
 10
-90.50000000045748
 20
-1135.499999999992
 30
0.0
 40
1.999999999800095
 50
212.0891838740509
 51
147.9108161259491
  0
ARC
  5
2AC
  8
DATA
  6
CONTINUOUS
 62
     7
 10
-95.00000000000728
 20
-1139.449999999597
 30
0.0
 40
1.99999999980077
 50
137.8522840898889
 51
42.14771591012861
  0
ARC
  5
2AD
  8
DATA
  6
CONTINUOUS
 62
     7
 10
-100.444722332797
 20
-1130.055278000536
 30
0.0
 40
0.799999999920039
 50
56.61290968104122
 51
213.387093826709
  0
ARC
  5
2AE
  8
DATA
  6
CONTINUOUS
 62
     7
 10
-95.00000000000728
 20
-1135.499999999992
 30
0.0
 40
2.999999999999744
 50
20.74191648508129
 51
159.2580835149249
  0
ARC
  5
2AF
  8
DATA
  6
CONTINUOUS
 62
     7
 10
-95.00000000000728
 20
-1135.499999999992
 30
0.0
 40
3.000000000000594
 50
200.7419164850751
 51
240.3778367991917
  0
ARC
  5
2B0
  8
DATA
  6
CONTINUOUS
 62
     7
 10
-95.00000000000728
 20
-1135.499999999992
 30
0.0
 40
2.999999999999644
 50
299.6221632007934
 51
339.2580835149187
  0
CIRCLE
  5
2B1
  8
DATA
  6
CONTINUOUS
 62
     7
 10
-85.5000000009577
 20
-1147.499999998792
 30
0.0
 40
2.5
  0
LINE
  5
2B2
  8
DATA
  6
STYLE_12
 62
     7
 10
-87.00255916762399
 20
-1147.499999998792
 30
0.0
 11
-84.00255916762399
 21
-1147.499999998792
 31
0.0
  0
LINE
  5
2B3
  8
DATA
  6
STYLE_12
 62
     7
 10
-85.5000000009577
 20
-1145.998828332125
 30
0.0
 11
-85.5000000009577
 21
-1148.998828332125
 31
0.0
  0
CIRCLE
  5
2B4
  8
DATA
  6
CONTINUOUS
 62
     7
 10
-104.5025591657241
 20
-1123.498828334525
 30
0.0
 40
2.5
  0
LINE
  5
2B5
  8
DATA
  6
STYLE_12
 62
     7
 10
-106.0051183323903
 20
-1123.498828334525
 30
0.0
 11
-103.0051183323903
 21
-1123.498828334525
 31
0.0
  0
LINE
  5
2B6
  8
DATA
  6
STYLE_12
 62
     7
 10
-104.5025591657241
 20
-1121.997656667859
 30
0.0
 11
-104.5025591657241
 21
-1124.997656667859
 31
0.0
  0
LINE
  5
2B7
  8
DATA
  6
CONTINUOUS
 62
     7
 10
-97.39999999976772
 20
-1126.050000000937
 30
0.0
 11
-97.39999999976772
 21
-1123.796261282334
 31
0.0
  0
LINE
  5
2B8
  8
DATA
  6
CONTINUOUS
 62
     7
 10
-92.60000000024775
 20
-1126.050000000937
 30
0.0
 11
-92.60000000024775
 21
-1123.796261282334
 31
0.0
  0
CIRCLE
  5
2B9
  8
DATA
  6
CONTINUOUS
 62
     7
 10
-133.5
 20
-1338.499999999999
 30
0.0
 40
4.750000000000203
  0
LINE
  5
2BA
  8
DATA
  6
CONTINUOUS
 62
     7
 10
-136.0
 20
-1338.499999999999
 30
0.0
 11
-131.0
 21
-1338.499999999999
 31
0.0
  0
LINE
  5
2BB
  8
DATA
  6
CONTINUOUS
 62
     7
 10
-133.5
 20
-1340.999999999999
 30
0.0
 11
-133.5
 21
-1335.999999999999
 31
0.0
  0
CIRCLE
  5
2BC
  8
DATA
  6
CONTINUOUS
 62
     7
 10
-66.5
 20
-1338.499999999999
 30
0.0
 40
4.750000000000203
  0
LINE
  5
2BD
  8
DATA
  6
CONTINUOUS
 62
     7
 10
-69.0
 20
-1338.499999999999
 30
0.0
 11
-64.0
 21
-1338.499999999999
 31
0.0
  0
LINE
  5
2BE
  8
DATA
  6
CONTINUOUS
 62
     7
 10
-66.5
 20
-1340.999999999999
 30
0.0
 11
-66.5
 21
-1335.999999999999
 31
0.0
  0
CIRCLE
  5
2BF
  8
DATA
  6
CONTINUOUS
 62
     7
 10
-133.5
 20
-968.4999999999991
 30
0.0
 40
4.750000000000203
  0
LINE
  5
2C0
  8
DATA
  6
CONTINUOUS
 62
     7
 10
-136.0
 20
-968.4999999999991
 30
0.0
 11
-131.0
 21
-968.4999999999991
 31
0.0
  0
LINE
  5
2C1
  8
DATA
  6
CONTINUOUS
 62
     7
 10
-133.5
 20
-965.9999999999991
 30
0.0
 11
-133.5
 21
-970.9999999999991
 31
0.0
  0
CIRCLE
  5
2C2
  8
DATA
  6
CONTINUOUS
 62
     7
 10
-66.5
 20
-968.4999999999991
 30
0.0
 40
4.750000000000203
  0
LINE
  5
2C3
  8
DATA
  6
CONTINUOUS
 62
     7
 10
-69.0
 20
-968.4999999999991
 30
0.0
 11
-64.0
 21
-968.4999999999991
 31
0.0
  0
LINE
  5
2C4
  8
DATA
  6
CONTINUOUS
 62
     7
 10
-66.5
 20
-965.9999999999991
 30
0.0
 11
-66.5
 21
-970.9999999999991
 31
0.0
  0
CIRCLE
  5
2C5
  8
DATA
  6
CONTINUOUS
 62
     7
 10
-180.5
 20
-1138.999999999999
 30
0.0
 40
4.750000000000203
  0
LINE
  5
2C6
  8
DATA
  6
CONTINUOUS
 62
     7
 10
-183.0
 20
-1138.999999999999
 30
0.0
 11
-178.0
 21
-1138.999999999999
 31
0.0
  0
LINE
  5
2C7
  8
DATA
  6
CONTINUOUS
 62
     7
 10
-180.5
 20
-1141.499999999999
 30
0.0
 11
-180.5
 21
-1136.499999999999
 31
0.0
  0
CIRCLE
  5
2C8
  8
DATA
  6
CONTINUOUS
 62
     7
 10
-180.5
 20
-1031.499999999999
 30
0.0
 40
4.750000000000203
  0
LINE
  5
2C9
  8
DATA
  6
CONTINUOUS
 62
     7
 10
-183.0
 20
-1031.499999999999
 30
0.0
 11
-178.0
 21
-1031.499999999999
 31
0.0
  0
LINE
  5
2CA
  8
DATA
  6
CONTINUOUS
 62
     7
 10
-180.5
 20
-1033.999999999999
 30
0.0
 11
-180.5
 21
-1028.999999999999
 31
0.0
  0
CIRCLE
  5
2CB
  8
DATA
  6
CONTINUOUS
 62
     7
 10
-180.5
 20
-1246.499999999999
 30
0.0
 40
4.750000000000203
  0
LINE
  5
2CC
  8
DATA
  6
CONTINUOUS
 62
     7
 10
-183.0
 20
-1246.499999999999
 30
0.0
 11
-178.0
 21
-1246.499999999999
 31
0.0
  0
LINE
  5
2CD
  8
DATA
  6
CONTINUOUS
 62
     7
 10
-180.5
 20
-1248.999999999999
 30
0.0
 11
-180.5
 21
-1243.999999999999
 31
0.0
  0
CIRCLE
  5
2CE
  8
DATA
  6
CONTINUOUS
 62
     7
 10
-19.5
 20
-1138.999999999999
 30
0.0
 40
4.750000000000203
  0
LINE
  5
2CF
  8
DATA
  6
CONTINUOUS
 62
     7
 10
-17.0
 20
-1138.999999999999
 30
0.0
 11
-22.0
 21
-1138.999999999999
 31
0.0
  0
LINE
  5
2D0
  8
DATA
  6
CONTINUOUS
 62
     7
 10
-19.5
 20
-1141.499999999999
 30
0.0
 11
-19.5
 21
-1136.499999999999
 31
0.0
  0
CIRCLE
  5
2D1
  8
DATA
  6
CONTINUOUS
 62
     7
 10
-19.5
 20
-1031.499999999999
 30
0.0
 40
4.750000000000203
  0
LINE
  5
2D2
  8
DATA
  6
CONTINUOUS
 62
     7
 10
-17.0
 20
-1031.499999999999
 30
0.0
 11
-22.0
 21
-1031.499999999999
 31
0.0
  0
LINE
  5
2D3
  8
DATA
  6
CONTINUOUS
 62
     7
 10
-19.5
 20
-1033.999999999999
 30
0.0
 11
-19.5
 21
-1028.999999999999
 31
0.0
  0
CIRCLE
  5
2D4
  8
DATA
  6
CONTINUOUS
 62
     7
 10
-19.5
 20
-1246.499999999999
 30
0.0
 40
4.750000000000203
  0
LINE
  5
2D5
  8
DATA
  6
CONTINUOUS
 62
     7
 10
-17.0
 20
-1246.499999999999
 30
0.0
 11
-22.0
 21
-1246.499999999999
 31
0.0
  0
LINE
  5
2D6
  8
DATA
  6
CONTINUOUS
 62
     7
 10
-19.5
 20
-1248.999999999999
 30
0.0
 11
-19.5
 21
-1243.999999999999
 31
0.0
  0
CIRCLE
  5
2D7
  8
DATA
  6
CONTINUOUS
 62
     7
 10
-66.5
 20
-986.4999999999991
 30
0.0
 40
2.500000000000222
  0
CIRCLE
  5
2D8
  8
DATA
  6
CONTINUOUS
 62
     7
 10
-133.5
 20
-986.4999999999991
 30
0.0
 40
2.500000000000222
  0
LINE
  5
2D9
  8
DATA
  6
CONTINUOUS
 62
     7
 10
-135.0
 20
-986.4999999999991
 30
0.0
 11
-132.0
 21
-986.4999999999991
 31
0.0
  0
LINE
  5
2DA
  8
DATA
  6
CONTINUOUS
 62
     7
 10
-133.5799999999999
 20
-984.9999999999991
 30
0.0
 11
-133.5799999999999
 21
-987.9999999999991
 31
0.0
  0
LINE
  5
2DB
  8
DATA
  6
CONTINUOUS
 62
     7
 10
-65.0
 20
-986.4999999999991
 30
0.0
 11
-68.0
 21
-986.4999999999991
 31
0.0
  0
LINE
  5
2DC
  8
DATA
  6
CONTINUOUS
 62
     7
 10
-66.42000000000007
 20
-984.9999999999991
 30
0.0
 11
-66.42000000000007
 21
-987.9999999999991
 31
0.0
  0
CIRCLE
  5
2DD
  8
DATA
  6
CONTINUOUS
 62
     7
 10
-36.57999999999993
 20
-1031.499999999999
 30
0.0
 40
2.500000000000222
  0
LINE
  5
2DE
  8
DATA
  6
CONTINUOUS
 62
     7
 10
-35.07999999999993
 20
-1031.499999999999
 30
0.0
 11
-38.07999999999993
 21
-1031.499999999999
 31
0.0
  0
LINE
  5
2DF
  8
DATA
  6
CONTINUOUS
 62
     7
 10
-36.5
 20
-1029.999999999999
 30
0.0
 11
-36.5
 21
-1032.999999999999
 31
0.0
  0
CIRCLE
  5
2E0
  8
DATA
  6
CONTINUOUS
 62
     7
 10
-36.57999999999993
 20
-1138.999999999999
 30
0.0
 40
2.500000000000222
  0
LINE
  5
2E1
  8
DATA
  6
CONTINUOUS
 62
     7
 10
-35.07999999999993
 20
-1138.999999999999
 30
0.0
 11
-38.07999999999993
 21
-1138.999999999999
 31
0.0
  0
LINE
  5
2E2
  8
DATA
  6
CONTINUOUS
 62
     7
 10
-36.5
 20
-1137.499999999999
 30
0.0
 11
-36.5
 21
-1140.499999999999
 31
0.0
  0
CIRCLE
  5
2E3
  8
DATA
  6
CONTINUOUS
 62
     7
 10
-36.57999999999993
 20
-1246.499999999999
 30
0.0
 40
2.500000000000222
  0
LINE
  5
2E4
  8
DATA
  6
CONTINUOUS
 62
     7
 10
-35.07999999999993
 20
-1246.499999999999
 30
0.0
 11
-38.07999999999993
 21
-1246.499999999999
 31
0.0
  0
LINE
  5
2E5
  8
DATA
  6
CONTINUOUS
 62
     7
 10
-36.5
 20
-1244.999999999999
 30
0.0
 11
-36.5
 21
-1247.999999999999
 31
0.0
  0
CIRCLE
  5
2E6
  8
DATA
  6
CONTINUOUS
 62
     7
 10
-163.4200000000001
 20
-1031.499999999999
 30
0.0
 40
2.500000000000222
  0
LINE
  5
2E7
  8
DATA
  6
CONTINUOUS
 62
     7
 10
-164.9200000000001
 20
-1031.499999999999
 30
0.0
 11
-161.9200000000001
 21
-1031.499999999999
 31
0.0
  0
LINE
  5
2E8
  8
DATA
  6
CONTINUOUS
 62
     7
 10
-163.5
 20
-1029.999999999999
 30
0.0
 11
-163.5
 21
-1032.999999999999
 31
0.0
  0
CIRCLE
  5
2E9
  8
DATA
  6
CONTINUOUS
 62
     7
 10
-163.4200000000001
 20
-1138.999999999999
 30
0.0
 40
2.500000000000222
  0
LINE
  5
2EA
  8
DATA
  6
CONTINUOUS
 62
     7
 10
-164.9200000000001
 20
-1138.999999999999
 30
0.0
 11
-161.9200000000001
 21
-1138.999999999999
 31
0.0
  0
LINE
  5
2EB
  8
DATA
  6
CONTINUOUS
 62
     7
 10
-163.5
 20
-1137.499999999999
 30
0.0
 11
-163.5
 21
-1140.499999999999
 31
0.0
  0
CIRCLE
  5
2EC
  8
DATA
  6
CONTINUOUS
 62
     7
 10
-163.4200000000001
 20
-1246.499999999999
 30
0.0
 40
2.500000000000222
  0
LINE
  5
2ED
  8
DATA
  6
CONTINUOUS
 62
     7
 10
-164.9200000000001
 20
-1246.499999999999
 30
0.0
 11
-161.9200000000001
 21
-1246.499999999999
 31
0.0
  0
LINE
  5
2EE
  8
DATA
  6
CONTINUOUS
 62
     7
 10
-163.5
 20
-1244.999999999999
 30
0.0
 11
-163.5
 21
-1247.999999999999
 31
0.0
  0
TEXT
  5
2EF
  8
DATA
 62
     7
 10
-111.4916666666667
 20
-1059.578124999999
 30
0.0
 40
6.156250000000002
  1
PRX800
 41
0.7
 72
     1
 11
-100.0
 21
-1056.499999999999
 31
0.0
 73
     2
  0
LINE
  5
2F0
  8
DATA
  6
CONTINUOUS
 62
     7
 10
-32.5
 20
-1325.499999999999
 30
0.0
 11
-32.5
 21
-1250.499999999999
 31
0.0
  0
TEXT
  5
2F1
  8
DATA
 62
     7
 10
-111.4916666666667
 20
-1068.578124999999
 30
0.0
 40
6.156250000000002
  1
SERIES
 41
0.7
 72
     1
 11
-100.0
 21
-1065.499999999999
 31
0.0
 73
     2
  0
CIRCLE
  5
2F2
  8
DATA
  6
CONTINUOUS
 62
     7
 10
-142.0
 20
-1078.499999999999
 30
0.0
 40
4.0
  0
CIRCLE
  5
2F3
  8
DATA
  6
CONTINUOUS
 62
     7
 10
-58.0
 20
-1078.499999999999
 30
0.0
 40
4.0
  0
CIRCLE
  5
2F4
  8
DATA
  6
CONTINUOUS
 62
     7
 10
-142.0
 20
-1097.499999999999
 30
0.0
 40
3.999999999999942
  0
TEXT
  5
2F5
  8
DATA
 62
     7
 10
-68.7734375
 20
-1088.990065577693
 30
0.0
 40
4.6171875
  1
CONNECT
 41
0.7
 72
     1
 11
-58.0
 21
-1086.681471827693
 31
0.0
 73
     2
  0
TEXT
  5
2F6
  8
DATA
 62
     7
 10
-155.3590625
 20
-1107.990065577693
 30
0.0
 40
4.6171875
  1
FRONT LED
 41
0.7
 72
     1
 11
-142.0
 21
-1105.681471827693
 31
0.0
 73
     2
  0
CIRCLE
  5
2F7
  8
DATA
  6
CONTINUOUS
 62
     7
 10
-142.0
 20
-1135.499999999999
 30
0.0
 40
6.349999999999454
  0
LINE
  5
2F8
  8
DATA
  6
CONTINUOUS
 62
     7
 10
-144.2825774241091
 20
-1141.425566665133
 30
0.0
 11
-143.3565041028369
 21
-1139.821560621155
 31
0.0
  0
ARC
  5
2F9
  8
DATA
  6
CONTINUOUS
 62
     7
 10
-142.7937499999998
 20
-1136.874815328506
 30
0.0
 40
3.000000000000365
 50
259.1881364537152
 51
220.8118635462837
  0
LINE
  5
2FA
  8
DATA
  6
CONTINUOUS
 62
     7
 10
-145.9904025517699
 20
-1140.43955336795
 30
0.0
 11
-145.0643292304967
 21
-1138.835547323971
 31
0.0
  0
ARC
  5
2FB
  8
DATA
  6
CONTINUOUS
 62
     7
 10
-142.0000000000009
 20
-1135.499999999999
 30
0.0
 40
10.74999999999913
 50
197.5973366080775
 51
342.4026633919211
  0
ARC
  5
2FC
  8
DATA
  6
CONTINUOUS
 62
     7
 10
-142.0000000000009
 20
-1135.499999999999
 30
0.0
 40
10.74999999999867
 50
17.59733660808588
 51
162.4026633919156
  0
LINE
  5
2FD
  8
DATA
  6
CONTINUOUS
 62
     7
 10
-155.0
 20
-1121.749999999999
 30
0.0
 11
-155.0
 21
-1132.249999999998
 31
0.0
  0
LINE
  5
2FE
  8
DATA
  6
CONTINUOUS
 62
     7
 10
-155.0
 20
-1138.749999999998
 30
0.0
 11
-155.0
 21
-1149.249999999999
 31
0.0
  0
LINE
  5
2FF
  8
DATA
  6
CONTINUOUS
 62
     7
 10
-80.0
 20
-1121.749999999999
 30
0.0
 11
-80.0
 21
-1149.249999999999
 31
0.0
  0
LINE
  5
300
  8
DATA
  6
CONTINUOUS
 62
     7
 10
-82.5
 20
-1119.249999999999
 30
0.0
 11
-152.5
 21
-1119.249999999999
 31
0.0
  0
LINE
  5
301
  8
DATA
  6
CONTINUOUS
 62
     7
 10
-82.5
 20
-1151.749999999999
 30
0.0
 11
-152.5
 21
-1151.749999999999
 31
0.0
  0
ARC
  5
302
  8
DATA
  6
CONTINUOUS
 62
     7
 10
-152.5
 20
-1121.749999999999
 30
0.0
 40
2.5
 50
90.0
 51
180.0
  0
ARC
  5
303
  8
DATA
  6
CONTINUOUS
 62
     7
 10
-152.5
 20
-1149.249999999999
 30
0.0
 40
2.5
 50
180.0
 51
270.0
  0
ARC
  5
304
  8
DATA
  6
CONTINUOUS
 62
     7
 10
-82.5
 20
-1149.249999999999
 30
0.0
 40
2.5
 50
270.0
 51
0.0
  0
ARC
  5
305
  8
DATA
  6
CONTINUOUS
 62
     7
 10
-82.5
 20
-1121.749999999999
 30
0.0
 40
2.5
 50
0.0
 51
90.0
  0
ARC
  5
306
  8
DATA
  6
CONTINUOUS
 62
     7
 10
-142.0
 20
-1135.5
 30
0.0
 40
6.99999999999959
 50
300.0000000000019
 51
239.9999999999981
  0
LINE
  5
307
  8
DATA
  6
CONTINUOUS
 62
     7
 10
-138.5
 20
-1141.56217782649
 30
0.0
 11
-137.5
 21
-1143.294228634059
 31
0.0
  0
ARC
  5
308
  8
DATA
  6
CONTINUOUS
 62
     7
 10
-142.0711155499339
 20
-1134.948954171937
 30
0.0
 40
7.449293636114293
 50
89.45301085410236
 51
242.5937525059351
  0
ARC
  5
309
  8
DATA
  6
CONTINUOUS
 62
     7
 10
-142.028995211509
 20
-1136.046432412228
 30
0.0
 40
8.546481597655498
 50
302.0003950372785
 51
89.80561516297185
  0
LINE
  5
30A
  8
DATA
  6
CONTINUOUS
 62
     7
 10
-157.0
 20
-1133.249999999998
 30
0.0
 11
-157.0
 21
-1137.749999999998
 31
0.0
  0
LINE
  5
30B
  8
DATA
  6
CONTINUOUS
 62
     7
 10
-156.0
 20
-1132.249999999998
 30
0.0
 11
-152.2469507659598
 21
-1132.249999999998
 31
0.0
  0
LINE
  5
30C
  8
DATA
  6
CONTINUOUS
 62
     7
 10
-156.0
 20
-1138.749999999998
 30
0.0
 11
-152.2469507659598
 21
-1138.749999999998
 31
0.0
  0
TEXT
  5
30D
  8
DATA
 62
     7
 10
-156.1664530103835
 20
-1137.039062499998
 30
0.0
 40
3.078125000000001
  1
CH1
 41
0.7
 11
-156.1664530103835
 21
-1135.499999999998
 31
0.0
 73
     2
  0
CIRCLE
  5
30E
  8
DATA
  6
CONTINUOUS
 62
     7
 10
-125.0
 20
-1135.499999999999
 30
0.0
 40
3.999999999999942
  0
LINE
  5
30F
  8
DATA
  6
CONTINUOUS
 62
     7
 10
-131.8472751104673
 20
-1132.249999999998
 30
0.0
 11
-129.7434164902525
 21
-1132.249999999998
 31
0.0
  0
LINE
  5
310
  8
DATA
  6
CONTINUOUS
 62
     7
 10
-131.8472751104673
 20
-1138.749999999998
 30
0.0
 11
-129.7434164902534
 21
-1138.749999999998
 31
0.0
  0
ARC
  5
311
  8
DATA
  6
CONTINUOUS
 62
     7
 10
-125.0
 20
-1135.499999999999
 30
0.0
 40
5.750000000000273
 50
214.4173887104315
 51
325.5826112895685
  0
ARC
  5
312
  8
DATA
  6
CONTINUOUS
 62
     7
 10
-125.0
 20
-1135.499999999999
 30
0.0
 40
5.750000000000293
 50
34.41738871044781
 51
145.5826112895522
  0
LINE
  5
313
  8
DATA
  6
CONTINUOUS
 62
     7
 10
-120.3508093861719
 20
-1132.249999999998
 30
0.0
 11
-106.5515150521569
 21
-1132.249999999998
 31
0.0
  0
LINE
  5
314
  8
DATA
  6
CONTINUOUS
 62
     7
 10
-107.5515150521533
 20
-1138.749999999998
 30
0.0
 11
-106.5515150521533
 21
-1138.749999999998
 31
0.0
  0
ARC
  5
315
  8
DATA
  6
CONTINUOUS
 62
     7
 10
-95.00000000000364
 20
-1135.499999999991
 30
0.0
 40
12.00000000000361
 50
195.7138610480395
 51
290.1567097162713
  0
ARC
  5
316
  8
DATA
  6
CONTINUOUS
 62
     7
 10
-95.00000000000364
 20
-1135.499999999991
 30
0.0
 40
12.00000000000292
 50
326.5766201216888
 51
344.2861389519593
  0
ARC
  5
317
  8
DATA
  6
CONTINUOUS
 62
     7
 10
-95.00000000000364
 20
-1135.499999999991
 30
0.0
 40
12.0000000000023
 50
15.71386104796904
 51
110.1631391720163
  0
ARC
  5
318
  8
DATA
  6
CONTINUOUS
 62
     7
 10
-95.00000000000364
 20
-1135.499999999991
 30
0.0
 40
12.00000000000331
 50
146.5830495774347
 51
164.2861389520321
  0
LINE
  5
319
  8
DATA
  6
CONTINUOUS
 62
     7
 10
-81.0
 20
-1133.249999999998
 30
0.0
 11
-81.0
 21
-1137.749999999998
 31
0.0
  0
LINE
  5
31A
  8
DATA
  6
CONTINUOUS
 62
     7
 10
-83.44848494785128
 20
-1132.249999999998
 30
0.0
 11
-82.0
 21
-1132.249999999998
 31
0.0
  0
LINE
  5
31B
  8
DATA
  6
CONTINUOUS
 62
     7
 10
-83.44848494785492
 20
-1138.749999999998
 30
0.0
 11
-82.0
 21
-1138.749999999998
 31
0.0
  0
ARC
  5
31C
  8
DATA
  6
CONTINUOUS
 62
     7
 10
-104.5025591657241
 20
-1123.498828334525
 30
0.0
 40
3.750000000000343
 50
38.36987964684759
 51
218.3698796468562
  0
LINE
  5
31D
  8
DATA
  6
CONTINUOUS
 62
     7
 10
-107.4436195541239
 20
-1125.825341560747
 30
0.0
 11
-105.016219665612
 21
-1128.891267624538
 31
0.0
  0
LINE
  5
31E
  8
DATA
  6
CONTINUOUS
 62
     7
 10
-90.86493182469712
 20
-1146.765043772016
 30
0.0
 11
-88.44106038935752
 21
-1149.826513225014
 31
0.0
  0
LINE
  5
31F
  8
DATA
  6
CONTINUOUS
 62
     7
 10
-101.563470936765
 20
-1121.16982417343
 30
0.0
 11
-99.13633225809554
 21
-1124.235420316277
 31
0.0
  0
LINE
  5
320
  8
DATA
  6
CONTINUOUS
 62
     7
 10
-84.98452199749681
 20
-1142.109856305643
 30
0.0
 11
-82.56091177199869
 21
-1145.170995837696
 31
0.0
  0
ARC
  5
321
  8
DATA
  6
CONTINUOUS
 62
     7
 10
-85.49744083429141
 20
-1147.499999998791
 30
0.0
 40
3.749999999999124
 50
218.3213626079427
 51
40.24440190518695
  0
TEXT
  5
322
  8
DATA
 62
     7
 10
-116.8105793572096
 20
-1139.904296874998
 30
0.0
 40
2.30859375
  1
SIGNAL
 41
0.7
 72
     1
 11
-112.5012043572096
 21
-1138.749999999998
 31
0.0
 73
     2
  0
LINE
  5
323
  8
DATA
  6
CONTINUOUS
 62
     7
 10
-120.2565835097466
 20
-1138.749999999998
 30
0.0
 11
-117.2565835097466
 21
-1138.749999999998
 31
0.0
  0
TEXT
  5
324
  8
DATA
 62
     7
 10
-144.693359375
 20
-1150.92531686642
 30
0.0
 40
2.30859375
  1
GAIN
 41
0.7
 72
     1
 11
-142.0
 21
-1149.77101999142
 31
0.0
 73
     2
  0
TEXT
  5
325
  8
DATA
 62
     7
 10
-96.07734375
 20
-1150.92531686642
 30
0.0
 40
2.30859375
  1
IN
 41
0.7
 72
     1
 11
-95.0
 21
-1149.77101999142
 31
0.0
 73
     2
  0
TEXT
  5
326
  8
DATA
 62
     7
 10
-126.8853515625
 20
-1144.52257336684
 30
0.0
 40
2.30859375
  1
MIC
 41
0.7
 72
     1
 11
-125.0
 21
-1143.36827649184
 31
0.0
 73
     2
  0
CIRCLE
  5
327
  8
DATA
  6
CONTINUOUS
 62
     7
 10
-112.5
 20
-1112.499999999999
 30
0.0
 40
1.000000000000082
  0
TEXT
  5
328
  8
DATA
 62
     7
 10
-115.73203125
 20
-1116.754427059746
 30
0.0
 40
2.30859375
  1
LIMIT
 41
0.7
 72
     1
 11
-112.5
 21
-1115.600130184746
 31
0.0
 73
     2
  0
CIRCLE
  5
329
  8
DATA
  6
CONTINUOUS
 62
     7
 10
-112.5
 20
-1135.499999999998
 30
0.0
 40
0.9999999999998851
  0
ARC
  5
32A
  8
DATA
  6
CONTINUOUS
 62
     7
 10
-95.0
 20
-1170.499999999999
 30
0.0
 40
7.899999852386007
 50
140.692698054177
 51
129.3073054535597
  0
CIRCLE
  5
32B
  8
DATA
  6
CONTINUOUS
 62
     7
 10
-95.00000000000728
 20
-1170.499999999992
 30
0.0
 40
9.749999999025183
  0
CIRCLE
  5
32C
  8
DATA
  6
CONTINUOUS
 62
     7
 10
-95.00000000000728
 20
-1170.499999999992
 30
0.0
 40
10.75
  0
LINE
  5
32D
  8
DATA
  6
CONTINUOUS
 62
     7
 10
-92.60000000024775
 20
-1162.973380573671
 30
0.0
 11
-92.60000000024775
 21
-1162.973380727789
 31
0.0
  0
LINE
  5
32E
  8
DATA
  6
CONTINUOUS
 62
     7
 10
-97.84999999972297
 20
-1163.131995000729
 30
0.0
 11
-97.84999999972297
 21
-1163.131995158165
 31
0.0
  0
ARC
  5
32F
  8
DATA
  6
CONTINUOUS
 62
     7
 10
-99.49999999955799
 20
-1170.499999999992
 30
0.0
 40
1.999999999800095
 50
32.08918387405087
 51
327.9108161259492
  0
ARC
  5
330
  8
DATA
  6
CONTINUOUS
 62
     7
 10
-90.50000000045748
 20
-1170.499999999992
 30
0.0
 40
1.999999999800095
 50
212.0891838740509
 51
147.9108161259491
  0
ARC
  5
331
  8
DATA
  6
CONTINUOUS
 62
     7
 10
-95.00000000000728
 20
-1174.449999999597
 30
0.0
 40
1.99999999980077
 50
137.8522840898889
 51
42.14771591012861
  0
ARC
  5
332
  8
DATA
  6
CONTINUOUS
 62
     7
 10
-100.444722332797
 20
-1165.055278000536
 30
0.0
 40
0.799999999920039
 50
56.61290968104122
 51
213.387093826709
  0
ARC
  5
333
  8
DATA
  6
CONTINUOUS
 62
     7
 10
-95.00000000000728
 20
-1170.499999999992
 30
0.0
 40
2.999999999999744
 50
20.74191648508129
 51
159.2580835149249
  0
ARC
  5
334
  8
DATA
  6
CONTINUOUS
 62
     7
 10
-95.00000000000728
 20
-1170.499999999992
 30
0.0
 40
3.000000000000594
 50
200.7419164850751
 51
240.3778367991917
  0
ARC
  5
335
  8
DATA
  6
CONTINUOUS
 62
     7
 10
-95.00000000000728
 20
-1170.499999999992
 30
0.0
 40
2.999999999999644
 50
299.6221632007934
 51
339.2580835149187
  0
CIRCLE
  5
336
  8
DATA
  6
CONTINUOUS
 62
     7
 10
-85.5000000009577
 20
-1182.499999998792
 30
0.0
 40
2.5
  0
LINE
  5
337
  8
DATA
  6
STYLE_12
 62
     7
 10
-87.00255916762399
 20
-1182.499999998792
 30
0.0
 11
-84.00255916762399
 21
-1182.499999998792
 31
0.0
  0
LINE
  5
338
  8
DATA
  6
STYLE_12
 62
     7
 10
-85.5000000009577
 20
-1180.998828332125
 30
0.0
 11
-85.5000000009577
 21
-1183.998828332125
 31
0.0
  0
CIRCLE
  5
339
  8
DATA
  6
CONTINUOUS
 62
     7
 10
-104.5025591657241
 20
-1158.498828334525
 30
0.0
 40
2.5
  0
LINE
  5
33A
  8
DATA
  6
STYLE_12
 62
     7
 10
-106.0051183323903
 20
-1158.498828334525
 30
0.0
 11
-103.0051183323903
 21
-1158.498828334525
 31
0.0
  0
LINE
  5
33B
  8
DATA
  6
STYLE_12
 62
     7
 10
-104.5025591657241
 20
-1156.997656667859
 30
0.0
 11
-104.5025591657241
 21
-1159.997656667859
 31
0.0
  0
LINE
  5
33C
  8
DATA
  6
CONTINUOUS
 62
     7
 10
-97.39999999976772
 20
-1161.050000000937
 30
0.0
 11
-97.39999999976772
 21
-1158.796261282334
 31
0.0
  0
LINE
  5
33D
  8
DATA
  6
CONTINUOUS
 62
     7
 10
-92.60000000024775
 20
-1161.050000000937
 30
0.0
 11
-92.60000000024775
 21
-1158.796261282334
 31
0.0
  0
CIRCLE
  5
33E
  8
DATA
  6
CONTINUOUS
 62
     7
 10
-142.0
 20
-1170.499999999999
 30
0.0
 40
6.349999999999454
  0
LINE
  5
33F
  8
DATA
  6
CONTINUOUS
 62
     7
 10
-144.2825774241091
 20
-1176.425566665133
 30
0.0
 11
-143.3565041028369
 21
-1174.821560621155
 31
0.0
  0
ARC
  5
340
  8
DATA
  6
CONTINUOUS
 62
     7
 10
-142.7937499999998
 20
-1171.874815328506
 30
0.0
 40
3.000000000000365
 50
259.1881364537152
 51
220.8118635462837
  0
LINE
  5
341
  8
DATA
  6
CONTINUOUS
 62
     7
 10
-145.9904025517699
 20
-1175.43955336795
 30
0.0
 11
-145.0643292304967
 21
-1173.835547323971
 31
0.0
  0
ARC
  5
342
  8
DATA
  6
CONTINUOUS
 62
     7
 10
-142.0000000000009
 20
-1170.499999999999
 30
0.0
 40
10.74999999999913
 50
197.5973366080775
 51
342.4026633919211
  0
ARC
  5
343
  8
DATA
  6
CONTINUOUS
 62
     7
 10
-142.0000000000009
 20
-1170.499999999999
 30
0.0
 40
10.74999999999867
 50
17.59733660808588
 51
162.4026633919156
  0
LINE
  5
344
  8
DATA
  6
CONTINUOUS
 62
     7
 10
-155.0
 20
-1156.749999999999
 30
0.0
 11
-155.0
 21
-1167.249999999998
 31
0.0
  0
LINE
  5
345
  8
DATA
  6
CONTINUOUS
 62
     7
 10
-155.0
 20
-1173.749999999998
 30
0.0
 11
-155.0
 21
-1184.249999999999
 31
0.0
  0
LINE
  5
346
  8
DATA
  6
CONTINUOUS
 62
     7
 10
-82.5
 20
-1154.249999999999
 30
0.0
 11
-152.5
 21
-1154.249999999999
 31
0.0
  0
LINE
  5
347
  8
DATA
  6
CONTINUOUS
 62
     7
 10
-82.5
 20
-1186.749999999999
 30
0.0
 11
-152.5
 21
-1186.749999999999
 31
0.0
  0
ARC
  5
348
  8
DATA
  6
CONTINUOUS
 62
     7
 10
-152.5
 20
-1156.749999999999
 30
0.0
 40
2.5
 50
90.0
 51
180.0
  0
ARC
  5
349
  8
DATA
  6
CONTINUOUS
 62
     7
 10
-152.5
 20
-1184.249999999999
 30
0.0
 40
2.5
 50
180.0
 51
270.0
  0
ARC
  5
34A
  8
DATA
  6
CONTINUOUS
 62
     7
 10
-142.0
 20
-1170.5
 30
0.0
 40
6.99999999999959
 50
300.0000000000019
 51
239.9999999999981
  0
LINE
  5
34B
  8
DATA
  6
CONTINUOUS
 62
     7
 10
-138.5
 20
-1176.56217782649
 30
0.0
 11
-137.5
 21
-1178.294228634059
 31
0.0
  0
ARC
  5
34C
  8
DATA
  6
CONTINUOUS
 62
     7
 10
-142.0711155499339
 20
-1169.948954171937
 30
0.0
 40
7.449293636114293
 50
89.45301085410236
 51
242.5937525059351
  0
ARC
  5
34D
  8
DATA
  6
CONTINUOUS
 62
     7
 10
-142.028995211509
 20
-1171.046432412228
 30
0.0
 40
8.546481597655498
 50
302.0003950372785
 51
89.80561516297185
  0
LINE
  5
34E
  8
DATA
  6
CONTINUOUS
 62
     7
 10
-157.0
 20
-1167.249999999998
 30
0.0
 11
-157.0
 21
-1173.749999999998
 31
0.0
  0
LINE
  5
34F
  8
DATA
  6
CONTINUOUS
 62
     7
 10
-157.0
 20
-1167.249999999998
 30
0.0
 11
-152.2469507659598
 21
-1167.249999999998
 31
0.0
  0
LINE
  5
350
  8
DATA
  6
CONTINUOUS
 62
     7
 10
-157.0
 20
-1173.749999999998
 30
0.0
 11
-152.2469507659598
 21
-1173.749999999998
 31
0.0
  0
TEXT
  5
351
  8
DATA
 62
     7
 10
-156.1664530103835
 20
-1172.039062499998
 30
0.0
 40
3.078125000000001
  1
CH2
 41
0.7
 11
-156.1664530103835
 21
-1170.499999999998
 31
0.0
 73
     2
  0
CIRCLE
  5
352
  8
DATA
  6
CONTINUOUS
 62
     7
 10
-125.0
 20
-1170.499999999999
 30
0.0
 40
3.999999999999942
  0
LINE
  5
353
  8
DATA
  6
CONTINUOUS
 62
     7
 10
-157.0
 20
-1167.249999999998
 30
0.0
 11
-152.2469507659598
 21
-1167.249999999998
 31
0.0
  0
LINE
  5
354
  8
DATA
  6
CONTINUOUS
 62
     7
 10
-157.0
 20
-1173.749999999998
 30
0.0
 11
-152.2469507659598
 21
-1173.749999999998
 31
0.0
  0
LINE
  5
355
  8
DATA
  6
CONTINUOUS
 62
     7
 10
-131.8472751104673
 20
-1167.249999999998
 30
0.0
 11
-129.7434164902525
 21
-1167.249999999998
 31
0.0
  0
LINE
  5
356
  8
DATA
  6
CONTINUOUS
 62
     7
 10
-131.8472751104673
 20
-1173.749999999998
 30
0.0
 11
-129.7434164902534
 21
-1173.749999999998
 31
0.0
  0
ARC
  5
357
  8
DATA
  6
CONTINUOUS
 62
     7
 10
-125.0
 20
-1170.499999999999
 30
0.0
 40
5.750000000000273
 50
214.4173887104315
 51
325.5826112895685
  0
ARC
  5
358
  8
DATA
  6
CONTINUOUS
 62
     7
 10
-125.0
 20
-1170.499999999999
 30
0.0
 40
5.750000000000293
 50
34.41738871044781
 51
145.5826112895522
  0
LINE
  5
359
  8
DATA
  6
CONTINUOUS
 62
     7
 10
-120.3508093861719
 20
-1167.249999999998
 30
0.0
 11
-106.5515150521569
 21
-1167.249999999998
 31
0.0
  0
ARC
  5
35A
  8
DATA
  6
CONTINUOUS
 62
     7
 10
-95.00000000000364
 20
-1170.499999999991
 30
0.0
 40
12.00000000000361
 50
195.7138610480395
 51
290.1567097162713
  0
ARC
  5
35B
  8
DATA
  6
CONTINUOUS
 62
     7
 10
-95.00000000000364
 20
-1170.499999999991
 30
0.0
 40
12.00000000000292
 50
326.5766201216888
 51
344.2861389519593
  0
ARC
  5
35C
  8
DATA
  6
CONTINUOUS
 62
     7
 10
-95.00000000000364
 20
-1170.499999999991
 30
0.0
 40
12.0000000000023
 50
15.71386104796904
 51
110.1631391720163
  0
ARC
  5
35D
  8
DATA
  6
CONTINUOUS
 62
     7
 10
-95.00000000000364
 20
-1170.499999999991
 30
0.0
 40
12.00000000000331
 50
146.5830495774347
 51
164.2861389520321
  0
LINE
  5
35E
  8
DATA
  6
CONTINUOUS
 62
     7
 10
-81.0
 20
-1167.249999999998
 30
0.0
 11
-81.0
 21
-1173.749999999998
 31
0.0
  0
LINE
  5
35F
  8
DATA
  6
CONTINUOUS
 62
     7
 10
-83.44848494785128
 20
-1167.249999999998
 30
0.0
 11
-81.0
 21
-1167.249999999998
 31
0.0
  0
LINE
  5
360
  8
DATA
  6
CONTINUOUS
 62
     7
 10
-83.44848494785492
 20
-1173.749999999998
 30
0.0
 11
-81.0
 21
-1173.749999999998
 31
0.0
  0
ARC
  5
361
  8
DATA
  6
CONTINUOUS
 62
     7
 10
-104.5025591657241
 20
-1158.498828334525
 30
0.0
 40
3.750000000000343
 50
38.36987964684759
 51
218.3698796468562
  0
LINE
  5
362
  8
DATA
  6
CONTINUOUS
 62
     7
 10
-107.4436195541239
 20
-1160.825341560747
 30
0.0
 11
-105.016219665612
 21
-1163.891267624538
 31
0.0
  0
LINE
  5
363
  8
DATA
  6
CONTINUOUS
 62
     7
 10
-90.86493182469712
 20
-1181.765043772016
 30
0.0
 11
-88.44106038935752
 21
-1184.826513225014
 31
0.0
  0
LINE
  5
364
  8
DATA
  6
CONTINUOUS
 62
     7
 10
-101.563470936765
 20
-1156.16982417343
 30
0.0
 11
-99.13633225809554
 21
-1159.235420316277
 31
0.0
  0
LINE
  5
365
  8
DATA
  6
CONTINUOUS
 62
     7
 10
-84.98452199749681
 20
-1177.109856305643
 30
0.0
 11
-82.56091177199869
 21
-1180.170995837696
 31
0.0
  0
ARC
  5
366
  8
DATA
  6
CONTINUOUS
 62
     7
 10
-85.49744083429141
 20
-1182.499999998791
 30
0.0
 40
3.749999999999124
 50
218.3213626079427
 51
40.24440190518695
  0
TEXT
  5
367
  8
DATA
 62
     7
 10
-144.693359375
 20
-1185.92531686642
 30
0.0
 40
2.30859375
  1
GAIN
 41
0.7
 72
     1
 11
-142.0
 21
-1184.77101999142
 31
0.0
 73
     2
  0
TEXT
  5
368
  8
DATA
 62
     7
 10
-96.07734375
 20
-1185.92531686642
 30
0.0
 40
2.30859375
  1
IN
 41
0.7
 72
     1
 11
-95.0
 21
-1184.77101999142
 31
0.0
 73
     2
  0
TEXT
  5
369
  8
DATA
 62
     7
 10
-126.8853515625
 20
-1179.52257336684
 30
0.0
 40
2.30859375
  1
MIC
 41
0.7
 72
     1
 11
-125.0
 21
-1178.36827649184
 31
0.0
 73
     2
  0
CIRCLE
  5
36A
  8
DATA
  6
CONTINUOUS
 62
     7
 10
-112.5
 20
-1170.499999999998
 30
0.0
 40
0.9999999999998851
  0
CIRCLE
  5
36B
  8
DATA
  6
CONTINUOUS
 62
     7
 10
-70.49999999955799
 20
-1135.499999999992
 30
0.0
 40
1.649999999835927
  0
CIRCLE
  5
36C
  8
DATA
  6
CONTINUOUS
 62
     7
 10
-61.50000000045657
 20
-1135.499999999992
 30
0.0
 40
1.649999999834108
  0
CIRCLE
  5
36D
  8
DATA
  6
CONTINUOUS
 62
     7
 10
-56.50255916762399
 20
-1147.499999998792
 30
0.0
 40
2.5
  0
LINE
  5
36E
  8
DATA
  6
STYLE_12
 62
     7
 10
-58.00511833429118
 20
-1147.499999998792
 30
0.0
 11
-55.00511833429118
 21
-1147.499999998792
 31
0.0
  0
LINE
  5
36F
  8
DATA
  6
STYLE_12
 62
     7
 10
-56.50255916762399
 20
-1145.998828332125
 30
0.0
 11
-56.50255916762399
 21
-1148.998828332125
 31
0.0
  0
CIRCLE
  5
370
  8
DATA
  6
CONTINUOUS
 62
     7
 10
-75.49744083239057
 20
-1123.500000001192
 30
0.0
 40
2.5
  0
LINE
  5
371
  8
DATA
  6
STYLE_12
 62
     7
 10
-76.99999999905776
 20
-1123.500000001192
 30
0.0
 11
-73.99999999905776
 21
-1123.500000001192
 31
0.0
  0
LINE
  5
372
  8
DATA
  6
STYLE_12
 62
     7
 10
-75.49744083239057
 20
-1121.998828334525
 30
0.0
 11
-75.49744083239057
 21
-1124.998828334525
 31
0.0
  0
CIRCLE
  5
373
  8
DATA
  6
CONTINUOUS
 62
     7
 10
-66.00000000000728
 20
-1135.499999999992
 30
0.0
 40
9.750000015681577
  0
CIRCLE
  5
374
  8
DATA
  6
CONTINUOUS
 62
     7
 10
-66.00000000000728
 20
-1139.449999999597
 30
0.0
 40
1.649999999834108
  0
ARC
  5
375
  8
DATA
  6
CONTINUOUS
 62
     7
 10
-66.00000000000364
 20
-1135.499999999991
 30
0.0
 40
12.00000000000279
 50
326.5766201216898
 51
74.28613895199577
  0
ARC
  5
376
  8
DATA
  6
CONTINUOUS
 62
     7
 10
-66.00000000000364
 20
-1135.499999999991
 30
0.0
 40
12.00000000000295
 50
105.7138610480043
 51
110.1631391720163
  0
ARC
  5
377
  8
DATA
  6
CONTINUOUS
 62
     7
 10
-66.00000000000364
 20
-1135.499999999991
 30
0.0
 40
12.00000000000331
 50
146.5830495774347
 51
290.1567097162715
  0
ARC
  5
378
  8
DATA
  6
CONTINUOUS
 62
     7
 10
-75.50255916572405
 20
-1123.498828334525
 30
0.0
 40
3.750000000000343
 50
38.36987964684759
 51
218.3698796468562
  0
LINE
  5
379
  8
DATA
  6
CONTINUOUS
 62
     7
 10
-78.44361955412387
 20
-1125.825341560747
 30
0.0
 11
-76.01621966561197
 21
-1128.891267624538
 31
0.0
  0
LINE
  5
37A
  8
DATA
  6
CONTINUOUS
 62
     7
 10
-61.86493182469712
 20
-1146.765043772016
 30
0.0
 11
-59.44106038935752
 21
-1149.826513225014
 31
0.0
  0
LINE
  5
37B
  8
DATA
  6
CONTINUOUS
 62
     7
 10
-72.56347093676504
 20
-1121.16982417343
 30
0.0
 11
-70.13633225809554
 21
-1124.235420316277
 31
0.0
  0
LINE
  5
37C
  8
DATA
  6
CONTINUOUS
 62
     7
 10
-55.98452199749681
 20
-1142.109856305643
 30
0.0
 11
-53.56091177199869
 21
-1145.170995837696
 31
0.0
  0
ARC
  5
37D
  8
DATA
  6
CONTINUOUS
 62
     7
 10
-56.49744083429141
 20
-1147.499999998791
 30
0.0
 40
3.749999999999124
 50
218.3213626079427
 51
40.24440190518695
  0
TEXT
  5
37E
  8
DATA
 62
     7
 10
-70.7941796875
 20
-1150.92531686642
 30
0.0
 40
2.30859375
  1
MIX OUT
 41
0.7
 72
     1
 11
-66.0
 21
-1149.77101999142
 31
0.0
 73
     2
  0
CIRCLE
  5
37F
  8
DATA
  6
CONTINUOUS
 62
     7
 10
-66.00000000000364
 20
-1112.499999999999
 30
0.0
 40
4.0
  0
LINE
  5
380
  8
DATA
  6
CONTINUOUS
 62
     7
 10
-68.25000000000364
 20
-1100.499999999999
 30
0.0
 11
-63.75000000000364
 21
-1100.499999999999
 31
0.0
  0
LINE
  5
381
  8
DATA
  6
CONTINUOUS
 62
     7
 10
-69.25000000000364
 20
-1123.94848494784
 30
0.0
 11
-69.25000000000364
 21
-1117.243416490252
 31
0.0
  0
LINE
  5
382
  8
DATA
  6
CONTINUOUS
 62
     7
 10
-69.25000000000364
 20
-1107.756583509747
 30
0.0
 11
-69.25000000000364
 21
-1101.499999999999
 31
0.0
  0
LINE
  5
383
  8
DATA
  6
CONTINUOUS
 62
     7
 10
-62.75000000000364
 20
-1123.94848494784
 30
0.0
 11
-62.75000000000364
 21
-1117.243416490252
 31
0.0
  0
LINE
  5
384
  8
DATA
  6
CONTINUOUS
 62
     7
 10
-62.75000000000364
 20
-1107.756583509747
 30
0.0
 11
-62.75000000000364
 21
-1101.499999999999
 31
0.0
  0
ARC
  5
385
  8
DATA
  6
CONTINUOUS
 62
     7
 10
-66.00000000000364
 20
-1112.499999999999
 30
0.0
 40
5.750000000000283
 50
304.4173887104396
 51
55.58261128955783
  0
ARC
  5
386
  8
DATA
  6
CONTINUOUS
 62
     7
 10
-66.00000000000364
 20
-1112.499999999999
 30
0.0
 40
5.749999999999908
 50
124.4173887104422
 51
235.5826112895604
  0
TEXT
  5
387
  8
DATA
 62
     7
 10
-59.65977616616055
 20
-1113.654296874999
 30
0.0
 40
2.30859375
  1
50/50 MIX
 41
0.7
 11
-59.65977616616055
 21
-1112.499999999999
 31
0.0
 73
     2
  0
ARC
  5
388
  8
DATA
  6
CONTINUOUS
 62
     7
 10
-156.0
 20
-1133.249999999998
 30
0.0
 40
1.0
 50
90.0
 51
180.0
  0
ARC
  5
389
  8
DATA
  6
CONTINUOUS
 62
     7
 10
-156.0
 20
-1137.749999999998
 30
0.0
 40
1.0
 50
180.0
 51
270.0
  0
ARC
  5
38A
  8
DATA
  6
CONTINUOUS
 62
     7
 10
-82.0
 20
-1133.249999999998
 30
0.0
 40
1.0
 50
0.0
 51
90.0
  0
ARC
  5
38B
  8
DATA
  6
CONTINUOUS
 62
     7
 10
-82.0
 20
-1137.749999999998
 30
0.0
 40
1.0
 50
270.0
 51
0.0
  0
ARC
  5
38C
  8
DATA
  6
CONTINUOUS
 62
     7
 10
-68.25000000000364
 20
-1101.499999999999
 30
0.0
 40
1.0
 50
90.0
 51
180.0
  0
ARC
  5
38D
  8
DATA
  6
CONTINUOUS
 62
     7
 10
-63.75000000000364
 20
-1101.499999999999
 30
0.0
 40
1.0
 50
0.0
 51
90.0
  0
CIRCLE
  5
38E
  8
DATA
  6
CONTINUOUS
 62
     7
 10
-66.00000000000364
 20
-1103.499999999999
 30
0.0
 40
1.000000000000082
  0
CIRCLE
  5
38F
  8
DATA
  6
CONTINUOUS
 62
     7
 10
-89.0
 20
-1202.499999999999
 30
0.0
 40
4.149999999999636
  0
CIRCLE
  5
390
  8
DATA
  6
CONTINUOUS
 62
     7
 10
-89.0
 20
-1202.499999999999
 30
0.0
 40
1.75
  0
CIRCLE
  5
391
  8
DATA
  6
CONTINUOUS
 62
     7
 10
-89.0
 20
-1202.499999999999
 30
0.0
 40
2.949999999999818
  0
CIRCLE
  5
392
  8
DATA
  6
CONTINUOUS
 62
     7
 10
-103.0
 20
-1202.499999999999
 30
0.0
 40
4.149999999999636
  0
CIRCLE
  5
393
  8
DATA
  6
CONTINUOUS
 62
     7
 10
-103.0
 20
-1202.499999999999
 30
0.0
 40
1.75
  0
CIRCLE
  5
394
  8
DATA
  6
CONTINUOUS
 62
     7
 10
-103.0
 20
-1202.499999999999
 30
0.0
 40
2.949999999999818
  0
CIRCLE
  5
395
  8
DATA
  6
CONTINUOUS
 62
     7
 10
-113.0
 20
-1202.499999999999
 30
0.0
 40
1.000000000000082
  0
TEXT
  5
396
  8
DATA
 62
     7
 10
-117.309375
 20
-1207.019913880808
 30
0.0
 40
2.30859375
  1
SIGNAL
 41
0.7
 72
     1
 11
-113.0
 21
-1205.865617005808
 31
0.0
 73
     2
  0
TEXT
  5
397
  8
DATA
 62
     7
 10
-83.39186573289771
 20
-1203.654296874999
 30
0.0
 40
2.30859375
  1
-IN
 41
0.7
 11
-83.39186573289771
 21
-1202.499999999999
 31
0.0
 73
     2
  0
LINE
  5
398
  8
DATA
  6
CONTINUOUS
 62
     7
 10
-107.5515150521533
 20
-1173.749999999998
 30
0.0
 11
-106.5515150521533
 21
-1173.749999999998
 31
0.0
  0
TEXT
  5
399
  8
DATA
 62
     7
 10
-116.8105793572096
 20
-1174.904296874998
 30
0.0
 40
2.30859375
  1
SIGNAL
 41
0.7
 72
     1
 11
-112.5012043572096
 21
-1173.749999999998
 31
0.0
 73
     2
  0
LINE
  5
39A
  8
DATA
  6
CONTINUOUS
 62
     7
 10
-120.2565835097466
 20
-1173.749999999998
 30
0.0
 11
-117.2565835097466
 21
-1173.749999999998
 31
0.0
  0
CIRCLE
  5
39B
  8
DATA
  6
CONTINUOUS
 62
     7
 10
-96.00255916666629
 20
-1195.5
 30
0.0
 40
2.5
  0
LINE
  5
39C
  8
DATA
  6
STYLE_12
 62
     7
 10
-97.50511833333258
 20
-1195.5
 30
0.0
 11
-94.50511833333258
 21
-1195.5
 31
0.0
  0
LINE
  5
39D
  8
DATA
  6
STYLE_12
 62
     7
 10
-96.00255916666629
 20
-1193.998828333333
 30
0.0
 11
-96.00255916666629
 21
-1196.998828333333
 31
0.0
  0
CIRCLE
  5
39E
  8
DATA
  6
CONTINUOUS
 62
     7
 10
-70.5
 20
-1192.499999999999
 30
0.0
 40
1.000000000000082
  0
CIRCLE
  5
39F
  8
DATA
  6
CONTINUOUS
 62
     7
 10
-70.5
 20
-1199.499999999999
 30
0.0
 40
1.000000000000082
  0
TEXT
  5
3A0
  8
DATA
 62
     7
 10
-68.48354674550228
 20
-1193.654296874999
 30
0.0
 40
2.30859375
  1
REMOTE EQ
 41
0.7
 11
-68.48354674550228
 21
-1192.499999999999
 31
0.0
 73
     2
  0
TEXT
  5
3A1
  8
DATA
 62
     7
 10
-68.48354674550228
 20
-1200.654296874999
 30
0.0
 40
2.30859375
  1
POWER
 41
0.7
 11
-68.48354674550228
 21
-1199.499999999999
 31
0.0
 73
     2
  0
CIRCLE
  5
3A2
  8
DATA
  6
CONTINUOUS
 62
     7
 10
-145.4200000000001
 20
-1218.499999999999
 30
0.0
 40
4.00000000000007
  0
CIRCLE
  5
3A3
  8
DATA
  6
CONTINUOUS
 62
     7
 10
-105.4200000000001
 20
-1218.499999999999
 30
0.0
 40
4.00000000000007
  0
CIRCLE
  5
3A4
  8
DATA
  6
CONTINUOUS
 62
     7
 10
-145.3400000000001
 20
-1258.499999999999
 30
0.0
 40
4.00000000000007
  0
CIRCLE
  5
3A5
  8
DATA
  6
CONTINUOUS
 62
     7
 10
-105.3400000000001
 20
-1258.499999999999
 30
0.0
 40
4.00000000000007
  0
ARC
  5
3A6
  8
DATA
  6
CONTINUOUS
 62
     7
 10
-125.3799999999956
 20
-1238.500000000004
 30
0.0
 40
22.50000000000678
 50
143.4833304354114
 51
216.4978059575424
  0
ARC
  5
3A7
  8
DATA
  6
CONTINUOUS
 62
     7
 10
-125.3799999999956
 20
-1238.500000000004
 30
0.0
 40
22.50000000000646
 50
233.6169002693967
 51
306.5166695645861
  0
ARC
  5
3A8
  8
DATA
  6
CONTINUOUS
 62
     7
 10
-125.3799999999956
 20
-1238.500000000004
 30
0.0
 40
22.50000000000702
 50
323.6357791394831
 51
36.49780595758449
  0
ARC
  5
3A9
  8
DATA
  6
CONTINUOUS
 62
     7
 10
-125.3799999999956
 20
-1238.500000000004
 30
0.0
 40
22.50000000000675
 50
53.61690026942892
 51
126.3642208605176
  0
ARC
  5
3AA
  8
DATA
  6
CONTINUOUS
 62
     7
 10
-125.3799999999937
 20
-1238.500000000006
 30
0.0
 40
19.0000000000095
 50
144.1248197410519
 51
215.850456892124
  0
ARC
  5
3AB
  8
DATA
  6
CONTINUOUS
 62
     7
 10
-125.3799999999937
 20
-1238.500000000006
 30
0.0
 40
19.00000000000928
 50
234.2642493348033
 51
305.8751802589445
  0
ARC
  5
3AC
  8
DATA
  6
CONTINUOUS
 62
     7
 10
-125.3799999999937
 20
-1238.500000000006
 30
0.0
 40
19.00000000000984
 50
324.2889917635816
 51
35.85045689217009
  0
ARC
  5
3AD
  8
DATA
  6
CONTINUOUS
 62
     7
 10
-125.3799999999937
 20
-1238.500000000006
 30
0.0
 40
19.00000000000997
 50
54.26424933485212
 51
125.7110082364205
  0
ARC
  5
3AE
  8
DATA
  6
CONTINUOUS
 62
     7
 10
-125.3799999999992
 20
-1238.500000000001
 30
0.0
 40
16.35000000000198
 50
146.9247254142489
 51
213.0247030587842
  0
ARC
  5
3AF
  8
DATA
  6
CONTINUOUS
 62
     7
 10
-125.3799999999992
 20
-1238.500000000001
 30
0.0
 40
16.35000000000213
 50
237.0900031681606
 51
303.075274585767
  0
ARC
  5
3B0
  8
DATA
  6
CONTINUOUS
 62
     7
 10
-125.3799999999992
 20
-1238.500000000001
 30
0.0
 40
16.35000000000217
 50
327.1406180445806
 51
33.02470305881565
  0
ARC
  5
3B1
  8
DATA
  6
CONTINUOUS
 62
     7
 10
-125.3799999999992
 20
-1238.500000000001
 30
0.0
 40
16.35000000000206
 50
57.09000316817567
 51
122.8593819554128
  0
ARC
  5
3B2
  8
DATA
  6
CONTINUOUS
 62
     7
 10
-125.3799999999983
 20
-1238.500000000002
 30
0.0
 40
11.40000000000327
 50
149.8200177278847
 51
210.1021047968362
  0
ARC
  5
3B3
  8
DATA
  6
CONTINUOUS
 62
     7
 10
-125.3799999999983
 20
-1238.500000000002
 30
0.0
 40
11.40000000000335
 50
240.0126014301069
 51
300.1799822720687
  0
ARC
  5
3B4
  8
DATA
  6
CONTINUOUS
 62
     7
 10
-125.3799999999983
 20
-1238.500000000002
 30
0.0
 40
11.40000000000386
 50
330.0905642146068
 51
30.10210479687175
  0
ARC
  5
3B5
  8
DATA
  6
CONTINUOUS
 62
     7
 10
-125.3799999999983
 20
-1238.500000000002
 30
0.0
 40
11.4000000000036
 50
60.01260143010239
 51
119.9094357854169
  0
LINE
  5
3B6
  8
DATA
  6
CONTINUOUS
 62
     7
 10
-138.8348038751155
 20
-1221.893926287663
 30
0.0
 11
-137.7610513045656
 21
-1222.967678858213
 31
0.0
  0
LINE
  5
3B7
  8
DATA
  6
CONTINUOUS
 62
     7
 10
-134.4156958335443
 20
-1226.313034329234
 30
0.0
 11
-132.2701249605789
 21
-1228.4586052022
 31
0.0
  0
LINE
  5
3B8
  8
DATA
  6
CONTINUOUS
 62
     7
 10
-115.3386052022088
 20
-1245.39012496057
 30
0.0
 11
-113.193034329227
 21
-1247.535695833551
 31
0.0
  0
LINE
  5
3B9
  8
DATA
  6
CONTINUOUS
 62
     7
 10
-109.8476788582057
 20
-1250.881051304573
 30
0.0
 11
-108.7739262876548
 21
-1251.954803875124
 31
0.0
  0
LINE
  5
3BA
  8
DATA
  6
CONTINUOUS
 62
     7
 10
-141.9520942647441
 20
-1224.999175572476
 30
0.0
 11
-140.8788046757991
 21
-1226.072465161421
 31
0.0
  0
LINE
  5
3BB
  8
DATA
  6
CONTINUOUS
 62
     7
 10
-137.5354917758341
 20
-1229.415778061386
 30
0.0
 11
-135.3920793187262
 21
-1231.559190518494
 31
0.0
  0
LINE
  5
3BC
  8
DATA
  6
CONTINUOUS
 62
     7
 10
-118.4391905185184
 20
-1248.512079318701
 30
0.0
 11
-116.2957780613706
 21
-1250.655491775849
 31
0.0
  0
LINE
  5
3BD
  8
DATA
  6
CONTINUOUS
 62
     7
 10
-112.9524651614156
 20
-1253.998804675805
 30
0.0
 11
-111.8791755724706
 21
-1255.07209426475
 31
0.0
  0
LINE
  5
3BE
  8
DATA
  6
CONTINUOUS
 62
     7
 10
-141.9555979701117
 20
-1251.994426698933
 30
0.0
 11
-140.8831531203132
 21
-1250.919832661059
 31
0.0
  0
LINE
  5
3BF
  8
DATA
  6
CONTINUOUS
 62
     7
 10
-137.5421732785799
 20
-1247.572157468941
 30
0.0
 11
-135.3998349175508
 21
-1245.425525844663
 31
0.0
  0
LINE
  5
3C0
  8
DATA
  6
CONTINUOUS
 62
     7
 10
-118.4745477435581
 20
-1228.466320259501
 30
0.0
 11
-116.3322093825354
 21
-1226.319688635229
 31
0.0
  0
LINE
  5
3C1
  8
DATA
  6
CONTINUOUS
 62
     7
 10
-112.9912295408158
 20
-1222.972013443125
 30
0.0
 11
-111.9187846910054
 21
-1221.89741940524
 31
0.0
  0
LINE
  5
3C2
  8
DATA
  6
CONTINUOUS
 62
     7
 10
-138.8412153089903
 20
-1255.102580594754
 30
0.0
 11
-137.7687704591799
 21
-1254.027986556868
 31
0.0
  0
LINE
  5
3C3
  8
DATA
  6
CONTINUOUS
 62
     7
 10
-134.4277906174648
 20
-1250.680311364768
 30
0.0
 11
-132.285452256423
 21
-1248.533679740478
 31
0.0
  0
LINE
  5
3C4
  8
DATA
  6
CONTINUOUS
 62
     7
 10
-115.3601650824448
 20
-1231.57447415533
 30
0.0
 11
-113.2178267214067
 21
-1229.427842531043
 31
0.0
  0
LINE
  5
3C5
  8
DATA
  6
CONTINUOUS
 62
     7
 10
-109.876846879697
 20
-1226.080167338949
 30
0.0
 11
-108.8044020298757
 21
-1225.005573301052
 31
0.0
  0
ARC
  5
3C6
  8
DATA
  6
CONTINUOUS
 62
     7
 10
-141.5859114569876
 20
-1226.77957194261
 30
0.0
 40
1.000000000003215
 50
324.1248197412439
 51
45.00000000001842
  0
ARC
  5
3C7
  8
DATA
  6
CONTINUOUS
 62
     7
 10
-142.6592010459326
 20
-1225.706282353664
 30
0.0
 40
1.00000000000258
 50
44.9999999999908
 51
143.4833304352787
  0
ARC
  5
3C8
  8
DATA
  6
CONTINUOUS
 62
     7
 10
-138.1276970939261
 20
-1221.186819506474
 30
0.0
 40
1.000000000003707
 50
126.3642208607274
 51
224.9999999999816
  0
ARC
  5
3C9
  8
DATA
  6
CONTINUOUS
 62
     7
 10
-137.0539445233717
 20
-1222.260572077019
 30
0.0
 40
1.000000000010459
 50
225.0
 51
305.711008235845
  0
ARC
  5
3CA
  8
DATA
  6
CONTINUOUS
 62
     7
 10
-133.7085890523431
 20
-1225.605927548033
 30
0.0
 40
1.000000000020383
 50
122.8593819565752
 51
225.0000000000092
  0
ARC
  5
3CB
  8
DATA
  6
CONTINUOUS
 62
     7
 10
-131.5630181793867
 20
-1227.751498421007
 30
0.0
 40
1.000000000008047
 50
225.0000000000092
 51
299.9094357849528
  0
ARC
  5
3CC
  8
DATA
  6
CONTINUOUS
 62
     7
 10
-119.1823619847564
 20
-1227.759921646785
 30
0.0
 40
1.000000000044732
 50
240.0126014325831
 51
315.0573531134987
  0
ARC
  5
3CD
  8
DATA
  6
CONTINUOUS
 62
     7
 10
-117.0400236236983
 20
-1225.613290022549
 30
0.0
 40
0.9999999999949097
 50
315.0573531134924
 51
57.09000316847141
  0
ARC
  5
3CE
  8
DATA
  6
CONTINUOUS
 62
     7
 10
-113.6990437819923
 20
-1222.265614830431
 30
0.0
 40
1.000000000014485
 50
234.264249335681
 51
315.0573531134821
  0
ARC
  5
3CF
  8
DATA
  6
CONTINUOUS
 62
     7
 10
-112.6265989321673
 20
-1221.19102079256
 30
0.0
 40
0.9999999999934629
 50
315.0573531135017
 51
53.61690026982654
  0
ARC
  5
3D0
  8
DATA
  6
CONTINUOUS
 62
     7
 10
-108.0965877887111
 20
-1225.711971913735
 30
0.0
 40
0.9999999999979027
 50
36.49780595748937
 51
135.0573531134738
  0
ARC
  5
3D1
  8
DATA
  6
CONTINUOUS
 62
     7
 10
-109.1690326385396
 20
-1226.786565951625
 30
0.0
 40
0.9999999999875137
 50
135.0573531134744
 51
215.8504568928802
  0
ARC
  5
3D2
  8
DATA
  6
CONTINUOUS
 62
     7
 10
-112.5100124802402
 20
-1230.134241143728
 30
0.0
 40
1.00000000000023
 50
33.02470305884726
 51
135.0573531134829
  0
ARC
  5
3D3
  8
DATA
  6
CONTINUOUS
 62
     7
 10
-114.6523508412738
 20
-1232.280872768019
 30
0.0
 40
1.000000000006646
 50
135.0573531134825
 51
210.1021047964975
  0
ARC
  5
3D4
  8
DATA
  6
CONTINUOUS
 62
     7
 10
-114.631498421033
 20
-1244.683018179394
 30
0.0
 40
0.9999999999846314
 50
150.0905642137603
 51
225.0
  0
ARC
  5
3D5
  8
DATA
  6
CONTINUOUS
 62
     7
 10
-112.4859275480303
 20
-1246.828589052354
 30
0.0
 40
1.000000000014639
 50
225.0000000000184
 51
327.1406180437435
  0
ARC
  5
3D6
  8
DATA
  6
CONTINUOUS
 62
     7
 10
-109.1405720770181
 20
-1250.173944523385
 30
0.0
 40
1.000000000001513
 50
144.2889917636809
 51
225.0000000000092
  0
ARC
  5
3D7
  8
DATA
  6
CONTINUOUS
 62
     7
 10
-108.0668195064663
 20
-1251.247697093935
 30
0.0
 40
1.000000000002902
 50
225.0000000000092
 51
323.6357791393301
  0
ARC
  5
3D8
  8
DATA
  6
CONTINUOUS
 62
     7
 10
-112.5862823536618
 20
-1255.779201045941
 30
0.0
 40
1.000000000006036
 50
306.5166695649361
 51
44.9999999999908
  0
ARC
  5
3D9
  8
DATA
  6
CONTINUOUS
 62
     7
 10
-113.6595719425968
 20
-1254.705911456986
 30
0.0
 40
0.9999999999924515
 50
45.0
 51
125.8751802593549
  0
ARC
  5
3DA
  8
DATA
  6
CONTINUOUS
 62
     7
 10
-117.00288484255
 20
-1251.362598557028
 30
0.0
 40
0.9999999999893102
 50
303.075274585179
 51
44.99999999997237
  0
ARC
  5
3DB
  8
DATA
  6
CONTINUOUS
 62
     7
 10
-119.1462972996878
 20
-1249.219186099871
 30
0.0
 40
0.9999999999755699
 50
44.9999999999908
 51
120.1799822734346
  0
ARC
  5
3DC
  8
DATA
  6
CONTINUOUS
 62
     7
 10
-131.577638015252
 20
-1249.240078353166
 30
0.0
 40
1.000000000005997
 50
60.01260143046018
 51
135.057353113501
  0
ARC
  5
3DD
  8
DATA
  6
CONTINUOUS
 62
     7
 10
-133.7199763763001
 20
-1251.38670997745
 30
0.0
 40
0.9999999999973216
 50
135.0573531135015
 51
237.0900031683106
  0
ARC
  5
3DE
  8
DATA
  6
CONTINUOUS
 62
     7
 10
-137.0609562180116
 20
-1254.734385169554
 30
0.0
 40
1.000000000003136
 50
54.26424933495641
 51
135.0573531134827
  0
ARC
  5
3DF
  8
DATA
  6
CONTINUOUS
 62
     7
 10
-138.1334010678238
 20
-1255.808979207438
 30
0.0
 40
1.000000000000055
 50
135.0573531134921
 51
233.616900269396
  0
ARC
  5
3E0
  8
DATA
  6
CONTINUOUS
 62
     7
 10
-142.6634122112864
 20
-1251.288028086241
 30
0.0
 40
1.000000000011646
 50
216.4978059582032
 51
315.0573531134914
  0
ARC
  5
3E1
  8
DATA
  6
CONTINUOUS
 62
     7
 10
-141.590967361486
 20
-1250.213434048369
 30
0.0
 40
1.000000000008898
 50
315.0573531135009
 51
35.85045689164077
  0
ARC
  5
3E2
  8
DATA
  6
CONTINUOUS
 62
     7
 10
-136.1076491587173
 20
-1244.719127231979
 30
0.0
 40
1.000000000000215
 50
315.057353113483
 51
30.1021047968004
  0
ARC
  5
3E3
  8
DATA
  6
CONTINUOUS
 62
     7
 10
-138.2499875197573
 20
-1246.865758856246
 30
0.0
 40
1.000000000015958
 50
213.0247030596599
 51
315.057353113482
  0
ARC
  5
3E4
  8
DATA
  6
CONTINUOUS
 62
     7
 10
-136.099186099932
 20
-1232.2662972997
 30
0.0
 40
1.000000000027254
 50
329.8200177294141
 51
45.00000000001842
  0
ARC
  5
3E5
  8
DATA
  6
CONTINUOUS
 62
     7
 10
-138.2425985570235
 20
-1230.122884842576
 30
0.0
 40
1.000000000004349
 50
45.00000000001844
 51
146.924725413995
  0
LINE
  5
3E6
  8
DATA
  6
CONTINUOUS
 62
     7
 10
-167.5
 20
-1266.499999999999
 30
0.0
 11
-32.5
 21
-1266.499999999999
 31
0.0
  0
LINE
  5
3E7
  8
DATA
  6
CONTINUOUS
 62
     7
 10
-167.5
 20
-1272.499999999999
 30
0.0
 11
-32.5
 21
-1272.499999999999
 31
0.0
  0
CIRCLE
  5
3E8
  8
DATA
  6
CONTINUOUS
 62
     7
 10
-100.0
 20
-557.9999999999991
 30
0.0
 40
11.17600000000039
  0
LINE
  5
3E9
  8
DATA
  6
CONTINUOUS
 62
     7
 10
-98.22200000000066
 20
-555.2059999999992
 30
0.0
 11
-96.44400000000041
 21
-557.9999999999991
 31
0.0
  0
LINE
  5
3EA
  8
DATA
  6
CONTINUOUS
 62
     7
 10
-101.5240000000003
 20
-560.793999999999
 30
0.0
 11
-103.3019999999997
 21
-557.9999999999991
 31
0.0
  0
LINE
  5
3EB
  8
DATA
  6
CONTINUOUS
 62
     7
 10
-101.5240000000003
 20
-555.2059999999992
 30
0.0
 11
-98.22200000000066
 21
-555.2059999999992
 31
0.0
  0
LINE
  5
3EC
  8
DATA
  6
CONTINUOUS
 62
     7
 10
-98.22200000000066
 20
-560.793999999999
 30
0.0
 11
-101.5240000000003
 21
-560.793999999999
 31
0.0
  0
LINE
  5
3ED
  8
DATA
  6
CONTINUOUS
 62
     7
 10
-103.3019999999997
 20
-557.9999999999991
 30
0.0
 11
-101.5240000000003
 21
-555.2059999999992
 31
0.0
  0
LINE
  5
3EE
  8
DATA
  6
CONTINUOUS
 62
     7
 10
-96.44400000000041
 20
-557.9999999999991
 30
0.0
 11
-98.22200000000066
 21
-560.793999999999
 31
0.0
  0
CIRCLE
  5
3EF
  8
DATA
  6
CONTINUOUS
 62
     7
 10
-100.0
 20
-1407.999999999999
 30
0.0
 40
11.17600000000039
  0
LINE
  5
3F0
  8
DATA
  6
CONTINUOUS
 62
     7
 10
-98.22200000000066
 20
-1410.793999999999
 30
0.0
 11
-96.44400000000041
 21
-1407.999999999999
 31
0.0
  0
LINE
  5
3F1
  8
DATA
  6
CONTINUOUS
 62
     7
 10
-101.5240000000003
 20
-1405.205999999999
 30
0.0
 11
-103.3019999999997
 21
-1407.999999999999
 31
0.0
  0
LINE
  5
3F2
  8
DATA
  6
CONTINUOUS
 62
     7
 10
-101.5240000000003
 20
-1410.793999999999
 30
0.0
 11
-98.22200000000066
 21
-1410.793999999999
 31
0.0
  0
LINE
  5
3F3
  8
DATA
  6
CONTINUOUS
 62
     7
 10
-98.22200000000066
 20
-1405.205999999999
 30
0.0
 11
-101.5240000000003
 21
-1405.205999999999
 31
0.0
  0
LINE
  5
3F4
  8
DATA
  6
CONTINUOUS
 62
     7
 10
-103.3019999999997
 20
-1407.999999999999
 30
0.0
 11
-101.5240000000003
 21
-1410.793999999999
 31
0.0
  0
LINE
  5
3F5
  8
DATA
  6
CONTINUOUS
 62
     7
 10
-96.44400000000041
 20
-1407.999999999999
 30
0.0
 11
-98.22200000000066
 21
-1405.205999999999
 31
0.0
  0
LINE
  5
3F6
  8
DATA
  6
CONTINUOUS
 62
     7
 10
-215.25
 20
-515.9999999999991
 30
0.0
 11
-215.25
 21
-1449.999999999999
 31
0.0
  0
LINE
  5
3F7
  8
DATA
  6
CONTINUOUS
 62
     7
 10
-322.75
 20
-1439.999999999999
 30
0.0
 11
-322.75
 21
-525.9999999999991
 31
0.0
  0
LINE
  5
3F8
  8
DATA
  6
CONTINUOUS
 62
     7
 10
112.75
 20
-1449.999999999999
 30
0.0
 11
-312.75
 21
-1449.999999999999
 31
0.0
  0
LINE
  5
3F9
  8
DATA
  6
CONTINUOUS
 62
     7
 10
122.75
 20
-525.9999999999991
 30
0.0
 11
122.75
 21
-1439.999999999999
 31
0.0
  0
LINE
  5
3FA
  8
DATA
  6
CONTINUOUS
 62
     7
 10
-312.75
 20
-515.9999999999991
 30
0.0
 11
112.75
 21
-515.9999999999991
 31
0.0
  0
LINE
  5
3FB
  8
DATA
  6
CONTINUOUS
 62
     7
 10
-299.5
 20
-1453.499999999999
 30
0.0
 11
-299.5
 21
-1449.999999999999
 31
0.0
  0
LINE
  5
3FC
  8
DATA
  6
CONTINUOUS
 62
     7
 10
-261.5
 20
-1453.499999999999
 30
0.0
 11
-261.5
 21
-1449.999999999999
 31
0.0
  0
LINE
  5
3FD
  8
DATA
  6
CONTINUOUS
 62
     7
 10
-261.5
 20
-1453.499999999999
 30
0.0
 11
-299.5
 21
-1453.499999999999
 31
0.0
  0
LINE
  5
3FE
  8
DATA
  6
CONTINUOUS
 62
     7
 10
-201.25
 20
-1453.499999999999
 30
0.0
 11
-201.25
 21
-1449.999999999999
 31
0.0
  0
LINE
  5
3FF
  8
DATA
  6
CONTINUOUS
 62
     7
 10
-163.25
 20
-1453.499999999999
 30
0.0
 11
-163.25
 21
-1449.999999999999
 31
0.0
  0
LINE
  5
400
  8
DATA
  6
CONTINUOUS
 62
     7
 10
-163.25
 20
-1453.499999999999
 30
0.0
 11
-201.25
 21
-1453.499999999999
 31
0.0
  0
LINE
  5
401
  8
DATA
  6
CONTINUOUS
 62
     7
 10
61.5
 20
-1453.499999999999
 30
0.0
 11
61.5
 21
-1449.999999999999
 31
0.0
  0
LINE
  5
402
  8
DATA
  6
CONTINUOUS
 62
     7
 10
99.5
 20
-1453.499999999999
 30
0.0
 11
99.5
 21
-1449.999999999999
 31
0.0
  0
LINE
  5
403
  8
DATA
  6
CONTINUOUS
 62
     7
 10
99.5
 20
-1453.499999999999
 30
0.0
 11
61.5
 21
-1453.499999999999
 31
0.0
  0
ARC
  5
404
  8
DATA
  6
CONTINUOUS
 62
     7
 10
-312.75
 20
-525.9999999999991
 30
0.0
 40
10.0
 50
90.0
 51
180.0
  0
ARC
  5
405
  8
DATA
  6
CONTINUOUS
 62
     7
 10
112.75
 20
-525.9999999999991
 30
0.0
 40
10.0
 50
0.0
 51
90.0
  0
ARC
  5
406
  8
DATA
  6
CONTINUOUS
 62
     7
 10
-312.75
 20
-1439.999999999999
 30
0.0
 40
10.0
 50
180.0
 51
270.0
  0
ARC
  5
407
  8
DATA
  6
CONTINUOUS
 62
     7
 10
112.75
 20
-1439.999999999999
 30
0.0
 40
10.0
 50
270.0
 51
0.0
  0
LINE
  5
408
  8
DATA
  6
CONTINUOUS
 62
     7
 10
1.25
 20
-1453.499999999999
 30
0.0
 11
1.25
 21
-1449.999999999999
 31
0.0
  0
LINE
  5
409
  8
DATA
  6
CONTINUOUS
 62
     7
 10
-36.75
 20
-1453.499999999999
 30
0.0
 11
-36.75
 21
-1449.999999999999
 31
0.0
  0
LINE
  5
40A
  8
DATA
  6
CONTINUOUS
 62
     7
 10
-36.75
 20
-1453.499999999999
 30
0.0
 11
1.25
 21
-1453.499999999999
 31
0.0
  0
LINE
  5
40B
  8
DATA
  6
CONTINUOUS
 62
     7
 10
15.25
 20
-515.9999999999991
 30
0.0
 11
15.25
 21
-1449.999999999999
 31
0.0
  0
LINE
  5
40C
  8
DATA
  6
CONTINUOUS
 62
     7
 10
-264.6756269751686
 20
-877.9047955629526
 30
0.0
 11
-264.6756269751686
 21
-681.1047955629526
 31
0.0
  0
LINE
  5
40D
  8
DATA
  6
CONTINUOUS
 62
     7
 10
-315.005032235792
 20
-877.9047955629526
 30
0.0
 11
-315.005032235792
 21
-681.1047955629526
 31
0.0
  0
LINE
  5
40E
  8
DATA
  6
CONTINUOUS
 62
     7
 10
-310.4050322357916
 20
-676.5047955629525
 30
0.0
 11
-269.275626975169
 21
-676.5047955629525
 31
0.0
  0
LINE
  5
40F
  8
DATA
  6
CONTINUOUS
 62
     7
 10
-310.4050322357916
 20
-882.5047955629525
 30
0.0
 11
-269.275626975169
 21
-882.5047955629525
 31
0.0
  0
LINE
  5
410
  8
DATA
  6
CONTINUOUS
 62
     7
 10
-310.6320873897921
 20
-862.9047955629526
 30
0.0
 11
-310.6320873897921
 21
-796.5047955629525
 31
0.0
  0
LINE
  5
411
  8
DATA
  6
CONTINUOUS
 62
     7
 10
-310.6320873897921
 20
-782.5047955629525
 30
0.0
 11
-310.6320873897921
 21
-696.1047955629526
 31
0.0
  0
LINE
  5
412
  8
DATA
  6
CONTINUOUS
 62
     7
 10
-269.0451235686323
 20
-862.9047955629526
 30
0.0
 11
-269.0451235686323
 21
-796.5047955629525
 31
0.0
  0
LINE
  5
413
  8
DATA
  6
CONTINUOUS
 62
     7
 10
-269.0451235686323
 20
-782.5047955629525
 30
0.0
 11
-269.0451235686323
 21
-696.1047955629526
 31
0.0
  0
LINE
  5
414
  8
DATA
  6
CONTINUOUS
 62
     7
 10
-306.0320873897927
 20
-691.5047955629525
 30
0.0
 11
-273.6451235686318
 21
-691.5047955629525
 31
0.0
  0
LINE
  5
415
  8
DATA
  6
CONTINUOUS
 62
     7
 10
-306.0320873897927
 20
-867.5047955629525
 30
0.0
 11
-273.6451235686318
 21
-867.5047955629525
 31
0.0
  0
LINE
  5
416
  8
DATA
  6
CONTINUOUS
 62
     7
 10
-310.6320873897921
 20
-782.5047955629525
 30
0.0
 11
-269.0451235686323
 21
-782.5047955629525
 31
0.0
  0
LINE
  5
417
  8
DATA
  6
CONTINUOUS
 62
     7
 10
-310.6320873897921
 20
-796.5047955629525
 30
0.0
 11
-269.0451235686323
 21
-796.5047955629525
 31
0.0
  0
ARC
  5
418
  8
DATA
  6
CONTINUOUS
 62
     7
 10
-310.4050322357916
 20
-681.1047955629526
 30
0.0
 40
4.600000000000136
 50
90.0
 51
180.0
  0
ARC
  5
419
  8
DATA
  6
CONTINUOUS
 62
     7
 10
-269.275626975169
 20
-681.1047955629526
 30
0.0
 40
4.600000000000364
 50
0.0
 51
90.0
  0
ARC
  5
41A
  8
DATA
  6
CONTINUOUS
 62
     7
 10
-273.6451235686318
 20
-696.1047955629526
 30
0.0
 40
4.599999999999454
 50
0.0
 51
90.0
  0
ARC
  5
41B
  8
DATA
  6
CONTINUOUS
 62
     7
 10
-306.0320873897927
 20
-696.1047955629526
 30
0.0
 40
4.600000000000136
 50
90.0
 51
180.0
  0
ARC
  5
41C
  8
DATA
  6
CONTINUOUS
 62
     7
 10
-306.0320873897927
 20
-862.9047955629526
 30
0.0
 40
4.599999999999454
 50
180.0
 51
270.0
  0
ARC
  5
41D
  8
DATA
  6
CONTINUOUS
 62
     7
 10
-273.6451235686318
 20
-862.9047955629526
 30
0.0
 40
4.599999999999909
 50
270.0
 51
0.0
  0
ARC
  5
41E
  8
DATA
  6
CONTINUOUS
 62
     7
 10
-269.275626975169
 20
-877.9047955629526
 30
0.0
 40
4.599999999999909
 50
270.0
 51
0.0
  0
ARC
  5
41F
  8
DATA
  6
CONTINUOUS
 62
     7
 10
-310.4050322357916
 20
-877.9047955629526
 30
0.0
 40
4.600000000000364
 50
180.0
 51
270.0
  0
LINE
  5
420
  8
DATA
  6
CONTINUOUS
 62
     7
 10
64.6756269751686
 20
-877.9047955629526
 30
0.0
 11
64.6756269751686
 21
-681.1047955629526
 31
0.0
  0
LINE
  5
421
  8
DATA
  6
CONTINUOUS
 62
     7
 10
115.005032235792
 20
-877.9047955629526
 30
0.0
 11
115.005032235792
 21
-681.1047955629526
 31
0.0
  0
LINE
  5
422
  8
DATA
  6
CONTINUOUS
 62
     7
 10
110.4050322357916
 20
-676.5047955629525
 30
0.0
 11
69.27562697516805
 21
-676.5047955629525
 31
0.0
  0
LINE
  5
423
  8
DATA
  6
CONTINUOUS
 62
     7
 10
110.4050322357916
 20
-882.5047955629525
 30
0.0
 11
69.27562697516805
 21
-882.5047955629525
 31
0.0
  0
LINE
  5
424
  8
DATA
  6
CONTINUOUS
 62
     7
 10
110.6320873897921
 20
-862.9047955629526
 30
0.0
 11
110.6320873897921
 21
-796.5047955629525
 31
0.0
  0
LINE
  5
425
  8
DATA
  6
CONTINUOUS
 62
     7
 10
110.6320873897921
 20
-782.5047955629525
 30
0.0
 11
110.6320873897921
 21
-696.1047955629526
 31
0.0
  0
LINE
  5
426
  8
DATA
  6
CONTINUOUS
 62
     7
 10
69.04512356863233
 20
-862.9047955629526
 30
0.0
 11
69.04512356863233
 21
-796.5047955629525
 31
0.0
  0
LINE
  5
427
  8
DATA
  6
CONTINUOUS
 62
     7
 10
69.04512356863233
 20
-782.5047955629525
 30
0.0
 11
69.04512356863233
 21
-696.1047955629526
 31
0.0
  0
LINE
  5
428
  8
DATA
  6
CONTINUOUS
 62
     7
 10
106.0320873897927
 20
-691.5047955629525
 30
0.0
 11
73.64512356863179
 21
-691.5047955629525
 31
0.0
  0
LINE
  5
429
  8
DATA
  6
CONTINUOUS
 62
     7
 10
106.0320873897927
 20
-867.5047955629525
 30
0.0
 11
73.64512356863179
 21
-867.5047955629525
 31
0.0
  0
LINE
  5
42A
  8
DATA
  6
CONTINUOUS
 62
     7
 10
110.6320873897921
 20
-782.5047955629525
 30
0.0
 11
69.04512356863233
 21
-782.5047955629525
 31
0.0
  0
LINE
  5
42B
  8
DATA
  6
CONTINUOUS
 62
     7
 10
110.6320873897921
 20
-796.5047955629525
 30
0.0
 11
69.04512356863233
 21
-796.5047955629525
 31
0.0
  0
ARC
  5
42C
  8
DATA
  6
CONTINUOUS
 62
     7
 10
110.4050322357916
 20
-681.1047955629526
 30
0.0
 40
4.600000000000364
 50
0.0
 51
90.0
  0
ARC
  5
42D
  8
DATA
  6
CONTINUOUS
 62
     7
 10
69.27562697516805
 20
-681.1047955629526
 30
0.0
 40
4.600000000000136
 50
90.0
 51
180.0
  0
ARC
  5
42E
  8
DATA
  6
CONTINUOUS
 62
     7
 10
73.64512356863179
 20
-696.1047955629526
 30
0.0
 40
4.600000000000136
 50
90.0
 51
180.0
  0
ARC
  5
42F
  8
DATA
  6
CONTINUOUS
 62
     7
 10
106.0320873897927
 20
-696.1047955629526
 30
0.0
 40
4.599999999999454
 50
0.0
 51
90.0
  0
ARC
  5
430
  8
DATA
  6
CONTINUOUS
 62
     7
 10
106.0320873897927
 20
-862.9047955629526
 30
0.0
 40
4.599999999999909
 50
270.0
 51
0.0
  0
ARC
  5
431
  8
DATA
  6
CONTINUOUS
 62
     7
 10
73.64512356863179
 20
-862.9047955629526
 30
0.0
 40
4.599999999999454
 50
180.0
 51
270.0
  0
ARC
  5
432
  8
DATA
  6
CONTINUOUS
 62
     7
 10
69.27562697516805
 20
-877.9047955629526
 30
0.0
 40
4.599999999999454
 50
180.0
 51
270.0
  0
ARC
  5
433
  8
DATA
  6
CONTINUOUS
 62
     7
 10
110.4050322357916
 20
-877.9047955629526
 30
0.0
 40
4.599999999999909
 50
270.0
 51
0.0
  0
LINE
  5
434
  8
DATA
  6
CONTINUOUS
 62
     7
 10
-80.0
 20
-1156.749999999999
 30
0.0
 11
-80.0
 21
-1184.249999999999
 31
0.0
  0
ARC
  5
435
  8
DATA
  6
CONTINUOUS
 62
     7
 10
-82.5
 20
-1184.249999999999
 30
0.0
 40
2.5
 50
270.0
 51
0.0
  0
ARC
  5
436
  8
DATA
  6
CONTINUOUS
 62
     7
 10
-82.5
 20
-1156.749999999999
 30
0.0
 40
2.5
 50
0.0
 51
90.0
  0
LINE
  5
437
  8
DATA
  6
CONTINUOUS
 62
     7
 10
-154.4019237886469
 20
-991.4999999999991
 30
0.0
 11
-151.8038475772937
 21
-992.9999999999991
 31
0.0
  0
LINE
  5
438
  8
DATA
  6
CONTINUOUS
 62
     7
 10
-151.8038475772937
 20
-992.9999999999991
 30
0.0
 11
-151.8038475772937
 21
-995.9999999999991
 31
0.0
  0
LINE
  5
439
  8
DATA
  6
CONTINUOUS
 62
     7
 10
-151.8038475772937
 20
-995.9999999999991
 30
0.0
 11
-154.4019237886469
 21
-997.4999999999991
 31
0.0
  0
LINE
  5
43A
  8
DATA
  6
CONTINUOUS
 62
     7
 10
-154.4019237886469
 20
-997.4999999999991
 30
0.0
 11
-157.0
 21
-995.9999999999991
 31
0.0
  0
LINE
  5
43B
  8
DATA
  6
CONTINUOUS
 62
     7
 10
-157.0
 20
-995.9999999999991
 30
0.0
 11
-157.0
 21
-992.9999999999991
 31
0.0
  0
LINE
  5
43C
  8
DATA
  6
CONTINUOUS
 62
     7
 10
-157.0
 20
-992.9999999999991
 30
0.0
 11
-154.4019237886469
 21
-991.4999999999991
 31
0.0
  0
LINE
  5
43D
  8
DATA
  6
CONTINUOUS
 62
     7
 10
-158.4019237886469
 20
-997.4999999999991
 30
0.0
 11
-155.8038475772937
 21
-998.9999999999991
 31
0.0
  0
LINE
  5
43E
  8
DATA
  6
CONTINUOUS
 62
     7
 10
-155.8038475772937
 20
-998.9999999999991
 30
0.0
 11
-155.8038475772937
 21
-1001.999999999999
 31
0.0
  0
LINE
  5
43F
  8
DATA
  6
CONTINUOUS
 62
     7
 10
-155.8038475772937
 20
-1001.999999999999
 30
0.0
 11
-158.4019237886469
 21
-1003.499999999999
 31
0.0
  0
LINE
  5
440
  8
DATA
  6
CONTINUOUS
 62
     7
 10
-158.4019237886469
 20
-1003.499999999999
 30
0.0
 11
-161.0
 21
-1001.999999999999
 31
0.0
  0
LINE
  5
441
  8
DATA
  6
CONTINUOUS
 62
     7
 10
-161.0
 20
-1001.999999999999
 30
0.0
 11
-161.0
 21
-998.9999999999991
 31
0.0
  0
LINE
  5
442
  8
DATA
  6
CONTINUOUS
 62
     7
 10
-161.0
 20
-998.9999999999991
 30
0.0
 11
-158.4019237886469
 21
-997.4999999999991
 31
0.0
  0
LINE
  5
443
  8
DATA
  6
CONTINUOUS
 62
     7
 10
-151.531923788647
 20
-997.4999999999991
 30
0.0
 11
-148.9338475772938
 21
-998.9999999999991
 31
0.0
  0
LINE
  5
444
  8
DATA
  6
CONTINUOUS
 62
     7
 10
-148.9338475772938
 20
-998.9999999999991
 30
0.0
 11
-148.9338475772938
 21
-1001.999999999999
 31
0.0
  0
LINE
  5
445
  8
DATA
  6
CONTINUOUS
 62
     7
 10
-148.9338475772938
 20
-1001.999999999999
 30
0.0
 11
-151.531923788647
 21
-1003.499999999999
 31
0.0
  0
LINE
  5
446
  8
DATA
  6
CONTINUOUS
 62
     7
 10
-151.531923788647
 20
-1003.499999999999
 30
0.0
 11
-154.1300000000001
 21
-1001.999999999999
 31
0.0
  0
LINE
  5
447
  8
DATA
  6
CONTINUOUS
 62
     7
 10
-154.1300000000001
 20
-1001.999999999999
 30
0.0
 11
-154.1300000000001
 21
-998.9999999999991
 31
0.0
  0
LINE
  5
448
  8
DATA
  6
CONTINUOUS
 62
     7
 10
-154.1300000000001
 20
-998.9999999999991
 30
0.0
 11
-151.531923788647
 21
-997.4999999999991
 31
0.0
  0
LINE
  5
449
  8
DATA
  6
CONTINUOUS
 62
     7
 10
-144.6619237886471
 20
-997.4999999999991
 30
0.0
 11
-142.063847577293
 21
-998.9999999999991
 31
0.0
  0
LINE
  5
44A
  8
DATA
  6
CONTINUOUS
 62
     7
 10
-142.063847577293
 20
-998.9999999999991
 30
0.0
 11
-142.063847577293
 21
-1001.999999999999
 31
0.0
  0
LINE
  5
44B
  8
DATA
  6
CONTINUOUS
 62
     7
 10
-142.063847577293
 20
-1001.999999999999
 30
0.0
 11
-144.6619237886471
 21
-1003.499999999999
 31
0.0
  0
LINE
  5
44C
  8
DATA
  6
CONTINUOUS
 62
     7
 10
-144.6619237886471
 20
-1003.499999999999
 30
0.0
 11
-147.2600000000002
 21
-1001.999999999999
 31
0.0
  0
LINE
  5
44D
  8
DATA
  6
CONTINUOUS
 62
     7
 10
-147.2600000000002
 20
-1001.999999999999
 30
0.0
 11
-147.2600000000002
 21
-998.9999999999991
 31
0.0
  0
LINE
  5
44E
  8
DATA
  6
CONTINUOUS
 62
     7
 10
-147.2600000000002
 20
-998.9999999999991
 30
0.0
 11
-144.6619237886471
 21
-997.4999999999991
 31
0.0
  0
LINE
  5
44F
  8
DATA
  6
CONTINUOUS
 62
     7
 10
-137.7919237886472
 20
-997.4999999999991
 30
0.0
 11
-135.1938475772931
 21
-998.9999999999991
 31
0.0
  0
LINE
  5
450
  8
DATA
  6
CONTINUOUS
 62
     7
 10
-135.1938475772931
 20
-998.9999999999991
 30
0.0
 11
-135.1938475772931
 21
-1001.999999999999
 31
0.0
  0
LINE
  5
451
  8
DATA
  6
CONTINUOUS
 62
     7
 10
-135.1938475772931
 20
-1001.999999999999
 30
0.0
 11
-137.7919237886472
 21
-1003.499999999999
 31
0.0
  0
LINE
  5
452
  8
DATA
  6
CONTINUOUS
 62
     7
 10
-137.7919237886472
 20
-1003.499999999999
 30
0.0
 11
-140.3900000000003
 21
-1001.999999999999
 31
0.0
  0
LINE
  5
453
  8
DATA
  6
CONTINUOUS
 62
     7
 10
-140.3900000000003
 20
-1001.999999999999
 30
0.0
 11
-140.3900000000003
 21
-998.9999999999991
 31
0.0
  0
LINE
  5
454
  8
DATA
  6
CONTINUOUS
 62
     7
 10
-140.3900000000003
 20
-998.9999999999991
 30
0.0
 11
-137.7919237886472
 21
-997.4999999999991
 31
0.0
  0
LINE
  5
455
  8
DATA
  6
CONTINUOUS
 62
     7
 10
-130.9219237886464
 20
-997.4999999999991
 30
0.0
 11
-128.3238475772932
 21
-998.9999999999991
 31
0.0
  0
LINE
  5
456
  8
DATA
  6
CONTINUOUS
 62
     7
 10
-128.3238475772932
 20
-998.9999999999991
 30
0.0
 11
-128.3238475772932
 21
-1001.999999999999
 31
0.0
  0
LINE
  5
457
  8
DATA
  6
CONTINUOUS
 62
     7
 10
-128.3238475772932
 20
-1001.999999999999
 30
0.0
 11
-130.9219237886464
 21
-1003.499999999999
 31
0.0
  0
LINE
  5
458
  8
DATA
  6
CONTINUOUS
 62
     7
 10
-130.9219237886464
 20
-1003.499999999999
 30
0.0
 11
-133.5200000000004
 21
-1001.999999999999
 31
0.0
  0
LINE
  5
459
  8
DATA
  6
CONTINUOUS
 62
     7
 10
-133.5200000000004
 20
-1001.999999999999
 30
0.0
 11
-133.5200000000004
 21
-998.9999999999991
 31
0.0
  0
LINE
  5
45A
  8
DATA
  6
CONTINUOUS
 62
     7
 10
-133.5200000000004
 20
-998.9999999999991
 30
0.0
 11
-130.9219237886464
 21
-997.4999999999991
 31
0.0
  0
LINE
  5
45B
  8
DATA
  6
CONTINUOUS
 62
     7
 10
-124.0519237886465
 20
-997.4999999999991
 30
0.0
 11
-121.4538475772933
 21
-998.9999999999991
 31
0.0
  0
LINE
  5
45C
  8
DATA
  6
CONTINUOUS
 62
     7
 10
-121.4538475772933
 20
-998.9999999999991
 30
0.0
 11
-121.4538475772933
 21
-1001.999999999999
 31
0.0
  0
LINE
  5
45D
  8
DATA
  6
CONTINUOUS
 62
     7
 10
-121.4538475772933
 20
-1001.999999999999
 30
0.0
 11
-124.0519237886465
 21
-1003.499999999999
 31
0.0
  0
LINE
  5
45E
  8
DATA
  6
CONTINUOUS
 62
     7
 10
-124.0519237886465
 20
-1003.499999999999
 30
0.0
 11
-126.6500000000005
 21
-1001.999999999999
 31
0.0
  0
LINE
  5
45F
  8
DATA
  6
CONTINUOUS
 62
     7
 10
-126.6500000000005
 20
-1001.999999999999
 30
0.0
 11
-126.6499999999996
 21
-998.9999999999991
 31
0.0
  0
LINE
  5
460
  8
DATA
  6
CONTINUOUS
 62
     7
 10
-126.6499999999996
 20
-998.9999999999991
 30
0.0
 11
-124.0519237886465
 21
-997.4999999999991
 31
0.0
  0
LINE
  5
461
  8
DATA
  6
CONTINUOUS
 62
     7
 10
-117.1819237886466
 20
-997.4999999999991
 30
0.0
 11
-114.5838475772935
 21
-998.9999999999991
 31
0.0
  0
LINE
  5
462
  8
DATA
  6
CONTINUOUS
 62
     7
 10
-114.5838475772935
 20
-998.9999999999991
 30
0.0
 11
-114.5838475772935
 21
-1001.999999999999
 31
0.0
  0
LINE
  5
463
  8
DATA
  6
CONTINUOUS
 62
     7
 10
-114.5838475772935
 20
-1001.999999999999
 30
0.0
 11
-117.1819237886466
 21
-1003.499999999999
 31
0.0
  0
LINE
  5
464
  8
DATA
  6
CONTINUOUS
 62
     7
 10
-117.1819237886466
 20
-1003.499999999999
 30
0.0
 11
-119.7799999999997
 21
-1001.999999999999
 31
0.0
  0
LINE
  5
465
  8
DATA
  6
CONTINUOUS
 62
     7
 10
-119.7799999999997
 20
-1001.999999999999
 30
0.0
 11
-119.7799999999997
 21
-998.9999999999991
 31
0.0
  0
LINE
  5
466
  8
DATA
  6
CONTINUOUS
 62
     7
 10
-119.7799999999997
 20
-998.9999999999991
 30
0.0
 11
-117.1819237886466
 21
-997.4999999999991
 31
0.0
  0
LINE
  5
467
  8
DATA
  6
CONTINUOUS
 62
     7
 10
-110.3119237886467
 20
-997.4999999999991
 30
0.0
 11
-107.7138475772936
 21
-998.9999999999991
 31
0.0
  0
LINE
  5
468
  8
DATA
  6
CONTINUOUS
 62
     7
 10
-107.7138475772936
 20
-998.9999999999991
 30
0.0
 11
-107.7138475772936
 21
-1001.999999999999
 31
0.0
  0
LINE
  5
469
  8
DATA
  6
CONTINUOUS
 62
     7
 10
-107.7138475772936
 20
-1001.999999999999
 30
0.0
 11
-110.3119237886467
 21
-1003.499999999999
 31
0.0
  0
LINE
  5
46A
  8
DATA
  6
CONTINUOUS
 62
     7
 10
-110.3119237886467
 20
-1003.499999999999
 30
0.0
 11
-112.9099999999999
 21
-1001.999999999999
 31
0.0
  0
LINE
  5
46B
  8
DATA
  6
CONTINUOUS
 62
     7
 10
-112.9099999999999
 20
-1001.999999999999
 30
0.0
 11
-112.9099999999999
 21
-998.9999999999991
 31
0.0
  0
LINE
  5
46C
  8
DATA
  6
CONTINUOUS
 62
     7
 10
-112.9099999999999
 20
-998.9999999999991
 30
0.0
 11
-110.3119237886467
 21
-997.4999999999991
 31
0.0
  0
LINE
  5
46D
  8
DATA
  6
CONTINUOUS
 62
     7
 10
-103.4419237886468
 20
-997.4999999999991
 30
0.0
 11
-100.8438475772937
 21
-998.9999999999991
 31
0.0
  0
LINE
  5
46E
  8
DATA
  6
CONTINUOUS
 62
     7
 10
-100.8438475772937
 20
-998.9999999999991
 30
0.0
 11
-100.8438475772937
 21
-1001.999999999999
 31
0.0
  0
LINE
  5
46F
  8
DATA
  6
CONTINUOUS
 62
     7
 10
-100.8438475772937
 20
-1001.999999999999
 30
0.0
 11
-103.4419237886468
 21
-1003.499999999999
 31
0.0
  0
LINE
  5
470
  8
DATA
  6
CONTINUOUS
 62
     7
 10
-103.4419237886468
 20
-1003.499999999999
 30
0.0
 11
-106.04
 21
-1001.999999999999
 31
0.0
  0
LINE
  5
471
  8
DATA
  6
CONTINUOUS
 62
     7
 10
-106.04
 20
-1001.999999999999
 30
0.0
 11
-106.04
 21
-998.9999999999991
 31
0.0
  0
LINE
  5
472
  8
DATA
  6
CONTINUOUS
 62
     7
 10
-106.04
 20
-998.9999999999991
 30
0.0
 11
-103.4419237886468
 21
-997.4999999999991
 31
0.0
  0
LINE
  5
473
  8
DATA
  6
CONTINUOUS
 62
     7
 10
-96.57192378864693
 20
-997.4999999999991
 30
0.0
 11
-93.97384757729378
 21
-998.9999999999991
 31
0.0
  0
LINE
  5
474
  8
DATA
  6
CONTINUOUS
 62
     7
 10
-93.97384757729378
 20
-998.9999999999991
 30
0.0
 11
-93.97384757729378
 21
-1001.999999999999
 31
0.0
  0
LINE
  5
475
  8
DATA
  6
CONTINUOUS
 62
     7
 10
-93.97384757729378
 20
-1001.999999999999
 30
0.0
 11
-96.57192378864693
 21
-1003.499999999999
 31
0.0
  0
LINE
  5
476
  8
DATA
  6
CONTINUOUS
 62
     7
 10
-96.57192378864693
 20
-1003.499999999999
 30
0.0
 11
-99.17000000000007
 21
-1001.999999999999
 31
0.0
  0
LINE
  5
477
  8
DATA
  6
CONTINUOUS
 62
     7
 10
-99.17000000000007
 20
-1001.999999999999
 30
0.0
 11
-99.17000000000007
 21
-998.9999999999991
 31
0.0
  0
LINE
  5
478
  8
DATA
  6
CONTINUOUS
 62
     7
 10
-99.17000000000007
 20
-998.9999999999991
 30
0.0
 11
-96.57192378864693
 21
-997.4999999999991
 31
0.0
  0
LINE
  5
479
  8
DATA
  6
CONTINUOUS
 62
     7
 10
-89.70192378864704
 20
-997.4999999999991
 30
0.0
 11
-87.10384757729389
 21
-998.9999999999991
 31
0.0
  0
LINE
  5
47A
  8
DATA
  6
CONTINUOUS
 62
     7
 10
-87.10384757729389
 20
-998.9999999999991
 30
0.0
 11
-87.10384757729298
 21
-1001.999999999999
 31
0.0
  0
LINE
  5
47B
  8
DATA
  6
CONTINUOUS
 62
     7
 10
-87.10384757729298
 20
-1001.999999999999
 30
0.0
 11
-89.70192378864704
 21
-1003.499999999999
 31
0.0
  0
LINE
  5
47C
  8
DATA
  6
CONTINUOUS
 62
     7
 10
-89.70192378864704
 20
-1003.499999999999
 30
0.0
 11
-92.30000000000018
 21
-1001.999999999999
 31
0.0
  0
LINE
  5
47D
  8
DATA
  6
CONTINUOUS
 62
     7
 10
-92.30000000000018
 20
-1001.999999999999
 30
0.0
 11
-92.30000000000018
 21
-998.9999999999991
 31
0.0
  0
LINE
  5
47E
  8
DATA
  6
CONTINUOUS
 62
     7
 10
-92.30000000000018
 20
-998.9999999999991
 30
0.0
 11
-89.70192378864704
 21
-997.4999999999991
 31
0.0
  0
LINE
  5
47F
  8
DATA
  6
CONTINUOUS
 62
     7
 10
-82.83192378864715
 20
-997.4999999999991
 30
0.0
 11
-80.23384757729309
 21
-998.9999999999991
 31
0.0
  0
LINE
  5
480
  8
DATA
  6
CONTINUOUS
 62
     7
 10
-80.23384757729309
 20
-998.9999999999991
 30
0.0
 11
-80.23384757729309
 21
-1001.999999999999
 31
0.0
  0
LINE
  5
481
  8
DATA
  6
CONTINUOUS
 62
     7
 10
-80.23384757729309
 20
-1001.999999999999
 30
0.0
 11
-82.83192378864715
 21
-1003.499999999999
 31
0.0
  0
LINE
  5
482
  8
DATA
  6
CONTINUOUS
 62
     7
 10
-82.83192378864715
 20
-1003.499999999999
 30
0.0
 11
-85.43000000000029
 21
-1001.999999999999
 31
0.0
  0
LINE
  5
483
  8
DATA
  6
CONTINUOUS
 62
     7
 10
-85.43000000000029
 20
-1001.999999999999
 30
0.0
 11
-85.43000000000029
 21
-998.9999999999991
 31
0.0
  0
LINE
  5
484
  8
DATA
  6
CONTINUOUS
 62
     7
 10
-85.43000000000029
 20
-998.9999999999991
 30
0.0
 11
-82.83192378864715
 21
-997.4999999999991
 31
0.0
  0
LINE
  5
485
  8
DATA
  6
CONTINUOUS
 62
     7
 10
-75.96192378864635
 20
-997.4999999999991
 30
0.0
 11
-73.3638475772932
 21
-998.9999999999991
 31
0.0
  0
LINE
  5
486
  8
DATA
  6
CONTINUOUS
 62
     7
 10
-73.3638475772932
 20
-998.9999999999991
 30
0.0
 11
-73.3638475772932
 21
-1001.999999999999
 31
0.0
  0
LINE
  5
487
  8
DATA
  6
CONTINUOUS
 62
     7
 10
-73.3638475772932
 20
-1001.999999999999
 30
0.0
 11
-75.96192378864635
 21
-1003.499999999999
 31
0.0
  0
LINE
  5
488
  8
DATA
  6
CONTINUOUS
 62
     7
 10
-75.96192378864635
 20
-1003.499999999999
 30
0.0
 11
-78.5600000000004
 21
-1001.999999999999
 31
0.0
  0
LINE
  5
489
  8
DATA
  6
CONTINUOUS
 62
     7
 10
-78.5600000000004
 20
-1001.999999999999
 30
0.0
 11
-78.5600000000004
 21
-998.9999999999991
 31
0.0
  0
LINE
  5
48A
  8
DATA
  6
CONTINUOUS
 62
     7
 10
-78.5600000000004
 20
-998.9999999999991
 30
0.0
 11
-75.96192378864635
 21
-997.4999999999991
 31
0.0
  0
LINE
  5
48B
  8
DATA
  6
CONTINUOUS
 62
     7
 10
-69.09192378864645
 20
-997.4999999999991
 30
0.0
 11
-66.49384757729331
 21
-998.9999999999991
 31
0.0
  0
LINE
  5
48C
  8
DATA
  6
CONTINUOUS
 62
     7
 10
-66.49384757729331
 20
-998.9999999999991
 30
0.0
 11
-66.49384757729331
 21
-1001.999999999999
 31
0.0
  0
LINE
  5
48D
  8
DATA
  6
CONTINUOUS
 62
     7
 10
-66.49384757729331
 20
-1001.999999999999
 30
0.0
 11
-69.09192378864645
 21
-1003.499999999999
 31
0.0
  0
LINE
  5
48E
  8
DATA
  6
CONTINUOUS
 62
     7
 10
-69.09192378864645
 20
-1003.499999999999
 30
0.0
 11
-71.69000000000051
 21
-1001.999999999999
 31
0.0
  0
LINE
  5
48F
  8
DATA
  6
CONTINUOUS
 62
     7
 10
-71.69000000000051
 20
-1001.999999999999
 30
0.0
 11
-71.6899999999996
 21
-998.9999999999991
 31
0.0
  0
LINE
  5
490
  8
DATA
  6
CONTINUOUS
 62
     7
 10
-71.6899999999996
 20
-998.9999999999991
 30
0.0
 11
-69.09192378864645
 21
-997.4999999999991
 31
0.0
  0
LINE
  5
491
  8
DATA
  6
CONTINUOUS
 62
     7
 10
-62.22192378864656
 20
-997.4999999999991
 30
0.0
 11
-59.62384757729342
 21
-998.9999999999991
 31
0.0
  0
LINE
  5
492
  8
DATA
  6
CONTINUOUS
 62
     7
 10
-59.62384757729342
 20
-998.9999999999991
 30
0.0
 11
-59.62384757729342
 21
-1001.999999999999
 31
0.0
  0
LINE
  5
493
  8
DATA
  6
CONTINUOUS
 62
     7
 10
-59.62384757729342
 20
-1001.999999999999
 30
0.0
 11
-62.22192378864656
 21
-1003.499999999999
 31
0.0
  0
LINE
  5
494
  8
DATA
  6
CONTINUOUS
 62
     7
 10
-62.22192378864656
 20
-1003.499999999999
 30
0.0
 11
-64.81999999999971
 21
-1001.999999999999
 31
0.0
  0
LINE
  5
495
  8
DATA
  6
CONTINUOUS
 62
     7
 10
-64.81999999999971
 20
-1001.999999999999
 30
0.0
 11
-64.81999999999971
 21
-998.9999999999991
 31
0.0
  0
LINE
  5
496
  8
DATA
  6
CONTINUOUS
 62
     7
 10
-64.81999999999971
 20
-998.9999999999991
 30
0.0
 11
-62.22192378864656
 21
-997.4999999999991
 31
0.0
  0
LINE
  5
497
  8
DATA
  6
CONTINUOUS
 62
     7
 10
-55.35192378864667
 20
-997.4999999999991
 30
0.0
 11
-52.75384757729353
 21
-998.9999999999991
 31
0.0
  0
LINE
  5
498
  8
DATA
  6
CONTINUOUS
 62
     7
 10
-52.75384757729353
 20
-998.9999999999991
 30
0.0
 11
-52.75384757729353
 21
-1001.999999999999
 31
0.0
  0
LINE
  5
499
  8
DATA
  6
CONTINUOUS
 62
     7
 10
-52.75384757729353
 20
-1001.999999999999
 30
0.0
 11
-55.35192378864667
 21
-1003.499999999999
 31
0.0
  0
LINE
  5
49A
  8
DATA
  6
CONTINUOUS
 62
     7
 10
-55.35192378864667
 20
-1003.499999999999
 30
0.0
 11
-57.94999999999982
 21
-1001.999999999999
 31
0.0
  0
LINE
  5
49B
  8
DATA
  6
CONTINUOUS
 62
     7
 10
-57.94999999999982
 20
-1001.999999999999
 30
0.0
 11
-57.94999999999982
 21
-998.9999999999991
 31
0.0
  0
LINE
  5
49C
  8
DATA
  6
CONTINUOUS
 62
     7
 10
-57.94999999999982
 20
-998.9999999999991
 30
0.0
 11
-55.35192378864667
 21
-997.4999999999991
 31
0.0
  0
LINE
  5
49D
  8
DATA
  6
CONTINUOUS
 62
     7
 10
-48.48192378864678
 20
-997.4999999999991
 30
0.0
 11
-45.88384757729364
 21
-998.9999999999991
 31
0.0
  0
LINE
  5
49E
  8
DATA
  6
CONTINUOUS
 62
     7
 10
-45.88384757729364
 20
-998.9999999999991
 30
0.0
 11
-45.88384757729364
 21
-1001.999999999999
 31
0.0
  0
LINE
  5
49F
  8
DATA
  6
CONTINUOUS
 62
     7
 10
-45.88384757729364
 20
-1001.999999999999
 30
0.0
 11
-48.48192378864678
 21
-1003.499999999999
 31
0.0
  0
LINE
  5
4A0
  8
DATA
  6
CONTINUOUS
 62
     7
 10
-48.48192378864678
 20
-1003.499999999999
 30
0.0
 11
-51.07999999999993
 21
-1001.999999999999
 31
0.0
  0
LINE
  5
4A1
  8
DATA
  6
CONTINUOUS
 62
     7
 10
-51.07999999999993
 20
-1001.999999999999
 30
0.0
 11
-51.07999999999993
 21
-998.9999999999991
 31
0.0
  0
LINE
  5
4A2
  8
DATA
  6
CONTINUOUS
 62
     7
 10
-51.07999999999993
 20
-998.9999999999991
 30
0.0
 11
-48.48192378864678
 21
-997.4999999999991
 31
0.0
  0
LINE
  5
4A3
  8
DATA
  6
CONTINUOUS
 62
     7
 10
-41.61192378864689
 20
-997.4999999999991
 30
0.0
 11
-39.01384757729375
 21
-998.9999999999991
 31
0.0
  0
LINE
  5
4A4
  8
DATA
  6
CONTINUOUS
 62
     7
 10
-39.01384757729375
 20
-998.9999999999991
 30
0.0
 11
-39.01384757729375
 21
-1001.999999999999
 31
0.0
  0
LINE
  5
4A5
  8
DATA
  6
CONTINUOUS
 62
     7
 10
-39.01384757729375
 20
-1001.999999999999
 30
0.0
 11
-41.61192378864689
 21
-1003.499999999999
 31
0.0
  0
LINE
  5
4A6
  8
DATA
  6
CONTINUOUS
 62
     7
 10
-41.61192378864689
 20
-1003.499999999999
 30
0.0
 11
-44.21000000000004
 21
-1001.999999999999
 31
0.0
  0
LINE
  5
4A7
  8
DATA
  6
CONTINUOUS
 62
     7
 10
-44.21000000000004
 20
-1001.999999999999
 30
0.0
 11
-44.21000000000004
 21
-998.9999999999991
 31
0.0
  0
LINE
  5
4A8
  8
DATA
  6
CONTINUOUS
 62
     7
 10
-44.21000000000004
 20
-998.9999999999991
 30
0.0
 11
-41.61192378864689
 21
-997.4999999999991
 31
0.0
  0
LINE
  5
4A9
  8
DATA
  6
CONTINUOUS
 62
     7
 10
-147.531923788647
 20
-991.4999999999991
 30
0.0
 11
-144.9338475772938
 21
-992.9999999999991
 31
0.0
  0
LINE
  5
4AA
  8
DATA
  6
CONTINUOUS
 62
     7
 10
-144.9338475772938
 20
-992.9999999999991
 30
0.0
 11
-144.9338475772938
 21
-995.9999999999991
 31
0.0
  0
LINE
  5
4AB
  8
DATA
  6
CONTINUOUS
 62
     7
 10
-144.9338475772938
 20
-995.9999999999991
 30
0.0
 11
-147.531923788647
 21
-997.4999999999991
 31
0.0
  0
LINE
  5
4AC
  8
DATA
  6
CONTINUOUS
 62
     7
 10
-147.531923788647
 20
-997.4999999999991
 30
0.0
 11
-150.1300000000001
 21
-995.9999999999991
 31
0.0
  0
LINE
  5
4AD
  8
DATA
  6
CONTINUOUS
 62
     7
 10
-150.1300000000001
 20
-995.9999999999991
 30
0.0
 11
-150.1300000000001
 21
-992.9999999999991
 31
0.0
  0
LINE
  5
4AE
  8
DATA
  6
CONTINUOUS
 62
     7
 10
-150.1300000000001
 20
-992.9999999999991
 30
0.0
 11
-147.531923788647
 21
-991.4999999999991
 31
0.0
  0
LINE
  5
4AF
  8
DATA
  6
CONTINUOUS
 62
     7
 10
-140.6619237886471
 20
-991.4999999999991
 30
0.0
 11
-138.063847577293
 21
-992.9999999999991
 31
0.0
  0
LINE
  5
4B0
  8
DATA
  6
CONTINUOUS
 62
     7
 10
-138.063847577293
 20
-992.9999999999991
 30
0.0
 11
-138.063847577293
 21
-995.9999999999991
 31
0.0
  0
LINE
  5
4B1
  8
DATA
  6
CONTINUOUS
 62
     7
 10
-138.063847577293
 20
-995.9999999999991
 30
0.0
 11
-140.6619237886471
 21
-997.4999999999991
 31
0.0
  0
LINE
  5
4B2
  8
DATA
  6
CONTINUOUS
 62
     7
 10
-140.6619237886471
 20
-997.4999999999991
 30
0.0
 11
-143.2600000000002
 21
-995.9999999999991
 31
0.0
  0
LINE
  5
4B3
  8
DATA
  6
CONTINUOUS
 62
     7
 10
-143.2600000000002
 20
-995.9999999999991
 30
0.0
 11
-143.2600000000002
 21
-992.9999999999991
 31
0.0
  0
LINE
  5
4B4
  8
DATA
  6
CONTINUOUS
 62
     7
 10
-143.2600000000002
 20
-992.9999999999991
 30
0.0
 11
-140.6619237886471
 21
-991.4999999999991
 31
0.0
  0
LINE
  5
4B5
  8
DATA
  6
CONTINUOUS
 62
     7
 10
-133.7919237886472
 20
-991.4999999999991
 30
0.0
 11
-131.1938475772931
 21
-992.9999999999991
 31
0.0
  0
LINE
  5
4B6
  8
DATA
  6
CONTINUOUS
 62
     7
 10
-131.1938475772931
 20
-992.9999999999991
 30
0.0
 11
-131.1938475772931
 21
-995.9999999999991
 31
0.0
  0
LINE
  5
4B7
  8
DATA
  6
CONTINUOUS
 62
     7
 10
-131.1938475772931
 20
-995.9999999999991
 30
0.0
 11
-133.7919237886472
 21
-997.4999999999991
 31
0.0
  0
LINE
  5
4B8
  8
DATA
  6
CONTINUOUS
 62
     7
 10
-133.7919237886472
 20
-997.4999999999991
 30
0.0
 11
-136.3900000000003
 21
-995.9999999999991
 31
0.0
  0
LINE
  5
4B9
  8
DATA
  6
CONTINUOUS
 62
     7
 10
-136.3900000000003
 20
-995.9999999999991
 30
0.0
 11
-136.3900000000003
 21
-992.9999999999991
 31
0.0
  0
LINE
  5
4BA
  8
DATA
  6
CONTINUOUS
 62
     7
 10
-136.3900000000003
 20
-992.9999999999991
 30
0.0
 11
-133.7919237886472
 21
-991.4999999999991
 31
0.0
  0
LINE
  5
4BB
  8
DATA
  6
CONTINUOUS
 62
     7
 10
-126.9219237886464
 20
-991.4999999999991
 30
0.0
 11
-124.3238475772932
 21
-992.9999999999991
 31
0.0
  0
LINE
  5
4BC
  8
DATA
  6
CONTINUOUS
 62
     7
 10
-124.3238475772932
 20
-992.9999999999991
 30
0.0
 11
-124.3238475772932
 21
-995.9999999999991
 31
0.0
  0
LINE
  5
4BD
  8
DATA
  6
CONTINUOUS
 62
     7
 10
-124.3238475772932
 20
-995.9999999999991
 30
0.0
 11
-126.9219237886464
 21
-997.4999999999991
 31
0.0
  0
LINE
  5
4BE
  8
DATA
  6
CONTINUOUS
 62
     7
 10
-126.9219237886464
 20
-997.4999999999991
 30
0.0
 11
-129.5200000000004
 21
-995.9999999999991
 31
0.0
  0
LINE
  5
4BF
  8
DATA
  6
CONTINUOUS
 62
     7
 10
-129.5200000000004
 20
-995.9999999999991
 30
0.0
 11
-129.5200000000004
 21
-992.9999999999991
 31
0.0
  0
LINE
  5
4C0
  8
DATA
  6
CONTINUOUS
 62
     7
 10
-129.5200000000004
 20
-992.9999999999991
 30
0.0
 11
-126.9219237886464
 21
-991.4999999999991
 31
0.0
  0
LINE
  5
4C1
  8
DATA
  6
CONTINUOUS
 62
     7
 10
-120.0519237886465
 20
-991.4999999999991
 30
0.0
 11
-117.4538475772933
 21
-992.9999999999991
 31
0.0
  0
LINE
  5
4C2
  8
DATA
  6
CONTINUOUS
 62
     7
 10
-117.4538475772933
 20
-992.9999999999991
 30
0.0
 11
-117.4538475772933
 21
-995.9999999999991
 31
0.0
  0
LINE
  5
4C3
  8
DATA
  6
CONTINUOUS
 62
     7
 10
-117.4538475772933
 20
-995.9999999999991
 30
0.0
 11
-120.0519237886465
 21
-997.4999999999991
 31
0.0
  0
LINE
  5
4C4
  8
DATA
  6
CONTINUOUS
 62
     7
 10
-120.0519237886465
 20
-997.4999999999991
 30
0.0
 11
-122.6500000000005
 21
-995.9999999999991
 31
0.0
  0
LINE
  5
4C5
  8
DATA
  6
CONTINUOUS
 62
     7
 10
-122.6500000000005
 20
-995.9999999999991
 30
0.0
 11
-122.6499999999996
 21
-992.9999999999991
 31
0.0
  0
LINE
  5
4C6
  8
DATA
  6
CONTINUOUS
 62
     7
 10
-122.6499999999996
 20
-992.9999999999991
 30
0.0
 11
-120.0519237886465
 21
-991.4999999999991
 31
0.0
  0
LINE
  5
4C7
  8
DATA
  6
CONTINUOUS
 62
     7
 10
-113.1819237886466
 20
-991.4999999999991
 30
0.0
 11
-110.5838475772935
 21
-992.9999999999991
 31
0.0
  0
LINE
  5
4C8
  8
DATA
  6
CONTINUOUS
 62
     7
 10
-110.5838475772935
 20
-992.9999999999991
 30
0.0
 11
-110.5838475772935
 21
-995.9999999999991
 31
0.0
  0
LINE
  5
4C9
  8
DATA
  6
CONTINUOUS
 62
     7
 10
-110.5838475772935
 20
-995.9999999999991
 30
0.0
 11
-113.1819237886466
 21
-997.4999999999991
 31
0.0
  0
LINE
  5
4CA
  8
DATA
  6
CONTINUOUS
 62
     7
 10
-113.1819237886466
 20
-997.4999999999991
 30
0.0
 11
-115.7799999999997
 21
-995.9999999999991
 31
0.0
  0
LINE
  5
4CB
  8
DATA
  6
CONTINUOUS
 62
     7
 10
-115.7799999999997
 20
-995.9999999999991
 30
0.0
 11
-115.7799999999997
 21
-992.9999999999991
 31
0.0
  0
LINE
  5
4CC
  8
DATA
  6
CONTINUOUS
 62
     7
 10
-115.7799999999997
 20
-992.9999999999991
 30
0.0
 11
-113.1819237886466
 21
-991.4999999999991
 31
0.0
  0
LINE
  5
4CD
  8
DATA
  6
CONTINUOUS
 62
     7
 10
-106.3119237886467
 20
-991.4999999999991
 30
0.0
 11
-103.7138475772936
 21
-992.9999999999991
 31
0.0
  0
LINE
  5
4CE
  8
DATA
  6
CONTINUOUS
 62
     7
 10
-103.7138475772936
 20
-992.9999999999991
 30
0.0
 11
-103.7138475772936
 21
-995.9999999999991
 31
0.0
  0
LINE
  5
4CF
  8
DATA
  6
CONTINUOUS
 62
     7
 10
-103.7138475772936
 20
-995.9999999999991
 30
0.0
 11
-106.3119237886467
 21
-997.4999999999991
 31
0.0
  0
LINE
  5
4D0
  8
DATA
  6
CONTINUOUS
 62
     7
 10
-106.3119237886467
 20
-997.4999999999991
 30
0.0
 11
-108.9099999999999
 21
-995.9999999999991
 31
0.0
  0
LINE
  5
4D1
  8
DATA
  6
CONTINUOUS
 62
     7
 10
-108.9099999999999
 20
-995.9999999999991
 30
0.0
 11
-108.9099999999999
 21
-992.9999999999991
 31
0.0
  0
LINE
  5
4D2
  8
DATA
  6
CONTINUOUS
 62
     7
 10
-108.9099999999999
 20
-992.9999999999991
 30
0.0
 11
-106.3119237886467
 21
-991.4999999999991
 31
0.0
  0
LINE
  5
4D3
  8
DATA
  6
CONTINUOUS
 62
     7
 10
-99.44192378864682
 20
-991.4999999999991
 30
0.0
 11
-96.84384757729367
 21
-992.9999999999991
 31
0.0
  0
LINE
  5
4D4
  8
DATA
  6
CONTINUOUS
 62
     7
 10
-96.84384757729367
 20
-992.9999999999991
 30
0.0
 11
-96.84384757729367
 21
-995.9999999999991
 31
0.0
  0
LINE
  5
4D5
  8
DATA
  6
CONTINUOUS
 62
     7
 10
-96.84384757729367
 20
-995.9999999999991
 30
0.0
 11
-99.44192378864682
 21
-997.4999999999991
 31
0.0
  0
LINE
  5
4D6
  8
DATA
  6
CONTINUOUS
 62
     7
 10
-99.44192378864682
 20
-997.4999999999991
 30
0.0
 11
-102.04
 21
-995.9999999999991
 31
0.0
  0
LINE
  5
4D7
  8
DATA
  6
CONTINUOUS
 62
     7
 10
-102.04
 20
-995.9999999999991
 30
0.0
 11
-102.04
 21
-992.9999999999991
 31
0.0
  0
LINE
  5
4D8
  8
DATA
  6
CONTINUOUS
 62
     7
 10
-102.04
 20
-992.9999999999991
 30
0.0
 11
-99.44192378864682
 21
-991.4999999999991
 31
0.0
  0
LINE
  5
4D9
  8
DATA
  6
CONTINUOUS
 62
     7
 10
-92.57192378864693
 20
-991.4999999999991
 30
0.0
 11
-89.97384757729378
 21
-992.9999999999991
 31
0.0
  0
LINE
  5
4DA
  8
DATA
  6
CONTINUOUS
 62
     7
 10
-89.97384757729378
 20
-992.9999999999991
 30
0.0
 11
-89.97384757729378
 21
-995.9999999999991
 31
0.0
  0
LINE
  5
4DB
  8
DATA
  6
CONTINUOUS
 62
     7
 10
-89.97384757729378
 20
-995.9999999999991
 30
0.0
 11
-92.57192378864693
 21
-997.4999999999991
 31
0.0
  0
LINE
  5
4DC
  8
DATA
  6
CONTINUOUS
 62
     7
 10
-92.57192378864693
 20
-997.4999999999991
 30
0.0
 11
-95.17000000000007
 21
-995.9999999999991
 31
0.0
  0
LINE
  5
4DD
  8
DATA
  6
CONTINUOUS
 62
     7
 10
-95.17000000000007
 20
-995.9999999999991
 30
0.0
 11
-95.17000000000007
 21
-992.9999999999991
 31
0.0
  0
LINE
  5
4DE
  8
DATA
  6
CONTINUOUS
 62
     7
 10
-95.17000000000007
 20
-992.9999999999991
 30
0.0
 11
-92.57192378864693
 21
-991.4999999999991
 31
0.0
  0
LINE
  5
4DF
  8
DATA
  6
CONTINUOUS
 62
     7
 10
-85.70192378864704
 20
-991.4999999999991
 30
0.0
 11
-83.10384757729389
 21
-992.9999999999991
 31
0.0
  0
LINE
  5
4E0
  8
DATA
  6
CONTINUOUS
 62
     7
 10
-83.10384757729389
 20
-992.9999999999991
 30
0.0
 11
-83.10384757729298
 21
-995.9999999999991
 31
0.0
  0
LINE
  5
4E1
  8
DATA
  6
CONTINUOUS
 62
     7
 10
-83.10384757729298
 20
-995.9999999999991
 30
0.0
 11
-85.70192378864704
 21
-997.4999999999991
 31
0.0
  0
LINE
  5
4E2
  8
DATA
  6
CONTINUOUS
 62
     7
 10
-85.70192378864704
 20
-997.4999999999991
 30
0.0
 11
-88.30000000000018
 21
-995.9999999999991
 31
0.0
  0
LINE
  5
4E3
  8
DATA
  6
CONTINUOUS
 62
     7
 10
-88.30000000000018
 20
-995.9999999999991
 30
0.0
 11
-88.30000000000018
 21
-992.9999999999991
 31
0.0
  0
LINE
  5
4E4
  8
DATA
  6
CONTINUOUS
 62
     7
 10
-88.30000000000018
 20
-992.9999999999991
 30
0.0
 11
-85.70192378864704
 21
-991.4999999999991
 31
0.0
  0
LINE
  5
4E5
  8
DATA
  6
CONTINUOUS
 62
     7
 10
-78.83192378864715
 20
-991.4999999999991
 30
0.0
 11
-76.23384757729309
 21
-992.9999999999991
 31
0.0
  0
LINE
  5
4E6
  8
DATA
  6
CONTINUOUS
 62
     7
 10
-76.23384757729309
 20
-992.9999999999991
 30
0.0
 11
-76.23384757729309
 21
-995.9999999999991
 31
0.0
  0
LINE
  5
4E7
  8
DATA
  6
CONTINUOUS
 62
     7
 10
-76.23384757729309
 20
-995.9999999999991
 30
0.0
 11
-78.83192378864715
 21
-997.4999999999991
 31
0.0
  0
LINE
  5
4E8
  8
DATA
  6
CONTINUOUS
 62
     7
 10
-78.83192378864715
 20
-997.4999999999991
 30
0.0
 11
-81.43000000000029
 21
-995.9999999999991
 31
0.0
  0
LINE
  5
4E9
  8
DATA
  6
CONTINUOUS
 62
     7
 10
-81.43000000000029
 20
-995.9999999999991
 30
0.0
 11
-81.43000000000029
 21
-992.9999999999991
 31
0.0
  0
LINE
  5
4EA
  8
DATA
  6
CONTINUOUS
 62
     7
 10
-81.43000000000029
 20
-992.9999999999991
 30
0.0
 11
-78.83192378864715
 21
-991.4999999999991
 31
0.0
  0
LINE
  5
4EB
  8
DATA
  6
CONTINUOUS
 62
     7
 10
-71.96192378864635
 20
-991.4999999999991
 30
0.0
 11
-69.3638475772932
 21
-992.9999999999991
 31
0.0
  0
LINE
  5
4EC
  8
DATA
  6
CONTINUOUS
 62
     7
 10
-69.3638475772932
 20
-992.9999999999991
 30
0.0
 11
-69.3638475772932
 21
-995.9999999999991
 31
0.0
  0
LINE
  5
4ED
  8
DATA
  6
CONTINUOUS
 62
     7
 10
-69.3638475772932
 20
-995.9999999999991
 30
0.0
 11
-71.96192378864635
 21
-997.4999999999991
 31
0.0
  0
LINE
  5
4EE
  8
DATA
  6
CONTINUOUS
 62
     7
 10
-71.96192378864635
 20
-997.4999999999991
 30
0.0
 11
-74.5600000000004
 21
-995.9999999999991
 31
0.0
  0
LINE
  5
4EF
  8
DATA
  6
CONTINUOUS
 62
     7
 10
-74.5600000000004
 20
-995.9999999999991
 30
0.0
 11
-74.5600000000004
 21
-992.9999999999991
 31
0.0
  0
LINE
  5
4F0
  8
DATA
  6
CONTINUOUS
 62
     7
 10
-74.5600000000004
 20
-992.9999999999991
 30
0.0
 11
-71.96192378864635
 21
-991.4999999999991
 31
0.0
  0
LINE
  5
4F1
  8
DATA
  6
CONTINUOUS
 62
     7
 10
-65.09192378864645
 20
-991.4999999999991
 30
0.0
 11
-62.49384757729331
 21
-992.9999999999991
 31
0.0
  0
LINE
  5
4F2
  8
DATA
  6
CONTINUOUS
 62
     7
 10
-62.49384757729331
 20
-992.9999999999991
 30
0.0
 11
-62.49384757729331
 21
-995.9999999999991
 31
0.0
  0
LINE
  5
4F3
  8
DATA
  6
CONTINUOUS
 62
     7
 10
-62.49384757729331
 20
-995.9999999999991
 30
0.0
 11
-65.09192378864645
 21
-997.4999999999991
 31
0.0
  0
LINE
  5
4F4
  8
DATA
  6
CONTINUOUS
 62
     7
 10
-65.09192378864645
 20
-997.4999999999991
 30
0.0
 11
-67.69000000000051
 21
-995.9999999999991
 31
0.0
  0
LINE
  5
4F5
  8
DATA
  6
CONTINUOUS
 62
     7
 10
-67.69000000000051
 20
-995.9999999999991
 30
0.0
 11
-67.6899999999996
 21
-992.9999999999991
 31
0.0
  0
LINE
  5
4F6
  8
DATA
  6
CONTINUOUS
 62
     7
 10
-67.6899999999996
 20
-992.9999999999991
 30
0.0
 11
-65.09192378864645
 21
-991.4999999999991
 31
0.0
  0
LINE
  5
4F7
  8
DATA
  6
CONTINUOUS
 62
     7
 10
-58.22192378864656
 20
-991.4999999999991
 30
0.0
 11
-55.62384757729342
 21
-992.9999999999991
 31
0.0
  0
LINE
  5
4F8
  8
DATA
  6
CONTINUOUS
 62
     7
 10
-55.62384757729342
 20
-992.9999999999991
 30
0.0
 11
-55.62384757729342
 21
-995.9999999999991
 31
0.0
  0
LINE
  5
4F9
  8
DATA
  6
CONTINUOUS
 62
     7
 10
-55.62384757729342
 20
-995.9999999999991
 30
0.0
 11
-58.22192378864656
 21
-997.4999999999991
 31
0.0
  0
LINE
  5
4FA
  8
DATA
  6
CONTINUOUS
 62
     7
 10
-58.22192378864656
 20
-997.4999999999991
 30
0.0
 11
-60.81999999999971
 21
-995.9999999999991
 31
0.0
  0
LINE
  5
4FB
  8
DATA
  6
CONTINUOUS
 62
     7
 10
-60.81999999999971
 20
-995.9999999999991
 30
0.0
 11
-60.81999999999971
 21
-992.9999999999991
 31
0.0
  0
LINE
  5
4FC
  8
DATA
  6
CONTINUOUS
 62
     7
 10
-60.81999999999971
 20
-992.9999999999991
 30
0.0
 11
-58.22192378864656
 21
-991.4999999999991
 31
0.0
  0
LINE
  5
4FD
  8
DATA
  6
CONTINUOUS
 62
     7
 10
-51.35192378864667
 20
-991.4999999999991
 30
0.0
 11
-48.75384757729353
 21
-992.9999999999991
 31
0.0
  0
LINE
  5
4FE
  8
DATA
  6
CONTINUOUS
 62
     7
 10
-48.75384757729353
 20
-992.9999999999991
 30
0.0
 11
-48.75384757729353
 21
-995.9999999999991
 31
0.0
  0
LINE
  5
4FF
  8
DATA
  6
CONTINUOUS
 62
     7
 10
-48.75384757729353
 20
-995.9999999999991
 30
0.0
 11
-51.35192378864667
 21
-997.4999999999991
 31
0.0
  0
LINE
  5
500
  8
DATA
  6
CONTINUOUS
 62
     7
 10
-51.35192378864667
 20
-997.4999999999991
 30
0.0
 11
-53.94999999999982
 21
-995.9999999999991
 31
0.0
  0
LINE
  5
501
  8
DATA
  6
CONTINUOUS
 62
     7
 10
-53.94999999999982
 20
-995.9999999999991
 30
0.0
 11
-53.94999999999982
 21
-992.9999999999991
 31
0.0
  0
LINE
  5
502
  8
DATA
  6
CONTINUOUS
 62
     7
 10
-53.94999999999982
 20
-992.9999999999991
 30
0.0
 11
-51.35192378864667
 21
-991.4999999999991
 31
0.0
  0
LINE
  5
503
  8
DATA
  6
CONTINUOUS
 62
     7
 10
-44.48192378864678
 20
-991.4999999999991
 30
0.0
 11
-41.88384757729364
 21
-992.9999999999991
 31
0.0
  0
LINE
  5
504
  8
DATA
  6
CONTINUOUS
 62
     7
 10
-41.88384757729364
 20
-992.9999999999991
 30
0.0
 11
-41.88384757729364
 21
-995.9999999999991
 31
0.0
  0
LINE
  5
505
  8
DATA
  6
CONTINUOUS
 62
     7
 10
-41.88384757729364
 20
-995.9999999999991
 30
0.0
 11
-44.48192378864678
 21
-997.4999999999991
 31
0.0
  0
LINE
  5
506
  8
DATA
  6
CONTINUOUS
 62
     7
 10
-44.48192378864678
 20
-997.4999999999991
 30
0.0
 11
-47.07999999999993
 21
-995.9999999999991
 31
0.0
  0
LINE
  5
507
  8
DATA
  6
CONTINUOUS
 62
     7
 10
-47.07999999999993
 20
-995.9999999999991
 30
0.0
 11
-47.07999999999993
 21
-992.9999999999991
 31
0.0
  0
LINE
  5
508
  8
DATA
  6
CONTINUOUS
 62
     7
 10
-47.07999999999993
 20
-992.9999999999991
 30
0.0
 11
-44.48192378864678
 21
-991.4999999999991
 31
0.0
  0
LINE
  5
509
  8
DATA
  6
CONTINUOUS
 62
     7
 10
-154.4019237886469
 20
-1009.500000000001
 30
0.0
 11
-151.8038475772937
 21
-1008.000000000001
 31
0.0
  0
LINE
  5
50A
  8
DATA
  6
CONTINUOUS
 62
     7
 10
-151.8038475772937
 20
-1008.000000000001
 30
0.0
 11
-151.8038475772937
 21
-1005.000000000001
 31
0.0
  0
LINE
  5
50B
  8
DATA
  6
CONTINUOUS
 62
     7
 10
-151.8038475772937
 20
-1005.000000000001
 30
0.0
 11
-154.4019237886469
 21
-1003.500000000001
 31
0.0
  0
LINE
  5
50C
  8
DATA
  6
CONTINUOUS
 62
     7
 10
-154.4019237886469
 20
-1003.500000000001
 30
0.0
 11
-157.0
 21
-1005.000000000001
 31
0.0
  0
LINE
  5
50D
  8
DATA
  6
CONTINUOUS
 62
     7
 10
-157.0
 20
-1005.000000000001
 30
0.0
 11
-157.0
 21
-1008.000000000001
 31
0.0
  0
LINE
  5
50E
  8
DATA
  6
CONTINUOUS
 62
     7
 10
-157.0
 20
-1008.000000000001
 30
0.0
 11
-154.4019237886469
 21
-1009.500000000001
 31
0.0
  0
LINE
  5
50F
  8
DATA
  6
CONTINUOUS
 62
     7
 10
-147.531923788647
 20
-1009.500000000001
 30
0.0
 11
-144.9338475772938
 21
-1008.000000000001
 31
0.0
  0
LINE
  5
510
  8
DATA
  6
CONTINUOUS
 62
     7
 10
-144.9338475772938
 20
-1008.000000000001
 30
0.0
 11
-144.9338475772938
 21
-1005.000000000001
 31
0.0
  0
LINE
  5
511
  8
DATA
  6
CONTINUOUS
 62
     7
 10
-144.9338475772938
 20
-1005.000000000001
 30
0.0
 11
-147.531923788647
 21
-1003.500000000001
 31
0.0
  0
LINE
  5
512
  8
DATA
  6
CONTINUOUS
 62
     7
 10
-147.531923788647
 20
-1003.500000000001
 30
0.0
 11
-150.1300000000001
 21
-1005.000000000001
 31
0.0
  0
LINE
  5
513
  8
DATA
  6
CONTINUOUS
 62
     7
 10
-150.1300000000001
 20
-1005.000000000001
 30
0.0
 11
-150.1300000000001
 21
-1008.000000000001
 31
0.0
  0
LINE
  5
514
  8
DATA
  6
CONTINUOUS
 62
     7
 10
-150.1300000000001
 20
-1008.000000000001
 30
0.0
 11
-147.531923788647
 21
-1009.500000000001
 31
0.0
  0
LINE
  5
515
  8
DATA
  6
CONTINUOUS
 62
     7
 10
-140.6619237886471
 20
-1009.500000000001
 30
0.0
 11
-138.0638475772939
 21
-1008.000000000001
 31
0.0
  0
LINE
  5
516
  8
DATA
  6
CONTINUOUS
 62
     7
 10
-138.0638475772939
 20
-1008.000000000001
 30
0.0
 11
-138.0638475772939
 21
-1005.000000000001
 31
0.0
  0
LINE
  5
517
  8
DATA
  6
CONTINUOUS
 62
     7
 10
-138.0638475772939
 20
-1005.000000000001
 30
0.0
 11
-140.6619237886471
 21
-1003.500000000001
 31
0.0
  0
LINE
  5
518
  8
DATA
  6
CONTINUOUS
 62
     7
 10
-140.6619237886471
 20
-1003.500000000001
 30
0.0
 11
-143.2600000000002
 21
-1005.000000000001
 31
0.0
  0
LINE
  5
519
  8
DATA
  6
CONTINUOUS
 62
     7
 10
-143.2600000000002
 20
-1005.000000000001
 30
0.0
 11
-143.2600000000002
 21
-1008.000000000001
 31
0.0
  0
LINE
  5
51A
  8
DATA
  6
CONTINUOUS
 62
     7
 10
-143.2600000000002
 20
-1008.000000000001
 30
0.0
 11
-140.6619237886471
 21
-1009.500000000001
 31
0.0
  0
LINE
  5
51B
  8
DATA
  6
CONTINUOUS
 62
     7
 10
-133.7919237886472
 20
-1009.500000000001
 30
0.0
 11
-131.193847577294
 21
-1008.000000000001
 31
0.0
  0
LINE
  5
51C
  8
DATA
  6
CONTINUOUS
 62
     7
 10
-131.193847577294
 20
-1008.000000000001
 30
0.0
 11
-131.193847577294
 21
-1005.000000000001
 31
0.0
  0
LINE
  5
51D
  8
DATA
  6
CONTINUOUS
 62
     7
 10
-131.193847577294
 20
-1005.000000000001
 30
0.0
 11
-133.7919237886472
 21
-1003.500000000001
 31
0.0
  0
LINE
  5
51E
  8
DATA
  6
CONTINUOUS
 62
     7
 10
-133.7919237886472
 20
-1003.500000000001
 30
0.0
 11
-136.3900000000003
 21
-1005.000000000001
 31
0.0
  0
LINE
  5
51F
  8
DATA
  6
CONTINUOUS
 62
     7
 10
-136.3900000000003
 20
-1005.000000000001
 30
0.0
 11
-136.3900000000003
 21
-1008.000000000001
 31
0.0
  0
LINE
  5
520
  8
DATA
  6
CONTINUOUS
 62
     7
 10
-136.3900000000003
 20
-1008.000000000001
 30
0.0
 11
-133.7919237886472
 21
-1009.500000000001
 31
0.0
  0
LINE
  5
521
  8
DATA
  6
CONTINUOUS
 62
     7
 10
-126.9219237886473
 20
-1009.500000000001
 30
0.0
 11
-124.3238475772941
 21
-1008.000000000001
 31
0.0
  0
LINE
  5
522
  8
DATA
  6
CONTINUOUS
 62
     7
 10
-124.3238475772941
 20
-1008.000000000001
 30
0.0
 11
-124.3238475772932
 21
-1005.000000000001
 31
0.0
  0
LINE
  5
523
  8
DATA
  6
CONTINUOUS
 62
     7
 10
-124.3238475772932
 20
-1005.000000000001
 30
0.0
 11
-126.9219237886473
 21
-1003.500000000001
 31
0.0
  0
LINE
  5
524
  8
DATA
  6
CONTINUOUS
 62
     7
 10
-126.9219237886473
 20
-1003.500000000001
 30
0.0
 11
-129.5200000000004
 21
-1005.000000000001
 31
0.0
  0
LINE
  5
525
  8
DATA
  6
CONTINUOUS
 62
     7
 10
-129.5200000000004
 20
-1005.000000000001
 30
0.0
 11
-129.5200000000004
 21
-1008.000000000001
 31
0.0
  0
LINE
  5
526
  8
DATA
  6
CONTINUOUS
 62
     7
 10
-129.5200000000004
 20
-1008.000000000001
 30
0.0
 11
-126.9219237886473
 21
-1009.500000000001
 31
0.0
  0
LINE
  5
527
  8
DATA
  6
CONTINUOUS
 62
     7
 10
-120.0519237886474
 20
-1009.500000000001
 30
0.0
 11
-117.4538475772933
 21
-1008.000000000001
 31
0.0
  0
LINE
  5
528
  8
DATA
  6
CONTINUOUS
 62
     7
 10
-117.4538475772933
 20
-1008.000000000001
 30
0.0
 11
-117.4538475772933
 21
-1005.000000000001
 31
0.0
  0
LINE
  5
529
  8
DATA
  6
CONTINUOUS
 62
     7
 10
-117.4538475772933
 20
-1005.000000000001
 30
0.0
 11
-120.0519237886474
 21
-1003.500000000001
 31
0.0
  0
LINE
  5
52A
  8
DATA
  6
CONTINUOUS
 62
     7
 10
-120.0519237886474
 20
-1003.500000000001
 30
0.0
 11
-122.6500000000005
 21
-1005.000000000001
 31
0.0
  0
LINE
  5
52B
  8
DATA
  6
CONTINUOUS
 62
     7
 10
-122.6500000000005
 20
-1005.000000000001
 30
0.0
 11
-122.6500000000005
 21
-1008.000000000001
 31
0.0
  0
LINE
  5
52C
  8
DATA
  6
CONTINUOUS
 62
     7
 10
-122.6500000000005
 20
-1008.000000000001
 30
0.0
 11
-120.0519237886474
 21
-1009.500000000001
 31
0.0
  0
LINE
  5
52D
  8
DATA
  6
CONTINUOUS
 62
     7
 10
-113.1819237886466
 20
-1009.500000000001
 30
0.0
 11
-110.5838475772935
 21
-1008.000000000001
 31
0.0
  0
LINE
  5
52E
  8
DATA
  6
CONTINUOUS
 62
     7
 10
-110.5838475772935
 20
-1008.000000000001
 30
0.0
 11
-110.5838475772935
 21
-1005.000000000001
 31
0.0
  0
LINE
  5
52F
  8
DATA
  6
CONTINUOUS
 62
     7
 10
-110.5838475772935
 20
-1005.000000000001
 30
0.0
 11
-113.1819237886466
 21
-1003.500000000001
 31
0.0
  0
LINE
  5
530
  8
DATA
  6
CONTINUOUS
 62
     7
 10
-113.1819237886466
 20
-1003.500000000001
 30
0.0
 11
-115.7800000000007
 21
-1005.000000000001
 31
0.0
  0
LINE
  5
531
  8
DATA
  6
CONTINUOUS
 62
     7
 10
-115.7800000000007
 20
-1005.000000000001
 30
0.0
 11
-115.7800000000007
 21
-1008.000000000001
 31
0.0
  0
LINE
  5
532
  8
DATA
  6
CONTINUOUS
 62
     7
 10
-115.7800000000007
 20
-1008.000000000001
 30
0.0
 11
-113.1819237886466
 21
-1009.500000000001
 31
0.0
  0
LINE
  5
533
  8
DATA
  6
CONTINUOUS
 62
     7
 10
-106.3119237886467
 20
-1009.500000000001
 30
0.0
 11
-103.7138475772936
 21
-1008.000000000001
 31
0.0
  0
LINE
  5
534
  8
DATA
  6
CONTINUOUS
 62
     7
 10
-103.7138475772936
 20
-1008.000000000001
 30
0.0
 11
-103.7138475772936
 21
-1005.000000000001
 31
0.0
  0
LINE
  5
535
  8
DATA
  6
CONTINUOUS
 62
     7
 10
-103.7138475772936
 20
-1005.000000000001
 30
0.0
 11
-106.3119237886467
 21
-1003.500000000001
 31
0.0
  0
LINE
  5
536
  8
DATA
  6
CONTINUOUS
 62
     7
 10
-106.3119237886467
 20
-1003.500000000001
 30
0.0
 11
-108.9100000000008
 21
-1005.000000000001
 31
0.0
  0
LINE
  5
537
  8
DATA
  6
CONTINUOUS
 62
     7
 10
-108.9100000000008
 20
-1005.000000000001
 30
0.0
 11
-108.9099999999999
 21
-1008.000000000001
 31
0.0
  0
LINE
  5
538
  8
DATA
  6
CONTINUOUS
 62
     7
 10
-108.9099999999999
 20
-1008.000000000001
 30
0.0
 11
-106.3119237886467
 21
-1009.500000000001
 31
0.0
  0
LINE
  5
539
  8
DATA
  6
CONTINUOUS
 62
     7
 10
-99.44192378864682
 20
-1009.500000000001
 30
0.0
 11
-96.84384757729367
 21
-1008.000000000001
 31
0.0
  0
LINE
  5
53A
  8
DATA
  6
CONTINUOUS
 62
     7
 10
-96.84384757729367
 20
-1008.000000000001
 30
0.0
 11
-96.84384757729367
 21
-1005.000000000001
 31
0.0
  0
LINE
  5
53B
  8
DATA
  6
CONTINUOUS
 62
     7
 10
-96.84384757729367
 20
-1005.000000000001
 30
0.0
 11
-99.44192378864682
 21
-1003.500000000001
 31
0.0
  0
LINE
  5
53C
  8
DATA
  6
CONTINUOUS
 62
     7
 10
-99.44192378864682
 20
-1003.500000000001
 30
0.0
 11
-102.04
 21
-1005.000000000001
 31
0.0
  0
LINE
  5
53D
  8
DATA
  6
CONTINUOUS
 62
     7
 10
-102.04
 20
-1005.000000000001
 30
0.0
 11
-102.04
 21
-1008.000000000001
 31
0.0
  0
LINE
  5
53E
  8
DATA
  6
CONTINUOUS
 62
     7
 10
-102.04
 20
-1008.000000000001
 30
0.0
 11
-99.44192378864682
 21
-1009.500000000001
 31
0.0
  0
LINE
  5
53F
  8
DATA
  6
CONTINUOUS
 62
     7
 10
-92.57192378864693
 20
-1009.500000000001
 30
0.0
 11
-89.97384757729378
 21
-1008.000000000001
 31
0.0
  0
LINE
  5
540
  8
DATA
  6
CONTINUOUS
 62
     7
 10
-89.97384757729378
 20
-1008.000000000001
 30
0.0
 11
-89.97384757729378
 21
-1005.000000000001
 31
0.0
  0
LINE
  5
541
  8
DATA
  6
CONTINUOUS
 62
     7
 10
-89.97384757729378
 20
-1005.000000000001
 30
0.0
 11
-92.57192378864693
 21
-1003.500000000001
 31
0.0
  0
LINE
  5
542
  8
DATA
  6
CONTINUOUS
 62
     7
 10
-92.57192378864693
 20
-1003.500000000001
 30
0.0
 11
-95.17000000000007
 21
-1005.000000000001
 31
0.0
  0
LINE
  5
543
  8
DATA
  6
CONTINUOUS
 62
     7
 10
-95.17000000000007
 20
-1005.000000000001
 30
0.0
 11
-95.17000000000007
 21
-1008.000000000001
 31
0.0
  0
LINE
  5
544
  8
DATA
  6
CONTINUOUS
 62
     7
 10
-95.17000000000007
 20
-1008.000000000001
 30
0.0
 11
-92.57192378864693
 21
-1009.500000000001
 31
0.0
  0
LINE
  5
545
  8
DATA
  6
CONTINUOUS
 62
     7
 10
-85.70192378864704
 20
-1009.500000000001
 30
0.0
 11
-83.10384757729389
 21
-1008.000000000001
 31
0.0
  0
LINE
  5
546
  8
DATA
  6
CONTINUOUS
 62
     7
 10
-83.10384757729389
 20
-1008.000000000001
 30
0.0
 11
-83.10384757729389
 21
-1005.000000000001
 31
0.0
  0
LINE
  5
547
  8
DATA
  6
CONTINUOUS
 62
     7
 10
-83.10384757729389
 20
-1005.000000000001
 30
0.0
 11
-85.70192378864704
 21
-1003.500000000001
 31
0.0
  0
LINE
  5
548
  8
DATA
  6
CONTINUOUS
 62
     7
 10
-85.70192378864704
 20
-1003.500000000001
 30
0.0
 11
-88.30000000000018
 21
-1005.000000000001
 31
0.0
  0
LINE
  5
549
  8
DATA
  6
CONTINUOUS
 62
     7
 10
-88.30000000000018
 20
-1005.000000000001
 30
0.0
 11
-88.30000000000018
 21
-1008.000000000001
 31
0.0
  0
LINE
  5
54A
  8
DATA
  6
CONTINUOUS
 62
     7
 10
-88.30000000000018
 20
-1008.000000000001
 30
0.0
 11
-85.70192378864704
 21
-1009.500000000001
 31
0.0
  0
LINE
  5
54B
  8
DATA
  6
CONTINUOUS
 62
     7
 10
-78.83192378864715
 20
-1009.500000000001
 30
0.0
 11
-76.233847577294
 21
-1008.000000000001
 31
0.0
  0
LINE
  5
54C
  8
DATA
  6
CONTINUOUS
 62
     7
 10
-76.233847577294
 20
-1008.000000000001
 30
0.0
 11
-76.233847577294
 21
-1005.000000000001
 31
0.0
  0
LINE
  5
54D
  8
DATA
  6
CONTINUOUS
 62
     7
 10
-76.233847577294
 20
-1005.000000000001
 30
0.0
 11
-78.83192378864715
 21
-1003.500000000001
 31
0.0
  0
LINE
  5
54E
  8
DATA
  6
CONTINUOUS
 62
     7
 10
-78.83192378864715
 20
-1003.500000000001
 30
0.0
 11
-81.43000000000029
 21
-1005.000000000001
 31
0.0
  0
LINE
  5
54F
  8
DATA
  6
CONTINUOUS
 62
     7
 10
-81.43000000000029
 20
-1005.000000000001
 30
0.0
 11
-81.43000000000029
 21
-1008.000000000001
 31
0.0
  0
LINE
  5
550
  8
DATA
  6
CONTINUOUS
 62
     7
 10
-81.43000000000029
 20
-1008.000000000001
 30
0.0
 11
-78.83192378864715
 21
-1009.500000000001
 31
0.0
  0
LINE
  5
551
  8
DATA
  6
CONTINUOUS
 62
     7
 10
-71.96192378864725
 20
-1009.500000000001
 30
0.0
 11
-69.36384757729411
 21
-1008.000000000001
 31
0.0
  0
LINE
  5
552
  8
DATA
  6
CONTINUOUS
 62
     7
 10
-69.36384757729411
 20
-1008.000000000001
 30
0.0
 11
-69.3638475772932
 21
-1005.000000000001
 31
0.0
  0
LINE
  5
553
  8
DATA
  6
CONTINUOUS
 62
     7
 10
-69.3638475772932
 20
-1005.000000000001
 30
0.0
 11
-71.96192378864725
 21
-1003.500000000001
 31
0.0
  0
LINE
  5
554
  8
DATA
  6
CONTINUOUS
 62
     7
 10
-71.96192378864725
 20
-1003.500000000001
 30
0.0
 11
-74.5600000000004
 21
-1005.000000000001
 31
0.0
  0
LINE
  5
555
  8
DATA
  6
CONTINUOUS
 62
     7
 10
-74.5600000000004
 20
-1005.000000000001
 30
0.0
 11
-74.5600000000004
 21
-1008.000000000001
 31
0.0
  0
LINE
  5
556
  8
DATA
  6
CONTINUOUS
 62
     7
 10
-74.5600000000004
 20
-1008.000000000001
 30
0.0
 11
-71.96192378864725
 21
-1009.500000000001
 31
0.0
  0
LINE
  5
557
  8
DATA
  6
CONTINUOUS
 62
     7
 10
-65.09192378864736
 20
-1009.500000000001
 30
0.0
 11
-62.49384757729331
 21
-1008.000000000001
 31
0.0
  0
LINE
  5
558
  8
DATA
  6
CONTINUOUS
 62
     7
 10
-62.49384757729331
 20
-1008.000000000001
 30
0.0
 11
-62.49384757729331
 21
-1005.000000000001
 31
0.0
  0
LINE
  5
559
  8
DATA
  6
CONTINUOUS
 62
     7
 10
-62.49384757729331
 20
-1005.000000000001
 30
0.0
 11
-65.09192378864736
 21
-1003.500000000001
 31
0.0
  0
LINE
  5
55A
  8
DATA
  6
CONTINUOUS
 62
     7
 10
-65.09192378864736
 20
-1003.500000000001
 30
0.0
 11
-67.69000000000051
 21
-1005.000000000001
 31
0.0
  0
LINE
  5
55B
  8
DATA
  6
CONTINUOUS
 62
     7
 10
-67.69000000000051
 20
-1005.000000000001
 30
0.0
 11
-67.69000000000051
 21
-1008.000000000001
 31
0.0
  0
LINE
  5
55C
  8
DATA
  6
CONTINUOUS
 62
     7
 10
-67.69000000000051
 20
-1008.000000000001
 30
0.0
 11
-65.09192378864736
 21
-1009.500000000001
 31
0.0
  0
LINE
  5
55D
  8
DATA
  6
CONTINUOUS
 62
     7
 10
-58.22192378864656
 20
-1009.500000000001
 30
0.0
 11
-55.62384757729342
 21
-1008.000000000001
 31
0.0
  0
LINE
  5
55E
  8
DATA
  6
CONTINUOUS
 62
     7
 10
-55.62384757729342
 20
-1008.000000000001
 30
0.0
 11
-55.62384757729342
 21
-1005.000000000001
 31
0.0
  0
LINE
  5
55F
  8
DATA
  6
CONTINUOUS
 62
     7
 10
-55.62384757729342
 20
-1005.000000000001
 30
0.0
 11
-58.22192378864656
 21
-1003.500000000001
 31
0.0
  0
LINE
  5
560
  8
DATA
  6
CONTINUOUS
 62
     7
 10
-58.22192378864656
 20
-1003.500000000001
 30
0.0
 11
-60.82000000000062
 21
-1005.000000000001
 31
0.0
  0
LINE
  5
561
  8
DATA
  6
CONTINUOUS
 62
     7
 10
-60.82000000000062
 20
-1005.000000000001
 30
0.0
 11
-60.82000000000062
 21
-1008.000000000001
 31
0.0
  0
LINE
  5
562
  8
DATA
  6
CONTINUOUS
 62
     7
 10
-60.82000000000062
 20
-1008.000000000001
 30
0.0
 11
-58.22192378864656
 21
-1009.500000000001
 31
0.0
  0
LINE
  5
563
  8
DATA
  6
CONTINUOUS
 62
     7
 10
-51.35192378864667
 20
-1009.500000000001
 30
0.0
 11
-48.75384757729353
 21
-1008.000000000001
 31
0.0
  0
LINE
  5
564
  8
DATA
  6
CONTINUOUS
 62
     7
 10
-48.75384757729353
 20
-1008.000000000001
 30
0.0
 11
-48.75384757729353
 21
-1005.000000000001
 31
0.0
  0
LINE
  5
565
  8
DATA
  6
CONTINUOUS
 62
     7
 10
-48.75384757729353
 20
-1005.000000000001
 30
0.0
 11
-51.35192378864667
 21
-1003.500000000001
 31
0.0
  0
LINE
  5
566
  8
DATA
  6
CONTINUOUS
 62
     7
 10
-51.35192378864667
 20
-1003.500000000001
 30
0.0
 11
-53.95000000000073
 21
-1005.000000000001
 31
0.0
  0
LINE
  5
567
  8
DATA
  6
CONTINUOUS
 62
     7
 10
-53.95000000000073
 20
-1005.000000000001
 30
0.0
 11
-53.94999999999982
 21
-1008.000000000001
 31
0.0
  0
LINE
  5
568
  8
DATA
  6
CONTINUOUS
 62
     7
 10
-53.94999999999982
 20
-1008.000000000001
 30
0.0
 11
-51.35192378864667
 21
-1009.500000000001
 31
0.0
  0
LINE
  5
569
  8
DATA
  6
CONTINUOUS
 62
     7
 10
-44.48192378864678
 20
-1009.500000000001
 30
0.0
 11
-41.88384757729364
 21
-1008.000000000001
 31
0.0
  0
LINE
  5
56A
  8
DATA
  6
CONTINUOUS
 62
     7
 10
-41.88384757729364
 20
-1008.000000000001
 30
0.0
 11
-41.88384757729364
 21
-1005.000000000001
 31
0.0
  0
LINE
  5
56B
  8
DATA
  6
CONTINUOUS
 62
     7
 10
-41.88384757729364
 20
-1005.000000000001
 30
0.0
 11
-44.48192378864678
 21
-1003.500000000001
 31
0.0
  0
LINE
  5
56C
  8
DATA
  6
CONTINUOUS
 62
     7
 10
-44.48192378864678
 20
-1003.500000000001
 30
0.0
 11
-47.07999999999993
 21
-1005.000000000001
 31
0.0
  0
LINE
  5
56D
  8
DATA
  6
CONTINUOUS
 62
     7
 10
-47.07999999999993
 20
-1005.000000000001
 30
0.0
 11
-47.07999999999993
 21
-1008.000000000001
 31
0.0
  0
LINE
  5
56E
  8
DATA
  6
CONTINUOUS
 62
     7
 10
-47.07999999999993
 20
-1008.000000000001
 30
0.0
 11
-44.48192378864678
 21
-1009.500000000001
 31
0.0
  0
LINE
  5
56F
  8
DATA
  6
CONTINUOUS
 62
     7
 10
-158.4019237886469
 20
-1015.500000000004
 30
0.0
 11
-155.8038475772937
 21
-1014.000000000004
 31
0.0
  0
LINE
  5
570
  8
DATA
  6
CONTINUOUS
 62
     7
 10
-155.8038475772937
 20
-1014.000000000004
 30
0.0
 11
-155.8038475772937
 21
-1011.000000000004
 31
0.0
  0
LINE
  5
571
  8
DATA
  6
CONTINUOUS
 62
     7
 10
-155.8038475772937
 20
-1011.000000000004
 30
0.0
 11
-158.4019237886469
 21
-1009.500000000004
 31
0.0
  0
LINE
  5
572
  8
DATA
  6
CONTINUOUS
 62
     7
 10
-158.4019237886469
 20
-1009.500000000004
 30
0.0
 11
-161.0
 21
-1011.000000000004
 31
0.0
  0
LINE
  5
573
  8
DATA
  6
CONTINUOUS
 62
     7
 10
-161.0
 20
-1011.000000000004
 30
0.0
 11
-161.0
 21
-1014.000000000004
 31
0.0
  0
LINE
  5
574
  8
DATA
  6
CONTINUOUS
 62
     7
 10
-161.0
 20
-1014.000000000004
 30
0.0
 11
-158.4019237886469
 21
-1015.500000000004
 31
0.0
  0
LINE
  5
575
  8
DATA
  6
CONTINUOUS
 62
     7
 10
-151.531923788647
 20
-1015.500000000004
 30
0.0
 11
-148.9338475772938
 21
-1014.000000000004
 31
0.0
  0
LINE
  5
576
  8
DATA
  6
CONTINUOUS
 62
     7
 10
-148.9338475772938
 20
-1014.000000000004
 30
0.0
 11
-148.9338475772938
 21
-1011.000000000004
 31
0.0
  0
LINE
  5
577
  8
DATA
  6
CONTINUOUS
 62
     7
 10
-148.9338475772938
 20
-1011.000000000004
 30
0.0
 11
-151.531923788647
 21
-1009.500000000004
 31
0.0
  0
LINE
  5
578
  8
DATA
  6
CONTINUOUS
 62
     7
 10
-151.531923788647
 20
-1009.500000000004
 30
0.0
 11
-154.1300000000001
 21
-1011.000000000004
 31
0.0
  0
LINE
  5
579
  8
DATA
  6
CONTINUOUS
 62
     7
 10
-154.1300000000001
 20
-1011.000000000004
 30
0.0
 11
-154.1300000000001
 21
-1014.000000000004
 31
0.0
  0
LINE
  5
57A
  8
DATA
  6
CONTINUOUS
 62
     7
 10
-154.1300000000001
 20
-1014.000000000004
 30
0.0
 11
-151.531923788647
 21
-1015.500000000004
 31
0.0
  0
LINE
  5
57B
  8
DATA
  6
CONTINUOUS
 62
     7
 10
-144.6619237886471
 20
-1015.500000000004
 30
0.0
 11
-142.063847577293
 21
-1014.000000000004
 31
0.0
  0
LINE
  5
57C
  8
DATA
  6
CONTINUOUS
 62
     7
 10
-142.063847577293
 20
-1014.000000000004
 30
0.0
 11
-142.063847577293
 21
-1011.000000000004
 31
0.0
  0
LINE
  5
57D
  8
DATA
  6
CONTINUOUS
 62
     7
 10
-142.063847577293
 20
-1011.000000000004
 30
0.0
 11
-144.6619237886471
 21
-1009.500000000004
 31
0.0
  0
LINE
  5
57E
  8
DATA
  6
CONTINUOUS
 62
     7
 10
-144.6619237886471
 20
-1009.500000000004
 30
0.0
 11
-147.2600000000002
 21
-1011.000000000004
 31
0.0
  0
LINE
  5
57F
  8
DATA
  6
CONTINUOUS
 62
     7
 10
-147.2600000000002
 20
-1011.000000000004
 30
0.0
 11
-147.2600000000002
 21
-1014.000000000004
 31
0.0
  0
LINE
  5
580
  8
DATA
  6
CONTINUOUS
 62
     7
 10
-147.2600000000002
 20
-1014.000000000004
 30
0.0
 11
-144.6619237886471
 21
-1015.500000000004
 31
0.0
  0
LINE
  5
581
  8
DATA
  6
CONTINUOUS
 62
     7
 10
-137.7919237886472
 20
-1015.500000000004
 30
0.0
 11
-135.1938475772931
 21
-1014.000000000004
 31
0.0
  0
LINE
  5
582
  8
DATA
  6
CONTINUOUS
 62
     7
 10
-135.1938475772931
 20
-1014.000000000004
 30
0.0
 11
-135.1938475772931
 21
-1011.000000000004
 31
0.0
  0
LINE
  5
583
  8
DATA
  6
CONTINUOUS
 62
     7
 10
-135.1938475772931
 20
-1011.000000000004
 30
0.0
 11
-137.7919237886472
 21
-1009.500000000004
 31
0.0
  0
LINE
  5
584
  8
DATA
  6
CONTINUOUS
 62
     7
 10
-137.7919237886472
 20
-1009.500000000004
 30
0.0
 11
-140.3900000000003
 21
-1011.000000000004
 31
0.0
  0
LINE
  5
585
  8
DATA
  6
CONTINUOUS
 62
     7
 10
-140.3900000000003
 20
-1011.000000000004
 30
0.0
 11
-140.3900000000003
 21
-1014.000000000004
 31
0.0
  0
LINE
  5
586
  8
DATA
  6
CONTINUOUS
 62
     7
 10
-140.3900000000003
 20
-1014.000000000004
 30
0.0
 11
-137.7919237886472
 21
-1015.500000000004
 31
0.0
  0
LINE
  5
587
  8
DATA
  6
CONTINUOUS
 62
     7
 10
-130.9219237886464
 20
-1015.500000000004
 30
0.0
 11
-128.3238475772932
 21
-1014.000000000004
 31
0.0
  0
LINE
  5
588
  8
DATA
  6
CONTINUOUS
 62
     7
 10
-128.3238475772932
 20
-1014.000000000004
 30
0.0
 11
-128.3238475772932
 21
-1011.000000000004
 31
0.0
  0
LINE
  5
589
  8
DATA
  6
CONTINUOUS
 62
     7
 10
-128.3238475772932
 20
-1011.000000000004
 30
0.0
 11
-130.9219237886464
 21
-1009.500000000004
 31
0.0
  0
LINE
  5
58A
  8
DATA
  6
CONTINUOUS
 62
     7
 10
-130.9219237886464
 20
-1009.500000000004
 30
0.0
 11
-133.5200000000004
 21
-1011.000000000004
 31
0.0
  0
LINE
  5
58B
  8
DATA
  6
CONTINUOUS
 62
     7
 10
-133.5200000000004
 20
-1011.000000000004
 30
0.0
 11
-133.5200000000004
 21
-1014.000000000004
 31
0.0
  0
LINE
  5
58C
  8
DATA
  6
CONTINUOUS
 62
     7
 10
-133.5200000000004
 20
-1014.000000000004
 30
0.0
 11
-130.9219237886464
 21
-1015.500000000004
 31
0.0
  0
LINE
  5
58D
  8
DATA
  6
CONTINUOUS
 62
     7
 10
-124.0519237886465
 20
-1015.500000000004
 30
0.0
 11
-121.4538475772933
 21
-1014.000000000004
 31
0.0
  0
LINE
  5
58E
  8
DATA
  6
CONTINUOUS
 62
     7
 10
-121.4538475772933
 20
-1014.000000000004
 30
0.0
 11
-121.4538475772933
 21
-1011.000000000004
 31
0.0
  0
LINE
  5
58F
  8
DATA
  6
CONTINUOUS
 62
     7
 10
-121.4538475772933
 20
-1011.000000000004
 30
0.0
 11
-124.0519237886465
 21
-1009.500000000004
 31
0.0
  0
LINE
  5
590
  8
DATA
  6
CONTINUOUS
 62
     7
 10
-124.0519237886465
 20
-1009.500000000004
 30
0.0
 11
-126.6500000000005
 21
-1011.000000000004
 31
0.0
  0
LINE
  5
591
  8
DATA
  6
CONTINUOUS
 62
     7
 10
-126.6500000000005
 20
-1011.000000000004
 30
0.0
 11
-126.6499999999996
 21
-1014.000000000004
 31
0.0
  0
LINE
  5
592
  8
DATA
  6
CONTINUOUS
 62
     7
 10
-126.6499999999996
 20
-1014.000000000004
 30
0.0
 11
-124.0519237886465
 21
-1015.500000000004
 31
0.0
  0
LINE
  5
593
  8
DATA
  6
CONTINUOUS
 62
     7
 10
-117.1819237886466
 20
-1015.500000000004
 30
0.0
 11
-114.5838475772935
 21
-1014.000000000004
 31
0.0
  0
LINE
  5
594
  8
DATA
  6
CONTINUOUS
 62
     7
 10
-114.5838475772935
 20
-1014.000000000004
 30
0.0
 11
-114.5838475772935
 21
-1011.000000000004
 31
0.0
  0
LINE
  5
595
  8
DATA
  6
CONTINUOUS
 62
     7
 10
-114.5838475772935
 20
-1011.000000000004
 30
0.0
 11
-117.1819237886466
 21
-1009.500000000004
 31
0.0
  0
LINE
  5
596
  8
DATA
  6
CONTINUOUS
 62
     7
 10
-117.1819237886466
 20
-1009.500000000004
 30
0.0
 11
-119.7799999999997
 21
-1011.000000000004
 31
0.0
  0
LINE
  5
597
  8
DATA
  6
CONTINUOUS
 62
     7
 10
-119.7799999999997
 20
-1011.000000000004
 30
0.0
 11
-119.7799999999997
 21
-1014.000000000004
 31
0.0
  0
LINE
  5
598
  8
DATA
  6
CONTINUOUS
 62
     7
 10
-119.7799999999997
 20
-1014.000000000004
 30
0.0
 11
-117.1819237886466
 21
-1015.500000000004
 31
0.0
  0
LINE
  5
599
  8
DATA
  6
CONTINUOUS
 62
     7
 10
-110.3119237886467
 20
-1015.500000000004
 30
0.0
 11
-107.7138475772936
 21
-1014.000000000004
 31
0.0
  0
LINE
  5
59A
  8
DATA
  6
CONTINUOUS
 62
     7
 10
-107.7138475772936
 20
-1014.000000000004
 30
0.0
 11
-107.7138475772936
 21
-1011.000000000004
 31
0.0
  0
LINE
  5
59B
  8
DATA
  6
CONTINUOUS
 62
     7
 10
-107.7138475772936
 20
-1011.000000000004
 30
0.0
 11
-110.3119237886467
 21
-1009.500000000004
 31
0.0
  0
LINE
  5
59C
  8
DATA
  6
CONTINUOUS
 62
     7
 10
-110.3119237886467
 20
-1009.500000000004
 30
0.0
 11
-112.9099999999999
 21
-1011.000000000004
 31
0.0
  0
LINE
  5
59D
  8
DATA
  6
CONTINUOUS
 62
     7
 10
-112.9099999999999
 20
-1011.000000000004
 30
0.0
 11
-112.9099999999999
 21
-1014.000000000004
 31
0.0
  0
LINE
  5
59E
  8
DATA
  6
CONTINUOUS
 62
     7
 10
-112.9099999999999
 20
-1014.000000000004
 30
0.0
 11
-110.3119237886467
 21
-1015.500000000004
 31
0.0
  0
LINE
  5
59F
  8
DATA
  6
CONTINUOUS
 62
     7
 10
-103.4419237886468
 20
-1015.500000000004
 30
0.0
 11
-100.8438475772937
 21
-1014.000000000004
 31
0.0
  0
LINE
  5
5A0
  8
DATA
  6
CONTINUOUS
 62
     7
 10
-100.8438475772937
 20
-1014.000000000004
 30
0.0
 11
-100.8438475772937
 21
-1011.000000000004
 31
0.0
  0
LINE
  5
5A1
  8
DATA
  6
CONTINUOUS
 62
     7
 10
-100.8438475772937
 20
-1011.000000000004
 30
0.0
 11
-103.4419237886468
 21
-1009.500000000004
 31
0.0
  0
LINE
  5
5A2
  8
DATA
  6
CONTINUOUS
 62
     7
 10
-103.4419237886468
 20
-1009.500000000004
 30
0.0
 11
-106.04
 21
-1011.000000000004
 31
0.0
  0
LINE
  5
5A3
  8
DATA
  6
CONTINUOUS
 62
     7
 10
-106.04
 20
-1011.000000000004
 30
0.0
 11
-106.04
 21
-1014.000000000004
 31
0.0
  0
LINE
  5
5A4
  8
DATA
  6
CONTINUOUS
 62
     7
 10
-106.04
 20
-1014.000000000004
 30
0.0
 11
-103.4419237886468
 21
-1015.500000000004
 31
0.0
  0
LINE
  5
5A5
  8
DATA
  6
CONTINUOUS
 62
     7
 10
-96.57192378864693
 20
-1015.500000000004
 30
0.0
 11
-93.97384757729378
 21
-1014.000000000004
 31
0.0
  0
LINE
  5
5A6
  8
DATA
  6
CONTINUOUS
 62
     7
 10
-93.97384757729378
 20
-1014.000000000004
 30
0.0
 11
-93.97384757729378
 21
-1011.000000000004
 31
0.0
  0
LINE
  5
5A7
  8
DATA
  6
CONTINUOUS
 62
     7
 10
-93.97384757729378
 20
-1011.000000000004
 30
0.0
 11
-96.57192378864693
 21
-1009.500000000004
 31
0.0
  0
LINE
  5
5A8
  8
DATA
  6
CONTINUOUS
 62
     7
 10
-96.57192378864693
 20
-1009.500000000004
 30
0.0
 11
-99.17000000000007
 21
-1011.000000000004
 31
0.0
  0
LINE
  5
5A9
  8
DATA
  6
CONTINUOUS
 62
     7
 10
-99.17000000000007
 20
-1011.000000000004
 30
0.0
 11
-99.17000000000007
 21
-1014.000000000004
 31
0.0
  0
LINE
  5
5AA
  8
DATA
  6
CONTINUOUS
 62
     7
 10
-99.17000000000007
 20
-1014.000000000004
 30
0.0
 11
-96.57192378864693
 21
-1015.500000000004
 31
0.0
  0
LINE
  5
5AB
  8
DATA
  6
CONTINUOUS
 62
     7
 10
-89.70192378864704
 20
-1015.500000000004
 30
0.0
 11
-87.10384757729389
 21
-1014.000000000004
 31
0.0
  0
LINE
  5
5AC
  8
DATA
  6
CONTINUOUS
 62
     7
 10
-87.10384757729389
 20
-1014.000000000004
 30
0.0
 11
-87.10384757729298
 21
-1011.000000000004
 31
0.0
  0
LINE
  5
5AD
  8
DATA
  6
CONTINUOUS
 62
     7
 10
-87.10384757729298
 20
-1011.000000000004
 30
0.0
 11
-89.70192378864704
 21
-1009.500000000004
 31
0.0
  0
LINE
  5
5AE
  8
DATA
  6
CONTINUOUS
 62
     7
 10
-89.70192378864704
 20
-1009.500000000004
 30
0.0
 11
-92.30000000000018
 21
-1011.000000000004
 31
0.0
  0
LINE
  5
5AF
  8
DATA
  6
CONTINUOUS
 62
     7
 10
-92.30000000000018
 20
-1011.000000000004
 30
0.0
 11
-92.30000000000018
 21
-1014.000000000004
 31
0.0
  0
LINE
  5
5B0
  8
DATA
  6
CONTINUOUS
 62
     7
 10
-92.30000000000018
 20
-1014.000000000004
 30
0.0
 11
-89.70192378864704
 21
-1015.500000000004
 31
0.0
  0
LINE
  5
5B1
  8
DATA
  6
CONTINUOUS
 62
     7
 10
-82.83192378864715
 20
-1015.500000000004
 30
0.0
 11
-80.23384757729309
 21
-1014.000000000004
 31
0.0
  0
LINE
  5
5B2
  8
DATA
  6
CONTINUOUS
 62
     7
 10
-80.23384757729309
 20
-1014.000000000004
 30
0.0
 11
-80.23384757729309
 21
-1011.000000000004
 31
0.0
  0
LINE
  5
5B3
  8
DATA
  6
CONTINUOUS
 62
     7
 10
-80.23384757729309
 20
-1011.000000000004
 30
0.0
 11
-82.83192378864715
 21
-1009.500000000004
 31
0.0
  0
LINE
  5
5B4
  8
DATA
  6
CONTINUOUS
 62
     7
 10
-82.83192378864715
 20
-1009.500000000004
 30
0.0
 11
-85.43000000000029
 21
-1011.000000000004
 31
0.0
  0
LINE
  5
5B5
  8
DATA
  6
CONTINUOUS
 62
     7
 10
-85.43000000000029
 20
-1011.000000000004
 30
0.0
 11
-85.43000000000029
 21
-1014.000000000004
 31
0.0
  0
LINE
  5
5B6
  8
DATA
  6
CONTINUOUS
 62
     7
 10
-85.43000000000029
 20
-1014.000000000004
 30
0.0
 11
-82.83192378864715
 21
-1015.500000000004
 31
0.0
  0
LINE
  5
5B7
  8
DATA
  6
CONTINUOUS
 62
     7
 10
-75.96192378864635
 20
-1015.500000000004
 30
0.0
 11
-73.3638475772932
 21
-1014.000000000004
 31
0.0
  0
LINE
  5
5B8
  8
DATA
  6
CONTINUOUS
 62
     7
 10
-73.3638475772932
 20
-1014.000000000004
 30
0.0
 11
-73.3638475772932
 21
-1011.000000000004
 31
0.0
  0
LINE
  5
5B9
  8
DATA
  6
CONTINUOUS
 62
     7
 10
-73.3638475772932
 20
-1011.000000000004
 30
0.0
 11
-75.96192378864635
 21
-1009.500000000004
 31
0.0
  0
LINE
  5
5BA
  8
DATA
  6
CONTINUOUS
 62
     7
 10
-75.96192378864635
 20
-1009.500000000004
 30
0.0
 11
-78.5600000000004
 21
-1011.000000000004
 31
0.0
  0
LINE
  5
5BB
  8
DATA
  6
CONTINUOUS
 62
     7
 10
-78.5600000000004
 20
-1011.000000000004
 30
0.0
 11
-78.5600000000004
 21
-1014.000000000004
 31
0.0
  0
LINE
  5
5BC
  8
DATA
  6
CONTINUOUS
 62
     7
 10
-78.5600000000004
 20
-1014.000000000004
 30
0.0
 11
-75.96192378864635
 21
-1015.500000000004
 31
0.0
  0
LINE
  5
5BD
  8
DATA
  6
CONTINUOUS
 62
     7
 10
-69.09192378864645
 20
-1015.500000000004
 30
0.0
 11
-66.49384757729331
 21
-1014.000000000004
 31
0.0
  0
LINE
  5
5BE
  8
DATA
  6
CONTINUOUS
 62
     7
 10
-66.49384757729331
 20
-1014.000000000004
 30
0.0
 11
-66.49384757729331
 21
-1011.000000000004
 31
0.0
  0
LINE
  5
5BF
  8
DATA
  6
CONTINUOUS
 62
     7
 10
-66.49384757729331
 20
-1011.000000000004
 30
0.0
 11
-69.09192378864645
 21
-1009.500000000004
 31
0.0
  0
LINE
  5
5C0
  8
DATA
  6
CONTINUOUS
 62
     7
 10
-69.09192378864645
 20
-1009.500000000004
 30
0.0
 11
-71.69000000000051
 21
-1011.000000000004
 31
0.0
  0
LINE
  5
5C1
  8
DATA
  6
CONTINUOUS
 62
     7
 10
-71.69000000000051
 20
-1011.000000000004
 30
0.0
 11
-71.6899999999996
 21
-1014.000000000004
 31
0.0
  0
LINE
  5
5C2
  8
DATA
  6
CONTINUOUS
 62
     7
 10
-71.6899999999996
 20
-1014.000000000004
 30
0.0
 11
-69.09192378864645
 21
-1015.500000000004
 31
0.0
  0
LINE
  5
5C3
  8
DATA
  6
CONTINUOUS
 62
     7
 10
-62.22192378864656
 20
-1015.500000000004
 30
0.0
 11
-59.62384757729342
 21
-1014.000000000004
 31
0.0
  0
LINE
  5
5C4
  8
DATA
  6
CONTINUOUS
 62
     7
 10
-59.62384757729342
 20
-1014.000000000004
 30
0.0
 11
-59.62384757729342
 21
-1011.000000000004
 31
0.0
  0
LINE
  5
5C5
  8
DATA
  6
CONTINUOUS
 62
     7
 10
-59.62384757729342
 20
-1011.000000000004
 30
0.0
 11
-62.22192378864656
 21
-1009.500000000004
 31
0.0
  0
LINE
  5
5C6
  8
DATA
  6
CONTINUOUS
 62
     7
 10
-62.22192378864656
 20
-1009.500000000004
 30
0.0
 11
-64.81999999999971
 21
-1011.000000000004
 31
0.0
  0
LINE
  5
5C7
  8
DATA
  6
CONTINUOUS
 62
     7
 10
-64.81999999999971
 20
-1011.000000000004
 30
0.0
 11
-64.81999999999971
 21
-1014.000000000004
 31
0.0
  0
LINE
  5
5C8
  8
DATA
  6
CONTINUOUS
 62
     7
 10
-64.81999999999971
 20
-1014.000000000004
 30
0.0
 11
-62.22192378864656
 21
-1015.500000000004
 31
0.0
  0
LINE
  5
5C9
  8
DATA
  6
CONTINUOUS
 62
     7
 10
-55.35192378864667
 20
-1015.500000000004
 30
0.0
 11
-52.75384757729353
 21
-1014.000000000004
 31
0.0
  0
LINE
  5
5CA
  8
DATA
  6
CONTINUOUS
 62
     7
 10
-52.75384757729353
 20
-1014.000000000004
 30
0.0
 11
-52.75384757729353
 21
-1011.000000000004
 31
0.0
  0
LINE
  5
5CB
  8
DATA
  6
CONTINUOUS
 62
     7
 10
-52.75384757729353
 20
-1011.000000000004
 30
0.0
 11
-55.35192378864667
 21
-1009.500000000004
 31
0.0
  0
LINE
  5
5CC
  8
DATA
  6
CONTINUOUS
 62
     7
 10
-55.35192378864667
 20
-1009.500000000004
 30
0.0
 11
-57.94999999999982
 21
-1011.000000000004
 31
0.0
  0
LINE
  5
5CD
  8
DATA
  6
CONTINUOUS
 62
     7
 10
-57.94999999999982
 20
-1011.000000000004
 30
0.0
 11
-57.94999999999982
 21
-1014.000000000004
 31
0.0
  0
LINE
  5
5CE
  8
DATA
  6
CONTINUOUS
 62
     7
 10
-57.94999999999982
 20
-1014.000000000004
 30
0.0
 11
-55.35192378864667
 21
-1015.500000000004
 31
0.0
  0
LINE
  5
5CF
  8
DATA
  6
CONTINUOUS
 62
     7
 10
-48.48192378864678
 20
-1015.500000000004
 30
0.0
 11
-45.88384757729364
 21
-1014.000000000004
 31
0.0
  0
LINE
  5
5D0
  8
DATA
  6
CONTINUOUS
 62
     7
 10
-45.88384757729364
 20
-1014.000000000004
 30
0.0
 11
-45.88384757729364
 21
-1011.000000000004
 31
0.0
  0
LINE
  5
5D1
  8
DATA
  6
CONTINUOUS
 62
     7
 10
-45.88384757729364
 20
-1011.000000000004
 30
0.0
 11
-48.48192378864678
 21
-1009.500000000004
 31
0.0
  0
LINE
  5
5D2
  8
DATA
  6
CONTINUOUS
 62
     7
 10
-48.48192378864678
 20
-1009.500000000004
 30
0.0
 11
-51.07999999999993
 21
-1011.000000000004
 31
0.0
  0
LINE
  5
5D3
  8
DATA
  6
CONTINUOUS
 62
     7
 10
-51.07999999999993
 20
-1011.000000000004
 30
0.0
 11
-51.07999999999993
 21
-1014.000000000004
 31
0.0
  0
LINE
  5
5D4
  8
DATA
  6
CONTINUOUS
 62
     7
 10
-51.07999999999993
 20
-1014.000000000004
 30
0.0
 11
-48.48192378864678
 21
-1015.500000000004
 31
0.0
  0
LINE
  5
5D5
  8
DATA
  6
CONTINUOUS
 62
     7
 10
-41.61192378864689
 20
-1015.500000000004
 30
0.0
 11
-39.01384757729375
 21
-1014.000000000004
 31
0.0
  0
LINE
  5
5D6
  8
DATA
  6
CONTINUOUS
 62
     7
 10
-39.01384757729375
 20
-1014.000000000004
 30
0.0
 11
-39.01384757729375
 21
-1011.000000000004
 31
0.0
  0
LINE
  5
5D7
  8
DATA
  6
CONTINUOUS
 62
     7
 10
-39.01384757729375
 20
-1011.000000000004
 30
0.0
 11
-41.61192378864689
 21
-1009.500000000004
 31
0.0
  0
LINE
  5
5D8
  8
DATA
  6
CONTINUOUS
 62
     7
 10
-41.61192378864689
 20
-1009.500000000004
 30
0.0
 11
-44.21000000000004
 21
-1011.000000000004
 31
0.0
  0
LINE
  5
5D9
  8
DATA
  6
CONTINUOUS
 62
     7
 10
-44.21000000000004
 20
-1011.000000000004
 30
0.0
 11
-44.21000000000004
 21
-1014.000000000004
 31
0.0
  0
LINE
  5
5DA
  8
DATA
  6
CONTINUOUS
 62
     7
 10
-44.21000000000004
 20
-1014.000000000004
 30
0.0
 11
-41.61192378864689
 21
-1015.500000000004
 31
0.0
  0
LINE
  5
5DB
  8
DATA
  6
CONTINUOUS
 62
     7
 10
-154.4019237886469
 20
-1015.500000000006
 30
0.0
 11
-151.8038475772937
 21
-1017.000000000006
 31
0.0
  0
LINE
  5
5DC
  8
DATA
  6
CONTINUOUS
 62
     7
 10
-151.8038475772937
 20
-1017.000000000006
 30
0.0
 11
-151.8038475772937
 21
-1020.000000000006
 31
0.0
  0
LINE
  5
5DD
  8
DATA
  6
CONTINUOUS
 62
     7
 10
-151.8038475772937
 20
-1020.000000000006
 30
0.0
 11
-154.4019237886469
 21
-1021.500000000006
 31
0.0
  0
LINE
  5
5DE
  8
DATA
  6
CONTINUOUS
 62
     7
 10
-154.4019237886469
 20
-1021.500000000006
 30
0.0
 11
-157.0
 21
-1020.000000000006
 31
0.0
  0
LINE
  5
5DF
  8
DATA
  6
CONTINUOUS
 62
     7
 10
-157.0
 20
-1020.000000000006
 30
0.0
 11
-157.0
 21
-1017.000000000006
 31
0.0
  0
LINE
  5
5E0
  8
DATA
  6
CONTINUOUS
 62
     7
 10
-157.0
 20
-1017.000000000006
 30
0.0
 11
-154.4019237886469
 21
-1015.500000000006
 31
0.0
  0
LINE
  5
5E1
  8
DATA
  6
CONTINUOUS
 62
     7
 10
-147.531923788647
 20
-1015.500000000006
 30
0.0
 11
-144.9338475772938
 21
-1017.000000000006
 31
0.0
  0
LINE
  5
5E2
  8
DATA
  6
CONTINUOUS
 62
     7
 10
-144.9338475772938
 20
-1017.000000000006
 30
0.0
 11
-144.9338475772938
 21
-1020.000000000006
 31
0.0
  0
LINE
  5
5E3
  8
DATA
  6
CONTINUOUS
 62
     7
 10
-144.9338475772938
 20
-1020.000000000006
 30
0.0
 11
-147.531923788647
 21
-1021.500000000006
 31
0.0
  0
LINE
  5
5E4
  8
DATA
  6
CONTINUOUS
 62
     7
 10
-147.531923788647
 20
-1021.500000000006
 30
0.0
 11
-150.1300000000001
 21
-1020.000000000006
 31
0.0
  0
LINE
  5
5E5
  8
DATA
  6
CONTINUOUS
 62
     7
 10
-150.1300000000001
 20
-1020.000000000006
 30
0.0
 11
-150.1300000000001
 21
-1017.000000000006
 31
0.0
  0
LINE
  5
5E6
  8
DATA
  6
CONTINUOUS
 62
     7
 10
-150.1300000000001
 20
-1017.000000000006
 30
0.0
 11
-147.531923788647
 21
-1015.500000000006
 31
0.0
  0
LINE
  5
5E7
  8
DATA
  6
CONTINUOUS
 62
     7
 10
-140.6619237886471
 20
-1015.500000000006
 30
0.0
 11
-138.0638475772939
 21
-1017.000000000006
 31
0.0
  0
LINE
  5
5E8
  8
DATA
  6
CONTINUOUS
 62
     7
 10
-138.0638475772939
 20
-1017.000000000006
 30
0.0
 11
-138.0638475772939
 21
-1020.000000000006
 31
0.0
  0
LINE
  5
5E9
  8
DATA
  6
CONTINUOUS
 62
     7
 10
-138.0638475772939
 20
-1020.000000000006
 30
0.0
 11
-140.6619237886471
 21
-1021.500000000006
 31
0.0
  0
LINE
  5
5EA
  8
DATA
  6
CONTINUOUS
 62
     7
 10
-140.6619237886471
 20
-1021.500000000006
 30
0.0
 11
-143.2600000000002
 21
-1020.000000000006
 31
0.0
  0
LINE
  5
5EB
  8
DATA
  6
CONTINUOUS
 62
     7
 10
-143.2600000000002
 20
-1020.000000000006
 30
0.0
 11
-143.2600000000002
 21
-1017.000000000006
 31
0.0
  0
LINE
  5
5EC
  8
DATA
  6
CONTINUOUS
 62
     7
 10
-143.2600000000002
 20
-1017.000000000006
 30
0.0
 11
-140.6619237886471
 21
-1015.500000000006
 31
0.0
  0
LINE
  5
5ED
  8
DATA
  6
CONTINUOUS
 62
     7
 10
-133.7919237886472
 20
-1015.500000000006
 30
0.0
 11
-131.193847577294
 21
-1017.000000000006
 31
0.0
  0
LINE
  5
5EE
  8
DATA
  6
CONTINUOUS
 62
     7
 10
-131.193847577294
 20
-1017.000000000006
 30
0.0
 11
-131.193847577294
 21
-1020.000000000006
 31
0.0
  0
LINE
  5
5EF
  8
DATA
  6
CONTINUOUS
 62
     7
 10
-131.193847577294
 20
-1020.000000000006
 30
0.0
 11
-133.7919237886472
 21
-1021.500000000006
 31
0.0
  0
LINE
  5
5F0
  8
DATA
  6
CONTINUOUS
 62
     7
 10
-133.7919237886472
 20
-1021.500000000006
 30
0.0
 11
-136.3900000000003
 21
-1020.000000000006
 31
0.0
  0
LINE
  5
5F1
  8
DATA
  6
CONTINUOUS
 62
     7
 10
-136.3900000000003
 20
-1020.000000000006
 30
0.0
 11
-136.3900000000003
 21
-1017.000000000006
 31
0.0
  0
LINE
  5
5F2
  8
DATA
  6
CONTINUOUS
 62
     7
 10
-136.3900000000003
 20
-1017.000000000006
 30
0.0
 11
-133.7919237886472
 21
-1015.500000000006
 31
0.0
  0
LINE
  5
5F3
  8
DATA
  6
CONTINUOUS
 62
     7
 10
-126.9219237886473
 20
-1015.500000000006
 30
0.0
 11
-124.3238475772941
 21
-1017.000000000006
 31
0.0
  0
LINE
  5
5F4
  8
DATA
  6
CONTINUOUS
 62
     7
 10
-124.3238475772941
 20
-1017.000000000006
 30
0.0
 11
-124.3238475772932
 21
-1020.000000000006
 31
0.0
  0
LINE
  5
5F5
  8
DATA
  6
CONTINUOUS
 62
     7
 10
-124.3238475772932
 20
-1020.000000000006
 30
0.0
 11
-126.9219237886473
 21
-1021.500000000006
 31
0.0
  0
LINE
  5
5F6
  8
DATA
  6
CONTINUOUS
 62
     7
 10
-126.9219237886473
 20
-1021.500000000006
 30
0.0
 11
-129.5200000000004
 21
-1020.000000000006
 31
0.0
  0
LINE
  5
5F7
  8
DATA
  6
CONTINUOUS
 62
     7
 10
-129.5200000000004
 20
-1020.000000000006
 30
0.0
 11
-129.5200000000004
 21
-1017.000000000006
 31
0.0
  0
LINE
  5
5F8
  8
DATA
  6
CONTINUOUS
 62
     7
 10
-129.5200000000004
 20
-1017.000000000006
 30
0.0
 11
-126.9219237886473
 21
-1015.500000000006
 31
0.0
  0
LINE
  5
5F9
  8
DATA
  6
CONTINUOUS
 62
     7
 10
-120.0519237886474
 20
-1015.500000000006
 30
0.0
 11
-117.4538475772933
 21
-1017.000000000006
 31
0.0
  0
LINE
  5
5FA
  8
DATA
  6
CONTINUOUS
 62
     7
 10
-117.4538475772933
 20
-1017.000000000006
 30
0.0
 11
-117.4538475772933
 21
-1020.000000000006
 31
0.0
  0
LINE
  5
5FB
  8
DATA
  6
CONTINUOUS
 62
     7
 10
-117.4538475772933
 20
-1020.000000000006
 30
0.0
 11
-120.0519237886474
 21
-1021.500000000006
 31
0.0
  0
LINE
  5
5FC
  8
DATA
  6
CONTINUOUS
 62
     7
 10
-120.0519237886474
 20
-1021.500000000006
 30
0.0
 11
-122.6500000000005
 21
-1020.000000000006
 31
0.0
  0
LINE
  5
5FD
  8
DATA
  6
CONTINUOUS
 62
     7
 10
-122.6500000000005
 20
-1020.000000000006
 30
0.0
 11
-122.6500000000005
 21
-1017.000000000006
 31
0.0
  0
LINE
  5
5FE
  8
DATA
  6
CONTINUOUS
 62
     7
 10
-122.6500000000005
 20
-1017.000000000006
 30
0.0
 11
-120.0519237886474
 21
-1015.500000000006
 31
0.0
  0
LINE
  5
5FF
  8
DATA
  6
CONTINUOUS
 62
     7
 10
-113.1819237886466
 20
-1015.500000000006
 30
0.0
 11
-110.5838475772935
 21
-1017.000000000006
 31
0.0
  0
LINE
  5
600
  8
DATA
  6
CONTINUOUS
 62
     7
 10
-110.5838475772935
 20
-1017.000000000006
 30
0.0
 11
-110.5838475772935
 21
-1020.000000000006
 31
0.0
  0
LINE
  5
601
  8
DATA
  6
CONTINUOUS
 62
     7
 10
-110.5838475772935
 20
-1020.000000000006
 30
0.0
 11
-113.1819237886466
 21
-1021.500000000006
 31
0.0
  0
LINE
  5
602
  8
DATA
  6
CONTINUOUS
 62
     7
 10
-113.1819237886466
 20
-1021.500000000006
 30
0.0
 11
-115.7800000000007
 21
-1020.000000000006
 31
0.0
  0
LINE
  5
603
  8
DATA
  6
CONTINUOUS
 62
     7
 10
-115.7800000000007
 20
-1020.000000000006
 30
0.0
 11
-115.7800000000007
 21
-1017.000000000006
 31
0.0
  0
LINE
  5
604
  8
DATA
  6
CONTINUOUS
 62
     7
 10
-115.7800000000007
 20
-1017.000000000006
 30
0.0
 11
-113.1819237886466
 21
-1015.500000000006
 31
0.0
  0
LINE
  5
605
  8
DATA
  6
CONTINUOUS
 62
     7
 10
-106.3119237886467
 20
-1015.500000000006
 30
0.0
 11
-103.7138475772936
 21
-1017.000000000006
 31
0.0
  0
LINE
  5
606
  8
DATA
  6
CONTINUOUS
 62
     7
 10
-103.7138475772936
 20
-1017.000000000006
 30
0.0
 11
-103.7138475772936
 21
-1020.000000000006
 31
0.0
  0
LINE
  5
607
  8
DATA
  6
CONTINUOUS
 62
     7
 10
-103.7138475772936
 20
-1020.000000000006
 30
0.0
 11
-106.3119237886467
 21
-1021.500000000006
 31
0.0
  0
LINE
  5
608
  8
DATA
  6
CONTINUOUS
 62
     7
 10
-106.3119237886467
 20
-1021.500000000006
 30
0.0
 11
-108.9100000000008
 21
-1020.000000000006
 31
0.0
  0
LINE
  5
609
  8
DATA
  6
CONTINUOUS
 62
     7
 10
-108.9100000000008
 20
-1020.000000000006
 30
0.0
 11
-108.9099999999999
 21
-1017.000000000006
 31
0.0
  0
LINE
  5
60A
  8
DATA
  6
CONTINUOUS
 62
     7
 10
-108.9099999999999
 20
-1017.000000000006
 30
0.0
 11
-106.3119237886467
 21
-1015.500000000006
 31
0.0
  0
LINE
  5
60B
  8
DATA
  6
CONTINUOUS
 62
     7
 10
-99.44192378864682
 20
-1015.500000000006
 30
0.0
 11
-96.84384757729367
 21
-1017.000000000006
 31
0.0
  0
LINE
  5
60C
  8
DATA
  6
CONTINUOUS
 62
     7
 10
-96.84384757729367
 20
-1017.000000000006
 30
0.0
 11
-96.84384757729367
 21
-1020.000000000006
 31
0.0
  0
LINE
  5
60D
  8
DATA
  6
CONTINUOUS
 62
     7
 10
-96.84384757729367
 20
-1020.000000000006
 30
0.0
 11
-99.44192378864682
 21
-1021.500000000006
 31
0.0
  0
LINE
  5
60E
  8
DATA
  6
CONTINUOUS
 62
     7
 10
-99.44192378864682
 20
-1021.500000000006
 30
0.0
 11
-102.04
 21
-1020.000000000006
 31
0.0
  0
LINE
  5
60F
  8
DATA
  6
CONTINUOUS
 62
     7
 10
-102.04
 20
-1020.000000000006
 30
0.0
 11
-102.04
 21
-1017.000000000006
 31
0.0
  0
LINE
  5
610
  8
DATA
  6
CONTINUOUS
 62
     7
 10
-102.04
 20
-1017.000000000006
 30
0.0
 11
-99.44192378864682
 21
-1015.500000000006
 31
0.0
  0
LINE
  5
611
  8
DATA
  6
CONTINUOUS
 62
     7
 10
-92.57192378864693
 20
-1015.500000000006
 30
0.0
 11
-89.97384757729378
 21
-1017.000000000006
 31
0.0
  0
LINE
  5
612
  8
DATA
  6
CONTINUOUS
 62
     7
 10
-89.97384757729378
 20
-1017.000000000006
 30
0.0
 11
-89.97384757729378
 21
-1020.000000000006
 31
0.0
  0
LINE
  5
613
  8
DATA
  6
CONTINUOUS
 62
     7
 10
-89.97384757729378
 20
-1020.000000000006
 30
0.0
 11
-92.57192378864693
 21
-1021.500000000006
 31
0.0
  0
LINE
  5
614
  8
DATA
  6
CONTINUOUS
 62
     7
 10
-92.57192378864693
 20
-1021.500000000006
 30
0.0
 11
-95.17000000000007
 21
-1020.000000000006
 31
0.0
  0
LINE
  5
615
  8
DATA
  6
CONTINUOUS
 62
     7
 10
-95.17000000000007
 20
-1020.000000000006
 30
0.0
 11
-95.17000000000007
 21
-1017.000000000006
 31
0.0
  0
LINE
  5
616
  8
DATA
  6
CONTINUOUS
 62
     7
 10
-95.17000000000007
 20
-1017.000000000006
 30
0.0
 11
-92.57192378864693
 21
-1015.500000000006
 31
0.0
  0
LINE
  5
617
  8
DATA
  6
CONTINUOUS
 62
     7
 10
-85.70192378864704
 20
-1015.500000000006
 30
0.0
 11
-83.10384757729389
 21
-1017.000000000006
 31
0.0
  0
LINE
  5
618
  8
DATA
  6
CONTINUOUS
 62
     7
 10
-83.10384757729389
 20
-1017.000000000006
 30
0.0
 11
-83.10384757729389
 21
-1020.000000000006
 31
0.0
  0
LINE
  5
619
  8
DATA
  6
CONTINUOUS
 62
     7
 10
-83.10384757729389
 20
-1020.000000000006
 30
0.0
 11
-85.70192378864704
 21
-1021.500000000006
 31
0.0
  0
LINE
  5
61A
  8
DATA
  6
CONTINUOUS
 62
     7
 10
-85.70192378864704
 20
-1021.500000000006
 30
0.0
 11
-88.30000000000018
 21
-1020.000000000006
 31
0.0
  0
LINE
  5
61B
  8
DATA
  6
CONTINUOUS
 62
     7
 10
-88.30000000000018
 20
-1020.000000000006
 30
0.0
 11
-88.30000000000018
 21
-1017.000000000006
 31
0.0
  0
LINE
  5
61C
  8
DATA
  6
CONTINUOUS
 62
     7
 10
-88.30000000000018
 20
-1017.000000000006
 30
0.0
 11
-85.70192378864704
 21
-1015.500000000006
 31
0.0
  0
LINE
  5
61D
  8
DATA
  6
CONTINUOUS
 62
     7
 10
-78.83192378864715
 20
-1015.500000000006
 30
0.0
 11
-76.233847577294
 21
-1017.000000000006
 31
0.0
  0
LINE
  5
61E
  8
DATA
  6
CONTINUOUS
 62
     7
 10
-76.233847577294
 20
-1017.000000000006
 30
0.0
 11
-76.233847577294
 21
-1020.000000000006
 31
0.0
  0
LINE
  5
61F
  8
DATA
  6
CONTINUOUS
 62
     7
 10
-76.233847577294
 20
-1020.000000000006
 30
0.0
 11
-78.83192378864715
 21
-1021.500000000006
 31
0.0
  0
LINE
  5
620
  8
DATA
  6
CONTINUOUS
 62
     7
 10
-78.83192378864715
 20
-1021.500000000006
 30
0.0
 11
-81.43000000000029
 21
-1020.000000000006
 31
0.0
  0
LINE
  5
621
  8
DATA
  6
CONTINUOUS
 62
     7
 10
-81.43000000000029
 20
-1020.000000000006
 30
0.0
 11
-81.43000000000029
 21
-1017.000000000006
 31
0.0
  0
LINE
  5
622
  8
DATA
  6
CONTINUOUS
 62
     7
 10
-81.43000000000029
 20
-1017.000000000006
 30
0.0
 11
-78.83192378864715
 21
-1015.500000000006
 31
0.0
  0
LINE
  5
623
  8
DATA
  6
CONTINUOUS
 62
     7
 10
-71.96192378864725
 20
-1015.500000000006
 30
0.0
 11
-69.36384757729411
 21
-1017.000000000006
 31
0.0
  0
LINE
  5
624
  8
DATA
  6
CONTINUOUS
 62
     7
 10
-69.36384757729411
 20
-1017.000000000006
 30
0.0
 11
-69.3638475772932
 21
-1020.000000000006
 31
0.0
  0
LINE
  5
625
  8
DATA
  6
CONTINUOUS
 62
     7
 10
-69.3638475772932
 20
-1020.000000000006
 30
0.0
 11
-71.96192378864725
 21
-1021.500000000006
 31
0.0
  0
LINE
  5
626
  8
DATA
  6
CONTINUOUS
 62
     7
 10
-71.96192378864725
 20
-1021.500000000006
 30
0.0
 11
-74.5600000000004
 21
-1020.000000000006
 31
0.0
  0
LINE
  5
627
  8
DATA
  6
CONTINUOUS
 62
     7
 10
-74.5600000000004
 20
-1020.000000000006
 30
0.0
 11
-74.5600000000004
 21
-1017.000000000006
 31
0.0
  0
LINE
  5
628
  8
DATA
  6
CONTINUOUS
 62
     7
 10
-74.5600000000004
 20
-1017.000000000006
 30
0.0
 11
-71.96192378864725
 21
-1015.500000000006
 31
0.0
  0
LINE
  5
629
  8
DATA
  6
CONTINUOUS
 62
     7
 10
-65.09192378864736
 20
-1015.500000000006
 30
0.0
 11
-62.49384757729331
 21
-1017.000000000006
 31
0.0
  0
LINE
  5
62A
  8
DATA
  6
CONTINUOUS
 62
     7
 10
-62.49384757729331
 20
-1017.000000000006
 30
0.0
 11
-62.49384757729331
 21
-1020.000000000006
 31
0.0
  0
LINE
  5
62B
  8
DATA
  6
CONTINUOUS
 62
     7
 10
-62.49384757729331
 20
-1020.000000000006
 30
0.0
 11
-65.09192378864736
 21
-1021.500000000006
 31
0.0
  0
LINE
  5
62C
  8
DATA
  6
CONTINUOUS
 62
     7
 10
-65.09192378864736
 20
-1021.500000000006
 30
0.0
 11
-67.69000000000051
 21
-1020.000000000006
 31
0.0
  0
LINE
  5
62D
  8
DATA
  6
CONTINUOUS
 62
     7
 10
-67.69000000000051
 20
-1020.000000000006
 30
0.0
 11
-67.69000000000051
 21
-1017.000000000006
 31
0.0
  0
LINE
  5
62E
  8
DATA
  6
CONTINUOUS
 62
     7
 10
-67.69000000000051
 20
-1017.000000000006
 30
0.0
 11
-65.09192378864736
 21
-1015.500000000006
 31
0.0
  0
LINE
  5
62F
  8
DATA
  6
CONTINUOUS
 62
     7
 10
-58.22192378864656
 20
-1015.500000000006
 30
0.0
 11
-55.62384757729342
 21
-1017.000000000006
 31
0.0
  0
LINE
  5
630
  8
DATA
  6
CONTINUOUS
 62
     7
 10
-55.62384757729342
 20
-1017.000000000006
 30
0.0
 11
-55.62384757729342
 21
-1020.000000000006
 31
0.0
  0
LINE
  5
631
  8
DATA
  6
CONTINUOUS
 62
     7
 10
-55.62384757729342
 20
-1020.000000000006
 30
0.0
 11
-58.22192378864656
 21
-1021.500000000006
 31
0.0
  0
LINE
  5
632
  8
DATA
  6
CONTINUOUS
 62
     7
 10
-58.22192378864656
 20
-1021.500000000006
 30
0.0
 11
-60.82000000000062
 21
-1020.000000000006
 31
0.0
  0
LINE
  5
633
  8
DATA
  6
CONTINUOUS
 62
     7
 10
-60.82000000000062
 20
-1020.000000000006
 30
0.0
 11
-60.82000000000062
 21
-1017.000000000006
 31
0.0
  0
LINE
  5
634
  8
DATA
  6
CONTINUOUS
 62
     7
 10
-60.82000000000062
 20
-1017.000000000006
 30
0.0
 11
-58.22192378864656
 21
-1015.500000000006
 31
0.0
  0
LINE
  5
635
  8
DATA
  6
CONTINUOUS
 62
     7
 10
-51.35192378864667
 20
-1015.500000000006
 30
0.0
 11
-48.75384757729353
 21
-1017.000000000006
 31
0.0
  0
LINE
  5
636
  8
DATA
  6
CONTINUOUS
 62
     7
 10
-48.75384757729353
 20
-1017.000000000006
 30
0.0
 11
-48.75384757729353
 21
-1020.000000000006
 31
0.0
  0
LINE
  5
637
  8
DATA
  6
CONTINUOUS
 62
     7
 10
-48.75384757729353
 20
-1020.000000000006
 30
0.0
 11
-51.35192378864667
 21
-1021.500000000006
 31
0.0
  0
LINE
  5
638
  8
DATA
  6
CONTINUOUS
 62
     7
 10
-51.35192378864667
 20
-1021.500000000006
 30
0.0
 11
-53.95000000000073
 21
-1020.000000000006
 31
0.0
  0
LINE
  5
639
  8
DATA
  6
CONTINUOUS
 62
     7
 10
-53.95000000000073
 20
-1020.000000000006
 30
0.0
 11
-53.94999999999982
 21
-1017.000000000006
 31
0.0
  0
LINE
  5
63A
  8
DATA
  6
CONTINUOUS
 62
     7
 10
-53.94999999999982
 20
-1017.000000000006
 30
0.0
 11
-51.35192378864667
 21
-1015.500000000006
 31
0.0
  0
LINE
  5
63B
  8
DATA
  6
CONTINUOUS
 62
     7
 10
-44.48192378864678
 20
-1015.500000000006
 30
0.0
 11
-41.88384757729364
 21
-1017.000000000006
 31
0.0
  0
LINE
  5
63C
  8
DATA
  6
CONTINUOUS
 62
     7
 10
-41.88384757729364
 20
-1017.000000000006
 30
0.0
 11
-41.88384757729364
 21
-1020.000000000006
 31
0.0
  0
LINE
  5
63D
  8
DATA
  6
CONTINUOUS
 62
     7
 10
-41.88384757729364
 20
-1020.000000000006
 30
0.0
 11
-44.48192378864678
 21
-1021.500000000006
 31
0.0
  0
LINE
  5
63E
  8
DATA
  6
CONTINUOUS
 62
     7
 10
-44.48192378864678
 20
-1021.500000000006
 30
0.0
 11
-47.07999999999993
 21
-1020.000000000006
 31
0.0
  0
LINE
  5
63F
  8
DATA
  6
CONTINUOUS
 62
     7
 10
-47.07999999999993
 20
-1020.000000000006
 30
0.0
 11
-47.07999999999993
 21
-1017.000000000006
 31
0.0
  0
LINE
  5
640
  8
DATA
  6
CONTINUOUS
 62
     7
 10
-47.07999999999993
 20
-1017.000000000006
 30
0.0
 11
-44.48192378864678
 21
-1015.500000000006
 31
0.0
  0
LINE
  5
641
  8
DATA
  6
STYLE_11
 62
     7
 10
-100.0
 20
-501.1399999999992
 30
0.0
 11
-100.0
 21
-1478.499999999999
 31
0.0
  0
TEXT
  5
642
  8
DATA
 62
     7
 10
873.904173900463
 20
-1527.147352430555
 30
0.0
 40
54.29470486111111
  1
背面パネル拡大図
 41
0.7
 72
     1
 11
1050.0
 21
-1499.999999999999
 31
0.0
 73
     2
  0
TEXT
  5
643
  8
DATA
 62
     7
 10
473.78515625
 20
-204.900655776943
 30
0.0
 40
46.17187500000001
  1
NORM/BOOST
 41
0.7
 72
     1
 11
630.0
 21
-181.814718276943
 31
0.0
 73
     2
  0
LINE
  5
644
  8
DATA
  6
CONTINUOUS
 62
     7
 10
375.0
 20
-1421.540915951272
 30
0.0
 11
375.0
 21
3.459084048728073
 31
0.0
  0
LINE
  5
645
  8
DATA
  6
CONTINUOUS
 62
     7
 10
1725.0
 20
-3.459084048726254
 30
0.0
 11
1725.0
 21
-1428.459084048726
 31
0.0
  0
ARC
  5
646
  8
DATA
  6
CONTINUOUS
 62
     7
 10
1100.0
 20
-669.9999999999991
 30
0.0
 40
78.99999852386007
 50
140.692698054177
 51
129.3073054535574
  0
CIRCLE
  5
647
  8
DATA
  6
CONTINUOUS
 62
     7
 10
1099.999999999932
 20
-669.9999999999263
 30
0.0
 40
97.49999999025184
  0
CIRCLE
  5
648
  8
DATA
  6
CONTINUOUS
 62
     7
 10
1099.999999999932
 20
-669.9999999999263
 30
0.0
 40
107.5
  0
LINE
  5
649
  8
DATA
  6
CONTINUOUS
 62
     7
 10
1123.999999997527
 20
-594.7338057367178
 30
0.0
 11
1123.999999997527
 21
-594.7338072778975
 31
0.0
  0
LINE
  5
64A
  8
DATA
  6
CONTINUOUS
 62
     7
 10
1071.500000002775
 20
-596.3199500072951
 30
0.0
 11
1071.500000002775
 21
-596.3199515816532
 31
0.0
  0
ARC
  5
64B
  8
DATA
  6
CONTINUOUS
 62
     7
 10
1055.000000004425
 20
-669.9999999999263
 30
0.0
 40
19.99999999800095
 50
32.08918387405087
 51
327.9108161259492
  0
ARC
  5
64C
  8
DATA
  6
CONTINUOUS
 62
     7
 10
1144.99999999543
 20
-669.9999999999263
 30
0.0
 40
19.99999999800095
 50
212.0891838740509
 51
147.9108161259491
  0
ARC
  5
64D
  8
DATA
  6
CONTINUOUS
 62
     7
 10
1099.999999999932
 20
-709.4999999959819
 30
0.0
 40
19.9999999980077
 50
137.8522840898889
 51
42.14771591012954
  0
ARC
  5
64E
  8
DATA
  6
CONTINUOUS
 62
     7
 10
1045.552776672034
 20
-615.5527800053724
 30
0.0
 40
7.99999999920039
 50
56.61290968104122
 51
213.3870938266909
  0
ARC
  5
64F
  8
DATA
  6
CONTINUOUS
 62
     7
 10
1099.999999999932
 20
-669.9999999999263
 30
0.0
 40
29.99999999999744
 50
20.74191648508129
 51
159.2580835149246
  0
ARC
  5
650
  8
DATA
  6
CONTINUOUS
 62
     7
 10
1099.999999999932
 20
-669.9999999999263
 30
0.0
 40
30.00000000000594
 50
200.7419164850751
 51
240.3778367991912
  0
ARC
  5
651
  8
DATA
  6
CONTINUOUS
 62
     7
 10
1099.999999999932
 20
-669.9999999999263
 30
0.0
 40
29.99999999999644
 50
299.6221632007934
 51
339.258083514919
  0
CIRCLE
  5
652
  8
DATA
  6
CONTINUOUS
 62
     7
 10
1194.999999990428
 20
-789.9999999879255
 30
0.0
 40
25.0
  0
LINE
  5
653
  8
DATA
  6
STYLE_12
 62
     7
 10
1179.974408323765
 20
-789.9999999879255
 30
0.0
 11
1209.974408323765
 21
-789.9999999879255
 31
0.0
  0
LINE
  5
654
  8
DATA
  6
STYLE_12
 62
     7
 10
1194.999999990428
 20
-774.9882833212623
 30
0.0
 11
1194.999999990428
 21
-804.9882833212623
 31
0.0
  0
CIRCLE
  5
655
  8
DATA
  6
CONTINUOUS
 62
     7
 10
1004.974408342764
 20
-549.9882833452593
 30
0.0
 40
25.0
  0
LINE
  5
656
  8
DATA
  6
STYLE_12
 62
     7
 10
989.9488166761012
 20
-549.9882833452593
 30
0.0
 11
1019.948816676101
 21
-549.9882833452593
 31
0.0
  0
LINE
  5
657
  8
DATA
  6
STYLE_12
 62
     7
 10
1004.974408342764
 20
-534.9765666785961
 30
0.0
 11
1004.974408342764
 21
-564.9765666785961
 31
0.0
  0
LINE
  5
658
  8
DATA
  6
CONTINUOUS
 62
     7
 10
1076.000000002327
 20
-575.5000000093778
 30
0.0
 11
1076.000000002327
 21
-552.9626128233476
 31
0.0
  0
LINE
  5
659
  8
DATA
  6
CONTINUOUS
 62
     7
 10
1123.999999997527
 20
-575.5000000093778
 30
0.0
 11
1123.999999997527
 21
-552.9626128233476
 31
0.0
  0
CIRCLE
  5
65A
  8
DATA
  6
CONTINUOUS
 62
     7
 10
630.0
 20
-99.99999999999909
 30
0.0
 40
40.0
  0
CIRCLE
  5
65B
  8
DATA
  6
CONTINUOUS
 62
     7
 10
1470.0
 20
-99.99999999999909
 30
0.0
 40
40.0
  0
CIRCLE
  5
65C
  8
DATA
  6
CONTINUOUS
 62
     7
 10
630.0
 20
-289.9999999999991
 30
0.0
 40
39.99999999999942
  0
TEXT
  5
65D
  8
DATA
 62
     7
 10
1362.265625
 20
-204.900655776943
 30
0.0
 40
46.17187500000001
  1
CONNECT
 41
0.7
 72
     1
 11
1470.0
 21
-181.814718276943
 31
0.0
 73
     2
  0
TEXT
  5
65E
  8
DATA
 62
     7
 10
496.409375
 20
-394.900655776943
 30
0.0
 40
46.17187500000001
  1
FRONT LED
 41
0.7
 72
     1
 11
630.0
 21
-371.814718276943
 31
0.0
 73
     2
  0
CIRCLE
  5
65F
  8
DATA
  6
CONTINUOUS
 62
     7
 10
630.0
 20
-669.9999999999991
 30
0.0
 40
63.49999999999909
  0
LINE
  5
660
  8
DATA
  6
CONTINUOUS
 62
     7
 10
607.1742257589085
 20
-729.2556666513374
 30
0.0
 11
616.4349589716312
 21
-713.2156062115532
 31
0.0
  0
ARC
  5
661
  8
DATA
  6
CONTINUOUS
 62
     7
 10
622.0625000000018
 20
-683.7481532850725
 30
0.0
 40
30.00000000000366
 50
259.1881364537152
 51
220.8118635462844
  0
LINE
  5
662
  8
DATA
  6
CONTINUOUS
 62
     7
 10
590.0959744823058
 20
-719.3955336795048
 30
0.0
 11
599.356707695033
 21
-703.3554732397206
 31
0.0
  0
ARC
  5
663
  8
DATA
  6
CONTINUOUS
 62
     7
 10
629.9999999999909
 20
-669.9999999999991
 30
0.0
 40
107.4999999999913
 50
197.5973366080775
 51
342.4026633919219
  0
ARC
  5
664
  8
DATA
  6
CONTINUOUS
 62
     7
 10
629.9999999999909
 20
-669.9999999999991
 30
0.0
 40
107.4999999999867
 50
17.59733660808588
 51
162.4026633919148
  0
LINE
  5
665
  8
DATA
  6
CONTINUOUS
 62
     7
 10
500.0
 20
-532.4999999999991
 30
0.0
 11
500.0
 21
-637.4999999999923
 31
0.0
  0
LINE
  5
666
  8
DATA
  6
CONTINUOUS
 62
     7
 10
500.0
 20
-702.4999999999923
 30
0.0
 11
500.0
 21
-807.4999999999991
 31
0.0
  0
LINE
  5
667
  8
DATA
  6
CONTINUOUS
 62
     7
 10
1250.0
 20
-532.4999999999991
 30
0.0
 11
1250.0
 21
-807.4999999999991
 31
0.0
  0
LINE
  5
668
  8
DATA
  6
CONTINUOUS
 62
     7
 10
1225.0
 20
-507.4999999999991
 30
0.0
 11
525.0
 21
-507.4999999999991
 31
0.0
  0
LINE
  5
669
  8
DATA
  6
CONTINUOUS
 62
     7
 10
1225.0
 20
-832.4999999999991
 30
0.0
 11
525.0
 21
-832.4999999999991
 31
0.0
  0
ARC
  5
66A
  8
DATA
  6
CONTINUOUS
 62
     7
 10
525.0
 20
-532.4999999999991
 30
0.0
 40
25.0
 50
90.0
 51
180.0
  0
ARC
  5
66B
  8
DATA
  6
CONTINUOUS
 62
     7
 10
525.0
 20
-807.4999999999991
 30
0.0
 40
25.0
 50
180.0
 51
270.0
  0
ARC
  5
66C
  8
DATA
  6
CONTINUOUS
 62
     7
 10
1225.0
 20
-807.4999999999991
 30
0.0
 40
25.0
 50
270.0
 51
0.0
  0
ARC
  5
66D
  8
DATA
  6
CONTINUOUS
 62
     7
 10
1225.0
 20
-532.4999999999991
 30
0.0
 40
25.0
 50
0.0
 51
90.0
  0
ARC
  5
66E
  8
DATA
  6
CONTINUOUS
 62
     7
 10
630.0
 20
-670.0000000000036
 30
0.0
 40
69.9999999999959
 50
300.0000000000019
 51
239.9999999999981
  0
LINE
  5
66F
  8
DATA
  6
CONTINUOUS
 62
     7
 10
665.0
 20
-730.6217782649096
 30
0.0
 11
675.0
 21
-747.942286340598
 31
0.0
  0
ARC
  5
670
  8
DATA
  6
CONTINUOUS
 62
     7
 10
629.2888445006611
 20
-664.4895417193734
 30
0.0
 40
74.49293636114292
 50
89.45301085410236
 51
242.5937525059351
  0
ARC
  5
671
  8
DATA
  6
CONTINUOUS
 62
     7
 10
629.7100478849143
 20
-675.4643241222848
 30
0.0
 40
85.46481597655259
 50
302.000395037276
 51
89.80561516297482
  0
LINE
  5
672
  8
DATA
  6
CONTINUOUS
 62
     7
 10
480.0
 20
-647.4999999999923
 30
0.0
 11
480.0
 21
-692.4999999999923
 31
0.0
  0
LINE
  5
673
  8
DATA
  6
CONTINUOUS
 62
     7
 10
490.0
 20
-637.4999999999923
 30
0.0
 11
527.5304923404065
 21
-637.4999999999923
 31
0.0
  0
LINE
  5
674
  8
DATA
  6
CONTINUOUS
 62
     7
 10
490.0
 20
-702.4999999999923
 30
0.0
 11
527.5304923404019
 21
-702.4999999999923
 31
0.0
  0
TEXT
  5
675
  8
DATA
 62
     7
 10
488.3354698961648
 20
-685.3906249999923
 30
0.0
 40
30.78125000000001
  1
CH1
 41
0.7
 11
488.3354698961648
 21
-669.9999999999923
 31
0.0
 73
     2
  0
CIRCLE
  5
676
  8
DATA
  6
CONTINUOUS
 62
     7
 10
800.0
 20
-669.9999999999991
 30
0.0
 40
39.99999999999942
  0
LINE
  5
677
  8
DATA
  6
CONTINUOUS
 62
     7
 10
731.5272488953315
 20
-637.4999999999923
 30
0.0
 11
752.56583509748
 21
-637.4999999999923
 31
0.0
  0
LINE
  5
678
  8
DATA
  6
CONTINUOUS
 62
     7
 10
731.5272488953315
 20
-702.4999999999923
 30
0.0
 11
752.5658350974709
 21
-702.4999999999923
 31
0.0
  0
ARC
  5
679
  8
DATA
  6
CONTINUOUS
 62
     7
 10
800.0000000000045
 20
-669.9999999999991
 30
0.0
 40
57.50000000000272
 50
214.4173887104315
 51
325.5826112895685
  0
ARC
  5
67A
  8
DATA
  6
CONTINUOUS
 62
     7
 10
800.0000000000045
 20
-669.9999999999991
 30
0.0
 40
57.49999999999918
 50
34.41738871045037
 51
145.5826112895525
  0
LINE
  5
67B
  8
DATA
  6
CONTINUOUS
 62
     7
 10
846.4919061382852
 20
-637.4999999999923
 30
0.0
 11
984.4848494784355
 21
-637.4999999999923
 31
0.0
  0
LINE
  5
67C
  8
DATA
  6
CONTINUOUS
 62
     7
 10
974.4848494784719
 20
-702.4999999999923
 30
0.0
 11
984.4848494784719
 21
-702.4999999999923
 31
0.0
  0
ARC
  5
67D
  8
DATA
  6
CONTINUOUS
 62
     7
 10
1099.999999999964
 20
-669.9999999999195
 30
0.0
 40
120.0000000000317
 50
195.71386104804
 51
290.1567097162713
  0
ARC
  5
67E
  8
DATA
  6
CONTINUOUS
 62
     7
 10
1099.999999999964
 20
-669.9999999999195
 30
0.0
 40
120.0000000000291
 50
326.5766201216888
 51
344.2861389519595
  0
ARC
  5
67F
  8
DATA
  6
CONTINUOUS
 62
     7
 10
1099.999999999964
 20
-669.9999999999195
 30
0.0
 40
120.0000000000273
 50
15.71386104796845
 51
110.1631391720163
  0
ARC
  5
680
  8
DATA
  6
CONTINUOUS
 62
     7
 10
1099.999999999964
 20
-669.9999999999195
 30
0.0
 40
120.0000000000331
 50
146.5830495774347
 51
164.2861389520322
  0
LINE
  5
681
  8
DATA
  6
CONTINUOUS
 62
     7
 10
1240.0
 20
-647.4999999999923
 30
0.0
 11
1240.0
 21
-692.4999999999923
 31
0.0
  0
LINE
  5
682
  8
DATA
  6
CONTINUOUS
 62
     7
 10
1215.515150521492
 20
-637.4999999999923
 30
0.0
 11
1230.0
 21
-637.4999999999923
 31
0.0
  0
LINE
  5
683
  8
DATA
  6
CONTINUOUS
 62
     7
 10
1215.515150521451
 20
-702.4999999999923
 30
0.0
 11
1230.0
 21
-702.4999999999923
 31
0.0
  0
ARC
  5
684
  8
DATA
  6
CONTINUOUS
 62
     7
 10
1004.974408342764
 20
-549.9882833452593
 30
0.0
 40
37.49999999999986
 50
38.36987964685191
 51
218.3698796468519
  0
LINE
  5
685
  8
DATA
  6
CONTINUOUS
 62
     7
 10
975.5638044587613
 20
-573.2534156074771
 30
0.0
 11
999.8378033438803
 21
-603.9126762453898
 31
0.0
  0
LINE
  5
686
  8
DATA
  6
CONTINUOUS
 62
     7
 10
1141.350681753029
 20
-782.6504377201686
 30
0.0
 11
1165.589396106425
 21
-813.2651322501433
 31
0.0
  0
LINE
  5
687
  8
DATA
  6
CONTINUOUS
 62
     7
 10
1034.36529063235
 20
-526.6982417343083
 30
0.0
 11
1058.636677419045
 21
-557.3542031627803
 31
0.0
  0
LINE
  5
688
  8
DATA
  6
CONTINUOUS
 62
     7
 10
1200.154780025032
 20
-736.0985630564428
 30
0.0
 11
1224.390882280013
 21
-766.7099583769723
 31
0.0
  0
ARC
  5
689
  8
DATA
  6
CONTINUOUS
 62
     7
 10
1195.025591657086
 20
-789.999999987921
 30
0.0
 40
37.49999999999124
 50
218.3213626079427
 51
40.24440190518698
  0
TEXT
  5
68A
  8
DATA
 62
     7
 10
881.8942064279081
 20
-714.0429687499923
 30
0.0
 40
23.0859375
  1
SIGNAL
 41
0.7
 72
     1
 11
924.9879564279081
 21
-702.4999999999923
 31
0.0
 73
     2
  0
LINE
  5
68B
  8
DATA
  6
CONTINUOUS
 62
     7
 10
847.4341649025382
 20
-702.4999999999923
 30
0.0
 11
877.4341649025382
 21
-702.4999999999923
 31
0.0
  0
TEXT
  5
68C
  8
DATA
 62
     7
 10
603.06640625
 20
-824.2531686642055
 30
0.0
 40
23.0859375
  1
GAIN
 41
0.7
 72
     1
 11
630.0
 21
-812.7101999142055
 31
0.0
 73
     2
  0
TEXT
  5
68D
  8
DATA
 62
     7
 10
1089.2265625
 20
-824.2531686642055
 30
0.0
 40
23.0859375
  1
IN
 41
0.7
 72
     1
 11
1100.0
 21
-812.7101999142055
 31
0.0
 73
     2
  0
TEXT
  5
68E
  8
DATA
 62
     7
 10
781.146484375
 20
-760.2257336684115
 30
0.0
 40
23.0859375
  1
MIC
 41
0.7
 72
     1
 11
800.0
 21
-748.6827649184115
 31
0.0
 73
     2
  0
CIRCLE
  5
68F
  8
DATA
  6
CONTINUOUS
 62
     7
 10
925.0
 20
-439.9999999999991
 30
0.0
 40
10.00000000000082
  0
TEXT
  5
690
  8
DATA
 62
     7
 10
892.6796875
 20
-482.5442705974674
 30
0.0
 40
23.0859375
  1
LIMIT
 41
0.7
 72
     1
 11
925.0
 21
-471.0013018474674
 31
0.0
 73
     2
  0
CIRCLE
  5
691
  8
DATA
  6
CONTINUOUS
 62
     7
 10
925.0
 20
-669.9999999999923
 30
0.0
 40
9.999999999998852
  0
ARC
  5
692
  8
DATA
  6
CONTINUOUS
 62
     7
 10
1100.0
 20
-1019.999999999999
 30
0.0
 40
78.99999852386007
 50
140.692698054177
 51
129.3073054535574
  0
CIRCLE
  5
693
  8
DATA
  6
CONTINUOUS
 62
     7
 10
1099.999999999932
 20
-1019.999999999926
 30
0.0
 40
97.49999999025184
  0
CIRCLE
  5
694
  8
DATA
  6
CONTINUOUS
 62
     7
 10
1099.999999999932
 20
-1019.999999999926
 30
0.0
 40
107.5
  0
LINE
  5
695
  8
DATA
  6
CONTINUOUS
 62
     7
 10
1123.999999997527
 20
-944.7338057367178
 30
0.0
 11
1123.999999997527
 21
-944.7338072778975
 31
0.0
  0
LINE
  5
696
  8
DATA
  6
CONTINUOUS
 62
     7
 10
1071.500000002775
 20
-946.3199500072951
 30
0.0
 11
1071.500000002775
 21
-946.3199515816532
 31
0.0
  0
ARC
  5
697
  8
DATA
  6
CONTINUOUS
 62
     7
 10
1055.000000004425
 20
-1019.999999999926
 30
0.0
 40
19.99999999800095
 50
32.08918387405087
 51
327.9108161259492
  0
ARC
  5
698
  8
DATA
  6
CONTINUOUS
 62
     7
 10
1144.99999999543
 20
-1019.999999999926
 30
0.0
 40
19.99999999800095
 50
212.0891838740509
 51
147.9108161259491
  0
ARC
  5
699
  8
DATA
  6
CONTINUOUS
 62
     7
 10
1099.999999999932
 20
-1059.499999995982
 30
0.0
 40
19.9999999980077
 50
137.8522840898889
 51
42.14771591012954
  0
ARC
  5
69A
  8
DATA
  6
CONTINUOUS
 62
     7
 10
1045.552776672034
 20
-965.5527800053724
 30
0.0
 40
7.99999999920039
 50
56.61290968104122
 51
213.3870938266909
  0
ARC
  5
69B
  8
DATA
  6
CONTINUOUS
 62
     7
 10
1099.999999999932
 20
-1019.999999999926
 30
0.0
 40
29.99999999999744
 50
20.74191648508129
 51
159.2580835149246
  0
ARC
  5
69C
  8
DATA
  6
CONTINUOUS
 62
     7
 10
1099.999999999932
 20
-1019.999999999926
 30
0.0
 40
30.00000000000594
 50
200.7419164850751
 51
240.3778367991912
  0
ARC
  5
69D
  8
DATA
  6
CONTINUOUS
 62
     7
 10
1099.999999999932
 20
-1019.999999999926
 30
0.0
 40
29.99999999999644
 50
299.6221632007934
 51
339.258083514919
  0
CIRCLE
  5
69E
  8
DATA
  6
CONTINUOUS
 62
     7
 10
1194.999999990428
 20
-1139.999999987926
 30
0.0
 40
25.0
  0
LINE
  5
69F
  8
DATA
  6
STYLE_12
 62
     7
 10
1179.974408323765
 20
-1139.999999987926
 30
0.0
 11
1209.974408323765
 21
-1139.999999987926
 31
0.0
  0
LINE
  5
6A0
  8
DATA
  6
STYLE_12
 62
     7
 10
1194.999999990428
 20
-1124.988283321262
 30
0.0
 11
1194.999999990428
 21
-1154.988283321262
 31
0.0
  0
CIRCLE
  5
6A1
  8
DATA
  6
CONTINUOUS
 62
     7
 10
1004.974408342764
 20
-899.9882833452593
 30
0.0
 40
25.0
  0
LINE
  5
6A2
  8
DATA
  6
STYLE_12
 62
     7
 10
989.9488166761012
 20
-899.9882833452593
 30
0.0
 11
1019.948816676101
 21
-899.9882833452593
 31
0.0
  0
LINE
  5
6A3
  8
DATA
  6
STYLE_12
 62
     7
 10
1004.974408342764
 20
-884.9765666785961
 30
0.0
 11
1004.974408342764
 21
-914.9765666785961
 31
0.0
  0
LINE
  5
6A4
  8
DATA
  6
CONTINUOUS
 62
     7
 10
1076.000000002327
 20
-925.5000000093778
 30
0.0
 11
1076.000000002327
 21
-902.9626128233476
 31
0.0
  0
LINE
  5
6A5
  8
DATA
  6
CONTINUOUS
 62
     7
 10
1123.999999997527
 20
-925.5000000093778
 30
0.0
 11
1123.999999997527
 21
-902.9626128233476
 31
0.0
  0
CIRCLE
  5
6A6
  8
DATA
  6
CONTINUOUS
 62
     7
 10
630.0
 20
-1019.999999999999
 30
0.0
 40
63.49999999999909
  0
LINE
  5
6A7
  8
DATA
  6
CONTINUOUS
 62
     7
 10
607.1742257589085
 20
-1079.255666651337
 30
0.0
 11
616.4349589716312
 21
-1063.215606211553
 31
0.0
  0
ARC
  5
6A8
  8
DATA
  6
CONTINUOUS
 62
     7
 10
622.0625000000018
 20
-1033.748153285072
 30
0.0
 40
30.00000000000366
 50
259.1881364537152
 51
220.8118635462844
  0
LINE
  5
6A9
  8
DATA
  6
CONTINUOUS
 62
     7
 10
590.0959744823058
 20
-1069.395533679505
 30
0.0
 11
599.356707695033
 21
-1053.355473239721
 31
0.0
  0
ARC
  5
6AA
  8
DATA
  6
CONTINUOUS
 62
     7
 10
629.9999999999909
 20
-1019.999999999999
 30
0.0
 40
107.4999999999913
 50
197.5973366080775
 51
342.4026633919219
  0
ARC
  5
6AB
  8
DATA
  6
CONTINUOUS
 62
     7
 10
629.9999999999909
 20
-1019.999999999999
 30
0.0
 40
107.4999999999867
 50
17.59733660808588
 51
162.4026633919148
  0
LINE
  5
6AC
  8
DATA
  6
CONTINUOUS
 62
     7
 10
500.0
 20
-882.4999999999991
 30
0.0
 11
500.0
 21
-987.4999999999923
 31
0.0
  0
LINE
  5
6AD
  8
DATA
  6
CONTINUOUS
 62
     7
 10
500.0
 20
-1052.499999999992
 30
0.0
 11
500.0
 21
-1157.499999999999
 31
0.0
  0
LINE
  5
6AE
  8
DATA
  6
CONTINUOUS
 62
     7
 10
1225.0
 20
-857.4999999999991
 30
0.0
 11
525.0
 21
-857.4999999999991
 31
0.0
  0
LINE
  5
6AF
  8
DATA
  6
CONTINUOUS
 62
     7
 10
1225.0
 20
-1182.499999999999
 30
0.0
 11
525.0
 21
-1182.499999999999
 31
0.0
  0
ARC
  5
6B0
  8
DATA
  6
CONTINUOUS
 62
     7
 10
525.0
 20
-882.4999999999991
 30
0.0
 40
25.0
 50
90.0
 51
180.0
  0
ARC
  5
6B1
  8
DATA
  6
CONTINUOUS
 62
     7
 10
525.0
 20
-1157.499999999999
 30
0.0
 40
25.0
 50
180.0
 51
270.0
  0
ARC
  5
6B2
  8
DATA
  6
CONTINUOUS
 62
     7
 10
630.0
 20
-1020.000000000004
 30
0.0
 40
69.9999999999959
 50
300.0000000000019
 51
239.9999999999981
  0
LINE
  5
6B3
  8
DATA
  6
CONTINUOUS
 62
     7
 10
665.0
 20
-1080.62177826491
 30
0.0
 11
675.0
 21
-1097.942286340598
 31
0.0
  0
ARC
  5
6B4
  8
DATA
  6
CONTINUOUS
 62
     7
 10
629.2888445006611
 20
-1014.489541719373
 30
0.0
 40
74.49293636114292
 50
89.45301085410236
 51
242.5937525059351
  0
ARC
  5
6B5
  8
DATA
  6
CONTINUOUS
 62
     7
 10
629.7100478849143
 20
-1025.464324122285
 30
0.0
 40
85.46481597655259
 50
302.000395037276
 51
89.80561516297482
  0
LINE
  5
6B6
  8
DATA
  6
CONTINUOUS
 62
     7
 10
480.0
 20
-987.4999999999923
 30
0.0
 11
480.0
 21
-1052.499999999992
 31
0.0
  0
LINE
  5
6B7
  8
DATA
  6
CONTINUOUS
 62
     7
 10
480.0
 20
-987.4999999999923
 30
0.0
 11
527.5304923404065
 21
-987.4999999999923
 31
0.0
  0
LINE
  5
6B8
  8
DATA
  6
CONTINUOUS
 62
     7
 10
480.0
 20
-1052.499999999992
 30
0.0
 11
527.5304923404019
 21
-1052.499999999992
 31
0.0
  0
TEXT
  5
6B9
  8
DATA
 62
     7
 10
488.3354698961648
 20
-1035.390624999992
 30
0.0
 40
30.78125000000001
  1
CH2
 41
0.7
 11
488.3354698961648
 21
-1019.999999999992
 31
0.0
 73
     2
  0
CIRCLE
  5
6BA
  8
DATA
  6
CONTINUOUS
 62
     7
 10
800.0
 20
-1019.999999999999
 30
0.0
 40
39.99999999999942
  0
LINE
  5
6BB
  8
DATA
  6
CONTINUOUS
 62
     7
 10
480.0
 20
-987.4999999999923
 30
0.0
 11
527.5304923404065
 21
-987.4999999999923
 31
0.0
  0
LINE
  5
6BC
  8
DATA
  6
CONTINUOUS
 62
     7
 10
480.0
 20
-1052.499999999992
 30
0.0
 11
527.5304923404019
 21
-1052.499999999992
 31
0.0
  0
LINE
  5
6BD
  8
DATA
  6
CONTINUOUS
 62
     7
 10
731.5272488953315
 20
-987.4999999999923
 30
0.0
 11
752.56583509748
 21
-987.4999999999923
 31
0.0
  0
LINE
  5
6BE
  8
DATA
  6
CONTINUOUS
 62
     7
 10
731.5272488953315
 20
-1052.499999999992
 30
0.0
 11
752.5658350974709
 21
-1052.499999999992
 31
0.0
  0
ARC
  5
6BF
  8
DATA
  6
CONTINUOUS
 62
     7
 10
800.0000000000045
 20
-1019.999999999999
 30
0.0
 40
57.50000000000272
 50
214.4173887104315
 51
325.5826112895685
  0
ARC
  5
6C0
  8
DATA
  6
CONTINUOUS
 62
     7
 10
800.0000000000045
 20
-1019.999999999999
 30
0.0
 40
57.49999999999918
 50
34.41738871045037
 51
145.5826112895525
  0
LINE
  5
6C1
  8
DATA
  6
CONTINUOUS
 62
     7
 10
846.4919061382852
 20
-987.4999999999923
 30
0.0
 11
984.4848494784355
 21
-987.4999999999923
 31
0.0
  0
ARC
  5
6C2
  8
DATA
  6
CONTINUOUS
 62
     7
 10
1099.999999999964
 20
-1019.99999999992
 30
0.0
 40
120.0000000000317
 50
195.71386104804
 51
290.1567097162713
  0
ARC
  5
6C3
  8
DATA
  6
CONTINUOUS
 62
     7
 10
1099.999999999964
 20
-1019.99999999992
 30
0.0
 40
120.0000000000291
 50
326.5766201216888
 51
344.2861389519595
  0
ARC
  5
6C4
  8
DATA
  6
CONTINUOUS
 62
     7
 10
1099.999999999964
 20
-1019.99999999992
 30
0.0
 40
120.0000000000273
 50
15.71386104796845
 51
110.1631391720163
  0
ARC
  5
6C5
  8
DATA
  6
CONTINUOUS
 62
     7
 10
1099.999999999964
 20
-1019.99999999992
 30
0.0
 40
120.0000000000331
 50
146.5830495774347
 51
164.2861389520322
  0
LINE
  5
6C6
  8
DATA
  6
CONTINUOUS
 62
     7
 10
1240.0
 20
-987.4999999999923
 30
0.0
 11
1240.0
 21
-1052.499999999992
 31
0.0
  0
LINE
  5
6C7
  8
DATA
  6
CONTINUOUS
 62
     7
 10
1215.515150521492
 20
-987.4999999999923
 30
0.0
 11
1240.0
 21
-987.4999999999923
 31
0.0
  0
LINE
  5
6C8
  8
DATA
  6
CONTINUOUS
 62
     7
 10
1215.515150521451
 20
-1052.499999999992
 30
0.0
 11
1240.0
 21
-1052.499999999992
 31
0.0
  0
ARC
  5
6C9
  8
DATA
  6
CONTINUOUS
 62
     7
 10
1004.974408342764
 20
-899.9882833452593
 30
0.0
 40
37.49999999999986
 50
38.36987964685191
 51
218.3698796468519
  0
LINE
  5
6CA
  8
DATA
  6
CONTINUOUS
 62
     7
 10
975.5638044587613
 20
-923.2534156074771
 30
0.0
 11
999.8378033438803
 21
-953.9126762453898
 31
0.0
  0
LINE
  5
6CB
  8
DATA
  6
CONTINUOUS
 62
     7
 10
1141.350681753029
 20
-1132.650437720169
 30
0.0
 11
1165.589396106425
 21
-1163.265132250143
 31
0.0
  0
LINE
  5
6CC
  8
DATA
  6
CONTINUOUS
 62
     7
 10
1034.36529063235
 20
-876.6982417343083
 30
0.0
 11
1058.636677419045
 21
-907.3542031627803
 31
0.0
  0
LINE
  5
6CD
  8
DATA
  6
CONTINUOUS
 62
     7
 10
1200.154780025032
 20
-1086.098563056443
 30
0.0
 11
1224.390882280013
 21
-1116.709958376972
 31
0.0
  0
ARC
  5
6CE
  8
DATA
  6
CONTINUOUS
 62
     7
 10
1195.025591657086
 20
-1139.999999987921
 30
0.0
 40
37.49999999999124
 50
218.3213626079427
 51
40.24440190518698
  0
TEXT
  5
6CF
  8
DATA
 62
     7
 10
603.06640625
 20
-1174.253168664206
 30
0.0
 40
23.0859375
  1
GAIN
 41
0.7
 72
     1
 11
630.0
 21
-1162.710199914206
 31
0.0
 73
     2
  0
TEXT
  5
6D0
  8
DATA
 62
     7
 10
1089.2265625
 20
-1174.253168664206
 30
0.0
 40
23.0859375
  1
IN
 41
0.7
 72
     1
 11
1100.0
 21
-1162.710199914206
 31
0.0
 73
     2
  0
TEXT
  5
6D1
  8
DATA
 62
     7
 10
781.146484375
 20
-1110.225733668412
 30
0.0
 40
23.0859375
  1
MIC
 41
0.7
 72
     1
 11
800.0
 21
-1098.682764918412
 31
0.0
 73
     2
  0
CIRCLE
  5
6D2
  8
DATA
  6
CONTINUOUS
 62
     7
 10
925.0
 20
-1019.999999999992
 30
0.0
 40
9.999999999998852
  0
CIRCLE
  5
6D3
  8
DATA
  6
CONTINUOUS
 62
     7
 10
1345.000000004425
 20
-669.9999999999263
 30
0.0
 40
16.49999999835927
  0
CIRCLE
  5
6D4
  8
DATA
  6
CONTINUOUS
 62
     7
 10
1434.999999995439
 20
-669.9999999999263
 30
0.0
 40
16.49999999834108
  0
CIRCLE
  5
6D5
  8
DATA
  6
CONTINUOUS
 62
     7
 10
1484.974408323765
 20
-789.9999999879255
 30
0.0
 40
25.0
  0
LINE
  5
6D6
  8
DATA
  6
STYLE_12
 62
     7
 10
1469.948816657093
 20
-789.9999999879255
 30
0.0
 11
1499.948816657093
 21
-789.9999999879255
 31
0.0
  0
LINE
  5
6D7
  8
DATA
  6
STYLE_12
 62
     7
 10
1484.974408323765
 20
-774.9882833212623
 30
0.0
 11
1484.974408323765
 21
-804.9882833212623
 31
0.0
  0
CIRCLE
  5
6D8
  8
DATA
  6
CONTINUOUS
 62
     7
 10
1295.025591676099
 20
-550.0000000119271
 30
0.0
 40
25.0
  0
LINE
  5
6D9
  8
DATA
  6
STYLE_12
 62
     7
 10
1280.000000009427
 20
-550.0000000119271
 30
0.0
 11
1310.000000009427
 21
-550.0000000119271
 31
0.0
  0
LINE
  5
6DA
  8
DATA
  6
STYLE_12
 62
     7
 10
1295.025591676099
 20
-534.9882833452593
 30
0.0
 11
1295.025591676099
 21
-564.9882833452593
 31
0.0
  0
CIRCLE
  5
6DB
  8
DATA
  6
CONTINUOUS
 62
     7
 10
1389.999999999932
 20
-669.9999999999263
 30
0.0
 40
97.50000015681577
  0
CIRCLE
  5
6DC
  8
DATA
  6
CONTINUOUS
 62
     7
 10
1389.999999999932
 20
-709.4999999959773
 30
0.0
 40
16.49999999834108
  0
ARC
  5
6DD
  8
DATA
  6
CONTINUOUS
 62
     7
 10
1389.999999999964
 20
-669.9999999999195
 30
0.0
 40
120.0000000000279
 50
326.5766201216898
 51
74.28613895199553
  0
ARC
  5
6DE
  8
DATA
  6
CONTINUOUS
 62
     7
 10
1389.999999999964
 20
-669.9999999999195
 30
0.0
 40
120.0000000000295
 50
105.7138610480043
 51
110.1631391720164
  0
ARC
  5
6DF
  8
DATA
  6
CONTINUOUS
 62
     7
 10
1389.999999999964
 20
-669.9999999999195
 30
0.0
 40
120.0000000000331
 50
146.5830495774347
 51
290.1567097162716
  0
ARC
  5
6E0
  8
DATA
  6
CONTINUOUS
 62
     7
 10
1294.974408342764
 20
-549.9882833452593
 30
0.0
 40
37.49999999999986
 50
38.36987964685191
 51
218.3698796468519
  0
LINE
  5
6E1
  8
DATA
  6
CONTINUOUS
 62
     7
 10
1265.563804458761
 20
-573.2534156074771
 30
0.0
 11
1289.83780334388
 21
-603.9126762453898
 31
0.0
  0
LINE
  5
6E2
  8
DATA
  6
CONTINUOUS
 62
     7
 10
1431.350681753029
 20
-782.6504377201686
 30
0.0
 11
1455.589396106425
 21
-813.2651322501433
 31
0.0
  0
LINE
  5
6E3
  8
DATA
  6
CONTINUOUS
 62
     7
 10
1324.36529063235
 20
-526.6982417343083
 30
0.0
 11
1348.636677419045
 21
-557.3542031627803
 31
0.0
  0
LINE
  5
6E4
  8
DATA
  6
CONTINUOUS
 62
     7
 10
1490.154780025032
 20
-736.0985630564428
 30
0.0
 11
1514.390882280013
 21
-766.7099583769723
 31
0.0
  0
ARC
  5
6E5
  8
DATA
  6
CONTINUOUS
 62
     7
 10
1485.025591657086
 20
-789.999999987921
 30
0.0
 40
37.49999999999124
 50
218.3213626079427
 51
40.24440190518698
  0
TEXT
  5
6E6
  8
DATA
 62
     7
 10
1342.058203125
 20
-824.2531686642055
 30
0.0
 40
23.0859375
  1
MIX OUT
 41
0.7
 72
     1
 11
1390.0
 21
-812.7101999142055
 31
0.0
 73
     2
  0
CIRCLE
  5
6E7
  8
DATA
  6
CONTINUOUS
 62
     7
 10
1389.999999999964
 20
-439.9999999999991
 30
0.0
 40
40.0
  0
LINE
  5
6E8
  8
DATA
  6
CONTINUOUS
 62
     7
 10
1367.499999999964
 20
-319.9999999999991
 30
0.0
 11
1412.499999999964
 21
-319.9999999999991
 31
0.0
  0
LINE
  5
6E9
  8
DATA
  6
CONTINUOUS
 62
     7
 10
1357.499999999964
 20
-554.4848494784096
 30
0.0
 11
1357.499999999964
 21
-487.4341649025282
 31
0.0
  0
LINE
  5
6EA
  8
DATA
  6
CONTINUOUS
 62
     7
 10
1357.499999999964
 20
-392.5658350974745
 30
0.0
 11
1357.499999999964
 21
-329.9999999999991
 31
0.0
  0
LINE
  5
6EB
  8
DATA
  6
CONTINUOUS
 62
     7
 10
1422.499999999964
 20
-554.4848494784096
 30
0.0
 11
1422.499999999964
 21
-487.4341649025282
 31
0.0
  0
LINE
  5
6EC
  8
DATA
  6
CONTINUOUS
 62
     7
 10
1422.499999999964
 20
-392.5658350974745
 30
0.0
 11
1422.499999999964
 21
-329.9999999999991
 31
0.0
  0
ARC
  5
6ED
  8
DATA
  6
CONTINUOUS
 62
     7
 10
1389.999999999964
 20
-439.9999999999991
 30
0.0
 40
57.50000000000283
 50
304.4173887104396
 51
55.58261128955814
  0
ARC
  5
6EE
  8
DATA
  6
CONTINUOUS
 62
     7
 10
1389.999999999964
 20
-439.9999999999991
 30
0.0
 40
57.49999999999908
 50
124.4173887104422
 51
235.5826112895601
  0
TEXT
  5
6EF
  8
DATA
 62
     7
 10
1453.402238338399
 20
-451.5429687499991
 30
0.0
 40
23.0859375
  1
50/50 MIX
 41
0.7
 11
1453.402238338399
 21
-439.9999999999991
 31
0.0
 73
     2
  0
ARC
  5
6F0
  8
DATA
  6
CONTINUOUS
 62
     7
 10
490.0
 20
-647.4999999999923
 30
0.0
 40
10.0
 50
90.0
 51
180.0
  0
ARC
  5
6F1
  8
DATA
  6
CONTINUOUS
 62
     7
 10
490.0
 20
-692.4999999999923
 30
0.0
 40
10.0
 50
180.0
 51
270.0
  0
ARC
  5
6F2
  8
DATA
  6
CONTINUOUS
 62
     7
 10
1230.0
 20
-647.4999999999923
 30
0.0
 40
10.0
 50
0.0
 51
90.0
  0
ARC
  5
6F3
  8
DATA
  6
CONTINUOUS
 62
     7
 10
1230.0
 20
-692.4999999999923
 30
0.0
 40
10.0
 50
270.0
 51
0.0
  0
ARC
  5
6F4
  8
DATA
  6
CONTINUOUS
 62
     7
 10
1367.499999999964
 20
-329.9999999999991
 30
0.0
 40
10.0
 50
90.0
 51
180.0
  0
ARC
  5
6F5
  8
DATA
  6
CONTINUOUS
 62
     7
 10
1412.499999999964
 20
-329.9999999999991
 30
0.0
 40
10.0
 50
0.0
 51
90.0
  0
CIRCLE
  5
6F6
  8
DATA
  6
CONTINUOUS
 62
     7
 10
1389.999999999964
 20
-349.9999999999991
 30
0.0
 40
10.00000000000082
  0
CIRCLE
  5
6F7
  8
DATA
  6
CONTINUOUS
 62
     7
 10
1160.0
 20
-1339.999999999999
 30
0.0
 40
41.50000000000091
  0
CIRCLE
  5
6F8
  8
DATA
  6
CONTINUOUS
 62
     7
 10
1160.0
 20
-1339.999999999999
 30
0.0
 40
17.5
  0
CIRCLE
  5
6F9
  8
DATA
  6
CONTINUOUS
 62
     7
 10
1160.0
 20
-1339.999999999999
 30
0.0
 40
29.49999999999818
  0
CIRCLE
  5
6FA
  8
DATA
  6
CONTINUOUS
 62
     7
 10
1020.0
 20
-1339.999999999999
 30
0.0
 40
41.50000000000091
  0
CIRCLE
  5
6FB
  8
DATA
  6
CONTINUOUS
 62
     7
 10
1020.0
 20
-1339.999999999999
 30
0.0
 40
17.5
  0
CIRCLE
  5
6FC
  8
DATA
  6
CONTINUOUS
 62
     7
 10
1020.0
 20
-1339.999999999999
 30
0.0
 40
29.49999999999818
  0
CIRCLE
  5
6FD
  8
DATA
  6
CONTINUOUS
 62
     7
 10
920.0
 20
-1339.999999999999
 30
0.0
 40
10.00000000000082
  0
TEXT
  5
6FE
  8
DATA
 62
     7
 10
876.90625
 20
-1385.199138808092
 30
0.0
 40
23.0859375
  1
SIGNAL
 41
0.7
 72
     1
 11
920.0
 21
-1373.656170058092
 31
0.0
 73
     2
  0
TEXT
  5
6FF
  8
DATA
 62
     7
 10
1216.081342671023
 20
-1351.542968749999
 30
0.0
 40
23.0859375
  1
-IN
 41
0.7
 11
1216.081342671023
 21
-1339.999999999999
 31
0.0
 73
     2
  0
LINE
  5
700
  8
DATA
  6
CONTINUOUS
 62
     7
 10
974.4848494784719
 20
-1052.499999999992
 30
0.0
 11
984.4848494784719
 21
-1052.499999999992
 31
0.0
  0
TEXT
  5
701
  8
DATA
 62
     7
 10
881.8942064279081
 20
-1064.042968749992
 30
0.0
 40
23.0859375
  1
SIGNAL
 41
0.7
 72
     1
 11
924.9879564279081
 21
-1052.499999999992
 31
0.0
 73
     2
  0
LINE
  5
702
  8
DATA
  6
CONTINUOUS
 62
     7
 10
847.4341649025382
 20
-1052.499999999992
 30
0.0
 11
877.4341649025382
 21
-1052.499999999992
 31
0.0
  0
CIRCLE
  5
703
  8
DATA
  6
CONTINUOUS
 62
     7
 10
1089.974408333342
 20
-1270.000000000004
 30
0.0
 40
25.0
  0
LINE
  5
704
  8
DATA
  6
STYLE_12
 62
     7
 10
1074.948816666679
 20
-1270.000000000004
 30
0.0
 11
1104.948816666679
 21
-1270.000000000004
 31
0.0
  0
LINE
  5
705
  8
DATA
  6
STYLE_12
 62
     7
 10
1089.974408333342
 20
-1254.98828333334
 30
0.0
 11
1089.974408333342
 21
-1284.98828333334
 31
0.0
  0
CIRCLE
  5
706
  8
DATA
  6
CONTINUOUS
 62
     7
 10
1345.0
 20
-1239.999999999999
 30
0.0
 40
10.00000000000082
  0
CIRCLE
  5
707
  8
DATA
  6
CONTINUOUS
 62
     7
 10
1345.0
 20
-1309.999999999999
 30
0.0
 40
10.00000000000082
  0
TEXT
  5
708
  8
DATA
 62
     7
 10
1365.164532544977
 20
-1251.542968749999
 30
0.0
 40
23.0859375
  1
REMOTE EQ
 41
0.7
 11
1365.164532544977
 21
-1239.999999999999
 31
0.0
 73
     2
  0
TEXT
  5
709
  8
DATA
 62
     7
 10
1365.164532544977
 20
-1321.542968749999
 30
0.0
 40
23.0859375
  1
POWER
 41
0.7
 11
1365.164532544977
 21
-1309.999999999999
 31
0.0
 73
     2
  0
LINE
  5
70A
  8
DATA
  6
CONTINUOUS
 62
     7
 10
1250.0
 20
-882.4999999999991
 30
0.0
 11
1250.0
 21
-1157.499999999999
 31
0.0
  0
ARC
  5
70B
  8
DATA
  6
CONTINUOUS
 62
     7
 10
1225.0
 20
-1157.499999999999
 30
0.0
 40
25.0
 50
270.0
 51
0.0
  0
ARC
  5
70C
  8
DATA
  6
CONTINUOUS
 62
     7
 10
1225.0
 20
-882.4999999999991
 30
0.0
 40
25.0
 50
0.0
 51
90.0
  0
ARC
  5
70D
  8
DATA
  6
CONTINUOUS
 62
     7
 10
700.0
 20
-2437.499999999999
 30
0.0
 40
2462.5
 50
81.82876644005027
 51
97.58400635375861
  0
ARC
  5
70E
  8
DATA
  6
CONTINUOUS
 62
     7
 10
1400.0
 20
2437.500000000001
 30
0.0
 40
2462.5
 50
261.8287664400502
 51
277.5840063537586
  0
ARC
  5
70F
  8
DATA
  6
CONTINUOUS
 62
     7
 10
700.0
 20
-3862.499999999999
 30
0.0
 40
2462.5
 50
81.82876644005027
 51
97.58400635375861
  0
ARC
  5
710
  8
DATA
  6
CONTINUOUS
 62
     7
 10
1400.0
 20
1012.500000000001
 30
0.0
 40
2462.5
 50
261.8287664400502
 51
277.5840063537586
  0
LINE
  5
711
  8
DATA
  6
CONTINUOUS
 62
     7
 10
750.0
 20
-1549.999999999999
 30
0.0
 11
1350.0
 21
-1549.999999999999
 31
0.0
  0
CIRCLE
  5
712
  8
DATA
  6
CONTINUOUS
 62
     7
 10
-1480.5
 20
-1702.48
 30
0.0
 40
19.0
  0
CIRCLE
  5
713
  8
DATA
  6
CONTINUOUS
 62
     7
 10
-1382.25
 20
-2121.48
 30
0.0
 40
19.0
  0
CIRCLE
  5
714
  8
DATA
  6
CONTINUOUS
 62
     7
 10
-1382.25
 20
-2121.48
 30
0.0
 40
5.5
  0
CIRCLE
  5
715
  8
DATA
  6
CONTINUOUS
 62
     7
 10
-1382.25
 20
-2121.48
 30
0.0
 40
4.000000000000032
  0
LINE
  5
716
  8
DATA
  6
CONTINUOUS
 62
     7
 10
-1384.75
 20
-2121.48
 30
0.0
 11
-1379.75
 21
-2121.48
 31
0.0
  0
LINE
  5
717
  8
DATA
  6
CONTINUOUS
 62
     7
 10
-1382.25
 20
-2123.98
 30
0.0
 11
-1382.25
 21
-2118.98
 31
0.0
  0
CIRCLE
  5
718
  8
DATA
  6
CONTINUOUS
 62
     7
 10
-1217.75
 20
-2121.48
 30
0.0
 40
19.0
  0
CIRCLE
  5
719
  8
DATA
  6
CONTINUOUS
 62
     7
 10
-1217.75
 20
-2121.48
 30
0.0
 40
5.5
  0
CIRCLE
  5
71A
  8
DATA
  6
CONTINUOUS
 62
     7
 10
-1217.75
 20
-2121.48
 30
0.0
 40
4.000000000000032
  0
LINE
  5
71B
  8
DATA
  6
CONTINUOUS
 62
     7
 10
-1220.25
 20
-2121.48
 30
0.0
 11
-1215.25
 21
-2121.48
 31
0.0
  0
LINE
  5
71C
  8
DATA
  6
CONTINUOUS
 62
     7
 10
-1217.75
 20
-2123.98
 30
0.0
 11
-1217.75
 21
-2118.98
 31
0.0
  0
CIRCLE
  5
71D
  8
DATA
  6
CONTINUOUS
 62
     7
 10
-1480.5
 20
-1702.48
 30
0.0
 40
5.5
  0
CIRCLE
  5
71E
  8
DATA
  6
CONTINUOUS
 62
     7
 10
-1480.5
 20
-1702.48
 30
0.0
 40
3.999999999999711
  0
LINE
  5
71F
  8
DATA
  6
CONTINUOUS
 62
     7
 10
-1480.5
 20
-1704.98
 30
0.0
 11
-1480.5
 21
-1699.98
 31
0.0
  0
CIRCLE
  5
720
  8
DATA
  6
CONTINUOUS
 62
     7
 10
-1119.5
 20
-1702.48
 30
0.0
 40
19.0
  0
CIRCLE
  5
721
  8
DATA
  6
CONTINUOUS
 62
     7
 10
-1119.5
 20
-1702.48
 30
0.0
 40
5.5
  0
CIRCLE
  5
722
  8
DATA
  6
CONTINUOUS
 62
     7
 10
-1119.5
 20
-1702.48
 30
0.0
 40
4.000000000000032
  0
LINE
  5
723
  8
DATA
  6
CONTINUOUS
 62
     7
 10
-1122.0
 20
-1702.48
 30
0.0
 11
-1117.0
 21
-1702.48
 31
0.0
  0
LINE
  5
724
  8
DATA
  6
CONTINUOUS
 62
     7
 10
-1119.5
 20
-1704.98
 30
0.0
 11
-1119.5
 21
-1699.98
 31
0.0
  0
LINE
  5
725
  8
DATA
  6
CONTINUOUS
 62
     7
 10
-1483.0
 20
-1702.48
 30
0.0
 11
-1478.0
 21
-1702.48
 31
0.0
  0
LINE
  5
726
  8
DATA
  6
CONTINUOUS
 62
     7
 10
-1317.32833462952
 20
-1871.319508115758
 30
0.0
 11
-1317.34937203982
 21
-1871.312672648098
 31
0.0
  0
LINE
  5
727
  8
DATA
  6
CONTINUOUS
 62
     7
 10
-1284.71117753224
 20
-1881.917464892878
 30
0.0
 11
-1284.69014012194
 21
-1881.924300360538
 31
0.0
  0
LINE
  5
728
  8
DATA
  6
CONTINUOUS
 62
     7
 10
-1283.14171872552
 20
-1878.116417851858
 30
0.0
 11
-1283.16239923534
 21
-1878.109698347898
 31
0.0
  0
LINE
  5
729
  8
DATA
  6
CONTINUOUS
 62
     7
 10
-1315.30985987552
 20
-1865.035699639458
 30
0.0
 11
-1315.28882246776
 21
-1865.042535109659
 31
0.0
  0
LINE
  5
72A
  8
DATA
  6
CONTINUOUS
 62
     7
 10
-1312.749011931441
 20
-1861.546785807038
 30
0.0
 11
-1312.76201376726
 21
-1861.528890318318
 31
0.0
  0
LINE
  5
72B
  8
DATA
  6
CONTINUOUS
 62
     7
 10
-1292.59050022924
 20
-1889.292596858359
 30
0.0
 11
-1292.57749839596
 21
-1889.310492347078
 31
0.0
  0
LINE
  5
72C
  8
DATA
  6
CONTINUOUS
 62
     7
 10
-1287.23798623274
 20
-1885.431109684218
 30
0.0
 11
-1287.25098806602
 21
-1885.413214192958
 31
0.0
  0
LINE
  5
72D
  8
DATA
  6
CONTINUOUS
 62
     7
 10
-1307.42250160404
 20
-1857.649507652918
 30
0.0
 11
-1307.40949976822
 21
-1857.667403141638
 31
0.0
  0
LINE
  5
72E
  8
DATA
  6
CONTINUOUS
 62
     7
 10
-1315.30985987552
 20
-1881.924300360538
 30
0.0
 11
-1315.28882246776
 21
-1881.917464892878
 31
0.0
  0
LINE
  5
72F
  8
DATA
  6
CONTINUOUS
 62
     7
 10
-1296.69999999854
 20
-1890.649974316319
 30
0.0
 11
-1296.69999999854
 21
-1890.627854276739
 31
0.0
  0
LINE
  5
730
  8
DATA
  6
CONTINUOUS
 62
     7
 10
-1296.69999999854
 20
-1856.310025683678
 30
0.0
 11
-1296.69999999854
 21
-1856.332145725798
 31
0.0
  0
LINE
  5
731
  8
DATA
  6
CONTINUOUS
 62
     7
 10
-1303.299999998921
 20
-1890.627854276739
 30
0.0
 11
-1303.299999998921
 21
-1890.649974316319
 31
0.0
  0
LINE
  5
732
  8
DATA
  6
CONTINUOUS
 62
     7
 10
-1287.23798623274
 20
-1861.528890318318
 30
0.0
 11
-1287.25098806602
 21
-1861.546785807038
 31
0.0
  0
LINE
  5
733
  8
DATA
  6
CONTINUOUS
 62
     7
 10
-1307.42250160404
 20
-1889.310492347078
 30
0.0
 11
-1307.40949976822
 21
-1889.292596858359
 31
0.0
  0
LINE
  5
734
  8
DATA
  6
CONTINUOUS
 62
     7
 10
-1312.749011931441
 20
-1885.413214192958
 30
0.0
 11
-1312.76201376726
 21
-1885.431109684218
 31
0.0
  0
LINE
  5
735
  8
DATA
  6
CONTINUOUS
 62
     7
 10
-1292.59050022924
 20
-1857.667403141638
 30
0.0
 11
-1292.57749839596
 21
-1857.649507652918
 31
0.0
  0
LINE
  5
736
  8
DATA
  6
CONTINUOUS
 62
     7
 10
-1283.14171872552
 20
-1868.843582150678
 30
0.0
 11
-1283.16239923534
 21
-1868.850301654638
 31
0.0
  0
LINE
  5
737
  8
DATA
  6
CONTINUOUS
 62
     7
 10
-1317.32833462952
 20
-1875.640491884238
 30
0.0
 11
-1317.34937203982
 21
-1875.647327354439
 31
0.0
  0
LINE
  5
738
  8
DATA
  6
CONTINUOUS
 62
     7
 10
-1284.71117753224
 20
-1865.042535109659
 30
0.0
 11
-1284.69014012194
 21
-1865.035699639458
 31
0.0
  0
LINE
  5
739
  8
DATA
  6
CONTINUOUS
 62
     7
 10
-1317.980642964219
 20
-1883.389151042718
 30
0.0
 11
-1317.71521771656
 21
-1882.728588243958
 31
0.0
  0
LINE
  5
73A
  8
DATA
  6
CONTINUOUS
 62
     7
 10
-1317.980642964219
 20
-1883.389151042718
 30
0.0
 11
-1315.54339905284
 21
-1882.574100605259
 31
0.0
  0
LINE
  5
73B
  8
DATA
  6
CONTINUOUS
 62
     7
 10
-1317.92025220108
 20
-1875.258898796778
 30
0.0
 11
-1320.371098571921
 21
-1876.032085170138
 31
0.0
  0
LINE
  5
73C
  8
DATA
  6
CONTINUOUS
 62
     7
 10
-1308.72219288324
 20
-1892.065428353578
 30
0.0
 11
-1307.2294957645
 21
-1889.973462672138
 31
0.0
  0
LINE
  5
73D
  8
DATA
  6
CONTINUOUS
 62
     7
 10
-1313.452178096861
 20
-1885.452419319018
 30
0.0
 11
-1314.98048691476
 21
-1887.518511587638
 31
0.0
  0
LINE
  5
73E
  8
DATA
  6
CONTINUOUS
 62
     7
 10
-1296.13216157618
 20
-1893.642703730898
 30
0.0
 11
-1296.15417081842
 21
-1891.072882591659
 31
0.0
  0
LINE
  5
73F
  8
DATA
  6
CONTINUOUS
 62
     7
 10
-1303.84582918158
 20
-1891.072882591659
 30
0.0
 11
-1303.86783842382
 21
-1893.642703730898
 31
0.0
  0
LINE
  5
740
  8
DATA
  6
CONTINUOUS
 62
     7
 10
-1285.019513085241
 20
-1887.518511587638
 30
0.0
 11
-1286.5478219006
 21
-1885.452419319018
 31
0.0
  0
LINE
  5
741
  8
DATA
  6
CONTINUOUS
 62
     7
 10
-1292.77050423296
 20
-1889.973462672138
 30
0.0
 11
-1291.27780711676
 21
-1892.065428353578
 31
0.0
  0
LINE
  5
742
  8
DATA
  6
CONTINUOUS
 62
     7
 10
-1280.09518684044
 20
-1878.509235415218
 30
0.0
 11
-1282.5050721248
 21
-1877.749358105918
 31
0.0
  0
LINE
  5
743
  8
DATA
  6
CONTINUOUS
 62
     7
 10
-1284.45660094716
 20
-1882.574100605259
 30
0.0
 11
-1282.019357035781
 21
-1883.389151042718
 31
0.0
  0
LINE
  5
744
  8
DATA
  6
CONTINUOUS
 62
     7
 10
-1317.980642964219
 20
-1863.570848959819
 30
0.0
 11
-1315.54339905284
 21
-1864.385899397278
 31
0.0
  0
LINE
  5
745
  8
DATA
  6
CONTINUOUS
 62
     7
 10
-1317.92025220108
 20
-1871.701101205758
 30
0.0
 11
-1320.371098571921
 21
-1870.927914832398
 31
0.0
  0
LINE
  5
746
  8
DATA
  6
CONTINUOUS
 62
     7
 10
-1308.72219288324
 20
-1854.894571646419
 30
0.0
 11
-1307.2294957645
 21
-1856.986537330398
 31
0.0
  0
LINE
  5
747
  8
DATA
  6
CONTINUOUS
 62
     7
 10
-1313.452178096861
 20
-1861.507580680978
 30
0.0
 11
-1314.98048691476
 21
-1859.441488414898
 31
0.0
  0
LINE
  5
748
  8
DATA
  6
CONTINUOUS
 62
     7
 10
-1296.13216157618
 20
-1853.317296271638
 30
0.0
 11
-1296.15417081842
 21
-1855.887117410878
 31
0.0
  0
LINE
  5
749
  8
DATA
  6
CONTINUOUS
 62
     7
 10
-1303.84582918158
 20
-1855.887117410878
 30
0.0
 11
-1303.86783842382
 21
-1853.317296271638
 31
0.0
  0
LINE
  5
74A
  8
DATA
  6
CONTINUOUS
 62
     7
 10
-1285.019513085241
 20
-1859.441488414898
 30
0.0
 11
-1286.5478219006
 21
-1861.507580680978
 31
0.0
  0
LINE
  5
74B
  8
DATA
  6
CONTINUOUS
 62
     7
 10
-1292.77050423296
 20
-1856.986537330398
 30
0.0
 11
-1291.27780711676
 21
-1854.894571646419
 31
0.0
  0
LINE
  5
74C
  8
DATA
  6
CONTINUOUS
 62
     7
 10
-1284.45660094716
 20
-1864.385899397278
 30
0.0
 11
-1282.019357035781
 21
-1863.570848959819
 31
0.0
  0
LINE
  5
74D
  8
DATA
  6
CONTINUOUS
 62
     7
 10
-1280.09518684044
 20
-1868.450764587319
 30
0.0
 11
-1282.5050721248
 21
-1869.210641896619
 31
0.0
  0
CIRCLE
  5
74E
  8
DATA
  6
CONTINUOUS
 62
     7
 10
-1300.0
 20
-1873.479999999999
 30
0.0
 40
21.46250000100008
  0
ARC
  5
74F
  8
DATA
  6
CONTINUOUS
 62
     7
 10
-1300.0
 20
-1873.479999999999
 30
0.0
 40
20.5303384236203
 50
187.1407950272976
 51
208.8592049726981
  0
ARC
  5
750
  8
DATA
  6
CONTINUOUS
 62
     7
 10
-1300.0
 20
-1873.479999999999
 30
0.0
 40
20.53033842361997
 50
223.1407950272998
 51
244.8592049726989
  0
ARC
  5
751
  8
DATA
  6
CONTINUOUS
 62
     7
 10
-1300.0
 20
-1873.479999999999
 30
0.0
 40
20.53033842362009
 50
259.1407950272979
 51
280.8592049726997
  0
ARC
  5
752
  8
DATA
  6
CONTINUOUS
 62
     7
 10
-1300.0
 20
-1873.479999999999
 30
0.0
 40
20.5303384236193
 50
295.1407950272987
 51
316.8592049727002
  0
ARC
  5
753
  8
DATA
  6
CONTINUOUS
 62
     7
 10
-1300.0
 20
-1873.479999999999
 30
0.0
 40
20.53033842361934
 50
331.1407950273007
 51
345.8201740241989
  0
ARC
  5
754
  8
DATA
  6
CONTINUOUS
 62
     7
 10
-1300.0
 20
-1873.479999999999
 30
0.0
 40
20.53033842361949
 50
14.17982597580115
 51
28.85920497270029
  0
ARC
  5
755
  8
DATA
  6
CONTINUOUS
 62
     7
 10
-1300.0
 20
-1873.479999999999
 30
0.0
 40
20.53033842361997
 50
43.14079502729984
 51
64.85920497270003
  0
ARC
  5
756
  8
DATA
  6
CONTINUOUS
 62
     7
 10
-1300.0
 20
-1873.479999999999
 30
0.0
 40
20.53033842362082
 50
79.14079502730084
 51
100.8592049727017
  0
ARC
  5
757
  8
DATA
  6
CONTINUOUS
 62
     7
 10
-1300.0
 20
-1873.479999999999
 30
0.0
 40
20.53033842362051
 50
115.1407950273
 51
136.8592049727002
  0
ARC
  5
758
  8
DATA
  6
CONTINUOUS
 62
     7
 10
-1300.0
 20
-1873.479999999999
 30
0.0
 40
20.53033842362058
 50
151.1407950272998
 51
172.8592049726999
  0
ARC
  5
759
  8
DATA
  6
CONTINUOUS
 62
     7
 10
-1300.0
 20
-1873.479999999999
 30
0.0
 40
18.00832918266016
 50
210.3309629826985
 51
221.6690370172986
  0
ARC
  5
75A
  8
DATA
  6
CONTINUOUS
 62
     7
 10
-1300.0
 20
-1873.479999999999
 30
0.0
 40
18.0083291826598
 50
246.3309629826983
 51
257.6690370172994
  0
ARC
  5
75B
  8
DATA
  6
CONTINUOUS
 62
     7
 10
-1300.0
 20
-1873.479999999999
 30
0.0
 40
18.00832918265966
 50
282.3309629827006
 51
293.669037017299
  0
ARC
  5
75C
  8
DATA
  6
CONTINUOUS
 62
     7
 10
-1300.0
 20
-1873.479999999999
 30
0.0
 40
18.0083291826597
 50
318.3309629827014
 51
329.6690370173
  0
ARC
  5
75D
  8
DATA
  6
CONTINUOUS
 62
     7
 10
-1300.0
 20
-1873.479999999999
 30
0.0
 40
18.0083291826597
 50
346.2859218532998
 51
13.71407814669948
  0
ARC
  5
75E
  8
DATA
  6
CONTINUOUS
 62
     7
 10
-1300.0
 20
-1873.479999999999
 30
0.0
 40
18.00832918266016
 50
30.33096298269849
 51
41.6690370173008
  0
ARC
  5
75F
  8
DATA
  6
CONTINUOUS
 62
     7
 10
-1300.0
 20
-1873.479999999999
 30
0.0
 40
18.00832918266063
 50
66.33096298269955
 51
77.66903701730001
  0
ARC
  5
760
  8
DATA
  6
CONTINUOUS
 62
     7
 10
-1300.0
 20
-1873.479999999999
 30
0.0
 40
18.00832918266055
 50
102.3309629827
 51
113.6690370173005
  0
ARC
  5
761
  8
DATA
  6
CONTINUOUS
 62
     7
 10
-1300.0
 20
-1873.479999999999
 30
0.0
 40
18.0083291826603
 50
138.3309629826992
 51
149.6690370173015
  0
ARC
  5
762
  8
DATA
  6
CONTINUOUS
 62
     7
 10
-1300.0
 20
-1873.479999999999
 30
0.0
 40
18.00832918266001
 50
174.3309629826977
 51
185.6690370172994
  0
ARC
  5
763
  8
DATA
  6
CONTINUOUS
 62
     7
 10
-1300.0
 20
-1873.479999999999
 30
0.0
 40
17.48422197331939
 50
331.1206455781988
 51
344.6225148855988
  0
ARC
  5
764
  8
DATA
  6
CONTINUOUS
 62
     7
 10
-1300.0
 20
-1873.479999999999
 30
0.0
 40
17.48422197331901
 50
295.1206455782
 51
316.8793544217991
  0
ARC
  5
765
  8
DATA
  6
CONTINUOUS
 62
     7
 10
-1300.0
 20
-1873.479999999999
 30
0.0
 40
17.4842219733203
 50
259.1206455781983
 51
280.8793544217987
  0
ARC
  5
766
  8
DATA
  6
CONTINUOUS
 62
     7
 10
-1300.0
 20
-1873.479999999999
 30
0.0
 40
17.48422197332002
 50
223.1206455782009
 51
244.8793544218
  0
ARC
  5
767
  8
DATA
  6
CONTINUOUS
 62
     7
 10
-1300.0
 20
-1873.479999999999
 30
0.0
 40
17.4842219733198
 50
187.1206455781972
 51
208.8793544217997
  0
ARC
  5
768
  8
DATA
  6
CONTINUOUS
 62
     7
 10
-1300.0
 20
-1873.479999999999
 30
0.0
 40
17.48422197332058
 50
15.37748511440037
 51
28.87935442179974
  0
ARC
  5
769
  8
DATA
  6
CONTINUOUS
 62
     7
 10
-1300.0
 20
-1873.479999999999
 30
0.0
 40
17.48422197332002
 50
43.12064557820093
 51
64.87935442179987
  0
ARC
  5
76A
  8
DATA
  6
CONTINUOUS
 62
     7
 10
-1300.0
 20
-1873.479999999999
 30
0.0
 40
17.48422197332013
 50
79.12064557820128
 51
100.8793544218017
  0
ARC
  5
76B
  8
DATA
  6
CONTINUOUS
 62
     7
 10
-1300.0
 20
-1873.479999999999
 30
0.0
 40
17.48422197332066
 50
115.1206455781974
 51
136.879354421799
  0
ARC
  5
76C
  8
DATA
  6
CONTINUOUS
 62
     7
 10
-1300.0
 20
-1873.479999999999
 30
0.0
 40
17.48422197332019
 50
151.1206455782003
 51
172.8793544217969
  0
ARC
  5
76D
  8
DATA
  6
CONTINUOUS
 62
     7
 10
-1300.0
 20
-1873.479999999999
 30
0.0
 40
17.46249999999937
 50
344.6257793717015
 51
15.37422062830058
  0
ARC
  5
76E
  8
DATA
  6
CONTINUOUS
 62
     7
 10
-1300.0
 20
-1873.479999999999
 30
0.0
 40
17.46249999999928
 50
316.8930528193998
 51
331.1069471806002
  0
ARC
  5
76F
  8
DATA
  6
CONTINUOUS
 62
     7
 10
-1300.0
 20
-1873.479999999999
 30
0.0
 40
17.46249999999979
 50
280.8930528194002
 51
295.1069471805991
  0
ARC
  5
770
  8
DATA
  6
CONTINUOUS
 62
     7
 10
-1300.0
 20
-1873.479999999999
 30
0.0
 40
17.46249999999991
 50
244.8930528193982
 51
259.1069471805998
  0
ARC
  5
771
  8
DATA
  6
CONTINUOUS
 62
     7
 10
-1300.0
 20
-1873.479999999999
 30
0.0
 40
17.46249999999966
 50
208.8930528193972
 51
223.1069471806003
  0
ARC
  5
772
  8
DATA
  6
CONTINUOUS
 62
     7
 10
-1300.0
 20
-1873.479999999999
 30
0.0
 40
17.4624999999999
 50
136.8930528193976
 51
151.1069471805976
  0
ARC
  5
773
  8
DATA
  6
CONTINUOUS
 62
     7
 10
-1300.0
 20
-1873.479999999999
 30
0.0
 40
17.46250000000069
 50
100.8930528193997
 51
115.1069471806006
  0
ARC
  5
774
  8
DATA
  6
CONTINUOUS
 62
     7
 10
-1300.0
 20
-1873.479999999999
 30
0.0
 40
17.46250000000073
 50
64.89305281939946
 51
79.10694718060034
  0
ARC
  5
775
  8
DATA
  6
CONTINUOUS
 62
     7
 10
-1300.0
 20
-1873.479999999999
 30
0.0
 40
17.46250000000054
 50
28.89305281940242
 51
43.10694718060043
  0
ARC
  5
776
  8
DATA
  6
CONTINUOUS
 62
     7
 10
-1300.0
 20
-1873.479999999999
 30
0.0
 40
17.4625
 50
172.8930528193987
 51
187.1069471805984
  0
CIRCLE
  5
777
  8
DATA
  6
CONTINUOUS
 62
     7
 10
-1300.0
 20
-1873.479999999999
 30
0.0
 40
51.0
  0
LINE
  5
778
  8
DATA
  6
CONTINUOUS
 62
     7
 10
-1298.25
 20
-1917.511088913245
 30
0.0
 11
-1301.75
 21
-1911.448911086753
 31
0.0
  0
CIRCLE
  5
779
  8
DATA
  6
CONTINUOUS
 62
     7
 10
-1300.0
 20
-1914.479999999999
 30
0.0
 40
5.999999999999705
  0
LINE
  5
77A
  8
DATA
  6
CONTINUOUS
 62
     7
 10
-1303.031088913245
 20
-1916.229999999999
 30
0.0
 11
-1296.968911086755
 21
-1912.729999999999
 31
0.0
  0
LINE
  5
77B
  8
DATA
  6
CONTINUOUS
 62
     7
 10
-1262.742958444838
 20
-1849.948911086753
 30
0.0
 11
-1266.242958444838
 21
-1856.011088913245
 31
0.0
  0
CIRCLE
  5
77C
  8
DATA
  6
CONTINUOUS
 62
     7
 10
-1264.492958444838
 20
-1852.979999999999
 30
0.0
 40
6.000000000000493
  0
LINE
  5
77D
  8
DATA
  6
CONTINUOUS
 62
     7
 10
-1261.461869531591
 20
-1854.729999999999
 30
0.0
 11
-1267.524047358083
 21
-1851.229999999999
 31
0.0
  0
LINE
  5
77E
  8
DATA
  6
CONTINUOUS
 62
     7
 10
-1339.007041555162
 20
-1852.979999999999
 30
0.0
 11
-1332.007041555162
 21
-1852.979999999999
 31
0.0
  0
CIRCLE
  5
77F
  8
DATA
  6
CONTINUOUS
 62
     7
 10
-1335.507041555162
 20
-1852.979999999999
 30
0.0
 40
6.0
  0
LINE
  5
780
  8
DATA
  6
CONTINUOUS
 62
     7
 10
-1335.507041555162
 20
-1849.479999999999
 30
0.0
 11
-1335.507041555162
 21
-1856.479999999999
 31
0.0
  0
LINE
  5
781
  8
DATA
  6
STYLE_13
 62
     7
 10
-1300.0
 20
-1599.999999999999
 30
0.0
 11
-1300.0
 21
-2224.999999999999
 31
0.0
  0
TEXT
  5
782
  8
DATA
 62
     7
 10
1000.0
 20
-2310.277714999999
 30
0.0
 40
48.86523437500001
  1
PRX835W Powered
 41
0.7
 11
1000.0
 21
-2261.412480624999
 31
0.0
 73
     3
  0
TEXT
  5
783
  8
DATA
 62
     7
 10
850.0
 20
-2237.356815
 30
0.0
 40
38.00629340277779
  1
パワード3-Wayフルレンジ・スピーカー
 41
0.7
 11
850.0
 21
-2199.350521597222
 31
0.0
 73
     3
  0
ENDSEC
  0
EOF
