  0
SECTION
  2
HEADER
  9
$ACADVER
  1
AC1009
  9
$DWGCODEPAGE
  3
ansi_932
  9
$INSBASE
 10
0.0
 20
0.0
 30
0.0
  9
$EXTMIN
 10
-1349.99999996625
 20
-2014.639292008316
 30
0.0
  9
$EXTMAX
 10
1432.37695310625
 20
1999.445409949925
 30
0.0
  9
$LIMMIN
 10
0.0
 20
0.0
  9
$LIMMAX
 10
12.0
 20
9.0
  9
$ORTHOMODE
 70
     0
  9
$REGENMODE
 70
     1
  9
$FILLMODE
 70
     1
  9
$QTEXTMODE
 70
     0
  9
$MIRRTEXT
 70
     1
  9
$DRAGMODE
 70
     2
  9
$LTSCALE
 40
76.19999999999999
  9
$OSMODE
 70
    37
  9
$ATTMODE
 70
     1
  9
$TEXTSIZE
 40
0.2
  9
$TRACEWID
 40
1.0
  9
$TEXTSTYLE
  7
STANDARD
  9
$CLAYER
  8
HIBINO-BASE
  9
$CELTYPE
  6
BYLAYER
  9
$CECOLOR
 62
   256
  9
$DIMSCALE
 40
1.0
  9
$DIMASZ
 40
0.18
  9
$DIMEXO
 40
0.0625
  9
$DIMDLI
 40
0.38
  9
$DIMRND
 40
0.0
  9
$DIMDLE
 40
0.0
  9
$DIMEXE
 40
0.18
  9
$DIMTP
 40
0.0
  9
$DIMTM
 40
0.0
  9
$DIMTXT
 40
0.18
  9
$DIMCEN
 40
0.09
  9
$DIMTSZ
 40
0.0
  9
$DIMTOL
 70
     0
  9
$DIMLIM
 70
     0
  9
$DIMTIH
 70
     1
  9
$DIMTOH
 70
     1
  9
$DIMSE1
 70
     0
  9
$DIMSE2
 70
     0
  9
$DIMTAD
 70
     0
  9
$DIMZIN
 70
     0
  9
$DIMBLK
  1

  9
$DIMASO
 70
     1
  9
$DIMSHO
 70
     1
  9
$DIMPOST
  1

  9
$DIMAPOST
  1

  9
$DIMALT
 70
     0
  9
$DIMALTD
 70
     2
  9
$DIMALTF
 40
25.4
  9
$DIMLFAC
 40
1.0
  9
$DIMTOFL
 70
     0
  9
$DIMTVP
 40
0.0
  9
$DIMTIX
 70
     0
  9
$DIMSOXD
 70
     0
  9
$DIMSAH
 70
     0
  9
$DIMBLK1
  1

  9
$DIMBLK2
  1

  9
$DIMSTYLE
  2
STANDARD
  9
$DIMCLRD
 70
     0
  9
$DIMCLRE
 70
     0
  9
$DIMCLRT
 70
     0
  9
$DIMTFAC
 40
1.0
  9
$DIMGAP
 40
0.09
  9
$LUNITS
 70
     2
  9
$LUPREC
 70
     2
  9
$SKETCHINC
 40
0.1
  9
$FILLETRAD
 40
0.5
  9
$AUNITS
 70
     0
  9
$AUPREC
 70
     1
  9
$MENU
  1
.
  9
$ELEVATION
 40
0.0
  9
$PELEVATION
 40
0.0
  9
$THICKNESS
 40
0.0
  9
$LIMCHECK
 70
     0
  9
$CHAMFERA
 40
0.0
  9
$CHAMFERB
 40
0.0
  9
$SKPOLY
 70
     0
  9
$TDCREATE
 40
2459678.396106134
  9
$TDUPDATE
 40
2459678.396745012
  9
$TDINDWG
 40
2459678.021745475
  9
$TDUSRTIMER
 40
0.0006393403
  9
$USRTIMER
 70
     1
  9
$ANGBASE
 50
0.0
  9
$ANGDIR
 70
     0
  9
$PDMODE
 70
     1
  9
$PDSIZE
 40
-2.0
  9
$PLINEWID
 40
0.0
  9
$COORDS
 70
     1
  9
$SPLFRAME
 70
     0
  9
$SPLINETYPE
 70
     6
  9
$SPLINESEGS
 70
     8
  9
$ATTDIA
 70
     1
  9
$ATTREQ
 70
     1
  9
$HANDLING
 70
     1
  9
$HANDSEED
  5
5D0
  9
$SURFTAB1
 70
     6
  9
$SURFTAB2
 70
     6
  9
$SURFTYPE
 70
     6
  9
$SURFU
 70
     6
  9
$SURFV
 70
     6
  9
$UCSNAME
  2

  9
$UCSORG
 10
0.0
 20
0.0
 30
0.0
  9
$UCSXDIR
 10
1.0
 20
0.0
 30
0.0
  9
$UCSYDIR
 10
0.0
 20
1.0
 30
0.0
  9
$PUCSNAME
  2

  9
$PUCSORG
 10
0.0
 20
0.0
 30
0.0
  9
$PUCSXDIR
 10
1.0
 20
0.0
 30
0.0
  9
$PUCSYDIR
 10
0.0
 20
1.0
 30
0.0
  9
$USERI1
 70
     0
  9
$USERI2
 70
     0
  9
$USERI3
 70
     0
  9
$USERI4
 70
     0
  9
$USERI5
 70
     0
  9
$USERR1
 40
0.0
  9
$USERR2
 40
0.0
  9
$USERR3
 40
0.0
  9
$USERR4
 40
0.0
  9
$USERR5
 40
0.0
  9
$WORLDVIEW
 70
     1
  9
$SHADEDGE
 70
     3
  9
$SHADEDIF
 70
    70
  9
$TILEMODE
 70
     1
  9
$MAXACTVP
 70
    64
  9
$PLIMCHECK
 70
     0
  9
$PEXTMIN
 10
1.000000000000000E+20
 20
1.000000000000000E+20
 30
1.000000000000000E+20
  9
$PEXTMAX
 10
-1.000000000000000E+20
 20
-1.000000000000000E+20
 30
-1.000000000000000E+20
  9
$PLIMMIN
 10
-20.0
 20
-7.5
  9
$PLIMMAX
 10
277.0
 20
202.5
  9
$UNITMODE
 70
     0
  9
$VISRETAIN
 70
     1
  9
$PLINEGEN
 70
     0
  9
$PSLTSCALE
 70
     1
  0
ENDSEC
  0
SECTION
  2
TABLES
  0
TABLE
  2
VPORT
 70
     1
  0
VPORT
  2
*ACTIVE
 70
     0
 10
0.0
 20
0.0
 11
1.0
 21
1.0
 12
0.0
 22
-3.531814999999824
 13
0.0
 23
0.0
 14
0.5
 24
0.5
 15
0.5
 25
0.5
 16
0.0
 26
0.0
 36
1.0
 17
0.0
 27
0.0
 37
0.0
 40
4005.954449899851
 41
2.451612903225806
 42
2000.0
 43
0.0
 44
0.0
 50
0.0
 51
0.0
 71
     0
 72
   100
 73
     1
 74
     3
 75
     0
 76
     0
 77
     0
 78
     0
  0
ENDTAB
  0
TABLE
  2
LTYPE
 70
    11
  0
LTYPE
  2
CONTINUOUS
 70
     0
  3
Solid line
 72
    65
 73
     0
 40
0.0
  0
LTYPE
  2
______-2
 70
     0
  3

 72
    65
 73
     2
 40
0.4166412353515625
 49
0.208282470703125
 49
-0.2083587646484375
  0
LTYPE
  2
______-7
 70
     0
  3

 72
    65
 73
     4
 40
1.041641235351562
 49
0.625
 49
-0.208282470703125
 49
0.069427490234375
 49
-0.1389312744140625
  0
ENDTAB
  0
TABLE
  2
LAYER
 70
     7
  0
LAYER
  2
0
 70
     0
 62
     7
  6
CONTINUOUS
  0
LAYER
  2
HIBINO-BASE
 70
     0
 62
     7
  6
CONTINUOUS
  0
LAYER
  2
SIDE-15
 70
     0
 62
     7
  6
CONTINUOUS
  0
LAYER
  2
SIDE15
 70
     0
 62
     7
  6
CONTINUOUS
  0
LAYER
  2
TOP90
 70
     0
 62
     7
  6
CONTINUOUS
  0
LAYER
  2
DIMNSIONS
 70
     0
 62
     7
  6
CONTINUOUS
  0
LAYER
  2
DATA
 70
     0
 62
     7
  6
CONTINUOUS
  0
ENDTAB
  0
TABLE
  2
STYLE
 70
     2
  0
STYLE
  2
STANDARD
 70
     0
 40
0.0
 41
1.0
 50
0.0
 71
     0
 42
0.2
  3
txt
  4
BIGFONT.SHX
  0
ENDTAB
  0
TABLE
  2
VIEW
 70
     0
  0
ENDTAB
  0
TABLE
  2
UCS
 70
     0
  0
ENDTAB
  0
TABLE
  2
APPID
 70
     5
  0
APPID
  2
ACAD
 70
     0
  0
APPID
  2
ACAECLAYERSTANDARD
 70
     0
  0
APPID
  2
ACCMTRANSPARENCY
 70
     0
  0
APPID
  2
ACAD_MLEADERVER
 70
     0
  0
APPID
  2
ACADANNOPO
 70
     0
  0
ENDTAB
  0
TABLE
  2
DIMSTYLE
 70
     1
  0
DIMSTYLE
  2
STANDARD
 70
     0
  3

  4

  5

  6

  7

 40
1.0
 41
0.18
 42
0.0625
 43
0.38
 44
0.18
 45
0.0
 46
0.0
 47
0.0
 48
0.0
140
0.18
141
0.09
142
0.0
143
25.4
144
1.0
145
0.0
146
1.0
147
0.09
 71
     0
 72
     0
 73
     1
 74
     1
 75
     0
 76
     0
 77
     0
 78
     0
170
     0
171
     2
172
     0
173
     0
174
     0
175
     0
176
     0
177
     0
178
     0
  0
ENDTAB
  0
ENDSEC
  0
SECTION
  2
BLOCKS
  0
BLOCK
  8
HIBINO-BASE
  2
$MODEL_SPACE
 70
     0
 10
0.0
 20
0.0
 30
0.0
  3
$MODEL_SPACE
  1

  0
ENDBLK
  5
51E
  8
HIBINO-BASE
  0
BLOCK
 67
     1
  8
HIBINO-BASE
  2
$PAPER_SPACE
 70
     0
 10
0.0
 20
0.0
 30
0.0
  3
$PAPER_SPACE
  1

  0
ENDBLK
  5
51C
 67
     1
  8
HIBINO-BASE
  0
ENDSEC
  0
SECTION
  2
ENTITIES
  0
LINE
  5
81
  8
HIBINO-BASE
  6
CONTINUOUS
 62
     7
 10
-1349.99999996625
 20
1999.445409949925
 30
0.0
 11
1349.99999996625
 21
1999.445409949925
 31
0.0
  0
LINE
  5
82
  8
HIBINO-BASE
  6
CONTINUOUS
 62
     7
 10
1349.99999996625
 20
-1900.554589952574
 30
0.0
 11
-1349.99999996625
 21
-1900.554589952574
 31
0.0
  0
LINE
  5
83
  8
HIBINO-BASE
  6
CONTINUOUS
 62
     7
 10
-1349.99999996625
 20
-1900.554589952574
 30
0.0
 11
-1349.99999996625
 21
1999.445409949925
 31
0.0
  0
LINE
  5
84
  8
HIBINO-BASE
  6
CONTINUOUS
 62
     7
 10
1349.99999996625
 20
1999.445409949925
 30
0.0
 11
1349.99999996625
 21
-1900.554589952574
 31
0.0
  0
LINE
  5
85
  8
HIBINO-BASE
  6
CONTINUOUS
 62
     7
 10
0.000000000000307
 20
-1563.054589961012
 30
0.0
 11
1349.99999996625
 21
-1563.054589961012
 31
0.0
  0
LINE
  5
86
  8
HIBINO-BASE
  6
CONTINUOUS
 62
     7
 10
0.000000000000307
 20
-1900.554589952574
 30
0.0
 11
0.000000000000307
 21
-1563.054589961012
 31
0.0
  0
TEXT
  5
87
  8
HIBINO-BASE
 62
     7
 10
13.49999999966266
 20
-1600.684989960071
 30
0.0
 40
24.37060546814073
  1
NOTE
 41
0.7
 11
13.49999999966266
 21
-1576.31438449193
 31
0.0
 73
     3
  0
LINE
  5
88
  8
HIBINO-BASE
  6
CONTINUOUS
 62
     7
 10
524.9999999868753
 20
-1900.554589952574
 30
0.0
 11
524.9999999868753
 21
-1563.054589961012
 31
0.0
  0
TEXT
  5
89
  8
HIBINO-BASE
 62
     7
 10
538.4999999865372
 20
-1600.684989960071
 30
0.0
 40
24.37060546814073
  1
TITLE
 41
0.7
 11
538.4999999865372
 21
-1576.31438449193
 31
0.0
 73
     3
  0
LINE
  5
8A
  8
HIBINO-BASE
  6
CONTINUOUS
 62
     7
 10
0.000000000000307
 20
-1750.554589956324
 30
0.0
 11
1349.99999996625
 21
-1750.554589956324
 31
0.0
  0
TEXT
  5
8B
  8
HIBINO-BASE
 62
     7
 10
725.9999999818497
 20
-1787.340189955405
 30
0.0
 40
24.37060546814073
  1
DRAWN
 41
0.7
 11
725.9999999818497
 21
-1762.969584487264
 31
0.0
 73
     3
  0
TEXT
  5
8C
  8
HIBINO-BASE
 62
     7
 10
350.9999999912248
 20
-1787.340189955405
 30
0.0
 40
24.37060546814073
  1
DATE
 41
0.7
 11
350.9999999912248
 21
-1762.969584487264
 31
0.0
 73
     3
  0
TEXT
  5
8D
  8
HIBINO-BASE
 62
     7
 10
200.9999999949748
 20
-1787.340189955405
 30
0.0
 40
24.37060546814073
  1
SCALE
 41
0.7
 11
200.9999999949748
 21
-1762.969584487264
 31
0.0
 73
     3
  0
TEXT
  5
8E
  8
HIBINO-BASE
 62
     7
 10
538.4999999865372
 20
-1787.340189955405
 30
0.0
 40
24.37060546814073
  1
DESIGN
 41
0.7
 11
538.4999999865372
 21
-1762.969584487264
 31
0.0
 73
     3
  0
TEXT
  5
8F
  8
HIBINO-BASE
 62
     7
 10
1100.999999972475
 20
-1787.340189955405
 30
0.0
 40
24.37060546814073
  1
DRAWING NO.
 41
0.7
 11
1100.999999972475
 21
-1762.969584487264
 31
0.0
 73
     3
  0
TEXT
  5
90
  8
HIBINO-BASE
 62
     7
 10
913.4999999771626
 20
-1787.340189955405
 30
0.0
 40
24.37060546814073
  1
CHECK
 41
0.7
 11
913.4999999771626
 21
-1762.969584487264
 31
0.0
 73
     3
  0
LINE
  5
91
  8
HIBINO-BASE
  6
CONTINUOUS
 62
     7
 10
215.6249999946095
 20
-1881.804589953043
 30
0.0
 11
271.8749999932033
 21
-1825.554589954449
 31
0.0
  0
TEXT
  5
92
  8
HIBINO-BASE
 62
     7
 10
206.2499999948438
 20
-1842.188739954034
 30
0.0
 40
24.37060546814073
  1
1
 41
0.7
 11
206.2499999948438
 21
-1817.818134485893
 31
0.0
 73
     3
  0
LINE
  5
93
  8
HIBINO-BASE
  6
CONTINUOUS
 62
     7
 10
187.4999999953128
 20
-1900.554589952574
 30
0.0
 11
187.4999999953128
 21
-1750.554589956324
 31
0.0
  0
LINE
  5
94
  8
HIBINO-BASE
  6
CONTINUOUS
 62
     7
 10
337.4999999915622
 20
-1900.554589952574
 30
0.0
 11
337.4999999915622
 21
-1750.554589956324
 31
0.0
  0
LINE
  5
95
  8
HIBINO-BASE
  6
CONTINUOUS
 62
     7
 10
712.4999999821871
 20
-1750.554589956324
 30
0.0
 11
712.4999999821871
 21
-1900.554589952574
 31
0.0
  0
LINE
  5
96
  8
HIBINO-BASE
  6
CONTINUOUS
 62
     7
 10
1087.499999972813
 20
-1750.554589956324
 30
0.0
 11
1087.499999972813
 21
-1900.554589952574
 31
0.0
  0
LINE
  5
97
  8
HIBINO-BASE
  6
CONTINUOUS
 62
     7
 10
899.9999999774996
 20
-1900.554589952574
 30
0.0
 11
899.9999999774996
 21
-1750.554589956324
 31
0.0
  0
TEXT
  5
98
  8
HIBINO-BASE
 62
     7
 10
350.3480999912415
 20
-1857.599889953647
 30
0.0
 40
24.37060546814073
  1
'22.04.
 41
0.7
 11
350.3480999912415
 21
-1833.229284485507
 31
0.0
 73
     3
  0
TEXT
  5
99
  8
HIBINO-BASE
 62
     7
 10
262.4999999934376
 20
-1870.31373995333
 30
0.0
 40
24.37060546814073
  1
15
 41
0.7
 11
262.4999999934376
 21
-1845.943134485189
 31
0.0
 73
     3
  0
TEXT
  5
9A
  8
HIBINO-BASE
 62
     7
 10
735.087150147142
 20
-1857.599889953647
 30
0.0
 40
24.37060546814073
  1
N.Sasaki
 41
0.7
 11
735.087150147142
 21
-1833.229284485507
 31
0.0
 73
     3
  0
TEXT
  5
9B
  8
HIBINO-BASE
 62
     7
 10
58.2499999985442
 20
-1870.914589953315
 30
0.0
 40
48.74121093628145
  1
A4
 41
0.7
 11
58.2499999985442
 21
-1822.173379017033
 31
0.0
 73
     3
  0
TEXT
  5
9C
  8
HIBINO-BASE
 62
     7
 10
14.37499999964037
 20
-1789.846414955342
 30
0.0
 40
24.37060546814073
  1
PAPER SIZE
 41
0.7
 11
14.37499999964037
 21
-1765.475809487201
 31
0.0
 73
     3
  0
TEXT
  5
9D
  8
HIBINO-BASE
 62
     7
 10
-1242.239999968943
 20
-1996.684756950171
 30
0.0
 40
53.86360517443464
  1
Hibino Corporation
 41
0.7
 11
-1242.239999968943
 21
-1942.821151775736
 31
0.0
 73
     3
  0
TEXT
  5
9E
  8
HIBINO-BASE
 62
     7
 10
751.0258499812246
 20
-1996.684756950171
 30
0.0
 40
53.86360517443464
  1
ヒビノ株式会社
 41
0.7
 11
751.0258499812246
 21
-1942.821151775736
 31
0.0
 73
     3
  0
LINE
  5
9F
  8
SIDE-15
  6
______-2
 62
     7
 10
517.7632695620392
 20
813.3631428118292
 30
0.0
 11
399.2241469050848
 21
370.9691143714359
 31
0.0
  0
LINE
  5
A0
  8
SIDE-15
  6
______-2
 62
     7
 10
234.0
 20
-245.6557965155645
 30
0.0
 11
148.1696731556395
 21
-565.9789371289605
 31
0.0
  0
LINE
  5
A1
  8
SIDE-15
  6
______-2
 62
     7
 10
453.4591172011924
 20
832.2449005089688
 30
0.0
 11
320.0
 21
334.1686943808294
 31
0.0
  0
LINE
  5
A2
  8
SIDE-15
  6
______-2
 62
     7
 10
233.9999999999999
 20
13.21232492990578
 30
0.0
 11
83.45264279427198
 21
-548.6380611070915
 31
0.0
  0
LINE
  5
A3
  8
SIDE-15
  6
______-2
 62
     7
 10
505.2863444770987
 20
817.0267674396325
 30
0.0
 11
354.2228149302204
 21
253.2499999999999
 31
0.0
  0
LINE
  5
A4
  8
SIDE-15
  6
______-2
 62
     7
 10
233.9999999999999
 20
-195.4276535485328
 30
0.0
 11
135.6126374138817
 21
-562.6142895426276
 31
0.0
  0
LINE
  5
A5
  8
SIDE-15
  6
______-2
 62
     7
 10
467.6552449318682
 20
819.5426142829317
 30
0.0
 11
320.0
 21
268.4857381931724
 31
0.0
  0
LINE
  5
A6
  8
SIDE-15
  6
______-2
 62
     7
 10
436.745618490618
 20
827.8248237262123
 30
0.0
 11
316.0
 21
377.1960407278978
 31
0.0
  0
LINE
  5
A7
  8
SIDE-15
  6
______-2
 62
     7
 10
437.1431382439625
 20
837.035794253019
 30
0.0
 11
434.8137668380398
 21
828.3424618164174
 31
0.0
  0
LINE
  5
A8
  8
SIDE-15
  6
______-2
 62
     7
 10
517.7632695620392
 20
813.3631428118292
 30
0.0
 11
437.1431382439625
 21
837.035794253019
 31
0.0
  0
LINE
  5
A9
  8
SIDE-15
  6
______-2
 62
     7
 10
516.9707196210527
 20
823.9282677325787
 30
0.0
 11
442.5944309967945
 21
843.8573342054729
 31
0.0
  0
LINE
  5
AA
  8
SIDE-15
  6
______-2
 62
     7
 10
437.1431382439625
 20
837.035794253019
 30
0.0
 11
442.5944309967945
 21
843.8573342054729
 31
0.0
  0
LINE
  5
AB
  8
SIDE-15
  6
______-2
 62
     7
 10
516.9707196210527
 20
823.9282677325787
 30
0.0
 11
517.7632695620392
 21
813.3631428118292
 31
0.0
  0
LINE
  5
AC
  8
SIDE-15
  6
______-2
 62
     7
 10
504.4937945361122
 20
827.591892360382
 30
0.0
 11
505.2863444770987
 21
817.0267674396325
 31
0.0
  0
LINE
  5
AD
  8
SIDE-15
  6
______-2
 62
     7
 10
453.4591172011924
 20
832.2449005089688
 30
0.0
 11
458.9104099540242
 21
839.0664404614224
 31
0.0
  0
LINE
  5
AE
  8
SIDE-15
  6
______-2
 62
     7
 10
467.6552449318682
 20
819.5426142829317
 30
0.0
 11
434.8137668380398
 21
828.3424618164174
 31
0.0
  0
LINE
  5
AF
  8
SIDE-15
  6
______-2
 62
     7
 10
234.0
 20
-52.47063125775068
 30
0.0
 11
104.273305607929
 21
-536.6172458269202
 31
0.0
  0
LINE
  5
B0
  8
SIDE-15
  6
______-2
 62
     7
 10
234.0
 20
71.16787450724993
 30
0.0
 11
68.96375539993596
 21
-544.7557754305537
 31
0.0
  0
LINE
  5
B1
  8
SIDE-15
  6
______-2
 62
     7
 10
148.1696731556395
 20
-565.9789371289605
 30
0.0
 11
68.96375539993596
 21
-544.7557754305537
 31
0.0
  0
LINE
  5
B2
  8
SIDE-15
  6
______-2
 62
     7
 10
104.273305607929
 20
-536.6172458269202
 30
0.0
 11
73.36367916667882
 21
-528.3350363836396
 31
0.0
  0
POLYLINE
  5
B3
  8
SIDE-15
  6
______-2
 62
     7
 66
     1
 10
0.0
 20
0.0
 30
0.0
 70
   128
  0
VERTEX
  5
56C
  8
SIDE-15
  6
______-2
 62
     7
 10
359.3991958322708
 20
253.2500000000002
 30
0.0
  0
VERTEX
  5
56D
  8
SIDE-15
  6
______-2
 62
     7
 10
391.4967402947722
 20
373.0396667322561
 30
0.0
  0
VERTEX
  5
56E
  8
SIDE-15
  6
______-2
 62
     7
 10
403.087850210241
 20
369.9338381910259
 30
0.0
  0
VERTEX
  5
56F
  8
SIDE-15
  6
______-2
 62
     7
 10
370.6116471747782
 20
248.7309984257563
 30
0.0
  0
SEQEND
  5
5BA
  8
SIDE-15
  6
______-2
 62
     7
  0
LINE
  5
B9
  8
SIDE-15
  6
______-2
 62
     7
 10
366.3284463956905
 20
280.6557964831187
 30
0.0
 11
366.7148167262058
 21
280.5522688650778
 31
0.0
  0
LINE
  5
BA
  8
SIDE-15
  6
______-2
 62
     7
 10
359.7285607455763
 20
256.0246879127475
 30
0.0
 11
360.1149310760916
 21
255.9211602947065
 31
0.0
  0
LINE
  5
BB
  8
SIDE-15
  6
______-2
 62
     7
 10
366.3284463956901
 20
280.6557964831188
 30
0.0
 11
359.7285607455758
 21
256.0246879127476
 31
0.0
  0
LINE
  5
BC
  8
SIDE-15
  6
______-2
 62
     7
 10
380.5585147449232
 20
275.8075849802921
 30
0.0
 11
374.5021490895242
 21
253.2049206451278
 31
0.0
  0
LINE
  5
BD
  8
SIDE-15
  6
______-2
 62
     7
 10
371.9907419411732
 20
253.8778501623942
 30
0.0
 11
403.5484268286929
 21
245.4219939817874
 31
0.0
  0
LINE
  5
BE
  8
SIDE-15
  6
______-2
 62
     7
 10
419.5576382982562
 20
265.3578013186549
 30
0.0
 11
378.0471075965721
 21
276.4805144975585
 31
0.0
  0
LINE
  5
BF
  8
SIDE-15
  6
______-2
 62
     7
 10
424.1026867906833
 20
261.8789016753522
 30
0.0
 11
466.3205039371701
 21
189.1582441397227
 31
0.0
  0
ARC
  5
C0
  8
SIDE-15
  6
______-2
 62
     7
 10
275.6211041302394
 20
145.2694047624645
 30
0.0
 40
166.9759879032256
 50
15.52806461394298
 51
33.36574305567315
  0
ARC
  5
C1
  8
SIDE-15
  6
______-2
 62
     7
 10
398.3720459266409
 20
226.1034774560003
 30
0.0
 40
20.00000000000596
 50
33.36574305568447
 51
74.99999999999994
  0
LINE
  5
C2
  8
SIDE-15
  6
______-2
 62
     7
 10
414.0817001667363
 20
256.006438433513
 30
0.0
 11
396.9308907928109
 21
260.6019839547965
 31
0.0
  0
LINE
  5
C3
  8
SIDE-15
  6
______-2
 62
     7
 10
413.43465255398
 20
253.5916238677904
 30
0.0
 11
396.2838431800546
 21
258.1871693890738
 31
0.0
  0
ARC
  5
C4
  8
SIDE-15
  6
______-2
 62
     7
 10
396.6073669864328
 20
259.3945766719351
 30
0.0
 40
1.250000000000031
 50
75.00000000000051
 51
254.9999999999998
  0
ARC
  5
C5
  8
SIDE-15
  6
______-2
 62
     7
 10
417.6164954599864
 20
258.1133576214871
 30
0.0
 40
7.500000000000419
 50
30.13721316682615
 51
74.99999999999291
  0
LINE
  5
C6
  8
SIDE-15
  6
______-2
 62
     7
 10
452.0265039092606
 20
192.96609205144
 30
0.0
 11
416.5057260293636
 21
254.1510252904184
 31
0.0
  0
LINE
  5
C7
  8
SIDE-15
  6
______-2
 62
     7
 10
448.8859891453579
 20
193.3963033601877
 30
0.0
 11
414.343662252465
 21
252.8958439391303
 31
0.0
  0
ARC
  5
C8
  8
SIDE-15
  6
______-2
 62
     7
 10
413.0464239863261
 20
252.1427351283568
 30
0.0
 40
3.999999999999628
 50
30.13721316683569
 51
74.99999999999883
  0
ARC
  5
C9
  8
SIDE-15
  6
______-2
 62
     7
 10
413.0464239863261
 20
252.1427351283568
 30
0.0
 40
1.49999999999983
 50
30.13721316684232
 51
74.99999999999885
  0
LINE
  5
CA
  8
SIDE-15
  6
______-2
 62
     7
 10
50.17974134290887
 20
-626.4787579517231
 30
0.0
 11
123.5756152534843
 21
-646.1451230938385
 31
0.0
  0
LINE
  5
CB
  8
SIDE-15
  6
______-2
 62
     7
 10
67.72167294001417
 20
-546.4935127993049
 30
0.0
 11
49.59139883058265
 21
-614.1566169308539
 31
0.0
  0
LINE
  5
CC
  8
SIDE-15
  6
______-2
 62
     7
 10
148.3764794351513
 20
-568.1049030653655
 30
0.0
 11
130.2462053257198
 21
-635.7680071969146
 31
0.0
  0
LINE
  5
CD
  8
SIDE-15
  6
______-2
 62
     7
 10
83.45264279427198
 20
-548.6380611070915
 30
0.0
 11
64.80473059463543
 21
-618.2330168912188
 31
0.0
  0
LINE
  5
CE
  8
SIDE-15
  6
______-2
 62
     7
 10
135.6126374138817
 20
-562.6142895426276
 30
0.0
 11
116.9647252142452
 21
-632.2092453267549
 31
0.0
  0
LINE
  5
CF
  8
SIDE-15
  6
______-2
 62
     7
 10
146.9622658727782
 20
-565.6554133225823
 30
0.0
 11
128.3143536731417
 21
-635.2503691067095
 31
0.0
  0
LINE
  5
D0
  8
SIDE-15
  6
______-2
 62
     7
 10
67.72167294001417
 20
-546.4935127993049
 30
0.0
 11
148.3764794351513
 21
-568.1049030653655
 31
0.0
  0
LINE
  5
D1
  8
SIDE-15
  6
______-2
 62
     7
 10
148.3764794351513
 20
-568.1049030653655
 30
0.0
 11
147.2037473293505
 21
-565.7201180838579
 31
0.0
  0
LINE
  5
D2
  8
SIDE-15
  6
______-2
 62
     7
 10
69.92968122622506
 20
-545.0145944756564
 30
0.0
 11
67.72167294001417
 21
-546.4935127993049
 31
0.0
  0
LINE
  5
D3
  8
SIDE-15
  6
______-2
 62
     7
 10
130.2462053257198
 20
-635.7680071969146
 30
0.0
 11
49.59139883058265
 21
-614.1566169308539
 31
0.0
  0
LINE
  5
D4
  8
SIDE-15
  6
______-2
 62
     7
 10
49.46198930803132
 20
-614.6395798439985
 30
0.0
 11
130.1167958031685
 21
-636.2509701100589
 31
0.0
  0
ARC
  5
D5
  8
SIDE-15
  6
______-2
 62
     7
 10
111.3500852144492
 20
-616.8289502646142
 30
0.0
 40
61.92680968498733
 50
177.9739335486071
 51
188.9647052761696
  0
ARC
  5
D6
  8
SIDE-15
  6
______-2
 62
     7
 10
75.4254473460552
 20
-607.2029725593975
 30
0.0
 40
61.92680968498767
 50
321.0352947238302
 51
332.026066451393
  0
LINE
  5
D7
  8
SIDE-15
  6
______-2
 62
     7
 10
49.94495222117587
 20
-614.7689893665497
 30
0.0
 11
50.07436174372714
 21
-614.2860264534054
 31
0.0
  0
LINE
  5
D8
  8
SIDE-15
  6
______-2
 62
     7
 10
129.633832890024
 20
-636.1215605875077
 30
0.0
 11
129.7632424125753
 21
-635.6385976743632
 31
0.0
  0
ARC
  5
D9
  8
SIDE-15
  6
______-2
 62
     7
 10
126.5634169785025
 20
-620.905350224979
 30
0.0
 40
61.92680968498773
 50
177.973933548607
 51
188.9647052761697
  0
LINE
  5
DA
  8
SIDE-15
  6
______-2
 62
     7
 10
65.15828398522876
 20
-618.8453893269145
 30
0.0
 11
65.28769350777998
 21
-618.36242641377
 31
0.0
  0
ARC
  5
DB
  8
SIDE-15
  6
______-2
 62
     7
 10
73.49359569347706
 20
-606.6853344691924
 30
0.0
 40
61.92680968498717
 50
321.0352947238301
 51
332.026066451393
  0
LINE
  5
DC
  8
SIDE-15
  6
______-2
 62
     7
 10
127.7019812374459
 20
-635.6039224973026
 30
0.0
 11
127.8313907599971
 21
-635.1209595841583
 31
0.0
  0
LINE
  5
DD
  8
SIDE-15
  6
CONTINUOUS
 62
     7
 10
233.25
 20
-710.0499999999998
 30
0.0
 11
233.25
 21
-741.5936589237826
 31
0.0
  0
LINE
  5
DE
  8
SIDE-15
  6
CONTINUOUS
 62
     7
 10
44.93265601873728
 20
-631.5432818040572
 30
0.0
 11
22.8662803910365
 21
-713.8961167855362
 31
0.0
  0
ARC
  5
DF
  8
SIDE-15
  6
CONTINUOUS
 62
     7
 10
233.25
 20
71.2666138804409
 30
0.0
 40
797.8602728042235
 50
255.0
 51
270.0
  0
POLYLINE
  5
E0
  8
SIDE-15
  6
CONTINUOUS
 62
     7
 66
     1
 10
0.0
 20
0.0
 30
0.0
 70
   128
  0
VERTEX
  5
570
  8
SIDE-15
  6
CONTINUOUS
 62
     7
 10
203.5506267646891
 20
-717.513649305656
 30
0.0
  0
VERTEX
  5
571
  8
SIDE-15
  6
CONTINUOUS
 62
     7
 10
233.2499999999999
 20
-726.5936589237826
 30
0.0
  0
VERTEX
  5
572
  8
SIDE-15
  6
CONTINUOUS
 62
     7
 10
202.9895834926818
 20
-733.5798265455333
 30
0.0
  0
SEQEND
  5
5BB
  8
SIDE-15
  6
CONTINUOUS
 62
     7
  0
POLYLINE
  5
E5
  8
SIDE-15
  6
CONTINUOUS
 62
     7
 66
     1
 10
0.0
 20
0.0
 30
0.0
 70
   128
  0
VERTEX
  5
573
  8
SIDE-15
  6
CONTINUOUS
 62
     7
 10
53.91109658864503
 20
-714.4636659193918
 30
0.0
  0
VERTEX
  5
574
  8
SIDE-15
  6
CONTINUOUS
 62
     7
 10
26.74856606757425
 20
-699.4072293912002
 30
0.0
  0
VERTEX
  5
575
  8
SIDE-15
  6
CONTINUOUS
 62
     7
 10
57.80022579398753
 20
-698.8652206545468
 30
0.0
  0
SEQEND
  5
5BC
  8
SIDE-15
  6
CONTINUOUS
 62
     7
  0
TEXT
  5
EA
  8
SIDE-15
 62
     7
 10
41.20921652588475
 20
-779.3124619455116
 30
0.0
 40
40.61767578125
  1
15.0°
 50
352.5
 41
0.7
 11
46.51088708243992
 21
-739.0422760112438
 31
0.0
 73
     3
  0
CIRCLE
  5
EB
  8
SIDE-15
  6
______-2
 62
     7
 10
465.7641901867898
 20
150.3314700232428
 30
0.0
 40
6.000000000000044
  0
CIRCLE
  5
EC
  8
SIDE-15
  6
______-2
 62
     7
 10
469.6538358915826
 20
164.8585186393959
 30
0.0
 40
6.000000000000044
  0
LINE
  5
ED
  8
SIDE-15
  6
______-2
 62
     7
 10
468.906689664776
 20
167.6469063185219
 30
0.0
 11
471.695077343902
 21
166.8997600917152
 31
0.0
  0
LINE
  5
EE
  8
SIDE-15
  6
______-2
 62
     7
 10
466.8654482124566
 20
165.6056648662026
 30
0.0
 11
468.906689664776
 21
167.6469063185219
 31
0.0
  0
LINE
  5
EF
  8
SIDE-15
  6
______-2
 62
     7
 10
472.4422235707086
 20
164.1113724125892
 30
0.0
 11
471.695077343902
 21
166.8997600917152
 31
0.0
  0
LINE
  5
F0
  8
SIDE-15
  6
______-2
 62
     7
 10
467.6125944392634
 20
162.8172771870766
 30
0.0
 11
470.4009821183894
 21
162.0701309602699
 31
0.0
  0
LINE
  5
F1
  8
SIDE-15
  6
______-2
 62
     7
 10
466.8654482124566
 20
165.6056648662026
 30
0.0
 11
467.6125944392634
 21
162.8172771870766
 31
0.0
  0
LINE
  5
F2
  8
SIDE-15
  6
______-2
 62
     7
 10
472.4422235707086
 20
164.1113724125892
 30
0.0
 11
470.4009821183894
 21
162.0701309602699
 31
0.0
  0
LINE
  5
F3
  8
SIDE-15
  6
______-2
 62
     7
 10
465.0170439599831
 20
153.1198577023688
 30
0.0
 11
467.8054316391092
 21
152.3727114755621
 31
0.0
  0
LINE
  5
F4
  8
SIDE-15
  6
______-2
 62
     7
 10
462.9758025076638
 20
151.0786162500495
 30
0.0
 11
465.0170439599831
 21
153.1198577023688
 31
0.0
  0
LINE
  5
F5
  8
SIDE-15
  6
______-2
 62
     7
 10
468.552577865916
 20
149.5843237964361
 30
0.0
 11
467.8054316391092
 21
152.3727114755621
 31
0.0
  0
LINE
  5
F6
  8
SIDE-15
  6
______-2
 62
     7
 10
463.7229487344705
 20
148.2902285709235
 30
0.0
 11
466.5113364135966
 21
147.5430823441168
 31
0.0
  0
LINE
  5
F7
  8
SIDE-15
  6
______-2
 62
     7
 10
462.9758025076638
 20
151.0786162500495
 30
0.0
 11
463.7229487344705
 21
148.2902285709235
 31
0.0
  0
LINE
  5
F8
  8
SIDE-15
  6
______-2
 62
     7
 10
468.552577865916
 20
149.5843237964361
 30
0.0
 11
466.5113364135966
 21
147.5430823441168
 31
0.0
  0
LINE
  5
F9
  8
SIDE15
  6
______-2
 62
     7
 10
122.4369389478658
 20
750.9146363319277
 30
0.0
 11
234.0000000000001
 21
334.555624237454
 31
0.0
  0
LINE
  5
FA
  8
SIDE15
  6
______-2
 62
     7
 10
370.3855841560807
 20
-174.4423052529997
 30
0.0
 11
492.0305353542655
 21
-628.427443608862
 31
0.0
  0
LINE
  5
FB
  8
SIDE15
  6
______-2
 62
     7
 10
57.30703058597749
 20
735.1146419853295
 30
0.0
 11
234.0000000000001
 21
75.68750279198366
 31
0.0
  0
LINE
  5
FC
  8
SIDE15
  6
______-2
 62
     7
 10
316.0
 20
-230.3406634286642
 30
0.0
 11
427.3135049928978
 21
-645.7683196307308
 31
0.0
  0
LINE
  5
FD
  8
SIDE15
  6
______-2
 62
     7
 10
109.7997925492905
 20
747.8489657870654
 30
0.0
 11
234.0
 21
284.3274812704226
 31
0.0
  0
LINE
  5
FE
  8
SIDE15
  6
______-2
 62
     7
 10
324.4536134893422
 20
-53.25000000000011
 30
0.0
 11
479.4734996125076
 21
-631.7920911951948
 31
0.0
  0
LINE
  5
FF
  8
SIDE15
  6
______-2
 62
     7
 10
75.95238094913003
 20
731.2122032927782
 30
0.0
 11
234.0
 21
141.3704589796405
 31
0.0
  0
LINE
  5
100
  8
SIDE15
  6
______-2
 62
     7
 10
45.04275450787986
 20
722.9299938494976
 30
0.0
 11
224.2749432413755
 21
54.02635914431775
 31
0.0
  0
LINE
  5
101
  8
SIDE15
  6
______-2
 62
     7
 10
40.78153144937897
 20
731.1056881958941
 30
0.0
 11
43.11090285530167
 21
722.4123557592925
 31
0.0
  0
LINE
  5
102
  8
SIDE15
  6
______-2
 62
     7
 10
222.3430915887973
 20
53.5087210541127
 30
0.0
 11
225.805667841006
 21
40.58621055578863
 31
0.0
  0
LINE
  5
103
  8
SIDE15
  6
______-2
 62
     7
 10
122.4369389478658
 20
750.9146363319277
 30
0.0
 11
40.78153144937897
 21
731.1056881958941
 31
0.0
  0
LINE
  5
104
  8
SIDE15
  6
______-2
 62
     7
 10
116.4680081048289
 20
759.6680279369596
 30
0.0
 11
42.09171948057059
 21
739.7389614640655
 31
0.0
  0
LINE
  5
105
  8
SIDE15
  6
______-2
 62
     7
 10
40.78153144937897
 20
731.1056881958941
 30
0.0
 11
42.09171948057059
 21
739.7389614640655
 31
0.0
  0
LINE
  5
106
  8
SIDE15
  6
______-2
 62
     7
 10
116.4680081048289
 20
759.6680279369596
 30
0.0
 11
122.4369389478658
 21
750.9146363319277
 31
0.0
  0
LINE
  5
107
  8
SIDE15
  6
______-2
 62
     7
 10
103.8308617062535
 20
756.6023573920974
 30
0.0
 11
109.7997925492905
 21
747.8489657870654
 31
0.0
  0
LINE
  5
108
  8
SIDE15
  6
______-2
 62
     7
 10
57.30703058597749
 20
735.1146419853295
 30
0.0
 11
58.6172186171691
 21
743.7479152535009
 31
0.0
  0
LINE
  5
109
  8
SIDE15
  6
______-2
 62
     7
 10
229.8039065036105
 20
55.50784038541497
 30
0.0
 11
222.3430915887973
 21
53.5087210541127
 31
0.0
  0
LINE
  5
10A
  8
SIDE15
  6
______-2
 62
     7
 10
75.95238094913003
 20
731.2122032927782
 30
0.0
 11
43.11090285530167
 21
722.4123557592925
 31
0.0
  0
LINE
  5
10B
  8
SIDE15
  6
______-2
 62
     7
 10
316.0
 20
-164.6577072410074
 30
0.0
 11
439.3343202730691
 21
-624.9476568170738
 31
0.0
  0
LINE
  5
10C
  8
SIDE15
  6
______-2
 62
     7
 10
316.0
 20
-288.2962130060084
 30
0.0
 11
412.8246175985619
 21
-649.6506053072686
 31
0.0
  0
LINE
  5
10D
  8
SIDE15
  6
______-2
 62
     7
 10
492.0305353542655
 20
-628.427443608862
 30
0.0
 11
412.8246175985619
 21
-649.6506053072686
 31
0.0
  0
LINE
  5
10E
  8
SIDE15
  6
______-2
 62
     7
 10
439.3343202730691
 20
-624.9476568170738
 30
0.0
 11
408.424693831819
 21
-633.2298662603545
 31
0.0
  0
LINE
  5
10F
  8
SIDE15
  6
______-2
 62
     7
 10
362.6581775457681
 20
-176.5128576138198
 30
0.0
 11
329.6299943913926
 21
-53.24999999999991
 31
0.0
  0
LINE
  5
110
  8
SIDE15
  6
______-2
 62
     7
 10
374.2492874612369
 20
-173.4070290725896
 30
0.0
 11
362.6581775457681
 21
-176.5128576138198
 31
0.0
  0
LINE
  5
111
  8
SIDE15
  6
______-2
 62
     7
 10
342.0533085563136
 20
-53.25000000000011
 30
0.0
 11
374.2492874612369
 21
-173.4070290725896
 31
0.0
  0
LINE
  5
112
  8
SIDE15
  6
______-2
 62
     7
 10
337.4898836466864
 20
-84.12898736468247
 30
0.0
 11
337.8762539772017
 21
-84.02545974664156
 31
0.0
  0
LINE
  5
113
  8
SIDE15
  6
______-2
 62
     7
 10
330.8899979965722
 20
-59.49787879431125
 30
0.0
 11
331.2763683270875
 21
-59.39435117627033
 31
0.0
  0
LINE
  5
114
  8
SIDE15
  6
______-2
 62
     7
 10
337.4898836466861
 20
-84.12898736468264
 30
0.0
 11
330.8899979965718
 21
-59.49787879431136
 31
0.0
  0
LINE
  5
115
  8
SIDE15
  6
______-2
 62
     7
 10
345.6635863405201
 20
-56.67811152669157
 30
0.0
 11
351.7199519959191
 21
-79.28077586185589
 31
0.0
  0
LINE
  5
116
  8
SIDE15
  6
______-2
 62
     7
 10
343.152179192169
 20
-57.35104104395799
 30
0.0
 11
358.4574727321456
 21
-53.25
 31
0.0
  0
LINE
  5
117
  8
SIDE15
  6
______-2
 62
     7
 10
368.8759838889678
 20
-50.45836834919484
 30
0.0
 11
374.7098640796933
 21
-48.89518486335004
 31
0.0
  0
ARC
  5
118
  8
SIDE15
  6
______-2
 62
     7
 10
246.7825413812353
 20
51.25740435597174
 30
0.0
 40
166.9759879032253
 50
326.6342569443282
 51
333.4977338854695
  0
ARC
  5
119
  8
SIDE15
  6
______-2
 62
     7
 10
369.5334831776446
 20
-29.57666833757526
 30
0.0
 40
19.99999999999319
 50
285.0000000000001
 51
326.6342569443414
  0
LINE
  5
11A
  8
SIDE15
  6
______-2
 62
     7
 10
390.719075549252
 20
-68.8309922002187
 30
0.0
 11
349.2085448475681
 21
-79.95370537912225
 31
0.0
  0
LINE
  5
11B
  8
SIDE15
  6
______-2
 62
     7
 10
395.2641240416791
 20
-65.35209255691575
 30
0.0
 11
437.481941188166
 21
7.368564978713493
 31
0.0
  0
ARC
  5
11C
  8
SIDE15
  6
______-2
 62
     7
 10
388.7779327109822
 20
-61.58654850305089
 30
0.0
 40
7.500000000000036
 50
285.000000000007
 51
329.8627868331753
  0
LINE
  5
11D
  8
SIDE15
  6
______-2
 62
     7
 10
385.2431374177322
 20
-59.47962931507703
 30
0.0
 11
368.0923280438069
 21
-64.07517483636047
 31
0.0
  0
LINE
  5
11E
  8
SIDE15
  6
______-2
 62
     7
 10
384.5960898049759
 20
-57.06481474935435
 30
0.0
 11
367.4452804310506
 21
-61.6603602706378
 31
0.0
  0
ARC
  5
11F
  8
SIDE15
  6
______-2
 62
     7
 10
367.7688042374288
 20
-62.86776755349916
 30
0.0
 40
1.250000000000031
 50
104.9999999999995
 51
285.0000000000002
  0
LINE
  5
120
  8
SIDE15
  6
______-2
 62
     7
 10
423.187941160257
 20
3.560717066996347
 30
0.0
 11
387.6671632803597
 21
-57.62421617198243
 31
0.0
  0
LINE
  5
121
  8
SIDE15
  6
______-2
 62
     7
 10
416.3873429562539
 20
-3.174028497413815
 30
0.0
 11
385.505099503461
 21
-56.36903482069408
 31
0.0
  0
ARC
  5
122
  8
SIDE15
  6
______-2
 62
     7
 10
384.2078612373222
 20
-55.61592600992077
 30
0.0
 40
3.999999999999983
 50
284.9999999999996
 51
329.8627868331644
  0
ARC
  5
123
  8
SIDE15
  6
______-2
 62
     7
 10
384.2078612373222
 20
-55.61592600992077
 30
0.0
 40
1.499999999999976
 50
284.9999999999992
 51
329.8627868331536
  0
LINE
  5
124
  8
SIDE15
  6
______-2
 62
     7
 10
437.4186755007171
 20
-729.8167912721466
 30
0.0
 11
510.8145494112925
 21
-710.1504261300313
 31
0.0
  0
LINE
  5
125
  8
SIDE15
  6
______-2
 62
     7
 10
412.6178113190501
 20
-651.7765712436736
 30
0.0
 11
430.7480854284815
 21
-719.4396753752227
 31
0.0
  0
LINE
  5
126
  8
SIDE15
  6
______-2
 62
     7
 10
493.2726178141872
 20
-630.1651809776131
 30
0.0
 11
511.4028919236188
 21
-697.8282851091622
 31
0.0
  0
LINE
  5
127
  8
SIDE15
  6
______-2
 62
     7
 10
427.3135049928978
 20
-645.7683196307308
 30
0.0
 11
445.9614171925344
 21
-715.363275414858
 31
0.0
  0
LINE
  5
128
  8
SIDE15
  6
______-2
 62
     7
 10
479.4734996125076
 20
-631.7920911951948
 30
0.0
 11
498.1214118121441
 21
-701.3870469793218
 31
0.0
  0
LINE
  5
129
  8
SIDE15
  6
______-2
 62
     7
 10
490.8231280714041
 20
-628.7509674152401
 30
0.0
 11
509.4710402710407
 21
-698.3459231993672
 31
0.0
  0
LINE
  5
12A
  8
SIDE15
  6
______-2
 62
     7
 10
412.6178113190501
 20
-651.7765712436736
 30
0.0
 11
493.2726178141872
 21
-630.1651809776131
 31
0.0
  0
LINE
  5
12B
  8
SIDE15
  6
______-2
 62
     7
 10
493.2726178141872
 20
-630.1651809776131
 30
0.0
 11
491.0646095279764
 21
-628.6862626539645
 31
0.0
  0
LINE
  5
12C
  8
SIDE15
  6
______-2
 62
     7
 10
413.790543424851
 20
-649.3917862621661
 30
0.0
 11
412.6178113190501
 21
-651.7765712436736
 31
0.0
  0
LINE
  5
12D
  8
SIDE15
  6
______-2
 62
     7
 10
511.4028919236188
 20
-697.8282851091622
 30
0.0
 11
430.7480854284815
 21
-719.4396753752227
 31
0.0
  0
LINE
  5
12E
  8
SIDE15
  6
______-2
 62
     7
 10
430.8774949510328
 20
-719.9226382883671
 30
0.0
 11
511.5323014461701
 21
-698.3112480223066
 31
0.0
  0
ARC
  5
12F
  8
SIDE15
  6
______-2
 62
     7
 10
485.5688434081462
 20
-690.8746407377056
 30
0.0
 40
61.92680968498737
 50
207.9739335486071
 51
218.9647052761698
  0
ARC
  5
130
  8
SIDE15
  6
______-2
 62
     7
 10
449.6442055397522
 20
-700.5006184429224
 30
0.0
 40
61.92680968498766
 50
351.0352947238304
 51
2.026066451392978
  0
LINE
  5
131
  8
SIDE15
  6
______-2
 62
     7
 10
431.3604578641773
 20
-719.7932287658158
 30
0.0
 11
431.2310483416261
 21
-719.3102658526714
 31
0.0
  0
LINE
  5
132
  8
SIDE15
  6
______-2
 62
     7
 10
511.0493385330255
 20
-698.4406575448579
 30
0.0
 11
510.9199290104742
 21
-697.9576946317135
 31
0.0
  0
ARC
  5
133
  8
SIDE15
  6
______-2
 62
     7
 10
500.7821751721995
 20
-686.7982407773408
 30
0.0
 40
61.92680968498772
 50
207.9739335486071
 51
218.9647052761698
  0
LINE
  5
134
  8
SIDE15
  6
______-2
 62
     7
 10
446.5737896282302
 20
-715.7168288054511
 30
0.0
 11
446.4443801056789
 21
-715.2338658923067
 31
0.0
  0
ARC
  5
135
  8
SIDE15
  6
______-2
 62
     7
 10
447.7123538871741
 20
-701.0182565331273
 30
0.0
 40
61.92680968498713
 50
351.03529472383
 51
2.026066451392865
  0
LINE
  5
136
  8
SIDE15
  6
______-2
 62
     7
 10
509.1174868804474
 20
-698.9582956350629
 30
0.0
 11
508.9880773578961
 21
-698.4753327219184
 31
0.0
  0
LINE
  5
137
  8
SIDE15
  6
CONTINUOUS
 62
     7
 10
234.0
 20
819.0
 30
0.0
 11
234.0
 21
840.6733456722345
 31
0.0
  0
LINE
  5
138
  8
SIDE15
  6
CONTINUOUS
 62
     7
 10
40.38401169603449
 20
740.3166587227008
 30
0.0
 11
21.00709462878663
 21
812.6322977117185
 31
0.0
  0
ARC
  5
139
  8
SIDE15
  6
CONTINUOUS
 62
     7
 10
234.0
 20
17.73195321463982
 30
0.0
 40
807.9413924575947
 50
90.0
 51
105.0
  0
POLYLINE
  5
13A
  8
SIDE15
  6
CONTINUOUS
 62
     7
 66
     1
 10
0.0
 20
0.0
 30
0.0
 70
   128
  0
VERTEX
  5
576
  8
SIDE15
  6
CONTINUOUS
 62
     7
 10
55.92685135679451
 20
797.0595579451872
 30
0.0
  0
VERTEX
  5
577
  8
SIDE15
  6
CONTINUOUS
 62
     7
 10
24.88938030532429
 20
798.1434103173824
 30
0.0
  0
VERTEX
  5
578
  8
SIDE15
  6
CONTINUOUS
 62
     7
 10
52.31054489121922
 20
812.7235021548445
 30
0.0
  0
SEQEND
  5
5BD
  8
SIDE15
  6
CONTINUOUS
 62
     7
  0
POLYLINE
  5
13F
  8
SIDE15
  6
CONTINUOUS
 62
     7
 66
     1
 10
0.0
 20
0.0
 30
0.0
 70
   128
  0
VERTEX
  5
579
  8
SIDE15
  6
CONTINUOUS
 62
     7
 10
203.8661177374595
 20
833.1865663546653
 30
0.0
  0
VERTEX
  5
57A
  8
SIDE15
  6
CONTINUOUS
 62
     7
 10
234.0000000000001
 20
825.6733456722345
 30
0.0
  0
VERTEX
  5
57B
  8
SIDE15
  6
CONTINUOUS
 62
     7
 10
204.1466821047752
 20
817.113044516188
 30
0.0
  0
SEQEND
  5
5BE
  8
SIDE15
  6
CONTINUOUS
 62
     7
  0
TEXT
  5
144
  8
SIDE15
 62
     7
 10
51.15541911799416
 20
826.4781555119018
 30
0.0
 40
40.61767578125
  1
15.0°
 50
7.246167489148712
 41
0.7
 11
46.03220550892188
 21
866.7714337129437
 31
0.0
 73
     3
  0
CIRCLE
  5
145
  8
SIDE15
  6
______-2
 62
     7
 10
406.2358098132102
 20
150.3314700232428
 30
0.0
 40
5.999999999999934
  0
CIRCLE
  5
146
  8
SIDE15
  6
______-2
 62
     7
 10
402.3408174972051
 20
164.8570860192394
 30
0.0
 40
6.000000000000029
  0
LINE
  5
147
  8
SIDE15
  6
______-2
 62
     7
 10
400.2995760448857
 20
166.8983274715587
 30
0.0
 11
403.0879637240118
 21
167.6454736983654
 31
0.0
  0
LINE
  5
148
  8
SIDE15
  6
______-2
 62
     7
 10
399.5524298180791
 20
164.1099397924327
 30
0.0
 11
400.2995760448857
 21
166.8983274715587
 31
0.0
  0
LINE
  5
149
  8
SIDE15
  6
______-2
 62
     7
 10
405.1292051763312
 20
165.6042322460461
 30
0.0
 11
403.0879637240118
 21
167.6454736983654
 31
0.0
  0
LINE
  5
14A
  8
SIDE15
  6
______-2
 62
     7
 10
401.5936712703983
 20
162.0686983401133
 30
0.0
 11
404.3820589495244
 21
162.81584456692
 31
0.0
  0
LINE
  5
14B
  8
SIDE15
  6
______-2
 62
     7
 10
399.5524298180791
 20
164.1099397924327
 30
0.0
 11
401.5936712703983
 21
162.0686983401133
 31
0.0
  0
LINE
  5
14C
  8
SIDE15
  6
______-2
 62
     7
 10
405.1292051763312
 20
165.6042322460461
 30
0.0
 11
404.3820589495244
 21
162.81584456692
 31
0.0
  0
LINE
  5
14D
  8
SIDE15
  6
______-2
 62
     7
 10
404.1945683608908
 20
152.3727114755621
 30
0.0
 11
406.9829560400168
 21
153.1198577023688
 31
0.0
  0
LINE
  5
14E
  8
SIDE15
  6
______-2
 62
     7
 10
403.447422134084
 20
149.5843237964361
 30
0.0
 11
404.1945683608908
 21
152.3727114755621
 31
0.0
  0
LINE
  5
14F
  8
SIDE15
  6
______-2
 62
     7
 10
409.024197492336
 20
151.0786162500495
 30
0.0
 11
406.9829560400168
 21
153.1198577023688
 31
0.0
  0
LINE
  5
150
  8
SIDE15
  6
______-2
 62
     7
 10
405.4886635864034
 20
147.5430823441168
 30
0.0
 11
408.2770512655294
 21
148.2902285709235
 31
0.0
  0
LINE
  5
151
  8
SIDE15
  6
______-2
 62
     7
 10
403.447422134084
 20
149.5843237964361
 30
0.0
 11
405.4886635864034
 21
147.5430823441168
 31
0.0
  0
LINE
  5
152
  8
SIDE15
  6
______-2
 62
     7
 10
409.024197492336
 20
151.0786162500495
 30
0.0
 11
408.2770512655294
 21
148.2902285709235
 31
0.0
  0
LINE
  5
153
  8
SIDE15
  6
CONTINUOUS
 62
     7
 10
40.78153144937897
 20
749.1056881958941
 30
0.0
 11
40.78153144937897
 21
915.0
 31
0.0
  0
LINE
  5
154
  8
SIDE15
  6
CONTINUOUS
 62
     7
 10
232.0
 20
828.0
 30
0.0
 11
232.0
 21
915.0
 31
0.0
  0
LINE
  5
155
  8
SIDE15
  6
CONTINUOUS
 62
     7
 10
40.78153144937897
 20
900.0
 30
0.0
 11
232.0
 21
900.0
 31
0.0
  0
POLYLINE
  5
156
  8
SIDE15
  6
CONTINUOUS
 62
     7
 66
     1
 10
0.0
 20
0.0
 30
0.0
 70
   128
  0
VERTEX
  5
57C
  8
SIDE15
  6
CONTINUOUS
 62
     7
 10
70.77970039469147
 20
891.9620148566911
 30
0.0
  0
VERTEX
  5
57D
  8
SIDE15
  6
CONTINUOUS
 62
     7
 10
40.78153144937897
 20
900.0
 30
0.0
  0
VERTEX
  5
57E
  8
SIDE15
  6
CONTINUOUS
 62
     7
 10
70.77970039469147
 20
908.0379851433089
 30
0.0
  0
SEQEND
  5
5BF
  8
SIDE15
  6
CONTINUOUS
 62
     7
  0
POLYLINE
  5
15B
  8
SIDE15
  6
CONTINUOUS
 62
     7
 66
     1
 10
0.0
 20
0.0
 30
0.0
 70
   128
  0
VERTEX
  5
57F
  8
SIDE15
  6
CONTINUOUS
 62
     7
 10
202.0018310546875
 20
908.0379851433089
 30
0.0
  0
VERTEX
  5
580
  8
SIDE15
  6
CONTINUOUS
 62
     7
 10
232.0
 20
900.0
 30
0.0
  0
VERTEX
  5
581
  8
SIDE15
  6
CONTINUOUS
 62
     7
 10
202.0018310546875
 20
891.9620148566911
 30
0.0
  0
SEQEND
  5
5C0
  8
SIDE15
  6
CONTINUOUS
 62
     7
  0
TEXT
  5
160
  8
SIDE15
 62
     7
 10
96.70326572468949
 20
919.9083333333333
 30
0.0
 40
40.61767578125
  1
191
 41
0.7
 11
96.70326572468949
 21
960.5260091145833
 31
0.0
 73
     3
  0
TEXT
  5
161
  8
SIDE15
 62
     7
 10
176.0782657246895
 20
952.0816666666666
 30
0.0
 40
28.432373046875
  1
※
 41
0.7
 11
176.0782657246895
 21
980.5140397135416
 31
0.0
 73
     3
  0
LINE
  5
162
  8
TOP90
  6
______-2
 62
     7
 10
-720.5402070687957
 20
1374.1
 30
0.0
 11
-474.4864003548282
 21
1374.1
 31
0.0
  0
LINE
  5
163
  8
TOP90
  6
______-2
 62
     7
 10
-720.5402070687957
 20
1283.1
 30
0.0
 11
-474.4864003548284
 21
1283.1
 31
0.0
  0
LINE
  5
164
  8
TOP90
  6
______-2
 62
     7
 10
-546.6000000000004
 20
1298.6
 30
0.0
 11
-546.6000000000004
 21
1358.6
 31
0.0
  0
LINE
  5
165
  8
TOP90
  6
______-2
 62
     7
 10
-529.4610637725696
 20
1369.6
 30
0.0
 11
-476.9901366140566
 21
1369.6
 31
0.0
  0
LINE
  5
166
  8
TOP90
  6
______-2
 62
     7
 10
-529.4610637725696
 20
1287.6
 30
0.0
 11
-476.9901366140566
 21
1287.6
 31
0.0
  0
LINE
  5
167
  8
TOP90
  6
______-2
 62
     7
 10
-543.1000000000004
 20
1357.164499322049
 30
0.0
 11
-543.1000000000004
 21
1300.035500677952
 31
0.0
  0
ARC
  5
168
  8
TOP90
  6
______-2
 62
     7
 10
-548.7250000000004
 20
1328.6
 30
0.0
 40
82.62499999999969
 50
330.2499110359931
 51
29.75008896400676
  0
LINE
  5
169
  8
TOP90
  6
______-2
 62
     7
 10
-529.6000000000004
 20
1374.1
 30
0.0
 11
-546.6000000000004
 21
1358.6
 31
0.0
  0
LINE
  5
16A
  8
TOP90
  6
______-2
 62
     7
 10
-546.6000000000004
 20
1298.6
 30
0.0
 11
-529.6000000000004
 21
1283.1
 31
0.0
  0
LINE
  5
16B
  8
TOP90
  6
______-2
 62
     7
 10
-529.4610637725696
 20
1369.6
 30
0.0
 11
-543.1000000000004
 21
1357.164499322049
 31
0.0
  0
LINE
  5
16C
  8
TOP90
  6
______-2
 62
     7
 10
-529.4610637725696
 20
1287.6
 30
0.0
 11
-543.1000000000004
 21
1300.035500677952
 31
0.0
  0
ARC
  5
16D
  8
TOP90
  6
______-2
 62
     7
 10
-548.7250000000004
 20
1328.6
 30
0.0
 40
77.62499999999997
 50
333.1994782826199
 51
26.8005217173801
  0
LINE
  5
16E
  8
TOP90
  6
______-2
 62
     7
 10
-538.1000000000004
 20
1354.957018692445
 30
0.0
 11
-538.1000000000004
 21
1302.242981307556
 31
0.0
  0
LINE
  5
16F
  8
TOP90
  6
______-2
 62
     7
 10
-528.6206011465524
 20
1363.6
 30
0.0
 11
-479.4383445387934
 21
1363.6
 31
0.0
  0
LINE
  5
170
  8
TOP90
  6
______-2
 62
     7
 10
-528.6206011465524
 20
1293.6
 30
0.0
 11
-479.4383445387934
 21
1293.6
 31
0.0
  0
LINE
  5
171
  8
TOP90
  6
______-2
 62
     7
 10
-528.6206011465524
 20
1363.6
 30
0.0
 11
-538.1000000000004
 21
1354.957018692445
 31
0.0
  0
LINE
  5
172
  8
TOP90
  6
______-2
 62
     7
 10
-528.6206011465524
 20
1293.6
 30
0.0
 11
-538.1000000000004
 21
1302.242981307556
 31
0.0
  0
LINE
  5
173
  8
TOP90
  6
______-2
 62
     7
 10
-458.6000000000004
 20
1289.1
 30
0.0
 11
-456.0000000000005
 21
1289.1
 31
0.0
  0
LINE
  5
174
  8
TOP90
  6
______-2
 62
     7
 10
-456.0000000000005
 20
1289.1
 30
0.0
 11
-456.0000000000005
 21
1311.400000000001
 31
0.0
  0
LINE
  5
175
  8
TOP90
  6
______-2
 62
     7
 10
-448.6000000000004
 20
1335.8
 30
0.0
 11
-333.6000000000008
 21
1335.8
 31
0.0
  0
LINE
  5
176
  8
TOP90
  6
______-2
 62
     7
 10
-448.6000000000004
 20
1321.400000000001
 30
0.0
 11
-333.6000000000008
 21
1321.400000000001
 31
0.0
  0
LINE
  5
177
  8
TOP90
  6
______-2
 62
     7
 10
-448.6000000000004
 20
1338.400000000001
 30
0.0
 11
-333.6000000000004
 21
1338.400000000001
 31
0.0
  0
LINE
  5
178
  8
TOP90
  6
______-2
 62
     7
 10
-448.6000000000006
 20
1318.8
 30
0.0
 11
-333.6000000000006
 21
1318.8
 31
0.0
  0
LINE
  5
179
  8
TOP90
  6
______-2
 62
     7
 10
-330.6000000000006
 20
1321.8
 30
0.0
 11
-330.6000000000004
 21
1335.400000000001
 31
0.0
  0
LINE
  5
17A
  8
TOP90
  6
______-2
 62
     7
 10
-333.2000000000003
 20
1321.8
 30
0.0
 11
-333.2000000000003
 21
1335.400000000001
 31
0.0
  0
ARC
  5
17B
  8
TOP90
  6
______-2
 62
     7
 10
-333.6000000000004
 20
1335.400000000001
 30
0.0
 40
3.0
 50
0.0
 51
90.0
  0
ARC
  5
17C
  8
TOP90
  6
______-2
 62
     7
 10
-333.6000000000006
 20
1321.8
 30
0.0
 40
3.0
 50
270.0
 51
0.0
  0
ARC
  5
17D
  8
TOP90
  6
______-2
 62
     7
 10
-333.6000000000006
 20
1321.8
 30
0.0
 40
0.3999999999996362
 50
270.0
 51
0.0
  0
ARC
  5
17E
  8
TOP90
  6
______-2
 62
     7
 10
-333.6000000000006
 20
1335.400000000001
 30
0.0
 40
0.3999999999998636
 50
0.0
 51
90.0
  0
ARC
  5
17F
  8
TOP90
  6
______-2
 62
     7
 10
-448.6000000000004
 20
1311.400000000001
 30
0.0
 40
10.0
 50
90.0
 51
180.0
  0
ARC
  5
180
  8
TOP90
  6
______-2
 62
     7
 10
-448.6000000000004
 20
1311.400000000001
 30
0.0
 40
7.399999999999636
 50
90.0
 51
180.0
  0
LINE
  5
181
  8
TOP90
  6
______-2
 62
     7
 10
-458.6000000000004
 20
1368.1
 30
0.0
 11
-456.0000000000005
 21
1368.1
 31
0.0
  0
LINE
  5
182
  8
TOP90
  6
______-2
 62
     7
 10
-456.0000000000005
 20
1368.1
 30
0.0
 11
-456.0000000000005
 21
1345.8
 31
0.0
  0
ARC
  5
183
  8
TOP90
  6
______-2
 62
     7
 10
-448.6000000000004
 20
1345.8
 30
0.0
 40
7.399999999999864
 50
180.0
 51
270.0
  0
LINE
  5
184
  8
TOP90
  6
______-2
 62
     7
 10
-436.2500000000005
 20
1324.8
 30
0.0
 11
-357.4859976830371
 21
1324.8
 31
0.0
  0
ARC
  5
185
  8
TOP90
  6
______-2
 62
     7
 10
-365.1042976830367
 20
1320.069375
 30
0.0
 40
8.967569781196012
 50
8.533166652222645
 51
31.83843936671263
  0
ARC
  5
186
  8
TOP90
  6
______-2
 62
     7
 10
-428.6317000000008
 20
1320.069375
 30
0.0
 40
8.967569781196065
 50
148.1615606332874
 51
171.4668333477774
  0
LINE
  5
187
  8
TOP90
  6
______-2
 62
     7
 10
-436.2500000000005
 20
1332.400000000001
 30
0.0
 11
-357.4859976830371
 21
1332.400000000001
 31
0.0
  0
ARC
  5
188
  8
TOP90
  6
______-2
 62
     7
 10
-365.1042976830367
 20
1337.130625000001
 30
0.0
 40
8.967569781196065
 50
328.1615606332874
 51
351.4668333477774
  0
ARC
  5
189
  8
TOP90
  6
______-2
 62
     7
 10
-428.6317000000008
 20
1337.130625000001
 30
0.0
 40
8.967569781196012
 50
188.5331666522227
 51
211.8384393667126
  0
LINE
  5
18A
  8
TOP90
  6
______-2
 62
     7
 10
-345.1999999999998
 20
1317.95
 30
0.0
 11
-345.1999999999998
 21
1318.8
 31
0.0
  0
LINE
  5
18B
  8
TOP90
  6
______-2
 62
     7
 10
-345.1999999999998
 20
1321.4
 30
0.0
 11
-345.1999999999998
 21
1335.8
 31
0.0
  0
LINE
  5
18C
  8
TOP90
  6
______-2
 62
     7
 10
-345.1999999999998
 20
1338.400000000001
 30
0.0
 11
-345.1999999999998
 21
1339.250000000001
 31
0.0
  0
LINE
  5
18D
  8
TOP90
  6
______-2
 62
     7
 10
-348.1499999999999
 20
1317.95
 30
0.0
 11
-348.1499999999999
 21
1318.8
 31
0.0
  0
LINE
  5
18E
  8
TOP90
  6
______-2
 62
     7
 10
-348.1499999999999
 20
1321.4
 30
0.0
 11
-348.1499999999999
 21
1335.8
 31
0.0
  0
LINE
  5
18F
  8
TOP90
  6
______-2
 62
     7
 10
-348.1499999999999
 20
1338.400000000001
 30
0.0
 11
-348.1499999999999
 21
1339.250000000001
 31
0.0
  0
LINE
  5
190
  8
TOP90
  6
______-2
 62
     7
 10
-315.3709954134401
 20
1317.95
 30
0.0
 11
-384.5999999999999
 21
1317.95
 31
0.0
  0
LINE
  5
191
  8
TOP90
  6
______-2
 62
     7
 10
-320.7499999999999
 20
1339.250000000001
 30
0.0
 11
-384.5999999999999
 21
1339.250000000001
 31
0.0
  0
LINE
  5
192
  8
TOP90
  6
______-2
 62
     7
 10
-320.7499999999999
 20
1341.85
 30
0.0
 11
-384.5999999999999
 21
1341.85
 31
0.0
  0
LINE
  5
193
  8
TOP90
  6
______-2
 62
     7
 10
-313.1957379482924
 20
1315.35
 30
0.0
 11
-384.5999999999999
 21
1315.35
 31
0.0
  0
LINE
  5
194
  8
TOP90
  6
______-2
 62
     7
 10
-384.6000000000004
 20
1315.35
 30
0.0
 11
-384.6000000000004
 21
1317.95
 31
0.0
  0
LINE
  5
195
  8
TOP90
  6
______-2
 62
     7
 10
-384.6000000000004
 20
1339.250000000001
 30
0.0
 11
-384.6000000000004
 21
1341.85
 31
0.0
  0
LINE
  5
196
  8
TOP90
  6
______-2
 62
     7
 10
-335.6000000000004
 20
1314.35
 30
0.0
 11
-335.6000000000004
 21
1315.35
 31
0.0
  0
LINE
  5
197
  8
TOP90
  6
______-2
 62
     7
 10
-349.6000000000004
 20
1314.35
 30
0.0
 11
-349.6000000000004
 21
1315.35
 31
0.0
  0
LINE
  5
198
  8
TOP90
  6
______-2
 62
     7
 10
-335.6000000000004
 20
1314.35
 30
0.0
 11
-349.6000000000004
 21
1314.35
 31
0.0
  0
LINE
  5
199
  8
TOP90
  6
______-2
 62
     7
 10
-337.6000000000004
 20
1312.650000000001
 30
0.0
 11
-337.6000000000004
 21
1314.35
 31
0.0
  0
LINE
  5
19A
  8
TOP90
  6
______-2
 62
     7
 10
-347.6000000000004
 20
1312.650000000001
 30
0.0
 11
-347.6000000000004
 21
1314.35
 31
0.0
  0
LINE
  5
19B
  8
TOP90
  6
______-2
 62
     7
 10
-336.6000000000004
 20
1312.650000000001
 30
0.0
 11
-348.6000000000004
 21
1312.650000000001
 31
0.0
  0
LINE
  5
19C
  8
TOP90
  6
______-2
 62
     7
 10
-336.6000000000004
 20
1308.55
 30
0.0
 11
-348.6000000000004
 21
1308.55
 31
0.0
  0
LINE
  5
19D
  8
TOP90
  6
______-2
 62
     7
 10
-336.6000000000004
 20
1308.55
 30
0.0
 11
-336.6000000000004
 21
1312.650000000001
 31
0.0
  0
LINE
  5
19E
  8
TOP90
  6
______-2
 62
     7
 10
-348.6000000000004
 20
1308.55
 30
0.0
 11
-348.6000000000004
 21
1312.650000000001
 31
0.0
  0
LINE
  5
19F
  8
TOP90
  6
______-2
 62
     7
 10
-335.6000000000004
 20
1342.85
 30
0.0
 11
-335.6000000000004
 21
1341.85
 31
0.0
  0
LINE
  5
1A0
  8
TOP90
  6
______-2
 62
     7
 10
-349.6000000000004
 20
1342.85
 30
0.0
 11
-349.6000000000004
 21
1341.85
 31
0.0
  0
LINE
  5
1A1
  8
TOP90
  6
______-2
 62
     7
 10
-335.6000000000004
 20
1342.85
 30
0.0
 11
-349.6000000000004
 21
1342.85
 31
0.0
  0
LINE
  5
1A2
  8
TOP90
  6
______-2
 62
     7
 10
-337.6000000000004
 20
1344.55
 30
0.0
 11
-337.6000000000004
 21
1342.85
 31
0.0
  0
LINE
  5
1A3
  8
TOP90
  6
______-2
 62
     7
 10
-347.6000000000004
 20
1344.55
 30
0.0
 11
-347.6000000000004
 21
1342.85
 31
0.0
  0
LINE
  5
1A4
  8
TOP90
  6
______-2
 62
     7
 10
-337.0500000000002
 20
1344.55
 30
0.0
 11
-348.1500000000001
 21
1344.55
 31
0.0
  0
LINE
  5
1A5
  8
TOP90
  6
______-2
 62
     7
 10
-344.6000000000004
 20
1312.650000000001
 30
0.0
 11
-344.6000000000004
 21
1314.35
 31
0.0
  0
LINE
  5
1A6
  8
TOP90
  6
______-2
 62
     7
 10
-340.6000000000004
 20
1344.55
 30
0.0
 11
-340.6000000000004
 21
1342.85
 31
0.0
  0
LINE
  5
1A7
  8
TOP90
  6
______-2
 62
     7
 10
-337.0500000000006
 20
1349.05
 30
0.0
 11
-348.1500000000001
 21
1349.05
 31
0.0
  0
LINE
  5
1A8
  8
TOP90
  6
______-2
 62
     7
 10
-337.0500000000002
 20
1349.05
 30
0.0
 11
-337.0500000000002
 21
1344.55
 31
0.0
  0
LINE
  5
1A9
  8
TOP90
  6
______-2
 62
     7
 10
-348.1500000000001
 20
1349.05
 30
0.0
 11
-348.1500000000001
 21
1344.55
 31
0.0
  0
LINE
  5
1AA
  8
TOP90
  6
______-2
 62
     7
 10
-345.375
 20
1349.05
 30
0.0
 11
-345.375
 21
1344.55
 31
0.0
  0
LINE
  5
1AB
  8
TOP90
  6
______-2
 62
     7
 10
-339.8250000000003
 20
1349.05
 30
0.0
 11
-339.8250000000003
 21
1344.55
 31
0.0
  0
LINE
  5
1AC
  8
TOP90
  6
______-2
 62
     7
 10
-469.1124997829629
 20
1368.956197917572
 30
0.0
 11
-460.0999999999708
 21
1368.99375
 31
0.0
  0
LINE
  5
1AD
  8
TOP90
  6
______-2
 62
     7
 10
-460.0999999999435
 20
1288.206250000001
 30
0.0
 11
-469.1124997829204
 21
1288.243802082428
 31
0.0
  0
LINE
  5
1AE
  8
TOP90
  6
______-2
 62
     7
 10
-458.6000000000004
 20
1368.1
 30
0.0
 11
-458.6000000000004
 21
1289.1
 31
0.0
  0
ARC
  5
1AF
  8
TOP90
  6
______-2
 62
     7
 10
-460.1000000000004
 20
1367.49375
 30
0.0
 40
1.5
 50
0.0
 51
90.4774620673337
  0
ARC
  5
1B0
  8
TOP90
  6
______-2
 62
     7
 10
-469.1000000000004
 20
1367.456250000001
 30
0.0
 40
1.5
 50
90.0
 51
180.0
  0
ARC
  5
1B1
  8
TOP90
  6
______-2
 62
     7
 10
-460.1000000000004
 20
1289.706250000001
 30
0.0
 40
1.500000000000635
 50
269.5225379326663
 51
0.0
  0
ARC
  5
1B2
  8
TOP90
  6
______-2
 62
     7
 10
-469.1000000000004
 20
1289.74375
 30
0.0
 40
1.5
 50
180.0
 51
270.0
  0
ARC
  5
1B3
  8
TOP90
  6
______-2
 62
     7
 10
-555.1622449448525
 20
1328.6
 30
0.0
 40
93.06224494485255
 50
335.3212757486322
 51
24.67872425136778
  0
LINE
  5
1B4
  8
TOP90
  6
______-2
 62
     7
 10
-467.0328424417596
 20
1366.064863156493
 30
0.0
 11
-461.4000000000005
 21
1366.088333333333
 31
0.0
  0
LINE
  5
1B5
  8
TOP90
  6
______-2
 62
     7
 10
-461.4000000000003
 20
1366.088333333333
 30
0.0
 11
-461.4000000000003
 21
1357.788333333334
 31
0.0
  0
ARC
  5
1B6
  8
TOP90
  6
______-2
 62
     7
 10
-555.1622449448525
 20
1328.6
 30
0.0
 40
95.76224494489998
 50
17.73944929064905
 51
23.03092528161595
  0
LINE
  5
1B7
  8
TOP90
  6
______-2
 62
     7
 10
-463.9533106331621
 20
1357.777694539029
 30
0.0
 11
-461.4000000000005
 21
1357.788333333334
 31
0.0
  0
LINE
  5
1B8
  8
TOP90
  6
______-2
 62
     7
 10
-467.0328424417596
 20
1291.135136843508
 30
0.0
 11
-461.4000000000005
 21
1291.111666666668
 31
0.0
  0
LINE
  5
1B9
  8
TOP90
  6
______-2
 62
     7
 10
-461.4000000000003
 20
1291.111666666668
 30
0.0
 11
-461.4000000000003
 21
1299.411666666667
 31
0.0
  0
ARC
  5
1BA
  8
TOP90
  6
______-2
 62
     7
 10
-555.1622449448525
 20
1328.6
 30
0.0
 40
95.76224494490019
 50
336.9690747183841
 51
342.2605507093509
  0
LINE
  5
1BB
  8
TOP90
  6
______-2
 62
     7
 10
-463.9533106331621
 20
1299.422305460972
 30
0.0
 11
-461.4000000000005
 21
1299.411666666667
 31
0.0
  0
ARC
  5
1BC
  8
TOP90
  6
______-2
 62
     7
 10
-555.1622449448525
 20
1328.6
 30
0.0
 40
92.62203787605691
 50
330.5776355456722
 51
29.42236445432787
  0
LINE
  5
1BD
  8
TOP90
  6
______-2
 62
     7
 10
-471.0000000000005
 20
1289.927549519633
 30
0.0
 11
-470.6000000000004
 21
1289.74375
 31
0.0
  0
LINE
  5
1BE
  8
TOP90
  6
______-2
 62
     7
 10
-471.0000000000005
 20
1367.272450480367
 30
0.0
 11
-470.6000000000004
 21
1367.456250000001
 31
0.0
  0
ARC
  5
1BF
  8
TOP90
  6
______-2
 62
     7
 10
-300.0
 20
1328.6
 30
0.0
 40
248.4181152814749
 50
186.936205296406
 51
263.063794703594
  0
LINE
  5
1C0
  8
TOP90
  6
______-2
 62
     7
 10
-737.5402070687957
 20
1298.6
 30
0.0
 11
-737.5402070687957
 21
1358.6
 31
0.0
  0
LINE
  5
1C1
  8
TOP90
  6
______-2
 62
     7
 10
-720.4012708413649
 20
1369.6
 30
0.0
 11
-667.9303436828519
 21
1369.6
 31
0.0
  0
LINE
  5
1C2
  8
TOP90
  6
______-2
 62
     7
 10
-720.4012708413649
 20
1287.6
 30
0.0
 11
-667.9303436828519
 21
1287.6
 31
0.0
  0
LINE
  5
1C3
  8
TOP90
  6
______-2
 62
     7
 10
-734.0402070687957
 20
1357.164499322049
 30
0.0
 11
-734.0402070687957
 21
1300.035500677952
 31
0.0
  0
ARC
  5
1C4
  8
TOP90
  6
______-2
 62
     7
 10
-739.6652070687957
 20
1328.6
 30
0.0
 40
82.62499999999969
 50
330.2499110359931
 51
29.75008896400676
  0
LINE
  5
1C5
  8
TOP90
  6
______-2
 62
     7
 10
-720.5402070687957
 20
1374.1
 30
0.0
 11
-737.5402070687957
 21
1358.6
 31
0.0
  0
LINE
  5
1C6
  8
TOP90
  6
______-2
 62
     7
 10
-737.5402070687957
 20
1298.6
 30
0.0
 11
-720.5402070687957
 21
1283.1
 31
0.0
  0
LINE
  5
1C7
  8
TOP90
  6
______-2
 62
     7
 10
-720.4012708413649
 20
1369.6
 30
0.0
 11
-734.0402070687957
 21
1357.164499322049
 31
0.0
  0
LINE
  5
1C8
  8
TOP90
  6
______-2
 62
     7
 10
-720.4012708413649
 20
1287.6
 30
0.0
 11
-734.0402070687957
 21
1300.035500677952
 31
0.0
  0
ARC
  5
1C9
  8
TOP90
  6
______-2
 62
     7
 10
-739.6652070687957
 20
1328.6
 30
0.0
 40
77.62499999999997
 50
333.1994782826199
 51
26.8005217173801
  0
LINE
  5
1CA
  8
TOP90
  6
______-2
 62
     7
 10
-729.0402070687957
 20
1354.957018692445
 30
0.0
 11
-729.0402070687957
 21
1302.242981307556
 31
0.0
  0
LINE
  5
1CB
  8
TOP90
  6
______-2
 62
     7
 10
-719.5608082153477
 20
1363.6
 30
0.0
 11
-670.3785516075887
 21
1363.6
 31
0.0
  0
LINE
  5
1CC
  8
TOP90
  6
______-2
 62
     7
 10
-719.5608082153477
 20
1293.6
 30
0.0
 11
-670.3785516075887
 21
1293.6
 31
0.0
  0
LINE
  5
1CD
  8
TOP90
  6
______-2
 62
     7
 10
-719.5608082153477
 20
1363.6
 30
0.0
 11
-729.0402070687957
 21
1354.957018692445
 31
0.0
  0
LINE
  5
1CE
  8
TOP90
  6
______-2
 62
     7
 10
-719.5608082153477
 20
1293.6
 30
0.0
 11
-729.0402070687957
 21
1302.242981307556
 31
0.0
  0
ARC
  5
1CF
  8
TOP90
  6
______-2
 62
     7
 10
-746.1024520136478
 20
1328.6
 30
0.0
 40
92.62203787605691
 50
330.5776355456722
 51
29.42236445432787
  0
LINE
  5
1D0
  8
TOP90
  6
______-2
 62
     7
 10
-661.9402070687958
 20
1289.927549519633
 30
0.0
 11
-661.5402070687957
 21
1289.74375
 31
0.0
  0
LINE
  5
1D1
  8
TOP90
  6
______-2
 62
     7
 10
-661.9402070687958
 20
1367.272450480367
 30
0.0
 11
-661.5402070687957
 21
1367.456250000001
 31
0.0
  0
LINE
  5
1D2
  8
TOP90
  6
CONTINUOUS
 62
     7
 10
-300.0
 20
1064.0
 30
0.0
 11
-300.0
 21
985.0
 31
0.0
  0
LINE
  5
1D3
  8
TOP90
  6
CONTINUOUS
 62
     7
 10
-546.6000000000004
 20
1280.6
 30
0.0
 11
-546.6000000000004
 21
985.0
 31
0.0
  0
LINE
  5
1D4
  8
TOP90
  6
CONTINUOUS
 62
     7
 10
-300.0
 20
1000.0
 30
0.0
 11
-546.6000000000004
 21
1000.0
 31
0.0
  0
POLYLINE
  5
1D5
  8
TOP90
  6
CONTINUOUS
 62
     7
 66
     1
 10
0.0
 20
0.0
 30
0.0
 70
   128
  0
VERTEX
  5
582
  8
TOP90
  6
CONTINUOUS
 62
     7
 10
-329.9981689453125
 20
1008.037985143309
 30
0.0
  0
VERTEX
  5
583
  8
TOP90
  6
CONTINUOUS
 62
     7
 10
-300.0
 20
1000.0
 30
0.0
  0
VERTEX
  5
584
  8
TOP90
  6
CONTINUOUS
 62
     7
 10
-329.9981689453125
 20
991.9620148566911
 30
0.0
  0
SEQEND
  5
5C1
  8
TOP90
  6
CONTINUOUS
 62
     7
  0
POLYLINE
  5
1DA
  8
TOP90
  6
CONTINUOUS
 62
     7
 66
     1
 10
0.0
 20
0.0
 30
0.0
 70
   128
  0
VERTEX
  5
585
  8
TOP90
  6
CONTINUOUS
 62
     7
 10
-516.6018310546879
 20
991.9620148566911
 30
0.0
  0
VERTEX
  5
586
  8
TOP90
  6
CONTINUOUS
 62
     7
 10
-546.6000000000004
 20
1000.0
 30
0.0
  0
VERTEX
  5
587
  8
TOP90
  6
CONTINUOUS
 62
     7
 10
-516.6018310546879
 20
1008.037985143309
 30
0.0
  0
SEQEND
  5
5C2
  8
TOP90
  6
CONTINUOUS
 62
     7
  0
TEXT
  5
1DF
  8
TOP90
 62
     7
 10
-462.9875000000002
 20
1019.908333333333
 30
0.0
 40
40.61767578125
  1
250
 41
0.7
 11
-462.9875000000002
 21
1060.526009114583
 31
0.0
 73
     3
  0
LINE
  5
1E0
  8
TOP90
  6
CONTINUOUS
 62
     7
 10
-546.6000000000004
 20
1280.6
 30
0.0
 11
-546.6000000000004
 21
985.0
 31
0.0
  0
LINE
  5
1E1
  8
TOP90
  6
CONTINUOUS
 62
     7
 10
-737.5402070687957
 20
1280.6
 30
0.0
 11
-737.5402070687957
 21
985.0
 31
0.0
  0
LINE
  5
1E2
  8
TOP90
  6
CONTINUOUS
 62
     7
 10
-546.6000000000004
 20
1000.0
 30
0.0
 11
-737.5402070687957
 21
1000.0
 31
0.0
  0
POLYLINE
  5
1E3
  8
TOP90
  6
CONTINUOUS
 62
     7
 66
     1
 10
0.0
 20
0.0
 30
0.0
 70
   128
  0
VERTEX
  5
588
  8
TOP90
  6
CONTINUOUS
 62
     7
 10
-576.5981689453129
 20
1008.037985143309
 30
0.0
  0
VERTEX
  5
589
  8
TOP90
  6
CONTINUOUS
 62
     7
 10
-546.6000000000004
 20
1000.0
 30
0.0
  0
VERTEX
  5
58A
  8
TOP90
  6
CONTINUOUS
 62
     7
 10
-576.5981689453129
 20
991.9620148566911
 30
0.0
  0
SEQEND
  5
5C3
  8
TOP90
  6
CONTINUOUS
 62
     7
  0
POLYLINE
  5
1E8
  8
TOP90
  6
CONTINUOUS
 62
     7
 66
     1
 10
0.0
 20
0.0
 30
0.0
 70
   128
  0
VERTEX
  5
58B
  8
TOP90
  6
CONTINUOUS
 62
     7
 10
-707.5420381234832
 20
991.9620148566911
 30
0.0
  0
VERTEX
  5
58C
  8
TOP90
  6
CONTINUOUS
 62
     7
 10
-737.5402070687957
 20
1000.0
 30
0.0
  0
VERTEX
  5
58D
  8
TOP90
  6
CONTINUOUS
 62
     7
 10
-707.5420381234832
 20
1008.037985143309
 30
0.0
  0
SEQEND
  5
5C4
  8
TOP90
  6
CONTINUOUS
 62
     7
  0
TEXT
  5
1ED
  8
TOP90
 62
     7
 10
-681.757603534398
 20
1019.908333333333
 30
0.0
 40
40.61767578125004
  1
191
 41
0.7
 11
-681.757603534398
 21
1060.526009114583
 31
0.0
 73
     3
  0
TEXT
  5
1EE
  8
TOP90
 62
     7
 10
-602.382603534398
 20
1052.081666666666
 30
0.0
 40
28.432373046875
  1
※
 41
0.7
 11
-602.382603534398
 21
1080.514039713541
 31
0.0
 73
     3
  0
TEXT
  5
1EF
  8
TOP90
 62
     7
 10
-197.0816666666667
 20
1026.217396465602
 30
0.0
 40
28.432373046875
  1
※
 50
90.0
 41
0.7
 11
-225.5140397135417
 21
1026.217396465602
 31
0.0
 73
     3
  0
TEXT
  5
1F0
  8
DIMNSIONS
 62
     7
 10
-299.9999999924997
 20
-1716.512239957174
 30
0.0
 40
36.5559082022111
  1
(単位：mm)
 41
0.7
 11
-299.9999999924997
 21
-1679.956331754963
 31
0.0
 73
     3
  0
LINE
  5
1F1
  8
DIMNSIONS
  6
CONTINUOUS
 62
     7
 10
-252.0
 20
1082.0
 30
0.0
 11
-135.0
 21
1082.0
 31
0.0
  0
LINE
  5
1F2
  8
DIMNSIONS
  6
CONTINUOUS
 62
     7
 10
-252.0
 20
1400.0
 30
0.0
 11
-135.0
 21
1400.0
 31
0.0
  0
LINE
  5
1F3
  8
DIMNSIONS
  6
CONTINUOUS
 62
     7
 10
-150.0
 20
1082.0
 30
0.0
 11
-150.0
 21
1400.0
 31
0.0
  0
POLYLINE
  5
1F4
  8
DIMNSIONS
  6
CONTINUOUS
 62
     7
 66
     1
 10
0.0
 20
0.0
 30
0.0
 70
   128
  0
VERTEX
  5
58E
  8
DIMNSIONS
  6
CONTINUOUS
 62
     7
 10
-141.9620148566911
 20
1111.998168945312
 30
0.0
  0
VERTEX
  5
58F
  8
DIMNSIONS
  6
CONTINUOUS
 62
     7
 10
-150.0
 20
1082.0
 30
0.0
  0
VERTEX
  5
590
  8
DIMNSIONS
  6
CONTINUOUS
 62
     7
 10
-158.0379851433089
 20
1111.998168945312
 30
0.0
  0
SEQEND
  5
5C5
  8
DIMNSIONS
  6
CONTINUOUS
 62
     7
  0
POLYLINE
  5
1F9
  8
DIMNSIONS
  6
CONTINUOUS
 62
     7
 66
     1
 10
0.0
 20
0.0
 30
0.0
 70
   128
  0
VERTEX
  5
591
  8
DIMNSIONS
  6
CONTINUOUS
 62
     7
 10
-158.0379851433089
 20
1370.001831054688
 30
0.0
  0
VERTEX
  5
592
  8
DIMNSIONS
  6
CONTINUOUS
 62
     7
 10
-150.0
 20
1400.0
 30
0.0
  0
VERTEX
  5
593
  8
DIMNSIONS
  6
CONTINUOUS
 62
     7
 10
-141.9620148566911
 20
1370.001831054688
 30
0.0
  0
SEQEND
  5
5C6
  8
DIMNSIONS
  6
CONTINUOUS
 62
     7
  0
TEXT
  5
1FE
  8
DIMNSIONS
 62
     7
 10
-164.9083333333334
 20
1201.3125
 30
0.0
 40
40.61767578125004
  1
318
 50
90.0
 41
0.7
 11
-205.5260091145834
 21
1201.3125
 31
0.0
 73
     3
  0
LINE
  5
1FF
  8
DIMNSIONS
  6
CONTINUOUS
 62
     7
 10
-252.0
 20
1082.0
 30
0.0
 11
-135.0
 21
1082.0
 31
0.0
  0
LINE
  5
200
  8
DIMNSIONS
  6
CONTINUOUS
 62
     7
 10
-252.0
 20
891.0597929312046
 30
0.0
 11
-135.0
 21
891.0597929312046
 31
0.0
  0
LINE
  5
201
  8
DIMNSIONS
  6
CONTINUOUS
 62
     7
 10
-150.0
 20
1082.0
 30
0.0
 11
-150.0
 21
891.0597929312046
 31
0.0
  0
POLYLINE
  5
202
  8
DIMNSIONS
  6
CONTINUOUS
 62
     7
 66
     1
 10
0.0
 20
0.0
 30
0.0
 70
   128
  0
VERTEX
  5
594
  8
DIMNSIONS
  6
CONTINUOUS
 62
     7
 10
-158.0379851433089
 20
1052.001831054688
 30
0.0
  0
VERTEX
  5
595
  8
DIMNSIONS
  6
CONTINUOUS
 62
     7
 10
-150.0
 20
1082.0
 30
0.0
  0
VERTEX
  5
596
  8
DIMNSIONS
  6
CONTINUOUS
 62
     7
 10
-141.9620148566911
 20
1052.001831054688
 30
0.0
  0
SEQEND
  5
5C7
  8
DIMNSIONS
  6
CONTINUOUS
 62
     7
  0
POLYLINE
  5
207
  8
DIMNSIONS
  6
CONTINUOUS
 62
     7
 66
     1
 10
0.0
 20
0.0
 30
0.0
 70
   128
  0
VERTEX
  5
597
  8
DIMNSIONS
  6
CONTINUOUS
 62
     7
 10
-141.9620148566911
 20
921.0579618765171
 30
0.0
  0
VERTEX
  5
598
  8
DIMNSIONS
  6
CONTINUOUS
 62
     7
 10
-150.0
 20
891.0597929312046
 30
0.0
  0
VERTEX
  5
599
  8
DIMNSIONS
  6
CONTINUOUS
 62
     7
 10
-158.0379851433089
 20
921.0579618765171
 30
0.0
  0
SEQEND
  5
5C8
  8
DIMNSIONS
  6
CONTINUOUS
 62
     7
  0
TEXT
  5
20C
  8
DIMNSIONS
 62
     7
 10
-164.9083333333334
 20
946.8423964656023
 30
0.0
 40
40.61767578125004
  1
191
 50
90.0
 41
0.7
 11
-205.5260091145834
 21
946.8423964656023
 31
0.0
 73
     3
  0
LINE
  5
20D
  8
DIMNSIONS
  6
CONTINUOUS
 62
     7
 10
550.0
 20
215.5
 30
0.0
 11
550.0
 21
915.0
 31
0.0
  0
LINE
  5
20E
  8
DIMNSIONS
  6
CONTINUOUS
 62
     7
 10
232.0
 20
828.0
 30
0.0
 11
232.0
 21
915.0
 31
0.0
  0
LINE
  5
20F
  8
DIMNSIONS
  6
CONTINUOUS
 62
     7
 10
550.0
 20
900.0
 30
0.0
 11
232.0
 21
900.0
 31
0.0
  0
POLYLINE
  5
210
  8
DIMNSIONS
  6
CONTINUOUS
 62
     7
 66
     1
 10
0.0
 20
0.0
 30
0.0
 70
   128
  0
VERTEX
  5
59A
  8
DIMNSIONS
  6
CONTINUOUS
 62
     7
 10
520.0018310546875
 20
908.0379851433089
 30
0.0
  0
VERTEX
  5
59B
  8
DIMNSIONS
  6
CONTINUOUS
 62
     7
 10
550.0
 20
900.0
 30
0.0
  0
VERTEX
  5
59C
  8
DIMNSIONS
  6
CONTINUOUS
 62
     7
 10
520.0018310546875
 20
891.9620148566911
 30
0.0
  0
SEQEND
  5
5C9
  8
DIMNSIONS
  6
CONTINUOUS
 62
     7
  0
POLYLINE
  5
215
  8
DIMNSIONS
  6
CONTINUOUS
 62
     7
 66
     1
 10
0.0
 20
0.0
 30
0.0
 70
   128
  0
VERTEX
  5
59D
  8
DIMNSIONS
  6
CONTINUOUS
 62
     7
 10
261.9981689453125
 20
891.9620148566911
 30
0.0
  0
VERTEX
  5
59E
  8
DIMNSIONS
  6
CONTINUOUS
 62
     7
 10
232.0
 20
900.0
 30
0.0
  0
VERTEX
  5
59F
  8
DIMNSIONS
  6
CONTINUOUS
 62
     7
 10
261.9981689453125
 20
908.0379851433089
 30
0.0
  0
SEQEND
  5
5CA
  8
DIMNSIONS
  6
CONTINUOUS
 62
     7
  0
TEXT
  5
21A
  8
DIMNSIONS
 62
     7
 10
351.3125
 20
919.9083333333333
 30
0.0
 40
40.61767578125
  1
318
 41
0.7
 11
351.3125
 21
960.5260091145833
 31
0.0
 73
     3
  0
TEXT
  5
21B
  8
DATA
 62
     7
 10
-1319.999999966999
 20
-1782.410423288861
 30
0.0
 40
28.43237304616419
  1
※仕様及び外観は予告なく変更されることがあります。 
 41
0.7
 11
-1319.999999966999
 21
-1753.978050242697
 31
0.0
 73
     3
  0
TEXT
  5
21C
  8
DATA
 62
     7
 10
-1319.999999966999
 20
-1819.452089954602
 30
0.0
 40
28.43237304616419
  1
　また、同一商品でも若干の個体差があることがあります。ご了承ください。
 41
0.7
 11
-1319.999999966999
 21
-1791.019716908438
 31
0.0
 73
     3
  0
TEXT
  5
21D
  8
DATA
 62
     7
 10
749.9999999812499
 20
-1624.841239959467
 30
0.0
 40
36.5559082022111
  1
JBL PROFESSIONAL
 41
0.7
 11
749.9999999812499
 21
-1588.285331757256
 31
0.0
 73
     3
  0
TEXT
  5
21E
  8
DATA
 62
     7
 10
660.0
 20
-1676.254731625115
 30
0.0
 40
28.432373046875
  1
コラム型オールインワンPAシステム
 41
0.7
 11
660.0
 21
-1647.82235857824
 31
0.0
 73
     3
  0
TEXT
  5
21F
  8
DATA
 62
     7
 10
749.9999999812499
 20
-1729.781239957177
 30
0.0
 40
28.432373046875
  1
PRX ONE-Y3 + PRX ONE INSKIT
 41
0.7
 11
749.9999999812499
 21
-1701.348866910302
 31
0.0
 73
     3
  0
ARC
  5
220
  8
DATA
  6
CONTINUOUS
 62
     7
 10
-300.0
 20
1328.6
 30
0.0
 40
18.69999999999982
 50
180.0
 51
0.0
  0
LINE
  5
221
  8
DATA
  6
CONTINUOUS
 62
     7
 10
-279.25
 20
1347.0
 30
0.0
 11
-279.25
 21
1331.0
 31
0.0
  0
LINE
  5
222
  8
DATA
  6
CONTINUOUS
 62
     7
 10
-281.3000000000002
 20
1389.8
 30
0.0
 11
-293.0000000000027
 21
1389.8
 31
0.0
  0
LINE
  5
223
  8
DATA
  6
CONTINUOUS
 62
     7
 10
-306.9999999999973
 20
1389.8
 30
0.0
 11
-318.6999999999998
 21
1389.8
 31
0.0
  0
LINE
  5
224
  8
DATA
  6
CONTINUOUS
 62
     7
 10
-318.6999999999998
 20
1328.6
 30
0.0
 11
-318.6999999999998
 21
1389.8
 31
0.0
  0
LINE
  5
225
  8
DATA
  6
CONTINUOUS
 62
     7
 10
-281.3000000000002
 20
1328.6
 30
0.0
 11
-281.3000000000002
 21
1389.8
 31
0.0
  0
CIRCLE
  5
226
  8
DATA
  6
CONTINUOUS
 62
     7
 10
-300.0
 20
1328.6
 30
0.0
 40
6.900000000000546
  0
POLYLINE
  5
227
  8
DATA
  6
CONTINUOUS
 62
     7
 66
     1
 10
0.0
 20
0.0
 30
0.0
 70
   129
  0
VERTEX
  5
5A0
  8
DATA
  6
CONTINUOUS
 62
     7
 10
-300.0
 20
1334.25
 30
0.0
  0
VERTEX
  5
5A1
  8
DATA
  6
CONTINUOUS
 62
     7
 10
-304.8930435313823
 20
1331.425
 30
0.0
  0
VERTEX
  5
5A2
  8
DATA
  6
CONTINUOUS
 62
     7
 10
-304.8930435313823
 20
1325.775
 30
0.0
  0
VERTEX
  5
5A3
  8
DATA
  6
CONTINUOUS
 62
     7
 10
-300.0
 20
1322.95
 30
0.0
  0
VERTEX
  5
5A4
  8
DATA
  6
CONTINUOUS
 62
     7
 10
-295.1069564686177
 20
1325.775
 30
0.0
  0
VERTEX
  5
5A5
  8
DATA
  6
CONTINUOUS
 62
     7
 10
-295.1069564686177
 20
1331.425
 30
0.0
  0
SEQEND
  5
5CB
  8
DATA
  6
CONTINUOUS
 62
     7
  0
ARC
  5
22F
  8
DATA
  6
CONTINUOUS
 62
     7
 10
-284.25
 20
1331.0
 30
0.0
 40
4.999999999999887
 50
306.1570082009972
 51
0.0
  0
ARC
  5
230
  8
DATA
  6
CONTINUOUS
 62
     7
 10
-284.25
 20
1347.0
 30
0.0
 40
5.0
 50
0.0
 51
53.84299179900285
  0
LINE
  5
231
  8
DATA
  6
CONTINUOUS
 62
     7
 10
-320.75
 20
1347.0
 30
0.0
 11
-320.75
 21
1331.0
 31
0.0
  0
ARC
  5
232
  8
DATA
  6
CONTINUOUS
 62
     7
 10
-315.75
 20
1331.0
 30
0.0
 40
5.0
 50
180.0
 51
233.8429917990028
  0
ARC
  5
233
  8
DATA
  6
CONTINUOUS
 62
     7
 10
-315.75
 20
1347.0
 30
0.0
 40
4.999999999999887
 50
126.1570082009972
 51
180.0
  0
LINE
  5
234
  8
DATA
  6
CONTINUOUS
 62
     7
 10
-247.25
 20
1397.4
 30
0.0
 11
-247.25
 21
1400.0
 31
0.0
  0
LINE
  5
235
  8
DATA
  6
CONTINUOUS
 62
     7
 10
-247.25
 20
1400.0
 30
0.0
 11
-272.0943355202844
 21
1400.0
 31
0.0
  0
LINE
  5
236
  8
DATA
  6
CONTINUOUS
 62
     7
 10
-247.25
 20
1397.4
 30
0.0
 11
-272.0943355202844
 21
1397.4
 31
0.0
  0
LINE
  5
237
  8
DATA
  6
CONTINUOUS
 62
     7
 10
-278.5222835469795
 20
1389.483743609214
 30
0.0
 11
-274.1093038974495
 21
1396.303803067578
 31
0.0
  0
LINE
  5
238
  8
DATA
  6
CONTINUOUS
 62
     7
 10
-276.2921863060456
 20
1397.716256390786
 30
0.0
 11
-280.7051659555755
 21
1390.896196932423
 31
0.0
  0
ARC
  5
239
  8
DATA
  6
CONTINUOUS
 62
     7
 10
-272.0943355202844
 20
1395.0
 30
0.0
 40
5.0
 50
90.0
 51
147.0947570770144
  0
ARC
  5
23A
  8
DATA
  6
CONTINUOUS
 62
     7
 10
-272.0943355202844
 20
1395.0
 30
0.0
 40
2.400000000000091
 50
90.0
 51
147.0947570770105
  0
ARC
  5
23B
  8
DATA
  6
CONTINUOUS
 62
     7
 10
-282.7201343327406
 20
1392.2
 30
0.0
 40
2.400000000000091
 50
270.0
 51
327.0947570770105
  0
ARC
  5
23C
  8
DATA
  6
CONTINUOUS
 62
     7
 10
-282.7201343327406
 20
1392.2
 30
0.0
 40
5.000000000000163
 50
286.5006885071228
 51
327.0947570770144
  0
LINE
  5
23D
  8
DATA
  6
CONTINUOUS
 62
     7
 10
-352.75
 20
1397.4
 30
0.0
 11
-352.75
 21
1400.0
 31
0.0
  0
LINE
  5
23E
  8
DATA
  6
CONTINUOUS
 62
     7
 10
-352.75
 20
1400.0
 30
0.0
 11
-327.9056644797156
 21
1400.0
 31
0.0
  0
LINE
  5
23F
  8
DATA
  6
CONTINUOUS
 62
     7
 10
-352.75
 20
1397.4
 30
0.0
 11
-327.9056644797156
 21
1397.4
 31
0.0
  0
LINE
  5
240
  8
DATA
  6
CONTINUOUS
 62
     7
 10
-321.4777164530205
 20
1389.483743609214
 30
0.0
 11
-325.8906961025505
 21
1396.303803067578
 31
0.0
  0
LINE
  5
241
  8
DATA
  6
CONTINUOUS
 62
     7
 10
-323.7078136939544
 20
1397.716256390786
 30
0.0
 11
-319.2948340444245
 21
1390.896196932423
 31
0.0
  0
ARC
  5
242
  8
DATA
  6
CONTINUOUS
 62
     7
 10
-327.9056644797156
 20
1395.0
 30
0.0
 40
5.000000000000336
 50
32.90524292298559
 51
90.0
  0
ARC
  5
243
  8
DATA
  6
CONTINUOUS
 62
     7
 10
-327.9056644797156
 20
1395.0
 30
0.0
 40
2.400000000000008
 50
32.90524292298952
 51
90.0
  0
ARC
  5
244
  8
DATA
  6
CONTINUOUS
 62
     7
 10
-317.2798656672594
 20
1392.2
 30
0.0
 40
2.400000000000008
 50
212.9052429229895
 51
270.0
  0
ARC
  5
245
  8
DATA
  6
CONTINUOUS
 62
     7
 10
-317.2798656672594
 20
1392.2
 30
0.0
 40
5.000000000000336
 50
212.9052429229856
 51
253.4993114928772
  0
LINE
  5
246
  8
DATA
  6
CONTINUOUS
 62
     7
 10
-305.0
 20
1357.0
 30
0.0
 11
-305.0
 21
1387.800000000003
 31
0.0
  0
LINE
  5
247
  8
DATA
  6
CONTINUOUS
 62
     7
 10
-295.0
 20
1357.0
 30
0.0
 11
-295.0
 21
1387.800000000003
 31
0.0
  0
ARC
  5
248
  8
DATA
  6
CONTINUOUS
 62
     7
 10
-300.0
 20
1357.0
 30
0.0
 40
5.0
 50
180.0
 51
0.0
  0
LINE
  5
249
  8
DATA
  6
CONTINUOUS
 62
     7
 10
-305.0
 20
1387.800000000003
 30
0.0
 11
-295.0
 21
1387.800000000003
 31
0.0
  0
ARC
  5
24A
  8
DATA
  6
CONTINUOUS
 62
     7
 10
-291.7490434132333
 20
1386.549043413233
 30
0.0
 40
3.483333333321241
 50
111.0465483751924
 51
158.9534516247909
  0
ARC
  5
24B
  8
DATA
  6
CONTINUOUS
 62
     7
 10
-308.2509565867667
 20
1386.549043413233
 30
0.0
 40
3.483333333321143
 50
21.04654837520909
 51
68.95345162480757
  0
ARC
  5
24C
  8
DATA
  6
CONTINUOUS
 62
     7
 10
-343.7500000000002
 20
188.5
 30
0.0
 40
9.000000000000027
 50
101.2122714176482
 51
258.7877285823517
  0
ARC
  5
24D
  8
DATA
  6
CONTINUOUS
 62
     7
 10
-256.2500000000002
 20
188.5
 30
0.0
 40
9.000000000000004
 50
281.2122714176512
 51
78.78772858234882
  0
ARC
  5
24E
  8
DATA
  6
CONTINUOUS
 62
     7
 10
-343.7500000000002
 20
11.5
 30
0.0
 40
8.999999999999998
 50
101.2122714176482
 51
258.7877285823517
  0
ARC
  5
24F
  8
DATA
  6
CONTINUOUS
 62
     7
 10
-256.2500000000002
 20
11.5
 30
0.0
 40
9.000000000000004
 50
281.2122714176512
 51
78.78772858234882
  0
ARC
  5
250
  8
DATA
  6
CONTINUOUS
 62
     7
 10
-344.0
 20
188.4999999999993
 30
0.0
 40
3.150000000001281
 50
118.4368901488427
 51
241.5631098511572
  0
ARC
  5
251
  8
DATA
  6
CONTINUOUS
 62
     7
 10
-256.0000000000001
 20
188.4999999999996
 30
0.0
 40
3.150000000000135
 50
298.4368901488564
 51
61.56310985114356
  0
ARC
  5
252
  8
DATA
  6
CONTINUOUS
 62
     7
 10
-344.0000000000005
 20
11.49999999999997
 30
0.0
 40
3.150000000000489
 50
118.4368901488411
 51
241.5631098511586
  0
ARC
  5
253
  8
DATA
  6
CONTINUOUS
 62
     7
 10
-256.0000000000001
 20
11.50000000000097
 30
0.0
 40
3.149999999999636
 50
298.4368901488613
 51
61.5631098511387
  0
TEXT
  5
254
  8
DATA
 62
     7
 10
450.7791649779292
 20
134.4373312226329
 30
0.0
 40
3.384806315104167
  1
UP
 50
350.0
 41
0.7
 72
     1
 11
453.0175214113588
 21
135.7611597951948
 31
0.0
 73
     2
  0
TEXT
  5
255
  8
DATA
 62
     7
 10
414.6096244106449
 20
133.2715964166924
 30
0.0
 40
3.384806315104167
  1
DOWN
 50
10.0
 41
0.7
 72
     1
 11
418.9824785886412
 21
135.7611597951948
 31
0.0
 73
     2
  0
LINE
  5
256
  8
DATA
  6
CONTINUOUS
 62
     7
 10
394.0
 20
28.25
 30
0.0
 11
394.0
 21
39.7920271060384
 31
0.0
  0
LINE
  5
257
  8
DATA
  6
CONTINUOUS
 62
     7
 10
394.0
 20
160.2079728939614
 30
0.0
 11
394.0
 21
171.75
 31
0.0
  0
LINE
  5
258
  8
DATA
  6
CONTINUOUS
 62
     7
 10
497.0
 20
5.099999999999909
 30
0.0
 11
497.0
 21
194.9000000000001
 31
0.0
  0
LINE
  5
259
  8
DATA
  6
CONTINUOUS
 62
     7
 10
414.0
 20
191.75
 30
0.0
 11
497.0
 21
191.75
 31
0.0
  0
LINE
  5
25A
  8
DATA
  6
CONTINUOUS
 62
     7
 10
414.0
 20
8.25
 30
0.0
 11
497.0
 21
8.25
 31
0.0
  0
LINE
  5
25B
  8
DATA
  6
CONTINUOUS
 62
     7
 10
479.1999999999998
 20
8.25
 30
0.0
 11
479.1999999999998
 21
191.75
 31
0.0
  0
LINE
  5
25C
  8
DATA
  6
CONTINUOUS
 62
     7
 10
481.0
 20
8.25
 30
0.0
 11
481.0
 21
191.75
 31
0.0
  0
ARC
  5
25D
  8
DATA
  6
CONTINUOUS
 62
     7
 10
414.0
 20
171.75
 30
0.0
 40
20.0
 50
90.0
 51
180.0
  0
ARC
  5
25E
  8
DATA
  6
CONTINUOUS
 62
     7
 10
414.0
 20
28.25
 30
0.0
 40
20.0
 50
180.0
 51
270.0
  0
ARC
  5
25F
  8
DATA
  6
CONTINUOUS
 62
     7
 10
300.666666666667
 20
100.0
 30
0.0
 40
108.3333333333332
 50
332.0206677242547
 51
27.97933227574532
  0
ARC
  5
260
  8
DATA
  6
CONTINUOUS
 62
     7
 10
414.0
 20
160.2079728939614
 30
0.0
 40
20.0
 50
180.0
 51
207.9793322757457
  0
ARC
  5
261
  8
DATA
  6
CONTINUOUS
 62
     7
 10
414.0
 20
39.7920271060384
 30
0.0
 40
19.99999999999993
 50
152.0206677242538
 51
180.0
  0
LINE
  5
262
  8
DATA
  6
CONTINUOUS
 62
     7
 10
459.9000000000005
 20
198.4000000000001
 30
0.0
 11
535.3265006004794
 21
198.4000000000005
 31
0.0
  0
LINE
  5
263
  8
DATA
  6
CONTINUOUS
 62
     7
 10
474.0
 20
195.8000000000002
 30
0.0
 11
493.5
 21
195.8000000000002
 31
0.0
  0
LINE
  5
264
  8
DATA
  6
CONTINUOUS
 62
     7
 10
494.4000000000005
 20
191.75
 30
0.0
 11
494.4000000000005
 21
194.9000000000001
 31
0.0
  0
LINE
  5
265
  8
DATA
  6
CONTINUOUS
 62
     7
 10
474.0
 20
195.8000000000002
 30
0.0
 11
474.0
 21
198.4000000000001
 31
0.0
  0
ARC
  5
266
  8
DATA
  6
CONTINUOUS
 62
     7
 10
493.5
 20
194.9000000000001
 30
0.0
 40
3.5
 50
0.0
 51
90.0
  0
ARC
  5
267
  8
DATA
  6
CONTINUOUS
 62
     7
 10
493.5
 20
194.9000000000001
 30
0.0
 40
0.9000000000005457
 50
0.0
 51
90.0
  0
LINE
  5
268
  8
DATA
  6
CONTINUOUS
 62
     7
 10
550.0
 20
2.5
 30
0.0
 11
550.0
 21
20.5
 31
0.0
  0
LINE
  5
269
  8
DATA
  6
CONTINUOUS
 62
     7
 10
550.0
 20
179.5000000000002
 30
0.0
 11
550.0
 21
197.5
 31
0.0
  0
LINE
  5
26A
  8
DATA
  6
CONTINUOUS
 62
     7
 10
535.0303039929158
 20
201.0
 30
0.0
 11
459.9000000000005
 21
201.0
 31
0.0
  0
LINE
  5
26B
  8
DATA
  6
CONTINUOUS
 62
     7
 10
459.9000000000005
 20
1.599999999999909
 30
0.0
 11
535.3265006004794
 21
1.599999999999454
 31
0.0
  0
LINE
  5
26C
  8
DATA
  6
CONTINUOUS
 62
     7
 10
474.0
 20
4.199999999999818
 30
0.0
 11
493.5
 21
4.199999999999818
 31
0.0
  0
LINE
  5
26D
  8
DATA
  6
CONTINUOUS
 62
     7
 10
494.4000000000005
 20
8.25
 30
0.0
 11
494.4000000000005
 21
5.099999999999909
 31
0.0
  0
LINE
  5
26E
  8
DATA
  6
CONTINUOUS
 62
     7
 10
474.0
 20
4.199999999999818
 30
0.0
 11
474.0
 21
1.599999999999909
 31
0.0
  0
ARC
  5
26F
  8
DATA
  6
CONTINUOUS
 62
     7
 10
493.5
 20
5.099999999999909
 30
0.0
 40
3.5
 50
270.0
 51
0.0
  0
ARC
  5
270
  8
DATA
  6
CONTINUOUS
 62
     7
 10
493.5
 20
5.099999999999909
 30
0.0
 40
0.900000000000091
 50
270.0
 51
0.0
  0
LINE
  5
271
  8
DATA
  6
CONTINUOUS
 62
     7
 10
535.0303039929158
 20
-1.0
 30
0.0
 11
459.9000000000005
 21
-1.0
 31
0.0
  0
LINE
  5
272
  8
DATA
  6
CONTINUOUS
 62
     7
 10
535.0
 20
6.300000000000182
 30
0.0
 11
535.0
 21
193.7
 31
0.0
  0
LINE
  5
273
  8
DATA
  6
CONTINUOUS
 62
     7
 10
537.1999999999998
 20
197.5
 30
0.0
 11
550.0
 21
197.5
 31
0.0
  0
LINE
  5
274
  8
DATA
  6
CONTINUOUS
 62
     7
 10
550.0
 20
2.5
 30
0.0
 11
537.1999999999998
 21
2.5
 31
0.0
  0
LINE
  5
275
  8
DATA
  6
CONTINUOUS
 62
     7
 10
547.4000000000005
 20
2.5
 30
0.0
 11
547.4000000000005
 21
197.5
 31
0.0
  0
LINE
  5
276
  8
DATA
  6
CONTINUOUS
 62
     7
 10
547.4000000000005
 20
179.5
 30
0.0
 11
550.0
 21
179.5
 31
0.0
  0
LINE
  5
277
  8
DATA
  6
CONTINUOUS
 62
     7
 10
547.4000000000005
 20
20.5
 30
0.0
 11
550.0
 21
20.5
 31
0.0
  0
LINE
  5
278
  8
DATA
  6
CONTINUOUS
 62
     7
 10
459.9000000000005
 20
201.0
 30
0.0
 11
459.9000000000005
 21
198.4000000000001
 31
0.0
  0
LINE
  5
279
  8
DATA
  6
CONTINUOUS
 62
     7
 10
459.9000000000005
 20
1.599999999999909
 30
0.0
 11
459.9000000000005
 21
-1.0
 31
0.0
  0
LINE
  5
27A
  8
DATA
  6
CONTINUOUS
 62
     7
 10
537.1999999999998
 20
2.5
 30
0.0
 11
537.1999999999998
 21
197.5
 31
0.0
  0
ARC
  5
27B
  8
DATA
  6
CONTINUOUS
 62
     7
 10
535.0303039929158
 20
4.0
 30
0.0
 40
5.0
 50
270.0
 51
342.5423968762766
  0
ARC
  5
27C
  8
DATA
  6
CONTINUOUS
 62
     7
 10
535.3265006004794
 20
4.0
 30
0.0
 40
2.400000000000546
 50
270.0
 51
321.3178125465232
  0
ARC
  5
27D
  8
DATA
  6
CONTINUOUS
 62
     7
 10
535.0303039929158
 20
196.0
 30
0.0
 40
4.999999999999638
 50
17.4576031237234
 51
90.0
  0
ARC
  5
27E
  8
DATA
  6
CONTINUOUS
 62
     7
 10
535.3265006004794
 20
196.0000000000002
 30
0.0
 40
2.400000000000521
 50
38.68218745347252
 51
90.0
  0
LINE
  5
27F
  8
DATA
  6
CONTINUOUS
 62
     7
 10
533.0
 20
195.7
 30
0.0
 11
502.857596542126
 21
195.7
 31
0.0
  0
ARC
  5
280
  8
DATA
  6
CONTINUOUS
 62
     7
 10
533.0
 20
193.7
 30
0.0
 40
2.0
 50
0.0
 51
90.0
  0
ARC
  5
281
  8
DATA
  6
CONTINUOUS
 62
     7
 10
533.0
 20
6.300000000000182
 30
0.0
 40
2.0
 50
270.0
 51
0.0
  0
ARC
  5
282
  8
DATA
  6
CONTINUOUS
 62
     7
 10
510.8682999999992
 20
199.7306250000004
 30
0.0
 40
8.967569781195495
 50
188.5331666522202
 51
206.7094803008127
  0
LINE
  5
283
  8
DATA
  6
CONTINUOUS
 62
     7
 10
533.0
 20
4.300000000000182
 30
0.0
 11
502.857596542126
 21
4.300000000000182
 31
0.0
  0
ARC
  5
284
  8
DATA
  6
CONTINUOUS
 62
     7
 10
510.8682999999992
 20
0.2693749999998545
 30
0.0
 40
8.967569781195426
 50
153.2905196991873
 51
171.4668333477827
  0
CIRCLE
  5
285
  8
DATA
  6
CONTINUOUS
 62
     7
 10
436.0
 20
39.25
 30
0.0
 40
7.0
  0
CIRCLE
  5
286
  8
DATA
  6
CONTINUOUS
 62
     7
 10
436.0
 20
39.25
 30
0.0
 40
6.0
  0
LINE
  5
287
  8
DATA
  6
CONTINUOUS
 62
     7
 10
434.5566243270259
 20
41.75
 30
0.0
 11
437.4433756729741
 21
41.75
 31
0.0
  0
LINE
  5
288
  8
DATA
  6
CONTINUOUS
 62
     7
 10
433.1132486540519
 20
39.25
 30
0.0
 11
434.5566243270259
 21
41.75
 31
0.0
  0
LINE
  5
289
  8
DATA
  6
CONTINUOUS
 62
     7
 10
438.8867513459481
 20
39.25
 30
0.0
 11
437.4433756729741
 21
41.75
 31
0.0
  0
LINE
  5
28A
  8
DATA
  6
CONTINUOUS
 62
     7
 10
434.5566243270259
 20
36.75
 30
0.0
 11
437.4433756729741
 21
36.75
 31
0.0
  0
LINE
  5
28B
  8
DATA
  6
CONTINUOUS
 62
     7
 10
433.1132486540519
 20
39.25
 30
0.0
 11
434.5566243270259
 21
36.75
 31
0.0
  0
LINE
  5
28C
  8
DATA
  6
CONTINUOUS
 62
     7
 10
438.8867513459481
 20
39.25
 30
0.0
 11
437.4433756729741
 21
36.75
 31
0.0
  0
CIRCLE
  5
28D
  8
DATA
  6
CONTINUOUS
 62
     7
 10
425.9770895840193
 20
153.8123902805507
 30
0.0
 40
3.180000000000291
  0
CIRCLE
  5
28E
  8
DATA
  6
CONTINUOUS
 62
     7
 10
416.0304595683028
 20
152.502891596404
 30
0.0
 40
3.180000000000291
  0
CIRCLE
  5
28F
  8
DATA
  6
CONTINUOUS
 62
     7
 10
406.2358098132099
 20
150.3314700232429
 30
0.0
 40
3.180000000000291
  0
CIRCLE
  5
290
  8
DATA
  6
CONTINUOUS
 62
     7
 10
446.0229104159807
 20
153.8123902805507
 30
0.0
 40
3.180000000000291
  0
CIRCLE
  5
291
  8
DATA
  6
CONTINUOUS
 62
     7
 10
455.9695404316972
 20
152.502891596404
 30
0.0
 40
3.180000000000291
  0
CIRCLE
  5
292
  8
DATA
  6
CONTINUOUS
 62
     7
 10
465.7641901867901
 20
150.3314700232429
 30
0.0
 40
3.180000000000291
  0
ARC
  5
293
  8
DATA
  6
CONTINUOUS
 62
     7
 10
436.0
 20
39.25
 30
0.0
 40
133.1750000000001
 50
75.14663426420856
 51
87.7740432760769
  0
ARC
  5
294
  8
DATA
  6
CONTINUOUS
 62
     7
 10
436.0
 20
39.25
 30
0.0
 40
133.1750000000001
 50
92.228395571283
 51
104.8533657357914
  0
ARC
  5
295
  8
DATA
  6
CONTINUOUS
 62
     7
 10
436.0
 20
39.25
 30
0.0
 40
126.8250000000001
 50
75.14663426420843
 51
87.74053813437637
  0
ARC
  5
296
  8
DATA
  6
CONTINUOUS
 62
     7
 10
436.0
 20
39.25
 30
0.0
 40
126.825
 50
92.2619007129835
 51
104.8533657357916
  0
ARC
  5
297
  8
DATA
  6
CONTINUOUS
 62
     7
 10
402.6750000000002
 20
164.9060558628196
 30
0.0
 40
3.175000000000135
 50
104.8533657357202
 51
284.8533657358576
  0
ARC
  5
298
  8
DATA
  6
CONTINUOUS
 62
     7
 10
469.3249999999998
 20
164.9060558628196
 30
0.0
 40
3.174999999999802
 50
255.1466342641424
 51
75.14663426427978
  0
TEXT
  5
299
  8
DATA
 62
     7
 10
436.6022458335181
 20
140.5575968424479
 30
0.0
 40
3.384806315104167
  1
0°
 41
0.7
 72
     1
 11
437.9843750788523
 21
142.25
 31
0.0
 73
     2
  0
TEXT
  5
29A
  8
DATA
 62
     7
 10
426.6131924475746
 20
140.123336156756
 30
0.0
 40
3.384806315104167
  1
-5°
 50
5.0
 41
0.7
 72
     1
 11
429.2194294459086
 21
142.0502202112439
 31
0.0
 73
     2
  0
TEXT
  5
29B
  8
DATA
 62
     7
 10
417.8320877855352
 20
138.827074923835
 30
0.0
 40
3.384806315104167
  1
-10°
 50
10.0
 41
0.7
 72
     1
 11
420.8438103670615
 21
141.0766340775849
 31
0.0
 73
     2
  0
TEXT
  5
29C
  8
DATA
 62
     7
 10
409.0088844582771
 20
136.8990942933543
 30
0.0
 40
3.384806315104167
  1
-15°
 50
15.0
 41
0.7
 72
     1
 11
412.0038037176937
 21
139.4536851669759
 31
0.0
 73
     2
  0
TEXT
  5
29D
  8
DATA
 62
     7
 10
444.9033265447239
 20
140.1656352639601
 30
0.0
 40
3.384806315104167
  1
5°
 50
355.0
 41
0.7
 72
     1
 11
446.6243947146968
 21
141.7139291726039
 31
0.0
 73
     2
  0
TEXT
  5
29E
  8
DATA
 62
     7
 10
453.6243228118767
 20
139.0127861915642
 30
0.0
 40
3.384806315104167
  1
10°
 50
350.0
 41
0.7
 72
     1
 11
456.0571266162306
 21
140.3023284463043
 31
0.0
 73
     2
  0
TEXT
  5
29F
  8
DATA
 62
     7
 10
462.0614374812742
 20
137.1482007788725
 30
0.0
 40
3.384806315104167
  1
15°
 50
345.0
 41
0.7
 72
     1
 11
464.7880939361621
 21
138.1697000604127
 31
0.0
 73
     2
  0
ARC
  5
2A0
  8
DATA
  6
CONTINUOUS
 62
     7
 10
436.0
 20
39.25000000011642
 30
0.0
 40
97.99999999988366
 50
93.21726989368138
 51
97.07632225856528
  0
ARC
  5
2A1
  8
DATA
  6
CONTINUOUS
 62
     7
 10
436.0
 20
39.25000000011642
 30
0.0
 40
97.99999999988354
 50
102.9236777414601
 51
106.2967487856525
  0
ARC
  5
2A2
  8
DATA
  6
CONTINUOUS
 62
     7
 10
436.0
 20
39.25000000011642
 30
0.0
 40
97.99999999988366
 50
73.70325121434756
 51
78.53868990910513
  0
ARC
  5
2A3
  8
DATA
  6
CONTINUOUS
 62
     7
 10
436.0
 20
39.25000000011642
 30
0.0
 40
97.99999999988367
 50
81.46131009087158
 51
86.78273010631864
  0
CIRCLE
  5
2A4
  8
DATA
  6
CONTINUOUS
 62
     7
 10
436.0
 20
154.25
 30
0.0
 40
3.180000000000291
  0
CIRCLE
  5
2A5
  8
DATA
  6
CONTINUOUS
 62
     7
 10
-299.9999999999998
 20
-795.02125
 30
0.0
 40
11.75
  0
ARC
  5
2A6
  8
DATA
  6
CONTINUOUS
 62
     7
 10
-299.9999999999998
 20
-795.02125
 30
0.0
 40
8.800002677414637
 50
199.9322641506783
 51
347.1961668196983
  0
ARC
  5
2A7
  8
DATA
  6
CONTINUOUS
 62
     7
 10
-299.9999999999998
 20
-795.02125
 30
0.0
 40
8.799995993413626
 50
13.13656487499659
 51
160.0678804625851
  0
ARC
  5
2A8
  8
DATA
  6
CONTINUOUS
 62
     7
 10
-299.9999999999998
 20
-795.02125
 30
0.0
 40
6.200002162064217
 50
150.0000115355622
 51
240.0000115355585
  0
ARC
  5
2A9
  8
DATA
  6
CONTINUOUS
 62
     7
 10
-299.9999999999998
 20
-795.02125
 30
0.0
 40
6.200002162063823
 50
330.0000115355601
 51
60.00001153556224
  0
ARC
  5
2AA
  8
DATA
  6
CONTINUOUS
 62
     7
 10
-299.9999999999998
 20
-795.02125
 30
0.0
 40
5.625003831581032
 50
239.9996696821013
 51
330.0002126043028
  0
ARC
  5
2AB
  8
DATA
  6
CONTINUOUS
 62
     7
 10
-299.9999999999998
 20
-795.02125
 30
0.0
 40
5.624996152034259
 50
60.00021260430234
 51
150.0007182431216
  0
ARC
  5
2AC
  8
DATA
  6
CONTINUOUS
 62
     7
 10
-299.9999999999998
 20
-795.02125
 30
0.0
 40
3.59999008087534
 50
149.9999088547113
 51
239.9999088547014
  0
ARC
  5
2AD
  8
DATA
  6
CONTINUOUS
 62
     7
 10
-299.9999999999998
 20
-795.02125
 30
0.0
 40
3.599990080874946
 50
329.9999088547078
 51
59.99990885470771
  0
ARC
  5
2AE
  8
DATA
  6
CONTINUOUS
 62
     7
 10
-299.9999999999998
 20
-795.02125
 30
0.0
 40
2.900001820861436
 50
239.9997926340293
 51
330.0002336238281
  0
ARC
  5
2AF
  8
DATA
  6
CONTINUOUS
 62
     7
 10
-299.9999999999998
 20
-795.02125
 30
0.0
 40
2.900000481120561
 50
60.00023362383796
 51
149.9997926340327
  0
LINE
  5
2B0
  8
DATA
  6
CONTINUOUS
 62
     7
 10
-309.9999999999998
 20
-798.02125
 30
0.0
 11
-309.9999999999998
 21
-792.02125
 31
0.0
  0
LINE
  5
2B1
  8
DATA
  6
CONTINUOUS
 62
     7
 10
-289.9999999999998
 20
-797.02125
 30
0.0
 11
-289.9999999999998
 21
-793.02125
 31
0.0
  0
LINE
  5
2B2
  8
DATA
  6
CONTINUOUS
 62
     7
 10
-289.9999999999998
 20
-797.02125
 30
0.0
 11
-291.2
 21
-797.02125
 31
0.0
  0
LINE
  5
2B3
  8
DATA
  6
CONTINUOUS
 62
     7
 10
-289.9999999999998
 20
-793.02125
 30
0.0
 11
-291.2
 21
-793.02125
 31
0.0
  0
LINE
  5
2B4
  8
DATA
  6
CONTINUOUS
 62
     7
 10
-309.9999999999998
 20
-798.02125
 30
0.0
 11
-308.2728500000001
 21
-798.02125
 31
0.0
  0
LINE
  5
2B5
  8
DATA
  6
CONTINUOUS
 62
     7
 10
-309.9999999999998
 20
-792.02125
 30
0.0
 11
-308.2728500000001
 21
-792.02125
 31
0.0
  0
LINE
  5
2B6
  8
DATA
  6
CONTINUOUS
 62
     7
 10
-303.1000299999998
 20
-800.3905899999997
 30
0.0
 11
-302.8125299999999
 21
-799.89263
 31
0.0
  0
LINE
  5
2B7
  8
DATA
  6
CONTINUOUS
 62
     7
 10
-305.3693799999999
 20
-791.9212800000003
 30
0.0
 11
-304.87141
 21
-792.2087800000002
 31
0.0
  0
LINE
  5
2B8
  8
DATA
  6
CONTINUOUS
 62
     7
 10
-294.6306400000001
 20
-798.1212499999999
 30
0.0
 11
-295.12861
 21
-797.83375
 31
0.0
  0
LINE
  5
2B9
  8
DATA
  6
CONTINUOUS
 62
     7
 10
-296.9000199999998
 20
-789.6518800000001
 30
0.0
 11
-297.1875199999997
 21
-790.14985
 31
0.0
  0
LINE
  5
2BA
  8
DATA
  6
CONTINUOUS
 62
     7
 10
-303.1176899999998
 20
-793.2212699999998
 30
0.0
 11
-302.5114799999999
 21
-793.5712599999999
 31
0.0
  0
LINE
  5
2BB
  8
DATA
  6
CONTINUOUS
 62
     7
 10
-301.8000100000002
 20
-798.1389200000001
 30
0.0
 11
-301.4500099999998
 21
-797.5327199999999
 31
0.0
  0
LINE
  5
2BC
  8
DATA
  6
CONTINUOUS
 62
     7
 10
-296.8823199999999
 20
-796.8212499999997
 30
0.0
 11
-297.4885299999999
 21
-796.4712500000003
 31
0.0
  0
LINE
  5
2BD
  8
DATA
  6
CONTINUOUS
 62
     7
 10
-298.20002
 20
-791.90356
 30
0.0
 11
-298.5500100000002
 21
-792.5097699999999
 31
0.0
  0
LINE
  5
2BE
  8
DATA
  6
CONTINUOUS
 62
     7
 10
-254.4999999999998
 20
-818.7545371939871
 30
0.0
 11
-256.1561882557073
 21
-772.3769720642351
 31
0.0
  0
LINE
  5
2BF
  8
DATA
  6
CONTINUOUS
 62
     7
 10
-343.8438117442927
 20
-772.3769720642351
 30
0.0
 11
-345.4999999999998
 21
-818.7545371939871
 31
0.0
  0
ARC
  5
2C0
  8
DATA
  6
CONTINUOUS
 62
     7
 10
-299.9999999999998
 20
-742.9895833333333
 30
0.0
 40
92.26041666666684
 50
243.3638933096615
 51
296.6361066903383
  0
ARC
  5
2C1
  8
DATA
  6
CONTINUOUS
 62
     7
 10
-261.9999999999998
 20
-818.7545371939871
 30
0.0
 40
7.499999999999642
 50
296.6361066903376
 51
0.0
  0
ARC
  5
2C2
  8
DATA
  6
CONTINUOUS
 62
     7
 10
-337.9999999999998
 20
-818.7545371939871
 30
0.0
 40
7.5
 50
180.0
 51
243.3638933096593
  0
ARC
  5
2C3
  8
DATA
  6
CONTINUOUS
 62
     7
 10
-299.9999999999998
 20
-977.7500000000002
 30
0.0
 40
226.0000000000001
 50
83.11542853383663
 51
96.88457146616348
  0
LINE
  5
2C4
  8
DATA
  6
CONTINUOUS
 62
     7
 10
-331.8796331977226
 20
-755.9372095391684
 30
0.0
 11
-342.0367355759388
 21
-767.7563832156386
 31
0.0
  0
LINE
  5
2C5
  8
DATA
  6
CONTINUOUS
 62
     7
 10
-257.9632644240603
 20
-767.7563832156386
 30
0.0
 11
-268.120366802277
 21
-755.9372095391689
 31
0.0
  0
ARC
  5
2C6
  8
DATA
  6
CONTINUOUS
 62
     7
 10
-263.6514105473009
 20
-772.6446337902987
 30
0.0
 40
7.500000000000027
 50
2.045219271032721
 51
40.67493956526286
  0
ARC
  5
2C7
  8
DATA
  6
CONTINUOUS
 62
     7
 10
-273.8085129255176
 20
-760.8254601138285
 30
0.0
 40
7.499999999999821
 50
40.67493956526022
 51
83.11542853383706
  0
ARC
  5
2C8
  8
DATA
  6
CONTINUOUS
 62
     7
 10
-326.191487074482
 20
-760.8254601138285
 30
0.0
 40
7.500000000000028
 50
96.8845714661664
 51
139.3250604347371
  0
ARC
  5
2C9
  8
DATA
  6
CONTINUOUS
 62
     7
 10
-336.3485894526982
 20
-772.6446337902987
 30
0.0
 40
7.500000000000116
 50
139.3250604347371
 51
177.9547807289675
  0
LINE
  5
2CA
  8
DATA
  6
CONTINUOUS
 62
     7
 10
-258.595
 20
-816.4816288465279
 30
0.0
 11
-260.1021313126937
 21
-774.278044578454
 31
0.0
  0
LINE
  5
2CB
  8
DATA
  6
CONTINUOUS
 62
     7
 10
-339.8978686873058
 20
-774.278044578454
 30
0.0
 11
-341.4050000000004
 21
-816.4816288465279
 31
0.0
  0
ARC
  5
2CC
  8
DATA
  6
CONTINUOUS
 62
     7
 10
-299.9999999999998
 20
-747.5355208333333
 30
0.0
 40
83.9569791666669
 50
243.3638933096614
 51
296.6361066903383
  0
ARC
  5
2CD
  8
DATA
  6
CONTINUOUS
 62
     7
 10
-265.4199999999998
 20
-816.4816288465279
 30
0.0
 40
6.825000000000096
 50
296.6361066903376
 51
0.0
  0
ARC
  5
2CE
  8
DATA
  6
CONTINUOUS
 62
     7
 10
-334.5799999999997
 20
-816.4816288465279
 30
0.0
 40
6.825000000000728
 50
180.0
 51
243.363893309659
  0
ARC
  5
2CF
  8
DATA
  6
CONTINUOUS
 62
     7
 10
-299.9999999999998
 20
-961.1675000000002
 30
0.0
 40
205.6600000000002
 50
83.11542853383662
 51
96.88457146616338
  0
LINE
  5
2D0
  8
DATA
  6
CONTINUOUS
 62
     7
 10
-329.0104662099272
 20
-759.3178606806434
 30
0.0
 11
-338.2534293741044
 21
-770.0733087262313
 31
0.0
  0
LINE
  5
2D1
  8
DATA
  6
CONTINUOUS
 62
     7
 10
-261.7465706258952
 20
-770.0733087262313
 30
0.0
 11
-270.9895337900718
 21
-759.3178606806434
 31
0.0
  0
ARC
  5
2D2
  8
DATA
  6
CONTINUOUS
 62
     7
 10
-266.9227835980439
 20
-774.5216167491719
 30
0.0
 40
6.825000000000091
 50
2.045219271033274
 51
40.67493956526359
  0
ARC
  5
2D3
  8
DATA
  6
CONTINUOUS
 62
     7
 10
-276.165746762221
 20
-763.7661687035841
 30
0.0
 40
6.825000000000261
 50
40.67493956526108
 51
83.115428533836
  0
ARC
  5
2D4
  8
DATA
  6
CONTINUOUS
 62
     7
 10
-323.834253237779
 20
-763.7661687035836
 30
0.0
 40
6.824999999999608
 50
96.88457146616066
 51
139.3250604347368
  0
ARC
  5
2D5
  8
DATA
  6
CONTINUOUS
 62
     7
 10
-333.0772164019561
 20
-774.5216167491719
 30
0.0
 40
6.824999999999571
 50
139.3250604347339
 51
177.9547807289666
  0
LINE
  5
2D6
  8
DATA
  6
CONTINUOUS
 62
     7
 10
-265.6474999999998
 20
-812.5671755814599
 30
0.0
 11
-266.897922133059
 21
-777.5521139084974
 31
0.0
  0
LINE
  5
2D7
  8
DATA
  6
CONTINUOUS
 62
     7
 10
-333.1020778669406
 20
-777.5521139084974
 30
0.0
 11
-334.3524999999997
 21
-812.5671755814599
 31
0.0
  0
ARC
  5
2D8
  8
DATA
  6
CONTINUOUS
 62
     7
 10
-299.9999999999998
 20
-755.3646354166669
 30
0.0
 40
69.65661458333325
 50
243.3638933096613
 51
296.6361066903384
  0
ARC
  5
2D9
  8
DATA
  6
CONTINUOUS
 62
     7
 10
-271.3100000000002
 20
-812.5671755814599
 30
0.0
 40
5.662500000000266
 50
296.6361066903401
 51
0.0
  0
ARC
  5
2DA
  8
DATA
  6
CONTINUOUS
 62
     7
 10
-328.6900000000003
 20
-812.5671755814599
 30
0.0
 40
5.662499999999454
 50
180.0
 51
243.3638933096641
  0
ARC
  5
2DB
  8
DATA
  6
CONTINUOUS
 62
     7
 10
-299.9999999999998
 20
-932.6087500000001
 30
0.0
 40
170.6300000000001
 50
83.11542853383655
 51
96.88457146616346
  0
LINE
  5
2DC
  8
DATA
  6
CONTINUOUS
 62
     7
 10
-324.0691230642803
 20
-765.1400932020722
 30
0.0
 11
-331.7377353598347
 21
-774.0635693278075
 31
0.0
  0
LINE
  5
2DD
  8
DATA
  6
CONTINUOUS
 62
     7
 10
-268.2622646401658
 20
-774.0635693278075
 30
0.0
 11
-275.9308769357192
 21
-765.1400932020722
 31
0.0
  0
ARC
  5
2DE
  8
DATA
  6
CONTINUOUS
 62
     7
 10
-272.5568149632124
 20
-777.7541985116757
 30
0.0
 40
5.66250000000038
 50
2.045219271035239
 51
40.674939565261
  0
ARC
  5
2DF
  8
DATA
  6
CONTINUOUS
 62
     7
 10
-280.2254272587659
 20
-768.8307223859408
 30
0.0
 40
5.662500000000274
 50
40.67493956526448
 51
83.1154285338331
  0
ARC
  5
2E0
  8
DATA
  6
CONTINUOUS
 62
     7
 10
-319.7745727412346
 20
-768.8307223859404
 30
0.0
 40
5.662499999999803
 50
96.88457146615835
 51
139.325060434733
  0
ARC
  5
2E1
  8
DATA
  6
CONTINUOUS
 62
     7
 10
-327.4431850367871
 20
-777.7541985116757
 30
0.0
 40
5.662500000000668
 50
139.325060434745
 51
177.9547807289648
  0
POLYLINE
  5
2E2
  8
DATA
  6
CONTINUOUS
 62
     7
 66
     1
 10
0.0
 20
0.0
 30
0.0
 70
   129
  0
VERTEX
  5
5A6
  8
DATA
  6
CONTINUOUS
 62
     7
 10
-345.5
 20
-621.9999999999999
 30
0.0
  0
VERTEX
  5
5A7
  8
DATA
  6
CONTINUOUS
 62
     7
 10
-254.5
 20
-621.9999999999999
 30
0.0
  0
VERTEX
  5
5A8
  8
DATA
  6
CONTINUOUS
 62
     7
 10
-254.5
 20
-692.0499999999998
 30
0.0
  0
VERTEX
  5
5A9
  8
DATA
  6
CONTINUOUS
 62
     7
 10
-345.5
 20
-692.0499999999998
 30
0.0
  0
SEQEND
  5
5CC
  8
DATA
  6
CONTINUOUS
 62
     7
  0
LINE
  5
2E8
  8
DATA
  6
CONTINUOUS
 62
     7
 10
-341.5
 20
-703.7999999999998
 30
0.0
 11
-258.5
 21
-703.7999999999998
 31
0.0
  0
LINE
  5
2E9
  8
DATA
  6
CONTINUOUS
 62
     7
 10
-345.5
 20
-692.5499999999998
 30
0.0
 11
-254.5
 21
-692.5499999999998
 31
0.0
  0
LINE
  5
2EA
  8
DATA
  6
CONTINUOUS
 62
     7
 10
-345.0
 20
-692.0499999999998
 30
0.0
 11
-345.0
 21
-692.5499999999998
 31
0.0
  0
LINE
  5
2EB
  8
DATA
  6
CONTINUOUS
 62
     7
 10
-255.0
 20
-692.0499999999998
 30
0.0
 11
-255.0
 21
-692.5499999999998
 31
0.0
  0
ARC
  5
2EC
  8
DATA
  6
CONTINUOUS
 62
     7
 10
-300.0991290983593
 20
-682.6730874316946
 30
0.0
 40
46.65655341332851
 50
333.0753919953148
 51
347.7783563438655
  0
ARC
  5
2ED
  8
DATA
  6
CONTINUOUS
 62
     7
 10
-299.9008709016412
 20
-682.6730874316946
 30
0.0
 40
46.65655341332814
 50
192.2216436561346
 51
206.9246080046854
  0
LINE
  5
2EE
  8
DATA
  6
CONTINUOUS
 62
     7
 10
-330.0
 20
-620.0000000000001
 30
0.0
 11
-330.0
 21
-703.7999999999998
 31
0.0
  0
LINE
  5
2EF
  8
DATA
  6
CONTINUOUS
 62
     7
 10
-270.0
 20
-620.0000000000001
 30
0.0
 11
-270.0
 21
-703.7999999999998
 31
0.0
  0
LINE
  5
2F0
  8
DATA
  6
CONTINUOUS
 62
     7
 10
-342.5
 20
-620.0000000000001
 30
0.0
 11
-345.5
 21
-622.0000000000001
 31
0.0
  0
LINE
  5
2F1
  8
DATA
  6
CONTINUOUS
 62
     7
 10
-254.5
 20
-622.0000000000001
 30
0.0
 11
-257.5
 21
-620.0000000000001
 31
0.0
  0
LINE
  5
2F2
  8
DATA
  6
CONTINUOUS
 62
     7
 10
-343.75
 20
-622.0000000000001
 30
0.0
 11
-343.75
 21
-692.0499999999998
 31
0.0
  0
LINE
  5
2F3
  8
DATA
  6
CONTINUOUS
 62
     7
 10
-340.75
 20
-620.0000000000001
 30
0.0
 11
-343.75
 21
-622.0000000000001
 31
0.0
  0
ARC
  5
2F4
  8
DATA
  6
CONTINUOUS
 62
     7
 10
-298.1508709016412
 20
-682.6730874316946
 30
0.0
 40
46.65655341332814
 50
192.2216436561346
 51
206.9246080046854
  0
LINE
  5
2F5
  8
DATA
  6
CONTINUOUS
 62
     7
 10
-256.25
 20
-622.0000000000001
 30
0.0
 11
-256.25
 21
-692.0499999999998
 31
0.0
  0
LINE
  5
2F6
  8
DATA
  6
CONTINUOUS
 62
     7
 10
-259.25
 20
-620.0000000000001
 30
0.0
 11
-256.25
 21
-622.0000000000001
 31
0.0
  0
ARC
  5
2F7
  8
DATA
  6
CONTINUOUS
 62
     7
 10
-301.8491290983588
 20
-682.6730874316946
 30
0.0
 40
46.6565534133281
 50
333.0753919953145
 51
347.7783563438654
  0
LINE
  5
2F8
  8
DATA
  6
CONTINUOUS
 62
     7
 10
-343.25
 20
-692.0499999999998
 30
0.0
 11
-343.25
 21
-692.5499999999998
 31
0.0
  0
LINE
  5
2F9
  8
DATA
  6
CONTINUOUS
 62
     7
 10
-256.75
 20
-692.0499999999998
 30
0.0
 11
-256.75
 21
-692.5499999999998
 31
0.0
  0
ARC
  5
2FA
  8
DATA
  6
CONTINUOUS
 62
     7
 10
-300.0
 20
-996.6000000000004
 30
0.0
 40
18.69999999999982
 50
0.0
 51
180.0
  0
LINE
  5
2FB
  8
DATA
  6
CONTINUOUS
 62
     7
 10
-279.25
 20
-1015.0
 30
0.0
 11
-279.25
 21
-999.0
 31
0.0
  0
LINE
  5
2FC
  8
DATA
  6
CONTINUOUS
 62
     7
 10
-281.3000000000002
 20
-1057.8
 30
0.0
 11
-293.0000000000027
 21
-1057.8
 31
0.0
  0
LINE
  5
2FD
  8
DATA
  6
CONTINUOUS
 62
     7
 10
-306.9999999999973
 20
-1057.8
 30
0.0
 11
-318.6999999999998
 21
-1057.8
 31
0.0
  0
LINE
  5
2FE
  8
DATA
  6
CONTINUOUS
 62
     7
 10
-318.6999999999998
 20
-996.6000000000004
 30
0.0
 11
-318.6999999999998
 21
-1057.8
 31
0.0
  0
LINE
  5
2FF
  8
DATA
  6
CONTINUOUS
 62
     7
 10
-281.3000000000002
 20
-996.6000000000004
 30
0.0
 11
-281.3000000000002
 21
-1057.8
 31
0.0
  0
CIRCLE
  5
300
  8
DATA
  6
CONTINUOUS
 62
     7
 10
-300.0
 20
-996.6000000000004
 30
0.0
 40
6.900000000000546
  0
POLYLINE
  5
301
  8
DATA
  6
CONTINUOUS
 62
     7
 66
     1
 10
0.0
 20
0.0
 30
0.0
 70
   129
  0
VERTEX
  5
5AA
  8
DATA
  6
CONTINUOUS
 62
     7
 10
-300.0
 20
-1002.25
 30
0.0
  0
VERTEX
  5
5AB
  8
DATA
  6
CONTINUOUS
 62
     7
 10
-304.8930435313823
 20
-999.4250000000002
 30
0.0
  0
VERTEX
  5
5AC
  8
DATA
  6
CONTINUOUS
 62
     7
 10
-304.8930435313823
 20
-993.7750000000001
 30
0.0
  0
VERTEX
  5
5AD
  8
DATA
  6
CONTINUOUS
 62
     7
 10
-300.0
 20
-990.9500000000003
 30
0.0
  0
VERTEX
  5
5AE
  8
DATA
  6
CONTINUOUS
 62
     7
 10
-295.1069564686177
 20
-993.7750000000001
 30
0.0
  0
VERTEX
  5
5AF
  8
DATA
  6
CONTINUOUS
 62
     7
 10
-295.1069564686177
 20
-999.4250000000002
 30
0.0
  0
SEQEND
  5
5CD
  8
DATA
  6
CONTINUOUS
 62
     7
  0
ARC
  5
309
  8
DATA
  6
CONTINUOUS
 62
     7
 10
-284.25
 20
-999.0
 30
0.0
 40
5.0
 50
0.0
 51
53.84299179900285
  0
ARC
  5
30A
  8
DATA
  6
CONTINUOUS
 62
     7
 10
-284.25
 20
-1015.0
 30
0.0
 40
4.999999999999887
 50
306.1570082009972
 51
0.0
  0
LINE
  5
30B
  8
DATA
  6
CONTINUOUS
 62
     7
 10
-320.75
 20
-1015.0
 30
0.0
 11
-320.75
 21
-999.0
 31
0.0
  0
ARC
  5
30C
  8
DATA
  6
CONTINUOUS
 62
     7
 10
-315.75
 20
-999.0
 30
0.0
 40
4.999999999999887
 50
126.1570082009972
 51
180.0
  0
ARC
  5
30D
  8
DATA
  6
CONTINUOUS
 62
     7
 10
-315.75
 20
-1015.0
 30
0.0
 40
5.0
 50
180.0
 51
233.8429917990028
  0
LINE
  5
30E
  8
DATA
  6
CONTINUOUS
 62
     7
 10
-247.25
 20
-1065.4
 30
0.0
 11
-247.25
 21
-1068.0
 31
0.0
  0
LINE
  5
30F
  8
DATA
  6
CONTINUOUS
 62
     7
 10
-247.25
 20
-1068.0
 30
0.0
 11
-272.0943355202844
 21
-1068.0
 31
0.0
  0
LINE
  5
310
  8
DATA
  6
CONTINUOUS
 62
     7
 10
-247.25
 20
-1065.4
 30
0.0
 11
-272.0943355202844
 21
-1065.4
 31
0.0
  0
LINE
  5
311
  8
DATA
  6
CONTINUOUS
 62
     7
 10
-278.5222835469795
 20
-1057.483743609214
 30
0.0
 11
-274.1093038974495
 21
-1064.303803067578
 31
0.0
  0
LINE
  5
312
  8
DATA
  6
CONTINUOUS
 62
     7
 10
-276.2921863060456
 20
-1065.716256390786
 30
0.0
 11
-280.7051659555755
 21
-1058.896196932423
 31
0.0
  0
ARC
  5
313
  8
DATA
  6
CONTINUOUS
 62
     7
 10
-272.0943355202844
 20
-1063.0
 30
0.0
 40
5.000000000000336
 50
212.9052429229856
 51
270.0
  0
ARC
  5
314
  8
DATA
  6
CONTINUOUS
 62
     7
 10
-272.0943355202844
 20
-1063.0
 30
0.0
 40
2.400000000000008
 50
212.9052429229895
 51
270.0
  0
ARC
  5
315
  8
DATA
  6
CONTINUOUS
 62
     7
 10
-282.7201343327406
 20
-1060.2
 30
0.0
 40
2.400000000000008
 50
32.90524292298952
 51
90.0
  0
ARC
  5
316
  8
DATA
  6
CONTINUOUS
 62
     7
 10
-282.7201343327406
 20
-1060.2
 30
0.0
 40
5.000000000000336
 50
32.90524292298559
 51
73.4993114928771
  0
LINE
  5
317
  8
DATA
  6
CONTINUOUS
 62
     7
 10
-352.75
 20
-1065.4
 30
0.0
 11
-352.75
 21
-1068.0
 31
0.0
  0
LINE
  5
318
  8
DATA
  6
CONTINUOUS
 62
     7
 10
-352.75
 20
-1068.0
 30
0.0
 11
-327.9056644797156
 21
-1068.0
 31
0.0
  0
LINE
  5
319
  8
DATA
  6
CONTINUOUS
 62
     7
 10
-352.75
 20
-1065.4
 30
0.0
 11
-327.9056644797156
 21
-1065.4
 31
0.0
  0
LINE
  5
31A
  8
DATA
  6
CONTINUOUS
 62
     7
 10
-321.4777164530205
 20
-1057.483743609214
 30
0.0
 11
-325.8906961025505
 21
-1064.303803067578
 31
0.0
  0
LINE
  5
31B
  8
DATA
  6
CONTINUOUS
 62
     7
 10
-323.7078136939544
 20
-1065.716256390786
 30
0.0
 11
-319.2948340444245
 21
-1058.896196932423
 31
0.0
  0
ARC
  5
31C
  8
DATA
  6
CONTINUOUS
 62
     7
 10
-327.9056644797156
 20
-1063.0
 30
0.0
 40
5.0
 50
270.0
 51
327.0947570770144
  0
ARC
  5
31D
  8
DATA
  6
CONTINUOUS
 62
     7
 10
-327.9056644797156
 20
-1063.0
 30
0.0
 40
2.400000000000091
 50
270.0
 51
327.0947570770105
  0
ARC
  5
31E
  8
DATA
  6
CONTINUOUS
 62
     7
 10
-317.2798656672594
 20
-1060.2
 30
0.0
 40
2.400000000000091
 50
90.0
 51
147.0947570770105
  0
ARC
  5
31F
  8
DATA
  6
CONTINUOUS
 62
     7
 10
-317.2798656672594
 20
-1060.2
 30
0.0
 40
5.000000000000163
 50
106.5006885071229
 51
147.0947570770144
  0
LINE
  5
320
  8
DATA
  6
CONTINUOUS
 62
     7
 10
-305.0
 20
-1025.0
 30
0.0
 11
-305.0
 21
-1055.800000000003
 31
0.0
  0
LINE
  5
321
  8
DATA
  6
CONTINUOUS
 62
     7
 10
-295.0
 20
-1025.0
 30
0.0
 11
-295.0
 21
-1055.800000000003
 31
0.0
  0
ARC
  5
322
  8
DATA
  6
CONTINUOUS
 62
     7
 10
-300.0
 20
-1025.0
 30
0.0
 40
5.0
 50
0.0
 51
180.0
  0
LINE
  5
323
  8
DATA
  6
CONTINUOUS
 62
     7
 10
-305.0
 20
-1055.800000000003
 30
0.0
 11
-295.0
 21
-1055.800000000003
 31
0.0
  0
ARC
  5
324
  8
DATA
  6
CONTINUOUS
 62
     7
 10
-291.7490434132333
 20
-1054.549043413233
 30
0.0
 40
3.483333333321143
 50
201.0465483752091
 51
248.9534516248076
  0
ARC
  5
325
  8
DATA
  6
CONTINUOUS
 62
     7
 10
-308.2509565867667
 20
-1054.549043413233
 30
0.0
 40
3.483333333321241
 50
291.0465483751925
 51
338.9534516247909
  0
LINE
  5
326
  8
DATA
  6
CONTINUOUS
 62
     7
 10
-260.5
 20
-838.0
 30
0.0
 11
-260.5
 21
-840.5999999999999
 31
0.0
  0
LINE
  5
327
  8
DATA
  6
CONTINUOUS
 62
     7
 10
-260.5
 20
-840.5999999999999
 30
0.0
 11
-282.8000000000002
 21
-840.5999999999999
 31
0.0
  0
LINE
  5
328
  8
DATA
  6
CONTINUOUS
 62
     7
 10
-307.1999999999998
 20
-848.0
 30
0.0
 11
-307.1999999999998
 21
-962.9999999999995
 31
0.0
  0
LINE
  5
329
  8
DATA
  6
CONTINUOUS
 62
     7
 10
-292.8000000000002
 20
-848.0
 30
0.0
 11
-292.8000000000002
 21
-962.9999999999995
 31
0.0
  0
LINE
  5
32A
  8
DATA
  6
CONTINUOUS
 62
     7
 10
-309.8000000000002
 20
-848.0
 30
0.0
 11
-309.8000000000002
 21
-963.0
 31
0.0
  0
LINE
  5
32B
  8
DATA
  6
CONTINUOUS
 62
     7
 10
-290.1999999999998
 20
-847.9999999999998
 30
0.0
 11
-290.1999999999998
 21
-962.9999999999998
 31
0.0
  0
LINE
  5
32C
  8
DATA
  6
CONTINUOUS
 62
     7
 10
-293.1999999999998
 20
-965.9999999999998
 30
0.0
 11
-306.8000000000002
 21
-966.0
 31
0.0
  0
LINE
  5
32D
  8
DATA
  6
CONTINUOUS
 62
     7
 10
-293.1999999999998
 20
-963.4000000000001
 30
0.0
 11
-306.8000000000002
 21
-963.4000000000001
 31
0.0
  0
ARC
  5
32E
  8
DATA
  6
CONTINUOUS
 62
     7
 10
-306.8000000000002
 20
-963.0
 30
0.0
 40
3.0
 50
180.0
 51
270.0
  0
ARC
  5
32F
  8
DATA
  6
CONTINUOUS
 62
     7
 10
-293.1999999999998
 20
-962.9999999999998
 30
0.0
 40
3.0
 50
270.0
 51
0.0
  0
ARC
  5
330
  8
DATA
  6
CONTINUOUS
 62
     7
 10
-293.1999999999998
 20
-962.9999999999998
 30
0.0
 40
0.3999999999998636
 50
270.0
 51
0.0
  0
ARC
  5
331
  8
DATA
  6
CONTINUOUS
 62
     7
 10
-306.8000000000002
 20
-962.9999999999998
 30
0.0
 40
0.3999999999996362
 50
180.0
 51
270.0
  0
ARC
  5
332
  8
DATA
  6
CONTINUOUS
 62
     7
 10
-282.8000000000002
 20
-848.0
 30
0.0
 40
10.0
 50
90.0
 51
180.0
  0
ARC
  5
333
  8
DATA
  6
CONTINUOUS
 62
     7
 10
-282.8000000000002
 20
-848.0
 30
0.0
 40
7.399999999999864
 50
90.0
 51
180.0
  0
LINE
  5
334
  8
DATA
  6
CONTINUOUS
 62
     7
 10
-339.5
 20
-838.0
 30
0.0
 11
-339.5
 21
-840.5999999999999
 31
0.0
  0
LINE
  5
335
  8
DATA
  6
CONTINUOUS
 62
     7
 10
-339.5
 20
-840.5999999999999
 30
0.0
 11
-317.1999999999998
 21
-840.5999999999999
 31
0.0
  0
ARC
  5
336
  8
DATA
  6
CONTINUOUS
 62
     7
 10
-317.1999999999998
 20
-848.0
 30
0.0
 40
7.399999999999636
 50
0.0
 51
90.0
  0
LINE
  5
337
  8
DATA
  6
CONTINUOUS
 62
     7
 10
-296.1999999999998
 20
-860.3499999999999
 30
0.0
 11
-296.1999999999998
 21
-939.1140023169633
 31
0.0
  0
ARC
  5
338
  8
DATA
  6
CONTINUOUS
 62
     7
 10
-291.4693749999997
 20
-931.4957023169636
 30
0.0
 40
8.967569781196065
 50
238.1615606332874
 51
261.4668333477774
  0
ARC
  5
339
  8
DATA
  6
CONTINUOUS
 62
     7
 10
-291.4693749999997
 20
-867.9682999999995
 30
0.0
 40
8.967569781196012
 50
98.53316665222265
 51
121.8384393667126
  0
LINE
  5
33A
  8
DATA
  6
CONTINUOUS
 62
     7
 10
-303.8000000000002
 20
-860.3499999999999
 30
0.0
 11
-303.8000000000002
 21
-939.1140023169633
 31
0.0
  0
ARC
  5
33B
  8
DATA
  6
CONTINUOUS
 62
     7
 10
-308.5306250000003
 20
-931.4957023169636
 30
0.0
 40
8.967569781196012
 50
278.5331666522226
 51
301.8384393667126
  0
ARC
  5
33C
  8
DATA
  6
CONTINUOUS
 62
     7
 10
-308.5306250000003
 20
-867.9682999999995
 30
0.0
 40
8.967569781196065
 50
58.16156063328737
 51
81.46683334777737
  0
LINE
  5
33D
  8
DATA
  6
CONTINUOUS
 62
     7
 10
-289.3499999999995
 20
-951.4000000000005
 30
0.0
 11
-290.1999999999994
 21
-951.4000000000005
 31
0.0
  0
LINE
  5
33E
  8
DATA
  6
CONTINUOUS
 62
     7
 10
-292.7999999999997
 20
-951.4000000000005
 30
0.0
 11
-307.1999999999998
 21
-951.4000000000005
 31
0.0
  0
LINE
  5
33F
  8
DATA
  6
CONTINUOUS
 62
     7
 10
-309.8000000000002
 20
-951.4000000000005
 30
0.0
 11
-310.6500000000005
 21
-951.4000000000005
 31
0.0
  0
LINE
  5
340
  8
DATA
  6
CONTINUOUS
 62
     7
 10
-289.3499999999995
 20
-948.4500000000005
 30
0.0
 11
-290.1999999999994
 21
-948.4500000000005
 31
0.0
  0
LINE
  5
341
  8
DATA
  6
CONTINUOUS
 62
     7
 10
-292.7999999999997
 20
-948.4500000000005
 30
0.0
 11
-307.1999999999998
 21
-948.4500000000005
 31
0.0
  0
LINE
  5
342
  8
DATA
  6
CONTINUOUS
 62
     7
 10
-309.8000000000002
 20
-948.4500000000005
 30
0.0
 11
-310.6500000000005
 21
-948.4500000000005
 31
0.0
  0
LINE
  5
343
  8
DATA
  6
CONTINUOUS
 62
     7
 10
-289.3499999999995
 20
-981.2290045865602
 30
0.0
 11
-289.3499999999995
 21
-912.0000000000005
 31
0.0
  0
LINE
  5
344
  8
DATA
  6
CONTINUOUS
 62
     7
 10
-310.6500000000005
 20
-981.2290045865602
 30
0.0
 11
-310.6500000000005
 21
-912.0000000000005
 31
0.0
  0
LINE
  5
345
  8
DATA
  6
CONTINUOUS
 62
     7
 10
-313.25
 20
-983.404262051708
 30
0.0
 11
-313.25
 21
-912.0000000000005
 31
0.0
  0
LINE
  5
346
  8
DATA
  6
CONTINUOUS
 62
     7
 10
-286.75
 20
-983.404262051708
 30
0.0
 11
-286.75
 21
-912.0000000000005
 31
0.0
  0
LINE
  5
347
  8
DATA
  6
CONTINUOUS
 62
     7
 10
-286.75
 20
-912.0
 30
0.0
 11
-289.3499999999995
 21
-912.0
 31
0.0
  0
LINE
  5
348
  8
DATA
  6
CONTINUOUS
 62
     7
 10
-310.6500000000005
 20
-912.0
 30
0.0
 11
-313.25
 21
-912.0
 31
0.0
  0
LINE
  5
349
  8
DATA
  6
CONTINUOUS
 62
     7
 10
-285.75
 20
-961.0
 30
0.0
 11
-286.75
 21
-961.0
 31
0.0
  0
LINE
  5
34A
  8
DATA
  6
CONTINUOUS
 62
     7
 10
-285.75
 20
-947.0
 30
0.0
 11
-286.75
 21
-947.0
 31
0.0
  0
LINE
  5
34B
  8
DATA
  6
CONTINUOUS
 62
     7
 10
-285.75
 20
-961.0
 30
0.0
 11
-285.75
 21
-947.0
 31
0.0
  0
LINE
  5
34C
  8
DATA
  6
CONTINUOUS
 62
     7
 10
-284.0500000000002
 20
-959.0
 30
0.0
 11
-285.75
 21
-959.0
 31
0.0
  0
LINE
  5
34D
  8
DATA
  6
CONTINUOUS
 62
     7
 10
-284.0500000000002
 20
-949.0
 30
0.0
 11
-285.75
 21
-949.0
 31
0.0
  0
LINE
  5
34E
  8
DATA
  6
CONTINUOUS
 62
     7
 10
-284.0500000000002
 20
-960.0
 30
0.0
 11
-284.0500000000002
 21
-948.0
 31
0.0
  0
LINE
  5
34F
  8
DATA
  6
CONTINUOUS
 62
     7
 10
-279.9499999999998
 20
-960.0
 30
0.0
 11
-279.9499999999998
 21
-948.0
 31
0.0
  0
LINE
  5
350
  8
DATA
  6
CONTINUOUS
 62
     7
 10
-279.9499999999998
 20
-960.0
 30
0.0
 11
-284.0500000000002
 21
-960.0
 31
0.0
  0
LINE
  5
351
  8
DATA
  6
CONTINUOUS
 62
     7
 10
-279.9499999999998
 20
-948.0
 30
0.0
 11
-284.0500000000002
 21
-948.0
 31
0.0
  0
LINE
  5
352
  8
DATA
  6
CONTINUOUS
 62
     7
 10
-314.25
 20
-961.0
 30
0.0
 11
-313.25
 21
-961.0
 31
0.0
  0
LINE
  5
353
  8
DATA
  6
CONTINUOUS
 62
     7
 10
-314.25
 20
-947.0
 30
0.0
 11
-313.25
 21
-947.0
 31
0.0
  0
LINE
  5
354
  8
DATA
  6
CONTINUOUS
 62
     7
 10
-314.25
 20
-961.0
 30
0.0
 11
-314.25
 21
-947.0
 31
0.0
  0
LINE
  5
355
  8
DATA
  6
CONTINUOUS
 62
     7
 10
-315.9499999999998
 20
-959.0
 30
0.0
 11
-314.25
 21
-959.0
 31
0.0
  0
LINE
  5
356
  8
DATA
  6
CONTINUOUS
 62
     7
 10
-315.9499999999998
 20
-949.0
 30
0.0
 11
-314.25
 21
-949.0
 31
0.0
  0
LINE
  5
357
  8
DATA
  6
CONTINUOUS
 62
     7
 10
-315.9499999999998
 20
-959.5500000000002
 30
0.0
 11
-315.9499999999998
 21
-948.4500000000003
 31
0.0
  0
LINE
  5
358
  8
DATA
  6
CONTINUOUS
 62
     7
 10
-284.0500000000002
 20
-952.0
 30
0.0
 11
-285.75
 21
-952.0
 31
0.0
  0
LINE
  5
359
  8
DATA
  6
CONTINUOUS
 62
     7
 10
-315.9499999999998
 20
-956.0
 30
0.0
 11
-314.25
 21
-956.0
 31
0.0
  0
LINE
  5
35A
  8
DATA
  6
CONTINUOUS
 62
     7
 10
-320.4499999999998
 20
-959.5499999999997
 30
0.0
 11
-320.4499999999998
 21
-948.4500000000003
 31
0.0
  0
LINE
  5
35B
  8
DATA
  6
CONTINUOUS
 62
     7
 10
-320.4499999999998
 20
-959.5500000000002
 30
0.0
 11
-315.9499999999998
 21
-959.5500000000002
 31
0.0
  0
LINE
  5
35C
  8
DATA
  6
CONTINUOUS
 62
     7
 10
-320.4499999999998
 20
-948.4500000000003
 30
0.0
 11
-315.9499999999998
 21
-948.4500000000003
 31
0.0
  0
LINE
  5
35D
  8
DATA
  6
CONTINUOUS
 62
     7
 10
-320.4499999999998
 20
-951.2250000000004
 30
0.0
 11
-315.9499999999998
 21
-951.2250000000004
 31
0.0
  0
LINE
  5
35E
  8
DATA
  6
CONTINUOUS
 62
     7
 10
-320.4499999999998
 20
-956.7750000000001
 30
0.0
 11
-315.9499999999998
 21
-956.7750000000001
 31
0.0
  0
LINE
  5
35F
  8
DATA
  6
CONTINUOUS
 62
     7
 10
-340.356197917572
 20
-827.4875002170375
 30
0.0
 11
-340.3937499999993
 21
-836.5000000000296
 31
0.0
  0
LINE
  5
360
  8
DATA
  6
CONTINUOUS
 62
     7
 10
-259.6062500000007
 20
-836.5000000000568
 30
0.0
 11
-259.643802082428
 21
-827.48750021708
 31
0.0
  0
LINE
  5
361
  8
DATA
  6
CONTINUOUS
 62
     7
 10
-339.5
 20
-838.0
 30
0.0
 11
-260.5
 21
-838.0
 31
0.0
  0
ARC
  5
362
  8
DATA
  6
CONTINUOUS
 62
     7
 10
-338.8937499999993
 20
-836.5
 30
0.0
 40
1.500000000000635
 50
179.5225379326663
 51
270.0
  0
ARC
  5
363
  8
DATA
  6
CONTINUOUS
 62
     7
 10
-338.8562500000007
 20
-827.5
 30
0.0
 40
1.5
 50
90.0
 51
180.0
  0
ARC
  5
364
  8
DATA
  6
CONTINUOUS
 62
     7
 10
-261.1062500000007
 20
-836.5
 30
0.0
 40
1.5
 50
270.0
 51
0.477462067333704
  0
ARC
  5
365
  8
DATA
  6
CONTINUOUS
 62
     7
 10
-261.1437499999993
 20
-827.5
 30
0.0
 40
1.5
 50
0.0
 51
90.0
  0
ARC
  5
366
  8
DATA
  6
CONTINUOUS
 62
     7
 10
-300.0
 20
-741.4377550551478
 30
0.0
 40
93.06224494485255
 50
245.3212757486322
 51
294.6787242513677
  0
LINE
  5
367
  8
DATA
  6
CONTINUOUS
 62
     7
 10
-337.4648631564924
 20
-829.5671575582408
 30
0.0
 11
-337.4883333333328
 21
-835.1999999999998
 31
0.0
  0
LINE
  5
368
  8
DATA
  6
CONTINUOUS
 62
     7
 10
-337.4883333333328
 20
-835.2
 30
0.0
 11
-329.1883333333335
 21
-835.2
 31
0.0
  0
ARC
  5
369
  8
DATA
  6
CONTINUOUS
 62
     7
 10
-300.0
 20
-741.4377550551478
 30
0.0
 40
95.76224494490019
 50
246.9690747183841
 51
252.2605507093509
  0
LINE
  5
36A
  8
DATA
  6
CONTINUOUS
 62
     7
 10
-329.1776945390284
 20
-832.6466893668382
 30
0.0
 11
-329.1883333333335
 21
-835.1999999999998
 31
0.0
  0
LINE
  5
36B
  8
DATA
  6
CONTINUOUS
 62
     7
 10
-262.5351368435076
 20
-829.5671575582408
 30
0.0
 11
-262.5116666666672
 21
-835.1999999999998
 31
0.0
  0
LINE
  5
36C
  8
DATA
  6
CONTINUOUS
 62
     7
 10
-262.5116666666672
 20
-835.2
 30
0.0
 11
-270.8116666666665
 21
-835.2
 31
0.0
  0
ARC
  5
36D
  8
DATA
  6
CONTINUOUS
 62
     7
 10
-300.0
 20
-741.4377550551478
 30
0.0
 40
95.76224494489998
 50
287.7394492906491
 51
293.030925281616
  0
LINE
  5
36E
  8
DATA
  6
CONTINUOUS
 62
     7
 10
-270.8223054609716
 20
-832.6466893668382
 30
0.0
 11
-270.8116666666665
 21
-835.1999999999998
 31
0.0
  0
ARC
  5
36F
  8
DATA
  6
CONTINUOUS
 62
     7
 10
-300.0
 20
-741.4377550551478
 30
0.0
 40
92.62203787605687
 50
245.3212757486323
 51
294.6787242513677
  0
LINE
  5
370
  8
DATA
  6
CONTINUOUS
 62
     7
 10
-261.3275495196331
 20
-825.5999999999999
 30
0.0
 11
-261.1437499999993
 21
-826.0
 31
0.0
  0
LINE
  5
371
  8
DATA
  6
CONTINUOUS
 62
     7
 10
-338.6724504803669
 20
-825.5999999999999
 30
0.0
 11
-338.8562500000007
 21
-826.0
 31
0.0
  0
LINE
  5
372
  8
DATA
  6
CONTINUOUS
 62
     7
 10
-254.5
 20
810.0
 30
0.0
 11
-254.5
 21
-620.0000000000001
 31
0.0
  0
LINE
  5
373
  8
DATA
  6
CONTINUOUS
 62
     7
 10
-256.6000000000004
 20
108.5
 30
0.0
 11
-256.6000000000004
 21
801.0
 31
0.0
  0
LINE
  5
374
  8
DATA
  6
CONTINUOUS
 62
     7
 10
-343.3999999999996
 20
108.5
 30
0.0
 11
-343.3999999999996
 21
801.0
 31
0.0
  0
LINE
  5
375
  8
DATA
  6
CONTINUOUS
 62
     7
 10
-258.3000000000002
 20
108.5
 30
0.0
 11
-258.3000000000002
 21
801.0
 31
0.0
  0
LINE
  5
376
  8
DATA
  6
CONTINUOUS
 62
     7
 10
-341.6999999999998
 20
108.5
 30
0.0
 11
-341.6999999999998
 21
801.0
 31
0.0
  0
LINE
  5
377
  8
DATA
  6
CONTINUOUS
 62
     7
 10
-330.0
 20
810.0
 30
0.0
 11
-330.0
 21
-620.0000000000001
 31
0.0
  0
LINE
  5
378
  8
DATA
  6
CONTINUOUS
 62
     7
 10
-270.0
 20
810.0
 30
0.0
 11
-270.0
 21
-620.0000000000001
 31
0.0
  0
LINE
  5
379
  8
DATA
  6
CONTINUOUS
 62
     7
 10
-345.5
 20
810.0
 30
0.0
 11
-345.5
 21
-620.0000000000001
 31
0.0
  0
LINE
  5
37A
  8
DATA
  6
CONTINUOUS
 62
     7
 10
-254.5
 20
100.0
 30
0.0
 11
-345.5
 21
100.0
 31
0.0
  0
LINE
  5
37B
  8
DATA
  6
CONTINUOUS
 62
     7
 10
-259.0
 20
818.0
 30
0.0
 11
-341.0
 21
818.0
 31
0.0
  0
LINE
  5
37C
  8
DATA
  6
CONTINUOUS
 62
     7
 10
-256.6000000000004
 20
108.5
 30
0.0
 11
-343.3999999999996
 21
108.5
 31
0.0
  0
LINE
  5
37D
  8
DATA
  6
CONTINUOUS
 62
     7
 10
-254.5
 20
801.0
 30
0.0
 11
-345.5
 21
801.0
 31
0.0
  0
LINE
  5
37E
  8
DATA
  6
CONTINUOUS
 62
     7
 10
-254.5
 20
810.0
 30
0.0
 11
-345.5
 21
810.0
 31
0.0
  0
LINE
  5
37F
  8
DATA
  6
CONTINUOUS
 62
     7
 10
-345.5
 20
810.0
 30
0.0
 11
-341.0
 21
818.0
 31
0.0
  0
LINE
  5
380
  8
DATA
  6
CONTINUOUS
 62
     7
 10
-259.0
 20
818.0
 30
0.0
 11
-254.5
 21
810.0
 31
0.0
  0
LINE
  5
381
  8
DATA
  6
CONTINUOUS
 62
     7
 10
-330.0
 20
810.0
 30
0.0
 11
-325.5
 21
818.0
 31
0.0
  0
LINE
  5
382
  8
DATA
  6
CONTINUOUS
 62
     7
 10
-274.5
 20
818.0
 30
0.0
 11
-270.0
 21
810.0
 31
0.0
  0
POLYLINE
  5
383
  8
DATA
  6
CONTINUOUS
 62
     7
 66
     1
 10
0.0
 20
0.0
 30
0.0
 70
   129
  0
VERTEX
  5
5B0
  8
DATA
  6
CONTINUOUS
 62
     7
 10
-315.0
 20
771.5
 30
0.0
  0
VERTEX
  5
5B1
  8
DATA
  6
CONTINUOUS
 62
     7
 10
-285.0
 20
771.5
 30
0.0
  0
VERTEX
  5
5B2
  8
DATA
  6
CONTINUOUS
 62
     7
 10
-285.0
 20
739.5
 30
0.0
  0
VERTEX
  5
5B3
  8
DATA
  6
CONTINUOUS
 62
     7
 10
-315.0
 20
739.5
 30
0.0
  0
SEQEND
  5
5CE
  8
DATA
  6
CONTINUOUS
 62
     7
  0
ARC
  5
389
  8
DATA
  6
CONTINUOUS
 62
     7
 10
-305.8822199999995
 20
756.5733300000002
 30
0.0
 40
2.578853425167926
 50
264.6908562215338
 51
323.9911991542325
  0
ARC
  5
38A
  8
DATA
  6
CONTINUOUS
 62
     7
 10
-306.3594499999999
 20
756.5733300000002
 30
0.0
 40
2.578849236947199
 50
216.0088008457598
 51
275.3091437784684
  0
ARC
  5
38B
  8
DATA
  6
CONTINUOUS
 62
     7
 10
-299.3291499999996
 20
755.90391
 30
0.0
 40
1.9026114117182
 50
273.8309816090905
 51
351.1351473097991
  0
ARC
  5
38C
  8
DATA
  6
CONTINUOUS
 62
     7
 10
-299.3101800000004
 20
762.1100700000002
 30
0.0
 40
1.89972993291161
 50
8.226923859011862
 51
86.15412669215198
  0
ARC
  5
38D
  8
DATA
  6
CONTINUOUS
 62
     7
 10
-299.5192186364266
 20
755.4211440452059
 30
0.0
 40
0.3187831148183772
 50
307.6419024975615
 51
354.2670192893373
  0
LINE
  5
38E
  8
DATA
  6
CONTINUOUS
 62
     7
 10
-307.7075500000001
 20
760.4446499999999
 30
0.0
 11
-306.2130900000002
 21
764.0055299999999
 31
0.0
  0
LINE
  5
38F
  8
DATA
  6
CONTINUOUS
 62
     7
 10
-307.7075500000001
 20
760.4446499999999
 30
0.0
 11
-309.1835700000001
 21
764.0055299999999
 31
0.0
  0
LINE
  5
390
  8
DATA
  6
CONTINUOUS
 62
     7
 10
-296.3791499999998
 20
754.0055299999999
 30
0.0
 11
-296.3791499999998
 21
764.0055299999999
 31
0.0
  0
LINE
  5
391
  8
DATA
  6
CONTINUOUS
 62
     7
 10
-294.4603299999999
 20
764.0055299999999
 30
0.0
 11
-294.4603299999999
 21
755.5368899999999
 31
0.0
  0
LINE
  5
392
  8
DATA
  6
CONTINUOUS
 62
     7
 10
-305.5119800000002
 20
764.0055299999999
 30
0.0
 11
-305.5119800000002
 21
755.5368899999999
 31
0.0
  0
LINE
  5
393
  8
DATA
  6
CONTINUOUS
 62
     7
 10
-303.6669600000005
 20
764.0055299999999
 30
0.0
 11
-303.6669600000005
 21
755.5368899999999
 31
0.0
  0
LINE
  5
394
  8
DATA
  6
CONTINUOUS
 62
     7
 10
-302.7075500000001
 20
764.0055299999999
 30
0.0
 11
-302.7075500000001
 21
754.0055299999999
 31
0.0
  0
LINE
  5
395
  8
DATA
  6
CONTINUOUS
 62
     7
 10
-301.0285800000001
 20
763.0645799999998
 30
0.0
 11
-301.0285800000001
 21
759.8542400000001
 31
0.0
  0
LINE
  5
396
  8
DATA
  6
CONTINUOUS
 62
     7
 10
-297.4300000000003
 20
760.04
 30
0.0
 11
-297.4300000000003
 21
762.3819100000001
 31
0.0
  0
LINE
  5
397
  8
DATA
  6
CONTINUOUS
 62
     7
 10
-299.2020300000004
 20
762.6217700000002
 30
0.0
 11
-299.2020300000004
 21
760.2970399999999
 31
0.0
  0
LINE
  5
398
  8
DATA
  6
CONTINUOUS
 62
     7
 10
-306.9141899999995
 20
757.1420699999999
 30
0.0
 11
-306.9141899999995
 21
755.5369100000003
 31
0.0
  0
LINE
  5
399
  8
DATA
  6
CONTINUOUS
 62
     7
 10
-306.9141899999995
 20
757.1420699999999
 30
0.0
 11
-308.5747099999999
 21
757.1420699999999
 31
0.0
  0
LINE
  5
39A
  8
DATA
  6
CONTINUOUS
 62
     7
 10
-308.5747099999999
 20
757.1420699999999
 30
0.0
 11
-308.5747099999999
 21
755.5369100000003
 31
0.0
  0
ARC
  5
39B
  8
DATA
  6
CONTINUOUS
 62
     7
 10
-306.20957
 20
755.5152699999999
 30
0.0
 40
0.6979288262423976
 50
269.7118487927876
 51
1.77598700570195
  0
ARC
  5
39C
  8
DATA
  6
CONTINUOUS
 62
     7
 10
-306.2165999999997
 20
755.5152699999999
 30
0.0
 40
0.6979252574593345
 50
178.2240129942978
 51
270.2881512072152
  0
ARC
  5
39D
  8
DATA
  6
CONTINUOUS
 62
     7
 10
-307.4092700000001
 20
755.5934400000001
 30
0.0
 40
1.166800208176197
 50
182.7769954499857
 51
207.3596066671717
  0
CIRCLE
  5
39E
  8
DATA
  6
CONTINUOUS
 62
     7
 10
-307.6060699999998
 20
759.06088
 30
0.0
 40
0.9501799999998184
  0
LINE
  5
39F
  8
DATA
  6
CONTINUOUS
 62
     7
 10
-291.3791499999998
 20
754.0055400000001
 30
0.0
 11
-296.3791499999998
 21
754.0055400000001
 31
0.0
  0
LINE
  5
3A0
  8
DATA
  6
CONTINUOUS
 62
     7
 10
-291.3791499999998
 20
754.0055400000001
 30
0.0
 11
-291.3791499999998
 21
757.1420800000001
 31
0.0
  0
LINE
  5
3A1
  8
DATA
  6
CONTINUOUS
 62
     7
 10
-291.3791499999998
 20
757.1420699999999
 30
0.0
 11
-293.0581099999999
 21
757.1420699999999
 31
0.0
  0
LINE
  5
3A2
  8
DATA
  6
CONTINUOUS
 62
     7
 10
-293.0581099999999
 20
757.1420699999999
 30
0.0
 11
-293.0581099999999
 21
755.5369100000003
 31
0.0
  0
LINE
  5
3A3
  8
DATA
  6
CONTINUOUS
 62
     7
 10
-302.7075500000001
 20
754.0055400000001
 30
0.0
 11
-299.2020300000004
 21
754.0055499999999
 31
0.0
  0
LINE
  5
3A4
  8
DATA
  6
CONTINUOUS
 62
     7
 10
-301.0285899999999
 20
754.9465
 30
0.0
 11
-300.12453
 21
754.9465
 31
0.0
  0
LINE
  5
3A5
  8
DATA
  6
CONTINUOUS
 62
     7
 10
-301.0285800000001
 20
754.9465
 30
0.0
 11
-301.0285800000001
 21
758.8948399999999
 31
0.0
  0
LINE
  5
3A6
  8
DATA
  6
CONTINUOUS
 62
     7
 10
-301.0285899999999
 20
758.8948399999999
 30
0.0
 11
-300.12453
 21
758.8948399999999
 31
0.0
  0
LINE
  5
3A7
  8
DATA
  6
CONTINUOUS
 62
     7
 10
-299.2020300000004
 20
755.3892999999998
 30
0.0
 11
-299.2020300000004
 21
758.4520400000001
 31
0.0
  0
ARC
  5
3A8
  8
DATA
  6
CONTINUOUS
 62
     7
 10
-304.8324000000002
 20
755.5934400000001
 30
0.0
 40
1.16679854786536
 50
332.6403933328499
 51
357.2230045500046
  0
ARC
  5
3A9
  8
DATA
  6
CONTINUOUS
 62
     7
 10
-293.7557099999995
 20
755.5152699999999
 30
0.0
 40
0.6979288262424023
 50
269.711848792713
 51
1.77598700570195
  0
ARC
  5
3AA
  8
DATA
  6
CONTINUOUS
 62
     7
 10
-293.7627300000004
 20
755.5152699999999
 30
0.0
 40
0.6979252574593345
 50
178.2240129942978
 51
270.2881512072898
  0
LINE
  5
3AB
  8
DATA
  6
CONTINUOUS
 62
     7
 10
-297.4308099999998
 20
755.6107099999999
 30
0.0
 11
-297.4308099999998
 21
758.2675300000001
 31
0.0
  0
LINE
  5
3AC
  8
DATA
  6
CONTINUOUS
 62
     7
 10
-301.0285899999999
 20
759.8542400000001
 30
0.0
 11
-300.12453
 21
759.8542400000001
 31
0.0
  0
LINE
  5
3AD
  8
DATA
  6
CONTINUOUS
 62
     7
 10
-305.5119800000002
 20
764.0055299999999
 30
0.0
 11
-303.6669600000005
 21
764.0055299999999
 31
0.0
  0
LINE
  5
3AE
  8
DATA
  6
CONTINUOUS
 62
     7
 10
-309.1835700000001
 20
764.0055299999999
 30
0.0
 11
-306.2130900000002
 21
764.0055299999999
 31
0.0
  0
LINE
  5
3AF
  8
DATA
  6
CONTINUOUS
 62
     7
 10
-296.3791499999998
 20
764.0055299999999
 30
0.0
 11
-294.4603299999999
 21
764.0055299999999
 31
0.0
  0
LINE
  5
3B0
  8
DATA
  6
CONTINUOUS
 62
     7
 10
-302.7075500000001
 20
764.0055299999999
 30
0.0
 11
-299.1827598718537
 21
764.0055219062597
 31
0.0
  0
LINE
  5
3B1
  8
DATA
  6
CONTINUOUS
 62
     7
 10
-301.0285899999999
 20
763.06457
 30
0.0
 11
-300.12453
 21
763.06457
 31
0.0
  0
ARC
  5
3B2
  8
DATA
  6
CONTINUOUS
 62
     7
 10
-300.1138545373969
 20
756.7001879605868
 30
0.0
 40
1.753720453381607
 50
269.6512199376213
 51
282.8264828068951
  0
ARC
  5
3B3
  8
DATA
  6
CONTINUOUS
 62
     7
 10
-299.9168839725335
 20
755.958749688773
 30
0.0
 40
0.9874379036934401
 50
281.2331036226942
 51
306.8620088940753
  0
ARC
  5
3B4
  8
DATA
  6
CONTINUOUS
 62
     7
 10
-299.5192186364266
 20
758.420195954794
 30
0.0
 40
0.3187831148178747
 50
5.732980710662814
 51
52.35809750243853
  0
ARC
  5
3B5
  8
DATA
  6
CONTINUOUS
 62
     7
 10
-300.1138545373969
 20
757.1411520394131
 30
0.0
 40
1.753720453381781
 50
77.1735171931049
 51
90.3487800623787
  0
ARC
  5
3B6
  8
DATA
  6
CONTINUOUS
 62
     7
 10
-299.9168839725335
 20
757.882590311227
 30
0.0
 40
0.9874379036933921
 50
53.13799110592464
 51
78.76689637730574
  0
ARC
  5
3B7
  8
DATA
  6
CONTINUOUS
 62
     7
 10
-298.3984899999996
 20
758.2021199999999
 30
0.0
 40
0.9698881639135144
 50
3.867006359832197
 51
88.36163456791752
  0
ARC
  5
3B8
  8
DATA
  6
CONTINUOUS
 62
     7
 10
-298.3993799999998
 20
760.1420400000002
 30
0.0
 40
0.9708519399478976
 50
271.6892821046506
 51
356.0782829826521
  0
ARC
  5
3B9
  8
DATA
  6
CONTINUOUS
 62
     7
 10
-299.5192186364266
 20
760.328884045206
 30
0.0
 40
0.3187831148183772
 50
307.6419024975615
 51
354.2670192893373
  0
ARC
  5
3BA
  8
DATA
  6
CONTINUOUS
 62
     7
 10
-300.1138545373969
 20
761.607927960587
 30
0.0
 40
1.753720453381607
 50
269.6512199376213
 51
282.8264828068951
  0
ARC
  5
3BB
  8
DATA
  6
CONTINUOUS
 62
     7
 10
-299.9168839725335
 20
760.8664896887726
 30
0.0
 40
0.987437903692994
 50
281.2331036226994
 51
306.8620088940912
  0
ARC
  5
3BC
  8
DATA
  6
CONTINUOUS
 62
     7
 10
-299.5192186364266
 20
762.5899259547941
 30
0.0
 40
0.3187831148178747
 50
5.732980710662814
 51
52.35809750243853
  0
ARC
  5
3BD
  8
DATA
  6
CONTINUOUS
 62
     7
 10
-300.1138545373969
 20
761.3108820394132
 30
0.0
 40
1.753720453381781
 50
77.1735171931049
 51
90.3487800623787
  0
ARC
  5
3BE
  8
DATA
  6
CONTINUOUS
 62
     7
 10
-299.9168839725335
 20
762.052320311227
 30
0.0
 40
0.9874379036933921
 50
53.13799110592464
 51
78.76689637730574
  0
LINE
  5
3BF
  8
DATA
  6
CONTINUOUS
 62
     7
 10
-315.0
 20
746.5
 30
0.0
 11
-285.0
 21
746.5
 31
0.0
  0
TEXT
  5
3C0
  8
DATA
 62
     7
 10
-313.4263983832465
 20
741.3075968424479
 30
0.0
 40
3.384806315104167
  1
PROFESSIONAL
 41
0.7
 72
     1
 11
-300.0
 21
743.0
 31
0.0
 73
     2
  0
LINE
  5
3C1
  8
DATA
  6
CONTINUOUS
 62
     7
 10
-256.6000000000004
 20
91.5
 30
0.0
 11
-256.6000000000004
 21
-620.0000000000001
 31
0.0
  0
LINE
  5
3C2
  8
DATA
  6
CONTINUOUS
 62
     7
 10
-343.3999999999996
 20
91.5
 30
0.0
 11
-343.3999999999996
 21
-620.0000000000001
 31
0.0
  0
LINE
  5
3C3
  8
DATA
  6
CONTINUOUS
 62
     7
 10
-258.3000000000002
 20
91.5
 30
0.0
 11
-258.3000000000002
 21
-620.0000000000001
 31
0.0
  0
LINE
  5
3C4
  8
DATA
  6
CONTINUOUS
 62
     7
 10
-341.6999999999998
 20
91.5
 30
0.0
 11
-341.6999999999998
 21
-620.0000000000001
 31
0.0
  0
LINE
  5
3C5
  8
DATA
  6
CONTINUOUS
 62
     7
 10
-256.6000000000004
 20
91.5
 30
0.0
 11
-343.3999999999996
 21
91.5
 31
0.0
  0
LINE
  5
3C6
  8
DATA
  6
CONTINUOUS
 62
     7
 10
-254.5
 20
-620.0000000000001
 30
0.0
 11
-345.5
 21
-620.0000000000001
 31
0.0
  0
LINE
  5
3C7
  8
DATA
  6
CONTINUOUS
 62
     7
 10
-254.5
 20
-603.0000000000001
 30
0.0
 11
-345.5
 21
-603.0000000000001
 31
0.0
  0
LINE
  5
3C8
  8
DATA
  6
CONTINUOUS
 62
     7
 10
-345.5
 20
-767.0
 30
0.0
 11
-345.5
 21
-821.0
 31
0.0
  0
LINE
  5
3C9
  8
DATA
  6
CONTINUOUS
 62
     7
 10
-254.5
 20
-767.0
 30
0.0
 11
-254.5
 21
-821.0
 31
0.0
  0
LINE
  5
3CA
  8
DATA
  6
CONTINUOUS
 62
     7
 10
-270.0
 20
-750.0
 30
0.0
 11
-330.0
 21
-750.0
 31
0.0
  0
ARC
  5
3CB
  8
DATA
  6
CONTINUOUS
 62
     7
 10
-300.0
 20
-747.875
 30
0.0
 40
86.125
 50
238.1092081981543
 51
301.8907918018458
  0
LINE
  5
3CC
  8
DATA
  6
CONTINUOUS
 62
     7
 10
-345.5
 20
-767.0
 30
0.0
 11
-330.0
 21
-750.0
 31
0.0
  0
LINE
  5
3CD
  8
DATA
  6
CONTINUOUS
 62
     7
 10
-270.0
 20
-750.0
 30
0.0
 11
-254.5
 21
-767.0
 31
0.0
  0
LINE
  5
3CE
  8
DATA
  6
CONTINUOUS
 62
     7
 10
316.0
 20
808.0
 30
0.0
 11
316.0
 21
350.0000000000001
 31
0.0
  0
LINE
  5
3CF
  8
DATA
  6
CONTINUOUS
 62
     7
 10
316.0
 20
-150.0
 30
0.0
 11
316.0
 21
-620.0000000000001
 31
0.0
  0
LINE
  5
3D0
  8
DATA
  6
CONTINUOUS
 62
     7
 10
249.0
 20
809.5952380952381
 30
0.0
 11
249.0
 21
-620.0000000000001
 31
0.0
  0
LINE
  5
3D1
  8
DATA
  6
CONTINUOUS
 62
     7
 10
303.0
 20
808.3095238095239
 30
0.0
 11
303.0
 21
-620.0000000000001
 31
0.0
  0
LINE
  5
3D2
  8
DATA
  6
CONTINUOUS
 62
     7
 10
266.0
 20
801.0
 30
0.0
 11
266.0
 21
108.5
 31
0.0
  0
LINE
  5
3D3
  8
DATA
  6
CONTINUOUS
 62
     7
 10
234.0
 20
801.0
 30
0.0
 11
234.0
 21
108.5
 31
0.0
  0
LINE
  5
3D4
  8
DATA
  6
CONTINUOUS
 62
     7
 10
232.0
 20
810.0
 30
0.0
 11
232.0
 21
801.0
 31
0.0
  0
LINE
  5
3D5
  8
DATA
  6
CONTINUOUS
 62
     7
 10
232.0
 20
108.5
 30
0.0
 11
232.0
 21
91.5
 31
0.0
  0
LINE
  5
3D6
  8
DATA
  6
CONTINUOUS
 62
     7
 10
316.0
 20
808.0
 30
0.0
 11
232.0
 21
810.0
 31
0.0
  0
LINE
  5
3D7
  8
DATA
  6
CONTINUOUS
 62
     7
 10
312.5
 20
818.0
 30
0.0
 11
235.5
 21
818.0
 31
0.0
  0
LINE
  5
3D8
  8
DATA
  6
CONTINUOUS
 62
     7
 10
232.0
 20
810.0
 30
0.0
 11
235.5
 21
818.0
 31
0.0
  0
LINE
  5
3D9
  8
DATA
  6
CONTINUOUS
 62
     7
 10
312.5
 20
818.0
 30
0.0
 11
316.0
 21
808.0
 31
0.0
  0
LINE
  5
3DA
  8
DATA
  6
CONTINUOUS
 62
     7
 10
308.0
 20
100.0
 30
0.0
 11
232.0
 21
100.0
 31
0.0
  0
LINE
  5
3DB
  8
DATA
  6
CONTINUOUS
 62
     7
 10
299.5
 20
818.3095238095239
 30
0.0
 11
303.0
 21
808.3095238095239
 31
0.0
  0
LINE
  5
3DC
  8
DATA
  6
CONTINUOUS
 62
     7
 10
249.0
 20
809.5952380952381
 30
0.0
 11
252.5
 21
817.5952380952381
 31
0.0
  0
LINE
  5
3DD
  8
DATA
  6
CONTINUOUS
 62
     7
 10
266.0
 20
108.5
 30
0.0
 11
232.0
 21
108.5
 31
0.0
  0
LINE
  5
3DE
  8
DATA
  6
CONTINUOUS
 62
     7
 10
266.0
 20
801.0
 30
0.0
 11
232.0
 21
801.0
 31
0.0
  0
LINE
  5
3DF
  8
DATA
  6
CONTINUOUS
 62
     7
 10
266.0
 20
91.5
 30
0.0
 11
266.0
 21
-603.0000000000001
 31
0.0
  0
LINE
  5
3E0
  8
DATA
  6
CONTINUOUS
 62
     7
 10
266.0
 20
91.5
 30
0.0
 11
232.0
 21
91.5
 31
0.0
  0
LINE
  5
3E1
  8
DATA
  6
CONTINUOUS
 62
     7
 10
234.0
 20
91.5
 30
0.0
 11
234.0
 21
-620.0000000000001
 31
0.0
  0
LINE
  5
3E2
  8
DATA
  6
CONTINUOUS
 62
     7
 10
316.0
 20
-620.0000000000001
 30
0.0
 11
234.0
 21
-620.0000000000001
 31
0.0
  0
LINE
  5
3E3
  8
DATA
  6
CONTINUOUS
 62
     7
 10
266.0
 20
-603.0000000000001
 30
0.0
 11
234.0
 21
-603.0000000000001
 31
0.0
  0
POLYLINE
  5
3E4
  8
DATA
  6
CONTINUOUS
 62
     7
 66
     1
 10
0.0
 20
0.0
 30
0.0
 70
   129
  0
VERTEX
  5
5B4
  8
DATA
  6
CONTINUOUS
 62
     7
 10
308.0
 20
350.0
 30
0.0
  0
VERTEX
  5
5B5
  8
DATA
  6
CONTINUOUS
 62
     7
 10
320.0
 20
350.0
 30
0.0
  0
VERTEX
  5
5B6
  8
DATA
  6
CONTINUOUS
 62
     7
 10
320.0
 20
-150.0
 30
0.0
  0
VERTEX
  5
5B7
  8
DATA
  6
CONTINUOUS
 62
     7
 10
308.0
 20
-150.0
 30
0.0
  0
SEQEND
  5
5CF
  8
DATA
  6
CONTINUOUS
 62
     7
  0
LINE
  5
3EA
  8
DATA
  6
CONTINUOUS
 62
     7
 10
307.6000000000004
 20
254.25
 30
0.0
 11
308.0
 21
254.25
 31
0.0
  0
LINE
  5
3EB
  8
DATA
  6
CONTINUOUS
 62
     7
 10
307.6000000000004
 20
228.75
 30
0.0
 11
308.0
 21
228.75
 31
0.0
  0
LINE
  5
3EC
  8
DATA
  6
CONTINUOUS
 62
     7
 10
307.5999999999999
 20
254.25
 30
0.0
 11
307.5999999999999
 21
228.75
 31
0.0
  0
LINE
  5
3ED
  8
DATA
  6
CONTINUOUS
 62
     7
 10
307.6000000000004
 20
-54.25
 30
0.0
 11
308.0
 21
-54.25
 31
0.0
  0
LINE
  5
3EE
  8
DATA
  6
CONTINUOUS
 62
     7
 10
307.6000000000004
 20
-28.75
 30
0.0
 11
308.0
 21
-28.75
 31
0.0
  0
LINE
  5
3EF
  8
DATA
  6
CONTINUOUS
 62
     7
 10
307.5999999999999
 20
-54.25
 30
0.0
 11
307.5999999999999
 21
-28.75
 31
0.0
  0
LINE
  5
3F0
  8
DATA
  6
CONTINUOUS
 62
     7
 10
322.5999999999995
 20
253.25
 30
0.0
 11
322.5999999999995
 21
229.8499999999999
 31
0.0
  0
LINE
  5
3F1
  8
DATA
  6
CONTINUOUS
 62
     7
 10
322.5999999999995
 20
-29.84999999999991
 30
0.0
 11
322.5999999999995
 21
-53.25
 31
0.0
  0
LINE
  5
3F2
  8
DATA
  6
CONTINUOUS
 62
     7
 10
320.0
 20
229.8499999999999
 30
0.0
 11
352.6709194729365
 21
229.8499999999999
 31
0.0
  0
LINE
  5
3F3
  8
DATA
  6
CONTINUOUS
 62
     7
 10
362.9748636716349
 20
253.25
 30
0.0
 11
320.0
 21
253.25
 31
0.0
  0
LINE
  5
3F4
  8
DATA
  6
CONTINUOUS
 62
     7
 10
368.2654488758935
 20
251.0659860982207
 30
0.0
 11
427.8662199298337
 21
191.75
 31
0.0
  0
LINE
  5
3F5
  8
DATA
  6
CONTINUOUS
 62
     7
 10
320.0
 20
-29.84999999999991
 30
0.0
 11
352.670919472941
 21
-29.84999999999991
 31
0.0
  0
ARC
  5
3F6
  8
DATA
  6
CONTINUOUS
 62
     7
 10
255.0240120967746
 20
100.0
 30
0.0
 40
166.9759879032253
 50
311.6342569443282
 51
329.4733536451442
  0
ARC
  5
3F7
  8
DATA
  6
CONTINUOUS
 62
     7
 10
255.0240120967746
 20
100.0
 30
0.0
 40
166.9759879032257
 50
30.52806461394297
 51
48.36574305567316
  0
ARC
  5
3F8
  8
DATA
  6
CONTINUOUS
 62
     7
 10
352.6709194729365
 20
209.849999999994
 30
0.0
 40
20.00000000000594
 50
48.36574305568445
 51
90.0
  0
ARC
  5
3F9
  8
DATA
  6
CONTINUOUS
 62
     7
 10
352.670919472941
 20
-9.85000000000673
 30
0.0
 40
19.99999999999318
 50
270.0
 51
311.6342569443415
  0
LINE
  5
3FA
  8
DATA
  6
CONTINUOUS
 62
     7
 10
360.1058244195783
 20
242.8
 30
0.0
 11
342.3499999999995
 21
242.8
 31
0.0
  0
LINE
  5
3FB
  8
DATA
  6
CONTINUOUS
 62
     7
 10
360.1058244195783
 20
240.3
 30
0.0
 11
342.3499999999995
 21
240.3
 31
0.0
  0
ARC
  5
3FC
  8
DATA
  6
CONTINUOUS
 62
     7
 10
342.3499999999995
 20
241.55
 30
0.0
 40
1.25
 50
90.0
 51
270.0
  0
ARC
  5
3FD
  8
DATA
  6
CONTINUOUS
 62
     7
 10
362.974863671634
 20
245.75
 30
0.0
 40
7.500000000000375
 50
45.13721316682627
 51
89.99999999999305
  0
LINE
  5
3FE
  8
DATA
  6
CONTINUOUS
 62
     7
 10
362.9748636716349
 20
-53.25
 30
0.0
 11
320.0
 21
-53.25
 31
0.0
  0
LINE
  5
3FF
  8
DATA
  6
CONTINUOUS
 62
     7
 10
368.2654488758935
 20
-51.06598609822049
 30
0.0
 11
427.8662199298337
 21
8.25
 31
0.0
  0
ARC
  5
400
  8
DATA
  6
CONTINUOUS
 62
     7
 10
362.974863671634
 20
-45.75
 30
0.0
 40
7.5
 50
270.0000000000069
 51
314.862786833175
  0
LINE
  5
401
  8
DATA
  6
CONTINUOUS
 62
     7
 10
413.073732581493
 20
191.7285392025897
 30
0.0
 11
362.9274698618492
 21
241.6351925857177
 31
0.0
  0
LINE
  5
402
  8
DATA
  6
CONTINUOUS
 62
     7
 10
409.9288813830749
 20
191.3312663841471
 30
0.0
 11
361.1639414604297
 21
239.8631972196445
 31
0.0
  0
ARC
  5
403
  8
DATA
  6
CONTINUOUS
 62
     7
 10
360.1058244195783
 20
238.8
 30
0.0
 40
3.999999999999644
 50
45.13721316683549
 51
90.0
  0
ARC
  5
404
  8
DATA
  6
CONTINUOUS
 62
     7
 10
360.1058244195783
 20
238.8
 30
0.0
 40
1.499999999999787
 50
45.13721316684472
 51
90.0
  0
LINE
  5
405
  8
DATA
  6
CONTINUOUS
 62
     7
 10
360.1058244195783
 20
-42.80000000000018
 30
0.0
 11
342.3499999999995
 21
-42.80000000000018
 31
0.0
  0
LINE
  5
406
  8
DATA
  6
CONTINUOUS
 62
     7
 10
360.1058244195783
 20
-40.30000000000018
 30
0.0
 11
342.3499999999995
 21
-40.30000000000018
 31
0.0
  0
ARC
  5
407
  8
DATA
  6
CONTINUOUS
 62
     7
 10
342.3499999999995
 20
-41.55000000000018
 30
0.0
 40
1.25
 50
90.0
 51
270.0
  0
LINE
  5
408
  8
DATA
  6
CONTINUOUS
 62
     7
 10
413.0737325814935
 20
8.271460797410327
 30
0.0
 11
362.9274698618492
 21
-41.63519258571796
 31
0.0
  0
LINE
  5
409
  8
DATA
  6
CONTINUOUS
 62
     7
 10
409.9288813830744
 20
8.668733615852943
 30
0.0
 11
361.1639414604297
 21
-39.86319721964446
 31
0.0
  0
ARC
  5
40A
  8
DATA
  6
CONTINUOUS
 62
     7
 10
360.1058244195783
 20
-38.80000000000018
 30
0.0
 40
4.0
 50
270.0
 51
314.8627868331645
  0
ARC
  5
40B
  8
DATA
  6
CONTINUOUS
 62
     7
 10
360.1058244195783
 20
-38.80000000000018
 30
0.0
 40
1.5
 50
270.0
 51
314.8627868331553
  0
CIRCLE
  5
40C
  8
DATA
  6
CONTINUOUS
 62
     7
 10
436.0
 20
154.25
 30
0.0
 40
6.0
  0
CIRCLE
  5
40D
  8
DATA
  6
CONTINUOUS
 62
     7
 10
435.997232390383
 20
169.2887658252007
 30
0.0
 40
6.0
  0
LINE
  5
40E
  8
DATA
  6
CONTINUOUS
 62
     7
 10
434.553856717409
 20
171.7887658252007
 30
0.0
 11
437.4406080633571
 21
171.7887658252007
 31
0.0
  0
LINE
  5
40F
  8
DATA
  6
CONTINUOUS
 62
     7
 10
433.1104810444349
 20
169.2887658252007
 30
0.0
 11
434.553856717409
 21
171.7887658252007
 31
0.0
  0
LINE
  5
410
  8
DATA
  6
CONTINUOUS
 62
     7
 10
438.8839837363312
 20
169.2887658252007
 30
0.0
 11
437.4406080633571
 21
171.7887658252007
 31
0.0
  0
LINE
  5
411
  8
DATA
  6
CONTINUOUS
 62
     7
 10
434.553856717409
 20
166.7887658252007
 30
0.0
 11
437.4406080633571
 21
166.7887658252007
 31
0.0
  0
LINE
  5
412
  8
DATA
  6
CONTINUOUS
 62
     7
 10
433.1104810444349
 20
169.2887658252007
 30
0.0
 11
434.553856717409
 21
166.7887658252007
 31
0.0
  0
LINE
  5
413
  8
DATA
  6
CONTINUOUS
 62
     7
 10
438.8839837363312
 20
169.2887658252007
 30
0.0
 11
437.4406080633571
 21
166.7887658252007
 31
0.0
  0
LINE
  5
414
  8
DATA
  6
CONTINUOUS
 62
     7
 10
434.5566243270259
 20
156.75
 30
0.0
 11
437.4433756729741
 21
156.75
 31
0.0
  0
LINE
  5
415
  8
DATA
  6
CONTINUOUS
 62
     7
 10
433.1132486540519
 20
154.25
 30
0.0
 11
434.5566243270259
 21
156.75
 31
0.0
  0
LINE
  5
416
  8
DATA
  6
CONTINUOUS
 62
     7
 10
438.8867513459481
 20
154.25
 30
0.0
 11
437.4433756729741
 21
156.75
 31
0.0
  0
LINE
  5
417
  8
DATA
  6
CONTINUOUS
 62
     7
 10
434.5566243270259
 20
151.75
 30
0.0
 11
437.4433756729741
 21
151.75
 31
0.0
  0
LINE
  5
418
  8
DATA
  6
CONTINUOUS
 62
     7
 10
433.1132486540519
 20
154.25
 30
0.0
 11
434.5566243270259
 21
151.75
 31
0.0
  0
LINE
  5
419
  8
DATA
  6
CONTINUOUS
 62
     7
 10
438.8867513459481
 20
154.25
 30
0.0
 11
437.4433756729741
 21
151.75
 31
0.0
  0
LINE
  5
41A
  8
DATA
  6
CONTINUOUS
 62
     7
 10
237.0074999999997
 20
-703.7999999999998
 30
0.0
 11
312.9925000000003
 21
-703.7999999999998
 31
0.0
  0
LINE
  5
41B
  8
DATA
  6
CONTINUOUS
 62
     7
 10
233.25
 20
-622.0000000000001
 30
0.0
 11
233.25
 21
-692.0499999999998
 31
0.0
  0
LINE
  5
41C
  8
DATA
  6
CONTINUOUS
 62
     7
 10
316.75
 20
-622.0000000000001
 30
0.0
 11
316.75
 21
-692.0499999999998
 31
0.0
  0
LINE
  5
41D
  8
DATA
  6
CONTINUOUS
 62
     7
 10
249.0
 20
-620.0000000000001
 30
0.0
 11
249.0
 21
-692.0499999999998
 31
0.0
  0
LINE
  5
41E
  8
DATA
  6
CONTINUOUS
 62
     7
 10
303.0
 20
-620.0000000000001
 30
0.0
 11
303.0
 21
-692.0499999999998
 31
0.0
  0
LINE
  5
41F
  8
DATA
  6
CONTINUOUS
 62
     7
 10
314.75
 20
-620.0000000000001
 30
0.0
 11
314.75
 21
-692.0499999999998
 31
0.0
  0
LINE
  5
420
  8
DATA
  6
CONTINUOUS
 62
     7
 10
233.25
 20
-622.0000000000001
 30
0.0
 11
316.75
 21
-622.0000000000001
 31
0.0
  0
LINE
  5
421
  8
DATA
  6
CONTINUOUS
 62
     7
 10
316.75
 20
-622.0000000000001
 30
0.0
 11
315.0
 21
-620.0000000000001
 31
0.0
  0
LINE
  5
422
  8
DATA
  6
CONTINUOUS
 62
     7
 10
235.0
 20
-620.0000000000001
 30
0.0
 11
233.25
 21
-622.0000000000001
 31
0.0
  0
LINE
  5
423
  8
DATA
  6
CONTINUOUS
 62
     7
 10
316.75
 20
-692.0499999999998
 30
0.0
 11
233.25
 21
-692.0499999999998
 31
0.0
  0
LINE
  5
424
  8
DATA
  6
CONTINUOUS
 62
     7
 10
233.25
 20
-692.5499999999998
 30
0.0
 11
316.75
 21
-692.5499999999998
 31
0.0
  0
ARC
  5
425
  8
DATA
  6
CONTINUOUS
 62
     7
 10
293.5959609375032
 20
-678.6469515468735
 30
0.0
 40
61.92680968498728
 50
192.9739335486072
 51
203.9647052761698
  0
ARC
  5
426
  8
DATA
  6
CONTINUOUS
 62
     7
 10
256.4040390624968
 20
-678.6469515468735
 30
0.0
 40
61.92680968498759
 50
336.0352947238302
 51
347.0260664513929
  0
LINE
  5
427
  8
DATA
  6
CONTINUOUS
 62
     7
 10
233.75
 20
-692.5499999999998
 30
0.0
 11
233.75
 21
-692.0499999999998
 31
0.0
  0
LINE
  5
428
  8
DATA
  6
CONTINUOUS
 62
     7
 10
316.25
 20
-692.5499999999998
 30
0.0
 11
316.25
 21
-692.0499999999998
 31
0.0
  0
ARC
  5
429
  8
DATA
  6
CONTINUOUS
 62
     7
 10
309.3459609375036
 20
-678.6469515468735
 30
0.0
 40
61.92680968498772
 50
192.9739335486071
 51
203.9647052761698
  0
LINE
  5
42A
  8
DATA
  6
CONTINUOUS
 62
     7
 10
249.5
 20
-692.5499999999998
 30
0.0
 11
249.5
 21
-692.0499999999998
 31
0.0
  0
ARC
  5
42B
  8
DATA
  6
CONTINUOUS
 62
     7
 10
254.4040390624968
 20
-678.6469515468735
 30
0.0
 40
61.92680968498718
 50
336.0352947238301
 51
347.0260664513929
  0
LINE
  5
42C
  8
DATA
  6
CONTINUOUS
 62
     7
 10
314.25
 20
-692.5499999999998
 30
0.0
 11
314.25
 21
-692.0499999999998
 31
0.0
  0
LINE
  5
42D
  8
DATA
  6
CONTINUOUS
 62
     7
 10
-345.5
 20
1099.0
 30
0.0
 11
-345.5
 21
1154.113599645172
 31
0.0
  0
LINE
  5
42E
  8
DATA
  6
CONTINUOUS
 62
     7
 10
-254.5
 20
1099.0
 30
0.0
 11
-254.5
 21
1154.113599645172
 31
0.0
  0
LINE
  5
42F
  8
DATA
  6
CONTINUOUS
 62
     7
 10
-270.0
 20
1082.0
 30
0.0
 11
-330.0
 21
1082.0
 31
0.0
  0
LINE
  5
430
  8
DATA
  6
CONTINUOUS
 62
     7
 10
-341.0
 20
1099.138936227431
 30
0.0
 11
-341.0
 21
1151.609863385944
 31
0.0
  0
LINE
  5
431
  8
DATA
  6
CONTINUOUS
 62
     7
 10
-259.0
 20
1099.138936227431
 30
0.0
 11
-259.0
 21
1151.609863385944
 31
0.0
  0
LINE
  5
432
  8
DATA
  6
CONTINUOUS
 62
     7
 10
-328.5644993220485
 20
1085.5
 30
0.0
 11
-271.4355006779515
 21
1085.5
 31
0.0
  0
ARC
  5
433
  8
DATA
  6
CONTINUOUS
 62
     7
 10
-300.0
 20
1079.875
 30
0.0
 40
82.62499999999969
 50
60.24991103599311
 51
119.7500889640067
  0
LINE
  5
434
  8
DATA
  6
CONTINUOUS
 62
     7
 10
-345.5
 20
1099.0
 30
0.0
 11
-330.0
 21
1082.0
 31
0.0
  0
LINE
  5
435
  8
DATA
  6
CONTINUOUS
 62
     7
 10
-270.0
 20
1082.0
 30
0.0
 11
-254.5
 21
1099.0
 31
0.0
  0
LINE
  5
436
  8
DATA
  6
CONTINUOUS
 62
     7
 10
-341.0
 20
1099.138936227431
 30
0.0
 11
-328.5644993220485
 21
1085.5
 31
0.0
  0
LINE
  5
437
  8
DATA
  6
CONTINUOUS
 62
     7
 10
-259.0
 20
1099.138936227431
 30
0.0
 11
-271.4355006779515
 21
1085.5
 31
0.0
  0
ARC
  5
438
  8
DATA
  6
CONTINUOUS
 62
     7
 10
-300.0
 20
1079.875
 30
0.0
 40
77.62499999999997
 50
63.19947828261986
 51
116.8005217173801
  0
LINE
  5
439
  8
DATA
  6
CONTINUOUS
 62
     7
 10
-326.3570186924444
 20
1090.5
 30
0.0
 11
-273.6429813075556
 21
1090.5
 31
0.0
  0
LINE
  5
43A
  8
DATA
  6
CONTINUOUS
 62
     7
 10
-335.0
 20
1099.979398853448
 30
0.0
 11
-335.0
 21
1149.161655461207
 31
0.0
  0
LINE
  5
43B
  8
DATA
  6
CONTINUOUS
 62
     7
 10
-265.0
 20
1099.979398853448
 30
0.0
 11
-265.0
 21
1149.161655461207
 31
0.0
  0
LINE
  5
43C
  8
DATA
  6
CONTINUOUS
 62
     7
 10
-335.0
 20
1099.979398853448
 30
0.0
 11
-326.3570186924444
 21
1090.5
 31
0.0
  0
LINE
  5
43D
  8
DATA
  6
CONTINUOUS
 62
     7
 10
-265.0
 20
1099.979398853448
 30
0.0
 11
-273.6429813075556
 21
1090.5
 31
0.0
  0
LINE
  5
43E
  8
DATA
  6
CONTINUOUS
 62
     7
 10
-260.5
 20
1170.0
 30
0.0
 11
-260.5
 21
1172.6
 31
0.0
  0
LINE
  5
43F
  8
DATA
  6
CONTINUOUS
 62
     7
 10
-260.5
 20
1172.6
 30
0.0
 11
-282.8000000000002
 21
1172.6
 31
0.0
  0
LINE
  5
440
  8
DATA
  6
CONTINUOUS
 62
     7
 10
-307.1999999999998
 20
1180.0
 30
0.0
 11
-307.1999999999998
 21
1295.0
 31
0.0
  0
LINE
  5
441
  8
DATA
  6
CONTINUOUS
 62
     7
 10
-292.8000000000002
 20
1180.0
 30
0.0
 11
-292.8000000000002
 21
1295.0
 31
0.0
  0
LINE
  5
442
  8
DATA
  6
CONTINUOUS
 62
     7
 10
-309.8000000000002
 20
1180.0
 30
0.0
 11
-309.8000000000002
 21
1295.0
 31
0.0
  0
LINE
  5
443
  8
DATA
  6
CONTINUOUS
 62
     7
 10
-290.1999999999998
 20
1180.0
 30
0.0
 11
-290.1999999999998
 21
1295.0
 31
0.0
  0
LINE
  5
444
  8
DATA
  6
CONTINUOUS
 62
     7
 10
-293.1999999999998
 20
1298.0
 30
0.0
 11
-306.8000000000002
 21
1298.0
 31
0.0
  0
LINE
  5
445
  8
DATA
  6
CONTINUOUS
 62
     7
 10
-293.1999999999998
 20
1295.4
 30
0.0
 11
-306.8000000000002
 21
1295.4
 31
0.0
  0
ARC
  5
446
  8
DATA
  6
CONTINUOUS
 62
     7
 10
-306.8000000000002
 20
1295.0
 30
0.0
 40
3.0
 50
90.0
 51
180.0
  0
ARC
  5
447
  8
DATA
  6
CONTINUOUS
 62
     7
 10
-293.1999999999998
 20
1295.0
 30
0.0
 40
3.0
 50
0.0
 51
90.0
  0
ARC
  5
448
  8
DATA
  6
CONTINUOUS
 62
     7
 10
-293.1999999999998
 20
1295.0
 30
0.0
 40
0.3999999999996362
 50
0.0
 51
90.0
  0
ARC
  5
449
  8
DATA
  6
CONTINUOUS
 62
     7
 10
-306.8000000000002
 20
1295.0
 30
0.0
 40
0.3999999999996362
 50
90.0
 51
180.0
  0
ARC
  5
44A
  8
DATA
  6
CONTINUOUS
 62
     7
 10
-282.8000000000002
 20
1180.0
 30
0.0
 40
10.0
 50
180.0
 51
270.0
  0
ARC
  5
44B
  8
DATA
  6
CONTINUOUS
 62
     7
 10
-282.8000000000002
 20
1180.0
 30
0.0
 40
7.399999999999636
 50
180.0
 51
270.0
  0
LINE
  5
44C
  8
DATA
  6
CONTINUOUS
 62
     7
 10
-339.5
 20
1170.0
 30
0.0
 11
-339.5
 21
1172.6
 31
0.0
  0
LINE
  5
44D
  8
DATA
  6
CONTINUOUS
 62
     7
 10
-339.5
 20
1172.6
 30
0.0
 11
-317.1999999999998
 21
1172.6
 31
0.0
  0
ARC
  5
44E
  8
DATA
  6
CONTINUOUS
 62
     7
 10
-317.1999999999998
 20
1180.0
 30
0.0
 40
7.399999999999636
 50
270.0
 51
0.0
  0
LINE
  5
44F
  8
DATA
  6
CONTINUOUS
 62
     7
 10
-296.1999999999998
 20
1192.35
 30
0.0
 11
-296.1999999999998
 21
1271.114002316963
 31
0.0
  0
ARC
  5
450
  8
DATA
  6
CONTINUOUS
 62
     7
 10
-291.4693749999997
 20
1263.495702316964
 30
0.0
 40
8.967569781196012
 50
98.53316665222265
 51
121.8384393667126
  0
ARC
  5
451
  8
DATA
  6
CONTINUOUS
 62
     7
 10
-291.4693749999997
 20
1199.9683
 30
0.0
 40
8.967569781196065
 50
238.1615606332874
 51
261.4668333477774
  0
LINE
  5
452
  8
DATA
  6
CONTINUOUS
 62
     7
 10
-303.8000000000002
 20
1192.35
 30
0.0
 11
-303.8000000000002
 21
1271.114002316963
 31
0.0
  0
ARC
  5
453
  8
DATA
  6
CONTINUOUS
 62
     7
 10
-308.5306250000003
 20
1263.495702316964
 30
0.0
 40
8.967569781196065
 50
58.16156063328737
 51
81.46683334777737
  0
ARC
  5
454
  8
DATA
  6
CONTINUOUS
 62
     7
 10
-308.5306250000003
 20
1199.9683
 30
0.0
 40
8.967569781196012
 50
278.5331666522226
 51
301.8384393667126
  0
LINE
  5
455
  8
DATA
  6
CONTINUOUS
 62
     7
 10
-289.3499999999995
 20
1283.400000000001
 30
0.0
 11
-290.1999999999994
 21
1283.400000000001
 31
0.0
  0
LINE
  5
456
  8
DATA
  6
CONTINUOUS
 62
     7
 10
-292.7999999999997
 20
1283.400000000001
 30
0.0
 11
-307.1999999999998
 21
1283.400000000001
 31
0.0
  0
LINE
  5
457
  8
DATA
  6
CONTINUOUS
 62
     7
 10
-309.8000000000002
 20
1283.400000000001
 30
0.0
 11
-310.6500000000005
 21
1283.400000000001
 31
0.0
  0
LINE
  5
458
  8
DATA
  6
CONTINUOUS
 62
     7
 10
-289.3499999999995
 20
1280.450000000001
 30
0.0
 11
-290.1999999999994
 21
1280.450000000001
 31
0.0
  0
LINE
  5
459
  8
DATA
  6
CONTINUOUS
 62
     7
 10
-292.7999999999997
 20
1280.450000000001
 30
0.0
 11
-307.1999999999998
 21
1280.450000000001
 31
0.0
  0
LINE
  5
45A
  8
DATA
  6
CONTINUOUS
 62
     7
 10
-309.8000000000002
 20
1280.450000000001
 30
0.0
 11
-310.6500000000005
 21
1280.450000000001
 31
0.0
  0
LINE
  5
45B
  8
DATA
  6
CONTINUOUS
 62
     7
 10
-289.3499999999995
 20
1313.22900458656
 30
0.0
 11
-289.3499999999995
 21
1244.0
 31
0.0
  0
LINE
  5
45C
  8
DATA
  6
CONTINUOUS
 62
     7
 10
-310.6500000000005
 20
1313.22900458656
 30
0.0
 11
-310.6500000000005
 21
1244.0
 31
0.0
  0
LINE
  5
45D
  8
DATA
  6
CONTINUOUS
 62
     7
 10
-313.25
 20
1315.404262051708
 30
0.0
 11
-313.25
 21
1244.0
 31
0.0
  0
LINE
  5
45E
  8
DATA
  6
CONTINUOUS
 62
     7
 10
-286.75
 20
1315.404262051708
 30
0.0
 11
-286.75
 21
1244.0
 31
0.0
  0
LINE
  5
45F
  8
DATA
  6
CONTINUOUS
 62
     7
 10
-286.75
 20
1244.0
 30
0.0
 11
-289.3499999999995
 21
1244.0
 31
0.0
  0
LINE
  5
460
  8
DATA
  6
CONTINUOUS
 62
     7
 10
-310.6500000000005
 20
1244.0
 30
0.0
 11
-313.25
 21
1244.0
 31
0.0
  0
LINE
  5
461
  8
DATA
  6
CONTINUOUS
 62
     7
 10
-285.75
 20
1293.0
 30
0.0
 11
-286.75
 21
1293.0
 31
0.0
  0
LINE
  5
462
  8
DATA
  6
CONTINUOUS
 62
     7
 10
-285.75
 20
1279.0
 30
0.0
 11
-286.75
 21
1279.0
 31
0.0
  0
LINE
  5
463
  8
DATA
  6
CONTINUOUS
 62
     7
 10
-285.75
 20
1293.0
 30
0.0
 11
-285.75
 21
1279.0
 31
0.0
  0
LINE
  5
464
  8
DATA
  6
CONTINUOUS
 62
     7
 10
-284.0500000000002
 20
1291.0
 30
0.0
 11
-285.75
 21
1291.0
 31
0.0
  0
LINE
  5
465
  8
DATA
  6
CONTINUOUS
 62
     7
 10
-284.0500000000002
 20
1281.0
 30
0.0
 11
-285.75
 21
1281.0
 31
0.0
  0
LINE
  5
466
  8
DATA
  6
CONTINUOUS
 62
     7
 10
-284.0500000000002
 20
1292.0
 30
0.0
 11
-284.0500000000002
 21
1280.0
 31
0.0
  0
LINE
  5
467
  8
DATA
  6
CONTINUOUS
 62
     7
 10
-279.9499999999998
 20
1292.0
 30
0.0
 11
-279.9499999999998
 21
1280.0
 31
0.0
  0
LINE
  5
468
  8
DATA
  6
CONTINUOUS
 62
     7
 10
-279.9499999999998
 20
1292.0
 30
0.0
 11
-284.0500000000002
 21
1292.0
 31
0.0
  0
LINE
  5
469
  8
DATA
  6
CONTINUOUS
 62
     7
 10
-279.9499999999998
 20
1280.0
 30
0.0
 11
-284.0500000000002
 21
1280.0
 31
0.0
  0
LINE
  5
46A
  8
DATA
  6
CONTINUOUS
 62
     7
 10
-314.25
 20
1293.0
 30
0.0
 11
-313.25
 21
1293.0
 31
0.0
  0
LINE
  5
46B
  8
DATA
  6
CONTINUOUS
 62
     7
 10
-314.25
 20
1279.0
 30
0.0
 11
-313.25
 21
1279.0
 31
0.0
  0
LINE
  5
46C
  8
DATA
  6
CONTINUOUS
 62
     7
 10
-314.25
 20
1293.0
 30
0.0
 11
-314.25
 21
1279.0
 31
0.0
  0
LINE
  5
46D
  8
DATA
  6
CONTINUOUS
 62
     7
 10
-315.9499999999998
 20
1291.0
 30
0.0
 11
-314.25
 21
1291.0
 31
0.0
  0
LINE
  5
46E
  8
DATA
  6
CONTINUOUS
 62
     7
 10
-315.9499999999998
 20
1281.0
 30
0.0
 11
-314.25
 21
1281.0
 31
0.0
  0
LINE
  5
46F
  8
DATA
  6
CONTINUOUS
 62
     7
 10
-315.9499999999998
 20
1291.55
 30
0.0
 11
-315.9499999999998
 21
1280.45
 31
0.0
  0
LINE
  5
470
  8
DATA
  6
CONTINUOUS
 62
     7
 10
-284.0500000000002
 20
1284.0
 30
0.0
 11
-285.75
 21
1284.0
 31
0.0
  0
LINE
  5
471
  8
DATA
  6
CONTINUOUS
 62
     7
 10
-315.9499999999998
 20
1288.0
 30
0.0
 11
-314.25
 21
1288.0
 31
0.0
  0
LINE
  5
472
  8
DATA
  6
CONTINUOUS
 62
     7
 10
-320.4499999999998
 20
1291.55
 30
0.0
 11
-320.4499999999998
 21
1280.45
 31
0.0
  0
LINE
  5
473
  8
DATA
  6
CONTINUOUS
 62
     7
 10
-320.4499999999998
 20
1291.55
 30
0.0
 11
-315.9499999999998
 21
1291.55
 31
0.0
  0
LINE
  5
474
  8
DATA
  6
CONTINUOUS
 62
     7
 10
-320.4499999999998
 20
1280.45
 30
0.0
 11
-315.9499999999998
 21
1280.45
 31
0.0
  0
LINE
  5
475
  8
DATA
  6
CONTINUOUS
 62
     7
 10
-320.4499999999998
 20
1283.225
 30
0.0
 11
-315.9499999999998
 21
1283.225
 31
0.0
  0
LINE
  5
476
  8
DATA
  6
CONTINUOUS
 62
     7
 10
-320.4499999999998
 20
1288.775
 30
0.0
 11
-315.9499999999998
 21
1288.775
 31
0.0
  0
LINE
  5
477
  8
DATA
  6
CONTINUOUS
 62
     7
 10
-340.356197917572
 20
1159.487500217037
 30
0.0
 11
-340.3937499999993
 21
1168.50000000003
 31
0.0
  0
LINE
  5
478
  8
DATA
  6
CONTINUOUS
 62
     7
 10
-259.6062500000007
 20
1168.500000000057
 30
0.0
 11
-259.643802082428
 21
1159.48750021708
 31
0.0
  0
LINE
  5
479
  8
DATA
  6
CONTINUOUS
 62
     7
 10
-339.5
 20
1170.0
 30
0.0
 11
-260.5
 21
1170.0
 31
0.0
  0
ARC
  5
47A
  8
DATA
  6
CONTINUOUS
 62
     7
 10
-338.8937499999993
 20
1168.5
 30
0.0
 40
1.5
 50
90.0
 51
180.477462067325
  0
ARC
  5
47B
  8
DATA
  6
CONTINUOUS
 62
     7
 10
-338.8562500000007
 20
1159.5
 30
0.0
 40
1.5
 50
180.0
 51
270.0
  0
ARC
  5
47C
  8
DATA
  6
CONTINUOUS
 62
     7
 10
-261.1062500000007
 20
1168.5
 30
0.0
 40
1.500000000000633
 50
359.522537932675
 51
90.0
  0
ARC
  5
47D
  8
DATA
  6
CONTINUOUS
 62
     7
 10
-261.1437499999993
 20
1159.5
 30
0.0
 40
1.5
 50
270.0
 51
0.0
  0
ARC
  5
47E
  8
DATA
  6
CONTINUOUS
 62
     7
 10
-300.0
 20
1073.437755055148
 30
0.0
 40
93.06224494485234
 50
65.32127574863215
 51
114.6787242513678
  0
LINE
  5
47F
  8
DATA
  6
CONTINUOUS
 62
     7
 10
-337.4648631564924
 20
1161.567157558241
 30
0.0
 11
-337.4883333333328
 21
1167.2
 31
0.0
  0
LINE
  5
480
  8
DATA
  6
CONTINUOUS
 62
     7
 10
-337.4883333333328
 20
1167.2
 30
0.0
 11
-329.1883333333335
 21
1167.2
 31
0.0
  0
ARC
  5
481
  8
DATA
  6
CONTINUOUS
 62
     7
 10
-300.0
 20
1073.437755055148
 30
0.0
 40
95.76224494489998
 50
107.7394492906491
 51
113.030925281616
  0
LINE
  5
482
  8
DATA
  6
CONTINUOUS
 62
     7
 10
-329.1776945390284
 20
1164.646689366838
 30
0.0
 11
-329.1883333333335
 21
1167.2
 31
0.0
  0
LINE
  5
483
  8
DATA
  6
CONTINUOUS
 62
     7
 10
-262.5351368435076
 20
1161.567157558241
 30
0.0
 11
-262.5116666666672
 21
1167.2
 31
0.0
  0
LINE
  5
484
  8
DATA
  6
CONTINUOUS
 62
     7
 10
-262.5116666666672
 20
1167.2
 30
0.0
 11
-270.8116666666665
 21
1167.2
 31
0.0
  0
ARC
  5
485
  8
DATA
  6
CONTINUOUS
 62
     7
 10
-300.0
 20
1073.437755055148
 30
0.0
 40
95.76224494489998
 50
66.96907471838401
 51
72.26055070935095
  0
LINE
  5
486
  8
DATA
  6
CONTINUOUS
 62
     7
 10
-270.8223054609716
 20
1164.646689366838
 30
0.0
 11
-270.8116666666665
 21
1167.2
 31
0.0
  0
ARC
  5
487
  8
DATA
  6
CONTINUOUS
 62
     7
 10
-300.0
 20
1073.437755055148
 30
0.0
 40
92.62203787605691
 50
60.57763554567219
 51
119.4223644543278
  0
LINE
  5
488
  8
DATA
  6
CONTINUOUS
 62
     7
 10
-261.3275495196331
 20
1157.6
 30
0.0
 11
-261.1437499999993
 21
1158.0
 31
0.0
  0
LINE
  5
489
  8
DATA
  6
CONTINUOUS
 62
     7
 10
-338.6724504803669
 20
1157.6
 30
0.0
 11
-338.8562500000007
 21
1158.0
 31
0.0
  0
LINE
  5
48A
  8
DATA
  6
______-7
 62
     7
 10
-300.0
 20
1428.2
 30
0.0
 11
-300.0
 21
875.0
 31
0.0
  0
LINE
  5
48B
  8
DATA
  6
CONTINUOUS
 62
     7
 10
550.0
 20
950.0000000000001
 30
0.0
 11
550.0
 21
-750.0000000000001
 31
0.0
  0
LINE
  5
48C
  8
DATA
  6
CONTINUOUS
 62
     7
 10
550.0
 20
-738.5
 30
0.0
 11
600.0
 21
-713.5
 31
0.0
  0
LINE
  5
48D
  8
DATA
  6
CONTINUOUS
 62
     7
 10
550.0
 20
-679.5
 30
0.0
 11
600.0
 21
-654.5
 31
0.0
  0
LINE
  5
48E
  8
DATA
  6
CONTINUOUS
 62
     7
 10
550.0
 20
-620.5
 30
0.0
 11
600.0
 21
-595.5
 31
0.0
  0
LINE
  5
48F
  8
DATA
  6
CONTINUOUS
 62
     7
 10
550.0
 20
-561.5
 30
0.0
 11
600.0
 21
-536.5
 31
0.0
  0
LINE
  5
490
  8
DATA
  6
CONTINUOUS
 62
     7
 10
550.0
 20
-502.5
 30
0.0
 11
600.0
 21
-477.5
 31
0.0
  0
LINE
  5
491
  8
DATA
  6
CONTINUOUS
 62
     7
 10
550.0
 20
-443.5
 30
0.0
 11
600.0
 21
-418.5
 31
0.0
  0
LINE
  5
492
  8
DATA
  6
CONTINUOUS
 62
     7
 10
550.0
 20
-384.5
 30
0.0
 11
600.0
 21
-359.5
 31
0.0
  0
LINE
  5
493
  8
DATA
  6
CONTINUOUS
 62
     7
 10
550.0
 20
-325.5
 30
0.0
 11
600.0
 21
-300.5
 31
0.0
  0
LINE
  5
494
  8
DATA
  6
CONTINUOUS
 62
     7
 10
550.0
 20
-266.5
 30
0.0
 11
600.0
 21
-241.5
 31
0.0
  0
LINE
  5
495
  8
DATA
  6
CONTINUOUS
 62
     7
 10
550.0
 20
-207.5
 30
0.0
 11
600.0
 21
-182.5
 31
0.0
  0
LINE
  5
496
  8
DATA
  6
CONTINUOUS
 62
     7
 10
550.0
 20
-148.5
 30
0.0
 11
600.0
 21
-123.5
 31
0.0
  0
LINE
  5
497
  8
DATA
  6
CONTINUOUS
 62
     7
 10
550.0
 20
-89.5
 30
0.0
 11
600.0
 21
-64.5
 31
0.0
  0
LINE
  5
498
  8
DATA
  6
CONTINUOUS
 62
     7
 10
550.0
 20
-30.5
 30
0.0
 11
600.0
 21
-5.5
 31
0.0
  0
LINE
  5
499
  8
DATA
  6
CONTINUOUS
 62
     7
 10
550.0
 20
28.5
 30
0.0
 11
600.0
 21
53.5
 31
0.0
  0
LINE
  5
49A
  8
DATA
  6
CONTINUOUS
 62
     7
 10
550.0
 20
87.5
 30
0.0
 11
600.0
 21
112.5
 31
0.0
  0
LINE
  5
49B
  8
DATA
  6
CONTINUOUS
 62
     7
 10
550.0
 20
146.5
 30
0.0
 11
600.0
 21
171.5
 31
0.0
  0
LINE
  5
49C
  8
DATA
  6
CONTINUOUS
 62
     7
 10
550.0
 20
205.5
 30
0.0
 11
600.0
 21
230.5
 31
0.0
  0
LINE
  5
49D
  8
DATA
  6
CONTINUOUS
 62
     7
 10
550.0
 20
264.5
 30
0.0
 11
600.0
 21
289.5
 31
0.0
  0
LINE
  5
49E
  8
DATA
  6
CONTINUOUS
 62
     7
 10
550.0
 20
323.5
 30
0.0
 11
600.0
 21
348.5
 31
0.0
  0
LINE
  5
49F
  8
DATA
  6
CONTINUOUS
 62
     7
 10
550.0
 20
382.5
 30
0.0
 11
600.0
 21
407.5
 31
0.0
  0
LINE
  5
4A0
  8
DATA
  6
CONTINUOUS
 62
     7
 10
550.0
 20
441.5
 30
0.0
 11
600.0
 21
466.5
 31
0.0
  0
LINE
  5
4A1
  8
DATA
  6
CONTINUOUS
 62
     7
 10
550.0
 20
500.5
 30
0.0
 11
600.0
 21
525.5
 31
0.0
  0
LINE
  5
4A2
  8
DATA
  6
CONTINUOUS
 62
     7
 10
550.0
 20
559.5
 30
0.0
 11
600.0
 21
584.5
 31
0.0
  0
LINE
  5
4A3
  8
DATA
  6
CONTINUOUS
 62
     7
 10
550.0
 20
618.5
 30
0.0
 11
600.0
 21
643.5
 31
0.0
  0
LINE
  5
4A4
  8
DATA
  6
CONTINUOUS
 62
     7
 10
550.0
 20
677.5
 30
0.0
 11
600.0
 21
702.5
 31
0.0
  0
LINE
  5
4A5
  8
DATA
  6
CONTINUOUS
 62
     7
 10
550.0
 20
736.5
 30
0.0
 11
600.0
 21
761.5
 31
0.0
  0
LINE
  5
4A6
  8
DATA
  6
CONTINUOUS
 62
     7
 10
550.0
 20
795.5
 30
0.0
 11
600.0
 21
820.5
 31
0.0
  0
LINE
  5
4A7
  8
DATA
  6
CONTINUOUS
 62
     7
 10
550.0
 20
854.5
 30
0.0
 11
600.0
 21
879.5
 31
0.0
  0
LINE
  5
4A8
  8
DATA
  6
CONTINUOUS
 62
     7
 10
550.0
 20
913.5
 30
0.0
 11
600.0
 21
938.5
 31
0.0
  0
LINE
  5
4A9
  8
DATA
  6
CONTINUOUS
 62
     7
 10
-50.0
 20
1400.0
 30
0.0
 11
-550.0
 21
1400.0
 31
0.0
  0
LINE
  5
4AA
  8
DATA
  6
CONTINUOUS
 62
     7
 10
-523.5
 20
1400.0
 30
0.0
 11
-548.5
 21
1450.0
 31
0.0
  0
LINE
  5
4AB
  8
DATA
  6
CONTINUOUS
 62
     7
 10
-464.5
 20
1400.0
 30
0.0
 11
-489.5
 21
1450.0
 31
0.0
  0
LINE
  5
4AC
  8
DATA
  6
CONTINUOUS
 62
     7
 10
-405.5
 20
1400.0
 30
0.0
 11
-430.5
 21
1450.0
 31
0.0
  0
LINE
  5
4AD
  8
DATA
  6
CONTINUOUS
 62
     7
 10
-346.5
 20
1400.0
 30
0.0
 11
-371.5
 21
1450.0
 31
0.0
  0
LINE
  5
4AE
  8
DATA
  6
CONTINUOUS
 62
     7
 10
-287.5
 20
1400.0
 30
0.0
 11
-312.5
 21
1450.0
 31
0.0
  0
LINE
  5
4AF
  8
DATA
  6
CONTINUOUS
 62
     7
 10
-228.5
 20
1400.0
 30
0.0
 11
-253.5
 21
1450.0
 31
0.0
  0
LINE
  5
4B0
  8
DATA
  6
CONTINUOUS
 62
     7
 10
-169.5
 20
1400.0
 30
0.0
 11
-194.5
 21
1450.0
 31
0.0
  0
LINE
  5
4B1
  8
DATA
  6
CONTINUOUS
 62
     7
 10
-110.5
 20
1400.0
 30
0.0
 11
-135.5
 21
1450.0
 31
0.0
  0
LINE
  5
4B2
  8
DATA
  6
CONTINUOUS
 62
     7
 10
-51.5
 20
1400.0
 30
0.0
 11
-76.5
 21
1450.0
 31
0.0
  0
ARC
  5
4B3
  8
DATA
  6
CONTINUOUS
 62
     7
 10
-317.1999999999998
 20
1180.0
 30
0.0
 40
10.0
 50
270.0
 51
0.0
  0
ARC
  5
4B4
  8
DATA
  6
CONTINUOUS
 62
     7
 10
-317.1999999999998
 20
-848.0
 30
0.0
 40
10.0
 50
0.0
 51
90.0
  0
LINE
  5
4B5
  8
DATA
  6
______-2
 62
     7
 10
-345.5
 20
908.0597929312046
 30
0.0
 11
-345.5
 21
1099.0
 31
0.0
  0
LINE
  5
4B6
  8
DATA
  6
______-2
 62
     7
 10
-254.5
 20
908.0597929312046
 30
0.0
 11
-254.5
 21
1099.0
 31
0.0
  0
LINE
  5
4B7
  8
DATA
  6
______-2
 62
     7
 10
-270.0
 20
891.0597929312046
 30
0.0
 11
-330.0
 21
891.0597929312046
 31
0.0
  0
LINE
  5
4B8
  8
DATA
  6
______-2
 62
     7
 10
-341.0
 20
908.1987291586354
 30
0.0
 11
-341.0
 21
960.6696563171483
 31
0.0
  0
LINE
  5
4B9
  8
DATA
  6
______-2
 62
     7
 10
-259.0
 20
908.1987291586354
 30
0.0
 11
-259.0
 21
960.6696563171483
 31
0.0
  0
LINE
  5
4BA
  8
DATA
  6
______-2
 62
     7
 10
-328.5644993220485
 20
894.5597929312046
 30
0.0
 11
-271.4355006779515
 21
894.5597929312046
 31
0.0
  0
ARC
  5
4BB
  8
DATA
  6
______-2
 62
     7
 10
-300.0
 20
888.9347929312046
 30
0.0
 40
82.62499999999969
 50
60.24991103599311
 51
119.7500889640067
  0
LINE
  5
4BC
  8
DATA
  6
______-2
 62
     7
 10
-345.5
 20
908.0597929312046
 30
0.0
 11
-330.0
 21
891.0597929312046
 31
0.0
  0
LINE
  5
4BD
  8
DATA
  6
______-2
 62
     7
 10
-270.0
 20
891.0597929312046
 30
0.0
 11
-254.5
 21
908.0597929312046
 31
0.0
  0
LINE
  5
4BE
  8
DATA
  6
______-2
 62
     7
 10
-341.0
 20
908.1987291586354
 30
0.0
 11
-328.5644993220485
 21
894.5597929312046
 31
0.0
  0
LINE
  5
4BF
  8
DATA
  6
______-2
 62
     7
 10
-259.0
 20
908.1987291586354
 30
0.0
 11
-271.4355006779515
 21
894.5597929312046
 31
0.0
  0
ARC
  5
4C0
  8
DATA
  6
______-2
 62
     7
 10
-300.0
 20
888.9347929312046
 30
0.0
 40
77.62499999999997
 50
63.19947828261986
 51
116.8005217173801
  0
LINE
  5
4C1
  8
DATA
  6
______-2
 62
     7
 10
-326.3570186924444
 20
899.5597929312046
 30
0.0
 11
-273.6429813075556
 21
899.5597929312046
 31
0.0
  0
LINE
  5
4C2
  8
DATA
  6
______-2
 62
     7
 10
-335.0
 20
909.0391917846525
 30
0.0
 11
-335.0
 21
958.2214483924115
 31
0.0
  0
LINE
  5
4C3
  8
DATA
  6
______-2
 62
     7
 10
-265.0
 20
909.0391917846525
 30
0.0
 11
-265.0
 21
958.2214483924115
 31
0.0
  0
LINE
  5
4C4
  8
DATA
  6
______-2
 62
     7
 10
-335.0
 20
909.0391917846525
 30
0.0
 11
-326.3570186924444
 21
899.5597929312046
 31
0.0
  0
LINE
  5
4C5
  8
DATA
  6
______-2
 62
     7
 10
-265.0
 20
909.0391917846525
 30
0.0
 11
-273.6429813075556
 21
899.5597929312046
 31
0.0
  0
ARC
  5
4C6
  8
DATA
  6
______-2
 62
     7
 10
-300.0
 20
882.4975479863526
 30
0.0
 40
92.62203787605691
 50
60.57763554567219
 51
119.4223644543278
  0
LINE
  5
4C7
  8
DATA
  6
______-2
 62
     7
 10
-261.3275495196331
 20
966.6597929312045
 30
0.0
 11
-261.1437499999993
 21
967.0597929312046
 31
0.0
  0
LINE
  5
4C8
  8
DATA
  6
______-2
 62
     7
 10
-338.6724504803669
 20
966.6597929312045
 30
0.0
 11
-338.8562500000007
 21
967.0597929312046
 31
0.0
  0
TEXT
  5
4C9
  8
DATA
 62
     7
 10
100.0
 20
-1519.05
 30
0.0
 40
40.61767578125004
  1
※:上下15°時
 41
0.7
 11
100.0
 21
-1478.43232421875
 31
0.0
 73
     3
  0
VIEWPORT
  5
4CA
 67
     1
  8
0
 10
128.5
 20
97.5
 30
0.0
 40
314.226
 41
222.18
 68
     1
 69
     1
1001
ACAD
1000
MVIEW
1002
{
1070
    16
1010
0.0
1020
0.0
1030
0.0
1020
0.0
1030
0.0
1010
0.0
1020
0.0
1030
1.0
1020
0.0
1030
1.0
1040
0.0
1040
222.18
1040
128.5
1040
97.5
1040
50.0
1040
0.0
1040
0.0
1070
     0
1070
   100
1070
     0
1070
     3
1070
     0
1070
     0
1070
     0
1070
     0
1040
0.0
1040
0.0
1040
0.0
1040
10.0
1040
10.0
1040
10.0
1040
10.0
1070
     0
1002
{
1002
}
1002
}
  0
ENDSEC
  0
EOF
