  0
SECTION
  2
HEADER
  9
$ACADVER
  1
AC1009
  9
$DWGCODEPAGE
  3
ansi_932
  9
$INSBASE
 10
0.0
 20
0.0
 30
0.0
  9
$EXTMIN
 10
-2249.99999994375
 20
-3371.827558079854
 30
0.0
  9
$EXTMAX
 10
2249.99999994375
 20
3334.763559916542
 30
0.0
  9
$LIMMIN
 10
0.0
 20
0.0
  9
$LIMMAX
 10
0.0
 20
0.0
  9
$ORTHOMODE
 70
     0
  9
$REGENMODE
 70
     1
  9
$FILLMODE
 70
     1
  9
$QTEXTMODE
 70
     0
  9
$MIRRTEXT
 70
     1
  9
$DRAGMODE
 70
     2
  9
$LTSCALE
 40
127.0
  9
$OSMODE
 70
  8423
  9
$ATTMODE
 70
     1
  9
$TEXTSIZE
 40
0.0
  9
$TRACEWID
 40
1.0
  9
$TEXTSTYLE
  7
STANDARD
  9
$CLAYER
  8
DATA
  9
$CELTYPE
  6
BYLAYER
  9
$CECOLOR
 62
   256
  9
$DIMSCALE
 40
1.0
  9
$DIMASZ
 40
0.18
  9
$DIMEXO
 40
0.0625
  9
$DIMDLI
 40
0.38
  9
$DIMRND
 40
0.0
  9
$DIMDLE
 40
0.0
  9
$DIMEXE
 40
0.18
  9
$DIMTP
 40
0.0
  9
$DIMTM
 40
0.0
  9
$DIMTXT
 40
0.18
  9
$DIMCEN
 40
0.09
  9
$DIMTSZ
 40
0.0
  9
$DIMTOL
 70
     0
  9
$DIMLIM
 70
     0
  9
$DIMTIH
 70
     1
  9
$DIMTOH
 70
     1
  9
$DIMSE1
 70
     0
  9
$DIMSE2
 70
     0
  9
$DIMTAD
 70
     0
  9
$DIMZIN
 70
     0
  9
$DIMBLK
  1

  9
$DIMASO
 70
     1
  9
$DIMSHO
 70
     1
  9
$DIMPOST
  1

  9
$DIMAPOST
  1

  9
$DIMALT
 70
     0
  9
$DIMALTD
 70
     2
  9
$DIMALTF
 40
25.4
  9
$DIMLFAC
 40
1.0
  9
$DIMTOFL
 70
     0
  9
$DIMTVP
 40
0.0
  9
$DIMTIX
 70
     0
  9
$DIMSOXD
 70
     0
  9
$DIMSAH
 70
     0
  9
$DIMBLK1
  1

  9
$DIMBLK2
  1

  9
$DIMSTYLE
  2
STANDARD
  9
$DIMCLRD
 70
     0
  9
$DIMCLRE
 70
     0
  9
$DIMCLRT
 70
     0
  9
$DIMTFAC
 40
1.0
  9
$DIMGAP
 40
0.09
  9
$LUNITS
 70
     2
  9
$LUPREC
 70
     2
  9
$SKETCHINC
 40
0.1
  9
$FILLETRAD
 40
0.0
  9
$AUNITS
 70
     0
  9
$AUPREC
 70
     0
  9
$MENU
  1
acad
  9
$ELEVATION
 40
0.0
  9
$PELEVATION
 40
0.0
  9
$THICKNESS
 40
0.0
  9
$LIMCHECK
 70
     0
  9
$CHAMFERA
 40
0.0
  9
$CHAMFERB
 40
0.0
  9
$SKPOLY
 70
     0
  9
$TDCREATE
 40
2459626.625988623
  9
$TDUPDATE
 40
2459626.6266364
  9
$TDINDWG
 40
2459626.251636944
  9
$TDUSRTIMER
 40
0.0006483218
  9
$USRTIMER
 70
     1
  9
$ANGBASE
 50
0.0
  9
$ANGDIR
 70
     0
  9
$PDMODE
 70
     1
  9
$PDSIZE
 40
-2.0
  9
$PLINEWID
 40
0.0
  9
$COORDS
 70
     1
  9
$SPLFRAME
 70
     0
  9
$SPLINETYPE
 70
     6
  9
$SPLINESEGS
 70
     8
  9
$ATTDIA
 70
     1
  9
$ATTREQ
 70
     1
  9
$HANDLING
 70
     1
  9
$HANDSEED
  5
A6F
  9
$SURFTAB1
 70
     6
  9
$SURFTAB2
 70
     6
  9
$SURFTYPE
 70
     6
  9
$SURFU
 70
     6
  9
$SURFV
 70
     6
  9
$UCSNAME
  2

  9
$UCSORG
 10
0.0
 20
0.0
 30
0.0
  9
$UCSXDIR
 10
1.0
 20
0.0
 30
0.0
  9
$UCSYDIR
 10
0.0
 20
1.0
 30
0.0
  9
$PUCSNAME
  2

  9
$PUCSORG
 10
0.0
 20
0.0
 30
0.0
  9
$PUCSXDIR
 10
1.0
 20
0.0
 30
0.0
  9
$PUCSYDIR
 10
0.0
 20
1.0
 30
0.0
  9
$USERI1
 70
     0
  9
$USERI2
 70
     0
  9
$USERI3
 70
     0
  9
$USERI4
 70
     0
  9
$USERI5
 70
     0
  9
$USERR1
 40
0.0
  9
$USERR2
 40
0.0
  9
$USERR3
 40
0.0
  9
$USERR4
 40
0.0
  9
$USERR5
 40
0.0
  9
$WORLDVIEW
 70
     1
  9
$SHADEDGE
 70
     3
  9
$SHADEDIF
 70
    70
  9
$TILEMODE
 70
     1
  9
$MAXACTVP
 70
    64
  9
$PLIMCHECK
 70
     0
  9
$PEXTMIN
 10
1.000000000000000E+20
 20
1.000000000000000E+20
 30
1.000000000000000E+20
  9
$PEXTMAX
 10
-1.000000000000000E+20
 20
-1.000000000000000E+20
 30
-1.000000000000000E+20
  9
$PLIMMIN
 10
0.0
 20
0.0
  9
$PLIMMAX
 10
12.0
 20
9.0
  9
$UNITMODE
 70
     0
  9
$VISRETAIN
 70
     0
  9
$PLINEGEN
 70
     1
  9
$PSLTSCALE
 70
     0
  0
ENDSEC
  0
SECTION
  2
TABLES
  0
TABLE
  2
VPORT
 70
     1
  0
VPORT
  2
*ACTIVE
 70
     0
 10
0.0
 20
0.0
 11
1.0
 21
1.0
 12
0.0
 22
-3.531814999999824
 13
0.0
 23
0.0
 14
1.0
 24
1.0
 15
0.0
 25
0.0
 16
0.0
 26
0.0
 36
1.0
 17
0.0
 27
0.0
 37
0.0
 40
6676.590749833085
 41
2.409090909090909
 42
50.0
 43
0.0
 44
0.0
 50
0.0
 51
0.0
 71
     0
 72
  2000
 73
     1
 74
     1
 75
     0
 76
     0
 77
     0
 78
     0
  0
ENDTAB
  0
TABLE
  2
LTYPE
 70
    11
  0
LTYPE
  2
CONTINUOUS
 70
     0
  3
Solid line
 72
    65
 73
     0
 40
0.0
  0
ENDTAB
  0
TABLE
  2
LAYER
 70
     5
  0
LAYER
  2
0
 70
     0
 62
     7
  6
CONTINUOUS
  0
LAYER
  2
HIBINO-BASE
 70
     0
 62
     7
  6
CONTINUOUS
  0
LAYER
  2
SPEC
 70
     0
 62
     7
  6
CONTINUOUS
  0
LAYER
  2
DIMNSIONS
 70
     0
 62
     7
  6
CONTINUOUS
  0
LAYER
  2
DATA
 70
     0
 62
     7
  6
CONTINUOUS
  0
ENDTAB
  0
TABLE
  2
STYLE
 70
     2
  0
STYLE
  2
STANDARD
 70
     0
 40
0.0
 41
1.0
 50
0.0
 71
     0
 42
0.0
  3
txt
  4
BIGFONT.SHX
  0
ENDTAB
  0
TABLE
  2
VIEW
 70
     0
  0
ENDTAB
  0
TABLE
  2
UCS
 70
     0
  0
ENDTAB
  0
TABLE
  2
APPID
 70
     3
  0
APPID
  2
ACAD
 70
     0
  0
APPID
  2
ACAD_MLEADERVER
 70
     0
  0
APPID
  2
ACADANNOPO
 70
     0
  0
ENDTAB
  0
TABLE
  2
DIMSTYLE
 70
     1
  0
DIMSTYLE
  2
STANDARD
 70
     0
  3

  4

  5

  6

  7

 40
1.0
 41
0.18
 42
0.0625
 43
0.38
 44
0.18
 45
0.0
 46
0.0
 47
0.0
 48
0.0
140
0.18
141
0.09
142
0.0
143
25.4
144
1.0
145
0.0
146
1.0
147
0.09
 71
     0
 72
     0
 73
     1
 74
     1
 75
     0
 76
     0
 77
     0
 78
     0
170
     0
171
     2
172
     0
173
     0
174
     0
175
     0
176
     0
177
     0
178
     0
  0
ENDTAB
  0
ENDSEC
  0
SECTION
  2
BLOCKS
  0
BLOCK
  8
DATA
  2
$MODEL_SPACE
 70
     0
 10
0.0
 20
0.0
 30
0.0
  3
$MODEL_SPACE
  1

  0
ENDBLK
  5
9B0
  8
DATA
  6
CONTINUOUS
  0
BLOCK
 67
     1
  8
DATA
  2
$PAPER_SPACE
 70
     0
 10
0.0
 20
0.0
 30
0.0
  3
$PAPER_SPACE
  1

  0
ENDBLK
  5
9AE
 67
     1
  8
DATA
  6
CONTINUOUS
  0
ENDSEC
  0
SECTION
  2
ENTITIES
  0
LINE
  5
2C
  8
HIBINO-BASE
  6
CONTINUOUS
 62
     7
 10
-2249.99999994375
 20
3334.763559916542
 30
0.0
 11
2249.99999994375
 21
3334.763559916542
 31
0.0
  0
LINE
  5
2D
  8
HIBINO-BASE
  6
CONTINUOUS
 62
     7
 10
2249.99999994375
 20
-3165.236439920957
 30
0.0
 11
-2249.99999994375
 21
-3165.236439920957
 31
0.0
  0
LINE
  5
2E
  8
HIBINO-BASE
  6
CONTINUOUS
 62
     7
 10
-2249.99999994375
 20
-3165.236439920957
 30
0.0
 11
-2249.99999994375
 21
3334.763559916542
 31
0.0
  0
LINE
  5
2F
  8
HIBINO-BASE
  6
CONTINUOUS
 62
     7
 10
2249.99999994375
 20
3334.763559916542
 30
0.0
 11
2249.99999994375
 21
-3165.236439920957
 31
0.0
  0
LINE
  5
30
  8
HIBINO-BASE
  6
CONTINUOUS
 62
     7
 10
0.0000000000005116
 20
-2602.73643993502
 30
0.0
 11
2249.99999994375
 21
-2602.73643993502
 31
0.0
  0
LINE
  5
31
  8
HIBINO-BASE
  6
CONTINUOUS
 62
     7
 10
0.0000000000005116
 20
-3165.236439920957
 30
0.0
 11
0.0000000000005116
 21
-2602.73643993502
 31
0.0
  0
TEXT
  5
32
  8
HIBINO-BASE
 62
     7
 10
22.49999999943776
 20
-2665.453773266785
 30
0.0
 40
40.72102864481531
  1
NOTE
 41
0.7
 11
22.49999999943776
 21
-2624.73274462197
 31
0.0
 73
     3
  0
LINE
  5
33
  8
HIBINO-BASE
  6
CONTINUOUS
 62
     7
 10
874.9999999781255
 20
-3165.236439920957
 30
0.0
 11
874.9999999781255
 21
-2602.73643993502
 31
0.0
  0
TEXT
  5
34
  8
HIBINO-BASE
 62
     7
 10
897.4999999775621
 20
-2665.453773266785
 30
0.0
 40
40.72102864481531
  1
TITLE
 41
0.7
 11
897.4999999775621
 21
-2624.73274462197
 31
0.0
 73
     3
  0
LINE
  5
35
  8
HIBINO-BASE
  6
CONTINUOUS
 62
     7
 10
0.0000000000005116
 20
-2915.236439927207
 30
0.0
 11
2249.99999994375
 21
-2915.236439927207
 31
0.0
  0
TEXT
  5
36
  8
HIBINO-BASE
 62
     7
 10
1209.99999996975
 20
-2976.545773259008
 30
0.0
 40
40.72102864481531
  1
DRAWN
 41
0.7
 11
1209.99999996975
 21
-2935.824744614193
 31
0.0
 73
     3
  0
TEXT
  5
37
  8
HIBINO-BASE
 62
     7
 10
584.9999999853746
 20
-2976.545773259008
 30
0.0
 40
40.72102864481531
  1
DATE
 41
0.7
 11
584.9999999853746
 21
-2935.824744614193
 31
0.0
 73
     3
  0
TEXT
  5
38
  8
HIBINO-BASE
 62
     7
 10
334.9999999916246
 20
-2976.545773259008
 30
0.0
 40
40.72102864481531
  1
SCALE
 41
0.7
 11
334.9999999916246
 21
-2935.824744614193
 31
0.0
 73
     3
  0
TEXT
  5
39
  8
HIBINO-BASE
 62
     7
 10
897.4999999775621
 20
-2976.545773259008
 30
0.0
 40
40.72102864481531
  1
DESIGN
 41
0.7
 11
897.4999999775621
 21
-2935.824744614193
 31
0.0
 73
     3
  0
TEXT
  5
3A
  8
HIBINO-BASE
 62
     7
 10
1834.999999954125
 20
-2976.545773259008
 30
0.0
 40
40.72102864481531
  1
DRAWING NO.
 41
0.7
 11
1834.999999954125
 21
-2935.824744614193
 31
0.0
 73
     3
  0
TEXT
  5
3B
  8
HIBINO-BASE
 62
     7
 10
1522.499999961938
 20
-2976.545773259008
 30
0.0
 40
40.72102864481531
  1
CHECK
 41
0.7
 11
1522.499999961938
 21
-2935.824744614193
 31
0.0
 73
     3
  0
LINE
  5
3C
  8
HIBINO-BASE
  6
CONTINUOUS
 62
     7
 10
359.3749999910158
 20
-3133.986439921739
 30
0.0
 11
453.1249999886722
 21
-3040.236439924082
 31
0.0
  0
TEXT
  5
3D
  8
HIBINO-BASE
 62
     7
 10
343.7499999914064
 20
-3067.960023256723
 30
0.0
 40
40.72102864481531
  1
1
 41
0.7
 11
343.7499999914064
 21
-3027.238994611907
 31
0.0
 73
     3
  0
LINE
  5
3E
  8
HIBINO-BASE
  6
CONTINUOUS
 62
     7
 10
312.499999992188
 20
-3165.236439920957
 30
0.0
 11
312.499999992188
 21
-2915.236439927207
 31
0.0
  0
LINE
  5
3F
  8
HIBINO-BASE
  6
CONTINUOUS
 62
     7
 10
562.4999999859369
 20
-3165.236439920957
 30
0.0
 11
562.4999999859369
 21
-2915.236439927207
 31
0.0
  0
LINE
  5
40
  8
HIBINO-BASE
  6
CONTINUOUS
 62
     7
 10
1187.499999970312
 20
-2915.236439927207
 30
0.0
 11
1187.499999970312
 21
-3165.236439920957
 31
0.0
  0
LINE
  5
41
  8
HIBINO-BASE
  6
CONTINUOUS
 62
     7
 10
1812.499999954688
 20
-2915.236439927207
 30
0.0
 11
1812.499999954688
 21
-3165.236439920957
 31
0.0
  0
LINE
  5
42
  8
HIBINO-BASE
  6
CONTINUOUS
 62
     7
 10
1499.999999962499
 20
-3165.236439920957
 30
0.0
 11
1499.999999962499
 21
-2915.236439927207
 31
0.0
  0
TEXT
  5
43
  8
HIBINO-BASE
 62
     7
 10
583.9134999854025
 20
-3093.645273256079
 30
0.0
 40
40.72102864481531
  1
'22.02.
 41
0.7
 11
583.9134999854025
 21
-3052.924244611264
 31
0.0
 73
     3
  0
TEXT
  5
44
  8
HIBINO-BASE
 62
     7
 10
437.4999999890627
 20
-3114.83502325555
 30
0.0
 40
40.72102864481531
  1
25
 41
0.7
 11
437.4999999890627
 21
-3074.113994610735
 31
0.0
 73
     3
  0
TEXT
  5
45
  8
HIBINO-BASE
 62
     7
 10
1225.145250245237
 20
-3093.645273256079
 30
0.0
 40
40.72102864481531
  1
N.Sasaki
 41
0.7
 11
1225.145250245237
 21
-3052.924244611264
 31
0.0
 73
     3
  0
TEXT
  5
46
  8
HIBINO-BASE
 62
     7
 10
97.08333333090701
 20
-3115.836439922191
 30
0.0
 40
81.44205728963061
  1
A4
 41
0.7
 11
97.08333333090701
 21
-3034.394382632561
 31
0.0
 73
     3
  0
TEXT
  5
47
  8
HIBINO-BASE
 62
     7
 10
23.95833333273396
 20
-2980.72281492557
 30
0.0
 40
40.72102864481531
  1
PAPER SIZE
 41
0.7
 11
23.95833333273396
 21
-2940.001786280754
 31
0.0
 73
     3
  0
TEXT
  5
48
  8
HIBINO-BASE
 62
     7
 10
-2070.399999948239
 20
-3325.453384916952
 30
0.0
 40
90.00110448993746
  1
Hibino Corporation
 41
0.7
 11
-2070.399999948239
 21
-3235.452280427014
 31
0.0
 73
     3
  0
TEXT
  5
49
  8
HIBINO-BASE
 62
     7
 10
1251.709749968708
 20
-3325.453384916952
 30
0.0
 40
90.00110448993746
  1
ヒビノ株式会社
 41
0.7
 11
1251.709749968708
 21
-3235.452280427014
 31
0.0
 73
     3
  0
LINE
  5
4A
  8
SPEC
  6
CONTINUOUS
 62
     7
 10
-2062.499999948436
 20
3084.763559922792
 30
0.0
 11
1900.0
 21
3084.763559922792
 31
0.0
  0
LINE
  5
4B
  8
SPEC
  6
CONTINUOUS
 62
     7
 10
-2062.499999948436
 20
2991.013559925136
 30
0.0
 11
1900.0
 21
2991.013559925136
 31
0.0
  0
LINE
  5
4C
  8
SPEC
  6
CONTINUOUS
 62
     7
 10
-2062.499999948436
 20
3084.763559922792
 30
0.0
 11
-2062.499999948436
 21
647.2635599837298
 31
0.0
  0
TEXT
  5
4D
  8
SPEC
 62
     7
 10
-2031.249999949218
 20
3119.595309921921
 30
0.0
 40
61.08154296722297
  1
仕様
 41
0.7
 11
-2031.249999949218
 21
3180.676852889144
 31
0.0
 73
     3
  0
LINE
  5
4E
  8
SPEC
  6
CONTINUOUS
 62
     7
 10
-1550.0
 20
2803.513559929824
 30
0.0
 11
-1550.0
 21
2616.01355993451
 31
0.0
  0
LINE
  5
4F
  8
SPEC
  6
CONTINUOUS
 62
     7
 10
-1550.0
 20
2522.263559936855
 30
0.0
 11
-1550.0
 21
1491.013559962636
 31
0.0
  0
LINE
  5
50
  8
SPEC
  6
CONTINUOUS
 62
     7
 10
1900.0
 20
3084.763559922792
 30
0.0
 11
1900.0
 21
647.2635599837298
 31
0.0
  0
TEXT
  5
51
  8
SPEC
 62
     7
 10
-2039.999999949
 20
1135.711504415963
 30
0.0
 40
47.50786675228453
  1
寸法(W×H×D)
 41
0.7
 11
-2039.999999949
 21
1183.219371168248
 31
0.0
 73
     3
  0
LINE
  5
52
  8
SPEC
  6
CONTINUOUS
 62
     7
 10
-2062.499999948436
 20
2897.263559927479
 30
0.0
 11
1900.0
 21
2897.263559927479
 31
0.0
  0
LINE
  5
53
  8
SPEC
  6
CONTINUOUS
 62
     7
 10
-2062.499999948436
 20
2803.513559929824
 30
0.0
 11
1900.0
 21
2803.513559929824
 31
0.0
  0
LINE
  5
54
  8
SPEC
  6
CONTINUOUS
 62
     7
 10
-1550.0
 20
2709.763559932167
 30
0.0
 11
1900.0
 21
2709.763559932167
 31
0.0
  0
LINE
  5
55
  8
SPEC
  6
CONTINUOUS
 62
     7
 10
-2062.499999948436
 20
2616.01355993451
 30
0.0
 11
1900.0
 21
2616.01355993451
 31
0.0
  0
LINE
  5
56
  8
SPEC
  6
CONTINUOUS
 62
     7
 10
-2062.499999948436
 20
2522.263559936855
 30
0.0
 11
1900.0
 21
2522.263559936855
 31
0.0
  0
LINE
  5
57
  8
SPEC
  6
CONTINUOUS
 62
     7
 10
-1550.0
 20
2428.513559939199
 30
0.0
 11
1900.0
 21
2428.513559939199
 31
0.0
  0
LINE
  5
58
  8
SPEC
  6
CONTINUOUS
 62
     7
 10
-800.0000000000001
 20
2334.763559941543
 30
0.0
 11
1900.0
 21
2334.763559941543
 31
0.0
  0
LINE
  5
59
  8
SPEC
  6
CONTINUOUS
 62
     7
 10
-800.0000000000001
 20
2241.013559943886
 30
0.0
 11
1900.0
 21
2241.013559943886
 31
0.0
  0
LINE
  5
5A
  8
SPEC
  6
CONTINUOUS
 62
     7
 10
-1550.0
 20
2147.26355994623
 30
0.0
 11
1900.0
 21
2147.26355994623
 31
0.0
  0
LINE
  5
5B
  8
SPEC
  6
CONTINUOUS
 62
     7
 10
-800.0000000000001
 20
2053.513559948574
 30
0.0
 11
1900.0
 21
2053.513559948574
 31
0.0
  0
LINE
  5
5C
  8
SPEC
  6
CONTINUOUS
 62
     7
 10
-800.0000000000001
 20
1959.763559950917
 30
0.0
 11
1900.0
 21
1959.763559950917
 31
0.0
  0
LINE
  5
5D
  8
SPEC
  6
CONTINUOUS
 62
     7
 10
-2062.499999948436
 20
1866.013559953261
 30
0.0
 11
1900.0
 21
1866.013559953261
 31
0.0
  0
LINE
  5
5E
  8
SPEC
  6
CONTINUOUS
 62
     7
 10
-2062.499999948436
 20
1772.263559955605
 30
0.0
 11
1900.0
 21
1772.263559955605
 31
0.0
  0
LINE
  5
5F
  8
SPEC
  6
CONTINUOUS
 62
     7
 10
-1550.0
 20
1678.513559957949
 30
0.0
 11
1900.0
 21
1678.513559957949
 31
0.0
  0
LINE
  5
60
  8
SPEC
  6
CONTINUOUS
 62
     7
 10
-1550.0
 20
1584.763559960292
 30
0.0
 11
1900.0
 21
1584.763559960292
 31
0.0
  0
LINE
  5
61
  8
SPEC
  6
CONTINUOUS
 62
     7
 10
-2062.499999948436
 20
1491.013559962636
 30
0.0
 11
1900.0
 21
1491.013559962636
 31
0.0
  0
LINE
  5
62
  8
SPEC
  6
CONTINUOUS
 62
     7
 10
-2062.499999948436
 20
1397.26355996498
 30
0.0
 11
1900.0
 21
1397.26355996498
 31
0.0
  0
LINE
  5
63
  8
SPEC
  6
CONTINUOUS
 62
     7
 10
-2062.499999948436
 20
1303.513559967324
 30
0.0
 11
1900.0
 21
1303.513559967324
 31
0.0
  0
TEXT
  5
64
  8
SPEC
 62
     7
 10
-1527.500000000562
 20
1135.711504415408
 30
0.0
 40
47.50786675347223
  1
使用時
 41
0.7
 11
-1527.500000000562
 21
1183.21937116888
 31
0.0
 73
     3
  0
TEXT
  5
65
  8
SPEC
 62
     7
 10
-2039.999999949
 20
2916.961504370876
 30
0.0
 40
47.50786675347223
  1
指向角度(水平×垂直)^I
 41
0.7
 11
-2039.999999949
 21
2964.469371124349
 31
0.0
 73
     3
  0
TEXT
  5
66
  8
SPEC
 62
     7
 10
-2039.999999949
 20
2823.211504373219
 30
0.0
 40
47.50786675347223
  1
最大音圧レベル
 41
0.7
 11
-2039.999999949
 21
2870.719371126691
 31
0.0
 73
     3
  0
TEXT
  5
67
  8
SPEC
 62
     7
 10
-2039.999999949
 20
2729.461504375563
 30
0.0
 40
47.50786675347223
  1
ドライバー構成
 41
0.7
 11
-2039.999999949
 21
2776.969371129035
 31
0.0
 73
     3
  0
TEXT
  5
68
  8
SPEC
 62
     7
 10
-2039.999999949
 20
2541.961504380251
 30
0.0
 40
47.50786675347223
  1
パワーアンプ
 41
0.7
 11
-2039.999999949
 21
2589.469371133723
 31
0.0
 73
     3
  0
TEXT
  5
69
  8
SPEC
 62
     7
 10
-1527.500000000562
 20
2729.461504375563
 30
0.0
 40
47.50786675347223
  1
LF
 41
0.7
 11
-1527.500000000562
 21
2776.969371129035
 31
0.0
 73
     3
  0
TEXT
  5
6A
  8
SPEC
 62
     7
 10
-1527.500000000562
 20
2635.711504377908
 30
0.0
 40
47.50786675347223
  1
HF
 41
0.7
 11
-1527.500000000562
 21
2683.21937113138
 31
0.0
 73
     3
  0
TEXT
  5
6B
  8
SPEC
 62
     7
 10
-2039.999999949
 20
2448.211504382594
 30
0.0
 40
47.50786675347223
  1
入力
 41
0.7
 11
-2039.999999949
 21
2495.719371136066
 31
0.0
 73
     3
  0
TEXT
  5
6C
  8
SPEC
 62
     7
 10
-2039.999999949
 20
1791.961504399001
 30
0.0
 40
47.50786675347223
  1
スルー出力
 41
0.7
 11
-2039.999999949
 21
1839.469371152473
 31
0.0
 73
     3
  0
TEXT
  5
6D
  8
SPEC
 62
     7
 10
-2039.999999949
 20
1698.211504401345
 30
0.0
 40
47.50786675347223
  1
Bluetooth
 41
0.7
 11
-2039.999999949
 21
1745.719371154818
 31
0.0
 73
     3
  0
TEXT
  5
6E
  8
SPEC
 62
     7
 10
-2039.999999949
 20
1416.961504408376
 30
0.0
 40
47.50786675347223
  1
電源
 41
0.7
 11
-2039.999999949
 21
1464.469371161848
 31
0.0
 73
     3
  0
TEXT
  5
6F
  8
SPEC
 62
     7
 10
-2039.999999949
 20
1323.21150441072
 30
0.0
 40
47.50786675347223
  1
消費電力(1/8出力、ピンクノイズ)
 41
0.7
 11
-2039.999999949
 21
1370.719371164192
 31
0.0
 73
     3
  0
TEXT
  5
70
  8
SPEC
 62
     7
 10
-2039.999999949
 20
1229.461504413064
 30
0.0
 40
47.50786675347223
  1
エンクロージャー
 41
0.7
 11
-2039.999999949
 21
1276.969371166536
 31
0.0
 73
     3
  0
TEXT
  5
71
  8
SPEC
 62
     7
 10
-777.5000000005625
 20
2729.461504375563
 30
0.0
 40
47.50786675347223
  1
12インチ(305mm)
 41
0.7
 11
-777.5000000005625
 21
2776.969371129035
 31
0.0
 73
     3
  0
TEXT
  5
72
  8
SPEC
 62
     7
 10
-777.5000000005623
 20
2635.711504377908
 30
0.0
 40
47.50786675347223
  1
2.5インチ(64mm)×12
 41
0.7
 11
-777.5000000005623
 21
2683.21937113138
 31
0.0
 73
     3
  0
LINE
  5
73
  8
SPEC
  6
CONTINUOUS
 62
     7
 10
-800.0
 20
3084.763559922792
 30
0.0
 11
-800.0
 21
647.2635599837298
 31
0.0
  0
TEXT
  5
74
  8
SPEC
 62
     7
 10
-777.5000000005623
 20
1135.711504414636
 30
0.0
 40
47.50786675347223
  1
375×1,983×445mm(除突起部)
 41
0.7
 11
-777.5000000005623
 21
1183.219371168109
 31
0.0
 73
     3
  0
TEXT
  5
75
  8
SPEC
 62
     7
 10
-777.5000000005621
 20
3010.711504368532
 30
0.0
 40
47.50786675347223
  1
35Hz～20kHz
 41
0.7
 11
-777.5000000005621
 21
3058.219371122004
 31
0.0
 73
     3
  0
TEXT
  5
76
  8
SPEC
 62
     7
 10
-777.5000000005623
 20
2916.961504370876
 30
0.0
 40
47.50786675347223
  1
130°×30°
 41
0.7
 11
-777.5000000005623
 21
2964.469371124349
 31
0.0
 73
     3
  0
TEXT
  5
77
  8
SPEC
 62
     7
 10
-777.5000000005623
 20
2823.211504373219
 30
0.0
 40
47.50786675347223
  1
130dB SPL
 41
0.7
 11
-777.5000000005623
 21
2870.719371126691
 31
0.0
 73
     3
  0
TEXT
  5
78
  8
SPEC
 62
     7
 10
-777.5000000005623
 20
2541.961504380251
 30
0.0
 40
47.50786675347223
  1
2,000W(ピーク)
 41
0.7
 11
-777.5000000005623
 21
2589.469371133723
 31
0.0
 73
     3
  0
TEXT
  5
79
  8
SPEC
 62
     7
 10
-1527.500000000562
 20
2448.211504382594
 30
0.0
 40
47.50786675347223
  1
チャンネル数
 41
0.7
 11
-1527.500000000562
 21
2495.719371136066
 31
0.0
 73
     3
  0
TEXT
  5
7A
  8
SPEC
 62
     7
 10
-1527.500000000562
 20
2354.461504384938
 30
0.0
 40
47.50786675347223
  1
端子・形式
 41
0.7
 11
-1527.500000000562
 21
2401.96937113841
 31
0.0
 73
     3
  0
TEXT
  5
7B
  8
SPEC
 62
     7
 10
-1527.500000000562
 20
2073.21150439197
 30
0.0
 40
47.50786675347223
  1
インピーダンス
 41
0.7
 11
-1527.500000000562
 21
2120.719371145442
 31
0.0
 73
     3
  0
TEXT
  5
7C
  8
SPEC
 62
     7
 10
-777.5000000005623
 20
2448.211504382594
 30
0.0
 40
47.50786675347223
  1
7(6モノラル＋1ステレオ/Bluetooth)
 41
0.7
 11
-777.5000000005623
 21
2495.719371136066
 31
0.0
 73
     3
  0
TEXT
  5
7D
  8
SPEC
 62
     7
 10
-777.5000000005621
 20
2354.461504384938
 30
0.0
 40
47.50786675347223
  1
CH1～4:XLRと標準フォーン(3P)対応の複合型端子
 41
0.7
 11
-777.5000000005621
 21
2401.96937113841
 31
0.0
 73
     3
  0
TEXT
  5
7E
  8
SPEC
 62
     7
 10
-777.5000000005621
 20
2073.21150439197
 30
0.0
 40
47.50786675347223
  1
CH1～4:4kΩ(バランス)
 41
0.7
 11
-777.5000000005621
 21
2120.719371145442
 31
0.0
 73
     3
  0
TEXT
  5
7F
  8
SPEC
 62
     7
 10
-777.5000000005621
 20
2260.711504387282
 30
0.0
 40
47.50786675347223
  1
CH5/6:標準フォーン(3P)
 41
0.7
 11
-777.5000000005621
 21
2308.219371140754
 31
0.0
 73
     3
  0
TEXT
  5
80
  8
SPEC
 62
     7
 10
-777.5000000005623
 20
2166.961504389626
 30
0.0
 40
47.50786675347223
  1
CH7:ステレオ・ミニフォーン
 41
0.7
 11
-777.5000000005623
 21
2214.469371143099
 31
0.0
 73
     3
  0
TEXT
  5
81
  8
SPEC
 62
     7
 10
-777.5000000005623
 20
1979.461504394314
 30
0.0
 40
47.50786675347223
  1
CH5/6:2MΩ(バランス)
 41
0.7
 11
-777.5000000005623
 21
2026.969371147786
 31
0.0
 73
     3
  0
TEXT
  5
82
  8
SPEC
 62
     7
 10
-777.5000000005623
 20
1885.711504396657
 30
0.0
 40
47.50786675347223
  1
CH7:10kΩ(アンバランス)
 41
0.7
 11
-777.5000000005623
 21
1933.21937115013
 31
0.0
 73
     3
  0
TEXT
  5
83
  8
SPEC
 62
     7
 10
-777.5000000005623
 20
1791.961504399001
 30
0.0
 40
47.50786675347223
  1
XLR
 41
0.7
 11
-777.5000000005623
 21
1839.469371152473
 31
0.0
 73
     3
  0
TEXT
  5
84
  8
SPEC
 62
     7
 10
-1527.500000000562
 20
1791.961504399001
 30
0.0
 40
47.50786675347223
  1
端子・形式
 41
0.7
 11
-1527.500000000562
 21
1839.469371152473
 31
0.0
 73
     3
  0
TEXT
  5
85
  8
SPEC
 62
     7
 10
-1527.500000000562
 20
1698.211504401345
 30
0.0
 40
47.50786675347223
  1
通信方式
 41
0.7
 11
-1527.500000000562
 21
1745.719371154818
 31
0.0
 73
     3
  0
TEXT
  5
86
  8
SPEC
 62
     7
 10
-1527.500000000562
 20
1604.461504403689
 30
0.0
 40
47.50786675347223
  1
最長通信距離
 41
0.7
 11
-1527.500000000562
 21
1651.969371157161
 31
0.0
 73
     3
  0
TEXT
  5
87
  8
SPEC
 62
     7
 10
-1527.500000000562
 20
1510.711504406032
 30
0.0
 40
47.50786675347223
  1
対応コーデック
 41
0.7
 11
-1527.500000000562
 21
1558.219371159505
 31
0.0
 73
     3
  0
TEXT
  5
88
  8
SPEC
 62
     7
 10
-777.5000000005623
 20
1698.211504401345
 30
0.0
 40
47.50786675347223
  1
Bluetooth標準規格 Ver.5.0
 41
0.7
 11
-777.5000000005623
 21
1745.719371154818
 31
0.0
 73
     3
  0
TEXT
  5
89
  8
SPEC
 62
     7
 10
-777.5000000005623
 20
1604.461504403689
 30
0.0
 40
47.50786675347223
  1
見通しの良い状態で約20m
 41
0.7
 11
-777.5000000005623
 21
1651.969371157161
 31
0.0
 73
     3
  0
TEXT
  5
8A
  8
SPEC
 62
     7
 10
-777.5000000005623
 20
1510.711504406032
 30
0.0
 40
47.50786675347223
  1
SBC
 41
0.7
 11
-777.5000000005623
 21
1558.219371159505
 31
0.0
 73
     3
  0
TEXT
  5
8B
  8
SPEC
 62
     7
 10
-777.5000000005621
 20
1416.961504408376
 30
0.0
 40
47.50786675347223
  1
AC100V、50/60Hz
 41
0.7
 11
-777.5000000005621
 21
1464.469371161848
 31
0.0
 73
     3
  0
TEXT
  5
8C
  8
SPEC
 62
     7
 10
-777.5000000005621
 20
1323.21150441072
 30
0.0
 40
47.50786675347223
  1
60W
 41
0.7
 11
-777.5000000005621
 21
1370.719371164192
 31
0.0
 73
     3
  0
TEXT
  5
8D
  8
SPEC
 62
     7
 10
-777.5000000005625
 20
1229.461504413064
 30
0.0
 40
47.50786675347223
  1
ポリプロピレン製、黒
 41
0.7
 11
-777.5000000005625
 21
1276.969371166536
 31
0.0
 73
     3
  0
LINE
  5
8E
  8
SPEC
  6
CONTINUOUS
 62
     7
 10
-1550.0
 20
1209.763559969668
 30
0.0
 11
-1550.0
 21
834.7635599790425
 31
0.0
  0
LINE
  5
8F
  8
SPEC
  6
CONTINUOUS
 62
     7
 10
-2062.499999948436
 20
1209.763559969668
 30
0.0
 11
1900.0
 21
1209.763559969668
 31
0.0
  0
TEXT
  5
90
  8
SPEC
 62
     7
 10
-2039.999999949
 20
3010.711504368532
 30
0.0
 40
47.50786675347223
  1
周波数レンジ(-10dB)
 41
0.7
 11
-2039.999999949
 21
3058.219371122004
 31
0.0
 73
     3
  0
LINE
  5
91
  8
SPEC
  6
CONTINUOUS
 62
     7
 10
-1550.0
 20
1116.013559972011
 30
0.0
 11
1900.0
 21
1116.013559972011
 31
0.0
  0
TEXT
  5
92
  8
SPEC
 62
     7
 10
-1527.500000000562
 20
1041.961504417752
 30
0.0
 40
47.50786675347223
  1
収納時
 41
0.7
 11
-1527.500000000562
 21
1089.469371171224
 31
0.0
 73
     3
  0
TEXT
  5
93
  8
SPEC
 62
     7
 10
-777.5000000005621
 20
1041.96150441698
 30
0.0
 40
47.50786675347223
  1
ミキサー内蔵パワード・サブウーファー:375×550×445mm(除突起部)
 41
0.7
 11
-777.5000000005621
 21
1089.469371170453
 31
0.0
 73
     3
  0
LINE
  5
94
  8
SPEC
  6
CONTINUOUS
 62
     7
 10
-799.9999999999999
 20
1022.263559974355
 30
0.0
 11
1900.0
 21
1022.263559974355
 31
0.0
  0
LINE
  5
95
  8
SPEC
  6
CONTINUOUS
 62
     7
 10
-799.9999999999999
 20
928.5135599766987
 30
0.0
 11
1900.0
 21
928.5135599766987
 31
0.0
  0
LINE
  5
96
  8
SPEC
  6
CONTINUOUS
 62
     7
 10
-2062.499999948436
 20
741.0135599813862
 30
0.0
 11
1900.0
 21
741.0135599813862
 31
0.0
  0
LINE
  5
97
  8
SPEC
  6
CONTINUOUS
 62
     7
 10
-2062.499999948436
 20
834.7635599790425
 30
0.0
 11
1900.0
 21
834.7635599790425
 31
0.0
  0
TEXT
  5
98
  8
SPEC
 62
     7
 10
-2039.999999949
 20
760.7115044253386
 30
0.0
 40
47.50786675228453
  1
質量
 41
0.7
 11
-2039.999999949
 21
808.2193711776231
 31
0.0
 73
     3
  0
LINE
  5
99
  8
SPEC
  6
CONTINUOUS
 62
     7
 10
-2062.499999948436
 20
647.2635599837298
 30
0.0
 11
1900.0
 21
647.2635599837298
 31
0.0
  0
TEXT
  5
9A
  8
SPEC
 62
     7
 10
-2039.999999949
 20
666.9615044276823
 30
0.0
 40
47.50786675228453
  1
付属品
 41
0.7
 11
-2039.999999949
 21
714.4693711799667
 31
0.0
 73
     3
  0
TEXT
  5
9B
  8
SPEC
 62
     7
 10
-777.5000000005623
 20
760.7115044240115
 30
0.0
 40
47.50786675347223
  1
25kg
 41
0.7
 11
-777.5000000005623
 21
808.2193711774837
 31
0.0
 73
     3
  0
TEXT
  5
9C
  8
SPEC
 62
     7
 10
-777.5000000005623
 20
666.9615044263548
 30
0.0
 40
47.50786675347223
  1
コラム用キャリングバッグ、電源コード、和文取扱説明書
 41
0.7
 11
-777.5000000005623
 21
714.469371179827
 31
0.0
 73
     3
  0
TEXT
  5
9D
  8
SPEC
 62
     7
 10
-777.5000000005621
 20
948.2115044193242
 30
0.0
 40
47.50786675347223
  1
上部コラム:91×718×84mm(除突起部)
 41
0.7
 11
-777.5000000005621
 21
995.7193711727964
 31
0.0
 73
     3
  0
TEXT
  5
9E
  8
SPEC
 62
     7
 10
-777.5000000005623
 20
854.4615044216678
 30
0.0
 40
47.50786675347223
  1
下部コラム:91×720×84mm(除突起部)
 41
0.7
 11
-777.5000000005623
 21
901.9693711751399
 31
0.0
 73
     3
  0
TEXT
  5
9F
  8
DIMNSIONS
 62
     7
 10
-499.9999999874996
 20
-2858.499189928624
 30
0.0
 40
61.08154296722297
  1
(単位：mm)
 41
0.7
 11
-499.9999999874996
 21
-2797.417646961401
 31
0.0
 73
     3
  0
LINE
  5
A0
  8
DIMNSIONS
  6
CONTINUOUS
 62
     7
 10
-1630.0
 20
-50.0
 30
0.0
 11
-1975.0
 21
-50.0
 31
0.0
  0
LINE
  5
A1
  8
DIMNSIONS
  6
CONTINUOUS
 62
     7
 10
-1761.314996617487
 20
394.5
 30
0.0
 11
-1975.0
 21
394.5
 31
0.0
  0
LINE
  5
A2
  8
DIMNSIONS
  6
CONTINUOUS
 62
     7
 10
-1950.0
 20
-50.0
 30
0.0
 11
-1950.0
 21
394.5
 31
0.0
  0
LINE
  5
A3
  8
DIMNSIONS
  6
CONTINUOUS
 62
     7
 10
-1950.0
 20
-50.0
 30
0.0
 11
-1963.396641905515
 21
-0.0030517578125
 31
0.0
  0
LINE
  5
A4
  8
DIMNSIONS
  6
CONTINUOUS
 62
     7
 10
-1950.0
 20
-50.0
 30
0.0
 11
-1936.603358094485
 21
-0.0030517578125
 31
0.0
  0
LINE
  5
A5
  8
DIMNSIONS
  6
CONTINUOUS
 62
     7
 10
-1950.0
 20
394.5
 30
0.0
 11
-1936.603358094485
 21
344.5030517578125
 31
0.0
  0
LINE
  5
A6
  8
DIMNSIONS
  6
CONTINUOUS
 62
     7
 10
-1950.0
 20
394.5
 30
0.0
 11
-1963.396641905515
 21
344.5030517578125
 31
0.0
  0
TEXT
  5
A7
  8
DIMNSIONS
 62
     7
 10
-1974.847222222222
 20
106.1041666666667
 30
0.0
 40
67.8683810763889
  1
445
 50
90.0
 41
0.7
 11
-2042.715603298611
 21
106.1041666666667
 31
0.0
 73
     3
  0
LINE
  5
A8
  8
DIMNSIONS
  6
CONTINUOUS
 62
     7
 10
-1412.5
 20
-2127.0
 30
0.0
 11
-1412.5
 21
-2275.0
 31
0.0
  0
LINE
  5
A9
  8
DIMNSIONS
  6
CONTINUOUS
 62
     7
 10
-1787.5
 20
-2127.0
 30
0.0
 11
-1787.5
 21
-2275.0
 31
0.0
  0
LINE
  5
AA
  8
DIMNSIONS
  6
CONTINUOUS
 62
     7
 10
-1412.5
 20
-2250.0
 30
0.0
 11
-1787.5
 21
-2250.0
 31
0.0
  0
LINE
  5
AB
  8
DIMNSIONS
  6
CONTINUOUS
 62
     7
 10
-1412.5
 20
-2250.0
 30
0.0
 11
-1462.496948242188
 21
-2263.396641905515
 31
0.0
  0
LINE
  5
AC
  8
DIMNSIONS
  6
CONTINUOUS
 62
     7
 10
-1412.5
 20
-2250.0
 30
0.0
 11
-1462.496948242188
 21
-2236.603358094485
 31
0.0
  0
LINE
  5
AD
  8
DIMNSIONS
  6
CONTINUOUS
 62
     7
 10
-1787.5
 20
-2250.0
 30
0.0
 11
-1737.503051757812
 21
-2236.603358094485
 31
0.0
  0
LINE
  5
AE
  8
DIMNSIONS
  6
CONTINUOUS
 62
     7
 10
-1787.5
 20
-2250.0
 30
0.0
 11
-1737.503051757812
 21
-2263.396641905515
 31
0.0
  0
TEXT
  5
AF
  8
DIMNSIONS
 62
     7
 10
-1666.145833333333
 20
-2225.152777777778
 30
0.0
 40
67.8683810763889
  1
375
 41
0.7
 11
-1666.145833333333
 21
-2157.284396701389
 31
0.0
 73
     3
  0
LINE
  5
B0
  8
DIMNSIONS
  6
CONTINUOUS
 62
     7
 10
-1817.5
 20
-2097.0
 30
0.0
 11
-1975.0
 21
-2097.0
 31
0.0
  0
LINE
  5
B1
  8
DIMNSIONS
  6
CONTINUOUS
 62
     7
 10
-1802.5
 20
-1547.0
 30
0.0
 11
-1975.0
 21
-1547.0
 31
0.0
  0
LINE
  5
B2
  8
DIMNSIONS
  6
CONTINUOUS
 62
     7
 10
-1950.0
 20
-2097.0
 30
0.0
 11
-1950.0
 21
-1547.0
 31
0.0
  0
LINE
  5
B3
  8
DIMNSIONS
  6
CONTINUOUS
 62
     7
 10
-1950.0
 20
-2097.0
 30
0.0
 11
-1963.396641905515
 21
-2047.003051757812
 31
0.0
  0
LINE
  5
B4
  8
DIMNSIONS
  6
CONTINUOUS
 62
     7
 10
-1950.0
 20
-2097.0
 30
0.0
 11
-1936.603358094485
 21
-2047.003051757812
 31
0.0
  0
LINE
  5
B5
  8
DIMNSIONS
  6
CONTINUOUS
 62
     7
 10
-1950.0
 20
-1547.0
 30
0.0
 11
-1936.603358094485
 21
-1596.996948242188
 31
0.0
  0
LINE
  5
B6
  8
DIMNSIONS
  6
CONTINUOUS
 62
     7
 10
-1950.0
 20
-1547.0
 30
0.0
 11
-1963.396641905515
 21
-1596.996948242188
 31
0.0
  0
TEXT
  5
B7
  8
DIMNSIONS
 62
     7
 10
-1974.847222222222
 20
-1888.145833333333
 30
0.0
 40
67.8683810763889
  1
550
 50
90.0
 41
0.7
 11
-2042.715603298611
 21
-1888.145833333333
 31
0.0
 73
     3
  0
LINE
  5
B8
  8
DIMNSIONS
  6
CONTINUOUS
 62
     7
 10
-1671.0
 20
-114.0
 30
0.0
 11
-1975.0
 21
-114.0
 31
0.0
  0
LINE
  5
B9
  8
DIMNSIONS
  6
CONTINUOUS
 62
     7
 10
-1802.5
 20
-1547.0
 30
0.0
 11
-1975.0
 21
-1547.0
 31
0.0
  0
LINE
  5
BA
  8
DIMNSIONS
  6
CONTINUOUS
 62
     7
 10
-1950.0
 20
-114.0
 30
0.0
 11
-1950.0
 21
-1547.0
 31
0.0
  0
LINE
  5
BB
  8
DIMNSIONS
  6
CONTINUOUS
 62
     7
 10
-1950.0
 20
-114.0
 30
0.0
 11
-1936.603358094485
 21
-163.9969482421875
 31
0.0
  0
LINE
  5
BC
  8
DIMNSIONS
  6
CONTINUOUS
 62
     7
 10
-1950.0
 20
-114.0
 30
0.0
 11
-1963.396641905515
 21
-163.9969482421875
 31
0.0
  0
LINE
  5
BD
  8
DIMNSIONS
  6
CONTINUOUS
 62
     7
 10
-1950.0
 20
-1547.0
 30
0.0
 11
-1963.396641905515
 21
-1497.003051757812
 31
0.0
  0
LINE
  5
BE
  8
DIMNSIONS
  6
CONTINUOUS
 62
     7
 10
-1950.0
 20
-1547.0
 30
0.0
 11
-1936.603358094485
 21
-1497.003051757812
 31
0.0
  0
TEXT
  5
BF
  8
DIMNSIONS
 62
     7
 10
-1974.847222222222
 20
-918.6944444444443
 30
0.0
 40
67.8683810763889
  1
1433
 50
90.0
 41
0.7
 11
-2042.715603298611
 21
-918.6944444444443
 31
0.0
 73
     3
  0
LINE
  5
C0
  8
DIMNSIONS
  6
CONTINUOUS
 62
     7
 10
-1809.584407412496
 20
-2100.0
 30
0.0
 11
-1975.0
 21
-2100.0
 31
0.0
  0
LINE
  5
C1
  8
DIMNSIONS
  6
CONTINUOUS
 62
     7
 10
-1817.5
 20
-2097.0
 30
0.0
 11
-1975.0
 21
-2097.0
 31
0.0
  0
LINE
  5
C2
  8
DIMNSIONS
  6
CONTINUOUS
 62
     7
 10
-1950.0
 20
-2097.0
 30
0.0
 11
-1950.0
 21
-2100.0
 31
0.0
  0
LINE
  5
C3
  8
DIMNSIONS
  6
CONTINUOUS
 62
     7
 10
-1950.0
 20
-2100.0
 30
0.0
 11
-1950.0
 21
-2291.145833333333
 31
0.0
  0
LINE
  5
C4
  8
DIMNSIONS
  6
CONTINUOUS
 62
     7
 10
-1950.0
 20
-2100.0
 30
0.0
 11
-1936.603358094485
 21
-2149.996948242188
 31
0.0
  0
LINE
  5
C5
  8
DIMNSIONS
  6
CONTINUOUS
 62
     7
 10
-1950.0
 20
-2100.0
 30
0.0
 11
-1963.396641905515
 21
-2149.996948242188
 31
0.0
  0
LINE
  5
C6
  8
DIMNSIONS
  6
CONTINUOUS
 62
     7
 10
-1950.0
 20
-2097.0
 30
0.0
 11
-1950.0
 21
-2009.5
 31
0.0
  0
LINE
  5
C7
  8
DIMNSIONS
  6
CONTINUOUS
 62
     7
 10
-1950.0
 20
-2097.0
 30
0.0
 11
-1963.396641905515
 21
-2047.003051757812
 31
0.0
  0
LINE
  5
C8
  8
DIMNSIONS
  6
CONTINUOUS
 62
     7
 10
-1950.0
 20
-2097.0
 30
0.0
 11
-1936.603358094485
 21
-2047.003051757812
 31
0.0
  0
TEXT
  5
C9
  8
DIMNSIONS
 62
     7
 10
-1974.847222222222
 20
-2291.145833333333
 30
0.0
 40
67.8683810763889
  1
3.0
 50
90.0
 41
0.7
 11
-2042.715603298611
 21
-2291.145833333333
 31
0.0
 73
     3
  0
LINE
  5
CA
  8
DIMNSIONS
  6
CONTINUOUS
 62
     7
 10
-1817.5
 20
-2097.0
 30
0.0
 11
-2100.0
 21
-2097.0
 31
0.0
  0
LINE
  5
CB
  8
DIMNSIONS
  6
CONTINUOUS
 62
     7
 10
-1671.0
 20
-114.0
 30
0.0
 11
-2100.0
 21
-114.0
 31
0.0
  0
LINE
  5
CC
  8
DIMNSIONS
  6
CONTINUOUS
 62
     7
 10
-2075.0
 20
-2097.0
 30
0.0
 11
-2075.0
 21
-114.0
 31
0.0
  0
LINE
  5
CD
  8
DIMNSIONS
  6
CONTINUOUS
 62
     7
 10
-2075.0
 20
-2097.0
 30
0.0
 11
-2088.396641905515
 21
-2047.003051757812
 31
0.0
  0
LINE
  5
CE
  8
DIMNSIONS
  6
CONTINUOUS
 62
     7
 10
-2075.0
 20
-2097.0
 30
0.0
 11
-2061.603358094485
 21
-2047.003051757812
 31
0.0
  0
LINE
  5
CF
  8
DIMNSIONS
  6
CONTINUOUS
 62
     7
 10
-2075.0
 20
-114.0
 30
0.0
 11
-2061.603358094485
 21
-163.9969482421875
 31
0.0
  0
LINE
  5
D0
  8
DIMNSIONS
  6
CONTINUOUS
 62
     7
 10
-2075.0
 20
-114.0
 30
0.0
 11
-2088.396641905515
 21
-163.9969482421875
 31
0.0
  0
TEXT
  5
D1
  8
DIMNSIONS
 62
     7
 10
-2099.847222222222
 20
-1193.694444444444
 30
0.0
 40
67.8683810763889
  1
1983
 50
90.0
 41
0.7
 11
-2167.715603298611
 21
-1193.694444444444
 31
0.0
 73
     3
  0
LINE
  5
D2
  8
DIMNSIONS
  6
CONTINUOUS
 62
     7
 10
-1630.0
 20
-1541.0
 30
0.0
 11
-1850.0
 21
-1541.0
 31
0.0
  0
LINE
  5
D3
  8
DIMNSIONS
  6
CONTINUOUS
 62
     7
 10
-1802.5
 20
-1547.0
 30
0.0
 11
-1850.0
 21
-1547.0
 31
0.0
  0
LINE
  5
D4
  8
DIMNSIONS
  6
CONTINUOUS
 62
     7
 10
-1825.0
 20
-1547.0
 30
0.0
 11
-1825.0
 21
-1541.0
 31
0.0
  0
LINE
  5
D5
  8
DIMNSIONS
  6
CONTINUOUS
 62
     7
 10
-1825.0
 20
-1541.0
 30
0.0
 11
-1825.0
 21
-1358.708333333233
 31
0.0
  0
LINE
  5
D6
  8
DIMNSIONS
  6
CONTINUOUS
 62
     7
 10
-1825.0
 20
-1541.0
 30
0.0
 11
-1838.396641905515
 21
-1491.003051757812
 31
0.0
  0
LINE
  5
D7
  8
DIMNSIONS
  6
CONTINUOUS
 62
     7
 10
-1825.0
 20
-1541.0
 30
0.0
 11
-1811.603358094485
 21
-1491.003051757812
 31
0.0
  0
LINE
  5
D8
  8
DIMNSIONS
  6
CONTINUOUS
 62
     7
 10
-1825.0
 20
-1547.0
 30
0.0
 11
-1825.0
 21
-1634.5
 31
0.0
  0
LINE
  5
D9
  8
DIMNSIONS
  6
CONTINUOUS
 62
     7
 10
-1825.0
 20
-1547.0
 30
0.0
 11
-1811.603358094485
 21
-1596.996948242188
 31
0.0
  0
LINE
  5
DA
  8
DIMNSIONS
  6
CONTINUOUS
 62
     7
 10
-1825.0
 20
-1547.0
 30
0.0
 11
-1838.396641905515
 21
-1596.996948242188
 31
0.0
  0
TEXT
  5
DB
  8
DIMNSIONS
 62
     7
 10
-1849.847222222222
 20
-1490.9999999999
 30
0.0
 40
67.86838107638894
  1
6.0
 50
90.0
 41
0.7
 11
-1917.715603298611
 21
-1490.9999999999
 31
0.0
 73
     3
  0
LINE
  5
DC
  8
DIMNSIONS
  6
CONTINUOUS
 62
     7
 10
540.0
 20
43.625
 30
0.0
 11
425.0
 21
43.625
 31
0.0
  0
LINE
  5
DD
  8
DIMNSIONS
  6
CONTINUOUS
 62
     7
 10
570.0
 20
127.625
 30
0.0
 11
425.0
 21
127.625
 31
0.0
  0
LINE
  5
DE
  8
DIMNSIONS
  6
CONTINUOUS
 62
     7
 10
450.0
 20
127.625
 30
0.0
 11
450.0
 21
43.625
 31
0.0
  0
LINE
  5
DF
  8
DIMNSIONS
  6
CONTINUOUS
 62
     7
 10
450.0
 20
43.625
 30
0.0
 11
450.0
 21
-43.875
 31
0.0
  0
LINE
  5
E0
  8
DIMNSIONS
  6
CONTINUOUS
 62
     7
 10
450.0
 20
43.625
 30
0.0
 11
463.3966419055148
 21
-6.3719482421875
 31
0.0
  0
LINE
  5
E1
  8
DIMNSIONS
  6
CONTINUOUS
 62
     7
 10
450.0
 20
43.625
 30
0.0
 11
436.6033580944852
 21
-6.3719482421875
 31
0.0
  0
LINE
  5
E2
  8
DIMNSIONS
  6
CONTINUOUS
 62
     7
 10
450.0
 20
127.625
 30
0.0
 11
450.0
 21
215.125
 31
0.0
  0
LINE
  5
E3
  8
DIMNSIONS
  6
CONTINUOUS
 62
     7
 10
450.0
 20
127.625
 30
0.0
 11
436.6033580944852
 21
177.6219482421875
 31
0.0
  0
LINE
  5
E4
  8
DIMNSIONS
  6
CONTINUOUS
 62
     7
 10
450.0
 20
127.625
 30
0.0
 11
463.3966419055148
 21
177.6219482421875
 31
0.0
  0
TEXT
  5
E5
  8
DIMNSIONS
 62
     7
 10
412.6527777777777
 20
-2.569444444444447
 30
0.0
 40
67.86838107638894
  1
84.0
 50
90.0
 41
0.7
 11
344.7843967013888
 21
-2.569444444444443
 31
0.0
 73
     3
  0
LINE
  5
E6
  8
DIMNSIONS
  6
CONTINUOUS
 62
     7
 10
529.0
 20
9.5
 30
0.0
 11
475.0
 21
9.5
 31
0.0
  0
LINE
  5
E7
  8
DIMNSIONS
  6
CONTINUOUS
 62
     7
 10
524.5
 20
-708.5000000000001
 30
0.0
 11
475.0
 21
-708.5000000000001
 31
0.0
  0
LINE
  5
E8
  8
DIMNSIONS
  6
CONTINUOUS
 62
     7
 10
500.0
 20
9.5
 30
0.0
 11
500.0
 21
-708.5000000000001
 31
0.0
  0
LINE
  5
E9
  8
DIMNSIONS
  6
CONTINUOUS
 62
     7
 10
500.0
 20
9.5
 30
0.0
 11
513.3966419055148
 21
-40.4969482421875
 31
0.0
  0
LINE
  5
EA
  8
DIMNSIONS
  6
CONTINUOUS
 62
     7
 10
500.0
 20
9.5
 30
0.0
 11
486.6033580944852
 21
-40.4969482421875
 31
0.0
  0
LINE
  5
EB
  8
DIMNSIONS
  6
CONTINUOUS
 62
     7
 10
500.0
 20
-708.5000000000001
 30
0.0
 11
486.6033580944852
 21
-658.5030517578126
 31
0.0
  0
LINE
  5
EC
  8
DIMNSIONS
  6
CONTINUOUS
 62
     7
 10
500.0
 20
-708.5000000000001
 30
0.0
 11
513.3966419055148
 21
-658.5030517578126
 31
0.0
  0
TEXT
  5
ED
  8
DIMNSIONS
 62
     7
 10
475.1527777777777
 20
-415.6458333333334
 30
0.0
 40
67.86838107638894
  1
718
 50
90.0
 41
0.7
 11
407.2843967013888
 21
-415.6458333333334
 31
0.0
 73
     3
  0
LINE
  5
EE
  8
DIMNSIONS
  6
CONTINUOUS
 62
     7
 10
554.5
 20
144.625
 30
0.0
 11
554.5
 21
216.5
 31
0.0
  0
LINE
  5
EF
  8
DIMNSIONS
  6
CONTINUOUS
 62
     7
 10
645.5
 20
144.625
 30
0.0
 11
645.5
 21
216.5
 31
0.0
  0
LINE
  5
F0
  8
DIMNSIONS
  6
CONTINUOUS
 62
     7
 10
645.5
 20
191.5
 30
0.0
 11
554.5
 21
191.5
 31
0.0
  0
LINE
  5
F1
  8
DIMNSIONS
  6
CONTINUOUS
 62
     7
 10
554.5
 20
191.5
 30
0.0
 11
467.0
 21
191.5
 31
0.0
  0
LINE
  5
F2
  8
DIMNSIONS
  6
CONTINUOUS
 62
     7
 10
554.5
 20
191.5
 30
0.0
 11
504.5030517578125
 21
178.1033580944852
 31
0.0
  0
LINE
  5
F3
  8
DIMNSIONS
  6
CONTINUOUS
 62
     7
 10
554.5
 20
191.5
 30
0.0
 11
504.5030517578125
 21
204.8966419055148
 31
0.0
  0
LINE
  5
F4
  8
DIMNSIONS
  6
CONTINUOUS
 62
     7
 10
645.5
 20
191.5
 30
0.0
 11
733.0
 21
191.5
 31
0.0
  0
LINE
  5
F5
  8
DIMNSIONS
  6
CONTINUOUS
 62
     7
 10
645.5
 20
191.5
 30
0.0
 11
695.4969482421875
 21
204.8966419055148
 31
0.0
  0
LINE
  5
F6
  8
DIMNSIONS
  6
CONTINUOUS
 62
     7
 10
645.5
 20
191.5
 30
0.0
 11
695.4969482421875
 21
178.1033580944852
 31
0.0
  0
TEXT
  5
F7
  8
DIMNSIONS
 62
     7
 10
511.8055555555555
 20
228.8472222222223
 30
0.0
 40
67.86838107638894
  1
91.0
 41
0.7
 11
511.8055555555555
 21
296.7156032986112
 31
0.0
 73
     3
  0
LINE
  5
F8
  8
DIMNSIONS
  6
CONTINUOUS
 62
     7
 10
1424.5
 20
-700.0
 30
0.0
 11
1375.0
 21
-700.0
 31
0.0
  0
LINE
  5
F9
  8
DIMNSIONS
  6
CONTINUOUS
 62
     7
 10
1424.5
 20
20.0
 30
0.0
 11
1375.0
 21
20.0
 31
0.0
  0
LINE
  5
FA
  8
DIMNSIONS
  6
CONTINUOUS
 62
     7
 10
1400.0
 20
-700.0
 30
0.0
 11
1400.0
 21
20.0
 31
0.0
  0
LINE
  5
FB
  8
DIMNSIONS
  6
CONTINUOUS
 62
     7
 10
1400.0
 20
-700.0
 30
0.0
 11
1386.603358094485
 21
-650.0030517578125
 31
0.0
  0
LINE
  5
FC
  8
DIMNSIONS
  6
CONTINUOUS
 62
     7
 10
1400.0
 20
-700.0
 30
0.0
 11
1413.396641905515
 21
-650.0030517578125
 31
0.0
  0
LINE
  5
FD
  8
DIMNSIONS
  6
CONTINUOUS
 62
     7
 10
1400.0
 20
20.0
 30
0.0
 11
1413.396641905515
 21
-29.9969482421875
 31
0.0
  0
LINE
  5
FE
  8
DIMNSIONS
  6
CONTINUOUS
 62
     7
 10
1400.0
 20
20.0
 30
0.0
 11
1386.603358094485
 21
-29.9969482421875
 31
0.0
  0
TEXT
  5
FF
  8
DIMNSIONS
 62
     7
 10
1375.152777777778
 20
-406.1458333333334
 30
0.0
 40
67.86838107638894
  1
720
 50
90.0
 41
0.7
 11
1307.284396701389
 21
-406.1458333333334
 31
0.0
 73
     3
  0
LINE
  5
100
  8
DIMNSIONS
  6
CONTINUOUS
 62
     7
 10
1470.000000000001
 20
50.0
 30
0.0
 11
1325.0
 21
50.0
 31
0.0
  0
LINE
  5
101
  8
DIMNSIONS
  6
CONTINUOUS
 62
     7
 10
1469.99999999916
 20
133.9999999999999
 30
0.0
 11
1325.0
 21
133.9999999999999
 31
0.0
  0
LINE
  5
102
  8
DIMNSIONS
  6
CONTINUOUS
 62
     7
 10
1350.0
 20
133.9999999999999
 30
0.0
 11
1350.0
 21
50.0
 31
0.0
  0
LINE
  5
103
  8
DIMNSIONS
  6
CONTINUOUS
 62
     7
 10
1350.0
 20
50.0
 30
0.0
 11
1350.0
 21
-37.5
 31
0.0
  0
LINE
  5
104
  8
DIMNSIONS
  6
CONTINUOUS
 62
     7
 10
1350.0
 20
50.0
 30
0.0
 11
1363.396641905515
 21
0.0030517578125
 31
0.0
  0
LINE
  5
105
  8
DIMNSIONS
  6
CONTINUOUS
 62
     7
 10
1350.0
 20
50.0
 30
0.0
 11
1336.603358094485
 21
0.0030517578125
 31
0.0
  0
LINE
  5
106
  8
DIMNSIONS
  6
CONTINUOUS
 62
     7
 10
1350.0
 20
133.9999999999999
 30
0.0
 11
1350.0
 21
221.4999999999999
 31
0.0
  0
LINE
  5
107
  8
DIMNSIONS
  6
CONTINUOUS
 62
     7
 10
1350.0
 20
133.9999999999999
 30
0.0
 11
1336.603358094485
 21
183.9969482421874
 31
0.0
  0
LINE
  5
108
  8
DIMNSIONS
  6
CONTINUOUS
 62
     7
 10
1350.0
 20
133.9999999999999
 30
0.0
 11
1363.396641905515
 21
183.9969482421874
 31
0.0
  0
TEXT
  5
109
  8
DIMNSIONS
 62
     7
 10
1312.652777777778
 20
3.805555555555525
 30
0.0
 40
67.86838107638894
  1
84.0
 50
90.0
 41
0.7
 11
1244.784396701389
 21
3.805555555555529
 31
0.0
 73
     3
  0
LINE
  5
10A
  8
DIMNSIONS
  6
CONTINUOUS
 62
     7
 10
1454.508332460219
 20
145.7445207911944
 30
0.0
 11
1454.508332460219
 21
225.0
 31
0.0
  0
LINE
  5
10B
  8
DIMNSIONS
  6
CONTINUOUS
 62
     7
 10
1545.491667539857
 20
145.7445207940684
 30
0.0
 11
1545.491667539857
 21
225.0
 31
0.0
  0
LINE
  5
10C
  8
DIMNSIONS
  6
CONTINUOUS
 62
     7
 10
1545.491667539857
 20
200.0
 30
0.0
 11
1454.508332460219
 21
200.0
 31
0.0
  0
LINE
  5
10D
  8
DIMNSIONS
  6
CONTINUOUS
 62
     7
 10
1454.508332460219
 20
200.0
 30
0.0
 11
1367.008332460219
 21
200.0
 31
0.0
  0
LINE
  5
10E
  8
DIMNSIONS
  6
CONTINUOUS
 62
     7
 10
1454.508332460219
 20
200.0
 30
0.0
 11
1404.511384218031
 21
186.6033580944852
 31
0.0
  0
LINE
  5
10F
  8
DIMNSIONS
  6
CONTINUOUS
 62
     7
 10
1454.508332460219
 20
200.0
 30
0.0
 11
1404.511384218031
 21
213.3966419055148
 31
0.0
  0
LINE
  5
110
  8
DIMNSIONS
  6
CONTINUOUS
 62
     7
 10
1545.491667539857
 20
200.0
 30
0.0
 11
1632.991667539857
 21
200.0
 31
0.0
  0
LINE
  5
111
  8
DIMNSIONS
  6
CONTINUOUS
 62
     7
 10
1545.491667539857
 20
200.0
 30
0.0
 11
1595.488615782044
 21
213.3966419055148
 31
0.0
  0
LINE
  5
112
  8
DIMNSIONS
  6
CONTINUOUS
 62
     7
 10
1545.491667539857
 20
200.0
 30
0.0
 11
1595.488615782044
 21
186.6033580944852
 31
0.0
  0
TEXT
  5
113
  8
DIMNSIONS
 62
     7
 10
1411.805555555593
 20
237.3472222222223
 30
0.0
 40
67.86838107638894
  1
91.0
 41
0.7
 11
1411.805555555593
 21
305.2156032986112
 31
0.0
 73
     3
  0
LINE
  5
114
  8
DIMNSIONS
  6
CONTINUOUS
 62
     7
 10
524.5
 20
-708.5
 30
0.0
 11
475.0
 21
-708.5
 31
0.0
  0
LINE
  5
115
  8
DIMNSIONS
  6
CONTINUOUS
 62
     7
 10
538.048266502799
 20
-762.5
 30
0.0
 11
475.0
 21
-762.5
 31
0.0
  0
LINE
  5
116
  8
DIMNSIONS
  6
CONTINUOUS
 62
     7
 10
500.0
 20
-762.5
 30
0.0
 11
500.0
 21
-708.5
 31
0.0
  0
LINE
  5
117
  8
DIMNSIONS
  6
CONTINUOUS
 62
     7
 10
500.0
 20
-708.5
 30
0.0
 11
500.0
 21
-621.0
 31
0.0
  0
LINE
  5
118
  8
DIMNSIONS
  6
CONTINUOUS
 62
     7
 10
500.0
 20
-708.5
 30
0.0
 11
486.6033580944852
 21
-658.5030517578125
 31
0.0
  0
LINE
  5
119
  8
DIMNSIONS
  6
CONTINUOUS
 62
     7
 10
500.0
 20
-708.5
 30
0.0
 11
513.3966419055148
 21
-658.5030517578125
 31
0.0
  0
LINE
  5
11A
  8
DIMNSIONS
  6
CONTINUOUS
 62
     7
 10
500.0
 20
-762.5
 30
0.0
 11
500.0
 21
-850.0
 31
0.0
  0
LINE
  5
11B
  8
DIMNSIONS
  6
CONTINUOUS
 62
     7
 10
500.0
 20
-762.5
 30
0.0
 11
513.3966419055148
 21
-812.4969482421875
 31
0.0
  0
LINE
  5
11C
  8
DIMNSIONS
  6
CONTINUOUS
 62
     7
 10
500.0
 20
-762.5
 30
0.0
 11
486.6033580944852
 21
-812.4969482421875
 31
0.0
  0
TEXT
  5
11D
  8
DIMNSIONS
 62
     7
 10
462.6527777777777
 20
-823.6944444444445
 30
0.0
 40
67.86838107638894
  1
54.0
 50
90.0
 41
0.7
 11
394.7843967013888
 21
-823.6944444444445
 31
0.0
 73
     3
  0
LINE
  5
11E
  8
DIMNSIONS
  6
CONTINUOUS
 62
     7
 10
1435.0
 20
-770.0
 30
0.0
 11
1375.0
 21
-770.0
 31
0.0
  0
LINE
  5
11F
  8
DIMNSIONS
  6
CONTINUOUS
 62
     7
 10
1424.5
 20
-700.0
 30
0.0
 11
1375.0
 21
-700.0
 31
0.0
  0
LINE
  5
120
  8
DIMNSIONS
  6
CONTINUOUS
 62
     7
 10
1400.0
 20
-700.0
 30
0.0
 11
1400.0
 21
-770.0
 31
0.0
  0
LINE
  5
121
  8
DIMNSIONS
  6
CONTINUOUS
 62
     7
 10
1400.0
 20
-770.0
 30
0.0
 11
1400.0
 21
-857.5
 31
0.0
  0
LINE
  5
122
  8
DIMNSIONS
  6
CONTINUOUS
 62
     7
 10
1400.0
 20
-770.0
 30
0.0
 11
1413.396641905515
 21
-819.9969482421875
 31
0.0
  0
LINE
  5
123
  8
DIMNSIONS
  6
CONTINUOUS
 62
     7
 10
1400.0
 20
-770.0
 30
0.0
 11
1386.603358094485
 21
-819.9969482421875
 31
0.0
  0
LINE
  5
124
  8
DIMNSIONS
  6
CONTINUOUS
 62
     7
 10
1400.0
 20
-700.0
 30
0.0
 11
1400.0
 21
-612.5
 31
0.0
  0
LINE
  5
125
  8
DIMNSIONS
  6
CONTINUOUS
 62
     7
 10
1400.0
 20
-700.0
 30
0.0
 11
1386.603358094485
 21
-650.0030517578125
 31
0.0
  0
LINE
  5
126
  8
DIMNSIONS
  6
CONTINUOUS
 62
     7
 10
1400.0
 20
-700.0
 30
0.0
 11
1413.396641905515
 21
-650.0030517578125
 31
0.0
  0
TEXT
  5
127
  8
DIMNSIONS
 62
     7
 10
1362.652777777778
 20
-823.1944444444445
 30
0.0
 40
67.86838107638894
  1
70.0
 50
90.0
 41
0.7
 11
1294.784396701389
 21
-823.1944444444445
 31
0.0
 73
     3
  0
LINE
  5
128
  8
DATA
  6
CONTINUOUS
 62
     7
 10
528.4598305543318
 20
-2374.999999998126
 30
0.0
 11
1295.10888824153
 21
-2374.999999998126
 31
0.0
  0
TEXT
  5
129
  8
DATA
 62
     7
 10
-2199.999999944999
 20
-2968.329495481436
 30
0.0
 40
47.50786675228453
  1
※仕様及び外観は予告なく変更されることがあります。
 41
0.7
 11
-2199.999999944999
 21
-2920.821628729151
 31
0.0
 73
     3
  0
TEXT
  5
12A
  8
DATA
 62
     7
 10
-2199.999999944999
 20
-3030.065606591003
 30
0.0
 40
47.50786675228453
  1
　また、同一商品でも若干の個体差があることがあります。ご了承ください。
 41
0.7
 11
-2199.999999944999
 21
-2982.557739838719
 31
0.0
 73
     3
  0
TEXT
  5
12B
  8
DATA
 62
     7
 10
1249.99999996875
 20
-2705.714189932445
 30
0.0
 40
61.08154296722297
  1
JBL PROFESSIONAL
 41
0.7
 11
1249.99999996875
 21
-2644.632646965222
 31
0.0
 73
     3
  0
TEXT
  5
12C
  8
DATA
 62
     7
 10
679.8802173810817
 20
-2333.934190537346
 30
0.0
 40
67.86838107469218
  1
背面パネル拡大図
 41
0.7
 72
     1
 11
900.0
 21
-2300.0
 31
0.0
 73
     2
  0
LINE
  5
12D
  8
DATA
  6
CONTINUOUS
 62
     7
 10
-1412.5
 20
-2097.0
 30
0.0
 11
-1787.5
 21
-2097.0
 31
0.0
  0
LINE
  5
12E
  8
DATA
  6
CONTINUOUS
 62
     7
 10
-1772.5
 20
-1547.0
 30
0.0
 11
-1427.5
 21
-1547.0
 31
0.0
  0
LINE
  5
12F
  8
DATA
  6
CONTINUOUS
 62
     7
 10
-905.5
 20
-2097.0
 30
0.0
 11
-1350.0
 21
-2097.0
 31
0.0
  0
LINE
  5
130
  8
DATA
  6
CONTINUOUS
 62
     7
 10
-908.0
 20
-1576.0
 30
0.0
 11
-908.0
 21
-2047.0
 31
0.0
  0
LINE
  5
131
  8
DATA
  6
CONTINUOUS
 62
     7
 10
-1327.0
 20
-1547.0
 30
0.0
 11
-919.0
 21
-1547.0
 31
0.0
  0
LINE
  5
132
  8
DATA
  6
CONTINUOUS
 62
     7
 10
-1696.198379367556
 20
-2100.0
 30
0.0
 11
-1696.198379367556
 21
-2097.0
 31
0.0
  0
LINE
  5
133
  8
DATA
  6
CONTINUOUS
 62
     7
 10
-1503.801620632445
 20
-2100.0
 30
0.0
 11
-1503.801620632445
 21
-2097.0
 31
0.0
  0
LINE
  5
134
  8
DATA
  6
CONTINUOUS
 62
     7
 10
-1779.584407412496
 20
-2100.0
 30
0.0
 11
-1779.584407412496
 21
-2097.0
 31
0.0
  0
LINE
  5
135
  8
DATA
  6
CONTINUOUS
 62
     7
 10
-1420.415592587504
 20
-2100.0
 30
0.0
 11
-1420.415592587504
 21
-2097.0
 31
0.0
  0
LINE
  5
136
  8
DATA
  6
CONTINUOUS
 62
     7
 10
-1420.415592587504
 20
-2100.0
 30
0.0
 11
-1522.064596273292
 21
-2100.0
 31
0.0
  0
LINE
  5
137
  8
DATA
  6
CONTINUOUS
 62
     7
 10
-1677.935403726708
 20
-2100.0
 30
0.0
 11
-1779.584407412496
 21
-2100.0
 31
0.0
  0
LINE
  5
138
  8
DATA
  6
CONTINUOUS
 62
     7
 10
-1337.725667606009
 20
-2100.0
 30
0.0
 11
-1337.725667606009
 21
-2097.0
 31
0.0
  0
LINE
  5
139
  8
DATA
  6
CONTINUOUS
 62
     7
 10
-1256.444888746101
 20
-2100.0
 30
0.0
 11
-1256.444888746101
 21
-2097.0
 31
0.0
  0
LINE
  5
13A
  8
DATA
  6
CONTINUOUS
 62
     7
 10
-1013.90438729409
 20
-2100.0
 30
0.0
 11
-1013.90438729409
 21
-2097.0
 31
0.0
  0
LINE
  5
13B
  8
DATA
  6
CONTINUOUS
 62
     7
 10
-913.3999999999996
 20
-2100.0
 30
0.0
 11
-913.3999999999996
 21
-2097.0
 31
0.0
  0
LINE
  5
13C
  8
DATA
  6
CONTINUOUS
 62
     7
 10
-913.3999999999996
 20
-2100.0
 30
0.0
 11
-1013.90438729409
 21
-2100.0
 31
0.0
  0
LINE
  5
13D
  8
DATA
  6
CONTINUOUS
 62
     7
 10
-1256.444888746101
 20
-2100.0
 30
0.0
 11
-1337.725667606009
 21
-2100.0
 31
0.0
  0
LINE
  5
13E
  8
DATA
  6
CONTINUOUS
 62
     7
 10
-1785.0
 20
-2059.0
 30
0.0
 11
-1415.0
 21
-2059.0
 31
0.0
  0
LINE
  5
13F
  8
DATA
  6
CONTINUOUS
 62
     7
 10
-1786.785714285714
 20
-2089.0
 30
0.0
 11
-1413.214285714286
 21
-2089.0
 31
0.0
  0
LINE
  5
140
  8
DATA
  6
CONTINUOUS
 62
     7
 10
-1785.0
 20
-2069.0
 30
0.0
 11
-1415.0
 21
-2069.0
 31
0.0
  0
LINE
  5
141
  8
DATA
  6
CONTINUOUS
 62
     7
 10
-1785.0
 20
-2062.0
 30
0.0
 11
-1415.0
 21
-2062.0
 31
0.0
  0
LINE
  5
142
  8
DATA
  6
CONTINUOUS
 62
     7
 10
-1608.5
 20
-2082.0
 30
0.0
 11
-1591.5
 21
-2082.0
 31
0.0
  0
LINE
  5
143
  8
DATA
  6
CONTINUOUS
 62
     7
 10
-1608.5
 20
-2077.0
 30
0.0
 11
-1591.5
 21
-2077.0
 31
0.0
  0
ARC
  5
144
  8
DATA
  6
CONTINUOUS
 62
     7
 10
-1608.5
 20
-2079.5
 30
0.0
 40
2.5
 50
90.0
 51
270.0
  0
ARC
  5
145
  8
DATA
  6
CONTINUOUS
 62
     7
 10
-1591.5
 20
-2079.5
 30
0.0
 40
2.5
 50
270.0
 51
90.0
  0
ARC
  5
146
  8
DATA
  6
CONTINUOUS
 62
     7
 10
-1608.235108
 20
-1964.397338
 30
0.0
 40
3.610394795234825
 50
264.6908562215333
 51
323.9911991542417
  0
ARC
  5
147
  8
DATA
  6
CONTINUOUS
 62
     7
 10
-1608.90323
 20
-1964.397338
 30
0.0
 40
3.610388931725263
 50
216.0088008457567
 51
275.3091437784647
  0
ARC
  5
148
  8
DATA
  6
CONTINUOUS
 62
     7
 10
-1599.06081
 20
-1965.334526
 30
0.0
 40
2.663655976405553
 50
273.830981609114
 51
351.1351473098017
  0
ARC
  5
149
  8
DATA
  6
CONTINUOUS
 62
     7
 10
-1599.034252
 20
-1956.645902
 30
0.0
 40
2.659621906076009
 50
8.226923859016582
 51
86.15412669215684
  0
ARC
  5
14A
  8
DATA
  6
CONTINUOUS
 62
     7
 10
-1599.326906090997
 20
-1966.010398336712
 30
0.0
 40
0.4462963607459112
 50
307.6419024975729
 51
354.2670192893826
  0
LINE
  5
14B
  8
DATA
  6
CONTINUOUS
 62
     7
 10
-1610.79057
 20
-1958.97749
 30
0.0
 11
-1608.698326
 21
-1953.992258
 31
0.0
  0
LINE
  5
14C
  8
DATA
  6
CONTINUOUS
 62
     7
 10
-1610.79057
 20
-1958.97749
 30
0.0
 11
-1612.856998
 21
-1953.992258
 31
0.0
  0
LINE
  5
14D
  8
DATA
  6
CONTINUOUS
 62
     7
 10
-1594.93081
 20
-1967.992258
 30
0.0
 11
-1594.93081
 21
-1953.992258
 31
0.0
  0
LINE
  5
14E
  8
DATA
  6
CONTINUOUS
 62
     7
 10
-1592.244462
 20
-1953.992258
 30
0.0
 11
-1592.244462
 21
-1965.848354
 31
0.0
  0
LINE
  5
14F
  8
DATA
  6
CONTINUOUS
 62
     7
 10
-1607.716772
 20
-1953.992258
 30
0.0
 11
-1607.716772
 21
-1965.848354
 31
0.0
  0
LINE
  5
150
  8
DATA
  6
CONTINUOUS
 62
     7
 10
-1605.133744
 20
-1953.992258
 30
0.0
 11
-1605.133744
 21
-1965.848354
 31
0.0
  0
LINE
  5
151
  8
DATA
  6
CONTINUOUS
 62
     7
 10
-1603.79057
 20
-1953.992258
 30
0.0
 11
-1603.79057
 21
-1967.992258
 31
0.0
  0
LINE
  5
152
  8
DATA
  6
CONTINUOUS
 62
     7
 10
-1601.440012
 20
-1955.309588
 30
0.0
 11
-1601.440012
 21
-1959.804064
 31
0.0
  0
LINE
  5
153
  8
DATA
  6
CONTINUOUS
 62
     7
 10
-1596.402
 20
-1959.544
 30
0.0
 11
-1596.402
 21
-1956.265326
 31
0.0
  0
LINE
  5
154
  8
DATA
  6
CONTINUOUS
 62
     7
 10
-1598.882842
 20
-1955.929521999999
 30
0.0
 11
-1598.882842
 21
-1959.184144
 31
0.0
  0
LINE
  5
155
  8
DATA
  6
CONTINUOUS
 62
     7
 10
-1609.679866
 20
-1963.601102
 30
0.0
 11
-1609.679866
 21
-1965.848325999999
 31
0.0
  0
LINE
  5
156
  8
DATA
  6
CONTINUOUS
 62
     7
 10
-1609.679866
 20
-1963.601102
 30
0.0
 11
-1612.004594
 21
-1963.601102
 31
0.0
  0
LINE
  5
157
  8
DATA
  6
CONTINUOUS
 62
     7
 10
-1612.004594
 20
-1963.601102
 30
0.0
 11
-1612.004594
 21
-1965.848325999999
 31
0.0
  0
ARC
  5
158
  8
DATA
  6
CONTINUOUS
 62
     7
 10
-1608.693398
 20
-1965.878621999999
 30
0.0
 40
0.9771003567398151
 50
269.7118487927451
 51
1.775987005652667
  0
ARC
  5
159
  8
DATA
  6
CONTINUOUS
 62
     7
 10
-1608.70324
 20
-1965.878621999999
 30
0.0
 40
0.9770953604435059
 50
178.2240129943306
 51
270.2881512072362
  0
ARC
  5
15A
  8
DATA
  6
CONTINUOUS
 62
     7
 10
-1610.372978
 20
-1965.769184
 30
0.0
 40
1.633520291446803
 50
182.7769954499791
 51
207.3596066671429
  0
CIRCLE
  5
15B
  8
DATA
  6
CONTINUOUS
 62
     7
 10
-1610.648498
 20
-1960.914768
 30
0.0
 40
1.330251999999973
  0
LINE
  5
15C
  8
DATA
  6
CONTINUOUS
 62
     7
 10
-1587.93081
 20
-1967.992244
 30
0.0
 11
-1594.93081
 21
-1967.992244
 31
0.0
  0
LINE
  5
15D
  8
DATA
  6
CONTINUOUS
 62
     7
 10
-1587.93081
 20
-1967.992244
 30
0.0
 11
-1587.93081
 21
-1963.601087999999
 31
0.0
  0
LINE
  5
15E
  8
DATA
  6
CONTINUOUS
 62
     7
 10
-1587.93081
 20
-1963.601102
 30
0.0
 11
-1590.281354
 21
-1963.601102
 31
0.0
  0
LINE
  5
15F
  8
DATA
  6
CONTINUOUS
 62
     7
 10
-1590.281354
 20
-1963.601102
 30
0.0
 11
-1590.281354
 21
-1965.848325999999
 31
0.0
  0
LINE
  5
160
  8
DATA
  6
CONTINUOUS
 62
     7
 10
-1603.79057
 20
-1967.992244
 30
0.0
 11
-1598.882842
 21
-1967.99223
 31
0.0
  0
LINE
  5
161
  8
DATA
  6
CONTINUOUS
 62
     7
 10
-1601.440026
 20
-1966.6749
 30
0.0
 11
-1600.174342
 21
-1966.6749
 31
0.0
  0
LINE
  5
162
  8
DATA
  6
CONTINUOUS
 62
     7
 10
-1601.440012
 20
-1966.6749
 30
0.0
 11
-1601.440012
 21
-1961.147224
 31
0.0
  0
LINE
  5
163
  8
DATA
  6
CONTINUOUS
 62
     7
 10
-1601.440026
 20
-1961.147224
 30
0.0
 11
-1600.174342
 21
-1961.147224
 31
0.0
  0
LINE
  5
164
  8
DATA
  6
CONTINUOUS
 62
     7
 10
-1598.882842
 20
-1966.05498
 30
0.0
 11
-1598.882842
 21
-1961.767144
 31
0.0
  0
ARC
  5
165
  8
DATA
  6
CONTINUOUS
 62
     7
 10
-1606.76536
 20
-1965.769184
 30
0.0
 40
1.63351796701085
 50
332.640393332856
 51
357.2230045500024
  0
ARC
  5
166
  8
DATA
  6
CONTINUOUS
 62
     7
 10
-1591.257994
 20
-1965.878621999999
 30
0.0
 40
0.9771003567398151
 50
269.7118487927451
 51
1.775987005652667
  0
ARC
  5
167
  8
DATA
  6
CONTINUOUS
 62
     7
 10
-1591.267822
 20
-1965.878621999999
 30
0.0
 40
0.9770953604432786
 50
178.2240129943301
 51
270.2881512072496
  0
LINE
  5
168
  8
DATA
  6
CONTINUOUS
 62
     7
 10
-1596.403134
 20
-1965.745006
 30
0.0
 11
-1596.403134
 21
-1962.025458
 31
0.0
  0
LINE
  5
169
  8
DATA
  6
CONTINUOUS
 62
     7
 10
-1601.440026
 20
-1959.804064
 30
0.0
 11
-1600.174342
 21
-1959.804064
 31
0.0
  0
LINE
  5
16A
  8
DATA
  6
CONTINUOUS
 62
     7
 10
-1607.716772
 20
-1953.992258
 30
0.0
 11
-1605.133744
 21
-1953.992258
 31
0.0
  0
LINE
  5
16B
  8
DATA
  6
CONTINUOUS
 62
     7
 10
-1612.856998
 20
-1953.992258
 30
0.0
 11
-1608.698326
 21
-1953.992258
 31
0.0
  0
LINE
  5
16C
  8
DATA
  6
CONTINUOUS
 62
     7
 10
-1594.93081
 20
-1953.992258
 30
0.0
 11
-1592.244462
 21
-1953.992258
 31
0.0
  0
LINE
  5
16D
  8
DATA
  6
CONTINUOUS
 62
     7
 10
-1603.79057
 20
-1953.992258
 30
0.0
 11
-1598.855863820595
 21
-1953.992269331236
 31
0.0
  0
LINE
  5
16E
  8
DATA
  6
CONTINUOUS
 62
     7
 10
-1601.440026
 20
-1955.309601999999
 30
0.0
 11
-1600.174342
 21
-1955.309601999999
 31
0.0
  0
ARC
  5
16F
  8
DATA
  6
CONTINUOUS
 62
     7
 10
-1600.159396352356
 20
-1964.219736855178
 30
0.0
 40
2.455208634734796
 50
269.6512199376182
 51
282.8264828068785
  0
ARC
  5
170
  8
DATA
  6
CONTINUOUS
 62
     7
 10
-1599.883637561547
 20
-1965.257750435718
 30
0.0
 40
1.382413065170237
 50
281.2331036226702
 51
306.8620088940656
  0
ARC
  5
171
  8
DATA
  6
CONTINUOUS
 62
     7
 10
-1599.326906090997
 20
-1961.811725663288
 30
0.0
 40
0.4462963607457663
 50
5.732980710559376
 51
52.35809750242716
  0
ARC
  5
172
  8
DATA
  6
CONTINUOUS
 62
     7
 10
-1600.159396352356
 20
-1963.602387144821
 30
0.0
 40
2.455208634734332
 50
77.17351719312146
 51
90.34878006238188
  0
ARC
  5
173
  8
DATA
  6
CONTINUOUS
 62
     7
 10
-1599.883637561547
 20
-1962.564373564282
 30
0.0
 40
1.382413065170685
 50
53.13799110593444
 51
78.76689637733348
  0
ARC
  5
174
  8
DATA
  6
CONTINUOUS
 62
     7
 10
-1597.757886
 20
-1962.117032
 30
0.0
 40
1.357843429479483
 50
3.86700635984213
 51
88.36163456788918
  0
ARC
  5
175
  8
DATA
  6
CONTINUOUS
 62
     7
 10
-1597.759132
 20
-1959.401143999999
 30
0.0
 40
1.359192715926874
 50
271.6892821046489
 51
356.0782829826425
  0
ARC
  5
176
  8
DATA
  6
CONTINUOUS
 62
     7
 10
-1599.326906090997
 20
-1959.139562336712
 30
0.0
 40
0.4462963607459112
 50
307.6419024975729
 51
354.2670192893826
  0
ARC
  5
177
  8
DATA
  6
CONTINUOUS
 62
     7
 10
-1600.159396352356
 20
-1957.348900855178
 30
0.0
 40
2.455208634734796
 50
269.6512199376182
 51
282.8264828068762
  0
ARC
  5
178
  8
DATA
  6
CONTINUOUS
 62
     7
 10
-1599.883637561547
 20
-1958.386914435718
 30
0.0
 40
1.382413065170237
 50
281.2331036226702
 51
306.8620088940581
  0
ARC
  5
179
  8
DATA
  6
CONTINUOUS
 62
     7
 10
-1599.326906090997
 20
-1955.974103663288
 30
0.0
 40
0.4462963607458117
 50
5.732980710617464
 51
52.35809750239152
  0
ARC
  5
17A
  8
DATA
  6
CONTINUOUS
 62
     7
 10
-1600.159396352356
 20
-1957.764765144821
 30
0.0
 40
2.455208634734332
 50
77.17351719312146
 51
90.34878006238179
  0
ARC
  5
17B
  8
DATA
  6
CONTINUOUS
 62
     7
 10
-1599.883637561547
 20
-1956.726751564282
 30
0.0
 40
1.382413065170685
 50
53.13799110593444
 51
78.7668963773298
  0
POLYLINE
  5
17C
  8
DATA
  6
CONTINUOUS
 62
     7
 66
     1
 10
0.0
 20
0.0
 30
0.0
 70
     1
  0
VERTEX
  5
9EF
  8
DATA
  6
CONTINUOUS
 62
     7
 10
-1621.0
 20
-1943.5
 30
0.0
  0
VERTEX
  5
9F0
  8
DATA
  6
CONTINUOUS
 62
     7
 10
-1579.0
 20
-1943.5
 30
0.0
  0
VERTEX
  5
9F1
  8
DATA
  6
CONTINUOUS
 62
     7
 10
-1579.0
 20
-1985.5
 30
0.0
  0
VERTEX
  5
9F2
  8
DATA
  6
CONTINUOUS
 62
     7
 10
-1621.0
 20
-1985.5
 30
0.0
  0
SEQEND
  5
A5A
  8
DATA
  6
CONTINUOUS
 62
     7
  0
LINE
  5
183
  8
DATA
  6
CONTINUOUS
 62
     7
 10
-1621.0
 20
-1978.5
 30
0.0
 11
-1579.0
 21
-1978.5
 31
0.0
  0
TEXT
  5
184
  8
DATA
 62
     7
 10
-1618.844787145544
 20
-1984.375393337674
 30
0.0
 40
4.750786675347223
  1
PROFESSIONAL
 41
0.7
 72
     1
 11
-1600.0
 21
-1982.0
 31
0.0
 73
     2
  0
LINE
  5
185
  8
DATA
  6
CONTINUOUS
 62
     7
 10
-1765.0
 20
-2059.0
 30
0.0
 11
-1765.0
 21
-1571.0
 31
0.0
  0
LINE
  5
186
  8
DATA
  6
CONTINUOUS
 62
     7
 10
-1785.0
 20
-1561.0
 30
0.0
 11
-1415.0
 21
-1561.0
 31
0.0
  0
LINE
  5
187
  8
DATA
  6
CONTINUOUS
 62
     7
 10
-1785.0
 20
-1571.0
 30
0.0
 11
-1415.0
 21
-1571.0
 31
0.0
  0
LINE
  5
188
  8
DATA
  6
CONTINUOUS
 62
     7
 10
-1785.0
 20
-1567.0
 30
0.0
 11
-1415.0
 21
-1567.0
 31
0.0
  0
LINE
  5
189
  8
DATA
  6
CONTINUOUS
 62
     7
 10
-1435.0
 20
-1571.000000000001
 30
0.0
 11
-1435.0
 21
-2059.000000000001
 31
0.0
  0
LINE
  5
18A
  8
DATA
  6
CONTINUOUS
 62
     7
 10
-1782.5
 20
-2059.0
 30
0.0
 11
-1782.5
 21
-1571.0
 31
0.0
  0
LINE
  5
18B
  8
DATA
  6
CONTINUOUS
 62
     7
 10
-1417.5
 20
-2059.0
 30
0.0
 11
-1417.5
 21
-1571.0
 31
0.0
  0
LINE
  5
18C
  8
DATA
  6
CONTINUOUS
 62
     7
 10
-1168.0
 20
-2043.360733514586
 30
0.0
 11
-1168.0
 21
-1585.093023255814
 31
0.0
  0
LINE
  5
18D
  8
DATA
  6
CONTINUOUS
 62
     7
 10
-1338.0
 20
-1571.0
 30
0.0
 11
-908.0
 21
-1582.0
 31
0.0
  0
ARC
  5
18E
  8
DATA
  6
CONTINUOUS
 62
     7
 10
-1178.0
 20
-1585.093023255814
 30
0.0
 40
10.0
 50
0.0
 51
90.0
  0
LINE
  5
18F
  8
DATA
  6
CONTINUOUS
 62
     7
 10
-1785.0
 20
-2069.0
 30
0.0
 11
-1785.0
 21
-1561.0
 31
0.0
  0
LINE
  5
190
  8
DATA
  6
CONTINUOUS
 62
     7
 10
-1785.0
 20
-2069.0
 30
0.0
 11
-1787.5
 21
-2097.0
 31
0.0
  0
LINE
  5
191
  8
DATA
  6
CONTINUOUS
 62
     7
 10
-1415.0
 20
-2069.0
 30
0.0
 11
-1415.0
 21
-1561.0
 31
0.0
  0
LINE
  5
192
  8
DATA
  6
CONTINUOUS
 62
     7
 10
-1415.0
 20
-2069.0
 30
0.0
 11
-1412.5
 21
-2097.0
 31
0.0
  0
LINE
  5
193
  8
DATA
  6
CONTINUOUS
 62
     7
 10
-1772.5
 20
-1547.0
 30
0.0
 11
-1785.0
 21
-1561.0
 31
0.0
  0
LINE
  5
194
  8
DATA
  6
CONTINUOUS
 62
     7
 10
-1415.0
 20
-1561.0
 30
0.0
 11
-1427.5
 21
-1547.0
 31
0.0
  0
LINE
  5
195
  8
DATA
  6
CONTINUOUS
 62
     7
 10
-1338.0
 20
-1561.0
 30
0.0
 11
-908.0
 21
-1576.0
 31
0.0
  0
LINE
  5
196
  8
DATA
  6
CONTINUOUS
 62
     7
 10
-908.0
 20
-2047.0
 30
0.0
 11
-1342.0
 21
-2062.0
 31
0.0
  0
LINE
  5
197
  8
DATA
  6
CONTINUOUS
 62
     7
 10
-908.0
 20
-2047.0
 30
0.0
 11
-905.5
 21
-2097.0
 31
0.0
  0
LINE
  5
198
  8
DATA
  6
CONTINUOUS
 62
     7
 10
-1342.0
 20
-2069.0
 30
0.0
 11
-1350.0
 21
-2089.0
 31
0.0
  0
LINE
  5
199
  8
DATA
  6
CONTINUOUS
 62
     7
 10
-1350.0
 20
-2089.0
 30
0.0
 11
-1113.214285714286
 21
-2089.0
 31
0.0
  0
LINE
  5
19A
  8
DATA
  6
CONTINUOUS
 62
     7
 10
-1342.0
 20
-2069.0
 30
0.0
 11
-1304.5
 21
-2069.0
 31
0.0
  0
LINE
  5
19B
  8
DATA
  6
CONTINUOUS
 62
     7
 10
-1350.0
 20
-2097.0
 30
0.0
 11
-1350.0
 21
-2089.0
 31
0.0
  0
LINE
  5
19C
  8
DATA
  6
CONTINUOUS
 62
     7
 10
-1177.651374842229
 20
-2053.354654691951
 30
0.0
 11
-1342.0
 21
-2059.0
 31
0.0
  0
ARC
  5
19D
  8
DATA
  6
CONTINUOUS
 62
     7
 10
-1178.0
 20
-2043.360733514586
 30
0.0
 40
10.00000000000008
 50
271.9978798564765
 51
0.0
  0
LINE
  5
19E
  8
DATA
  6
CONTINUOUS
 62
     7
 10
-1304.5
 20
-2097.0
 30
0.0
 11
-1304.5
 21
-1547.0
 31
0.0
  0
LINE
  5
19F
  8
DATA
  6
CONTINUOUS
 62
     7
 10
-1338.0
 20
-1561.0
 30
0.0
 11
-1338.0
 21
-1571.0
 31
0.0
  0
LINE
  5
1A0
  8
DATA
  6
CONTINUOUS
 62
     7
 10
-919.0
 20
-1547.0
 30
0.0
 11
-908.0
 21
-1576.0
 31
0.0
  0
LINE
  5
1A1
  8
DATA
  6
CONTINUOUS
 62
     7
 10
-1342.0
 20
-2059.0
 30
0.0
 11
-1342.0
 21
-2069.0
 31
0.0
  0
LINE
  5
1A2
  8
DATA
  6
CONTINUOUS
 62
     7
 10
-1336.0
 20
-1571.0
 30
0.0
 11
-1336.0
 21
-2058.793901093996
 31
0.0
  0
LINE
  5
1A3
  8
DATA
  6
CONTINUOUS
 62
     7
 10
-1327.0
 20
-1547.0
 30
0.0
 11
-1338.0
 21
-1561.0
 31
0.0
  0
LINE
  5
1A4
  8
DATA
  6
CONTINUOUS
 62
     7
 10
-1177.5
 20
-1541.0
 30
0.0
 11
-1068.5
 21
-1541.0
 31
0.0
  0
ARC
  5
1A5
  8
DATA
  6
CONTINUOUS
 62
     7
 10
-1074.246428571429
 20
-1586.28125
 30
0.0
 40
45.64441962484607
 50
59.38318582295987
 51
82.76752534493754
  0
ARC
  5
1A6
  8
DATA
  6
CONTINUOUS
 62
     7
 10
-1171.753571428571
 20
-1586.28125
 30
0.0
 40
45.64441962484605
 50
97.23247465506249
 51
120.6168141770401
  0
LINE
  5
1A7
  8
DATA
  6
CONTINUOUS
 62
     7
 10
-1786.518835348615
 20
311.4350177460633
 30
0.0
 11
-1787.476788816326
 21
2.974001143215958
 31
0.0
  0
LINE
  5
1A8
  8
DATA
  6
CONTINUOUS
 62
     7
 10
-1468.685003382513
 20
394.5
 30
0.0
 11
-1481.0
 21
394.5
 31
0.0
  0
LINE
  5
1A9
  8
DATA
  6
CONTINUOUS
 62
     7
 10
-1719.0
 20
394.5
 30
0.0
 11
-1731.314996617487
 21
394.5
 31
0.0
  0
LINE
  5
1AA
  8
DATA
  6
CONTINUOUS
 62
     7
 10
-1412.523211183674
 20
2.974001143215958
 30
0.0
 11
-1413.481164651385
 21
311.4350177460636
 31
0.0
  0
LINE
  5
1AB
  8
DATA
  6
CONTINUOUS
 62
     7
 10
-1783.704091389816
 20
322.8821240746037
 30
0.0
 11
-1753.50013210094
 21
381.0247457056902
 31
0.0
  0
LINE
  5
1AC
  8
DATA
  6
CONTINUOUS
 62
     7
 10
-1446.49986789906
 20
381.0247457056905
 30
0.0
 11
-1416.295908610184
 21
322.8821240746036
 31
0.0
  0
LINE
  5
1AD
  8
DATA
  6
CONTINUOUS
 62
     7
 10
-1428.700181186707
 20
-29.34027781961731
 30
0.0
 11
-1416.582825704961
 21
-10.76033274760698
 31
0.0
  0
LINE
  5
1AE
  8
DATA
  6
CONTINUOUS
 62
     7
 10
-1783.417174295039
 20
-10.76033274760687
 30
0.0
 11
-1771.299818813292
 21
-29.34027781961942
 31
0.0
  0
ARC
  5
1AF
  8
DATA
  6
CONTINUOUS
 62
     7
 10
-1731.314996617487
 20
369.5
 30
0.0
 40
25.0
 50
89.99999999999947
 51
152.5490022290681
  0
ARC
  5
1B0
  8
DATA
  6
CONTINUOUS
 62
     7
 10
-1468.685003382513
 20
369.5000000000005
 30
0.0
 40
25.00000000000003
 50
27.45099777093053
 51
89.99999999999949
  0
ARC
  5
1B1
  8
DATA
  6
CONTINUOUS
 62
     7
 10
-1761.518955906363
 20
311.3573783689135
 30
0.0
 40
24.99999999999983
 50
152.5490022290681
 51
179.8220633685897
  0
ARC
  5
1B2
  8
DATA
  6
CONTINUOUS
 62
     7
 10
-1438.481044093637
 20
311.3573783689135
 30
0.0
 40
24.99999999999991
 50
0.1779366314102917
 51
27.45099777093193
  0
ARC
  5
1B3
  8
DATA
  6
CONTINUOUS
 62
     7
 10
-1600.0
 20
1193.0
 30
0.0
 40
1243.0
 50
262.9088666543367
 51
277.0911333456632
  0
ARC
  5
1B4
  8
DATA
  6
CONTINUOUS
 62
     7
 10
-1762.476909374074
 20
2.896361766066093
 30
0.0
 40
25.00000000000014
 50
179.8220633685897
 51
213.1113419603726
  0
ARC
  5
1B5
  8
DATA
  6
CONTINUOUS
 62
     7
 10
-1750.359553892328
 20
-15.68358330594765
 30
0.0
 40
24.99999999999758
 50
213.1113419603714
 51
262.9088666543404
  0
ARC
  5
1B6
  8
DATA
  6
CONTINUOUS
 62
     7
 10
-1449.640446107675
 20
-15.6835833059431
 30
0.0
 40
25.00000000000271
 50
277.0911333456681
 51
326.8886580396274
  0
ARC
  5
1B7
  8
DATA
  6
CONTINUOUS
 62
     7
 10
-1437.523090625926
 20
2.896361766066093
 30
0.0
 40
25.0000000000001
 50
326.8886580396276
 51
0.1779366314103186
  0
LINE
  5
1B8
  8
DATA
  6
CONTINUOUS
 62
     7
 10
-1617.5
 20
124.1980390271855
 30
0.0
 11
-1617.5
 21
229.8019609728144
 31
0.0
  0
ARC
  5
1B9
  8
DATA
  6
CONTINUOUS
 62
     7
 10
-1600.0
 20
1193.0
 30
0.0
 40
1220.0
 50
263.1951728697473
 51
276.8048271302528
  0
LINE
  5
1BA
  8
DATA
  6
CONTINUOUS
 62
     7
 10
-1772.5
 20
19.06295310324629
 30
0.0
 11
-1772.5
 21
344.4500000000001
 31
0.0
  0
LINE
  5
1BB
  8
DATA
  6
CONTINUOUS
 62
     7
 10
-1427.5
 20
19.06295310324629
 30
0.0
 11
-1427.5
 21
344.4500000000001
 31
0.0
  0
LINE
  5
1BC
  8
DATA
  6
CONTINUOUS
 62
     7
 10
-1770.064158952579
 20
10.86893639504245
 30
0.0
 11
-1755.341746537003
 21
-11.70542930884142
 31
0.0
  0
LINE
  5
1BD
  8
DATA
  6
CONTINUOUS
 62
     7
 10
-1429.935841047421
 20
10.86893639504245
 30
0.0
 11
-1444.658253462997
 21
-11.70542930884073
 31
0.0
  0
ARC
  5
1BE
  8
DATA
  6
CONTINUOUS
 62
     7
 10
-1742.777587584425
 20
-3.511412600638266
 30
0.0
 40
14.99999999999885
 50
213.1113419603718
 51
263.1951728697508
  0
ARC
  5
1BF
  8
DATA
  6
CONTINUOUS
 62
     7
 10
-1757.5
 20
19.06295310324634
 30
0.0
 40
15.0
 50
180.0000000000002
 51
213.1113419603722
  0
ARC
  5
1C0
  8
DATA
  6
CONTINUOUS
 62
     7
 10
-1457.222412415577
 20
-3.511412600636447
 30
0.0
 40
15.00000000000088
 50
276.8048271302562
 51
326.8886580396284
  0
ARC
  5
1C1
  8
DATA
  6
CONTINUOUS
 62
     7
 10
-1442.5
 20
19.06295310324634
 30
0.0
 40
15.00000000000001
 50
326.8886580396277
 51
359.9999999999998
  0
ARC
  5
1C2
  8
DATA
  6
CONTINUOUS
 62
     7
 10
-1600.0
 20
1193.0
 30
0.0
 40
1210.0
 50
263.2547419020518
 51
276.7452580979482
  0
LINE
  5
1C3
  8
DATA
  6
CONTINUOUS
 62
     7
 10
-1439.0
 20
19.06295310324634
 30
0.0
 11
-1439.0
 21
366.5875
 31
0.0
  0
LINE
  5
1C4
  8
DATA
  6
CONTINUOUS
 62
     7
 10
-1439.568362911065
 20
17.15101587133216
 30
0.0
 11
-1455.358653350548
 21
-7.060762802541888
 31
0.0
  0
ARC
  5
1C5
  8
DATA
  6
CONTINUOUS
 62
     7
 10
-1442.5
 20
19.06295310324634
 30
0.0
 40
3.499999999999944
 50
326.8886580396272
 51
0.0
  0
ARC
  5
1C6
  8
DATA
  6
CONTINUOUS
 62
     7
 10
-1458.290290439483
 20
-5.148825570627935
 30
0.0
 40
3.499999999999502
 50
276.7452580979419
 51
326.8886580396291
  0
LINE
  5
1C7
  8
DATA
  6
CONTINUOUS
 62
     7
 10
-1761.0
 20
19.0629531032464
 30
0.0
 11
-1761.0
 21
366.5875
 31
0.0
  0
LINE
  5
1C8
  8
DATA
  6
CONTINUOUS
 62
     7
 10
-1760.431637088935
 20
17.15101587133216
 30
0.0
 11
-1744.641346649452
 21
-7.060762802541603
 31
0.0
  0
ARC
  5
1C9
  8
DATA
  6
CONTINUOUS
 62
     7
 10
-1741.709709560517
 20
-5.148825570627253
 30
0.0
 40
3.500000000000386
 50
213.1113419603703
 51
263.2547419020446
  0
ARC
  5
1CA
  8
DATA
  6
CONTINUOUS
 62
     7
 10
-1757.5
 20
19.06295310324617
 30
0.0
 40
3.5
 50
179.9999999999963
 51
213.1113419603697
  0
LINE
  5
1CB
  8
DATA
  6
CONTINUOUS
 62
     7
 10
-1501.0
 20
269.5
 30
0.0
 11
-1699.0
 21
269.5
 31
0.0
  0
LINE
  5
1CC
  8
DATA
  6
CONTINUOUS
 62
     7
 10
-1481.0
 20
381.5
 30
0.0
 11
-1719.0
 21
381.5
 31
0.0
  0
LINE
  5
1CD
  8
DATA
  6
CONTINUOUS
 62
     7
 10
-1719.0
 20
394.5
 30
0.0
 11
-1719.0
 21
289.5
 31
0.0
  0
LINE
  5
1CE
  8
DATA
  6
CONTINUOUS
 62
     7
 10
-1481.0
 20
394.5
 30
0.0
 11
-1481.0
 21
289.5
 31
0.0
  0
LINE
  5
1CF
  8
DATA
  6
CONTINUOUS
 62
     7
 10
-1680.0
 20
132.6980390271855
 30
0.0
 11
-1680.0
 21
221.3019609728144
 31
0.0
  0
LINE
  5
1D0
  8
DATA
  6
CONTINUOUS
 62
     7
 10
-1520.0
 20
221.3019609728145
 30
0.0
 11
-1520.0
 21
132.6980390271853
 31
0.0
  0
LINE
  5
1D1
  8
DATA
  6
CONTINUOUS
 62
     7
 10
-1582.5
 20
124.1980390271854
 30
0.0
 11
-1582.5
 21
229.8019609728145
 31
0.0
  0
LINE
  5
1D2
  8
DATA
  6
CONTINUOUS
 62
     7
 10
-1629.461161351382
 20
239.6077677297236
 30
0.0
 11
-1671.961161351382
 21
231.1077677297235
 31
0.0
  0
LINE
  5
1D3
  8
DATA
  6
CONTINUOUS
 62
     7
 10
-1629.461161351382
 20
114.3922322702763
 30
0.0
 11
-1671.961161351382
 21
122.8922322702763
 31
0.0
  0
LINE
  5
1D4
  8
DATA
  6
CONTINUOUS
 62
     7
 10
-1570.538838648618
 20
239.6077677297237
 30
0.0
 11
-1528.038838648619
 21
231.1077677297237
 31
0.0
  0
LINE
  5
1D5
  8
DATA
  6
CONTINUOUS
 62
     7
 10
-1570.538838648618
 20
114.3922322702762
 30
0.0
 11
-1528.038838648619
 21
122.8922322702761
 31
0.0
  0
ARC
  5
1D6
  8
DATA
  6
CONTINUOUS
 62
     7
 10
-1670.0
 20
221.3019609728144
 30
0.0
 40
9.999999999999995
 50
101.3099324740203
 51
180.0
  0
ARC
  5
1D7
  8
DATA
  6
CONTINUOUS
 62
     7
 10
-1627.5
 20
229.8019609728144
 30
0.0
 40
10.0
 50
0.0
 51
101.3099324740191
  0
ARC
  5
1D8
  8
DATA
  6
CONTINUOUS
 62
     7
 10
-1572.5
 20
229.8019609728145
 30
0.0
 40
10.00000000000004
 50
78.69006752597838
 51
180.0
  0
ARC
  5
1D9
  8
DATA
  6
CONTINUOUS
 62
     7
 10
-1627.5
 20
124.1980390271855
 30
0.0
 40
9.99999999999995
 50
258.6900675259809
 51
0.0
  0
ARC
  5
1DA
  8
DATA
  6
CONTINUOUS
 62
     7
 10
-1670.0
 20
132.6980390271855
 30
0.0
 40
10.0
 50
180.0
 51
258.6900675259797
  0
ARC
  5
1DB
  8
DATA
  6
CONTINUOUS
 62
     7
 10
-1572.5
 20
124.1980390271854
 30
0.0
 40
10.0
 50
180.0
 51
281.3099324740217
  0
ARC
  5
1DC
  8
DATA
  6
CONTINUOUS
 62
     7
 10
-1530.0
 20
132.6980390271853
 30
0.0
 40
9.999999999999995
 50
281.3099324740203
 51
0.0
  0
ARC
  5
1DD
  8
DATA
  6
CONTINUOUS
 62
     7
 10
-1530.0
 20
221.3019609728145
 30
0.0
 40
10.0
 50
0.0
 51
78.69006752597967
  0
ARC
  5
1DE
  8
DATA
  6
CONTINUOUS
 62
     7
 10
-1600.0
 20
203.2916745917028
 30
0.0
 40
45.70832540829729
 50
53.01248785079481
 51
126.9875121492053
  0
ARC
  5
1DF
  8
DATA
  6
CONTINUOUS
 62
     7
 10
-1600.0
 20
150.7083254082971
 30
0.0
 40
45.7083254082972
 50
233.0124878507947
 51
306.9875121492052
  0
ARC
  5
1E0
  8
DATA
  6
CONTINUOUS
 62
     7
 10
-1699.0
 20
289.5
 30
0.0
 40
20.0
 50
180.0
 51
270.0
  0
ARC
  5
1E1
  8
DATA
  6
CONTINUOUS
 62
     7
 10
-1501.0
 20
289.5
 30
0.0
 40
20.0
 50
270.0
 51
0.0
  0
ARC
  5
1E2
  8
DATA
  6
CONTINUOUS
 62
     7
 10
-1690.000000000023
 20
277.9407113670922
 30
0.0
 40
0.1892886329077023
 50
359.0566788816057
 51
180.9433209280015
  0
ARC
  5
1E3
  8
DATA
  6
CONTINUOUS
 62
     7
 10
-1690.863184193107
 20
277.9950788787143
 30
0.0
 40
0.6763683861878581
 50
244.875388670041
 51
355.1246113518744
  0
ARC
  5
1E4
  8
DATA
  6
CONTINUOUS
 62
     7
 10
-1691.247692643428
 20
277.2203556835147
 30
0.0
 40
0.1892886329078273
 50
59.05667888159795
 51
240.9433209280274
  0
ARC
  5
1E5
  8
DATA
  6
CONTINUOUS
 62
     7
 10
-1691.726368386175
 20
276.49999999997
 30
0.0
 40
0.6763683861879869
 50
304.8753886700342
 51
55.12461135186743
  0
ARC
  5
1E6
  8
DATA
  6
CONTINUOUS
 62
     7
 10
-1690.000000000023
 20
275.0592886329078
 30
0.0
 40
0.189288632907806
 50
179.0566790719985
 51
0.9433211183943229
  0
ARC
  5
1E7
  8
DATA
  6
CONTINUOUS
 62
     7
 10
-1690.863184193107
 20
275.0049211212857
 30
0.0
 40
0.6763683861879335
 50
4.87538864812561
 51
115.1246113299589
  0
ARC
  5
1E8
  8
DATA
  6
CONTINUOUS
 62
     7
 10
-1691.247692643428
 20
275.7796443164853
 30
0.0
 40
0.1892886329075832
 50
119.0566790719725
 51
300.9433211184021
  0
ARC
  5
1E9
  8
DATA
  6
CONTINUOUS
 62
     7
 10
-1689.136815806939
 20
277.9950788787143
 30
0.0
 40
0.6763683861879335
 50
184.8753886481256
 51
295.1246113299764
  0
ARC
  5
1EA
  8
DATA
  6
CONTINUOUS
 62
     7
 10
-1688.752307356618
 20
277.2203556835147
 30
0.0
 40
0.1892886329076936
 50
299.0566790720327
 51
120.943321118343
  0
ARC
  5
1EB
  8
DATA
  6
CONTINUOUS
 62
     7
 10
-1688.273631613871
 20
276.49999999997
 30
0.0
 40
0.6763683861878057
 50
124.8753886481168
 51
235.1246113299658
  0
ARC
  5
1EC
  8
DATA
  6
CONTINUOUS
 62
     7
 10
-1689.136815806939
 20
275.0049211212857
 30
0.0
 40
0.6763683861879546
 50
64.87538867002364
 51
175.1246113518744
  0
ARC
  5
1ED
  8
DATA
  6
CONTINUOUS
 62
     7
 10
-1688.752307356618
 20
275.7796443164853
 30
0.0
 40
0.1892886329077103
 50
239.056678881657
 51
60.94332092796731
  0
CIRCLE
  5
1EE
  8
DATA
  6
CONTINUOUS
 62
     7
 10
-1690.0
 20
276.5
 30
0.0
 40
4.0
  0
ARC
  5
1EF
  8
DATA
  6
CONTINUOUS
 62
     7
 10
-1510.000000000023
 20
277.9407113670922
 30
0.0
 40
0.1892886329077023
 50
359.0566788816057
 51
180.9433209280015
  0
ARC
  5
1F0
  8
DATA
  6
CONTINUOUS
 62
     7
 10
-1510.863184193107
 20
277.9950788787143
 30
0.0
 40
0.6763683861878581
 50
244.875388670041
 51
355.1246113518744
  0
ARC
  5
1F1
  8
DATA
  6
CONTINUOUS
 62
     7
 10
-1511.247692643428
 20
277.2203556835147
 30
0.0
 40
0.1892886329078273
 50
59.05667888159795
 51
240.9433209280274
  0
ARC
  5
1F2
  8
DATA
  6
CONTINUOUS
 62
     7
 10
-1511.726368386175
 20
276.49999999997
 30
0.0
 40
0.6763683861879869
 50
304.8753886700342
 51
55.12461135186743
  0
ARC
  5
1F3
  8
DATA
  6
CONTINUOUS
 62
     7
 10
-1510.000000000023
 20
275.0592886329078
 30
0.0
 40
0.189288632907806
 50
179.0566790719985
 51
0.9433211183943229
  0
ARC
  5
1F4
  8
DATA
  6
CONTINUOUS
 62
     7
 10
-1510.863184193107
 20
275.0049211212857
 30
0.0
 40
0.6763683861879335
 50
4.87538864812561
 51
115.1246113299589
  0
ARC
  5
1F5
  8
DATA
  6
CONTINUOUS
 62
     7
 10
-1511.247692643428
 20
275.7796443164853
 30
0.0
 40
0.1892886329075832
 50
119.0566790719725
 51
300.9433211184021
  0
ARC
  5
1F6
  8
DATA
  6
CONTINUOUS
 62
     7
 10
-1509.136815806939
 20
277.9950788787143
 30
0.0
 40
0.6763683861879335
 50
184.8753886481256
 51
295.1246113299764
  0
ARC
  5
1F7
  8
DATA
  6
CONTINUOUS
 62
     7
 10
-1508.752307356618
 20
277.2203556835147
 30
0.0
 40
0.1892886329076936
 50
299.0566790720327
 51
120.943321118343
  0
ARC
  5
1F8
  8
DATA
  6
CONTINUOUS
 62
     7
 10
-1508.273631613871
 20
276.49999999997
 30
0.0
 40
0.6763683861878057
 50
124.8753886481168
 51
235.1246113299658
  0
ARC
  5
1F9
  8
DATA
  6
CONTINUOUS
 62
     7
 10
-1509.136815806939
 20
275.0049211212857
 30
0.0
 40
0.6763683861879546
 50
64.87538867002364
 51
175.1246113518744
  0
ARC
  5
1FA
  8
DATA
  6
CONTINUOUS
 62
     7
 10
-1508.752307356618
 20
275.7796443164853
 30
0.0
 40
0.1892886329077103
 50
239.056678881657
 51
60.94332092796731
  0
CIRCLE
  5
1FB
  8
DATA
  6
CONTINUOUS
 62
     7
 10
-1510.0
 20
276.5
 30
0.0
 40
4.0
  0
ARC
  5
1FC
  8
DATA
  6
CONTINUOUS
 62
     7
 10
-1710.000000000023
 20
295.9407113670922
 30
0.0
 40
0.1892886329077023
 50
359.0566788816057
 51
180.9433209280015
  0
ARC
  5
1FD
  8
DATA
  6
CONTINUOUS
 62
     7
 10
-1710.863184193107
 20
295.9950788787143
 30
0.0
 40
0.6763683861878581
 50
244.875388670041
 51
355.1246113518744
  0
ARC
  5
1FE
  8
DATA
  6
CONTINUOUS
 62
     7
 10
-1711.247692643428
 20
295.2203556835147
 30
0.0
 40
0.1892886329078273
 50
59.05667888159795
 51
240.9433209280274
  0
ARC
  5
1FF
  8
DATA
  6
CONTINUOUS
 62
     7
 10
-1711.726368386175
 20
294.49999999997
 30
0.0
 40
0.6763683861879869
 50
304.8753886700342
 51
55.12461135186743
  0
ARC
  5
200
  8
DATA
  6
CONTINUOUS
 62
     7
 10
-1710.000000000023
 20
293.0592886329078
 30
0.0
 40
0.189288632907806
 50
179.0566790719985
 51
0.9433211183943229
  0
ARC
  5
201
  8
DATA
  6
CONTINUOUS
 62
     7
 10
-1710.863184193107
 20
293.0049211212857
 30
0.0
 40
0.6763683861879335
 50
4.87538864812561
 51
115.1246113299589
  0
ARC
  5
202
  8
DATA
  6
CONTINUOUS
 62
     7
 10
-1711.247692643428
 20
293.7796443164853
 30
0.0
 40
0.1892886329075832
 50
119.0566790719725
 51
300.9433211184021
  0
ARC
  5
203
  8
DATA
  6
CONTINUOUS
 62
     7
 10
-1709.136815806939
 20
295.9950788787143
 30
0.0
 40
0.6763683861879335
 50
184.8753886481256
 51
295.1246113299764
  0
ARC
  5
204
  8
DATA
  6
CONTINUOUS
 62
     7
 10
-1708.752307356618
 20
295.2203556835147
 30
0.0
 40
0.1892886329076936
 50
299.0566790720327
 51
120.943321118343
  0
ARC
  5
205
  8
DATA
  6
CONTINUOUS
 62
     7
 10
-1708.273631613871
 20
294.49999999997
 30
0.0
 40
0.6763683861878057
 50
124.8753886481168
 51
235.1246113299658
  0
ARC
  5
206
  8
DATA
  6
CONTINUOUS
 62
     7
 10
-1709.136815806939
 20
293.0049211212857
 30
0.0
 40
0.6763683861879546
 50
64.87538867002364
 51
175.1246113518744
  0
ARC
  5
207
  8
DATA
  6
CONTINUOUS
 62
     7
 10
-1708.752307356618
 20
293.7796443164853
 30
0.0
 40
0.1892886329077103
 50
239.056678881657
 51
60.94332092796731
  0
CIRCLE
  5
208
  8
DATA
  6
CONTINUOUS
 62
     7
 10
-1710.0
 20
294.5
 30
0.0
 40
4.0
  0
ARC
  5
209
  8
DATA
  6
CONTINUOUS
 62
     7
 10
-1710.000000000023
 20
355.9407113670922
 30
0.0
 40
0.1892886329077023
 50
359.0566788816057
 51
180.9433209280015
  0
ARC
  5
20A
  8
DATA
  6
CONTINUOUS
 62
     7
 10
-1710.863184193107
 20
355.9950788787143
 30
0.0
 40
0.6763683861878581
 50
244.875388670041
 51
355.1246113518744
  0
ARC
  5
20B
  8
DATA
  6
CONTINUOUS
 62
     7
 10
-1711.247692643428
 20
355.2203556835147
 30
0.0
 40
0.1892886329078273
 50
59.05667888159795
 51
240.9433209280274
  0
ARC
  5
20C
  8
DATA
  6
CONTINUOUS
 62
     7
 10
-1711.726368386175
 20
354.49999999997
 30
0.0
 40
0.6763683861879869
 50
304.8753886700342
 51
55.12461135186743
  0
ARC
  5
20D
  8
DATA
  6
CONTINUOUS
 62
     7
 10
-1710.000000000023
 20
353.0592886329078
 30
0.0
 40
0.189288632907806
 50
179.0566790719985
 51
0.9433211183943229
  0
ARC
  5
20E
  8
DATA
  6
CONTINUOUS
 62
     7
 10
-1710.863184193107
 20
353.0049211212857
 30
0.0
 40
0.6763683861879335
 50
4.87538864812561
 51
115.1246113299589
  0
ARC
  5
20F
  8
DATA
  6
CONTINUOUS
 62
     7
 10
-1711.247692643428
 20
353.7796443164853
 30
0.0
 40
0.1892886329075832
 50
119.0566790719725
 51
300.9433211184021
  0
ARC
  5
210
  8
DATA
  6
CONTINUOUS
 62
     7
 10
-1709.136815806939
 20
355.9950788787143
 30
0.0
 40
0.6763683861879335
 50
184.8753886481256
 51
295.1246113299764
  0
ARC
  5
211
  8
DATA
  6
CONTINUOUS
 62
     7
 10
-1708.752307356618
 20
355.2203556835147
 30
0.0
 40
0.1892886329076936
 50
299.0566790720327
 51
120.943321118343
  0
ARC
  5
212
  8
DATA
  6
CONTINUOUS
 62
     7
 10
-1708.273631613871
 20
354.49999999997
 30
0.0
 40
0.6763683861878057
 50
124.8753886481168
 51
235.1246113299658
  0
ARC
  5
213
  8
DATA
  6
CONTINUOUS
 62
     7
 10
-1709.136815806939
 20
353.0049211212857
 30
0.0
 40
0.6763683861879546
 50
64.87538867002364
 51
175.1246113518744
  0
ARC
  5
214
  8
DATA
  6
CONTINUOUS
 62
     7
 10
-1708.752307356618
 20
353.7796443164853
 30
0.0
 40
0.1892886329077103
 50
239.056678881657
 51
60.94332092796731
  0
CIRCLE
  5
215
  8
DATA
  6
CONTINUOUS
 62
     7
 10
-1710.0
 20
354.5
 30
0.0
 40
4.0
  0
ARC
  5
216
  8
DATA
  6
CONTINUOUS
 62
     7
 10
-1490.000000000023
 20
355.9407113670922
 30
0.0
 40
0.1892886329077023
 50
359.0566788816057
 51
180.9433209280015
  0
ARC
  5
217
  8
DATA
  6
CONTINUOUS
 62
     7
 10
-1490.863184193107
 20
355.9950788787143
 30
0.0
 40
0.6763683861878581
 50
244.875388670041
 51
355.1246113518744
  0
ARC
  5
218
  8
DATA
  6
CONTINUOUS
 62
     7
 10
-1491.247692643428
 20
355.2203556835147
 30
0.0
 40
0.1892886329078273
 50
59.05667888159795
 51
240.9433209280274
  0
ARC
  5
219
  8
DATA
  6
CONTINUOUS
 62
     7
 10
-1491.726368386175
 20
354.49999999997
 30
0.0
 40
0.6763683861879869
 50
304.8753886700342
 51
55.12461135186743
  0
ARC
  5
21A
  8
DATA
  6
CONTINUOUS
 62
     7
 10
-1490.000000000023
 20
353.0592886329078
 30
0.0
 40
0.189288632907806
 50
179.0566790719985
 51
0.9433211183943229
  0
ARC
  5
21B
  8
DATA
  6
CONTINUOUS
 62
     7
 10
-1490.863184193107
 20
353.0049211212857
 30
0.0
 40
0.6763683861879335
 50
4.87538864812561
 51
115.1246113299589
  0
ARC
  5
21C
  8
DATA
  6
CONTINUOUS
 62
     7
 10
-1491.247692643428
 20
353.7796443164853
 30
0.0
 40
0.1892886329075832
 50
119.0566790719725
 51
300.9433211184021
  0
ARC
  5
21D
  8
DATA
  6
CONTINUOUS
 62
     7
 10
-1489.136815806939
 20
355.9950788787143
 30
0.0
 40
0.6763683861879335
 50
184.8753886481256
 51
295.1246113299764
  0
ARC
  5
21E
  8
DATA
  6
CONTINUOUS
 62
     7
 10
-1488.752307356618
 20
355.2203556835147
 30
0.0
 40
0.1892886329076936
 50
299.0566790720327
 51
120.943321118343
  0
ARC
  5
21F
  8
DATA
  6
CONTINUOUS
 62
     7
 10
-1488.273631613871
 20
354.49999999997
 30
0.0
 40
0.6763683861878057
 50
124.8753886481168
 51
235.1246113299658
  0
ARC
  5
220
  8
DATA
  6
CONTINUOUS
 62
     7
 10
-1489.136815806939
 20
353.0049211212857
 30
0.0
 40
0.6763683861879546
 50
64.87538867002364
 51
175.1246113518744
  0
ARC
  5
221
  8
DATA
  6
CONTINUOUS
 62
     7
 10
-1488.752307356618
 20
353.7796443164853
 30
0.0
 40
0.1892886329077103
 50
239.056678881657
 51
60.94332092796731
  0
CIRCLE
  5
222
  8
DATA
  6
CONTINUOUS
 62
     7
 10
-1490.0
 20
354.5
 30
0.0
 40
4.0
  0
ARC
  5
223
  8
DATA
  6
CONTINUOUS
 62
     7
 10
-1490.000000000023
 20
295.9407113670922
 30
0.0
 40
0.1892886329077023
 50
359.0566788816057
 51
180.9433209280015
  0
ARC
  5
224
  8
DATA
  6
CONTINUOUS
 62
     7
 10
-1490.863184193107
 20
295.9950788787143
 30
0.0
 40
0.6763683861878581
 50
244.875388670041
 51
355.1246113518744
  0
ARC
  5
225
  8
DATA
  6
CONTINUOUS
 62
     7
 10
-1491.247692643428
 20
295.2203556835147
 30
0.0
 40
0.1892886329078273
 50
59.05667888159795
 51
240.9433209280274
  0
ARC
  5
226
  8
DATA
  6
CONTINUOUS
 62
     7
 10
-1491.726368386175
 20
294.49999999997
 30
0.0
 40
0.6763683861879869
 50
304.8753886700342
 51
55.12461135186743
  0
ARC
  5
227
  8
DATA
  6
CONTINUOUS
 62
     7
 10
-1490.000000000023
 20
293.0592886329078
 30
0.0
 40
0.189288632907806
 50
179.0566790719985
 51
0.9433211183943229
  0
ARC
  5
228
  8
DATA
  6
CONTINUOUS
 62
     7
 10
-1490.863184193107
 20
293.0049211212857
 30
0.0
 40
0.6763683861879335
 50
4.87538864812561
 51
115.1246113299589
  0
ARC
  5
229
  8
DATA
  6
CONTINUOUS
 62
     7
 10
-1491.247692643428
 20
293.7796443164853
 30
0.0
 40
0.1892886329075832
 50
119.0566790719725
 51
300.9433211184021
  0
ARC
  5
22A
  8
DATA
  6
CONTINUOUS
 62
     7
 10
-1489.136815806939
 20
295.9950788787143
 30
0.0
 40
0.6763683861879335
 50
184.8753886481256
 51
295.1246113299764
  0
ARC
  5
22B
  8
DATA
  6
CONTINUOUS
 62
     7
 10
-1488.752307356618
 20
295.2203556835147
 30
0.0
 40
0.1892886329076936
 50
299.0566790720327
 51
120.943321118343
  0
ARC
  5
22C
  8
DATA
  6
CONTINUOUS
 62
     7
 10
-1488.273631613871
 20
294.49999999997
 30
0.0
 40
0.6763683861878057
 50
124.8753886481168
 51
235.1246113299658
  0
ARC
  5
22D
  8
DATA
  6
CONTINUOUS
 62
     7
 10
-1489.136815806939
 20
293.0049211212857
 30
0.0
 40
0.6763683861879546
 50
64.87538867002364
 51
175.1246113518744
  0
ARC
  5
22E
  8
DATA
  6
CONTINUOUS
 62
     7
 10
-1488.752307356618
 20
293.7796443164853
 30
0.0
 40
0.1892886329077103
 50
239.056678881657
 51
60.94332092796731
  0
CIRCLE
  5
22F
  8
DATA
  6
CONTINUOUS
 62
     7
 10
-1490.0
 20
294.5
 30
0.0
 40
4.0
  0
CIRCLE
  5
230
  8
DATA
  6
CONTINUOUS
 62
     7
 10
-1670.0
 20
344.5
 30
0.0
 40
7.0
  0
CIRCLE
  5
231
  8
DATA
  6
CONTINUOUS
 62
     7
 10
-1670.0
 20
344.5
 30
0.0
 40
6.25
  0
CIRCLE
  5
232
  8
DATA
  6
CONTINUOUS
 62
     7
 10
-1643.166666666667
 20
344.5
 30
0.0
 40
7.0
  0
CIRCLE
  5
233
  8
DATA
  6
CONTINUOUS
 62
     7
 10
-1643.166666666667
 20
344.5
 30
0.0
 40
6.25
  0
CIRCLE
  5
234
  8
DATA
  6
CONTINUOUS
 62
     7
 10
-1616.333333333333
 20
344.5
 30
0.0
 40
7.0
  0
CIRCLE
  5
235
  8
DATA
  6
CONTINUOUS
 62
     7
 10
-1616.333333333333
 20
344.5
 30
0.0
 40
6.25
  0
CIRCLE
  5
236
  8
DATA
  6
CONTINUOUS
 62
     7
 10
-1589.5
 20
344.5
 30
0.0
 40
7.0
  0
CIRCLE
  5
237
  8
DATA
  6
CONTINUOUS
 62
     7
 10
-1589.5
 20
344.5
 30
0.0
 40
6.25
  0
CIRCLE
  5
238
  8
DATA
  6
CONTINUOUS
 62
     7
 10
-1562.666666666667
 20
344.5
 30
0.0
 40
7.0
  0
CIRCLE
  5
239
  8
DATA
  6
CONTINUOUS
 62
     7
 10
-1562.666666666667
 20
344.5
 30
0.0
 40
6.25
  0
CIRCLE
  5
23A
  8
DATA
  6
CONTINUOUS
 62
     7
 10
-1535.833333333333
 20
344.5
 30
0.0
 40
7.0
  0
CIRCLE
  5
23B
  8
DATA
  6
CONTINUOUS
 62
     7
 10
-1535.833333333333
 20
344.5
 30
0.0
 40
6.25
  0
CIRCLE
  5
23C
  8
DATA
  6
CONTINUOUS
 62
     7
 10
-1509.0
 20
344.5
 30
0.0
 40
7.0
  0
CIRCLE
  5
23D
  8
DATA
  6
CONTINUOUS
 62
     7
 10
-1509.0
 20
344.5
 30
0.0
 40
6.25
  0
LINE
  5
23E
  8
DATA
  6
CONTINUOUS
 62
     7
 10
-1669.75
 20
381.5
 30
0.0
 11
-1669.75
 21
366.5
 31
0.0
  0
LINE
  5
23F
  8
DATA
  6
CONTINUOUS
 62
     7
 10
-1670.25
 20
381.5
 30
0.0
 11
-1670.25
 21
366.5
 31
0.0
  0
LINE
  5
240
  8
DATA
  6
CONTINUOUS
 62
     7
 10
-1642.916666666667
 20
381.5
 30
0.0
 11
-1642.916666666667
 21
366.5
 31
0.0
  0
LINE
  5
241
  8
DATA
  6
CONTINUOUS
 62
     7
 10
-1643.416666666667
 20
381.5
 30
0.0
 11
-1643.416666666667
 21
366.5
 31
0.0
  0
LINE
  5
242
  8
DATA
  6
CONTINUOUS
 62
     7
 10
-1616.083333333333
 20
381.5
 30
0.0
 11
-1616.083333333333
 21
366.5
 31
0.0
  0
LINE
  5
243
  8
DATA
  6
CONTINUOUS
 62
     7
 10
-1616.583333333333
 20
381.5
 30
0.0
 11
-1616.583333333333
 21
366.5
 31
0.0
  0
LINE
  5
244
  8
DATA
  6
CONTINUOUS
 62
     7
 10
-1589.25
 20
381.5
 30
0.0
 11
-1589.25
 21
366.5
 31
0.0
  0
LINE
  5
245
  8
DATA
  6
CONTINUOUS
 62
     7
 10
-1589.75
 20
381.5
 30
0.0
 11
-1589.75
 21
366.5
 31
0.0
  0
LINE
  5
246
  8
DATA
  6
CONTINUOUS
 62
     7
 10
-1562.416666666667
 20
381.5
 30
0.0
 11
-1562.416666666667
 21
366.5
 31
0.0
  0
LINE
  5
247
  8
DATA
  6
CONTINUOUS
 62
     7
 10
-1562.916666666667
 20
381.5
 30
0.0
 11
-1562.916666666667
 21
366.5
 31
0.0
  0
LINE
  5
248
  8
DATA
  6
CONTINUOUS
 62
     7
 10
-1535.583333333333
 20
381.5
 30
0.0
 11
-1535.583333333333
 21
366.5
 31
0.0
  0
LINE
  5
249
  8
DATA
  6
CONTINUOUS
 62
     7
 10
-1536.083333333333
 20
381.5
 30
0.0
 11
-1536.083333333333
 21
366.5
 31
0.0
  0
LINE
  5
24A
  8
DATA
  6
CONTINUOUS
 62
     7
 10
-1508.75
 20
381.5
 30
0.0
 11
-1508.75
 21
366.5
 31
0.0
  0
LINE
  5
24B
  8
DATA
  6
CONTINUOUS
 62
     7
 10
-1509.25
 20
381.5
 30
0.0
 11
-1509.25
 21
366.5
 31
0.0
  0
POLYLINE
  5
24C
  8
DATA
  6
CONTINUOUS
 62
     7
 66
     1
 10
0.0
 20
0.0
 30
0.0
 70
     1
  0
VERTEX
  5
9F3
  8
DATA
  6
CONTINUOUS
 62
     7
 10
-1695.5
 20
297.5
 30
0.0
  0
VERTEX
  5
9F4
  8
DATA
  6
CONTINUOUS
 62
     7
 10
-1682.5
 20
297.5
 30
0.0
  0
VERTEX
  5
9F5
  8
DATA
  6
CONTINUOUS
 62
     7
 10
-1682.5
 20
291.5
 30
0.0
  0
VERTEX
  5
9F6
  8
DATA
  6
CONTINUOUS
 62
     7
 10
-1695.5
 20
291.5
 30
0.0
  0
SEQEND
  5
A5B
  8
DATA
  6
CONTINUOUS
 62
     7
  0
POLYLINE
  5
253
  8
DATA
  6
CONTINUOUS
 62
     7
 66
     1
 10
0.0
 20
0.0
 30
0.0
 70
     1
  0
VERTEX
  5
9F7
  8
DATA
  6
CONTINUOUS
 62
     7
 10
-1694.5
 20
297.0
 30
0.0
  0
VERTEX
  5
9F8
  8
DATA
  6
CONTINUOUS
 62
     7
 10
-1683.5
 20
297.0
 30
0.0
  0
VERTEX
  5
9F9
  8
DATA
  6
CONTINUOUS
 62
     7
 10
-1683.5
 20
295.5
 30
0.0
  0
VERTEX
  5
9FA
  8
DATA
  6
CONTINUOUS
 62
     7
 10
-1694.5
 20
295.5
 30
0.0
  0
SEQEND
  5
A5C
  8
DATA
  6
CONTINUOUS
 62
     7
  0
LINE
  5
25A
  8
DATA
  6
CONTINUOUS
 62
     7
 10
-1686.543910586842
 20
286.5000000000001
 30
0.0
 11
-1687.493910586842
 21
286.5000000000001
 31
0.0
  0
LINE
  5
25B
  8
DATA
  6
CONTINUOUS
 62
     7
 10
-1687.493910586842
 20
286.5000000000001
 30
0.0
 11
-1688.818910586842
 21
286.5000000000001
 31
0.0
  0
LINE
  5
25C
  8
DATA
  6
CONTINUOUS
 62
     7
 10
-1688.668910586842
 20
286.5000000000001
 30
0.0
 11
-1691.306089413157
 21
286.5000000000001
 31
0.0
  0
CIRCLE
  5
25D
  8
DATA
  6
CONTINUOUS
 62
     7
 10
-1686.243910586842
 20
286.5000000000001
 30
0.0
 40
0.3000000000000111
  0
LINE
  5
25E
  8
DATA
  6
CONTINUOUS
 62
     7
 10
-1691.306089413157
 20
286.1250000000001
 30
0.0
 11
-1692.056089413157
 21
286.5000000000001
 31
0.0
  0
LINE
  5
25F
  8
DATA
  6
CONTINUOUS
 62
     7
 10
-1691.306089413157
 20
286.8750000000001
 30
0.0
 11
-1692.056089413157
 21
286.5000000000001
 31
0.0
  0
LINE
  5
260
  8
DATA
  6
CONTINUOUS
 62
     7
 10
-1691.306089413157
 20
286.8750000000001
 30
0.0
 11
-1691.306089413157
 21
286.1250000000001
 31
0.0
  0
CIRCLE
  5
261
  8
DATA
  6
CONTINUOUS
 62
     7
 10
-1690.418910586842
 20
287.4500000000001
 30
0.0
 40
0.2249999999999091
  0
LINE
  5
262
  8
DATA
  6
CONTINUOUS
 62
     7
 10
-1690.193910586842
 20
287.4500000000001
 30
0.0
 11
-1689.868910586842
 21
287.4500000000001
 31
0.0
  0
LINE
  5
263
  8
DATA
  6
CONTINUOUS
 62
     7
 10
-1689.868910586842
 20
287.4500000000001
 30
0.0
 11
-1689.718910586842
 21
287.4500000000001
 31
0.0
  0
LINE
  5
264
  8
DATA
  6
CONTINUOUS
 62
     7
 10
-1689.268910586842
 20
286.9500000000001
 30
0.0
 11
-1689.268910586842
 21
287.0000000000001
 31
0.0
  0
ARC
  5
265
  8
DATA
  6
CONTINUOUS
 62
     7
 10
-1689.718910586842
 20
287.0000000000001
 30
0.0
 40
0.4500000000000455
 50
0.0
 51
90.0
  0
ARC
  5
266
  8
DATA
  6
CONTINUOUS
 62
     7
 10
-1688.818910586842
 20
286.9500000000001
 30
0.0
 40
0.4499999999998181
 50
180.0
 51
270.0
  0
CIRCLE
  5
267
  8
DATA
  6
CONTINUOUS
 62
     7
 10
-1689.172146572692
 20
285.5500000000001
 30
0.0
 40
0.2249999999999091
  0
LINE
  5
268
  8
DATA
  6
CONTINUOUS
 62
     7
 10
-1688.947146572692
 20
285.5500000000001
 30
0.0
 11
-1688.393910586842
 21
285.5500000000001
 31
0.0
  0
ARC
  5
269
  8
DATA
  6
CONTINUOUS
 62
     7
 10
-1688.393910586842
 20
286.0000000000001
 30
0.0
 40
0.4499999999999886
 50
270.0
 51
320.7035197609493
  0
ARC
  5
26A
  8
DATA
  6
CONTINUOUS
 62
     7
 10
-1687.356846452437
 20
286.0500000000001
 30
0.0
 40
0.4499999999999886
 50
90.0
 51
145.867326644366
  0
LINE
  5
26B
  8
DATA
  6
CONTINUOUS
 62
     7
 10
-1687.729329673536
 20
286.3025000000001
 30
0.0
 11
-1688.045664983855
 21
285.7150000000001
 31
0.0
  0
TEXT
  5
26C
  8
DATA
 62
     7
 10
-1687.649527994792
 20
290.5180257161458
 30
0.0
 40
2.036051432291667
  1
5V2A
 50
180.0
 41
0.7
 72
     1
 11
-1690.5
 21
289.5
 31
0.0
 73
     2
  0
LINE
  5
26D
  8
DATA
  6
CONTINUOUS
 62
     7
 10
-1687.3541665615
 20
289.0
 30
0.0
 11
-1684.6041665615
 21
289.0
 31
0.0
  0
CIRCLE
  5
26E
  8
DATA
  6
CONTINUOUS
 62
     7
 10
-1685.9791665615
 20
289.5
 30
0.0
 40
0.1499999999999659
  0
CIRCLE
  5
26F
  8
DATA
  6
CONTINUOUS
 62
     7
 10
-1686.9791665615
 20
289.5
 30
0.0
 40
0.1499999999999659
  0
CIRCLE
  5
270
  8
DATA
  6
CONTINUOUS
 62
     7
 10
-1684.9791665615
 20
289.5
 30
0.0
 40
0.1499999999999659
  0
POLYLINE
  5
271
  8
DATA
  6
CONTINUOUS
 62
     7
 66
     1
 10
0.0
 20
0.0
 30
0.0
 70
     1
  0
VERTEX
  5
9FB
  8
DATA
  6
CONTINUOUS
 62
     7
 10
-1695.5
 20
322.5
 30
0.0
  0
VERTEX
  5
9FC
  8
DATA
  6
CONTINUOUS
 62
     7
 10
-1682.5
 20
322.5
 30
0.0
  0
VERTEX
  5
9FD
  8
DATA
  6
CONTINUOUS
 62
     7
 10
-1682.5
 20
316.5
 30
0.0
  0
VERTEX
  5
9FE
  8
DATA
  6
CONTINUOUS
 62
     7
 10
-1695.5
 20
316.5
 30
0.0
  0
SEQEND
  5
A5D
  8
DATA
  6
CONTINUOUS
 62
     7
  0
POLYLINE
  5
278
  8
DATA
  6
CONTINUOUS
 62
     7
 66
     1
 10
0.0
 20
0.0
 30
0.0
 70
     1
  0
VERTEX
  5
9FF
  8
DATA
  6
CONTINUOUS
 62
     7
 10
-1694.5
 20
322.0
 30
0.0
  0
VERTEX
  5
A00
  8
DATA
  6
CONTINUOUS
 62
     7
 10
-1683.5
 20
322.0
 30
0.0
  0
VERTEX
  5
A01
  8
DATA
  6
CONTINUOUS
 62
     7
 10
-1683.5
 20
320.5
 30
0.0
  0
VERTEX
  5
A02
  8
DATA
  6
CONTINUOUS
 62
     7
 10
-1694.5
 20
320.5
 30
0.0
  0
SEQEND
  5
A5E
  8
DATA
  6
CONTINUOUS
 62
     7
  0
LINE
  5
27F
  8
DATA
  6
CONTINUOUS
 62
     7
 10
-1686.543910586842
 20
311.5000000000001
 30
0.0
 11
-1687.493910586842
 21
311.5000000000001
 31
0.0
  0
LINE
  5
280
  8
DATA
  6
CONTINUOUS
 62
     7
 10
-1687.493910586842
 20
311.5000000000001
 30
0.0
 11
-1688.818910586842
 21
311.5000000000001
 31
0.0
  0
LINE
  5
281
  8
DATA
  6
CONTINUOUS
 62
     7
 10
-1688.668910586842
 20
311.5000000000001
 30
0.0
 11
-1691.306089413157
 21
311.5000000000001
 31
0.0
  0
CIRCLE
  5
282
  8
DATA
  6
CONTINUOUS
 62
     7
 10
-1686.243910586842
 20
311.5000000000001
 30
0.0
 40
0.3000000000000111
  0
LINE
  5
283
  8
DATA
  6
CONTINUOUS
 62
     7
 10
-1691.306089413157
 20
311.1250000000001
 30
0.0
 11
-1692.056089413157
 21
311.5000000000001
 31
0.0
  0
LINE
  5
284
  8
DATA
  6
CONTINUOUS
 62
     7
 10
-1691.306089413157
 20
311.8750000000001
 30
0.0
 11
-1692.056089413157
 21
311.5000000000001
 31
0.0
  0
LINE
  5
285
  8
DATA
  6
CONTINUOUS
 62
     7
 10
-1691.306089413157
 20
311.8750000000001
 30
0.0
 11
-1691.306089413157
 21
311.1250000000001
 31
0.0
  0
CIRCLE
  5
286
  8
DATA
  6
CONTINUOUS
 62
     7
 10
-1690.418910586842
 20
312.4500000000001
 30
0.0
 40
0.2249999999999091
  0
LINE
  5
287
  8
DATA
  6
CONTINUOUS
 62
     7
 10
-1690.193910586842
 20
312.4500000000001
 30
0.0
 11
-1689.868910586842
 21
312.4500000000001
 31
0.0
  0
LINE
  5
288
  8
DATA
  6
CONTINUOUS
 62
     7
 10
-1689.868910586842
 20
312.4500000000001
 30
0.0
 11
-1689.718910586842
 21
312.4500000000001
 31
0.0
  0
LINE
  5
289
  8
DATA
  6
CONTINUOUS
 62
     7
 10
-1689.268910586842
 20
311.9500000000001
 30
0.0
 11
-1689.268910586842
 21
312.0000000000001
 31
0.0
  0
ARC
  5
28A
  8
DATA
  6
CONTINUOUS
 62
     7
 10
-1689.718910586842
 20
312.0000000000001
 30
0.0
 40
0.4500000000000455
 50
0.0
 51
90.0
  0
ARC
  5
28B
  8
DATA
  6
CONTINUOUS
 62
     7
 10
-1688.818910586842
 20
311.9500000000001
 30
0.0
 40
0.4499999999998181
 50
180.0
 51
270.0
  0
CIRCLE
  5
28C
  8
DATA
  6
CONTINUOUS
 62
     7
 10
-1689.172146572692
 20
310.5500000000001
 30
0.0
 40
0.2249999999999091
  0
LINE
  5
28D
  8
DATA
  6
CONTINUOUS
 62
     7
 10
-1688.947146572692
 20
310.5500000000001
 30
0.0
 11
-1688.393910586842
 21
310.5500000000001
 31
0.0
  0
ARC
  5
28E
  8
DATA
  6
CONTINUOUS
 62
     7
 10
-1688.393910586842
 20
311.0000000000001
 30
0.0
 40
0.4499999999999886
 50
270.0
 51
320.7035197609493
  0
ARC
  5
28F
  8
DATA
  6
CONTINUOUS
 62
     7
 10
-1687.356846452437
 20
311.0500000000001
 30
0.0
 40
0.4499999999999886
 50
90.0
 51
145.867326644366
  0
LINE
  5
290
  8
DATA
  6
CONTINUOUS
 62
     7
 10
-1687.729329673536
 20
311.3025000000001
 30
0.0
 11
-1688.045664983855
 21
310.7150000000001
 31
0.0
  0
TEXT
  5
291
  8
DATA
 62
     7
 10
-1687.649527994792
 20
315.5180257161458
 30
0.0
 40
2.036051432291667
  1
5V2A
 50
180.0
 41
0.7
 72
     1
 11
-1690.5
 21
314.5
 31
0.0
 73
     2
  0
LINE
  5
292
  8
DATA
  6
CONTINUOUS
 62
     7
 10
-1687.3541665615
 20
314.0
 30
0.0
 11
-1684.6041665615
 21
314.0
 31
0.0
  0
CIRCLE
  5
293
  8
DATA
  6
CONTINUOUS
 62
     7
 10
-1685.9791665615
 20
314.5
 30
0.0
 40
0.1499999999999659
  0
CIRCLE
  5
294
  8
DATA
  6
CONTINUOUS
 62
     7
 10
-1686.9791665615
 20
314.5
 30
0.0
 40
0.1499999999999659
  0
CIRCLE
  5
295
  8
DATA
  6
CONTINUOUS
 62
     7
 10
-1684.9791665615
 20
314.5
 30
0.0
 40
0.1499999999999659
  0
TEXT
  5
296
  8
DATA
 62
     7
 10
-1683.909871419271
 20
335.5
 30
0.0
 40
10.18025716145833
  1
PRX
 50
90.0
 41
0.7
 11
-1689.0
 21
335.5
 31
0.0
 73
     2
  0
POLYLINE
  5
297
  8
DATA
  6
CONTINUOUS
 62
     7
 66
     1
 10
0.0
 20
0.0
 30
0.0
 70
     1
  0
VERTEX
  5
A03
  8
DATA
  6
CONTINUOUS
 62
     7
 10
-1691.0
 20
356.5
 30
0.0
  0
VERTEX
  5
A04
  8
DATA
  6
CONTINUOUS
 62
     7
 10
-1689.0
 20
354.5
 30
0.0
  0
VERTEX
  5
A05
  8
DATA
  6
CONTINUOUS
 62
     7
 10
-1687.0
 20
356.5
 30
0.0
  0
VERTEX
  5
A06
  8
DATA
  6
CONTINUOUS
 62
     7
 10
-1687.0
 20
369.5
 30
0.0
  0
VERTEX
  5
A07
  8
DATA
  6
CONTINUOUS
 62
     7
 10
-1691.0
 20
369.5
 30
0.0
  0
SEQEND
  5
A5F
  8
DATA
  6
CONTINUOUS
 62
     7
  0
TEXT
  5
29F
  8
DATA
 62
     7
 10
-1687.642632378472
 20
360.4662471064815
 30
0.0
 40
2.714735243055556
  1
ONE
 50
90.0
 41
0.7
 72
     1
 11
-1689.0
 21
363.0
 31
0.0
 73
     2
  0
TEXT
  5
2A0
  8
DATA
 62
     7
 10
-1666.1201908818
 20
356.1967095269097
 30
0.0
 40
3.393419053819445
  1
CH 7
 50
180.0
 41
0.7
 72
     1
 11
-1670.0
 21
354.5
 31
0.0
 73
     2
  0
ARC
  5
2A1
  8
DATA
  6
CONTINUOUS
 62
     7
 10
-1672.0
 20
364.0
 30
0.0
 40
1.5
 50
90.0
 51
270.0
  0
ARC
  5
2A2
  8
DATA
  6
CONTINUOUS
 62
     7
 10
-1668.0
 20
364.0
 30
0.0
 40
1.5
 50
270.0
 51
90.0
  0
LINE
  5
2A3
  8
DATA
  6
CONTINUOUS
 62
     7
 10
-1672.0
 20
365.5
 30
0.0
 11
-1668.0
 21
365.5
 31
0.0
  0
LINE
  5
2A4
  8
DATA
  6
CONTINUOUS
 62
     7
 10
-1668.0
 20
362.5
 30
0.0
 11
-1672.0
 21
362.5
 31
0.0
  0
LINE
  5
2A5
  8
DATA
  6
CONTINUOUS
 62
     7
 10
-1670.25
 20
366.5
 30
0.0
 11
-1669.75
 21
366.5
 31
0.0
  0
LINE
  5
2A6
  8
DATA
  6
CONTINUOUS
 62
     7
 10
-1643.416666666666
 20
366.5
 30
0.0
 11
-1642.916666666667
 21
366.5
 31
0.0
  0
LINE
  5
2A7
  8
DATA
  6
CONTINUOUS
 62
     7
 10
-1616.583333333333
 20
366.5
 30
0.0
 11
-1616.083333333333
 21
366.5
 31
0.0
  0
LINE
  5
2A8
  8
DATA
  6
CONTINUOUS
 62
     7
 10
-1589.75
 20
366.5
 30
0.0
 11
-1589.25
 21
366.5
 31
0.0
  0
LINE
  5
2A9
  8
DATA
  6
CONTINUOUS
 62
     7
 10
-1562.916666666667
 20
366.5
 30
0.0
 11
-1562.416666666666
 21
366.5
 31
0.0
  0
LINE
  5
2AA
  8
DATA
  6
CONTINUOUS
 62
     7
 10
-1536.083333333333
 20
366.5
 30
0.0
 11
-1535.583333333333
 21
366.5
 31
0.0
  0
LINE
  5
2AB
  8
DATA
  6
CONTINUOUS
 62
     7
 10
-1509.25
 20
366.5
 30
0.0
 11
-1508.75
 21
366.5
 31
0.0
  0
TEXT
  5
2AC
  8
DATA
 62
     7
 10
-1664.615775101273
 20
360.8573676215278
 30
0.0
 40
2.714735243055556
  1
CHORUS
 50
180.0
 41
0.7
 72
     1
 11
-1670.0
 21
359.5
 31
0.0
 73
     2
  0
TEXT
  5
2AD
  8
DATA
 62
     7
 10
-1639.286857548466
 20
356.1967095269097
 30
0.0
 40
3.393419053819445
  1
CH 6
 50
180.0
 41
0.7
 72
     1
 11
-1643.166666666667
 21
354.5
 31
0.0
 73
     2
  0
ARC
  5
2AE
  8
DATA
  6
CONTINUOUS
 62
     7
 10
-1645.166666666667
 20
364.0
 30
0.0
 40
1.5
 50
90.0
 51
270.0
  0
ARC
  5
2AF
  8
DATA
  6
CONTINUOUS
 62
     7
 10
-1641.166666666667
 20
364.0
 30
0.0
 40
1.5
 50
270.0
 51
90.0
  0
LINE
  5
2B0
  8
DATA
  6
CONTINUOUS
 62
     7
 10
-1645.166666666667
 20
365.5
 30
0.0
 11
-1641.166666666667
 21
365.5
 31
0.0
  0
LINE
  5
2B1
  8
DATA
  6
CONTINUOUS
 62
     7
 10
-1641.166666666667
 20
362.5
 30
0.0
 11
-1645.166666666667
 21
362.5
 31
0.0
  0
TEXT
  5
2B2
  8
DATA
 62
     7
 10
-1638.732599103009
 20
360.8573676215278
 30
0.0
 40
2.714735243055556
  1
DELAY
 50
180.0
 41
0.7
 72
     1
 11
-1643.166666666667
 21
359.5
 31
0.0
 73
     2
  0
TEXT
  5
2B3
  8
DATA
 62
     7
 10
-1612.453524215133
 20
356.1967095269097
 30
0.0
 40
3.393419053819445
  1
CH 5
 50
180.0
 41
0.7
 72
     1
 11
-1616.333333333333
 21
354.5
 31
0.0
 73
     2
  0
ARC
  5
2B4
  8
DATA
  6
CONTINUOUS
 62
     7
 10
-1618.333333333333
 20
364.0
 30
0.0
 40
1.5
 50
90.0
 51
270.0
  0
ARC
  5
2B5
  8
DATA
  6
CONTINUOUS
 62
     7
 10
-1614.333333333333
 20
364.0
 30
0.0
 40
1.5
 50
270.0
 51
90.0
  0
LINE
  5
2B6
  8
DATA
  6
CONTINUOUS
 62
     7
 10
-1618.333333333333
 20
365.5
 30
0.0
 11
-1614.333333333333
 21
365.5
 31
0.0
  0
LINE
  5
2B7
  8
DATA
  6
CONTINUOUS
 62
     7
 10
-1614.333333333333
 20
362.5
 30
0.0
 11
-1618.333333333333
 21
362.5
 31
0.0
  0
TEXT
  5
2B8
  8
DATA
 62
     7
 10
-1610.632389322916
 20
360.8573676215278
 30
0.0
 40
2.714735243055556
  1
REVERB
 50
180.0
 41
0.7
 72
     1
 11
-1616.333333333333
 21
359.5
 31
0.0
 73
     2
  0
TEXT
  5
2B9
  8
DATA
 62
     7
 10
-1585.6201908818
 20
356.1967095269097
 30
0.0
 40
3.393419053819445
  1
CH 4
 50
180.0
 41
0.7
 72
     1
 11
-1589.5
 21
354.5
 31
0.0
 73
     2
  0
ARC
  5
2BA
  8
DATA
  6
CONTINUOUS
 62
     7
 10
-1591.5
 20
364.0
 30
0.0
 40
1.5
 50
90.0
 51
270.0
  0
ARC
  5
2BB
  8
DATA
  6
CONTINUOUS
 62
     7
 10
-1587.5
 20
364.0
 30
0.0
 40
1.5
 50
270.0
 51
90.0
  0
LINE
  5
2BC
  8
DATA
  6
CONTINUOUS
 62
     7
 10
-1591.5
 20
365.5
 30
0.0
 11
-1587.5
 21
365.5
 31
0.0
  0
LINE
  5
2BD
  8
DATA
  6
CONTINUOUS
 62
     7
 10
-1587.5
 20
362.5
 30
0.0
 11
-1591.5
 21
362.5
 31
0.0
  0
TEXT
  5
2BE
  8
DATA
 62
     7
 10
-1584.115775101273
 20
360.8573676215278
 30
0.0
 40
2.714735243055556
  1
TREBLE
 50
180.0
 41
0.7
 72
     1
 11
-1589.5
 21
359.5
 31
0.0
 73
     2
  0
TEXT
  5
2BF
  8
DATA
 62
     7
 10
-1558.786857548466
 20
356.1967095269097
 30
0.0
 40
3.393419053819445
  1
CH 3
 50
180.0
 41
0.7
 72
     1
 11
-1562.666666666667
 21
354.5
 31
0.0
 73
     2
  0
ARC
  5
2C0
  8
DATA
  6
CONTINUOUS
 62
     7
 10
-1564.666666666667
 20
364.0
 30
0.0
 40
1.5
 50
90.0
 51
270.0
  0
ARC
  5
2C1
  8
DATA
  6
CONTINUOUS
 62
     7
 10
-1560.666666666667
 20
364.0
 30
0.0
 40
1.5
 50
270.0
 51
90.0
  0
LINE
  5
2C2
  8
DATA
  6
CONTINUOUS
 62
     7
 10
-1564.666666666667
 20
365.5
 30
0.0
 11
-1560.666666666667
 21
365.5
 31
0.0
  0
LINE
  5
2C3
  8
DATA
  6
CONTINUOUS
 62
     7
 10
-1560.666666666667
 20
362.5
 30
0.0
 11
-1564.666666666667
 21
362.5
 31
0.0
  0
TEXT
  5
2C4
  8
DATA
 62
     7
 10
-1560.449632884838
 20
360.8573676215278
 30
0.0
 40
2.714735243055556
  1
MID
 50
180.0
 41
0.7
 72
     1
 11
-1562.666666666667
 21
359.5
 31
0.0
 73
     2
  0
TEXT
  5
2C5
  8
DATA
 62
     7
 10
-1531.953524215133
 20
356.1967095269097
 30
0.0
 40
3.393419053819445
  1
CH 2
 50
180.0
 41
0.7
 72
     1
 11
-1535.833333333333
 21
354.5
 31
0.0
 73
     2
  0
ARC
  5
2C6
  8
DATA
  6
CONTINUOUS
 62
     7
 10
-1537.833333333333
 20
364.0
 30
0.0
 40
1.5
 50
90.0
 51
270.0
  0
ARC
  5
2C7
  8
DATA
  6
CONTINUOUS
 62
     7
 10
-1533.833333333333
 20
364.0
 30
0.0
 40
1.5
 50
270.0
 51
90.0
  0
LINE
  5
2C8
  8
DATA
  6
CONTINUOUS
 62
     7
 10
-1537.833333333333
 20
365.5
 30
0.0
 11
-1533.833333333333
 21
365.5
 31
0.0
  0
LINE
  5
2C9
  8
DATA
  6
CONTINUOUS
 62
     7
 10
-1533.833333333333
 20
362.5
 30
0.0
 11
-1537.833333333333
 21
362.5
 31
0.0
  0
TEXT
  5
2CA
  8
DATA
 62
     7
 10
-1532.349423104745
 20
360.8573676215278
 30
0.0
 40
2.714735243055556
  1
BASS
 50
180.0
 41
0.7
 72
     1
 11
-1535.833333333333
 21
359.5
 31
0.0
 73
     2
  0
TEXT
  5
2CB
  8
DATA
 62
     7
 10
-1505.516089771412
 20
356.1967095269097
 30
0.0
 40
3.393419053819445
  1
CH 1
 50
180.0
 41
0.7
 72
     1
 11
-1509.0
 21
354.5
 31
0.0
 73
     2
  0
ARC
  5
2CC
  8
DATA
  6
CONTINUOUS
 62
     7
 10
-1511.0
 20
364.0
 30
0.0
 40
1.5
 50
90.0
 51
270.0
  0
ARC
  5
2CD
  8
DATA
  6
CONTINUOUS
 62
     7
 10
-1507.0
 20
364.0
 30
0.0
 40
1.5
 50
270.0
 51
90.0
  0
LINE
  5
2CE
  8
DATA
  6
CONTINUOUS
 62
     7
 10
-1511.0
 20
365.5
 30
0.0
 11
-1507.0
 21
365.5
 31
0.0
  0
LINE
  5
2CF
  8
DATA
  6
CONTINUOUS
 62
     7
 10
-1507.0
 20
362.5
 30
0.0
 11
-1511.0
 21
362.5
 31
0.0
  0
TEXT
  5
2D0
  8
DATA
 62
     7
 10
-1505.832808883102
 20
360.8573676215278
 30
0.0
 40
2.714735243055556
  1
GAIN
 50
180.0
 41
0.7
 72
     1
 11
-1509.0
 21
359.5
 31
0.0
 73
     2
  0
CIRCLE
  5
2D1
  8
DATA
  6
CONTINUOUS
 62
     7
 10
-1627.0
 20
319.0
 30
0.0
 40
3.75
  0
CIRCLE
  5
2D2
  8
DATA
  6
CONTINUOUS
 62
     7
 10
-1627.0
 20
294.0
 30
0.0
 40
3.75
  0
LINE
  5
2D3
  8
DATA
  6
CONTINUOUS
 62
     7
 10
-1628.0
 20
320.0
 30
0.0
 11
-1626.0
 21
320.0
 31
0.0
  0
LINE
  5
2D4
  8
DATA
  6
CONTINUOUS
 62
     7
 10
-1628.0
 20
318.0
 30
0.0
 11
-1626.0
 21
318.0
 31
0.0
  0
ARC
  5
2D5
  8
DATA
  6
CONTINUOUS
 62
     7
 10
-1628.0
 20
318.9999999999999
 30
0.0
 40
1.000000000000114
 50
89.99999999998697
 51
270.000000000013
  0
LINE
  5
2D6
  8
DATA
  6
CONTINUOUS
 62
     7
 10
-1626.626461747191
 20
319.7719865711162
 30
0.0
 11
-1626.0
 21
320.0
 31
0.0
  0
LINE
  5
2D7
  8
DATA
  6
CONTINUOUS
 62
     7
 10
-1626.626461747191
 20
320.2280134288838
 30
0.0
 11
-1626.0
 21
320.0
 31
0.0
  0
LINE
  5
2D8
  8
DATA
  6
CONTINUOUS
 62
     7
 10
-1626.626461747191
 20
320.2280134288838
 30
0.0
 11
-1626.626461747191
 21
319.7719865711162
 31
0.0
  0
CIRCLE
  5
2D9
  8
DATA
  6
CONTINUOUS
 62
     7
 10
-1602.0
 20
313.5
 30
0.0
 40
8.399999999999864
  0
ARC
  5
2DA
  8
DATA
  6
CONTINUOUS
 62
     7
 10
-1604.0
 20
295.5
 30
0.0
 40
1.5
 50
90.0
 51
270.0
  0
ARC
  5
2DB
  8
DATA
  6
CONTINUOUS
 62
     7
 10
-1600.0
 20
295.5
 30
0.0
 40
1.5
 50
270.0
 51
90.0
  0
LINE
  5
2DC
  8
DATA
  6
CONTINUOUS
 62
     7
 10
-1604.0
 20
297.0
 30
0.0
 11
-1600.0
 21
297.0
 31
0.0
  0
LINE
  5
2DD
  8
DATA
  6
CONTINUOUS
 62
     7
 10
-1600.0
 20
294.0
 30
0.0
 11
-1604.0
 21
294.0
 31
0.0
  0
POLYLINE
  5
2DE
  8
DATA
  6
CONTINUOUS
 62
     7
 66
     1
 10
0.0
 20
0.0
 30
0.0
 70
     1
  0
VERTEX
  5
A08
  8
DATA
  6
CONTINUOUS
 62
     7
 10
-1585.0
 20
327.5
 30
0.0
  0
VERTEX
  5
A09
  8
DATA
  6
CONTINUOUS
 62
     7
 10
-1536.0
 20
327.5
 30
0.0
  0
VERTEX
  5
A0A
  8
DATA
  6
CONTINUOUS
 62
     7
 10
-1536.0
 20
292.5
 30
0.0
  0
VERTEX
  5
A0B
  8
DATA
  6
CONTINUOUS
 62
     7
 10
-1585.0
 20
292.5
 30
0.0
  0
SEQEND
  5
A60
  8
DATA
  6
CONTINUOUS
 62
     7
  0
TEXT
  5
2E5
  8
DATA
 62
     7
 10
-1686.466247106481
 20
326.8573676215278
 30
0.0
 40
2.714735243055556
  1
USB
 50
180.0
 41
0.7
 72
     1
 11
-1689.0
 21
325.5
 31
0.0
 73
     2
  0
TEXT
  5
2E6
  8
DATA
 62
     7
 10
-1623.516089771412
 20
327.1073676215278
 30
0.0
 40
2.714735243055556
  1
BACK
 50
180.0
 41
0.7
 72
     1
 11
-1627.0
 21
325.75
 31
0.0
 73
     2
  0
LINE
  5
2E7
  8
DATA
  6
CONTINUOUS
 62
     7
 10
-1500.0
 20
332.0
 30
0.0
 11
-1700.0
 21
332.0
 31
0.0
  0
TEXT
  5
2E8
  8
DATA
 62
     7
 10
-1686.466247106481
 20
301.8573676215278
 30
0.0
 40
2.714735243055556
  1
USB
 50
180.0
 41
0.7
 72
     1
 11
-1689.0
 21
300.5
 31
0.0
 73
     2
  0
TEXT
  5
2E9
  8
DATA
 62
     7
 10
-1591.864988425926
 20
327.1073676215278
 30
0.0
 40
2.714735243055556
  1
MASTER/MENU
 50
180.0
 41
0.7
 72
     1
 11
-1602.0
 21
325.75
 31
0.0
 73
     2
  0
TEXT
  5
2EA
  8
DATA
 62
     7
 10
-1617.245051359954
 20
302.4073676215278
 30
0.0
 40
2.714735243055556
  1
MODE SELECT
 50
180.0
 41
0.7
 72
     1
 11
-1627.0
 21
301.05
 31
0.0
 73
     2
  0
TEXT
  5
2EB
  8
DATA
 62
     7
 10
-1598.199370659722
 20
302.4073676215278
 30
0.0
 40
2.714735243055556
  1
LIMIT
 50
180.0
 41
0.7
 72
     1
 11
-1602.0
 21
301.05
 31
0.0
 73
     2
  0
CIRCLE
  5
2EC
  8
DATA
  6
CONTINUOUS
 62
     7
 10
-1506.0
 20
296.5
 30
0.0
 40
6.75
  0
LINE
  5
2ED
  8
DATA
  6
CONTINUOUS
 62
     7
 10
-1506.0
 20
296.5
 30
0.0
 11
-1506.0
 21
292.5
 31
0.0
  0
ARC
  5
2EE
  8
DATA
  6
CONTINUOUS
 62
     7
 10
-1506.0
 20
296.4999999999991
 30
0.0
 40
2.999999999998792
 50
318.1896851042256
 51
221.8103148957753
  0
LINE
  5
2EF
  8
DATA
  6
CONTINUOUS
 62
     7
 10
-1677.935403726708
 20
-2097.0
 30
0.0
 11
-1677.935403726708
 21
-2100.0
 31
0.0
  0
LINE
  5
2F0
  8
DATA
  6
CONTINUOUS
 62
     7
 10
-1522.064596273292
 20
-2097.0
 30
0.0
 11
-1522.064596273292
 21
-2100.0
 31
0.0
  0
LINE
  5
2F1
  8
DATA
  6
CONTINUOUS
 62
     7
 10
-462.5
 20
-2097.0
 30
0.0
 11
-837.5
 21
-2097.0
 31
0.0
  0
LINE
  5
2F2
  8
DATA
  6
CONTINUOUS
 62
     7
 10
-835.0
 20
-1547.0
 30
0.0
 11
-465.0
 21
-1547.0
 31
0.0
  0
LINE
  5
2F3
  8
DATA
  6
CONTINUOUS
 62
     7
 10
-829.5844074124964
 20
-2100.0
 30
0.0
 11
-829.5844074124964
 21
-2097.0
 31
0.0
  0
LINE
  5
2F4
  8
DATA
  6
CONTINUOUS
 62
     7
 10
-470.4155925875039
 20
-2100.0
 30
0.0
 11
-470.4155925875039
 21
-2097.0
 31
0.0
  0
LINE
  5
2F5
  8
DATA
  6
CONTINUOUS
 62
     7
 10
-470.4155925875039
 20
-2100.0
 30
0.0
 11
-572.064596273292
 21
-2100.0
 31
0.0
  0
LINE
  5
2F6
  8
DATA
  6
CONTINUOUS
 62
     7
 10
-727.935403726708
 20
-2100.0
 30
0.0
 11
-829.5844074124964
 21
-2100.0
 31
0.0
  0
LINE
  5
2F7
  8
DATA
  6
CONTINUOUS
 62
     7
 10
-836.7857142857142
 20
-2089.0
 30
0.0
 11
-463.2142857142858
 21
-2089.0
 31
0.0
  0
LINE
  5
2F8
  8
DATA
  6
CONTINUOUS
 62
     7
 10
-835.0
 20
-1576.0
 30
0.0
 11
-769.0000000000002
 21
-1576.0
 31
0.0
  0
LINE
  5
2F9
  8
DATA
  6
CONTINUOUS
 62
     7
 10
-530.9999999999998
 20
-1576.0
 30
0.0
 11
-465.0
 21
-1576.0
 31
0.0
  0
LINE
  5
2FA
  8
DATA
  6
CONTINUOUS
 62
     7
 10
-835.0
 20
-1582.0
 30
0.0
 11
-769.0000000000002
 21
-1582.0
 31
0.0
  0
LINE
  5
2FB
  8
DATA
  6
CONTINUOUS
 62
     7
 10
-530.9999999999998
 20
-1582.0
 30
0.0
 11
-465.0
 21
-1582.0
 31
0.0
  0
LINE
  5
2FC
  8
DATA
  6
CONTINUOUS
 62
     7
 10
-835.0
 20
-2047.0
 30
0.0
 11
-835.0
 21
-1547.0
 31
0.0
  0
LINE
  5
2FD
  8
DATA
  6
CONTINUOUS
 62
     7
 10
-835.0
 20
-2047.0
 30
0.0
 11
-837.5
 21
-2097.0
 31
0.0
  0
LINE
  5
2FE
  8
DATA
  6
CONTINUOUS
 62
     7
 10
-465.0
 20
-2047.0
 30
0.0
 11
-465.0
 21
-1547.0
 31
0.0
  0
LINE
  5
2FF
  8
DATA
  6
CONTINUOUS
 62
     7
 10
-465.0
 20
-2047.0
 30
0.0
 11
-462.5
 21
-2097.0
 31
0.0
  0
ARC
  5
300
  8
DATA
  6
CONTINUOUS
 62
     7
 10
-650.0
 20
-1569.520833333333
 30
0.0
 40
28.52083333333328
 50
52.15071116789744
 51
127.8492888321026
  0
LINE
  5
301
  8
DATA
  6
CONTINUOUS
 62
     7
 10
-727.935403726708
 20
-2097.0
 30
0.0
 11
-727.935403726708
 21
-2100.0
 31
0.0
  0
LINE
  5
302
  8
DATA
  6
CONTINUOUS
 62
     7
 10
-572.064596273292
 20
-2097.0
 30
0.0
 11
-572.064596273292
 21
-2100.0
 31
0.0
  0
LINE
  5
303
  8
DATA
  6
CONTINUOUS
 62
     7
 10
-835.0
 20
-2047.0
 30
0.0
 11
-465.0
 21
-2047.0
 31
0.0
  0
LINE
  5
304
  8
DATA
  6
CONTINUOUS
 62
     7
 10
-754.0000000000002
 20
-1965.0
 30
0.0
 11
-545.9999999999998
 21
-1965.0
 31
0.0
  0
LINE
  5
305
  8
DATA
  6
CONTINUOUS
 62
     7
 10
-769.0000000000002
 20
-1547.0
 30
0.0
 11
-769.0000000000002
 21
-1950.0
 31
0.0
  0
LINE
  5
306
  8
DATA
  6
CONTINUOUS
 62
     7
 10
-530.9999999999998
 20
-1547.0
 30
0.0
 11
-530.9999999999998
 21
-1950.0
 31
0.0
  0
ARC
  5
307
  8
DATA
  6
CONTINUOUS
 62
     7
 10
-754.0000000000002
 20
-1950.0
 30
0.0
 40
15.0
 50
180.0
 51
270.0
  0
ARC
  5
308
  8
DATA
  6
CONTINUOUS
 62
     7
 10
-545.9999999999998
 20
-1950.0
 30
0.0
 40
15.0
 50
270.0
 51
0.0
  0
LINE
  5
309
  8
DATA
  6
CONTINUOUS
 62
     7
 10
-769.0000000000002
 20
-1564.5
 30
0.0
 11
-530.9999999999998
 21
-1564.5
 31
0.0
  0
LINE
  5
30A
  8
DATA
  6
CONTINUOUS
 62
     7
 10
-580.2500000000002
 20
-1574.5
 30
0.0
 11
-580.2500000000002
 21
-1564.5
 31
0.0
  0
LINE
  5
30B
  8
DATA
  6
CONTINUOUS
 62
     7
 10
-579.7500000000002
 20
-1574.5
 30
0.0
 11
-579.7500000000002
 21
-1564.5
 31
0.0
  0
LINE
  5
30C
  8
DATA
  6
CONTINUOUS
 62
     7
 10
-607.0833333333336
 20
-1574.5
 30
0.0
 11
-607.0833333333336
 21
-1564.5
 31
0.0
  0
LINE
  5
30D
  8
DATA
  6
CONTINUOUS
 62
     7
 10
-606.5833333333336
 20
-1574.5
 30
0.0
 11
-606.5833333333336
 21
-1564.5
 31
0.0
  0
LINE
  5
30E
  8
DATA
  6
CONTINUOUS
 62
     7
 10
-633.9166666666669
 20
-1574.5
 30
0.0
 11
-633.9166666666669
 21
-1564.5
 31
0.0
  0
LINE
  5
30F
  8
DATA
  6
CONTINUOUS
 62
     7
 10
-633.4166666666669
 20
-1574.5
 30
0.0
 11
-633.4166666666669
 21
-1564.5
 31
0.0
  0
LINE
  5
310
  8
DATA
  6
CONTINUOUS
 62
     7
 10
-660.7500000000002
 20
-1574.5
 30
0.0
 11
-660.7500000000002
 21
-1564.5
 31
0.0
  0
LINE
  5
311
  8
DATA
  6
CONTINUOUS
 62
     7
 10
-660.2500000000002
 20
-1574.5
 30
0.0
 11
-660.2500000000002
 21
-1564.5
 31
0.0
  0
LINE
  5
312
  8
DATA
  6
CONTINUOUS
 62
     7
 10
-687.5833333333336
 20
-1574.5
 30
0.0
 11
-687.5833333333336
 21
-1564.5
 31
0.0
  0
LINE
  5
313
  8
DATA
  6
CONTINUOUS
 62
     7
 10
-687.0833333333336
 20
-1574.5
 30
0.0
 11
-687.0833333333336
 21
-1564.5
 31
0.0
  0
LINE
  5
314
  8
DATA
  6
CONTINUOUS
 62
     7
 10
-714.4166666666669
 20
-1574.5
 30
0.0
 11
-714.4166666666669
 21
-1564.5
 31
0.0
  0
LINE
  5
315
  8
DATA
  6
CONTINUOUS
 62
     7
 10
-713.9166666666669
 20
-1574.5
 30
0.0
 11
-713.9166666666669
 21
-1564.5
 31
0.0
  0
LINE
  5
316
  8
DATA
  6
CONTINUOUS
 62
     7
 10
-741.2500000000002
 20
-1574.5
 30
0.0
 11
-741.2500000000002
 21
-1564.5
 31
0.0
  0
LINE
  5
317
  8
DATA
  6
CONTINUOUS
 62
     7
 10
-740.7500000000002
 20
-1574.5
 30
0.0
 11
-740.7500000000002
 21
-1564.5
 31
0.0
  0
LINE
  5
318
  8
DATA
  6
CONTINUOUS
 62
     7
 10
-741.2500000000002
 20
-1574.5
 30
0.0
 11
-740.7500000000002
 21
-1574.5
 31
0.0
  0
LINE
  5
319
  8
DATA
  6
CONTINUOUS
 62
     7
 10
-714.4166666666669
 20
-1574.5
 30
0.0
 11
-713.9166666666669
 21
-1574.5
 31
0.0
  0
LINE
  5
31A
  8
DATA
  6
CONTINUOUS
 62
     7
 10
-687.5833333333336
 20
-1574.5
 30
0.0
 11
-687.0833333333336
 21
-1574.5
 31
0.0
  0
LINE
  5
31B
  8
DATA
  6
CONTINUOUS
 62
     7
 10
-660.7500000000002
 20
-1574.5
 30
0.0
 11
-660.2500000000002
 21
-1574.5
 31
0.0
  0
LINE
  5
31C
  8
DATA
  6
CONTINUOUS
 62
     7
 10
-633.9166666666669
 20
-1574.5
 30
0.0
 11
-633.4166666666669
 21
-1574.5
 31
0.0
  0
LINE
  5
31D
  8
DATA
  6
CONTINUOUS
 62
     7
 10
-607.0833333333336
 20
-1574.5
 30
0.0
 11
-606.5833333333336
 21
-1574.5
 31
0.0
  0
LINE
  5
31E
  8
DATA
  6
CONTINUOUS
 62
     7
 10
-580.2500000000002
 20
-1574.5
 30
0.0
 11
-579.7500000000002
 21
-1574.5
 31
0.0
  0
ARC
  5
31F
  8
DATA
  6
CONTINUOUS
 62
     7
 10
-762.500000000023
 20
-1623.559288632908
 30
0.0
 40
0.1892886329077032
 50
359.0566788815885
 51
180.9433209280187
  0
ARC
  5
320
  8
DATA
  6
CONTINUOUS
 62
     7
 10
-763.3631841931068
 20
-1623.504921121286
 30
0.0
 40
0.676368386187752
 50
244.8753886700262
 51
355.1246113518832
  0
ARC
  5
321
  8
DATA
  6
CONTINUOUS
 62
     7
 10
-763.7476926434277
 20
-1624.279644316485
 30
0.0
 40
0.1892886329076225
 50
59.05667888160091
 51
240.943320927989
  0
ARC
  5
322
  8
DATA
  6
CONTINUOUS
 62
     7
 10
-764.226368386175
 20
-1625.00000000003
 30
0.0
 40
0.6763683861879403
 50
304.875388670037
 51
55.1246113518757
  0
ARC
  5
323
  8
DATA
  6
CONTINUOUS
 62
     7
 10
-762.500000000023
 20
-1626.440711367092
 30
0.0
 40
0.1892886329078069
 50
179.0566790719813
 51
0.9433211184115464
  0
ARC
  5
324
  8
DATA
  6
CONTINUOUS
 62
     7
 10
-763.3631841931068
 20
-1626.495078878714
 30
0.0
 40
0.6763683861878106
 50
4.875388648116833
 51
115.1246113299738
  0
ARC
  5
325
  8
DATA
  6
CONTINUOUS
 62
     7
 10
-763.7476926434277
 20
-1625.720355683515
 30
0.0
 40
0.1892886329075887
 50
119.056679072011
 51
300.9433211183991
  0
ARC
  5
326
  8
DATA
  6
CONTINUOUS
 62
     7
 10
-761.6368158069392
 20
-1623.504921121286
 30
0.0
 40
0.6763683861879238
 50
184.875388648116
 51
295.1246113299738
  0
ARC
  5
327
  8
DATA
  6
CONTINUOUS
 62
     7
 10
-761.2523073566183
 20
-1624.279644316485
 30
0.0
 40
0.1892886329075887
 50
299.056679072011
 51
120.9433211183991
  0
ARC
  5
328
  8
DATA
  6
CONTINUOUS
 62
     7
 10
-760.7736316138712
 20
-1625.00000000003
 30
0.0
 40
0.6763683861880107
 50
124.8753886481164
 51
235.124611329971
  0
ARC
  5
329
  8
DATA
  6
CONTINUOUS
 62
     7
 10
-761.6368158069392
 20
-1626.495078878714
 30
0.0
 40
0.676368386187752
 50
64.87538867002621
 51
175.124611351884
  0
ARC
  5
32A
  8
DATA
  6
CONTINUOUS
 62
     7
 10
-761.2523073566183
 20
-1625.720355683515
 30
0.0
 40
0.1892886329076225
 50
239.0566788816009
 51
60.94332092798902
  0
CIRCLE
  5
32B
  8
DATA
  6
CONTINUOUS
 62
     7
 10
-762.5
 20
-1625.0
 30
0.0
 40
4.0
  0
ARC
  5
32C
  8
DATA
  6
CONTINUOUS
 62
     7
 10
-537.500000000023
 20
-1623.559288632908
 30
0.0
 40
0.1892886329077032
 50
359.0566788815885
 51
180.9433209280187
  0
ARC
  5
32D
  8
DATA
  6
CONTINUOUS
 62
     7
 10
-538.3631841931068
 20
-1623.504921121286
 30
0.0
 40
0.676368386187752
 50
244.8753886700262
 51
355.1246113518832
  0
ARC
  5
32E
  8
DATA
  6
CONTINUOUS
 62
     7
 10
-538.7476926434277
 20
-1624.279644316485
 30
0.0
 40
0.1892886329076225
 50
59.05667888160091
 51
240.943320927989
  0
ARC
  5
32F
  8
DATA
  6
CONTINUOUS
 62
     7
 10
-539.226368386175
 20
-1625.00000000003
 30
0.0
 40
0.6763683861879403
 50
304.875388670037
 51
55.1246113518757
  0
ARC
  5
330
  8
DATA
  6
CONTINUOUS
 62
     7
 10
-537.500000000023
 20
-1626.440711367092
 30
0.0
 40
0.1892886329078069
 50
179.0566790719813
 51
0.9433211184115464
  0
ARC
  5
331
  8
DATA
  6
CONTINUOUS
 62
     7
 10
-538.3631841931068
 20
-1626.495078878714
 30
0.0
 40
0.6763683861878106
 50
4.875388648116833
 51
115.1246113299738
  0
ARC
  5
332
  8
DATA
  6
CONTINUOUS
 62
     7
 10
-538.7476926434277
 20
-1625.720355683515
 30
0.0
 40
0.1892886329075887
 50
119.056679072011
 51
300.9433211183991
  0
ARC
  5
333
  8
DATA
  6
CONTINUOUS
 62
     7
 10
-536.6368158069392
 20
-1623.504921121286
 30
0.0
 40
0.6763683861879238
 50
184.875388648116
 51
295.1246113299738
  0
ARC
  5
334
  8
DATA
  6
CONTINUOUS
 62
     7
 10
-536.2523073566183
 20
-1624.279644316485
 30
0.0
 40
0.1892886329075887
 50
299.056679072011
 51
120.9433211183991
  0
ARC
  5
335
  8
DATA
  6
CONTINUOUS
 62
     7
 10
-535.7736316138712
 20
-1625.00000000003
 30
0.0
 40
0.6763683861880107
 50
124.8753886481164
 51
235.124611329971
  0
ARC
  5
336
  8
DATA
  6
CONTINUOUS
 62
     7
 10
-536.6368158069392
 20
-1626.495078878714
 30
0.0
 40
0.676368386187752
 50
64.87538867002621
 51
175.124611351884
  0
ARC
  5
337
  8
DATA
  6
CONTINUOUS
 62
     7
 10
-536.2523073566183
 20
-1625.720355683515
 30
0.0
 40
0.1892886329076225
 50
239.0566788816009
 51
60.94332092798902
  0
CIRCLE
  5
338
  8
DATA
  6
CONTINUOUS
 62
     7
 10
-537.5
 20
-1625.0
 30
0.0
 40
4.0
  0
CIRCLE
  5
339
  8
DATA
  6
CONTINUOUS
 62
     7
 10
-558.9999999999998
 20
-1598.5
 30
0.0
 40
10.79999999999973
  0
ARC
  5
33A
  8
DATA
  6
CONTINUOUS
 62
     7
 10
-565.9282032302751
 20
-1602.5
 30
0.0
 40
1.200000000000312
 50
115.698777695327
 51
304.3012223046562
  0
ARC
  5
33B
  8
DATA
  6
CONTINUOUS
 62
     7
 10
-559.0000000000084
 20
-1598.500000000005
 30
0.0
 40
7.99999999999002
 50
218.6024446093492
 51
201.3975553906466
  0
CIRCLE
  5
33C
  8
DATA
  6
CONTINUOUS
 62
     7
 10
-563.4999999999998
 20
-1598.5
 30
0.0
 40
1.199999999999818
  0
CIRCLE
  5
33D
  8
DATA
  6
CONTINUOUS
 62
     7
 10
-554.4999999999998
 20
-1598.5
 30
0.0
 40
1.199999999999818
  0
CIRCLE
  5
33E
  8
DATA
  6
CONTINUOUS
 62
     7
 10
-558.9999999999998
 20
-1594.5
 30
0.0
 40
1.199999999999818
  0
CIRCLE
  5
33F
  8
DATA
  6
CONTINUOUS
 62
     7
 10
-570.1957201593725
 20
-1587.304279840643
 30
0.0
 40
2.5
  0
CIRCLE
  5
340
  8
DATA
  6
CONTINUOUS
 62
     7
 10
-547.8277128572602
 20
-1609.672287142752
 30
0.0
 40
2.5
  0
LINE
  5
341
  8
DATA
  6
CONTINUOUS
 62
     7
 10
-545.8277128572602
 20
-1609.672287142752
 30
0.0
 11
-549.8277128572602
 21
-1609.672287142752
 31
0.0
  0
LINE
  5
342
  8
DATA
  6
CONTINUOUS
 62
     7
 10
-547.8277128572602
 20
-1611.672287142752
 30
0.0
 11
-547.8277128572602
 21
-1607.672287142752
 31
0.0
  0
LINE
  5
343
  8
DATA
  6
CONTINUOUS
 62
     7
 10
-568.1957201593725
 20
-1587.304279840643
 30
0.0
 11
-572.1957201593725
 21
-1587.304279840643
 31
0.0
  0
LINE
  5
344
  8
DATA
  6
CONTINUOUS
 62
     7
 10
-570.1957201593725
 20
-1589.304279840643
 30
0.0
 11
-570.1957201593725
 21
-1585.304279840643
 31
0.0
  0
CIRCLE
  5
345
  8
DATA
  6
CONTINUOUS
 62
     7
 10
-741.0000000000002
 20
-1598.5
 30
0.0
 40
10.79999999999973
  0
ARC
  5
346
  8
DATA
  6
CONTINUOUS
 62
     7
 10
-745.4999999999998
 20
-1598.5
 30
0.0
 40
1.200000000000273
 50
90.0
 51
270.0
  0
ARC
  5
347
  8
DATA
  6
CONTINUOUS
 62
     7
 10
-740.9999999999998
 20
-1594.5
 30
0.0
 40
1.199999999999818
 50
0.0
 51
180.0
  0
CIRCLE
  5
348
  8
DATA
  6
CONTINUOUS
 62
     7
 10
-752.1957201593725
 20
-1587.304279840643
 30
0.0
 40
2.5
  0
CIRCLE
  5
349
  8
DATA
  6
CONTINUOUS
 62
     7
 10
-729.8277128572606
 20
-1609.672287142752
 30
0.0
 40
2.5
  0
LINE
  5
34A
  8
DATA
  6
CONTINUOUS
 62
     7
 10
-727.8277128572606
 20
-1609.672287142752
 30
0.0
 11
-731.8277128572606
 21
-1609.672287142752
 31
0.0
  0
LINE
  5
34B
  8
DATA
  6
CONTINUOUS
 62
     7
 10
-729.8277128572606
 20
-1611.672287142752
 30
0.0
 11
-729.8277128572606
 21
-1607.672287142752
 31
0.0
  0
LINE
  5
34C
  8
DATA
  6
CONTINUOUS
 62
     7
 10
-750.1957201593725
 20
-1587.304279840643
 30
0.0
 11
-754.1957201593725
 21
-1587.304279840643
 31
0.0
  0
LINE
  5
34D
  8
DATA
  6
CONTINUOUS
 62
     7
 10
-752.1957201593725
 20
-1589.304279840643
 30
0.0
 11
-752.1957201593725
 21
-1585.304279840643
 31
0.0
  0
ARC
  5
34E
  8
DATA
  6
CONTINUOUS
 62
     7
 10
-734.0717967697244
 20
-1602.5
 30
0.0
 40
1.19999999999999
 50
235.6987776953438
 51
64.30122230467296
  0
ARC
  5
34F
  8
DATA
  6
CONTINUOUS
 62
     7
 10
-741.0000000000002
 20
-1598.5
 30
0.0
 40
8.000000000000252
 50
338.6024446093438
 51
321.3975553906589
  0
ARC
  5
350
  8
DATA
  6
CONTINUOUS
 62
     7
 10
-741.0000000000002
 20
-1598.5
 30
0.0
 40
10.00000000000003
 50
299.9999999999999
 51
240.0000000000024
  0
LINE
  5
351
  8
DATA
  6
CONTINUOUS
 62
     7
 10
-745.9999999999998
 20
-1607.160254037844
 30
0.0
 11
-745.9999999999998
 21
-1608.072878355019
 31
0.0
  0
LINE
  5
352
  8
DATA
  6
CONTINUOUS
 62
     7
 10
-736.0000000000002
 20
-1607.160254037844
 30
0.0
 11
-736.0000000000002
 21
-1608.072878355019
 31
0.0
  0
ARC
  5
353
  8
DATA
  6
CONTINUOUS
 62
     7
 10
-741.000000000007
 20
-1598.500000000005
 30
0.0
 40
3.149999999999133
 50
22.39268780552085
 51
67.60731219445306
  0
ARC
  5
354
  8
DATA
  6
CONTINUOUS
 62
     7
 10
-741.000000000007
 20
-1598.500000000005
 30
0.0
 40
3.149999999999327
 50
112.3926878052689
 51
157.6073121944792
  0
ARC
  5
355
  8
DATA
  6
CONTINUOUS
 62
     7
 10
-741.000000000007
 20
-1598.500000000005
 30
0.0
 40
3.149999999999427
 50
202.392687805295
 51
337.6073121947019
  0
LINE
  5
356
  8
DATA
  6
CONTINUOUS
 62
     7
 10
-736.4999999999998
 20
-1599.7
 30
0.0
 11
-738.0875268241637
 21
-1599.7
 31
0.0
  0
LINE
  5
357
  8
DATA
  6
CONTINUOUS
 62
     7
 10
-743.9124731758509
 20
-1599.7
 30
0.0
 11
-745.4999999999998
 21
-1599.7
 31
0.0
  0
LINE
  5
358
  8
DATA
  6
CONTINUOUS
 62
     7
 10
-736.4999999999998
 20
-1597.3
 30
0.0
 11
-738.0875268241682
 21
-1597.3
 31
0.0
  0
LINE
  5
359
  8
DATA
  6
CONTINUOUS
 62
     7
 10
-743.9124731758459
 20
-1597.3
 30
0.0
 11
-745.4999999999998
 21
-1597.3
 31
0.0
  0
LINE
  5
35A
  8
DATA
  6
CONTINUOUS
 62
     7
 10
-742.2
 20
-1594.5
 30
0.0
 11
-742.2
 21
-1595.587526824161
 31
0.0
  0
LINE
  5
35B
  8
DATA
  6
CONTINUOUS
 62
     7
 10
-739.8
 20
-1594.5
 30
0.0
 11
-739.8
 21
-1595.587526824167
 31
0.0
  0
ARC
  5
35C
  8
DATA
  6
CONTINUOUS
 62
     7
 10
-736.5000000000146
 20
-1598.5
 30
0.0
 40
1.199999999999818
 50
270.0
 51
90.0
  0
CIRCLE
  5
35D
  8
DATA
  6
CONTINUOUS
 62
     7
 10
-714.1666666666669
 20
-1598.5
 30
0.0
 40
10.79999999999973
  0
ARC
  5
35E
  8
DATA
  6
CONTINUOUS
 62
     7
 10
-718.6666666666664
 20
-1598.5
 30
0.0
 40
1.200000000000273
 50
90.0
 51
270.0
  0
ARC
  5
35F
  8
DATA
  6
CONTINUOUS
 62
     7
 10
-714.1666666666664
 20
-1594.5
 30
0.0
 40
1.199999999999818
 50
0.0
 51
180.0
  0
CIRCLE
  5
360
  8
DATA
  6
CONTINUOUS
 62
     7
 10
-725.3623868260391
 20
-1587.304279840643
 30
0.0
 40
2.5
  0
CIRCLE
  5
361
  8
DATA
  6
CONTINUOUS
 62
     7
 10
-702.9943795239273
 20
-1609.672287142752
 30
0.0
 40
2.5
  0
LINE
  5
362
  8
DATA
  6
CONTINUOUS
 62
     7
 10
-700.9943795239273
 20
-1609.672287142752
 30
0.0
 11
-704.9943795239273
 21
-1609.672287142752
 31
0.0
  0
LINE
  5
363
  8
DATA
  6
CONTINUOUS
 62
     7
 10
-702.9943795239273
 20
-1611.672287142752
 30
0.0
 11
-702.9943795239273
 21
-1607.672287142752
 31
0.0
  0
LINE
  5
364
  8
DATA
  6
CONTINUOUS
 62
     7
 10
-723.3623868260391
 20
-1587.304279840643
 30
0.0
 11
-727.3623868260391
 21
-1587.304279840643
 31
0.0
  0
LINE
  5
365
  8
DATA
  6
CONTINUOUS
 62
     7
 10
-725.3623868260391
 20
-1589.304279840643
 30
0.0
 11
-725.3623868260391
 21
-1585.304279840643
 31
0.0
  0
ARC
  5
366
  8
DATA
  6
CONTINUOUS
 62
     7
 10
-707.238463436391
 20
-1602.5
 30
0.0
 40
1.19999999999999
 50
235.6987776953438
 51
64.30122230467296
  0
ARC
  5
367
  8
DATA
  6
CONTINUOUS
 62
     7
 10
-714.1666666666669
 20
-1598.5
 30
0.0
 40
8.000000000000252
 50
338.6024446093438
 51
321.3975553906589
  0
ARC
  5
368
  8
DATA
  6
CONTINUOUS
 62
     7
 10
-714.1666666666669
 20
-1598.5
 30
0.0
 40
10.00000000000003
 50
299.9999999999999
 51
240.0000000000024
  0
LINE
  5
369
  8
DATA
  6
CONTINUOUS
 62
     7
 10
-719.1666666666664
 20
-1607.160254037844
 30
0.0
 11
-719.1666666666664
 21
-1608.072878355019
 31
0.0
  0
LINE
  5
36A
  8
DATA
  6
CONTINUOUS
 62
     7
 10
-709.1666666666669
 20
-1607.160254037844
 30
0.0
 11
-709.1666666666669
 21
-1608.072878355019
 31
0.0
  0
ARC
  5
36B
  8
DATA
  6
CONTINUOUS
 62
     7
 10
-714.1666666666737
 20
-1598.500000000005
 30
0.0
 40
3.149999999999133
 50
22.39268780552085
 51
67.60731219445306
  0
ARC
  5
36C
  8
DATA
  6
CONTINUOUS
 62
     7
 10
-714.1666666666737
 20
-1598.500000000005
 30
0.0
 40
3.149999999999327
 50
112.3926878052689
 51
157.6073121944792
  0
ARC
  5
36D
  8
DATA
  6
CONTINUOUS
 62
     7
 10
-714.1666666666737
 20
-1598.500000000005
 30
0.0
 40
3.149999999999427
 50
202.392687805295
 51
337.6073121947019
  0
LINE
  5
36E
  8
DATA
  6
CONTINUOUS
 62
     7
 10
-709.6666666666664
 20
-1599.7
 30
0.0
 11
-711.2541934908303
 21
-1599.7
 31
0.0
  0
LINE
  5
36F
  8
DATA
  6
CONTINUOUS
 62
     7
 10
-717.0791398425175
 20
-1599.7
 30
0.0
 11
-718.6666666666664
 21
-1599.7
 31
0.0
  0
LINE
  5
370
  8
DATA
  6
CONTINUOUS
 62
     7
 10
-709.6666666666664
 20
-1597.3
 30
0.0
 11
-711.2541934908348
 21
-1597.3
 31
0.0
  0
LINE
  5
371
  8
DATA
  6
CONTINUOUS
 62
     7
 10
-717.0791398425125
 20
-1597.3
 30
0.0
 11
-718.6666666666664
 21
-1597.3
 31
0.0
  0
LINE
  5
372
  8
DATA
  6
CONTINUOUS
 62
     7
 10
-715.3666666666667
 20
-1594.5
 30
0.0
 11
-715.3666666666667
 21
-1595.587526824161
 31
0.0
  0
LINE
  5
373
  8
DATA
  6
CONTINUOUS
 62
     7
 10
-712.9666666666666
 20
-1594.5
 30
0.0
 11
-712.9666666666666
 21
-1595.587526824167
 31
0.0
  0
ARC
  5
374
  8
DATA
  6
CONTINUOUS
 62
     7
 10
-709.6666666666812
 20
-1598.5
 30
0.0
 40
1.199999999999818
 50
270.0
 51
90.0
  0
CIRCLE
  5
375
  8
DATA
  6
CONTINUOUS
 62
     7
 10
-687.3333333333336
 20
-1598.5
 30
0.0
 40
10.79999999999973
  0
ARC
  5
376
  8
DATA
  6
CONTINUOUS
 62
     7
 10
-691.8333333333331
 20
-1598.5
 30
0.0
 40
1.200000000000273
 50
90.0
 51
270.0
  0
ARC
  5
377
  8
DATA
  6
CONTINUOUS
 62
     7
 10
-687.3333333333331
 20
-1594.5
 30
0.0
 40
1.199999999999818
 50
0.0
 51
180.0
  0
CIRCLE
  5
378
  8
DATA
  6
CONTINUOUS
 62
     7
 10
-698.5290534927059
 20
-1587.304279840643
 30
0.0
 40
2.5
  0
CIRCLE
  5
379
  8
DATA
  6
CONTINUOUS
 62
     7
 10
-676.161046190594
 20
-1609.672287142752
 30
0.0
 40
2.5
  0
LINE
  5
37A
  8
DATA
  6
CONTINUOUS
 62
     7
 10
-674.161046190594
 20
-1609.672287142752
 30
0.0
 11
-678.161046190594
 21
-1609.672287142752
 31
0.0
  0
LINE
  5
37B
  8
DATA
  6
CONTINUOUS
 62
     7
 10
-676.161046190594
 20
-1611.672287142752
 30
0.0
 11
-676.161046190594
 21
-1607.672287142752
 31
0.0
  0
LINE
  5
37C
  8
DATA
  6
CONTINUOUS
 62
     7
 10
-696.5290534927059
 20
-1587.304279840643
 30
0.0
 11
-700.5290534927059
 21
-1587.304279840643
 31
0.0
  0
LINE
  5
37D
  8
DATA
  6
CONTINUOUS
 62
     7
 10
-698.5290534927059
 20
-1589.304279840643
 30
0.0
 11
-698.5290534927059
 21
-1585.304279840643
 31
0.0
  0
ARC
  5
37E
  8
DATA
  6
CONTINUOUS
 62
     7
 10
-680.4051301030578
 20
-1602.5
 30
0.0
 40
1.19999999999999
 50
235.6987776953438
 51
64.30122230467296
  0
ARC
  5
37F
  8
DATA
  6
CONTINUOUS
 62
     7
 10
-687.3333333333336
 20
-1598.5
 30
0.0
 40
8.000000000000252
 50
338.6024446093438
 51
321.3975553906589
  0
ARC
  5
380
  8
DATA
  6
CONTINUOUS
 62
     7
 10
-687.3333333333336
 20
-1598.5
 30
0.0
 40
10.00000000000003
 50
299.9999999999999
 51
240.0000000000024
  0
LINE
  5
381
  8
DATA
  6
CONTINUOUS
 62
     7
 10
-692.3333333333331
 20
-1607.160254037844
 30
0.0
 11
-692.3333333333331
 21
-1608.072878355019
 31
0.0
  0
LINE
  5
382
  8
DATA
  6
CONTINUOUS
 62
     7
 10
-682.3333333333336
 20
-1607.160254037844
 30
0.0
 11
-682.3333333333336
 21
-1608.072878355019
 31
0.0
  0
ARC
  5
383
  8
DATA
  6
CONTINUOUS
 62
     7
 10
-687.3333333333404
 20
-1598.500000000005
 30
0.0
 40
3.149999999999133
 50
22.39268780552085
 51
67.60731219445306
  0
ARC
  5
384
  8
DATA
  6
CONTINUOUS
 62
     7
 10
-687.3333333333404
 20
-1598.500000000005
 30
0.0
 40
3.149999999999327
 50
112.3926878052689
 51
157.6073121944792
  0
ARC
  5
385
  8
DATA
  6
CONTINUOUS
 62
     7
 10
-687.3333333333404
 20
-1598.500000000005
 30
0.0
 40
3.149999999999427
 50
202.392687805295
 51
337.6073121947019
  0
LINE
  5
386
  8
DATA
  6
CONTINUOUS
 62
     7
 10
-682.8333333333331
 20
-1599.7
 30
0.0
 11
-684.420860157497
 21
-1599.7
 31
0.0
  0
LINE
  5
387
  8
DATA
  6
CONTINUOUS
 62
     7
 10
-690.2458065091843
 20
-1599.7
 30
0.0
 11
-691.8333333333331
 21
-1599.7
 31
0.0
  0
LINE
  5
388
  8
DATA
  6
CONTINUOUS
 62
     7
 10
-682.8333333333331
 20
-1597.3
 30
0.0
 11
-684.4208601575016
 21
-1597.3
 31
0.0
  0
LINE
  5
389
  8
DATA
  6
CONTINUOUS
 62
     7
 10
-690.2458065091793
 20
-1597.3
 30
0.0
 11
-691.8333333333331
 21
-1597.3
 31
0.0
  0
LINE
  5
38A
  8
DATA
  6
CONTINUOUS
 62
     7
 10
-688.5333333333334
 20
-1594.5
 30
0.0
 11
-688.5333333333334
 21
-1595.587526824161
 31
0.0
  0
LINE
  5
38B
  8
DATA
  6
CONTINUOUS
 62
     7
 10
-686.1333333333333
 20
-1594.5
 30
0.0
 11
-686.1333333333333
 21
-1595.587526824167
 31
0.0
  0
ARC
  5
38C
  8
DATA
  6
CONTINUOUS
 62
     7
 10
-682.8333333333479
 20
-1598.5
 30
0.0
 40
1.199999999999818
 50
270.0
 51
90.0
  0
CIRCLE
  5
38D
  8
DATA
  6
CONTINUOUS
 62
     7
 10
-660.5000000000002
 20
-1598.5
 30
0.0
 40
10.79999999999973
  0
ARC
  5
38E
  8
DATA
  6
CONTINUOUS
 62
     7
 10
-664.9999999999998
 20
-1598.5
 30
0.0
 40
1.200000000000273
 50
90.0
 51
270.0
  0
ARC
  5
38F
  8
DATA
  6
CONTINUOUS
 62
     7
 10
-660.4999999999998
 20
-1594.5
 30
0.0
 40
1.199999999999818
 50
0.0
 51
180.0
  0
CIRCLE
  5
390
  8
DATA
  6
CONTINUOUS
 62
     7
 10
-671.6957201593725
 20
-1587.304279840643
 30
0.0
 40
2.5
  0
CIRCLE
  5
391
  8
DATA
  6
CONTINUOUS
 62
     7
 10
-649.3277128572606
 20
-1609.672287142752
 30
0.0
 40
2.5
  0
LINE
  5
392
  8
DATA
  6
CONTINUOUS
 62
     7
 10
-647.3277128572606
 20
-1609.672287142752
 30
0.0
 11
-651.3277128572606
 21
-1609.672287142752
 31
0.0
  0
LINE
  5
393
  8
DATA
  6
CONTINUOUS
 62
     7
 10
-649.3277128572606
 20
-1611.672287142752
 30
0.0
 11
-649.3277128572606
 21
-1607.672287142752
 31
0.0
  0
LINE
  5
394
  8
DATA
  6
CONTINUOUS
 62
     7
 10
-669.6957201593725
 20
-1587.304279840643
 30
0.0
 11
-673.6957201593725
 21
-1587.304279840643
 31
0.0
  0
LINE
  5
395
  8
DATA
  6
CONTINUOUS
 62
     7
 10
-671.6957201593725
 20
-1589.304279840643
 30
0.0
 11
-671.6957201593725
 21
-1585.304279840643
 31
0.0
  0
ARC
  5
396
  8
DATA
  6
CONTINUOUS
 62
     7
 10
-653.5717967697244
 20
-1602.5
 30
0.0
 40
1.19999999999999
 50
235.6987776953438
 51
64.30122230467296
  0
ARC
  5
397
  8
DATA
  6
CONTINUOUS
 62
     7
 10
-660.5000000000002
 20
-1598.5
 30
0.0
 40
8.000000000000252
 50
338.6024446093438
 51
321.3975553906589
  0
ARC
  5
398
  8
DATA
  6
CONTINUOUS
 62
     7
 10
-660.5000000000002
 20
-1598.5
 30
0.0
 40
10.00000000000003
 50
299.9999999999999
 51
240.0000000000024
  0
LINE
  5
399
  8
DATA
  6
CONTINUOUS
 62
     7
 10
-665.4999999999998
 20
-1607.160254037844
 30
0.0
 11
-665.4999999999998
 21
-1608.072878355019
 31
0.0
  0
LINE
  5
39A
  8
DATA
  6
CONTINUOUS
 62
     7
 10
-655.5000000000002
 20
-1607.160254037844
 30
0.0
 11
-655.5000000000002
 21
-1608.072878355019
 31
0.0
  0
ARC
  5
39B
  8
DATA
  6
CONTINUOUS
 62
     7
 10
-660.500000000007
 20
-1598.500000000005
 30
0.0
 40
3.149999999999133
 50
22.39268780552085
 51
67.60731219445306
  0
ARC
  5
39C
  8
DATA
  6
CONTINUOUS
 62
     7
 10
-660.500000000007
 20
-1598.500000000005
 30
0.0
 40
3.149999999999327
 50
112.3926878052689
 51
157.6073121944792
  0
ARC
  5
39D
  8
DATA
  6
CONTINUOUS
 62
     7
 10
-660.500000000007
 20
-1598.500000000005
 30
0.0
 40
3.149999999999427
 50
202.392687805295
 51
337.6073121947019
  0
LINE
  5
39E
  8
DATA
  6
CONTINUOUS
 62
     7
 10
-655.9999999999998
 20
-1599.7
 30
0.0
 11
-657.5875268241637
 21
-1599.7
 31
0.0
  0
LINE
  5
39F
  8
DATA
  6
CONTINUOUS
 62
     7
 10
-663.4124731758509
 20
-1599.7
 30
0.0
 11
-664.9999999999998
 21
-1599.7
 31
0.0
  0
LINE
  5
3A0
  8
DATA
  6
CONTINUOUS
 62
     7
 10
-655.9999999999998
 20
-1597.3
 30
0.0
 11
-657.5875268241682
 21
-1597.3
 31
0.0
  0
LINE
  5
3A1
  8
DATA
  6
CONTINUOUS
 62
     7
 10
-663.4124731758459
 20
-1597.3
 30
0.0
 11
-664.9999999999998
 21
-1597.3
 31
0.0
  0
LINE
  5
3A2
  8
DATA
  6
CONTINUOUS
 62
     7
 10
-661.7
 20
-1594.5
 30
0.0
 11
-661.7
 21
-1595.587526824161
 31
0.0
  0
LINE
  5
3A3
  8
DATA
  6
CONTINUOUS
 62
     7
 10
-659.3
 20
-1594.5
 30
0.0
 11
-659.3
 21
-1595.587526824167
 31
0.0
  0
ARC
  5
3A4
  8
DATA
  6
CONTINUOUS
 62
     7
 10
-656.0000000000146
 20
-1598.5
 30
0.0
 40
1.199999999999818
 50
270.0
 51
90.0
  0
ARC
  5
3A5
  8
DATA
  6
CONTINUOUS
 62
     7
 10
-762.500000000023
 20
-1704.559288632908
 30
0.0
 40
0.1892886329077032
 50
359.0566788815885
 51
180.9433209280187
  0
ARC
  5
3A6
  8
DATA
  6
CONTINUOUS
 62
     7
 10
-763.3631841931068
 20
-1704.504921121286
 30
0.0
 40
0.676368386187752
 50
244.8753886700262
 51
355.1246113518832
  0
ARC
  5
3A7
  8
DATA
  6
CONTINUOUS
 62
     7
 10
-763.7476926434277
 20
-1705.279644316485
 30
0.0
 40
0.1892886329076225
 50
59.05667888160091
 51
240.943320927989
  0
ARC
  5
3A8
  8
DATA
  6
CONTINUOUS
 62
     7
 10
-764.226368386175
 20
-1706.00000000003
 30
0.0
 40
0.6763683861879403
 50
304.875388670037
 51
55.1246113518757
  0
ARC
  5
3A9
  8
DATA
  6
CONTINUOUS
 62
     7
 10
-762.500000000023
 20
-1707.440711367092
 30
0.0
 40
0.1892886329078069
 50
179.0566790719813
 51
0.9433211184115464
  0
ARC
  5
3AA
  8
DATA
  6
CONTINUOUS
 62
     7
 10
-763.3631841931068
 20
-1707.495078878714
 30
0.0
 40
0.6763683861878106
 50
4.875388648116833
 51
115.1246113299738
  0
ARC
  5
3AB
  8
DATA
  6
CONTINUOUS
 62
     7
 10
-763.7476926434277
 20
-1706.720355683515
 30
0.0
 40
0.1892886329075887
 50
119.056679072011
 51
300.9433211183991
  0
ARC
  5
3AC
  8
DATA
  6
CONTINUOUS
 62
     7
 10
-761.6368158069392
 20
-1704.504921121286
 30
0.0
 40
0.6763683861879238
 50
184.875388648116
 51
295.1246113299738
  0
ARC
  5
3AD
  8
DATA
  6
CONTINUOUS
 62
     7
 10
-761.2523073566183
 20
-1705.279644316485
 30
0.0
 40
0.1892886329075887
 50
299.056679072011
 51
120.9433211183991
  0
ARC
  5
3AE
  8
DATA
  6
CONTINUOUS
 62
     7
 10
-760.7736316138712
 20
-1706.00000000003
 30
0.0
 40
0.6763683861880107
 50
124.8753886481164
 51
235.124611329971
  0
ARC
  5
3AF
  8
DATA
  6
CONTINUOUS
 62
     7
 10
-761.6368158069392
 20
-1707.495078878714
 30
0.0
 40
0.676368386187752
 50
64.87538867002621
 51
175.124611351884
  0
ARC
  5
3B0
  8
DATA
  6
CONTINUOUS
 62
     7
 10
-761.2523073566183
 20
-1706.720355683515
 30
0.0
 40
0.1892886329076225
 50
239.0566788816009
 51
60.94332092798902
  0
CIRCLE
  5
3B1
  8
DATA
  6
CONTINUOUS
 62
     7
 10
-762.5
 20
-1706.0
 30
0.0
 40
4.0
  0
ARC
  5
3B2
  8
DATA
  6
CONTINUOUS
 62
     7
 10
-537.500000000023
 20
-1704.559288632908
 30
0.0
 40
0.1892886329077032
 50
359.0566788815885
 51
180.9433209280187
  0
ARC
  5
3B3
  8
DATA
  6
CONTINUOUS
 62
     7
 10
-538.3631841931068
 20
-1704.504921121286
 30
0.0
 40
0.676368386187752
 50
244.8753886700262
 51
355.1246113518832
  0
ARC
  5
3B4
  8
DATA
  6
CONTINUOUS
 62
     7
 10
-538.7476926434277
 20
-1705.279644316485
 30
0.0
 40
0.1892886329076225
 50
59.05667888160091
 51
240.943320927989
  0
ARC
  5
3B5
  8
DATA
  6
CONTINUOUS
 62
     7
 10
-539.226368386175
 20
-1706.00000000003
 30
0.0
 40
0.6763683861879403
 50
304.875388670037
 51
55.1246113518757
  0
ARC
  5
3B6
  8
DATA
  6
CONTINUOUS
 62
     7
 10
-537.500000000023
 20
-1707.440711367092
 30
0.0
 40
0.1892886329078069
 50
179.0566790719813
 51
0.9433211184115464
  0
ARC
  5
3B7
  8
DATA
  6
CONTINUOUS
 62
     7
 10
-538.3631841931068
 20
-1707.495078878714
 30
0.0
 40
0.6763683861878106
 50
4.875388648116833
 51
115.1246113299738
  0
ARC
  5
3B8
  8
DATA
  6
CONTINUOUS
 62
     7
 10
-538.7476926434277
 20
-1706.720355683515
 30
0.0
 40
0.1892886329075887
 50
119.056679072011
 51
300.9433211183991
  0
ARC
  5
3B9
  8
DATA
  6
CONTINUOUS
 62
     7
 10
-536.6368158069392
 20
-1704.504921121286
 30
0.0
 40
0.6763683861879238
 50
184.875388648116
 51
295.1246113299738
  0
ARC
  5
3BA
  8
DATA
  6
CONTINUOUS
 62
     7
 10
-536.2523073566183
 20
-1705.279644316485
 30
0.0
 40
0.1892886329075887
 50
299.056679072011
 51
120.9433211183991
  0
ARC
  5
3BB
  8
DATA
  6
CONTINUOUS
 62
     7
 10
-535.7736316138712
 20
-1706.00000000003
 30
0.0
 40
0.6763683861880107
 50
124.8753886481164
 51
235.124611329971
  0
ARC
  5
3BC
  8
DATA
  6
CONTINUOUS
 62
     7
 10
-536.6368158069392
 20
-1707.495078878714
 30
0.0
 40
0.676368386187752
 50
64.87538867002621
 51
175.124611351884
  0
ARC
  5
3BD
  8
DATA
  6
CONTINUOUS
 62
     7
 10
-536.2523073566183
 20
-1706.720355683515
 30
0.0
 40
0.1892886329076225
 50
239.0566788816009
 51
60.94332092798902
  0
CIRCLE
  5
3BE
  8
DATA
  6
CONTINUOUS
 62
     7
 10
-537.5
 20
-1706.0
 30
0.0
 40
4.0
  0
ARC
  5
3BF
  8
DATA
  6
CONTINUOUS
 62
     7
 10
-762.500000000023
 20
-1804.559288632908
 30
0.0
 40
0.1892886329077032
 50
359.0566788815885
 51
180.9433209280187
  0
ARC
  5
3C0
  8
DATA
  6
CONTINUOUS
 62
     7
 10
-763.3631841931068
 20
-1804.504921121286
 30
0.0
 40
0.676368386187752
 50
244.8753886700262
 51
355.1246113518832
  0
ARC
  5
3C1
  8
DATA
  6
CONTINUOUS
 62
     7
 10
-763.7476926434277
 20
-1805.279644316485
 30
0.0
 40
0.1892886329076225
 50
59.05667888160091
 51
240.943320927989
  0
ARC
  5
3C2
  8
DATA
  6
CONTINUOUS
 62
     7
 10
-764.226368386175
 20
-1806.00000000003
 30
0.0
 40
0.6763683861877537
 50
304.875388670048
 51
55.12461135187576
  0
ARC
  5
3C3
  8
DATA
  6
CONTINUOUS
 62
     7
 10
-762.500000000023
 20
-1807.440711367092
 30
0.0
 40
0.1892886329078069
 50
179.0566790719813
 51
0.9433211184115464
  0
ARC
  5
3C4
  8
DATA
  6
CONTINUOUS
 62
     7
 10
-763.3631841931068
 20
-1807.495078878714
 30
0.0
 40
0.6763683861878106
 50
4.875388648116833
 51
115.1246113299738
  0
ARC
  5
3C5
  8
DATA
  6
CONTINUOUS
 62
     7
 10
-763.7476926434277
 20
-1806.720355683515
 30
0.0
 40
0.1892886329075887
 50
119.056679072011
 51
300.9433211183991
  0
ARC
  5
3C6
  8
DATA
  6
CONTINUOUS
 62
     7
 10
-761.6368158069392
 20
-1804.504921121286
 30
0.0
 40
0.6763683861879238
 50
184.875388648116
 51
295.1246113299738
  0
ARC
  5
3C7
  8
DATA
  6
CONTINUOUS
 62
     7
 10
-761.2523073566183
 20
-1805.279644316485
 30
0.0
 40
0.1892886329075887
 50
299.056679072011
 51
120.9433211183991
  0
ARC
  5
3C8
  8
DATA
  6
CONTINUOUS
 62
     7
 10
-760.7736316138712
 20
-1806.00000000003
 30
0.0
 40
0.6763683861880107
 50
124.8753886481164
 51
235.1246113299599
  0
ARC
  5
3C9
  8
DATA
  6
CONTINUOUS
 62
     7
 10
-761.6368158069392
 20
-1807.495078878714
 30
0.0
 40
0.676368386187752
 50
64.87538867002621
 51
175.124611351884
  0
ARC
  5
3CA
  8
DATA
  6
CONTINUOUS
 62
     7
 10
-761.2523073566183
 20
-1806.720355683515
 30
0.0
 40
0.1892886329076225
 50
239.0566788816009
 51
60.94332092798902
  0
CIRCLE
  5
3CB
  8
DATA
  6
CONTINUOUS
 62
     7
 10
-762.5
 20
-1806.0
 30
0.0
 40
4.0
  0
ARC
  5
3CC
  8
DATA
  6
CONTINUOUS
 62
     7
 10
-537.500000000023
 20
-1804.559288632908
 30
0.0
 40
0.1892886329077032
 50
359.0566788815885
 51
180.9433209280187
  0
ARC
  5
3CD
  8
DATA
  6
CONTINUOUS
 62
     7
 10
-538.3631841931068
 20
-1804.504921121286
 30
0.0
 40
0.676368386187752
 50
244.8753886700262
 51
355.1246113518832
  0
ARC
  5
3CE
  8
DATA
  6
CONTINUOUS
 62
     7
 10
-538.7476926434277
 20
-1805.279644316485
 30
0.0
 40
0.1892886329076225
 50
59.05667888160091
 51
240.943320927989
  0
ARC
  5
3CF
  8
DATA
  6
CONTINUOUS
 62
     7
 10
-539.226368386175
 20
-1806.00000000003
 30
0.0
 40
0.6763683861877537
 50
304.875388670048
 51
55.12461135187576
  0
ARC
  5
3D0
  8
DATA
  6
CONTINUOUS
 62
     7
 10
-537.500000000023
 20
-1807.440711367092
 30
0.0
 40
0.1892886329078069
 50
179.0566790719813
 51
0.9433211184115464
  0
ARC
  5
3D1
  8
DATA
  6
CONTINUOUS
 62
     7
 10
-538.3631841931068
 20
-1807.495078878714
 30
0.0
 40
0.6763683861878106
 50
4.875388648116833
 51
115.1246113299738
  0
ARC
  5
3D2
  8
DATA
  6
CONTINUOUS
 62
     7
 10
-538.7476926434277
 20
-1806.720355683515
 30
0.0
 40
0.1892886329075887
 50
119.056679072011
 51
300.9433211183991
  0
ARC
  5
3D3
  8
DATA
  6
CONTINUOUS
 62
     7
 10
-536.6368158069392
 20
-1804.504921121286
 30
0.0
 40
0.6763683861879238
 50
184.875388648116
 51
295.1246113299738
  0
ARC
  5
3D4
  8
DATA
  6
CONTINUOUS
 62
     7
 10
-536.2523073566183
 20
-1805.279644316485
 30
0.0
 40
0.1892886329075887
 50
299.056679072011
 51
120.9433211183991
  0
ARC
  5
3D5
  8
DATA
  6
CONTINUOUS
 62
     7
 10
-535.7736316138712
 20
-1806.00000000003
 30
0.0
 40
0.6763683861880107
 50
124.8753886481164
 51
235.1246113299599
  0
ARC
  5
3D6
  8
DATA
  6
CONTINUOUS
 62
     7
 10
-536.6368158069392
 20
-1807.495078878714
 30
0.0
 40
0.676368386187752
 50
64.87538867002621
 51
175.124611351884
  0
ARC
  5
3D7
  8
DATA
  6
CONTINUOUS
 62
     7
 10
-536.2523073566183
 20
-1806.720355683515
 30
0.0
 40
0.1892886329076225
 50
239.0566788816009
 51
60.94332092798902
  0
CIRCLE
  5
3D8
  8
DATA
  6
CONTINUOUS
 62
     7
 10
-537.5
 20
-1806.0
 30
0.0
 40
4.0
  0
ARC
  5
3D9
  8
DATA
  6
CONTINUOUS
 62
     7
 10
-762.500000000023
 20
-1903.559288632908
 30
0.0
 40
0.1892886329077032
 50
359.0566788815885
 51
180.9433209280187
  0
ARC
  5
3DA
  8
DATA
  6
CONTINUOUS
 62
     7
 10
-763.3631841931068
 20
-1903.504921121286
 30
0.0
 40
0.676368386187752
 50
244.8753886700262
 51
355.1246113518832
  0
ARC
  5
3DB
  8
DATA
  6
CONTINUOUS
 62
     7
 10
-763.7476926434277
 20
-1904.279644316485
 30
0.0
 40
0.1892886329076225
 50
59.05667888160091
 51
240.943320927989
  0
ARC
  5
3DC
  8
DATA
  6
CONTINUOUS
 62
     7
 10
-764.226368386175
 20
-1905.00000000003
 30
0.0
 40
0.6763683861877537
 50
304.875388670048
 51
55.12461135187576
  0
ARC
  5
3DD
  8
DATA
  6
CONTINUOUS
 62
     7
 10
-762.500000000023
 20
-1906.440711367092
 30
0.0
 40
0.1892886329078069
 50
179.0566790719813
 51
0.9433211184115464
  0
ARC
  5
3DE
  8
DATA
  6
CONTINUOUS
 62
     7
 10
-763.3631841931068
 20
-1906.495078878714
 30
0.0
 40
0.6763683861878106
 50
4.875388648116833
 51
115.1246113299738
  0
ARC
  5
3DF
  8
DATA
  6
CONTINUOUS
 62
     7
 10
-763.7476926434277
 20
-1905.720355683515
 30
0.0
 40
0.1892886329075887
 50
119.056679072011
 51
300.9433211183991
  0
ARC
  5
3E0
  8
DATA
  6
CONTINUOUS
 62
     7
 10
-761.6368158069392
 20
-1903.504921121286
 30
0.0
 40
0.6763683861879238
 50
184.875388648116
 51
295.1246113299738
  0
ARC
  5
3E1
  8
DATA
  6
CONTINUOUS
 62
     7
 10
-761.2523073566183
 20
-1904.279644316485
 30
0.0
 40
0.1892886329075887
 50
299.056679072011
 51
120.9433211183991
  0
ARC
  5
3E2
  8
DATA
  6
CONTINUOUS
 62
     7
 10
-760.7736316138712
 20
-1905.00000000003
 30
0.0
 40
0.6763683861880107
 50
124.8753886481164
 51
235.1246113299599
  0
ARC
  5
3E3
  8
DATA
  6
CONTINUOUS
 62
     7
 10
-761.6368158069392
 20
-1906.495078878714
 30
0.0
 40
0.676368386187752
 50
64.87538867002621
 51
175.124611351884
  0
ARC
  5
3E4
  8
DATA
  6
CONTINUOUS
 62
     7
 10
-761.2523073566183
 20
-1905.720355683515
 30
0.0
 40
0.1892886329076225
 50
239.0566788816009
 51
60.94332092798902
  0
CIRCLE
  5
3E5
  8
DATA
  6
CONTINUOUS
 62
     7
 10
-762.5
 20
-1905.0
 30
0.0
 40
4.0
  0
ARC
  5
3E6
  8
DATA
  6
CONTINUOUS
 62
     7
 10
-537.500000000023
 20
-1903.559288632908
 30
0.0
 40
0.1892886329077032
 50
359.0566788815885
 51
180.9433209280187
  0
ARC
  5
3E7
  8
DATA
  6
CONTINUOUS
 62
     7
 10
-538.3631841931068
 20
-1903.504921121286
 30
0.0
 40
0.676368386187752
 50
244.8753886700262
 51
355.1246113518832
  0
ARC
  5
3E8
  8
DATA
  6
CONTINUOUS
 62
     7
 10
-538.7476926434277
 20
-1904.279644316485
 30
0.0
 40
0.1892886329076225
 50
59.05667888160091
 51
240.943320927989
  0
ARC
  5
3E9
  8
DATA
  6
CONTINUOUS
 62
     7
 10
-539.226368386175
 20
-1905.00000000003
 30
0.0
 40
0.6763683861877537
 50
304.875388670048
 51
55.12461135187576
  0
ARC
  5
3EA
  8
DATA
  6
CONTINUOUS
 62
     7
 10
-537.500000000023
 20
-1906.440711367092
 30
0.0
 40
0.1892886329078069
 50
179.0566790719813
 51
0.9433211184115464
  0
ARC
  5
3EB
  8
DATA
  6
CONTINUOUS
 62
     7
 10
-538.3631841931068
 20
-1906.495078878714
 30
0.0
 40
0.6763683861878106
 50
4.875388648116833
 51
115.1246113299738
  0
ARC
  5
3EC
  8
DATA
  6
CONTINUOUS
 62
     7
 10
-538.7476926434277
 20
-1905.720355683515
 30
0.0
 40
0.1892886329075887
 50
119.056679072011
 51
300.9433211183991
  0
ARC
  5
3ED
  8
DATA
  6
CONTINUOUS
 62
     7
 10
-536.6368158069392
 20
-1903.504921121286
 30
0.0
 40
0.6763683861879238
 50
184.875388648116
 51
295.1246113299738
  0
ARC
  5
3EE
  8
DATA
  6
CONTINUOUS
 62
     7
 10
-536.2523073566183
 20
-1904.279644316485
 30
0.0
 40
0.1892886329075887
 50
299.056679072011
 51
120.9433211183991
  0
ARC
  5
3EF
  8
DATA
  6
CONTINUOUS
 62
     7
 10
-535.7736316138712
 20
-1905.00000000003
 30
0.0
 40
0.6763683861880107
 50
124.8753886481164
 51
235.1246113299599
  0
ARC
  5
3F0
  8
DATA
  6
CONTINUOUS
 62
     7
 10
-536.6368158069392
 20
-1906.495078878714
 30
0.0
 40
0.676368386187752
 50
64.87538867002621
 51
175.124611351884
  0
ARC
  5
3F1
  8
DATA
  6
CONTINUOUS
 62
     7
 10
-536.2523073566183
 20
-1905.720355683515
 30
0.0
 40
0.1892886329076225
 50
239.0566788816009
 51
60.94332092798902
  0
CIRCLE
  5
3F2
  8
DATA
  6
CONTINUOUS
 62
     7
 10
-537.5
 20
-1905.0
 30
0.0
 40
4.0
  0
CIRCLE
  5
3F3
  8
DATA
  6
CONTINUOUS
 62
     7
 10
-633.6666666666669
 20
-1592.5
 30
0.0
 40
3.0
  0
CIRCLE
  5
3F4
  8
DATA
  6
CONTINUOUS
 62
     7
 10
-633.6666666666669
 20
-1592.5
 30
0.0
 40
4.600000000000023
  0
CIRCLE
  5
3F5
  8
DATA
  6
CONTINUOUS
 62
     7
 10
-633.6666666666669
 20
-1592.5
 30
0.0
 40
8.249999999999886
  0
POLYLINE
  5
3F6
  8
DATA
  6
CONTINUOUS
 62
     7
 66
     1
 10
0.0
 20
0.0
 30
0.0
 70
     1
  0
VERTEX
  5
A0C
  8
DATA
  6
CONTINUOUS
 62
     7
 10
-640.1618571950501
 20
-1588.75
 30
0.0
  0
VERTEX
  5
A0D
  8
DATA
  6
CONTINUOUS
 62
     7
 10
-640.1618571950501
 20
-1596.25
 30
0.0
  0
VERTEX
  5
A0E
  8
DATA
  6
CONTINUOUS
 62
     7
 10
-633.6666666666669
 20
-1600.0
 30
0.0
  0
VERTEX
  5
A0F
  8
DATA
  6
CONTINUOUS
 62
     7
 10
-627.1714761382835
 20
-1596.25
 30
0.0
  0
VERTEX
  5
A10
  8
DATA
  6
CONTINUOUS
 62
     7
 10
-627.1714761382835
 20
-1588.75
 30
0.0
  0
VERTEX
  5
A11
  8
DATA
  6
CONTINUOUS
 62
     7
 10
-633.6666666666669
 20
-1585.0
 30
0.0
  0
SEQEND
  5
A61
  8
DATA
  6
CONTINUOUS
 62
     7
  0
CIRCLE
  5
3FF
  8
DATA
  6
CONTINUOUS
 62
     7
 10
-606.8333333333335
 20
-1592.5
 30
0.0
 40
3.0
  0
CIRCLE
  5
400
  8
DATA
  6
CONTINUOUS
 62
     7
 10
-606.8333333333335
 20
-1592.5
 30
0.0
 40
4.600000000000023
  0
CIRCLE
  5
401
  8
DATA
  6
CONTINUOUS
 62
     7
 10
-606.8333333333335
 20
-1592.5
 30
0.0
 40
8.25
  0
POLYLINE
  5
402
  8
DATA
  6
CONTINUOUS
 62
     7
 66
     1
 10
0.0
 20
0.0
 30
0.0
 70
     1
  0
VERTEX
  5
A12
  8
DATA
  6
CONTINUOUS
 62
     7
 10
-613.3285238617168
 20
-1588.75
 30
0.0
  0
VERTEX
  5
A13
  8
DATA
  6
CONTINUOUS
 62
     7
 10
-613.3285238617168
 20
-1596.25
 30
0.0
  0
VERTEX
  5
A14
  8
DATA
  6
CONTINUOUS
 62
     7
 10
-606.8333333333335
 20
-1600.0
 30
0.0
  0
VERTEX
  5
A15
  8
DATA
  6
CONTINUOUS
 62
     7
 10
-600.3381428049502
 20
-1596.25
 30
0.0
  0
VERTEX
  5
A16
  8
DATA
  6
CONTINUOUS
 62
     7
 10
-600.3381428049502
 20
-1588.75
 30
0.0
  0
VERTEX
  5
A17
  8
DATA
  6
CONTINUOUS
 62
     7
 10
-606.8333333333335
 20
-1585.0
 30
0.0
  0
SEQEND
  5
A62
  8
DATA
  6
CONTINUOUS
 62
     7
  0
CIRCLE
  5
40B
  8
DATA
  6
CONTINUOUS
 62
     7
 10
-580.0000000000002
 20
-1592.5
 30
0.0
 40
1.5
  0
CIRCLE
  5
40C
  8
DATA
  6
CONTINUOUS
 62
     7
 10
-580.0000000000002
 20
-1592.5
 30
0.0
 40
3.0
  0
TEXT
  5
40D
  8
DATA
 62
     7
 10
-747.6511013454864
 20
-1579.857367621528
 30
0.0
 40
2.714735243055556
  1
MIC/LINE
 41
0.7
 72
     1
 11
-741.0000000000002
 21
-1578.5
 31
0.0
 73
     2
  0
TEXT
  5
40E
  8
DATA
 62
     7
 10
-720.817768012153
 20
-1579.857367621528
 30
0.0
 40
2.714735243055556
  1
MIC/LINE
 41
0.7
 72
     1
 11
-714.1666666666669
 21
-1578.5
 31
0.0
 73
     2
  0
TEXT
  5
40F
  8
DATA
 62
     7
 10
-693.9844346788198
 20
-1579.857367621528
 30
0.0
 40
2.714735243055556
  1
MIC/LINE
 41
0.7
 72
     1
 11
-687.3333333333336
 21
-1578.5
 31
0.0
 73
     2
  0
TEXT
  5
410
  8
DATA
 62
     7
 10
-667.1511013454864
 20
-1579.857367621528
 30
0.0
 40
2.714735243055556
  1
MIC/LINE
 41
0.7
 72
     1
 11
-660.5000000000002
 21
-1578.5
 31
0.0
 73
     2
  0
TEXT
  5
411
  8
DATA
 62
     7
 10
-636.833857783565
 20
-1579.857367621528
 30
0.0
 40
2.714735243055556
  1
LINE
 41
0.7
 72
     1
 11
-633.6666666666669
 21
-1578.5
 31
0.0
 73
     2
  0
TEXT
  5
412
  8
DATA
 62
     7
 10
-610.0005244502316
 20
-1579.857367621528
 30
0.0
 40
2.714735243055556
  1
LINE
 41
0.7
 72
     1
 11
-606.8333333333335
 21
-1578.5
 31
0.0
 73
     2
  0
TEXT
  5
413
  8
DATA
 62
     7
 10
-566.8546339699071
 20
-1579.857367621528
 30
0.0
 40
2.714735243055556
  1
PASS THRU
 41
0.7
 72
     1
 11
-558.9999999999998
 21
-1578.5
 31
0.0
 73
     2
  0
TEXT
  5
414
  8
DATA
 62
     7
 10
-587.6376001880787
 20
-1579.857367621528
 30
0.0
 40
2.714735243055556
  1
AUX IN/
 41
0.7
 72
     1
 11
-582.0
 21
-1578.5
 31
0.0
 73
     2
  0
LINE
  5
415
  8
DATA
  6
CONTINUOUS
 62
     7
 10
-574.6701384683506
 20
-1577.25
 30
0.0
 11
-574.6701384683506
 21
-1579.75
 31
0.0
  0
LINE
  5
416
  8
DATA
  6
CONTINUOUS
 62
     7
 10
-574.6701384683506
 20
-1577.25
 30
0.0
 11
-574.0451384683507
 21
-1577.875
 31
0.0
  0
LINE
  5
417
  8
DATA
  6
CONTINUOUS
 62
     7
 10
-575.1765093182493
 20
-1579.006370849899
 30
0.0
 11
-574.0451384683507
 21
-1577.875
 31
0.0
  0
LINE
  5
418
  8
DATA
  6
CONTINUOUS
 62
     7
 10
-574.6701384683506
 20
-1579.75
 30
0.0
 11
-574.0451384683507
 21
-1579.125
 31
0.0
  0
LINE
  5
419
  8
DATA
  6
CONTINUOUS
 62
     7
 10
-575.1765093182493
 20
-1577.993629150102
 30
0.0
 11
-574.0451384683507
 21
-1579.125
 31
0.0
  0
ARC
  5
41A
  8
DATA
  6
CONTINUOUS
 62
     7
 10
-690.000000000023
 20
-1619.559288632908
 30
0.0
 40
0.1892886329077032
 50
359.0566788815885
 51
180.9433209280187
  0
ARC
  5
41B
  8
DATA
  6
CONTINUOUS
 62
     7
 10
-690.8631841931068
 20
-1619.504921121286
 30
0.0
 40
0.676368386187752
 50
244.8753886700262
 51
355.1246113518832
  0
ARC
  5
41C
  8
DATA
  6
CONTINUOUS
 62
     7
 10
-691.2476926434277
 20
-1620.279644316485
 30
0.0
 40
0.1892886329076225
 50
59.05667888160091
 51
240.943320927989
  0
ARC
  5
41D
  8
DATA
  6
CONTINUOUS
 62
     7
 10
-691.726368386175
 20
-1621.00000000003
 30
0.0
 40
0.6763683861879403
 50
304.875388670037
 51
55.1246113518757
  0
ARC
  5
41E
  8
DATA
  6
CONTINUOUS
 62
     7
 10
-690.000000000023
 20
-1622.440711367092
 30
0.0
 40
0.1892886329078069
 50
179.0566790719813
 51
0.9433211184115464
  0
ARC
  5
41F
  8
DATA
  6
CONTINUOUS
 62
     7
 10
-690.8631841931068
 20
-1622.495078878714
 30
0.0
 40
0.6763683861878106
 50
4.875388648116833
 51
115.1246113299738
  0
ARC
  5
420
  8
DATA
  6
CONTINUOUS
 62
     7
 10
-691.2476926434277
 20
-1621.720355683515
 30
0.0
 40
0.1892886329075887
 50
119.056679072011
 51
300.9433211183991
  0
ARC
  5
421
  8
DATA
  6
CONTINUOUS
 62
     7
 10
-689.1368158069392
 20
-1619.504921121286
 30
0.0
 40
0.6763683861879238
 50
184.875388648116
 51
295.1246113299738
  0
ARC
  5
422
  8
DATA
  6
CONTINUOUS
 62
     7
 10
-688.7523073566183
 20
-1620.279644316485
 30
0.0
 40
0.1892886329075887
 50
299.056679072011
 51
120.9433211183991
  0
ARC
  5
423
  8
DATA
  6
CONTINUOUS
 62
     7
 10
-688.2736316138712
 20
-1621.00000000003
 30
0.0
 40
0.6763683861880107
 50
124.8753886481164
 51
235.124611329971
  0
ARC
  5
424
  8
DATA
  6
CONTINUOUS
 62
     7
 10
-689.1368158069392
 20
-1622.495078878714
 30
0.0
 40
0.676368386187752
 50
64.87538867002621
 51
175.124611351884
  0
ARC
  5
425
  8
DATA
  6
CONTINUOUS
 62
     7
 10
-688.7523073566183
 20
-1621.720355683515
 30
0.0
 40
0.1892886329076225
 50
239.0566788816009
 51
60.94332092798902
  0
CIRCLE
  5
426
  8
DATA
  6
CONTINUOUS
 62
     7
 10
-690.0
 20
-1621.0
 30
0.0
 40
4.0
  0
ARC
  5
427
  8
DATA
  6
CONTINUOUS
 62
     7
 10
-610.000000000023
 20
-1619.559288632908
 30
0.0
 40
0.1892886329077032
 50
359.0566788815885
 51
180.9433209280187
  0
ARC
  5
428
  8
DATA
  6
CONTINUOUS
 62
     7
 10
-610.8631841931068
 20
-1619.504921121286
 30
0.0
 40
0.676368386187752
 50
244.8753886700262
 51
355.1246113518832
  0
ARC
  5
429
  8
DATA
  6
CONTINUOUS
 62
     7
 10
-611.2476926434277
 20
-1620.279644316485
 30
0.0
 40
0.1892886329076225
 50
59.05667888160091
 51
240.943320927989
  0
ARC
  5
42A
  8
DATA
  6
CONTINUOUS
 62
     7
 10
-611.726368386175
 20
-1621.00000000003
 30
0.0
 40
0.6763683861879403
 50
304.875388670037
 51
55.1246113518757
  0
ARC
  5
42B
  8
DATA
  6
CONTINUOUS
 62
     7
 10
-610.000000000023
 20
-1622.440711367092
 30
0.0
 40
0.1892886329078069
 50
179.0566790719813
 51
0.9433211184115464
  0
ARC
  5
42C
  8
DATA
  6
CONTINUOUS
 62
     7
 10
-610.8631841931068
 20
-1622.495078878714
 30
0.0
 40
0.6763683861878106
 50
4.875388648116833
 51
115.1246113299738
  0
ARC
  5
42D
  8
DATA
  6
CONTINUOUS
 62
     7
 10
-611.2476926434277
 20
-1621.720355683515
 30
0.0
 40
0.1892886329075887
 50
119.056679072011
 51
300.9433211183991
  0
ARC
  5
42E
  8
DATA
  6
CONTINUOUS
 62
     7
 10
-609.1368158069392
 20
-1619.504921121286
 30
0.0
 40
0.6763683861879238
 50
184.875388648116
 51
295.1246113299738
  0
ARC
  5
42F
  8
DATA
  6
CONTINUOUS
 62
     7
 10
-608.7523073566183
 20
-1620.279644316485
 30
0.0
 40
0.1892886329075887
 50
299.056679072011
 51
120.9433211183991
  0
ARC
  5
430
  8
DATA
  6
CONTINUOUS
 62
     7
 10
-608.2736316138712
 20
-1621.00000000003
 30
0.0
 40
0.6763683861880107
 50
124.8753886481164
 51
235.124611329971
  0
ARC
  5
431
  8
DATA
  6
CONTINUOUS
 62
     7
 10
-609.1368158069392
 20
-1622.495078878714
 30
0.0
 40
0.676368386187752
 50
64.87538867002621
 51
175.124611351884
  0
ARC
  5
432
  8
DATA
  6
CONTINUOUS
 62
     7
 10
-608.7523073566183
 20
-1621.720355683515
 30
0.0
 40
0.1892886329076225
 50
239.0566788816009
 51
60.94332092798902
  0
CIRCLE
  5
433
  8
DATA
  6
CONTINUOUS
 62
     7
 10
-610.0
 20
-1621.0
 30
0.0
 40
4.0
  0
POLYLINE
  5
434
  8
DATA
  6
CONTINUOUS
 62
     7
 66
     1
 10
0.0
 20
0.0
 30
0.0
 70
   129
  0
VERTEX
  5
A18
  8
DATA
  6
CONTINUOUS
 62
     7
 10
-702.0000000000002
 20
-1908.0
 30
0.0
  0
VERTEX
  5
A19
  8
DATA
  6
CONTINUOUS
 62
     7
 10
-702.0000000000002
 20
-1924.0
 30
0.0
  0
VERTEX
  5
A1A
  8
DATA
  6
CONTINUOUS
 62
     7
 10
-702.0000000000002
 20
-1924.0
 30
0.0
 42
-0.4142135623730728
  0
VERTEX
  5
A1B
  8
DATA
  6
CONTINUOUS
 62
     7
 10
-705.0000000000002
 20
-1927.0
 30
0.0
  0
VERTEX
  5
A1C
  8
DATA
  6
CONTINUOUS
 62
     7
 10
-728.9999999999998
 20
-1927.0
 30
0.0
  0
VERTEX
  5
A1D
  8
DATA
  6
CONTINUOUS
 62
     7
 10
-729.0000000000003
 20
-1927.0
 30
0.0
 42
-0.1989123673796638
  0
VERTEX
  5
A1E
  8
DATA
  6
CONTINUOUS
 62
     7
 10
-731.1213203435593
 20
-1926.12132034356
 30
0.0
  0
VERTEX
  5
A1F
  8
DATA
  6
CONTINUOUS
 62
     7
 10
-731.1213203435602
 20
-1926.121320343559
 30
0.0
 42
-0.1989123673795048
  0
VERTEX
  5
A20
  8
DATA
  6
CONTINUOUS
 62
     7
 10
-731.9999999999998
 20
-1924.0
 30
0.0
  0
VERTEX
  5
A21
  8
DATA
  6
CONTINUOUS
 62
     7
 10
-732.0000000000002
 20
-1908.0
 30
0.0
  0
VERTEX
  5
A22
  8
DATA
  6
CONTINUOUS
 62
     7
 10
-732.0000000000002
 20
-1908.0
 30
0.0
 42
-0.4142135623730284
  0
VERTEX
  5
A23
  8
DATA
  6
CONTINUOUS
 62
     7
 10
-728.9999999999998
 20
-1905.0
 30
0.0
  0
VERTEX
  5
A24
  8
DATA
  6
CONTINUOUS
 62
     7
 10
-705.0000000000002
 20
-1905.0
 30
0.0
  0
VERTEX
  5
A25
  8
DATA
  6
CONTINUOUS
 62
     7
 10
-705.0000000000002
 20
-1905.0
 30
0.0
 42
-0.414213562373095
  0
VERTEX
  5
A26
  8
DATA
  6
CONTINUOUS
 62
     7
 10
-702.0000000000002
 20
-1908.0
 30
0.0
  0
SEQEND
  5
A63
  8
DATA
  6
CONTINUOUS
 62
     7
  0
LINE
  5
445
  8
DATA
  6
CONTINUOUS
 62
     7
 10
-729.0000000000002
 20
-1908.0
 30
0.0
 11
-705.0000000000002
 21
-1908.0
 31
0.0
  0
LINE
  5
446
  8
DATA
  6
CONTINUOUS
 62
     7
 10
-729.0000000000002
 20
-1919.5
 30
0.0
 11
-729.0000000000002
 21
-1908.0
 31
0.0
  0
LINE
  5
447
  8
DATA
  6
CONTINUOUS
 62
     7
 10
-710.5000000000002
 20
-1924.0
 30
0.0
 11
-723.5000000000002
 21
-1924.0
 31
0.0
  0
LINE
  5
448
  8
DATA
  6
CONTINUOUS
 62
     7
 10
-705.0000000000002
 20
-1908.0
 30
0.0
 11
-705.0000000000002
 21
-1919.5
 31
0.0
  0
LINE
  5
449
  8
DATA
  6
CONTINUOUS
 62
     7
 10
-729.0000000000002
 20
-1919.5
 30
0.0
 11
-723.5000000000002
 21
-1924.0
 31
0.0
  0
LINE
  5
44A
  8
DATA
  6
CONTINUOUS
 62
     7
 10
-710.5000000000002
 20
-1924.0
 30
0.0
 11
-705.0000000000002
 21
-1919.5
 31
0.0
  0
POLYLINE
  5
44B
  8
DATA
  6
CONTINUOUS
 62
     7
 66
     1
 10
0.0
 20
0.0
 30
0.0
 70
     1
  0
VERTEX
  5
A27
  8
DATA
  6
CONTINUOUS
 62
     7
 10
-723.5000000000002
 20
-1911.5
 30
0.0
  0
VERTEX
  5
A28
  8
DATA
  6
CONTINUOUS
 62
     7
 10
-723.5000000000002
 20
-1915.5
 30
0.0
  0
VERTEX
  5
A29
  8
DATA
  6
CONTINUOUS
 62
     7
 10
-724.5000000000002
 20
-1915.5
 30
0.0
  0
VERTEX
  5
A2A
  8
DATA
  6
CONTINUOUS
 62
     7
 10
-724.5000000000002
 20
-1911.5
 30
0.0
  0
SEQEND
  5
A64
  8
DATA
  6
CONTINUOUS
 62
     7
  0
POLYLINE
  5
452
  8
DATA
  6
CONTINUOUS
 62
     7
 66
     1
 10
0.0
 20
0.0
 30
0.0
 70
     1
  0
VERTEX
  5
A2B
  8
DATA
  6
CONTINUOUS
 62
     7
 10
-709.5000000000002
 20
-1911.5
 30
0.0
  0
VERTEX
  5
A2C
  8
DATA
  6
CONTINUOUS
 62
     7
 10
-709.5000000000002
 20
-1915.5
 30
0.0
  0
VERTEX
  5
A2D
  8
DATA
  6
CONTINUOUS
 62
     7
 10
-710.5000000000002
 20
-1915.5
 30
0.0
  0
VERTEX
  5
A2E
  8
DATA
  6
CONTINUOUS
 62
     7
 10
-710.5000000000002
 20
-1911.5
 30
0.0
  0
SEQEND
  5
A65
  8
DATA
  6
CONTINUOUS
 62
     7
  0
POLYLINE
  5
459
  8
DATA
  6
CONTINUOUS
 62
     7
 66
     1
 10
0.0
 20
0.0
 30
0.0
 70
     1
  0
VERTEX
  5
A2F
  8
DATA
  6
CONTINUOUS
 62
     7
 10
-716.5000000000002
 20
-1916.0
 30
0.0
  0
VERTEX
  5
A30
  8
DATA
  6
CONTINUOUS
 62
     7
 10
-716.5000000000002
 20
-1920.0
 30
0.0
  0
VERTEX
  5
A31
  8
DATA
  6
CONTINUOUS
 62
     7
 10
-717.5000000000002
 20
-1920.0
 30
0.0
  0
VERTEX
  5
A32
  8
DATA
  6
CONTINUOUS
 62
     7
 10
-717.5000000000002
 20
-1916.0
 30
0.0
  0
SEQEND
  5
A66
  8
DATA
  6
CONTINUOUS
 62
     7
  0
TEXT
  5
460
  8
DATA
 62
     7
 10
-750.5326359501594
 20
-1901.10643174911
 30
0.0
 40
3.393419053819445
  1
INPUT:100-240V～50/60Hz 300W MAX
 41
0.7
 72
     1
 11
-717.0000000000002
 21
-1899.4097222222
 31
0.0
 73
     2
  0
ARC
  5
461
  8
DATA
  6
CONTINUOUS
 62
     7
 10
-740.000000000023
 20
-1955.559288632908
 30
0.0
 40
0.1892886329077032
 50
359.0566788815885
 51
180.9433209280187
  0
ARC
  5
462
  8
DATA
  6
CONTINUOUS
 62
     7
 10
-740.8631841931068
 20
-1955.504921121286
 30
0.0
 40
0.676368386187752
 50
244.8753886700262
 51
355.1246113518832
  0
ARC
  5
463
  8
DATA
  6
CONTINUOUS
 62
     7
 10
-741.2476926434277
 20
-1956.279644316485
 30
0.0
 40
0.1892886329076225
 50
59.05667888160091
 51
240.943320927989
  0
ARC
  5
464
  8
DATA
  6
CONTINUOUS
 62
     7
 10
-741.726368386175
 20
-1957.00000000003
 30
0.0
 40
0.6763683861877537
 50
304.875388670048
 51
55.12461135187576
  0
ARC
  5
465
  8
DATA
  6
CONTINUOUS
 62
     7
 10
-740.000000000023
 20
-1958.440711367092
 30
0.0
 40
0.1892886329078069
 50
179.0566790719813
 51
0.9433211184115464
  0
ARC
  5
466
  8
DATA
  6
CONTINUOUS
 62
     7
 10
-740.8631841931068
 20
-1958.495078878714
 30
0.0
 40
0.6763683861878106
 50
4.875388648116833
 51
115.1246113299738
  0
ARC
  5
467
  8
DATA
  6
CONTINUOUS
 62
     7
 10
-741.2476926434277
 20
-1957.720355683515
 30
0.0
 40
0.1892886329075887
 50
119.056679072011
 51
300.9433211183991
  0
ARC
  5
468
  8
DATA
  6
CONTINUOUS
 62
     7
 10
-739.1368158069392
 20
-1955.504921121286
 30
0.0
 40
0.6763683861879238
 50
184.875388648116
 51
295.1246113299738
  0
ARC
  5
469
  8
DATA
  6
CONTINUOUS
 62
     7
 10
-738.7523073566183
 20
-1956.279644316485
 30
0.0
 40
0.1892886329075887
 50
299.056679072011
 51
120.9433211183991
  0
ARC
  5
46A
  8
DATA
  6
CONTINUOUS
 62
     7
 10
-738.2736316138712
 20
-1957.00000000003
 30
0.0
 40
0.6763683861880107
 50
124.8753886481164
 51
235.1246113299599
  0
ARC
  5
46B
  8
DATA
  6
CONTINUOUS
 62
     7
 10
-739.1368158069392
 20
-1958.495078878714
 30
0.0
 40
0.676368386187752
 50
64.87538867002621
 51
175.124611351884
  0
ARC
  5
46C
  8
DATA
  6
CONTINUOUS
 62
     7
 10
-738.7523073566183
 20
-1957.720355683515
 30
0.0
 40
0.1892886329076225
 50
239.0566788816009
 51
60.94332092798902
  0
CIRCLE
  5
46D
  8
DATA
  6
CONTINUOUS
 62
     7
 10
-740.0
 20
-1957.0
 30
0.0
 40
4.0
  0
ARC
  5
46E
  8
DATA
  6
CONTINUOUS
 62
     7
 10
-650.000000000023
 20
-1955.559288632908
 30
0.0
 40
0.1892886329077032
 50
359.0566788815885
 51
180.9433209280187
  0
ARC
  5
46F
  8
DATA
  6
CONTINUOUS
 62
     7
 10
-650.8631841931068
 20
-1955.504921121286
 30
0.0
 40
0.676368386187752
 50
244.8753886700262
 51
355.1246113518832
  0
ARC
  5
470
  8
DATA
  6
CONTINUOUS
 62
     7
 10
-651.2476926434277
 20
-1956.279644316485
 30
0.0
 40
0.1892886329076225
 50
59.05667888160091
 51
240.943320927989
  0
ARC
  5
471
  8
DATA
  6
CONTINUOUS
 62
     7
 10
-651.726368386175
 20
-1957.00000000003
 30
0.0
 40
0.6763683861877537
 50
304.875388670048
 51
55.12461135187576
  0
ARC
  5
472
  8
DATA
  6
CONTINUOUS
 62
     7
 10
-650.000000000023
 20
-1958.440711367092
 30
0.0
 40
0.1892886329078069
 50
179.0566790719813
 51
0.9433211184115464
  0
ARC
  5
473
  8
DATA
  6
CONTINUOUS
 62
     7
 10
-650.8631841931068
 20
-1958.495078878714
 30
0.0
 40
0.6763683861878106
 50
4.875388648116833
 51
115.1246113299738
  0
ARC
  5
474
  8
DATA
  6
CONTINUOUS
 62
     7
 10
-651.2476926434277
 20
-1957.720355683515
 30
0.0
 40
0.1892886329075887
 50
119.056679072011
 51
300.9433211183991
  0
ARC
  5
475
  8
DATA
  6
CONTINUOUS
 62
     7
 10
-649.1368158069392
 20
-1955.504921121286
 30
0.0
 40
0.6763683861879238
 50
184.875388648116
 51
295.1246113299738
  0
ARC
  5
476
  8
DATA
  6
CONTINUOUS
 62
     7
 10
-648.7523073566183
 20
-1956.279644316485
 30
0.0
 40
0.1892886329075887
 50
299.056679072011
 51
120.9433211183991
  0
ARC
  5
477
  8
DATA
  6
CONTINUOUS
 62
     7
 10
-648.2736316138712
 20
-1957.00000000003
 30
0.0
 40
0.6763683861880107
 50
124.8753886481164
 51
235.1246113299599
  0
ARC
  5
478
  8
DATA
  6
CONTINUOUS
 62
     7
 10
-649.1368158069392
 20
-1958.495078878714
 30
0.0
 40
0.676368386187752
 50
64.87538867002621
 51
175.124611351884
  0
ARC
  5
479
  8
DATA
  6
CONTINUOUS
 62
     7
 10
-648.7523073566183
 20
-1957.720355683515
 30
0.0
 40
0.1892886329076225
 50
239.0566788816009
 51
60.94332092798902
  0
CIRCLE
  5
47A
  8
DATA
  6
CONTINUOUS
 62
     7
 10
-650.0
 20
-1957.0
 30
0.0
 40
4.0
  0
ARC
  5
47B
  8
DATA
  6
CONTINUOUS
 62
     7
 10
-560.000000000023
 20
-1955.559288632908
 30
0.0
 40
0.1892886329077032
 50
359.0566788815885
 51
180.9433209280187
  0
ARC
  5
47C
  8
DATA
  6
CONTINUOUS
 62
     7
 10
-560.8631841931068
 20
-1955.504921121286
 30
0.0
 40
0.676368386187752
 50
244.8753886700262
 51
355.1246113518832
  0
ARC
  5
47D
  8
DATA
  6
CONTINUOUS
 62
     7
 10
-561.2476926434277
 20
-1956.279644316485
 30
0.0
 40
0.1892886329076225
 50
59.05667888160091
 51
240.943320927989
  0
ARC
  5
47E
  8
DATA
  6
CONTINUOUS
 62
     7
 10
-561.726368386175
 20
-1957.00000000003
 30
0.0
 40
0.6763683861877537
 50
304.875388670048
 51
55.12461135187576
  0
ARC
  5
47F
  8
DATA
  6
CONTINUOUS
 62
     7
 10
-560.000000000023
 20
-1958.440711367092
 30
0.0
 40
0.1892886329078069
 50
179.0566790719813
 51
0.9433211184115464
  0
ARC
  5
480
  8
DATA
  6
CONTINUOUS
 62
     7
 10
-560.8631841931068
 20
-1958.495078878714
 30
0.0
 40
0.6763683861878106
 50
4.875388648116833
 51
115.1246113299738
  0
ARC
  5
481
  8
DATA
  6
CONTINUOUS
 62
     7
 10
-561.2476926434277
 20
-1957.720355683515
 30
0.0
 40
0.1892886329075887
 50
119.056679072011
 51
300.9433211183991
  0
ARC
  5
482
  8
DATA
  6
CONTINUOUS
 62
     7
 10
-559.1368158069392
 20
-1955.504921121286
 30
0.0
 40
0.6763683861879238
 50
184.875388648116
 51
295.1246113299738
  0
ARC
  5
483
  8
DATA
  6
CONTINUOUS
 62
     7
 10
-558.7523073566183
 20
-1956.279644316485
 30
0.0
 40
0.1892886329075887
 50
299.056679072011
 51
120.9433211183991
  0
ARC
  5
484
  8
DATA
  6
CONTINUOUS
 62
     7
 10
-558.2736316138712
 20
-1957.00000000003
 30
0.0
 40
0.6763683861880107
 50
124.8753886481164
 51
235.1246113299599
  0
ARC
  5
485
  8
DATA
  6
CONTINUOUS
 62
     7
 10
-559.1368158069392
 20
-1958.495078878714
 30
0.0
 40
0.676368386187752
 50
64.87538867002621
 51
175.124611351884
  0
ARC
  5
486
  8
DATA
  6
CONTINUOUS
 62
     7
 10
-558.7523073566183
 20
-1957.720355683515
 30
0.0
 40
0.1892886329076225
 50
239.0566788816009
 51
60.94332092798902
  0
CIRCLE
  5
487
  8
DATA
  6
CONTINUOUS
 62
     7
 10
-560.0
 20
-1957.0
 30
0.0
 40
4.0
  0
CIRCLE
  5
488
  8
DATA
  6
CONTINUOUS
 62
     7
 10
-697.2500000000001
 20
-1916.0
 30
0.0
 40
2.5
  0
LINE
  5
489
  8
DATA
  6
CONTINUOUS
 62
     7
 10
-697.9716878364871
 20
-1917.25
 30
0.0
 11
-696.5283121635131
 21
-1917.25
 31
0.0
  0
LINE
  5
48A
  8
DATA
  6
CONTINUOUS
 62
     7
 10
-698.6933756729742
 20
-1916.0
 30
0.0
 11
-697.9716878364871
 21
-1914.75
 31
0.0
  0
LINE
  5
48B
  8
DATA
  6
CONTINUOUS
 62
     7
 10
-698.6933756729742
 20
-1916.0
 30
0.0
 11
-697.9716878364871
 21
-1917.25
 31
0.0
  0
LINE
  5
48C
  8
DATA
  6
CONTINUOUS
 62
     7
 10
-695.806624327026
 20
-1916.0
 30
0.0
 11
-696.5283121635131
 21
-1914.75
 31
0.0
  0
LINE
  5
48D
  8
DATA
  6
CONTINUOUS
 62
     7
 10
-695.806624327026
 20
-1916.0
 30
0.0
 11
-696.5283121635131
 21
-1917.25
 31
0.0
  0
LINE
  5
48E
  8
DATA
  6
CONTINUOUS
 62
     7
 10
-697.9716878364871
 20
-1914.75
 30
0.0
 11
-696.5283121635131
 21
-1914.75
 31
0.0
  0
CIRCLE
  5
48F
  8
DATA
  6
CONTINUOUS
 62
     7
 10
-736.7500000000001
 20
-1916.0
 30
0.0
 40
2.5
  0
LINE
  5
490
  8
DATA
  6
CONTINUOUS
 62
     7
 10
-737.4716878364871
 20
-1917.25
 30
0.0
 11
-736.0283121635131
 21
-1917.25
 31
0.0
  0
LINE
  5
491
  8
DATA
  6
CONTINUOUS
 62
     7
 10
-738.1933756729742
 20
-1916.0
 30
0.0
 11
-737.4716878364871
 21
-1914.75
 31
0.0
  0
LINE
  5
492
  8
DATA
  6
CONTINUOUS
 62
     7
 10
-738.1933756729742
 20
-1916.0
 30
0.0
 11
-737.4716878364871
 21
-1917.25
 31
0.0
  0
LINE
  5
493
  8
DATA
  6
CONTINUOUS
 62
     7
 10
-735.306624327026
 20
-1916.0
 30
0.0
 11
-736.0283121635131
 21
-1914.75
 31
0.0
  0
LINE
  5
494
  8
DATA
  6
CONTINUOUS
 62
     7
 10
-735.306624327026
 20
-1916.0
 30
0.0
 11
-736.0283121635131
 21
-1917.25
 31
0.0
  0
LINE
  5
495
  8
DATA
  6
CONTINUOUS
 62
     7
 10
-737.4716878364871
 20
-1914.75
 30
0.0
 11
-736.0283121635131
 21
-1914.75
 31
0.0
  0
LINE
  5
496
  8
DATA
  6
CONTINUOUS
 62
     7
 10
-796.5000000000005
 20
-1547.0
 30
0.0
 11
-796.5000000000005
 21
-2097.0
 31
0.0
  0
LINE
  5
497
  8
DATA
  6
CONTINUOUS
 62
     7
 10
-503.4999999999995
 20
-1547.0
 30
0.0
 11
-503.4999999999995
 21
-2097.0
 31
0.0
  0
POLYLINE
  5
498
  8
DATA
  6
CONTINUOUS
 62
     7
 66
     1
 10
0.0
 20
0.0
 30
0.0
 70
     1
  0
VERTEX
  5
A33
  8
DATA
  6
CONTINUOUS
 62
     7
 10
-665.0
 20
-1690.0
 30
0.0
  0
VERTEX
  5
A34
  8
DATA
  6
CONTINUOUS
 62
     7
 10
-635.0
 20
-1690.0
 30
0.0
  0
VERTEX
  5
A35
  8
DATA
  6
CONTINUOUS
 62
     7
 10
-635.0
 20
-1720.0
 30
0.0
  0
VERTEX
  5
A36
  8
DATA
  6
CONTINUOUS
 62
     7
 10
-665.0
 20
-1720.0
 30
0.0
  0
SEQEND
  5
A67
  8
DATA
  6
CONTINUOUS
 62
     7
  0
LINE
  5
49F
  8
DATA
  6
CONTINUOUS
 62
     7
 10
-665.0
 20
-1715.0
 30
0.0
 11
-635.0
 21
-1715.0
 31
0.0
  0
ARC
  5
4A0
  8
DATA
  6
CONTINUOUS
 62
     7
 10
-655.88222
 20
-1704.92667
 30
0.0
 40
2.578853425167699
 50
264.6908562215332
 51
323.9911991542436
  0
ARC
  5
4A1
  8
DATA
  6
CONTINUOUS
 62
     7
 10
-656.3594499999999
 20
-1704.92667
 30
0.0
 40
2.578849236946656
 50
216.0088008457561
 51
275.3091437784643
  0
ARC
  5
4A2
  8
DATA
  6
CONTINUOUS
 62
     7
 10
-649.32915
 20
-1705.59609
 30
0.0
 40
1.902611411718034
 50
273.8309816091183
 51
351.1351473098022
  0
ARC
  5
4A3
  8
DATA
  6
CONTINUOUS
 62
     7
 10
-649.31018
 20
-1699.38993
 30
0.0
 40
1.899729932911417
 50
8.22692385901963
 51
86.15412669215242
  0
ARC
  5
4A4
  8
DATA
  6
CONTINUOUS
 62
     7
 10
-649.5192186364268
 20
-1706.078855954794
 30
0.0
 40
0.3187831148184466
 50
307.6419024975777
 51
354.2670192893902
  0
LINE
  5
4A5
  8
DATA
  6
CONTINUOUS
 62
     7
 10
-657.7075500000001
 20
-1701.05535
 30
0.0
 11
-656.21309
 21
-1697.49447
 31
0.0
  0
LINE
  5
4A6
  8
DATA
  6
CONTINUOUS
 62
     7
 10
-657.7075500000001
 20
-1701.05535
 30
0.0
 11
-659.1835699999999
 21
-1697.49447
 31
0.0
  0
LINE
  5
4A7
  8
DATA
  6
CONTINUOUS
 62
     7
 10
-646.37915
 20
-1707.49447
 30
0.0
 11
-646.37915
 21
-1697.49447
 31
0.0
  0
LINE
  5
4A8
  8
DATA
  6
CONTINUOUS
 62
     7
 10
-644.46033
 20
-1697.49447
 30
0.0
 11
-644.46033
 21
-1705.96311
 31
0.0
  0
LINE
  5
4A9
  8
DATA
  6
CONTINUOUS
 62
     7
 10
-655.51198
 20
-1697.49447
 30
0.0
 11
-655.51198
 21
-1705.96311
 31
0.0
  0
LINE
  5
4AA
  8
DATA
  6
CONTINUOUS
 62
     7
 10
-653.66696
 20
-1697.49447
 30
0.0
 11
-653.66696
 21
-1705.96311
 31
0.0
  0
LINE
  5
4AB
  8
DATA
  6
CONTINUOUS
 62
     7
 10
-652.7075500000001
 20
-1697.49447
 30
0.0
 11
-652.7075500000001
 21
-1707.49447
 31
0.0
  0
LINE
  5
4AC
  8
DATA
  6
CONTINUOUS
 62
     7
 10
-651.0285799999999
 20
-1698.43542
 30
0.0
 11
-651.0285799999999
 21
-1701.64576
 31
0.0
  0
LINE
  5
4AD
  8
DATA
  6
CONTINUOUS
 62
     7
 10
-647.4300000000001
 20
-1701.46
 30
0.0
 11
-647.4300000000001
 21
-1699.11809
 31
0.0
  0
LINE
  5
4AE
  8
DATA
  6
CONTINUOUS
 62
     7
 10
-649.2020299999999
 20
-1698.87823
 30
0.0
 11
-649.2020299999999
 21
-1701.20296
 31
0.0
  0
LINE
  5
4AF
  8
DATA
  6
CONTINUOUS
 62
     7
 10
-656.91419
 20
-1704.35793
 30
0.0
 11
-656.91419
 21
-1705.96309
 31
0.0
  0
LINE
  5
4B0
  8
DATA
  6
CONTINUOUS
 62
     7
 10
-656.91419
 20
-1704.35793
 30
0.0
 11
-658.57471
 21
-1704.35793
 31
0.0
  0
LINE
  5
4B1
  8
DATA
  6
CONTINUOUS
 62
     7
 10
-658.57471
 20
-1704.35793
 30
0.0
 11
-658.57471
 21
-1705.96309
 31
0.0
  0
ARC
  5
4B2
  8
DATA
  6
CONTINUOUS
 62
     7
 10
-656.20957
 20
-1705.98473
 30
0.0
 40
0.6979288262423999
 50
269.7118487927503
 51
1.775987005682168
  0
ARC
  5
4B3
  8
DATA
  6
CONTINUOUS
 62
     7
 10
-656.2166
 20
-1705.98473
 30
0.0
 40
0.6979252574595547
 50
178.224012994317
 51
270.2881512072523
  0
ARC
  5
4B4
  8
DATA
  6
CONTINUOUS
 62
     7
 10
-657.40927
 20
-1705.90656
 30
0.0
 40
1.166800208176208
 50
182.7769954499969
 51
207.3596066671541
  0
CIRCLE
  5
4B5
  8
DATA
  6
CONTINUOUS
 62
     7
 10
-657.60607
 20
-1702.43912
 30
0.0
 40
0.9501800000000458
  0
LINE
  5
4B6
  8
DATA
  6
CONTINUOUS
 62
     7
 10
-641.37915
 20
-1707.49446
 30
0.0
 11
-646.37915
 21
-1707.49446
 31
0.0
  0
LINE
  5
4B7
  8
DATA
  6
CONTINUOUS
 62
     7
 10
-641.37915
 20
-1707.49446
 30
0.0
 11
-641.37915
 21
-1704.35792
 31
0.0
  0
LINE
  5
4B8
  8
DATA
  6
CONTINUOUS
 62
     7
 10
-641.37915
 20
-1704.35793
 30
0.0
 11
-643.0581099999999
 21
-1704.35793
 31
0.0
  0
LINE
  5
4B9
  8
DATA
  6
CONTINUOUS
 62
     7
 10
-643.0581099999999
 20
-1704.35793
 30
0.0
 11
-643.0581099999999
 21
-1705.96309
 31
0.0
  0
LINE
  5
4BA
  8
DATA
  6
CONTINUOUS
 62
     7
 10
-652.7075500000001
 20
-1707.49446
 30
0.0
 11
-649.2020299999999
 21
-1707.49445
 31
0.0
  0
LINE
  5
4BB
  8
DATA
  6
CONTINUOUS
 62
     7
 10
-651.02859
 20
-1706.5535
 30
0.0
 11
-650.12453
 21
-1706.5535
 31
0.0
  0
LINE
  5
4BC
  8
DATA
  6
CONTINUOUS
 62
     7
 10
-651.0285799999999
 20
-1706.5535
 30
0.0
 11
-651.0285799999999
 21
-1702.60516
 31
0.0
  0
LINE
  5
4BD
  8
DATA
  6
CONTINUOUS
 62
     7
 10
-651.02859
 20
-1702.60516
 30
0.0
 11
-650.12453
 21
-1702.60516
 31
0.0
  0
LINE
  5
4BE
  8
DATA
  6
CONTINUOUS
 62
     7
 10
-649.2020299999999
 20
-1706.1107
 30
0.0
 11
-649.2020299999999
 21
-1703.04796
 31
0.0
  0
ARC
  5
4BF
  8
DATA
  6
CONTINUOUS
 62
     7
 10
-654.8324
 20
-1705.90656
 30
0.0
 40
1.166798547865158
 50
332.6403933328447
 51
357.2230045500055
  0
ARC
  5
4C0
  8
DATA
  6
CONTINUOUS
 62
     7
 10
-643.75571
 20
-1705.98473
 30
0.0
 40
0.6979288262423999
 50
269.7118487927503
 51
1.775987005682168
  0
ARC
  5
4C1
  8
DATA
  6
CONTINUOUS
 62
     7
 10
-643.7627299999999
 20
-1705.98473
 30
0.0
 40
0.6979252574596684
 50
178.2240129943173
 51
270.288151207243
  0
LINE
  5
4C2
  8
DATA
  6
CONTINUOUS
 62
     7
 10
-647.4308100000001
 20
-1705.88929
 30
0.0
 11
-647.4308100000001
 21
-1703.23247
 31
0.0
  0
LINE
  5
4C3
  8
DATA
  6
CONTINUOUS
 62
     7
 10
-651.02859
 20
-1701.64576
 30
0.0
 11
-650.12453
 21
-1701.64576
 31
0.0
  0
LINE
  5
4C4
  8
DATA
  6
CONTINUOUS
 62
     7
 10
-655.51198
 20
-1697.49447
 30
0.0
 11
-653.66696
 21
-1697.49447
 31
0.0
  0
LINE
  5
4C5
  8
DATA
  6
CONTINUOUS
 62
     7
 10
-659.1835699999999
 20
-1697.49447
 30
0.0
 11
-656.21309
 21
-1697.49447
 31
0.0
  0
LINE
  5
4C6
  8
DATA
  6
CONTINUOUS
 62
     7
 10
-646.37915
 20
-1697.49447
 30
0.0
 11
-644.46033
 21
-1697.49447
 31
0.0
  0
LINE
  5
4C7
  8
DATA
  6
CONTINUOUS
 62
     7
 10
-652.7075500000001
 20
-1697.49447
 30
0.0
 11
-649.1827598718532
 21
-1697.49447809374
 31
0.0
  0
LINE
  5
4C8
  8
DATA
  6
CONTINUOUS
 62
     7
 10
-651.02859
 20
-1698.43543
 30
0.0
 11
-650.12453
 21
-1698.43543
 31
0.0
  0
ARC
  5
4C9
  8
DATA
  6
CONTINUOUS
 62
     7
 10
-650.1138545373967
 20
-1704.799812039413
 30
0.0
 40
1.753720453381835
 50
269.6512199376139
 51
282.8264828068717
  0
ARC
  5
4CA
  8
DATA
  6
CONTINUOUS
 62
     7
 10
-649.9168839725332
 20
-1705.541250311227
 30
0.0
 40
0.9874379036933072
 50
281.2331036226554
 51
306.8620088940596
  0
ARC
  5
4CB
  8
DATA
  6
CONTINUOUS
 62
     7
 10
-649.5192186364268
 20
-1703.079804045205
 30
0.0
 40
0.318783114818508
 50
5.732980710569244
 51
52.35809750242235
  0
ARC
  5
4CC
  8
DATA
  6
CONTINUOUS
 62
     7
 10
-650.1138545373967
 20
-1704.358847960587
 30
0.0
 40
1.75372045338163
 50
77.17351719312664
 51
90.34878006238613
  0
ARC
  5
4CD
  8
DATA
  6
CONTINUOUS
 62
     7
 10
-649.9168839725332
 20
-1703.617409688773
 30
0.0
 40
0.9874379036931875
 50
53.13799110594046
 51
78.76689637734202
  0
ARC
  5
4CE
  8
DATA
  6
CONTINUOUS
 62
     7
 10
-648.39849
 20
-1703.29788
 30
0.0
 40
0.9698881639137412
 50
3.86700635983129
 51
88.36163456789738
  0
ARC
  5
4CF
  8
DATA
  6
CONTINUOUS
 62
     7
 10
-648.3993800000001
 20
-1701.35796
 30
0.0
 40
0.9708519399474431
 50
271.6892821046514
 51
356.0782829826646
  0
ARC
  5
4D0
  8
DATA
  6
CONTINUOUS
 62
     7
 10
-649.5192186364268
 20
-1701.171115954794
 30
0.0
 40
0.3187831148184466
 50
307.6419024975777
 51
354.2670192893902
  0
ARC
  5
4D1
  8
DATA
  6
CONTINUOUS
 62
     7
 10
-650.1138545373967
 20
-1699.892072039413
 30
0.0
 40
1.753720453381835
 50
269.6512199376139
 51
282.8264828068734
  0
ARC
  5
4D2
  8
DATA
  6
CONTINUOUS
 62
     7
 10
-649.9168839725332
 20
-1700.633510311227
 30
0.0
 40
0.9874379036930842
 50
281.233103622658
 51
306.8620088940596
  0
ARC
  5
4D3
  8
DATA
  6
CONTINUOUS
 62
     7
 10
-649.5192186364268
 20
-1698.910074045206
 30
0.0
 40
0.3187831148185307
 50
5.732980710609906
 51
52.35809750242235
  0
ARC
  5
4D4
  8
DATA
  6
CONTINUOUS
 62
     7
 10
-650.1138545373967
 20
-1700.189117960587
 30
0.0
 40
1.753720453381852
 50
77.17351719312829
 51
90.34878006238608
  0
ARC
  5
4D5
  8
DATA
  6
CONTINUOUS
 62
     7
 10
-649.9168839725332
 20
-1699.447679688773
 30
0.0
 40
0.9874379036931875
 50
53.13799110594046
 51
78.76689637734458
  0
TEXT
  5
4D6
  8
DATA
 62
     7
 10
-663.4605622468172
 20
-1719.19670952691
 30
0.0
 40
3.393419053819445
  1
PROFESSIONAL
 41
0.7
 72
     1
 11
-650.0
 21
-1717.5
 31
0.0
 73
     2
  0
TEXT
  5
4D7
  8
DATA
 62
     7
 10
-659.7733207514
 20
-1682.375393337674
 30
0.0
 40
4.750786675347223
  1
PRX
 41
0.7
 11
-659.7733207514
 21
-1680.0
 31
0.0
 73
     2
  0
POLYLINE
  5
4D8
  8
DATA
  6
CONTINUOUS
 62
     7
 66
     1
 10
0.0
 20
0.0
 30
0.0
 70
     1
  0
VERTEX
  5
A37
  8
DATA
  6
CONTINUOUS
 62
     7
 10
-648.0
 20
-1678.0
 30
0.0
  0
VERTEX
  5
A38
  8
DATA
  6
CONTINUOUS
 62
     7
 10
-650.0
 20
-1680.0
 30
0.0
  0
VERTEX
  5
A39
  8
DATA
  6
CONTINUOUS
 62
     7
 10
-648.0
 20
-1682.0
 30
0.0
  0
VERTEX
  5
A3A
  8
DATA
  6
CONTINUOUS
 62
     7
 10
-635.0
 20
-1682.0
 30
0.0
  0
VERTEX
  5
A3B
  8
DATA
  6
CONTINUOUS
 62
     7
 10
-635.0
 20
-1678.0
 30
0.0
  0
SEQEND
  5
A68
  8
DATA
  6
CONTINUOUS
 62
     7
  0
TEXT
  5
4E0
  8
DATA
 62
     7
 10
-644.0337528935186
 20
-1681.357367621528
 30
0.0
 40
2.714735243055556
  1
ONE
 41
0.7
 72
     1
 11
-641.5
 21
-1680.0
 31
0.0
 73
     2
  0
LINE
  5
4E1
  8
DATA
  6
CONTINUOUS
 62
     7
 10
-1013.0
 20
-1644.180707590669
 30
0.0
 11
-1013.0
 21
-1984.273049179732
 31
0.0
  0
LINE
  5
4E2
  8
DATA
  6
CONTINUOUS
 62
     7
 10
-1025.241415495915
 20
-1999.017207736048
 30
0.0
 11
-1168.0
 21
-2025.7268783852
 31
0.0
  0
LINE
  5
4E3
  8
DATA
  6
CONTINUOUS
 62
     7
 10
-1025.241415495915
 20
-1629.436549034351
 30
0.0
 11
-1168.0
 21
-1602.7268783852
 31
0.0
  0
ARC
  5
4E4
  8
DATA
  6
CONTINUOUS
 62
     7
 10
-1078.36665
 20
-1843.6379783852
 30
0.0
 40
12.89426712583872
 50
354.6908562215333
 51
53.99119915424301
  0
ARC
  5
4E5
  8
DATA
  6
CONTINUOUS
 62
     7
 10
-1078.36665
 20
-1846.0241283852
 30
0.0
 40
12.89424618473282
 50
306.0088008457575
 51
5.309143778462953
  0
ARC
  5
4E6
  8
DATA
  6
CONTINUOUS
 62
     7
 10
-1075.01955
 20
-1810.8726283852
 30
0.0
 40
9.513057058589943
 50
3.83098160911833
 51
81.13514730980292
  0
ARC
  5
4E7
  8
DATA
  6
CONTINUOUS
 62
     7
 10
-1106.05035
 20
-1810.7777783852
 30
0.0
 40
9.498649664557277
 50
98.2269238590181
 51
176.1541266921519
  0
ARC
  5
4E8
  8
DATA
  6
CONTINUOUS
 62
     7
 10
-1072.60572022603
 20
-1811.822971567334
 30
0.0
 40
1.593915574091886
 50
37.64190249756148
 51
84.26701928939578
  0
LINE
  5
4E9
  8
DATA
  6
CONTINUOUS
 62
     7
 10
-1097.72325
 20
-1852.7646283852
 30
0.0
 11
-1115.52765
 21
-1845.2923283852
 31
0.0
  0
LINE
  5
4EA
  8
DATA
  6
CONTINUOUS
 62
     7
 10
-1097.72325
 20
-1852.7646283852
 30
0.0
 11
-1115.52765
 21
-1860.144728385199
 31
0.0
  0
LINE
  5
4EB
  8
DATA
  6
CONTINUOUS
 62
     7
 10
-1065.52765
 20
-1796.1226283852
 30
0.0
 11
-1115.52765
 21
-1796.1226283852
 31
0.0
  0
LINE
  5
4EC
  8
DATA
  6
CONTINUOUS
 62
     7
 10
-1115.52765
 20
-1786.528528385201
 30
0.0
 11
-1073.184450000001
 21
-1786.528528385201
 31
0.0
  0
LINE
  5
4ED
  8
DATA
  6
CONTINUOUS
 62
     7
 10
-1115.52765
 20
-1841.7867783852
 30
0.0
 11
-1073.184450000001
 21
-1841.7867783852
 31
0.0
  0
LINE
  5
4EE
  8
DATA
  6
CONTINUOUS
 62
     7
 10
-1115.52765
 20
-1832.5616783852
 30
0.0
 11
-1073.184450000001
 21
-1832.5616783852
 31
0.0
  0
LINE
  5
4EF
  8
DATA
  6
CONTINUOUS
 62
     7
 10
-1115.52765
 20
-1827.7646283852
 30
0.0
 11
-1065.52765
 21
-1827.7646283852
 31
0.0
  0
LINE
  5
4F0
  8
DATA
  6
CONTINUOUS
 62
     7
 10
-1110.822900000001
 20
-1819.369778385199
 30
0.0
 11
-1094.7712
 21
-1819.369778385199
 31
0.0
  0
LINE
  5
4F1
  8
DATA
  6
CONTINUOUS
 62
     7
 10
-1095.7
 20
-1801.3768783852
 30
0.0
 11
-1107.409550000001
 21
-1801.3768783852
 31
0.0
  0
LINE
  5
4F2
  8
DATA
  6
CONTINUOUS
 62
     7
 10
-1108.608850000001
 20
-1810.2370283852
 30
0.0
 11
-1096.9852
 21
-1810.2370283852
 31
0.0
  0
LINE
  5
4F3
  8
DATA
  6
CONTINUOUS
 62
     7
 10
-1081.210350000001
 20
-1848.7978283852
 30
0.0
 11
-1073.184550000001
 21
-1848.7978283852
 31
0.0
  0
LINE
  5
4F4
  8
DATA
  6
CONTINUOUS
 62
     7
 10
-1081.210350000001
 20
-1848.7978283852
 30
0.0
 11
-1081.210350000001
 21
-1857.100428385201
 31
0.0
  0
LINE
  5
4F5
  8
DATA
  6
CONTINUOUS
 62
     7
 10
-1081.210350000001
 20
-1857.100428385201
 30
0.0
 11
-1073.184550000001
 21
-1857.100428385201
 31
0.0
  0
ARC
  5
4F6
  8
DATA
  6
CONTINUOUS
 62
     7
 10
-1073.076350000001
 20
-1845.2747283852
 30
0.0
 40
3.489644131212
 50
359.7118487927503
 51
91.77598700567819
  0
ARC
  5
4F7
  8
DATA
  6
CONTINUOUS
 62
     7
 10
-1073.076350000001
 20
-1845.3098783852
 30
0.0
 40
3.489626287297539
 50
268.2240129943206
 51
0.2881512072598866
  0
ARC
  5
4F8
  8
DATA
  6
CONTINUOUS
 62
     7
 10
-1073.467200000001
 20
-1851.273228385201
 30
0.0
 40
5.834001040881028
 50
272.7769954499947
 51
297.3596066671555
  0
CIRCLE
  5
4F9
  8
DATA
  6
CONTINUOUS
 62
     7
 10
-1090.8044
 20
-1852.257228385201
 30
0.0
 40
4.750900000000456
  0
LINE
  5
4FA
  8
DATA
  6
CONTINUOUS
 62
     7
 10
-1065.527700000001
 20
-1771.1226283852
 30
0.0
 11
-1065.527700000001
 21
-1796.1226283852
 31
0.0
  0
LINE
  5
4FB
  8
DATA
  6
CONTINUOUS
 62
     7
 10
-1065.527700000001
 20
-1771.1226283852
 30
0.0
 11
-1081.210400000001
 21
-1771.1226283852
 31
0.0
  0
LINE
  5
4FC
  8
DATA
  6
CONTINUOUS
 62
     7
 10
-1081.210350000001
 20
-1771.1226283852
 30
0.0
 11
-1081.210350000001
 21
-1779.5174283852
 31
0.0
  0
LINE
  5
4FD
  8
DATA
  6
CONTINUOUS
 62
     7
 10
-1081.210350000001
 20
-1779.5174283852
 30
0.0
 11
-1073.184550000001
 21
-1779.5174283852
 31
0.0
  0
LINE
  5
4FE
  8
DATA
  6
CONTINUOUS
 62
     7
 10
-1065.527700000001
 20
-1827.7646283852
 30
0.0
 11
-1065.527750000001
 21
-1810.2370283852
 31
0.0
  0
LINE
  5
4FF
  8
DATA
  6
CONTINUOUS
 62
     7
 10
-1070.232500000001
 20
-1819.3698283852
 30
0.0
 11
-1070.232500000001
 21
-1814.8495283852
 31
0.0
  0
LINE
  5
500
  8
DATA
  6
CONTINUOUS
 62
     7
 10
-1070.232500000001
 20
-1819.369778385199
 30
0.0
 11
-1089.9742
 21
-1819.369778385199
 31
0.0
  0
LINE
  5
501
  8
DATA
  6
CONTINUOUS
 62
     7
 10
-1089.9742
 20
-1819.3698283852
 30
0.0
 11
-1089.9742
 21
-1814.8495283852
 31
0.0
  0
LINE
  5
502
  8
DATA
  6
CONTINUOUS
 62
     7
 10
-1072.446500000001
 20
-1810.2370283852
 30
0.0
 11
-1087.7602
 21
-1810.2370283852
 31
0.0
  0
ARC
  5
503
  8
DATA
  6
CONTINUOUS
 62
     7
 10
-1073.467200000001
 20
-1838.3888783852
 30
0.0
 40
5.833992739325586
 50
62.64039333284375
 51
87.22300455000557
  0
ARC
  5
504
  8
DATA
  6
CONTINUOUS
 62
     7
 10
-1073.076350000001
 20
-1783.0054283852
 30
0.0
 40
3.489644131212
 50
359.7118487927503
 51
91.77598700567819
  0
ARC
  5
505
  8
DATA
  6
CONTINUOUS
 62
     7
 10
-1073.076350000001
 20
-1783.0405283852
 30
0.0
 40
3.489626287297539
 50
268.2240129943206
 51
0.288151207229987
  0
LINE
  5
506
  8
DATA
  6
CONTINUOUS
 62
     7
 10
-1073.55355
 20
-1801.380928385201
 30
0.0
 11
-1086.837650000001
 21
-1801.380928385201
 31
0.0
  0
LINE
  5
507
  8
DATA
  6
CONTINUOUS
 62
     7
 10
-1094.7712
 20
-1819.3698283852
 30
0.0
 11
-1094.7712
 21
-1814.8495283852
 31
0.0
  0
LINE
  5
508
  8
DATA
  6
CONTINUOUS
 62
     7
 10
-1115.52765
 20
-1841.7867783852
 30
0.0
 11
-1115.52765
 21
-1832.5616783852
 31
0.0
  0
LINE
  5
509
  8
DATA
  6
CONTINUOUS
 62
     7
 10
-1115.52765
 20
-1860.144728385199
 30
0.0
 11
-1115.52765
 21
-1845.2923283852
 31
0.0
  0
LINE
  5
50A
  8
DATA
  6
CONTINUOUS
 62
     7
 10
-1115.52765
 20
-1796.1226283852
 30
0.0
 11
-1115.52765
 21
-1786.528528385201
 31
0.0
  0
LINE
  5
50B
  8
DATA
  6
CONTINUOUS
 62
     7
 10
-1115.52765
 20
-1827.7646283852
 30
0.0
 11
-1115.527609531299
 21
-1810.140677744466
 31
0.0
  0
LINE
  5
50C
  8
DATA
  6
CONTINUOUS
 62
     7
 10
-1110.82285
 20
-1819.3698283852
 30
0.0
 11
-1110.82285
 21
-1814.8495283852
 31
0.0
  0
ARC
  5
50D
  8
DATA
  6
CONTINUOUS
 62
     7
 10
-1079.000939802936
 20
-1814.796151072183
 30
0.0
 40
8.768602266909404
 50
359.6512199376124
 51
12.82648280687027
  0
ARC
  5
50E
  8
DATA
  6
CONTINUOUS
 62
     7
 10
-1075.293748443865
 20
-1813.811298247866
 30
0.0
 40
4.937189518466491
 50
11.23310362265284
 51
36.86200889405372
  0
ARC
  5
50F
  8
DATA
  6
CONTINUOUS
 62
     7
 10
-1087.600979773972
 20
-1811.822971567334
 30
0.0
 40
1.593915574092766
 50
95.73298071056846
 51
142.3580975024227
  0
ARC
  5
510
  8
DATA
  6
CONTINUOUS
 62
     7
 10
-1081.205760197066
 20
-1814.796151072183
 30
0.0
 40
8.768602266908099
 50
167.1735171931281
 51
180.3487800623876
  0
ARC
  5
511
  8
DATA
  6
CONTINUOUS
 62
     7
 10
-1084.912951556137
 20
-1813.811298247866
 30
0.0
 40
4.937189518465324
 50
143.13799110595
 51
168.7668963773446
  0
ARC
  5
512
  8
DATA
  6
CONTINUOUS
 62
     7
 10
-1086.5106
 20
-1806.2193283852
 30
0.0
 40
4.849440819568479
 50
93.86700635983148
 51
178.3616345678905
  0
ARC
  5
513
  8
DATA
  6
CONTINUOUS
 62
     7
 10
-1096.2102
 20
-1806.223778385201
 30
0.0
 40
4.854259699737216
 50
1.68928210465139
 51
86.07828298266408
  0
ARC
  5
514
  8
DATA
  6
CONTINUOUS
 62
     7
 10
-1097.14442022603
 20
-1811.822971567334
 30
0.0
 40
1.593915574091886
 50
37.64190249756148
 51
84.26701928938765
  0
ARC
  5
515
  8
DATA
  6
CONTINUOUS
 62
     7
 10
-1103.539639802935
 20
-1814.796151072183
 30
0.0
 40
8.768602266908951
 50
359.6512199376124
 51
12.82648280687062
  0
ARC
  5
516
  8
DATA
  6
CONTINUOUS
 62
     7
 10
-1099.832448443865
 20
-1813.811298247866
 30
0.0
 40
4.937189518465599
 50
11.2331036226549
 51
36.86200889405004
  0
ARC
  5
517
  8
DATA
  6
CONTINUOUS
 62
     7
 10
-1108.449629773971
 20
-1811.822971567334
 30
0.0
 40
1.593915574092903
 50
95.73298071061721
 51
142.3580975024276
  0
ARC
  5
518
  8
DATA
  6
CONTINUOUS
 62
     7
 10
-1102.054410197065
 20
-1814.796151072183
 30
0.0
 40
8.768602266908985
 50
167.1735171931294
 51
180.3487800623876
  0
ARC
  5
519
  8
DATA
  6
CONTINUOUS
 62
     7
 10
-1105.761601556136
 20
-1813.811298247866
 30
0.0
 40
4.937189518465324
 50
143.13799110595
 51
168.7668963773451
  0
ARC
  5
51A
  8
DATA
  6
CONTINUOUS
 62
     7
 10
-1028.0
 20
-1644.180707590669
 30
0.0
 40
15.0
 50
0.0
 51
79.40266485497666
  0
ARC
  5
51B
  8
DATA
  6
CONTINUOUS
 62
     7
 10
-1028.0
 20
-1984.273049179732
 30
0.0
 40
14.99999999999932
 50
280.5973351450238
 51
0.0000000000017053
  0
LINE
  5
51C
  8
DATA
  6
CONTINUOUS
 62
     7
 10
-1554.5
 20
-122.0
 30
0.0
 11
-1554.5
 21
-1547.0
 31
0.0
  0
LINE
  5
51D
  8
DATA
  6
CONTINUOUS
 62
     7
 10
-1645.5
 20
-122.0
 30
0.0
 11
-1645.5
 21
-1547.0
 31
0.0
  0
LINE
  5
51E
  8
DATA
  6
CONTINUOUS
 62
     7
 10
-1554.5
 20
-832.0
 30
0.0
 11
-1645.5
 21
-832.0
 31
0.0
  0
LINE
  5
51F
  8
DATA
  6
CONTINUOUS
 62
     7
 10
-1556.6
 20
-840.5
 30
0.0
 11
-1556.6
 21
-1535.5
 31
0.0
  0
LINE
  5
520
  8
DATA
  6
CONTINUOUS
 62
     7
 10
-1643.4
 20
-840.5
 30
0.0
 11
-1643.4
 21
-1535.5
 31
0.0
  0
LINE
  5
521
  8
DATA
  6
CONTINUOUS
 62
     7
 10
-1558.3
 20
-840.5
 30
0.0
 11
-1558.3
 21
-1535.5
 31
0.0
  0
LINE
  5
522
  8
DATA
  6
CONTINUOUS
 62
     7
 10
-1641.7
 20
-840.5
 30
0.0
 11
-1641.7
 21
-1535.5
 31
0.0
  0
LINE
  5
523
  8
DATA
  6
CONTINUOUS
 62
     7
 10
-1556.6
 20
-840.5
 30
0.0
 11
-1643.4
 21
-840.5
 31
0.0
  0
LINE
  5
524
  8
DATA
  6
CONTINUOUS
 62
     7
 10
-1556.6
 20
-1535.5
 30
0.0
 11
-1643.4
 21
-1535.5
 31
0.0
  0
LINE
  5
525
  8
DATA
  6
CONTINUOUS
 62
     7
 10
-1559.0
 20
-114.0
 30
0.0
 11
-1641.0
 21
-114.0
 31
0.0
  0
LINE
  5
526
  8
DATA
  6
CONTINUOUS
 62
     7
 10
-1556.6
 20
-823.5
 30
0.0
 11
-1556.6
 21
-131.0
 31
0.0
  0
LINE
  5
527
  8
DATA
  6
CONTINUOUS
 62
     7
 10
-1643.4
 20
-823.5
 30
0.0
 11
-1643.4
 21
-131.0
 31
0.0
  0
LINE
  5
528
  8
DATA
  6
CONTINUOUS
 62
     7
 10
-1558.3
 20
-823.5
 30
0.0
 11
-1558.3
 21
-131.0
 31
0.0
  0
LINE
  5
529
  8
DATA
  6
CONTINUOUS
 62
     7
 10
-1641.7
 20
-823.5
 30
0.0
 11
-1641.7
 21
-131.0
 31
0.0
  0
LINE
  5
52A
  8
DATA
  6
CONTINUOUS
 62
     7
 10
-1556.6
 20
-823.5
 30
0.0
 11
-1643.4
 21
-823.5
 31
0.0
  0
LINE
  5
52B
  8
DATA
  6
CONTINUOUS
 62
     7
 10
-1554.5
 20
-131.0
 30
0.0
 11
-1645.5
 21
-131.0
 31
0.0
  0
LINE
  5
52C
  8
DATA
  6
CONTINUOUS
 62
     7
 10
-1287.0
 20
-122.0
 30
0.0
 11
-1287.0
 21
-131.0
 31
0.0
  0
LINE
  5
52D
  8
DATA
  6
CONTINUOUS
 62
     7
 10
-1287.0
 20
-823.5
 30
0.0
 11
-1287.0
 21
-840.5
 31
0.0
  0
LINE
  5
52E
  8
DATA
  6
CONTINUOUS
 62
     7
 10
-1287.0
 20
-1535.5
 30
0.0
 11
-1287.0
 21
-1547.0
 31
0.0
  0
LINE
  5
52F
  8
DATA
  6
CONTINUOUS
 62
     7
 10
-1203.0
 20
-124.0
 30
0.0
 11
-1203.0
 21
-1547.0
 31
0.0
  0
LINE
  5
530
  8
DATA
  6
CONTINUOUS
 62
     7
 10
-1554.5
 20
-122.0
 30
0.0
 11
-1645.5
 21
-122.0
 31
0.0
  0
LINE
  5
531
  8
DATA
  6
CONTINUOUS
 62
     7
 10
-1203.0
 20
-124.0
 30
0.0
 11
-1287.0
 21
-122.0
 31
0.0
  0
LINE
  5
532
  8
DATA
  6
CONTINUOUS
 62
     7
 10
-1645.5
 20
-122.0
 30
0.0
 11
-1641.0
 21
-114.0
 31
0.0
  0
LINE
  5
533
  8
DATA
  6
CONTINUOUS
 62
     7
 10
-1559.0
 20
-114.0
 30
0.0
 11
-1554.5
 21
-122.0
 31
0.0
  0
LINE
  5
534
  8
DATA
  6
CONTINUOUS
 62
     7
 10
-1206.5
 20
-114.0
 30
0.0
 11
-1283.5
 21
-114.0
 31
0.0
  0
LINE
  5
535
  8
DATA
  6
CONTINUOUS
 62
     7
 10
-1287.0
 20
-122.0
 30
0.0
 11
-1283.5
 21
-114.0
 31
0.0
  0
LINE
  5
536
  8
DATA
  6
CONTINUOUS
 62
     7
 10
-1206.5
 20
-114.0
 30
0.0
 11
-1203.0
 21
-124.0
 31
0.0
  0
LINE
  5
537
  8
DATA
  6
CONTINUOUS
 62
     7
 10
-1203.0
 20
-832.0
 30
0.0
 11
-1287.0
 21
-832.0
 31
0.0
  0
LINE
  5
538
  8
DATA
  6
CONTINUOUS
 62
     7
 10
-1645.5
 20
30.0
 30
0.0
 11
-1645.5
 21
84.0
 31
0.0
  0
LINE
  5
539
  8
DATA
  6
CONTINUOUS
 62
     7
 10
-1554.5
 20
30.0
 30
0.0
 11
-1554.5
 21
84.0
 31
0.0
  0
LINE
  5
53A
  8
DATA
  6
CONTINUOUS
 62
     7
 10
-1570.0
 20
13.0
 30
0.0
 11
-1630.0
 21
13.0
 31
0.0
  0
LINE
  5
53B
  8
DATA
  6
CONTINUOUS
 62
     7
 10
-1641.0
 20
30.13893622743052
 30
0.0
 11
-1641.0
 21
82.60986338594364
 31
0.0
  0
LINE
  5
53C
  8
DATA
  6
CONTINUOUS
 62
     7
 10
-1559.0
 20
30.13893622743052
 30
0.0
 11
-1559.0
 21
82.60986338594364
 31
0.0
  0
LINE
  5
53D
  8
DATA
  6
CONTINUOUS
 62
     7
 10
-1628.564499322049
 20
16.5
 30
0.0
 11
-1571.435500677951
 21
16.5
 31
0.0
  0
ARC
  5
53E
  8
DATA
  6
CONTINUOUS
 62
     7
 10
-1600.0
 20
10.875
 30
0.0
 40
86.125
 50
58.10920819815429
 51
121.8907918018457
  0
ARC
  5
53F
  8
DATA
  6
CONTINUOUS
 62
     7
 10
-1600.0
 20
10.875
 30
0.0
 40
82.62499999999993
 50
60.24991103599321
 51
119.7500889640067
  0
LINE
  5
540
  8
DATA
  6
CONTINUOUS
 62
     7
 10
-1630.0
 20
-122.0
 30
0.0
 11
-1630.0
 21
-1547.0
 31
0.0
  0
LINE
  5
541
  8
DATA
  6
CONTINUOUS
 62
     7
 10
-1570.0
 20
-122.0
 30
0.0
 11
-1570.0
 21
-1547.0
 31
0.0
  0
LINE
  5
542
  8
DATA
  6
CONTINUOUS
 62
     7
 10
-1630.0
 20
-122.0
 30
0.0
 11
-1625.5
 21
-114.0
 31
0.0
  0
LINE
  5
543
  8
DATA
  6
CONTINUOUS
 62
     7
 10
-1574.5
 20
-114.0
 30
0.0
 11
-1570.0
 21
-122.0
 31
0.0
  0
LINE
  5
544
  8
DATA
  6
CONTINUOUS
 62
     7
 10
-1645.5
 20
30.0
 30
0.0
 11
-1630.0
 21
13.0
 31
0.0
  0
LINE
  5
545
  8
DATA
  6
CONTINUOUS
 62
     7
 10
-1570.0
 20
13.0
 30
0.0
 11
-1554.5
 21
30.0
 31
0.0
  0
LINE
  5
546
  8
DATA
  6
CONTINUOUS
 62
     7
 10
-1641.0
 20
30.13893622743052
 30
0.0
 11
-1628.564499322049
 21
16.5
 31
0.0
  0
LINE
  5
547
  8
DATA
  6
CONTINUOUS
 62
     7
 10
-1559.0
 20
30.13893622743052
 30
0.0
 11
-1571.435500677951
 21
16.5
 31
0.0
  0
ARC
  5
548
  8
DATA
  6
CONTINUOUS
 62
     7
 10
-1600.0
 20
10.875
 30
0.0
 40
77.62499999999999
 50
63.19947828261986
 51
116.8005217173801
  0
LINE
  5
549
  8
DATA
  6
CONTINUOUS
 62
     7
 10
-1626.357018692444
 20
21.5
 30
0.0
 11
-1573.642981307556
 21
21.5
 31
0.0
  0
LINE
  5
54A
  8
DATA
  6
CONTINUOUS
 62
     7
 10
-1635.0
 20
30.97939885344823
 30
0.0
 11
-1635.0
 21
80.16165546120698
 31
0.0
  0
LINE
  5
54B
  8
DATA
  6
CONTINUOUS
 62
     7
 10
-1565.0
 20
30.97939885344823
 30
0.0
 11
-1565.0
 21
80.16165546120695
 31
0.0
  0
LINE
  5
54C
  8
DATA
  6
CONTINUOUS
 62
     7
 10
-1635.0
 20
30.97939885344823
 30
0.0
 11
-1626.357018692444
 21
21.5
 31
0.0
  0
LINE
  5
54D
  8
DATA
  6
CONTINUOUS
 62
     7
 10
-1565.0
 20
30.97939885344823
 30
0.0
 11
-1573.642981307556
 21
21.5
 31
0.0
  0
POLYLINE
  5
54E
  8
DATA
  6
CONTINUOUS
 62
     7
 66
     1
 10
0.0
 20
0.0
 30
0.0
 70
     1
  0
VERTEX
  5
A3C
  8
DATA
  6
CONTINUOUS
 62
     7
 10
-1615.0
 20
-160.5
 30
0.0
  0
VERTEX
  5
A3D
  8
DATA
  6
CONTINUOUS
 62
     7
 10
-1585.0
 20
-160.5
 30
0.0
  0
VERTEX
  5
A3E
  8
DATA
  6
CONTINUOUS
 62
     7
 10
-1585.0
 20
-192.5
 30
0.0
  0
VERTEX
  5
A3F
  8
DATA
  6
CONTINUOUS
 62
     7
 10
-1615.0
 20
-192.5
 30
0.0
  0
SEQEND
  5
A69
  8
DATA
  6
CONTINUOUS
 62
     7
  0
ARC
  5
555
  8
DATA
  6
CONTINUOUS
 62
     7
 10
-1605.88222
 20
-175.42667
 30
0.0
 40
2.578853425167869
 50
264.6908562215336
 51
323.9911991542406
  0
ARC
  5
556
  8
DATA
  6
CONTINUOUS
 62
     7
 10
-1606.35945
 20
-175.42667
 30
0.0
 40
2.578849236946597
 50
216.0088008457586
 51
275.3091437784639
  0
ARC
  5
557
  8
DATA
  6
CONTINUOUS
 62
     7
 10
-1599.32915
 20
-176.09609
 30
0.0
 40
1.902611411718148
 50
273.830981609118
 51
351.1351473098022
  0
ARC
  5
558
  8
DATA
  6
CONTINUOUS
 62
     7
 10
-1599.31018
 20
-169.88993
 30
0.0
 40
1.899729932911626
 50
8.226923859015255
 51
86.15412669215209
  0
ARC
  5
559
  8
DATA
  6
CONTINUOUS
 62
     7
 10
-1599.519218636427
 20
-176.5788559547942
 30
0.0
 40
0.3187831148185611
 50
307.6419024975876
 51
354.2670192893901
  0
LINE
  5
55A
  8
DATA
  6
CONTINUOUS
 62
     7
 10
-1607.70755
 20
-171.55535
 30
0.0
 11
-1606.21309
 21
-167.99447
 31
0.0
  0
LINE
  5
55B
  8
DATA
  6
CONTINUOUS
 62
     7
 10
-1607.70755
 20
-171.55535
 30
0.0
 11
-1609.18357
 21
-167.99447
 31
0.0
  0
LINE
  5
55C
  8
DATA
  6
CONTINUOUS
 62
     7
 10
-1596.37915
 20
-177.99447
 30
0.0
 11
-1596.37915
 21
-167.99447
 31
0.0
  0
LINE
  5
55D
  8
DATA
  6
CONTINUOUS
 62
     7
 10
-1594.46033
 20
-167.99447
 30
0.0
 11
-1594.46033
 21
-176.46311
 31
0.0
  0
LINE
  5
55E
  8
DATA
  6
CONTINUOUS
 62
     7
 10
-1605.51198
 20
-167.99447
 30
0.0
 11
-1605.51198
 21
-176.46311
 31
0.0
  0
LINE
  5
55F
  8
DATA
  6
CONTINUOUS
 62
     7
 10
-1603.66696
 20
-167.99447
 30
0.0
 11
-1603.66696
 21
-176.46311
 31
0.0
  0
LINE
  5
560
  8
DATA
  6
CONTINUOUS
 62
     7
 10
-1602.70755
 20
-167.99447
 30
0.0
 11
-1602.70755
 21
-177.99447
 31
0.0
  0
LINE
  5
561
  8
DATA
  6
CONTINUOUS
 62
     7
 10
-1601.02858
 20
-168.93542
 30
0.0
 11
-1601.02858
 21
-172.14576
 31
0.0
  0
LINE
  5
562
  8
DATA
  6
CONTINUOUS
 62
     7
 10
-1597.43
 20
-171.96
 30
0.0
 11
-1597.43
 21
-169.61809
 31
0.0
  0
LINE
  5
563
  8
DATA
  6
CONTINUOUS
 62
     7
 10
-1599.20203
 20
-169.37823
 30
0.0
 11
-1599.20203
 21
-171.70296
 31
0.0
  0
LINE
  5
564
  8
DATA
  6
CONTINUOUS
 62
     7
 10
-1606.91419
 20
-174.85793
 30
0.0
 11
-1606.91419
 21
-176.46309
 31
0.0
  0
LINE
  5
565
  8
DATA
  6
CONTINUOUS
 62
     7
 10
-1606.91419
 20
-174.85793
 30
0.0
 11
-1608.57471
 21
-174.85793
 31
0.0
  0
LINE
  5
566
  8
DATA
  6
CONTINUOUS
 62
     7
 10
-1608.57471
 20
-174.85793
 30
0.0
 11
-1608.57471
 21
-176.46309
 31
0.0
  0
ARC
  5
567
  8
DATA
  6
CONTINUOUS
 62
     7
 10
-1606.20957
 20
-176.48473
 30
0.0
 40
0.6979288262422862
 50
269.7118487927503
 51
1.775987005686773
  0
ARC
  5
568
  8
DATA
  6
CONTINUOUS
 62
     7
 10
-1606.2166
 20
-176.48473
 30
0.0
 40
0.6979252574595565
 50
178.2240129943123
 51
270.2881512072337
  0
ARC
  5
569
  8
DATA
  6
CONTINUOUS
 62
     7
 10
-1607.40927
 20
-176.40656
 30
0.0
 40
1.166800208176202
 50
182.7769954499913
 51
207.3596066671465
  0
CIRCLE
  5
56A
  8
DATA
  6
CONTINUOUS
 62
     7
 10
-1607.60607
 20
-172.93912
 30
0.0
 40
0.9501800000000458
  0
LINE
  5
56B
  8
DATA
  6
CONTINUOUS
 62
     7
 10
-1591.37915
 20
-177.99446
 30
0.0
 11
-1596.37915
 21
-177.99446
 31
0.0
  0
LINE
  5
56C
  8
DATA
  6
CONTINUOUS
 62
     7
 10
-1591.37915
 20
-177.99446
 30
0.0
 11
-1591.37915
 21
-174.85792
 31
0.0
  0
LINE
  5
56D
  8
DATA
  6
CONTINUOUS
 62
     7
 10
-1591.37915
 20
-174.85793
 30
0.0
 11
-1593.05811
 21
-174.85793
 31
0.0
  0
LINE
  5
56E
  8
DATA
  6
CONTINUOUS
 62
     7
 10
-1593.05811
 20
-174.85793
 30
0.0
 11
-1593.05811
 21
-176.46309
 31
0.0
  0
LINE
  5
56F
  8
DATA
  6
CONTINUOUS
 62
     7
 10
-1602.70755
 20
-177.99446
 30
0.0
 11
-1599.20203
 21
-177.99445
 31
0.0
  0
LINE
  5
570
  8
DATA
  6
CONTINUOUS
 62
     7
 10
-1601.02859
 20
-177.0535
 30
0.0
 11
-1600.12453
 21
-177.0535
 31
0.0
  0
LINE
  5
571
  8
DATA
  6
CONTINUOUS
 62
     7
 10
-1601.02858
 20
-177.0535
 30
0.0
 11
-1601.02858
 21
-173.10516
 31
0.0
  0
LINE
  5
572
  8
DATA
  6
CONTINUOUS
 62
     7
 10
-1601.02859
 20
-173.10516
 30
0.0
 11
-1600.12453
 21
-173.10516
 31
0.0
  0
LINE
  5
573
  8
DATA
  6
CONTINUOUS
 62
     7
 10
-1599.20203
 20
-176.6107
 30
0.0
 11
-1599.20203
 21
-173.54796
 31
0.0
  0
ARC
  5
574
  8
DATA
  6
CONTINUOUS
 62
     7
 10
-1604.8324
 20
-176.40656
 30
0.0
 40
1.166798547865079
 50
332.6403933328522
 51
357.2230045500052
  0
ARC
  5
575
  8
DATA
  6
CONTINUOUS
 62
     7
 10
-1593.75571
 20
-176.48473
 30
0.0
 40
0.6979288262422862
 50
269.7118487927503
 51
1.775987005686773
  0
ARC
  5
576
  8
DATA
  6
CONTINUOUS
 62
     7
 10
-1593.76273
 20
-176.48473
 30
0.0
 40
0.6979252574597837
 50
178.2240129943129
 51
270.2881512072524
  0
LINE
  5
577
  8
DATA
  6
CONTINUOUS
 62
     7
 10
-1597.43081
 20
-176.38929
 30
0.0
 11
-1597.43081
 21
-173.73247
 31
0.0
  0
LINE
  5
578
  8
DATA
  6
CONTINUOUS
 62
     7
 10
-1601.02859
 20
-172.14576
 30
0.0
 11
-1600.12453
 21
-172.14576
 31
0.0
  0
LINE
  5
579
  8
DATA
  6
CONTINUOUS
 62
     7
 10
-1605.51198
 20
-167.99447
 30
0.0
 11
-1603.66696
 21
-167.99447
 31
0.0
  0
LINE
  5
57A
  8
DATA
  6
CONTINUOUS
 62
     7
 10
-1609.18357
 20
-167.99447
 30
0.0
 11
-1606.21309
 21
-167.99447
 31
0.0
  0
LINE
  5
57B
  8
DATA
  6
CONTINUOUS
 62
     7
 10
-1596.37915
 20
-167.99447
 30
0.0
 11
-1594.46033
 21
-167.99447
 31
0.0
  0
LINE
  5
57C
  8
DATA
  6
CONTINUOUS
 62
     7
 10
-1602.70755
 20
-167.99447
 30
0.0
 11
-1599.182759871853
 21
-167.9944780937404
 31
0.0
  0
LINE
  5
57D
  8
DATA
  6
CONTINUOUS
 62
     7
 10
-1601.02859
 20
-168.93543
 30
0.0
 11
-1600.12453
 21
-168.93543
 31
0.0
  0
ARC
  5
57E
  8
DATA
  6
CONTINUOUS
 62
     7
 10
-1600.113854537397
 20
-175.299812039413
 30
0.0
 40
1.753720453381722
 50
269.6512199376139
 51
282.8264828068725
  0
ARC
  5
57F
  8
DATA
  6
CONTINUOUS
 62
     7
 10
-1599.916883972533
 20
-176.0412503112271
 30
0.0
 40
0.9874379036932399
 50
281.2331036226697
 51
306.8620088940754
  0
ARC
  5
580
  8
DATA
  6
CONTINUOUS
 62
     7
 10
-1599.519218636427
 20
-173.5798040452058
 30
0.0
 40
0.3187831148185307
 50
5.732980710609906
 51
52.35809750240617
  0
ARC
  5
581
  8
DATA
  6
CONTINUOUS
 62
     7
 10
-1600.113854537397
 20
-174.858847960587
 30
0.0
 40
1.753720453381796
 50
77.17351719312788
 51
90.34878006238611
  0
ARC
  5
582
  8
DATA
  6
CONTINUOUS
 62
     7
 10
-1599.916883972533
 20
-174.1174096887729
 30
0.0
 40
0.9874379036933921
 50
53.13799110592464
 51
78.76689637733098
  0
ARC
  5
583
  8
DATA
  6
CONTINUOUS
 62
     7
 10
-1598.39849
 20
-173.79788
 30
0.0
 40
0.9698881639139527
 50
3.867006359816984
 51
88.36163456789046
  0
ARC
  5
584
  8
DATA
  6
CONTINUOUS
 62
     7
 10
-1598.39938
 20
-171.85796
 30
0.0
 40
0.9708519399476069
 50
271.6892821046376
 51
356.0782829826536
  0
ARC
  5
585
  8
DATA
  6
CONTINUOUS
 62
     7
 10
-1599.519218636427
 20
-171.6711159547942
 30
0.0
 40
0.3187831148185611
 50
307.6419024975876
 51
354.2670192894003
  0
ARC
  5
586
  8
DATA
  6
CONTINUOUS
 62
     7
 10
-1600.113854537397
 20
-170.3920720394131
 30
0.0
 40
1.753720453381722
 50
269.6512199376139
 51
282.8264828068725
  0
ARC
  5
587
  8
DATA
  6
CONTINUOUS
 62
     7
 10
-1599.916883972533
 20
-171.1335103112272
 30
0.0
 40
0.9874379036932399
 50
281.2331036226697
 51
306.8620088940754
  0
ARC
  5
588
  8
DATA
  6
CONTINUOUS
 62
     7
 10
-1599.519218636427
 20
-169.4100740452058
 30
0.0
 40
0.318783114818525
 50
5.732980710599741
 51
52.35809750240617
  0
ARC
  5
589
  8
DATA
  6
CONTINUOUS
 62
     7
 10
-1600.113854537397
 20
-170.6891179605869
 30
0.0
 40
1.753720453381741
 50
77.17351719312747
 51
90.34878006238611
  0
ARC
  5
58A
  8
DATA
  6
CONTINUOUS
 62
     7
 10
-1599.916883972533
 20
-169.9476796887729
 30
0.0
 40
0.9874379036933921
 50
53.13799110592464
 51
78.76689637733098
  0
LINE
  5
58B
  8
DATA
  6
CONTINUOUS
 62
     7
 10
-1615.0
 20
-185.5
 30
0.0
 11
-1585.0
 21
-185.5
 31
0.0
  0
TEXT
  5
58C
  8
DATA
 62
     7
 10
-1613.460562246817
 20
-190.6967095269097
 30
0.0
 40
3.393419053819445
  1
PROFESSIONAL
 41
0.7
 72
     1
 11
-1600.0
 21
-189.0
 31
0.0
 73
     2
  0
LINE
  5
58D
  8
DATA
  6
CONTINUOUS
 62
     7
 10
-1270.0
 20
-122.4047619047619
 30
0.0
 11
-1270.0
 21
-1547.0
 31
0.0
  0
LINE
  5
58E
  8
DATA
  6
CONTINUOUS
 62
     7
 10
-1216.0
 20
-123.6904761904761
 30
0.0
 11
-1216.0
 21
-1547.0
 31
0.0
  0
LINE
  5
58F
  8
DATA
  6
CONTINUOUS
 62
     7
 10
-1219.5
 20
-113.6904761904761
 30
0.0
 11
-1216.0
 21
-123.6904761904761
 31
0.0
  0
LINE
  5
590
  8
DATA
  6
CONTINUOUS
 62
     7
 10
-1270.0
 20
-122.4047619047619
 30
0.0
 11
-1266.5
 21
-114.4047619047619
 31
0.0
  0
LINE
  5
591
  8
DATA
  6
CONTINUOUS
 62
     7
 10
-1253.0
 20
-131.0
 30
0.0
 11
-1253.0
 21
-823.5
 31
0.0
  0
LINE
  5
592
  8
DATA
  6
CONTINUOUS
 62
     7
 10
-1253.0
 20
-840.5
 30
0.0
 11
-1253.0
 21
-1535.5
 31
0.0
  0
LINE
  5
593
  8
DATA
  6
CONTINUOUS
 62
     7
 10
-1253.0
 20
-840.5
 30
0.0
 11
-1287.0
 21
-840.5
 31
0.0
  0
LINE
  5
594
  8
DATA
  6
CONTINUOUS
 62
     7
 10
-1253.0
 20
-1535.5
 30
0.0
 11
-1287.0
 21
-1535.5
 31
0.0
  0
LINE
  5
595
  8
DATA
  6
CONTINUOUS
 62
     7
 10
-1253.0
 20
-823.5
 30
0.0
 11
-1287.0
 21
-823.5
 31
0.0
  0
LINE
  5
596
  8
DATA
  6
CONTINUOUS
 62
     7
 10
-1253.0
 20
-131.0
 30
0.0
 11
-1287.0
 21
-131.0
 31
0.0
  0
LINE
  5
597
  8
DATA
  6
CONTINUOUS
 62
     7
 10
-604.5
 20
-122.0
 30
0.0
 11
-604.5
 21
-1547.0
 31
0.0
  0
LINE
  5
598
  8
DATA
  6
CONTINUOUS
 62
     7
 10
-695.5
 20
-122.0
 30
0.0
 11
-695.5
 21
-1547.0
 31
0.0
  0
LINE
  5
599
  8
DATA
  6
CONTINUOUS
 62
     7
 10
-604.5
 20
-832.0
 30
0.0
 11
-695.5
 21
-832.0
 31
0.0
  0
LINE
  5
59A
  8
DATA
  6
CONTINUOUS
 62
     7
 10
-609.0
 20
-114.0
 30
0.0
 11
-691.0
 21
-114.0
 31
0.0
  0
LINE
  5
59B
  8
DATA
  6
CONTINUOUS
 62
     7
 10
-604.5
 20
-122.0
 30
0.0
 11
-695.5
 21
-122.0
 31
0.0
  0
LINE
  5
59C
  8
DATA
  6
CONTINUOUS
 62
     7
 10
-695.5
 20
-122.0
 30
0.0
 11
-691.0
 21
-114.0
 31
0.0
  0
LINE
  5
59D
  8
DATA
  6
CONTINUOUS
 62
     7
 10
-609.0
 20
-114.0
 30
0.0
 11
-604.5
 21
-122.0
 31
0.0
  0
LINE
  5
59E
  8
DATA
  6
CONTINUOUS
 62
     7
 10
-1285.0
 20
-131.0
 30
0.0
 11
-1285.0
 21
-823.5
 31
0.0
  0
LINE
  5
59F
  8
DATA
  6
CONTINUOUS
 62
     7
 10
-1285.0
 20
-840.5
 30
0.0
 11
-1285.0
 21
-1535.5
 31
0.0
  0
ARC
  5
5A0
  8
DATA
  6
CONTINUOUS
 62
     7
 10
-662.0
 20
-955.0
 30
0.0
 40
10.0
 50
90.0
 51
270.0
  0
ARC
  5
5A1
  8
DATA
  6
CONTINUOUS
 62
     7
 10
-638.0
 20
-955.0
 30
0.0
 40
10.0
 50
270.0
 51
90.0
  0
LINE
  5
5A2
  8
DATA
  6
CONTINUOUS
 62
     7
 10
-662.0
 20
-945.0
 30
0.0
 11
-638.0
 21
-945.0
 31
0.0
  0
LINE
  5
5A3
  8
DATA
  6
CONTINUOUS
 62
     7
 10
-638.0
 20
-965.0
 30
0.0
 11
-662.0
 21
-965.0
 31
0.0
  0
CIRCLE
  5
5A4
  8
DATA
  6
CONTINUOUS
 62
     7
 10
-622.5
 20
-985.0
 30
0.0
 40
6.0
  0
CIRCLE
  5
5A5
  8
DATA
  6
CONTINUOUS
 62
     7
 10
-677.5
 20
-985.0
 30
0.0
 40
6.0
  0
CIRCLE
  5
5A6
  8
DATA
  6
CONTINUOUS
 62
     7
 10
-677.5
 20
-1266.0
 30
0.0
 40
6.0
  0
CIRCLE
  5
5A7
  8
DATA
  6
CONTINUOUS
 62
     7
 10
-622.5
 20
-1266.0
 30
0.0
 40
6.0
  0
ARC
  5
5A8
  8
DATA
  6
CONTINUOUS
 62
     7
 10
-662.0
 20
-732.0
 30
0.0
 40
10.0
 50
90.0
 51
270.0
  0
ARC
  5
5A9
  8
DATA
  6
CONTINUOUS
 62
     7
 10
-638.0
 20
-732.0
 30
0.0
 40
10.0
 50
270.0
 51
90.0
  0
LINE
  5
5AA
  8
DATA
  6
CONTINUOUS
 62
     7
 10
-662.0
 20
-722.0
 30
0.0
 11
-638.0
 21
-722.0
 31
0.0
  0
LINE
  5
5AB
  8
DATA
  6
CONTINUOUS
 62
     7
 10
-638.0
 20
-742.0
 30
0.0
 11
-662.0
 21
-742.0
 31
0.0
  0
CIRCLE
  5
5AC
  8
DATA
  6
CONTINUOUS
 62
     7
 10
-622.5
 20
-702.0
 30
0.0
 40
6.0
  0
CIRCLE
  5
5AD
  8
DATA
  6
CONTINUOUS
 62
     7
 10
-677.5
 20
-702.0
 30
0.0
 40
6.0
  0
CIRCLE
  5
5AE
  8
DATA
  6
CONTINUOUS
 62
     7
 10
-622.5
 20
-423.0
 30
0.0
 40
6.0
  0
CIRCLE
  5
5AF
  8
DATA
  6
CONTINUOUS
 62
     7
 10
-677.5
 20
-423.0
 30
0.0
 40
6.0
  0
POLYLINE
  5
5B0
  8
DATA
  6
CONTINUOUS
 62
     7
 66
     1
 10
0.0
 20
0.0
 30
0.0
 70
     1
  0
VERTEX
  5
A40
  8
DATA
  6
CONTINUOUS
 62
     7
 10
-660.0
 20
-1441.0
 30
0.0
  0
VERTEX
  5
A41
  8
DATA
  6
CONTINUOUS
 62
     7
 10
-640.0
 20
-1441.0
 30
0.0
  0
VERTEX
  5
A42
  8
DATA
  6
CONTINUOUS
 62
     7
 10
-640.0
 20
-1461.0
 30
0.0
  0
VERTEX
  5
A43
  8
DATA
  6
CONTINUOUS
 62
     7
 10
-660.0
 20
-1461.0
 30
0.0
  0
SEQEND
  5
A6A
  8
DATA
  6
CONTINUOUS
 62
     7
  0
LINE
  5
5B7
  8
DATA
  6
CONTINUOUS
 62
     7
 10
-660.0
 20
-1458.0
 30
0.0
 11
-640.0
 21
-1458.0
 31
0.0
  0
ARC
  5
5B8
  8
DATA
  6
CONTINUOUS
 62
     7
 10
-654.1175539999999
 20
-1451.198669
 30
0.0
 40
1.805197397617412
 50
264.6908562215333
 51
323.9911991542476
  0
ARC
  5
5B9
  8
DATA
  6
CONTINUOUS
 62
     7
 10
-654.451615
 20
-1451.198669
 30
0.0
 40
1.805194465862631
 50
216.0088008457567
 51
275.3091437784647
  0
ARC
  5
5BA
  8
DATA
  6
CONTINUOUS
 62
     7
 10
-649.530405
 20
-1451.667263
 30
0.0
 40
1.33182798820255
 50
273.8309816091145
 51
351.1351473098017
  0
ARC
  5
5BB
  8
DATA
  6
CONTINUOUS
 62
     7
 10
-649.517126
 20
-1447.322951
 30
0.0
 40
1.329810953038005
 50
8.226923859016582
 51
86.15412669215198
  0
ARC
  5
5BC
  8
DATA
  6
CONTINUOUS
 62
     7
 10
-649.6634530454987
 20
-1452.005199168356
 30
0.0
 40
0.2231481803727756
 50
307.6419024976085
 51
354.2670192894407
  0
LINE
  5
5BD
  8
DATA
  6
CONTINUOUS
 62
     7
 10
-655.3952850000001
 20
-1448.488745
 30
0.0
 11
-654.349163
 21
-1445.996129
 31
0.0
  0
LINE
  5
5BE
  8
DATA
  6
CONTINUOUS
 62
     7
 10
-655.3952850000001
 20
-1448.488745
 30
0.0
 11
-656.428499
 21
-1445.996129
 31
0.0
  0
LINE
  5
5BF
  8
DATA
  6
CONTINUOUS
 62
     7
 10
-647.4654049999999
 20
-1452.996129
 30
0.0
 11
-647.4654049999999
 21
-1445.996129
 31
0.0
  0
LINE
  5
5C0
  8
DATA
  6
CONTINUOUS
 62
     7
 10
-646.122231
 20
-1445.996129
 30
0.0
 11
-646.122231
 21
-1451.924177
 31
0.0
  0
LINE
  5
5C1
  8
DATA
  6
CONTINUOUS
 62
     7
 10
-653.858386
 20
-1445.996129
 30
0.0
 11
-653.858386
 21
-1451.924177
 31
0.0
  0
LINE
  5
5C2
  8
DATA
  6
CONTINUOUS
 62
     7
 10
-652.566872
 20
-1445.996129
 30
0.0
 11
-652.566872
 21
-1451.924177
 31
0.0
  0
LINE
  5
5C3
  8
DATA
  6
CONTINUOUS
 62
     7
 10
-651.8952850000001
 20
-1445.996129
 30
0.0
 11
-651.8952850000001
 21
-1452.996129
 31
0.0
  0
LINE
  5
5C4
  8
DATA
  6
CONTINUOUS
 62
     7
 10
-650.720006
 20
-1446.654794
 30
0.0
 11
-650.720006
 21
-1448.902032
 31
0.0
  0
LINE
  5
5C5
  8
DATA
  6
CONTINUOUS
 62
     7
 10
-648.201
 20
-1448.772
 30
0.0
 11
-648.201
 21
-1447.132663
 31
0.0
  0
LINE
  5
5C6
  8
DATA
  6
CONTINUOUS
 62
     7
 10
-649.441421
 20
-1446.964761
 30
0.0
 11
-649.441421
 21
-1448.592072
 31
0.0
  0
LINE
  5
5C7
  8
DATA
  6
CONTINUOUS
 62
     7
 10
-654.839933
 20
-1450.800551
 30
0.0
 11
-654.839933
 21
-1451.924163
 31
0.0
  0
LINE
  5
5C8
  8
DATA
  6
CONTINUOUS
 62
     7
 10
-654.839933
 20
-1450.800551
 30
0.0
 11
-656.002297
 21
-1450.800551
 31
0.0
  0
LINE
  5
5C9
  8
DATA
  6
CONTINUOUS
 62
     7
 10
-656.002297
 20
-1450.800551
 30
0.0
 11
-656.002297
 21
-1451.924163
 31
0.0
  0
ARC
  5
5CA
  8
DATA
  6
CONTINUOUS
 62
     7
 10
-654.346699
 20
-1451.939311
 30
0.0
 40
0.4885501783696802
 50
269.711848792745
 51
1.775987005705986
  0
ARC
  5
5CB
  8
DATA
  6
CONTINUOUS
 62
     7
 10
-654.3516199999999
 20
-1451.939311
 30
0.0
 40
0.48854768022176
 50
178.2240129943039
 51
270.2881512072364
  0
ARC
  5
5CC
  8
DATA
  6
CONTINUOUS
 62
     7
 10
-655.1864889999999
 20
-1451.884592
 30
0.0
 40
0.816760145723299
 50
182.7769954499955
 51
207.3596066671429
  0
CIRCLE
  5
5CD
  8
DATA
  6
CONTINUOUS
 62
     7
 10
-655.324249
 20
-1449.457384
 30
0.0
 40
0.6651260000001002
  0
LINE
  5
5CE
  8
DATA
  6
CONTINUOUS
 62
     7
 10
-643.9654049999999
 20
-1452.996122
 30
0.0
 11
-647.4654049999999
 21
-1452.996122
 31
0.0
  0
LINE
  5
5CF
  8
DATA
  6
CONTINUOUS
 62
     7
 10
-643.9654049999999
 20
-1452.996122
 30
0.0
 11
-643.9654049999999
 21
-1450.800544
 31
0.0
  0
LINE
  5
5D0
  8
DATA
  6
CONTINUOUS
 62
     7
 10
-643.9654049999999
 20
-1450.800551
 30
0.0
 11
-645.140677
 21
-1450.800551
 31
0.0
  0
LINE
  5
5D1
  8
DATA
  6
CONTINUOUS
 62
     7
 10
-645.140677
 20
-1450.800551
 30
0.0
 11
-645.140677
 21
-1451.924163
 31
0.0
  0
LINE
  5
5D2
  8
DATA
  6
CONTINUOUS
 62
     7
 10
-651.8952850000001
 20
-1452.996122
 30
0.0
 11
-649.441421
 21
-1452.996115
 31
0.0
  0
LINE
  5
5D3
  8
DATA
  6
CONTINUOUS
 62
     7
 10
-650.720013
 20
-1452.33745
 30
0.0
 11
-650.0871709999999
 21
-1452.33745
 31
0.0
  0
LINE
  5
5D4
  8
DATA
  6
CONTINUOUS
 62
     7
 10
-650.720006
 20
-1452.33745
 30
0.0
 11
-650.720006
 21
-1449.573612
 31
0.0
  0
LINE
  5
5D5
  8
DATA
  6
CONTINUOUS
 62
     7
 10
-650.720013
 20
-1449.573612
 30
0.0
 11
-650.0871709999999
 21
-1449.573612
 31
0.0
  0
LINE
  5
5D6
  8
DATA
  6
CONTINUOUS
 62
     7
 10
-649.441421
 20
-1452.02749
 30
0.0
 11
-649.441421
 21
-1449.883572
 31
0.0
  0
ARC
  5
5D7
  8
DATA
  6
CONTINUOUS
 62
     7
 10
-653.3826799999999
 20
-1451.884592
 30
0.0
 40
0.816758983505526
 50
332.6403933328597
 51
357.2230045500183
  0
ARC
  5
5D8
  8
DATA
  6
CONTINUOUS
 62
     7
 10
-645.628997
 20
-1451.939311
 30
0.0
 40
0.4885501783696796
 50
269.7118487927584
 51
1.775987005705986
  0
ARC
  5
5D9
  8
DATA
  6
CONTINUOUS
 62
     7
 10
-645.6339109999999
 20
-1451.939311
 30
0.0
 40
0.48854768022176
 50
178.2240129943039
 51
270.2881512072364
  0
LINE
  5
5DA
  8
DATA
  6
CONTINUOUS
 62
     7
 10
-648.2015670000001
 20
-1451.872503
 30
0.0
 11
-648.2015670000001
 21
-1450.012729
 31
0.0
  0
LINE
  5
5DB
  8
DATA
  6
CONTINUOUS
 62
     7
 10
-650.720013
 20
-1448.902032
 30
0.0
 11
-650.0871709999999
 21
-1448.902032
 31
0.0
  0
LINE
  5
5DC
  8
DATA
  6
CONTINUOUS
 62
     7
 10
-653.858386
 20
-1445.996129
 30
0.0
 11
-652.566872
 21
-1445.996129
 31
0.0
  0
LINE
  5
5DD
  8
DATA
  6
CONTINUOUS
 62
     7
 10
-656.428499
 20
-1445.996129
 30
0.0
 11
-654.349163
 21
-1445.996129
 31
0.0
  0
LINE
  5
5DE
  8
DATA
  6
CONTINUOUS
 62
     7
 10
-647.4654049999999
 20
-1445.996129
 30
0.0
 11
-646.122231
 21
-1445.996129
 31
0.0
  0
LINE
  5
5DF
  8
DATA
  6
CONTINUOUS
 62
     7
 10
-651.8952850000001
 20
-1445.996129
 30
0.0
 11
-649.4279319102973
 21
-1445.996134665618
 31
0.0
  0
LINE
  5
5E0
  8
DATA
  6
CONTINUOUS
 62
     7
 10
-650.720013
 20
-1446.654801
 30
0.0
 11
-650.0871709999999
 21
-1446.654801
 31
0.0
  0
ARC
  5
5E1
  8
DATA
  6
CONTINUOUS
 62
     7
 10
-650.0796981761778
 20
-1451.109868427589
 30
0.0
 40
1.22760431736717
 50
269.6512199376234
 51
282.8264828068785
  0
ARC
  5
5E2
  8
DATA
  6
CONTINUOUS
 62
     7
 10
-649.9418187807732
 20
-1451.628875217859
 30
0.0
 40
0.6912065325850965
 50
281.233103622661
 51
306.8620088940581
  0
ARC
  5
5E3
  8
DATA
  6
CONTINUOUS
 62
     7
 10
-649.6634530454987
 20
-1449.905862831644
 30
0.0
 40
0.2231481803728832
 50
5.732980710559376
 51
52.35809750242716
  0
ARC
  5
5E4
  8
DATA
  6
CONTINUOUS
 62
     7
 10
-650.0796981761778
 20
-1450.801193572411
 30
0.0
 40
1.227604317367166
 50
77.17351719312146
 51
90.34878006237653
  0
ARC
  5
5E5
  8
DATA
  6
CONTINUOUS
 62
     7
 10
-649.9418187807732
 20
-1450.282186782141
 30
0.0
 40
0.6912065325852745
 50
53.13799110594198
 51
78.76689637734273
  0
ARC
  5
5E6
  8
DATA
  6
CONTINUOUS
 62
     7
 10
-648.8789429999999
 20
-1450.058516
 30
0.0
 40
0.6789217147394994
 50
3.86700635982428
 51
88.36163456789824
  0
ARC
  5
5E7
  8
DATA
  6
CONTINUOUS
 62
     7
 10
-648.8795660000001
 20
-1448.700572
 30
0.0
 40
0.6795963579632128
 50
271.689282104659
 51
356.0782829826814
  0
ARC
  5
5E8
  8
DATA
  6
CONTINUOUS
 62
     7
 10
-649.6634530454987
 20
-1448.569781168356
 30
0.0
 40
0.2231481803729556
 50
307.6419024975729
 51
354.2670192893826
  0
ARC
  5
5E9
  8
DATA
  6
CONTINUOUS
 62
     7
 10
-650.0796981761778
 20
-1447.674450427589
 30
0.0
 40
1.227604317367397
 50
269.6512199376235
 51
282.8264828068762
  0
ARC
  5
5EA
  8
DATA
  6
CONTINUOUS
 62
     7
 10
-649.9418187807732
 20
-1448.193457217859
 30
0.0
 40
0.6912065325850965
 50
281.233103622661
 51
306.8620088940693
  0
ARC
  5
5EB
  8
DATA
  6
CONTINUOUS
 62
     7
 10
-649.6634530454987
 20
-1446.987051831644
 30
0.0
 40
0.2231481803728832
 50
5.732980710559376
 51
52.35809750239152
  0
ARC
  5
5EC
  8
DATA
  6
CONTINUOUS
 62
     7
 10
-650.0796981761778
 20
-1447.882382572411
 30
0.0
 40
1.227604317367166
 50
77.17351719312146
 51
90.34878006237653
  0
ARC
  5
5ED
  8
DATA
  6
CONTINUOUS
 62
     7
 10
-649.9418187807732
 20
-1447.363375782141
 30
0.0
 40
0.6912065325850926
 50
53.13799110593067
 51
78.76689637733905
  0
TEXT
  5
5EE
  8
DATA
 62
     7
 10
-658.0763373480903
 20
-1460.518025716146
 30
0.0
 40
2.036051432291667
  1
PROFESSIONAL
 41
0.7
 72
     1
 11
-650.0
 21
-1459.5
 31
0.0
 73
     2
  0
TEXT
  5
5EF
  8
DATA
 62
     7
 10
1100.0
 20
-2791.403342708526
 30
0.0
 40
47.50786675347223
  1
コラム型オールインワンPAシステム
 41
0.7
 11
1100.0
 21
-2743.895475955053
 31
0.0
 73
     3
  0
TEXT
  5
5F0
  8
DATA
 62
     7
 10
1249.99999996875
 20
-2886.964189928628
 30
0.0
 40
61.08154296875001
  1
PRX ONE-Y3
 41
0.7
 11
1249.99999996875
 21
-2825.882646959878
 31
0.0
 73
     3
  0
ARC
  5
5F1
  8
DATA
  6
CONTINUOUS
 62
     7
 10
-1600.0
 20
-1569.520833333333
 30
0.0
 40
28.52083333333328
 50
52.15071116789744
 51
127.8492888321026
  0
LINE
  5
5F2
  8
DATA
  6
CONTINUOUS
 62
     7
 10
-1786.518835348615
 20
-2661.435017746063
 30
0.0
 11
-1787.476788816325
 21
-2352.974001143216
 31
0.0
  0
LINE
  5
5F3
  8
DATA
  6
CONTINUOUS
 62
     7
 10
-1468.685003382513
 20
-2744.5
 30
0.0
 11
-1731.314996617487
 21
-2744.5
 31
0.0
  0
LINE
  5
5F4
  8
DATA
  6
CONTINUOUS
 62
     7
 10
-1412.523211183675
 20
-2352.974001143216
 30
0.0
 11
-1413.481164651385
 21
-2661.435017746063
 31
0.0
  0
LINE
  5
5F5
  8
DATA
  6
CONTINUOUS
 62
     7
 10
-1783.704091389817
 20
-2672.882124074603
 30
0.0
 11
-1753.50013210094
 21
-2731.024745705689
 31
0.0
  0
LINE
  5
5F6
  8
DATA
  6
CONTINUOUS
 62
     7
 10
-1446.49986789906
 20
-2731.02474570569
 30
0.0
 11
-1416.295908610183
 21
-2672.882124074602
 31
0.0
  0
LINE
  5
5F7
  8
DATA
  6
CONTINUOUS
 62
     7
 10
-1783.417174295039
 20
-2339.239667252393
 30
0.0
 11
-1771.299818813291
 21
-2320.65972218038
 31
0.0
  0
LINE
  5
5F8
  8
DATA
  6
CONTINUOUS
 62
     7
 10
-1780.218896292582
 20
-2661.415393788447
 30
0.0
 11
-1781.176849433593
 21
-2352.954482383137
 31
0.0
  0
LINE
  5
5F9
  8
DATA
  6
CONTINUOUS
 62
     7
 10
-1419.781103707418
 20
-2661.415393788447
 30
0.0
 11
-1418.823150566407
 21
-2352.954482383137
 31
0.0
  0
LINE
  5
5FA
  8
DATA
  6
CONTINUOUS
 62
     7
 10
-1468.685003382513
 20
-2738.2
 30
0.0
 11
-1731.314996617487
 21
-2738.2
 31
0.0
  0
LINE
  5
5FB
  8
DATA
  6
CONTINUOUS
 62
     7
 10
-1778.113467811401
 20
-2669.977829322195
 30
0.0
 11
-1747.90947795911
 21
-2728.120509787855
 31
0.0
  0
LINE
  5
5FC
  8
DATA
  6
CONTINUOUS
 62
     7
 10
-1421.886532188599
 20
-2669.977829322195
 30
0.0
 11
-1452.09052204089
 21
-2728.120509787855
 31
0.0
  0
LINE
  5
5FD
  8
DATA
  6
CONTINUOUS
 62
     7
 10
-1778.140257771671
 20
-2342.681200632801
 30
0.0
 11
-1766.02287205321
 21
-2324.101209197827
 31
0.0
  0
ARC
  5
5FE
  8
DATA
  6
CONTINUOUS
 62
     7
 10
-1731.314996617487
 20
-2719.5
 30
0.0
 40
25.00000000000004
 50
207.4509977709328
 51
270.0000000000005
  0
ARC
  5
5FF
  8
DATA
  6
CONTINUOUS
 62
     7
 10
-1468.685003382513
 20
-2719.5
 30
0.0
 40
25.0
 50
270.0000000000005
 51
332.5490022290677
  0
ARC
  5
600
  8
DATA
  6
CONTINUOUS
 62
     7
 10
-1761.518955906363
 20
-2661.357378368913
 30
0.0
 40
24.99999999999991
 50
180.1779366314113
 51
207.4509977709328
  0
ARC
  5
601
  8
DATA
  6
CONTINUOUS
 62
     7
 10
-1438.481044093637
 20
-2661.357378368913
 30
0.0
 40
25.00000000000004
 50
332.5490022290672
 51
359.8220633685887
  0
ARC
  5
602
  8
DATA
  6
CONTINUOUS
 62
     7
 10
-1600.0
 20
-3543.0
 30
0.0
 40
1243.0
 50
82.90886665433666
 51
97.09113334566334
  0
ARC
  5
603
  8
DATA
  6
CONTINUOUS
 62
     7
 10
-1762.476909374074
 20
-2352.896361766066
 30
0.0
 40
25.0000000000001
 50
146.8886580396274
 51
180.1779366314103
  0
ARC
  5
604
  8
DATA
  6
CONTINUOUS
 62
     7
 10
-1750.359553892328
 20
-2334.316416694052
 30
0.0
 40
24.99999999999767
 50
97.09113334565957
 51
146.8886580396287
  0
ARC
  5
605
  8
DATA
  6
CONTINUOUS
 62
     7
 10
-1600.0
 20
-3543.0
 30
0.0
 40
1236.699999999999
 50
82.90886665433679
 51
97.09113334566328
  0
ARC
  5
606
  8
DATA
  6
CONTINUOUS
 62
     7
 10
-1762.476939610789
 20
-2352.896408129029
 30
0.0
 40
18.7000000000003
 50
146.8886580396274
 51
180.1779366314111
  0
ARC
  5
607
  8
DATA
  6
CONTINUOUS
 62
     7
 10
-1750.359553892327
 20
-2334.316416694056
 30
0.0
 40
18.70000000000141
 50
97.09113334566617
 51
146.8886580396274
  0
ARC
  5
608
  8
DATA
  6
CONTINUOUS
 62
     7
 10
-1438.481013530222
 20
-2661.357319534339
 30
0.0
 40
18.69999999999977
 50
332.5490022290695
 51
359.8220633685904
  0
ARC
  5
609
  8
DATA
  6
CONTINUOUS
 62
     7
 10
-1468.685003382513
 20
-2719.5
 30
0.0
 40
18.70000000000073
 50
270.0
 51
332.5490022290695
  0
ARC
  5
60A
  8
DATA
  6
CONTINUOUS
 62
     7
 10
-1731.314996617487
 20
-2719.5
 30
0.0
 40
18.69999999999937
 50
207.4509977709312
 51
270.0000000000014
  0
ARC
  5
60B
  8
DATA
  6
CONTINUOUS
 62
     7
 10
-1761.518986469778
 20
-2661.357319534339
 30
0.0
 40
18.70000000000011
 50
180.1779366314097
 51
207.4509977709305
  0
LINE
  5
60C
  8
DATA
  6
CONTINUOUS
 62
     7
 10
-1762.408881447479
 20
-2662.898139592945
 30
0.0
 11
-1732.765842364216
 21
-2719.960989828227
 31
0.0
  0
LINE
  5
60D
  8
DATA
  6
CONTINUOUS
 62
     7
 10
-1731.878436944878
 20
-2720.5
 30
0.0
 11
-1685.185403726708
 21
-2720.5
 31
0.0
  0
LINE
  5
60E
  8
DATA
  6
CONTINUOUS
 62
     7
 10
-1762.521467023923
 20
-2662.441393389946
 30
0.0
 11
-1762.60248447205
 21
-2643.35
 31
0.0
  0
ARC
  5
60F
  8
DATA
  6
CONTINUOUS
 62
     7
 10
-1685.185403726708
 20
-2729.35
 30
0.0
 40
8.850000000000364
 50
270.0
 51
90.0
  0
ARC
  5
610
  8
DATA
  6
CONTINUOUS
 62
     7
 10
-1771.45248447205
 20
-2643.35
 30
0.0
 40
8.850000000000364
 50
0.0
 51
184.6981423807778
  0
LINE
  5
611
  8
DATA
  6
CONTINUOUS
 62
     7
 10
-1733.49023794165
 20
-2722.1
 30
0.0
 11
-1685.185403726708
 21
-2722.1
 31
0.0
  0
LINE
  5
612
  8
DATA
  6
CONTINUOUS
 62
     7
 10
-1730.067635701895
 20
-2736.6
 30
0.0
 11
-1685.185403726708
 21
-2736.6
 31
0.0
  0
ARC
  5
613
  8
DATA
  6
CONTINUOUS
 62
     7
 10
-1685.185403726708
 20
-2729.35
 30
0.0
 40
7.25
 50
270.0
 51
90.0
  0
LINE
  5
614
  8
DATA
  6
CONTINUOUS
 62
     7
 10
-1763.877110727965
 20
-2665.94376040725
 30
0.0
 11
-1735.265048780326
 21
-2721.021979656456
 31
0.0
  0
LINE
  5
615
  8
DATA
  6
CONTINUOUS
 62
     7
 10
-1776.702610542706
 20
-2666.821767385194
 30
0.0
 11
-1745.242268372577
 21
-2727.382926062691
 31
0.0
  0
LINE
  5
616
  8
DATA
  6
CONTINUOUS
 62
     7
 10
-1778.627823899895
 20
-2659.011407313901
 30
0.0
 11
-1778.69412641522
 21
-2643.387520952654
 31
0.0
  0
LINE
  5
617
  8
DATA
  6
CONTINUOUS
 62
     7
 10
-1764.102281880852
 20
-2665.030268001251
 30
0.0
 11
-1764.19412641522
 21
-2643.387520952654
 31
0.0
  0
ARC
  5
618
  8
DATA
  6
CONTINUOUS
 62
     7
 10
-1771.45248447205
 20
-2643.35
 30
0.0
 40
7.258455035545403
 50
359.7038210205614
 51
184.1327433155927
  0
ARC
  5
619
  8
DATA
  6
CONTINUOUS
 62
     7
 10
-1762.102299889289
 20
-2665.021780750796
 30
0.0
 40
1.999999999999951
 50
180.2431425451639
 51
207.4509977708986
  0
ARC
  5
61A
  8
DATA
  6
CONTINUOUS
 62
     7
 10
-1733.490237941649
 20
-2720.1
 30
0.0
 40
2.000000000000504
 50
207.4509977709418
 51
269.999999999987
  0
ARC
  5
61B
  8
DATA
  6
CONTINUOUS
 62
     7
 10
-1731.878436944877
 20
-2719.5
 30
0.0
 40
0.9999999999999338
 50
207.4509977708926
 51
269.9999999999739
  0
ARC
  5
61C
  8
DATA
  6
CONTINUOUS
 62
     7
 10
-1761.521476028141
 20
-2662.437149764718
 30
0.0
 40
0.9999999999999754
 50
180.2431425451639
 51
207.4509977708986
  0
ARC
  5
61D
  8
DATA
  6
CONTINUOUS
 62
     7
 10
-1761.527977872024
 20
-2658.938841322502
 30
0.0
 40
17.09999999999995
 50
180.2431425451693
 51
207.4509977709314
  0
ARC
  5
61E
  8
DATA
  6
CONTINUOUS
 62
     7
 10
-1730.067635701895
 20
-2719.5
 30
0.0
 40
17.09999999999986
 50
207.4509977709314
 51
270.0
  0
LINE
  5
61F
  8
DATA
  6
CONTINUOUS
 62
     7
 10
-1437.591118552521
 20
-2662.898139592945
 30
0.0
 11
-1467.234157635784
 21
-2719.960989828227
 31
0.0
  0
LINE
  5
620
  8
DATA
  6
CONTINUOUS
 62
     7
 10
-1468.121563055122
 20
-2720.5
 30
0.0
 11
-1514.814596273292
 21
-2720.5
 31
0.0
  0
LINE
  5
621
  8
DATA
  6
CONTINUOUS
 62
     7
 10
-1437.478532976077
 20
-2662.441393389946
 30
0.0
 11
-1437.39751552795
 21
-2643.35
 31
0.0
  0
ARC
  5
622
  8
DATA
  6
CONTINUOUS
 62
     7
 10
-1514.814596273292
 20
-2729.35
 30
0.0
 40
8.850000000000364
 50
90.0
 51
270.0
  0
ARC
  5
623
  8
DATA
  6
CONTINUOUS
 62
     7
 10
-1428.54751552795
 20
-2643.35
 30
0.0
 40
8.849999999999627
 50
355.3018576192222
 51
180.0
  0
LINE
  5
624
  8
DATA
  6
CONTINUOUS
 62
     7
 10
-1466.50976205835
 20
-2722.1
 30
0.0
 11
-1514.814596273292
 21
-2722.1
 31
0.0
  0
LINE
  5
625
  8
DATA
  6
CONTINUOUS
 62
     7
 10
-1469.932364298105
 20
-2736.6
 30
0.0
 11
-1514.814596273292
 21
-2736.6
 31
0.0
  0
ARC
  5
626
  8
DATA
  6
CONTINUOUS
 62
     7
 10
-1514.814596273292
 20
-2729.35
 30
0.0
 40
7.25
 50
90.0
 51
270.0
  0
LINE
  5
627
  8
DATA
  6
CONTINUOUS
 62
     7
 10
-1436.122889272035
 20
-2665.94376040725
 30
0.0
 11
-1464.734951219674
 21
-2721.021979656456
 31
0.0
  0
LINE
  5
628
  8
DATA
  6
CONTINUOUS
 62
     7
 10
-1423.297389457294
 20
-2666.821767385194
 30
0.0
 11
-1454.757731627423
 21
-2727.382926062691
 31
0.0
  0
LINE
  5
629
  8
DATA
  6
CONTINUOUS
 62
     7
 10
-1421.372176100105
 20
-2659.011407313901
 30
0.0
 11
-1421.30587358478
 21
-2643.387520952654
 31
0.0
  0
LINE
  5
62A
  8
DATA
  6
CONTINUOUS
 62
     7
 10
-1435.897718119148
 20
-2665.030268001251
 30
0.0
 11
-1435.80587358478
 21
-2643.387520952654
 31
0.0
  0
ARC
  5
62B
  8
DATA
  6
CONTINUOUS
 62
     7
 10
-1428.54751552795
 20
-2643.35
 30
0.0
 40
7.258455035545376
 50
355.8672566844073
 51
180.2961789794387
  0
ARC
  5
62C
  8
DATA
  6
CONTINUOUS
 62
     7
 10
-1437.897700110711
 20
-2665.021780750796
 30
0.0
 40
1.999999999999464
 50
332.5490022291014
 51
359.7568574548361
  0
ARC
  5
62D
  8
DATA
  6
CONTINUOUS
 62
     7
 10
-1466.509762058351
 20
-2720.1
 30
0.0
 40
2.0
 50
270.000000000013
 51
332.5490022290581
  0
ARC
  5
62E
  8
DATA
  6
CONTINUOUS
 62
     7
 10
-1468.121563055123
 20
-2719.5
 30
0.0
 40
1.0
 50
270.000000000026
 51
332.5490022291074
  0
ARC
  5
62F
  8
DATA
  6
CONTINUOUS
 62
     7
 10
-1438.478523971859
 20
-2662.437149764718
 30
0.0
 40
0.9999999999997321
 50
332.5490022291014
 51
359.7568574548361
  0
ARC
  5
630
  8
DATA
  6
CONTINUOUS
 62
     7
 10
-1438.472022127976
 20
-2658.938841322502
 30
0.0
 40
17.09999999999986
 50
332.5490022290687
 51
359.7568574548307
  0
ARC
  5
631
  8
DATA
  6
CONTINUOUS
 62
     7
 10
-1469.932364298105
 20
-2719.5
 30
0.0
 40
17.10000000000036
 50
270.0
 51
332.5490022290686
  0
LINE
  5
632
  8
DATA
  6
CONTINUOUS
 62
     7
 10
-1763.311368897833
 20
-2352.34526234013
 30
0.0
 11
-1751.202235608849
 21
-2333.777924630354
 31
0.0
  0
LINE
  5
633
  8
DATA
  6
CONTINUOUS
 62
     7
 10
-1763.373302309881
 20
-2386.296656218278
 30
0.0
 11
-1763.477001170302
 21
-2352.905623162876
 31
0.0
  0
ARC
  5
634
  8
DATA
  6
CONTINUOUS
 62
     7
 10
-1600.0
 20
-3543.0
 30
0.0
 40
1219.0
 50
94.80256815641039
 51
97.09069665170453
  0
ARC
  5
635
  8
DATA
  6
CONTINUOUS
 62
     7
 10
-1703.457213242988
 20
-2319.516531776684
 30
0.0
 40
8.874289393486528
 50
270.5933962281048
 51
99.07341810309558
  0
ARC
  5
636
  8
DATA
  6
CONTINUOUS
 62
     7
 10
-1772.223302309881
 20
-2386.296656218354
 30
0.0
 40
8.849999999999909
 50
180.0000000001001
 51
0.355873262802362
  0
ARC
  5
637
  8
DATA
  6
CONTINUOUS
 62
     7
 10
-1772.223302309881
 20
-2386.296656218354
 30
0.0
 40
7.258455035545239
 50
180.0000000000718
 51
0.0000000005240679
  0
LINE
  5
638
  8
DATA
  6
CONTINUOUS
 62
     7
 10
-1764.964676564976
 20
-2386.351624632155
 30
0.0
 11
-1765.068530112128
 21
-2352.910782449188
 31
0.0
  0
LINE
  5
639
  8
DATA
  6
CONTINUOUS
 62
     7
 10
-1779.481586636066
 20
-2386.351624632231
 30
0.0
 11
-1779.584407412496
 21
-2353.243334621753
 31
0.0
  0
ARC
  5
63A
  8
DATA
  6
CONTINUOUS
 62
     7
 10
-1703.457213242987
 20
-2319.516531776684
 30
0.0
 40
7.25883387543166
 50
273.5384624505612
 51
95.7871696332672
  0
LINE
  5
63B
  8
DATA
  6
CONTINUOUS
 62
     7
 10
-1764.644706356106
 20
-2351.476917990986
 30
0.0
 11
-1752.533509121067
 21
-2332.906415563926
 31
0.0
  0
LINE
  5
63C
  8
DATA
  6
CONTINUOUS
 62
     7
 10
-1776.658165107377
 20
-2343.321453666045
 30
0.0
 11
-1764.920547956987
 21
-2325.323774035446
 31
0.0
  0
ARC
  5
63D
  8
DATA
  6
CONTINUOUS
 62
     7
 10
-1600.0
 20
-3543.0
 30
0.0
 40
1235.107658788972
 50
94.8278020805436
 51
97.06931333570928
  0
ARC
  5
63E
  8
DATA
  6
CONTINUOUS
 62
     7
 10
-1600.0
 20
-3543.0
 30
0.0
 40
1220.592855690712
 50
94.82570681884856
 51
97.09065494350247
  0
ARC
  5
63F
  8
DATA
  6
CONTINUOUS
 62
     7
 10
-1750.359553892335
 20
-2334.316416694054
 30
0.0
 40
17.11403430335011
 50
95.5162004930198
 51
148.3011694669285
  0
ARC
  5
640
  8
DATA
  6
CONTINUOUS
 62
     7
 10
-1762.476909374074
 20
-2352.896361766067
 30
0.0
 40
17.11101631397693
 50
145.9735437112746
 51
181.1619089438562
  0
ARC
  5
641
  8
DATA
  6
CONTINUOUS
 62
     7
 10
-1750.347345463312
 20
-2334.332174471157
 30
0.0
 40
2.610000000007069
 50
97.09065494362754
 51
146.8886580396303
  0
ARC
  5
642
  8
DATA
  6
CONTINUOUS
 62
     7
 10
-1762.458542698357
 20
-2352.902676898214
 30
0.0
 40
2.610000000000022
 50
146.8886580396236
 51
180.1779366314117
  0
ARC
  5
643
  8
DATA
  6
CONTINUOUS
 62
     7
 10
-1750.347872800073
 20
-2334.335117766513
 30
0.0
 40
1.020000000001509
 50
97.09069665176956
 51
146.8886580396247
  0
ARC
  5
644
  8
DATA
  6
CONTINUOUS
 62
     7
 10
-1762.457006089058
 20
-2352.902455476288
 30
0.0
 40
1.020000000000302
 50
146.8886580396112
 51
180.1779366313929
  0
LINE
  5
645
  8
DATA
  6
CONTINUOUS
 62
     7
 10
-1416.582825704961
 20
-2339.239667252393
 30
0.0
 11
-1428.700181186708
 21
-2320.65972218038
 31
0.0
  0
LINE
  5
646
  8
DATA
  6
CONTINUOUS
 62
     7
 10
-1421.859742228329
 20
-2342.681200632801
 30
0.0
 11
-1433.97712794679
 21
-2324.101209197827
 31
0.0
  0
ARC
  5
647
  8
DATA
  6
CONTINUOUS
 62
     7
 10
-1437.523090625926
 20
-2352.896361766066
 30
0.0
 40
25.00000000000014
 50
359.8220633685897
 51
33.1113419603725
  0
ARC
  5
648
  8
DATA
  6
CONTINUOUS
 62
     7
 10
-1449.640446107672
 20
-2334.316416694052
 30
0.0
 40
24.99999999999758
 50
33.11134196037132
 51
82.90886665434044
  0
ARC
  5
649
  8
DATA
  6
CONTINUOUS
 62
     7
 10
-1437.523060389211
 20
-2352.896408129029
 30
0.0
 40
18.70000000000011
 50
359.8220633685889
 51
33.11134196037261
  0
ARC
  5
64A
  8
DATA
  6
CONTINUOUS
 62
     7
 10
-1449.640446107673
 20
-2334.316416694056
 30
0.0
 40
18.70000000000112
 50
33.11134196037266
 51
82.90886665433385
  0
LINE
  5
64B
  8
DATA
  6
CONTINUOUS
 62
     7
 10
-1436.688631102167
 20
-2352.34526234013
 30
0.0
 11
-1448.797764391151
 21
-2333.777924630354
 31
0.0
  0
LINE
  5
64C
  8
DATA
  6
CONTINUOUS
 62
     7
 10
-1436.626697690119
 20
-2386.296656218278
 30
0.0
 11
-1436.522998829698
 21
-2352.905623162876
 31
0.0
  0
ARC
  5
64D
  8
DATA
  6
CONTINUOUS
 62
     7
 10
-1600.0
 20
-3543.0
 30
0.0
 40
1219.0
 50
82.90930334829547
 51
85.19743184358963
  0
ARC
  5
64E
  8
DATA
  6
CONTINUOUS
 62
     7
 10
-1496.542786757012
 20
-2319.516531776684
 30
0.0
 40
8.874289393486356
 50
80.92658189690442
 51
269.4066037718952
  0
ARC
  5
64F
  8
DATA
  6
CONTINUOUS
 62
     7
 10
-1427.776697690119
 20
-2386.296656218354
 30
0.0
 40
8.850000000000009
 50
179.6441267371976
 51
359.9999999998999
  0
ARC
  5
650
  8
DATA
  6
CONTINUOUS
 62
     7
 10
-1427.776697690119
 20
-2386.296656218354
 30
0.0
 40
7.258455035545239
 50
179.9999999994759
 51
359.9999999999281
  0
LINE
  5
651
  8
DATA
  6
CONTINUOUS
 62
     7
 10
-1435.035323435024
 20
-2386.351624632155
 30
0.0
 11
-1434.931469887872
 21
-2352.910782449188
 31
0.0
  0
LINE
  5
652
  8
DATA
  6
CONTINUOUS
 62
     7
 10
-1420.518413363934
 20
-2386.351624632231
 30
0.0
 11
-1420.415592587504
 21
-2353.243334621753
 31
0.0
  0
ARC
  5
653
  8
DATA
  6
CONTINUOUS
 62
     7
 10
-1496.542786757013
 20
-2319.516531776684
 30
0.0
 40
7.258833875431877
 50
84.21283036673283
 51
266.4615375494388
  0
LINE
  5
654
  8
DATA
  6
CONTINUOUS
 62
     7
 10
-1435.355293643894
 20
-2351.476917990986
 30
0.0
 11
-1447.466490878933
 21
-2332.906415563926
 31
0.0
  0
LINE
  5
655
  8
DATA
  6
CONTINUOUS
 62
     7
 10
-1423.341834892623
 20
-2343.321453666045
 30
0.0
 11
-1435.079452043013
 21
-2325.323774035446
 31
0.0
  0
ARC
  5
656
  8
DATA
  6
CONTINUOUS
 62
     7
 10
-1600.0
 20
-3543.0
 30
0.0
 40
1235.107658788972
 50
82.93068666429073
 51
85.17219791945638
  0
ARC
  5
657
  8
DATA
  6
CONTINUOUS
 62
     7
 10
-1600.0
 20
-3543.0
 30
0.0
 40
1220.592855690712
 50
82.90934505649753
 51
85.17429318115143
  0
ARC
  5
658
  8
DATA
  6
CONTINUOUS
 62
     7
 10
-1449.640446107665
 20
-2334.316416694054
 30
0.0
 40
17.1140343033502
 50
31.69883053307154
 51
84.48379950698022
  0
ARC
  5
659
  8
DATA
  6
CONTINUOUS
 62
     7
 10
-1437.523090625926
 20
-2352.896361766067
 30
0.0
 40
17.11101631397692
 50
358.8380910561439
 51
34.02645628872546
  0
ARC
  5
65A
  8
DATA
  6
CONTINUOUS
 62
     7
 10
-1449.652654536688
 20
-2334.332174471157
 30
0.0
 40
2.610000000007152
 50
33.11134196036966
 51
82.90934505637249
  0
ARC
  5
65B
  8
DATA
  6
CONTINUOUS
 62
     7
 10
-1437.541457301643
 20
-2352.902676898214
 30
0.0
 40
2.609999999999725
 50
359.8220633685882
 51
33.11134196037636
  0
ARC
  5
65C
  8
DATA
  6
CONTINUOUS
 62
     7
 10
-1449.652127199927
 20
-2334.335117766513
 30
0.0
 40
1.020000000001503
 50
33.11134196037528
 51
82.90930334823047
  0
ARC
  5
65D
  8
DATA
  6
CONTINUOUS
 62
     7
 10
-1437.542993910942
 20
-2352.902455476288
 30
0.0
 40
1.020000000000038
 50
359.8220633686071
 51
33.11134196038876
  0
TEXT
  5
65E
  8
DATA
 62
     7
 10
565.3943775318287
 20
-1058.934190538194
 30
0.0
 40
67.8683810763889
  1
上部コラム
 41
0.7
 72
     1
 11
700.0
 21
-1025.0
 31
0.0
 73
     2
  0
TEXT
  5
65F
  8
DATA
 62
     7
 10
1465.394377531829
 20
-1058.934190538194
 30
0.0
 40
67.8683810763889
  1
下部コラム
 41
0.7
 72
     1
 11
1600.0
 21
-1025.0
 31
0.0
 73
     2
  0
LINE
  5
660
  8
DATA
  6
CONTINUOUS
 62
     7
 10
450.0
 20
-1100.0
 30
0.0
 11
950.0
 21
-1100.0
 31
0.0
  0
LINE
  5
661
  8
DATA
  6
CONTINUOUS
 62
     7
 10
1350.0
 20
-1100.0
 30
0.0
 11
1850.0
 21
-1100.0
 31
0.0
  0
LINE
  5
662
  8
DATA
  6
CONTINUOUS
 62
     7
 10
645.5
 20
1.5
 30
0.0
 11
645.5
 21
-708.5000000000001
 31
0.0
  0
LINE
  5
663
  8
DATA
  6
CONTINUOUS
 62
     7
 10
554.5
 20
1.5
 30
0.0
 11
554.5
 21
-708.5000000000001
 31
0.0
  0
LINE
  5
664
  8
DATA
  6
CONTINUOUS
 62
     7
 10
645.5
 20
-708.5
 30
0.0
 11
554.5
 21
-708.5
 31
0.0
  0
LINE
  5
665
  8
DATA
  6
CONTINUOUS
 62
     7
 10
641.0
 20
9.5
 30
0.0
 11
559.0
 21
9.5
 31
0.0
  0
LINE
  5
666
  8
DATA
  6
CONTINUOUS
 62
     7
 10
643.4000000000001
 20
-700.0
 30
0.0
 11
643.4000000000001
 21
-7.5
 31
0.0
  0
LINE
  5
667
  8
DATA
  6
CONTINUOUS
 62
     7
 10
556.5999999999999
 20
-700.0
 30
0.0
 11
556.5999999999999
 21
-7.5
 31
0.0
  0
LINE
  5
668
  8
DATA
  6
CONTINUOUS
 62
     7
 10
641.7
 20
-700.0
 30
0.0
 11
641.7
 21
-7.5
 31
0.0
  0
LINE
  5
669
  8
DATA
  6
CONTINUOUS
 62
     7
 10
558.3
 20
-700.0
 30
0.0
 11
558.3
 21
-7.5
 31
0.0
  0
LINE
  5
66A
  8
DATA
  6
CONTINUOUS
 62
     7
 10
643.4000000000001
 20
-700.0
 30
0.0
 11
556.5999999999999
 21
-700.0
 31
0.0
  0
LINE
  5
66B
  8
DATA
  6
CONTINUOUS
 62
     7
 10
645.5
 20
-7.5
 30
0.0
 11
554.5
 21
-7.5
 31
0.0
  0
LINE
  5
66C
  8
DATA
  6
CONTINUOUS
 62
     7
 10
700.0
 20
1.5
 30
0.0
 11
700.0
 21
-7.5
 31
0.0
  0
LINE
  5
66D
  8
DATA
  6
CONTINUOUS
 62
     7
 10
700.0
 20
-700.0
 30
0.0
 11
700.0
 21
-708.5
 31
0.0
  0
LINE
  5
66E
  8
DATA
  6
CONTINUOUS
 62
     7
 10
784.0
 20
-0.5
 30
0.0
 11
784.0
 21
-708.5
 31
0.0
  0
LINE
  5
66F
  8
DATA
  6
CONTINUOUS
 62
     7
 10
645.5
 20
1.5
 30
0.0
 11
554.5
 21
1.5
 31
0.0
  0
LINE
  5
670
  8
DATA
  6
CONTINUOUS
 62
     7
 10
784.0
 20
-0.5
 30
0.0
 11
700.0
 21
1.5
 31
0.0
  0
LINE
  5
671
  8
DATA
  6
CONTINUOUS
 62
     7
 10
554.5
 20
1.5
 30
0.0
 11
559.0
 21
9.5
 31
0.0
  0
LINE
  5
672
  8
DATA
  6
CONTINUOUS
 62
     7
 10
641.0
 20
9.5
 30
0.0
 11
645.5
 21
1.5
 31
0.0
  0
LINE
  5
673
  8
DATA
  6
CONTINUOUS
 62
     7
 10
780.5
 20
9.5
 30
0.0
 11
703.5
 21
9.5
 31
0.0
  0
LINE
  5
674
  8
DATA
  6
CONTINUOUS
 62
     7
 10
700.0
 20
1.5
 30
0.0
 11
703.5
 21
9.5
 31
0.0
  0
LINE
  5
675
  8
DATA
  6
CONTINUOUS
 62
     7
 10
780.5
 20
9.5
 30
0.0
 11
784.0
 21
-0.5
 31
0.0
  0
LINE
  5
676
  8
DATA
  6
CONTINUOUS
 62
     7
 10
784.0
 20
-708.5
 30
0.0
 11
700.0
 21
-708.5
 31
0.0
  0
LINE
  5
677
  8
DATA
  6
CONTINUOUS
 62
     7
 10
570.0
 20
1.5
 30
0.0
 11
570.0
 21
-708.5000000000001
 31
0.0
  0
LINE
  5
678
  8
DATA
  6
CONTINUOUS
 62
     7
 10
630.0
 20
1.5
 30
0.0
 11
630.0
 21
-708.5000000000001
 31
0.0
  0
LINE
  5
679
  8
DATA
  6
CONTINUOUS
 62
     7
 10
570.0
 20
1.5
 30
0.0
 11
574.5
 21
9.5
 31
0.0
  0
LINE
  5
67A
  8
DATA
  6
CONTINUOUS
 62
     7
 10
625.5
 20
9.5
 30
0.0
 11
630.0
 21
1.5
 31
0.0
  0
POLYLINE
  5
67B
  8
DATA
  6
CONTINUOUS
 62
     7
 66
     1
 10
0.0
 20
0.0
 30
0.0
 70
     1
  0
VERTEX
  5
A44
  8
DATA
  6
CONTINUOUS
 62
     7
 10
585.0
 20
-37.0
 30
0.0
  0
VERTEX
  5
A45
  8
DATA
  6
CONTINUOUS
 62
     7
 10
615.0
 20
-37.0
 30
0.0
  0
VERTEX
  5
A46
  8
DATA
  6
CONTINUOUS
 62
     7
 10
615.0
 20
-69.0
 30
0.0
  0
VERTEX
  5
A47
  8
DATA
  6
CONTINUOUS
 62
     7
 10
585.0
 20
-69.0
 30
0.0
  0
SEQEND
  5
A6B
  8
DATA
  6
CONTINUOUS
 62
     7
  0
ARC
  5
682
  8
DATA
  6
CONTINUOUS
 62
     7
 10
594.11778
 20
-51.92667
 30
0.0
 40
2.578853425167869
 50
264.6908562215336
 51
323.9911991542406
  0
ARC
  5
683
  8
DATA
  6
CONTINUOUS
 62
     7
 10
593.6405500000001
 20
-51.92667
 30
0.0
 40
2.578849236946597
 50
216.0088008457586
 51
275.3091437784639
  0
ARC
  5
684
  8
DATA
  6
CONTINUOUS
 62
     7
 10
600.67085
 20
-52.59609
 30
0.0
 40
1.902611411718148
 50
273.830981609118
 51
351.1351473098022
  0
ARC
  5
685
  8
DATA
  6
CONTINUOUS
 62
     7
 10
600.68982
 20
-46.38992999999999
 30
0.0
 40
1.899729932911626
 50
8.226923859015255
 51
86.15412669215209
  0
ARC
  5
686
  8
DATA
  6
CONTINUOUS
 62
     7
 10
600.4807813635732
 20
-53.07885595479416
 30
0.0
 40
0.3187831148185611
 50
307.6419024975876
 51
354.2670192893901
  0
LINE
  5
687
  8
DATA
  6
CONTINUOUS
 62
     7
 10
592.2924499999999
 20
-48.05534999999998
 30
0.0
 11
593.78691
 21
-44.49446999999998
 31
0.0
  0
LINE
  5
688
  8
DATA
  6
CONTINUOUS
 62
     7
 10
592.2924499999999
 20
-48.05534999999998
 30
0.0
 11
590.8164299999999
 21
-44.49446999999998
 31
0.0
  0
LINE
  5
689
  8
DATA
  6
CONTINUOUS
 62
     7
 10
603.62085
 20
-54.49446999999998
 30
0.0
 11
603.62085
 21
-44.49446999999998
 31
0.0
  0
LINE
  5
68A
  8
DATA
  6
CONTINUOUS
 62
     7
 10
605.5396700000001
 20
-44.49446999999998
 30
0.0
 11
605.5396700000001
 21
-52.96311000000003
 31
0.0
  0
LINE
  5
68B
  8
DATA
  6
CONTINUOUS
 62
     7
 10
594.48802
 20
-44.49446999999998
 30
0.0
 11
594.48802
 21
-52.96311000000003
 31
0.0
  0
LINE
  5
68C
  8
DATA
  6
CONTINUOUS
 62
     7
 10
596.33304
 20
-44.49446999999998
 30
0.0
 11
596.33304
 21
-52.96311000000003
 31
0.0
  0
LINE
  5
68D
  8
DATA
  6
CONTINUOUS
 62
     7
 10
597.2924499999999
 20
-44.49446999999998
 30
0.0
 11
597.2924499999999
 21
-54.49446999999998
 31
0.0
  0
LINE
  5
68E
  8
DATA
  6
CONTINUOUS
 62
     7
 10
598.9714199999999
 20
-45.43542000000002
 30
0.0
 11
598.9714199999999
 21
-48.64576
 31
0.0
  0
LINE
  5
68F
  8
DATA
  6
CONTINUOUS
 62
     7
 10
602.5700000000002
 20
-48.46000000000004
 30
0.0
 11
602.5700000000002
 21
-46.11809
 31
0.0
  0
LINE
  5
690
  8
DATA
  6
CONTINUOUS
 62
     7
 10
600.7979700000001
 20
-45.87823000000003
 30
0.0
 11
600.7979700000001
 21
-48.20295999999996
 31
0.0
  0
LINE
  5
691
  8
DATA
  6
CONTINUOUS
 62
     7
 10
593.08581
 20
-51.35793000000001
 30
0.0
 11
593.08581
 21
-52.96308999999997
 31
0.0
  0
LINE
  5
692
  8
DATA
  6
CONTINUOUS
 62
     7
 10
593.08581
 20
-51.35793000000001
 30
0.0
 11
591.4252900000001
 21
-51.35793000000001
 31
0.0
  0
LINE
  5
693
  8
DATA
  6
CONTINUOUS
 62
     7
 10
591.4252900000001
 20
-51.35793000000001
 30
0.0
 11
591.4252900000001
 21
-52.96308999999997
 31
0.0
  0
ARC
  5
694
  8
DATA
  6
CONTINUOUS
 62
     7
 10
593.79043
 20
-52.98473000000001
 30
0.0
 40
0.6979288262422862
 50
269.7118487927503
 51
1.775987005686773
  0
ARC
  5
695
  8
DATA
  6
CONTINUOUS
 62
     7
 10
593.7834
 20
-52.98473000000001
 30
0.0
 40
0.6979252574595565
 50
178.2240129943123
 51
270.2881512072337
  0
ARC
  5
696
  8
DATA
  6
CONTINUOUS
 62
     7
 10
592.5907299999999
 20
-52.90656000000001
 30
0.0
 40
1.166800208176202
 50
182.7769954499913
 51
207.3596066671465
  0
CIRCLE
  5
697
  8
DATA
  6
CONTINUOUS
 62
     7
 10
592.39393
 20
-49.43912
 30
0.0
 40
0.9501800000000458
  0
LINE
  5
698
  8
DATA
  6
CONTINUOUS
 62
     7
 10
608.62085
 20
-54.49446
 30
0.0
 11
603.62085
 21
-54.49446
 31
0.0
  0
LINE
  5
699
  8
DATA
  6
CONTINUOUS
 62
     7
 10
608.62085
 20
-54.49446
 30
0.0
 11
608.62085
 21
-51.35792000000004
 31
0.0
  0
LINE
  5
69A
  8
DATA
  6
CONTINUOUS
 62
     7
 10
608.62085
 20
-51.35793000000001
 30
0.0
 11
606.9418900000001
 21
-51.35793000000001
 31
0.0
  0
LINE
  5
69B
  8
DATA
  6
CONTINUOUS
 62
     7
 10
606.9418900000001
 20
-51.35793000000001
 30
0.0
 11
606.9418900000001
 21
-52.96308999999997
 31
0.0
  0
LINE
  5
69C
  8
DATA
  6
CONTINUOUS
 62
     7
 10
597.2924499999999
 20
-54.49446
 30
0.0
 11
600.7979700000001
 21
-54.49445000000003
 31
0.0
  0
LINE
  5
69D
  8
DATA
  6
CONTINUOUS
 62
     7
 10
598.9714100000001
 20
-53.55349999999999
 30
0.0
 11
599.87547
 21
-53.55349999999999
 31
0.0
  0
LINE
  5
69E
  8
DATA
  6
CONTINUOUS
 62
     7
 10
598.9714199999999
 20
-53.55349999999999
 30
0.0
 11
598.9714199999999
 21
-49.60516000000001
 31
0.0
  0
LINE
  5
69F
  8
DATA
  6
CONTINUOUS
 62
     7
 10
598.9714100000001
 20
-49.60516000000001
 30
0.0
 11
599.87547
 21
-49.60516000000001
 31
0.0
  0
LINE
  5
6A0
  8
DATA
  6
CONTINUOUS
 62
     7
 10
600.7979700000001
 20
-53.11070000000001
 30
0.0
 11
600.7979700000001
 21
-50.04795999999999
 31
0.0
  0
ARC
  5
6A1
  8
DATA
  6
CONTINUOUS
 62
     7
 10
595.1676
 20
-52.90656000000001
 30
0.0
 40
1.166798547865079
 50
332.6403933328522
 51
357.2230045500052
  0
ARC
  5
6A2
  8
DATA
  6
CONTINUOUS
 62
     7
 10
606.2442900000001
 20
-52.98473000000001
 30
0.0
 40
0.6979288262422862
 50
269.7118487927503
 51
1.775987005686773
  0
ARC
  5
6A3
  8
DATA
  6
CONTINUOUS
 62
     7
 10
606.2372700000001
 20
-52.98473000000001
 30
0.0
 40
0.6979252574597837
 50
178.2240129943129
 51
270.2881512072524
  0
LINE
  5
6A4
  8
DATA
  6
CONTINUOUS
 62
     7
 10
602.5691900000002
 20
-52.88928999999996
 30
0.0
 11
602.5691900000002
 21
-50.23247000000003
 31
0.0
  0
LINE
  5
6A5
  8
DATA
  6
CONTINUOUS
 62
     7
 10
598.9714100000001
 20
-48.64576
 30
0.0
 11
599.87547
 21
-48.64576
 31
0.0
  0
LINE
  5
6A6
  8
DATA
  6
CONTINUOUS
 62
     7
 10
594.48802
 20
-44.49446999999998
 30
0.0
 11
596.33304
 21
-44.49446999999998
 31
0.0
  0
LINE
  5
6A7
  8
DATA
  6
CONTINUOUS
 62
     7
 10
590.8164299999999
 20
-44.49446999999998
 30
0.0
 11
593.78691
 21
-44.49446999999998
 31
0.0
  0
LINE
  5
6A8
  8
DATA
  6
CONTINUOUS
 62
     7
 10
603.62085
 20
-44.49446999999998
 30
0.0
 11
605.5396700000001
 21
-44.49446999999998
 31
0.0
  0
LINE
  5
6A9
  8
DATA
  6
CONTINUOUS
 62
     7
 10
597.2924499999999
 20
-44.49446999999998
 30
0.0
 11
600.8172401281468
 21
-44.49447809374044
 31
0.0
  0
LINE
  5
6AA
  8
DATA
  6
CONTINUOUS
 62
     7
 10
598.9714100000001
 20
-45.43543
 30
0.0
 11
599.87547
 21
-45.43543
 31
0.0
  0
ARC
  5
6AB
  8
DATA
  6
CONTINUOUS
 62
     7
 10
599.8861454626033
 20
-51.79981203941304
 30
0.0
 40
1.753720453381722
 50
269.6512199376139
 51
282.8264828068725
  0
ARC
  5
6AC
  8
DATA
  6
CONTINUOUS
 62
     7
 10
600.0831160274665
 20
-52.54125031122715
 30
0.0
 40
0.9874379036932399
 50
281.2331036226697
 51
306.8620088940754
  0
ARC
  5
6AD
  8
DATA
  6
CONTINUOUS
 62
     7
 10
600.4807813635732
 20
-50.07980404520583
 30
0.0
 40
0.3187831148185307
 50
5.732980710609906
 51
52.35809750240617
  0
ARC
  5
6AE
  8
DATA
  6
CONTINUOUS
 62
     7
 10
599.8861454626033
 20
-51.35884796058701
 30
0.0
 40
1.753720453381796
 50
77.17351719312788
 51
90.34878006238611
  0
ARC
  5
6AF
  8
DATA
  6
CONTINUOUS
 62
     7
 10
600.0831160274665
 20
-50.61740968877291
 30
0.0
 40
0.9874379036933921
 50
53.13799110592464
 51
78.76689637733098
  0
ARC
  5
6B0
  8
DATA
  6
CONTINUOUS
 62
     7
 10
601.60151
 20
-50.29787999999996
 30
0.0
 40
0.9698881639139527
 50
3.867006359816984
 51
88.36163456789046
  0
ARC
  5
6B1
  8
DATA
  6
CONTINUOUS
 62
     7
 10
601.6006200000002
 20
-48.35795999999999
 30
0.0
 40
0.9708519399476069
 50
271.6892821046376
 51
356.0782829826536
  0
ARC
  5
6B2
  8
DATA
  6
CONTINUOUS
 62
     7
 10
600.4807813635732
 20
-48.17111595479417
 30
0.0
 40
0.3187831148185611
 50
307.6419024975876
 51
354.2670192894003
  0
ARC
  5
6B3
  8
DATA
  6
CONTINUOUS
 62
     7
 10
599.8861454626033
 20
-46.89207203941305
 30
0.0
 40
1.753720453381722
 50
269.6512199376139
 51
282.8264828068725
  0
ARC
  5
6B4
  8
DATA
  6
CONTINUOUS
 62
     7
 10
600.0831160274665
 20
-47.63351031122716
 30
0.0
 40
0.9874379036932399
 50
281.2331036226697
 51
306.8620088940754
  0
ARC
  5
6B5
  8
DATA
  6
CONTINUOUS
 62
     7
 10
600.4807813635732
 20
-45.91007404520582
 30
0.0
 40
0.318783114818525
 50
5.732980710599741
 51
52.35809750240617
  0
ARC
  5
6B6
  8
DATA
  6
CONTINUOUS
 62
     7
 10
599.8861454626033
 20
-47.18911796058694
 30
0.0
 40
1.753720453381741
 50
77.17351719312747
 51
90.34878006238611
  0
ARC
  5
6B7
  8
DATA
  6
CONTINUOUS
 62
     7
 10
600.0831160274665
 20
-46.44767968877289
 30
0.0
 40
0.9874379036933921
 50
53.13799110592464
 51
78.76689637733098
  0
LINE
  5
6B8
  8
DATA
  6
CONTINUOUS
 62
     7
 10
585.0
 20
-62.0
 30
0.0
 11
615.0
 21
-62.0
 31
0.0
  0
TEXT
  5
6B9
  8
DATA
 62
     7
 10
586.5394377531828
 20
-67.19670952690973
 30
0.0
 40
3.393419053819445
  1
PROFESSIONAL
 41
0.7
 72
     1
 11
600.0
 21
-65.5
 31
0.0
 73
     2
  0
LINE
  5
6BA
  8
DATA
  6
CONTINUOUS
 62
     7
 10
717.0
 20
1.095238095238074
 30
0.0
 11
717.0
 21
-708.5
 31
0.0
  0
LINE
  5
6BB
  8
DATA
  6
CONTINUOUS
 62
     7
 10
771.0
 20
-0.1904761904761472
 30
0.0
 11
771.0
 21
-708.5
 31
0.0
  0
LINE
  5
6BC
  8
DATA
  6
CONTINUOUS
 62
     7
 10
767.5
 20
9.809523809523853
 30
0.0
 11
771.0
 21
-0.1904761904761472
 31
0.0
  0
LINE
  5
6BD
  8
DATA
  6
CONTINUOUS
 62
     7
 10
717.0
 20
1.095238095238074
 30
0.0
 11
720.5
 21
9.095238095238074
 31
0.0
  0
LINE
  5
6BE
  8
DATA
  6
CONTINUOUS
 62
     7
 10
734.0
 20
-7.5
 30
0.0
 11
734.0
 21
-700.0
 31
0.0
  0
LINE
  5
6BF
  8
DATA
  6
CONTINUOUS
 62
     7
 10
734.0
 20
-700.0
 30
0.0
 11
700.0
 21
-700.0
 31
0.0
  0
LINE
  5
6C0
  8
DATA
  6
CONTINUOUS
 62
     7
 10
734.0
 20
-7.5
 30
0.0
 11
700.0
 21
-7.5
 31
0.0
  0
LINE
  5
6C1
  8
DATA
  6
CONTINUOUS
 62
     7
 10
945.5
 20
1.5
 30
0.0
 11
945.5
 21
-708.5000000000001
 31
0.0
  0
LINE
  5
6C2
  8
DATA
  6
CONTINUOUS
 62
     7
 10
854.5
 20
1.5
 30
0.0
 11
854.5
 21
-708.5000000000001
 31
0.0
  0
LINE
  5
6C3
  8
DATA
  6
CONTINUOUS
 62
     7
 10
945.5
 20
-708.5
 30
0.0
 11
854.5
 21
-708.5
 31
0.0
  0
LINE
  5
6C4
  8
DATA
  6
CONTINUOUS
 62
     7
 10
941.0
 20
9.5
 30
0.0
 11
859.0
 21
9.5
 31
0.0
  0
LINE
  5
6C5
  8
DATA
  6
CONTINUOUS
 62
     7
 10
945.5
 20
1.5
 30
0.0
 11
854.5
 21
1.5
 31
0.0
  0
LINE
  5
6C6
  8
DATA
  6
CONTINUOUS
 62
     7
 10
854.5
 20
1.5
 30
0.0
 11
859.0
 21
9.5
 31
0.0
  0
LINE
  5
6C7
  8
DATA
  6
CONTINUOUS
 62
     7
 10
941.0
 20
9.5
 30
0.0
 11
945.5
 21
1.5
 31
0.0
  0
LINE
  5
6C8
  8
DATA
  6
CONTINUOUS
 62
     7
 10
702.0
 20
-7.5
 30
0.0
 11
702.0
 21
-700.0
 31
0.0
  0
ARC
  5
6C9
  8
DATA
  6
CONTINUOUS
 62
     7
 10
888.0
 20
-608.5
 30
0.0
 40
10.0
 50
90.0
 51
270.0
  0
ARC
  5
6CA
  8
DATA
  6
CONTINUOUS
 62
     7
 10
912.0
 20
-608.5
 30
0.0
 40
10.0
 50
270.0
 51
90.0
  0
LINE
  5
6CB
  8
DATA
  6
CONTINUOUS
 62
     7
 10
888.0
 20
-598.5
 30
0.0
 11
912.0
 21
-598.5
 31
0.0
  0
LINE
  5
6CC
  8
DATA
  6
CONTINUOUS
 62
     7
 10
912.0
 20
-618.5
 30
0.0
 11
888.0
 21
-618.5
 31
0.0
  0
CIRCLE
  5
6CD
  8
DATA
  6
CONTINUOUS
 62
     7
 10
927.5
 20
-578.5
 30
0.0
 40
6.0
  0
CIRCLE
  5
6CE
  8
DATA
  6
CONTINUOUS
 62
     7
 10
872.5
 20
-578.5
 30
0.0
 40
6.0
  0
CIRCLE
  5
6CF
  8
DATA
  6
CONTINUOUS
 62
     7
 10
927.5
 20
-299.5
 30
0.0
 40
6.0
  0
CIRCLE
  5
6D0
  8
DATA
  6
CONTINUOUS
 62
     7
 10
872.5
 20
-299.5
 30
0.0
 40
6.0
  0
LINE
  5
6D1
  8
DATA
  6
CONTINUOUS
 62
     7
 10
1545.5
 20
19.99999999999989
 30
0.0
 11
1545.5
 21
-700.0
 31
0.0
  0
LINE
  5
6D2
  8
DATA
  6
CONTINUOUS
 62
     7
 10
1454.5
 20
19.99999999999989
 30
0.0
 11
1454.5
 21
-700.0
 31
0.0
  0
LINE
  5
6D3
  8
DATA
  6
CONTINUOUS
 62
     7
 10
1545.5
 20
20.0
 30
0.0
 11
1454.5
 21
20.0
 31
0.0
  0
LINE
  5
6D4
  8
DATA
  6
CONTINUOUS
 62
     7
 10
1543.4
 20
11.5
 30
0.0
 11
1543.4
 21
-700.0
 31
0.0
  0
LINE
  5
6D5
  8
DATA
  6
CONTINUOUS
 62
     7
 10
1456.6
 20
11.5
 30
0.0
 11
1456.6
 21
-700.0
 31
0.0
  0
LINE
  5
6D6
  8
DATA
  6
CONTINUOUS
 62
     7
 10
1541.7
 20
11.5
 30
0.0
 11
1541.7
 21
-700.0
 31
0.0
  0
LINE
  5
6D7
  8
DATA
  6
CONTINUOUS
 62
     7
 10
1458.3
 20
11.5
 30
0.0
 11
1458.3
 21
-700.0
 31
0.0
  0
LINE
  5
6D8
  8
DATA
  6
CONTINUOUS
 62
     7
 10
1543.4
 20
11.5
 30
0.0
 11
1456.6
 21
11.5
 31
0.0
  0
LINE
  5
6D9
  8
DATA
  6
CONTINUOUS
 62
     7
 10
1600.0
 20
19.99999999999994
 30
0.0
 11
1600.0
 21
11.5
 31
0.0
  0
LINE
  5
6DA
  8
DATA
  6
CONTINUOUS
 62
     7
 10
1684.0
 20
20.0
 30
0.0
 11
1684.0
 21
-700.0
 31
0.0
  0
LINE
  5
6DB
  8
DATA
  6
CONTINUOUS
 62
     7
 10
1684.0
 20
20.0
 30
0.0
 11
1600.0
 21
20.0
 31
0.0
  0
LINE
  5
6DC
  8
DATA
  6
CONTINUOUS
 62
     7
 10
1470.0
 20
19.99999999999989
 30
0.0
 11
1470.0
 21
-700.0
 31
0.0
  0
LINE
  5
6DD
  8
DATA
  6
CONTINUOUS
 62
     7
 10
1530.0
 20
19.99999999999989
 30
0.0
 11
1530.0
 21
-700.0
 31
0.0
  0
LINE
  5
6DE
  8
DATA
  6
CONTINUOUS
 62
     7
 10
1617.0
 20
20.0
 30
0.0
 11
1617.0
 21
-700.0
 31
0.0
  0
LINE
  5
6DF
  8
DATA
  6
CONTINUOUS
 62
     7
 10
1671.0
 20
20.0
 30
0.0
 11
1671.0
 21
-700.0
 31
0.0
  0
LINE
  5
6E0
  8
DATA
  6
CONTINUOUS
 62
     7
 10
1634.0
 20
11.5
 30
0.0
 11
1634.0
 21
-683.0
 31
0.0
  0
LINE
  5
6E1
  8
DATA
  6
CONTINUOUS
 62
     7
 10
1634.0
 20
11.5
 30
0.0
 11
1600.0
 21
11.5
 31
0.0
  0
LINE
  5
6E2
  8
DATA
  6
CONTINUOUS
 62
     7
 10
1845.5
 20
19.99999999999989
 30
0.0
 11
1845.5
 21
-700.0
 31
0.0
  0
LINE
  5
6E3
  8
DATA
  6
CONTINUOUS
 62
     7
 10
1754.5
 20
19.99999999999989
 30
0.0
 11
1754.5
 21
-700.0
 31
0.0
  0
LINE
  5
6E4
  8
DATA
  6
CONTINUOUS
 62
     7
 10
1845.5
 20
20.0
 30
0.0
 11
1754.5
 21
20.0
 31
0.0
  0
LINE
  5
6E5
  8
DATA
  6
CONTINUOUS
 62
     7
 10
1602.0
 20
11.5
 30
0.0
 11
1602.0
 21
-700.0
 31
0.0
  0
ARC
  5
6E6
  8
DATA
  6
CONTINUOUS
 62
     7
 10
1788.0
 20
-103.0
 30
0.0
 40
10.0
 50
90.0
 51
270.0
  0
ARC
  5
6E7
  8
DATA
  6
CONTINUOUS
 62
     7
 10
1812.0
 20
-103.0
 30
0.0
 40
10.0
 50
270.0
 51
90.0
  0
LINE
  5
6E8
  8
DATA
  6
CONTINUOUS
 62
     7
 10
1788.0
 20
-93.0
 30
0.0
 11
1812.0
 21
-93.0
 31
0.0
  0
LINE
  5
6E9
  8
DATA
  6
CONTINUOUS
 62
     7
 10
1812.0
 20
-113.0
 30
0.0
 11
1788.0
 21
-113.0
 31
0.0
  0
CIRCLE
  5
6EA
  8
DATA
  6
CONTINUOUS
 62
     7
 10
1827.5
 20
-133.0
 30
0.0
 40
6.0
  0
CIRCLE
  5
6EB
  8
DATA
  6
CONTINUOUS
 62
     7
 10
1772.5
 20
-133.0
 30
0.0
 40
6.0
  0
CIRCLE
  5
6EC
  8
DATA
  6
CONTINUOUS
 62
     7
 10
1772.5
 20
-414.0
 30
0.0
 40
6.0
  0
CIRCLE
  5
6ED
  8
DATA
  6
CONTINUOUS
 62
     7
 10
1827.5
 20
-414.0
 30
0.0
 40
6.0
  0
POLYLINE
  5
6EE
  8
DATA
  6
CONTINUOUS
 62
     7
 66
     1
 10
0.0
 20
0.0
 30
0.0
 70
     1
  0
VERTEX
  5
A48
  8
DATA
  6
CONTINUOUS
 62
     7
 10
1790.0
 20
-589.0
 30
0.0
  0
VERTEX
  5
A49
  8
DATA
  6
CONTINUOUS
 62
     7
 10
1810.0
 20
-589.0
 30
0.0
  0
VERTEX
  5
A4A
  8
DATA
  6
CONTINUOUS
 62
     7
 10
1810.0
 20
-609.0
 30
0.0
  0
VERTEX
  5
A4B
  8
DATA
  6
CONTINUOUS
 62
     7
 10
1790.0
 20
-609.0
 30
0.0
  0
SEQEND
  5
A6C
  8
DATA
  6
CONTINUOUS
 62
     7
  0
LINE
  5
6F5
  8
DATA
  6
CONTINUOUS
 62
     7
 10
1790.0
 20
-606.0
 30
0.0
 11
1810.0
 21
-606.0
 31
0.0
  0
ARC
  5
6F6
  8
DATA
  6
CONTINUOUS
 62
     7
 10
1795.882446
 20
-599.1986689999999
 30
0.0
 40
1.805197397617412
 50
264.6908562215333
 51
323.9911991542476
  0
ARC
  5
6F7
  8
DATA
  6
CONTINUOUS
 62
     7
 10
1795.548385
 20
-599.1986689999999
 30
0.0
 40
1.805194465862631
 50
216.0088008457567
 51
275.3091437784647
  0
ARC
  5
6F8
  8
DATA
  6
CONTINUOUS
 62
     7
 10
1800.469595
 20
-599.6672629999998
 30
0.0
 40
1.33182798820255
 50
273.8309816091145
 51
351.1351473098017
  0
ARC
  5
6F9
  8
DATA
  6
CONTINUOUS
 62
     7
 10
1800.482874
 20
-595.3229509999999
 30
0.0
 40
1.329810953038005
 50
8.226923859016582
 51
86.15412669215198
  0
ARC
  5
6FA
  8
DATA
  6
CONTINUOUS
 62
     7
 10
1800.336546954501
 20
-600.0051991683558
 30
0.0
 40
0.2231481803727756
 50
307.6419024976085
 51
354.2670192894407
  0
LINE
  5
6FB
  8
DATA
  6
CONTINUOUS
 62
     7
 10
1794.604715
 20
-596.4887449999999
 30
0.0
 11
1795.650837
 21
-593.9961289999999
 31
0.0
  0
LINE
  5
6FC
  8
DATA
  6
CONTINUOUS
 62
     7
 10
1794.604715
 20
-596.4887449999999
 30
0.0
 11
1793.571501
 21
-593.9961289999999
 31
0.0
  0
LINE
  5
6FD
  8
DATA
  6
CONTINUOUS
 62
     7
 10
1802.534595
 20
-600.9961289999999
 30
0.0
 11
1802.534595
 21
-593.9961289999999
 31
0.0
  0
LINE
  5
6FE
  8
DATA
  6
CONTINUOUS
 62
     7
 10
1803.877769
 20
-593.9961289999999
 30
0.0
 11
1803.877769
 21
-599.9241769999999
 31
0.0
  0
LINE
  5
6FF
  8
DATA
  6
CONTINUOUS
 62
     7
 10
1796.141614
 20
-593.9961289999999
 30
0.0
 11
1796.141614
 21
-599.9241769999999
 31
0.0
  0
LINE
  5
700
  8
DATA
  6
CONTINUOUS
 62
     7
 10
1797.433128
 20
-593.9961289999999
 30
0.0
 11
1797.433128
 21
-599.9241769999999
 31
0.0
  0
LINE
  5
701
  8
DATA
  6
CONTINUOUS
 62
     7
 10
1798.104715
 20
-593.9961289999999
 30
0.0
 11
1798.104715
 21
-600.9961289999999
 31
0.0
  0
LINE
  5
702
  8
DATA
  6
CONTINUOUS
 62
     7
 10
1799.279994
 20
-594.6547939999998
 30
0.0
 11
1799.279994
 21
-596.902032
 31
0.0
  0
LINE
  5
703
  8
DATA
  6
CONTINUOUS
 62
     7
 10
1801.799
 20
-596.7719999999999
 30
0.0
 11
1801.799
 21
-595.1326629999999
 31
0.0
  0
LINE
  5
704
  8
DATA
  6
CONTINUOUS
 62
     7
 10
1800.558579
 20
-594.964761
 30
0.0
 11
1800.558579
 21
-596.5920719999999
 31
0.0
  0
LINE
  5
705
  8
DATA
  6
CONTINUOUS
 62
     7
 10
1795.160067
 20
-598.8005509999998
 30
0.0
 11
1795.160067
 21
-599.9241629999999
 31
0.0
  0
LINE
  5
706
  8
DATA
  6
CONTINUOUS
 62
     7
 10
1795.160067
 20
-598.8005509999998
 30
0.0
 11
1793.997703
 21
-598.8005509999998
 31
0.0
  0
LINE
  5
707
  8
DATA
  6
CONTINUOUS
 62
     7
 10
1793.997703
 20
-598.8005509999998
 30
0.0
 11
1793.997703
 21
-599.9241629999999
 31
0.0
  0
ARC
  5
708
  8
DATA
  6
CONTINUOUS
 62
     7
 10
1795.653301
 20
-599.9393109999999
 30
0.0
 40
0.4885501783696802
 50
269.711848792745
 51
1.775987005705986
  0
ARC
  5
709
  8
DATA
  6
CONTINUOUS
 62
     7
 10
1795.64838
 20
-599.9393109999999
 30
0.0
 40
0.48854768022176
 50
178.2240129943039
 51
270.2881512072364
  0
ARC
  5
70A
  8
DATA
  6
CONTINUOUS
 62
     7
 10
1794.813511
 20
-599.8845919999999
 30
0.0
 40
0.816760145723299
 50
182.7769954499955
 51
207.3596066671429
  0
CIRCLE
  5
70B
  8
DATA
  6
CONTINUOUS
 62
     7
 10
1794.675751
 20
-597.4573839999998
 30
0.0
 40
0.6651260000001002
  0
LINE
  5
70C
  8
DATA
  6
CONTINUOUS
 62
     7
 10
1806.034595
 20
-600.9961219999998
 30
0.0
 11
1802.534595
 21
-600.9961219999998
 31
0.0
  0
LINE
  5
70D
  8
DATA
  6
CONTINUOUS
 62
     7
 10
1806.034595
 20
-600.9961219999998
 30
0.0
 11
1806.034595
 21
-598.8005439999997
 31
0.0
  0
LINE
  5
70E
  8
DATA
  6
CONTINUOUS
 62
     7
 10
1806.034595
 20
-598.8005509999998
 30
0.0
 11
1804.859323
 21
-598.8005509999998
 31
0.0
  0
LINE
  5
70F
  8
DATA
  6
CONTINUOUS
 62
     7
 10
1804.859323
 20
-598.8005509999998
 30
0.0
 11
1804.859323
 21
-599.9241629999999
 31
0.0
  0
LINE
  5
710
  8
DATA
  6
CONTINUOUS
 62
     7
 10
1798.104715
 20
-600.9961219999998
 30
0.0
 11
1800.558579
 21
-600.9961149999997
 31
0.0
  0
LINE
  5
711
  8
DATA
  6
CONTINUOUS
 62
     7
 10
1799.279987
 20
-600.3374499999998
 30
0.0
 11
1799.912829
 21
-600.3374499999998
 31
0.0
  0
LINE
  5
712
  8
DATA
  6
CONTINUOUS
 62
     7
 10
1799.279994
 20
-600.3374499999998
 30
0.0
 11
1799.279994
 21
-597.5736119999999
 31
0.0
  0
LINE
  5
713
  8
DATA
  6
CONTINUOUS
 62
     7
 10
1799.279987
 20
-597.5736119999999
 30
0.0
 11
1799.912829
 21
-597.5736119999999
 31
0.0
  0
LINE
  5
714
  8
DATA
  6
CONTINUOUS
 62
     7
 10
1800.558579
 20
-600.0274899999997
 30
0.0
 11
1800.558579
 21
-597.883572
 31
0.0
  0
ARC
  5
715
  8
DATA
  6
CONTINUOUS
 62
     7
 10
1796.61732
 20
-599.8845919999999
 30
0.0
 40
0.816758983505526
 50
332.6403933328597
 51
357.2230045500183
  0
ARC
  5
716
  8
DATA
  6
CONTINUOUS
 62
     7
 10
1804.371003
 20
-599.9393109999999
 30
0.0
 40
0.4885501783696791
 50
269.7118487927717
 51
1.775987005705986
  0
ARC
  5
717
  8
DATA
  6
CONTINUOUS
 62
     7
 10
1804.366089
 20
-599.9393109999999
 30
0.0
 40
0.48854768022176
 50
178.2240129943039
 51
270.2881512072364
  0
LINE
  5
718
  8
DATA
  6
CONTINUOUS
 62
     7
 10
1801.798433
 20
-599.8725029999998
 30
0.0
 11
1801.798433
 21
-598.0127289999998
 31
0.0
  0
LINE
  5
719
  8
DATA
  6
CONTINUOUS
 62
     7
 10
1799.279987
 20
-596.902032
 30
0.0
 11
1799.912829
 21
-596.902032
 31
0.0
  0
LINE
  5
71A
  8
DATA
  6
CONTINUOUS
 62
     7
 10
1796.141614
 20
-593.9961289999999
 30
0.0
 11
1797.433128
 21
-593.9961289999999
 31
0.0
  0
LINE
  5
71B
  8
DATA
  6
CONTINUOUS
 62
     7
 10
1793.571501
 20
-593.9961289999999
 30
0.0
 11
1795.650837
 21
-593.9961289999999
 31
0.0
  0
LINE
  5
71C
  8
DATA
  6
CONTINUOUS
 62
     7
 10
1802.534595
 20
-593.9961289999999
 30
0.0
 11
1803.877769
 21
-593.9961289999999
 31
0.0
  0
LINE
  5
71D
  8
DATA
  6
CONTINUOUS
 62
     7
 10
1798.104715
 20
-593.9961289999999
 30
0.0
 11
1800.572068089703
 21
-593.996134665618
 31
0.0
  0
LINE
  5
71E
  8
DATA
  6
CONTINUOUS
 62
     7
 10
1799.279987
 20
-594.6548009999999
 30
0.0
 11
1799.912829
 21
-594.6548009999999
 31
0.0
  0
ARC
  5
71F
  8
DATA
  6
CONTINUOUS
 62
     7
 10
1799.920301823822
 20
-599.1098684275889
 30
0.0
 40
1.22760431736717
 50
269.6512199376234
 51
282.8264828068785
  0
ARC
  5
720
  8
DATA
  6
CONTINUOUS
 62
     7
 10
1800.058181219227
 20
-599.6288752178589
 30
0.0
 40
0.6912065325850965
 50
281.233103622661
 51
306.8620088940581
  0
ARC
  5
721
  8
DATA
  6
CONTINUOUS
 62
     7
 10
1800.336546954501
 20
-597.9058628316438
 30
0.0
 40
0.2231481803728832
 50
5.732980710559376
 51
52.35809750242716
  0
ARC
  5
722
  8
DATA
  6
CONTINUOUS
 62
     7
 10
1799.920301823822
 20
-598.8011935724107
 30
0.0
 40
1.227604317367166
 50
77.17351719312146
 51
90.34878006237653
  0
ARC
  5
723
  8
DATA
  6
CONTINUOUS
 62
     7
 10
1800.058181219227
 20
-598.2821867821408
 30
0.0
 40
0.6912065325852745
 50
53.13799110594198
 51
78.76689637734273
  0
ARC
  5
724
  8
DATA
  6
CONTINUOUS
 62
     7
 10
1801.121057
 20
-598.0585159999998
 30
0.0
 40
0.6789217147394994
 50
3.86700635982428
 51
88.36163456789824
  0
ARC
  5
725
  8
DATA
  6
CONTINUOUS
 62
     7
 10
1801.120434
 20
-596.700572
 30
0.0
 40
0.6795963579632128
 50
271.689282104659
 51
356.0782829826814
  0
ARC
  5
726
  8
DATA
  6
CONTINUOUS
 62
     7
 10
1800.336546954501
 20
-596.5697811683558
 30
0.0
 40
0.2231481803729556
 50
307.6419024975729
 51
354.2670192893826
  0
ARC
  5
727
  8
DATA
  6
CONTINUOUS
 62
     7
 10
1799.920301823822
 20
-595.6744504275889
 30
0.0
 40
1.227604317367397
 50
269.6512199376235
 51
282.8264828068762
  0
ARC
  5
728
  8
DATA
  6
CONTINUOUS
 62
     7
 10
1800.058181219227
 20
-596.1934572178588
 30
0.0
 40
0.6912065325850965
 50
281.233103622661
 51
306.8620088940693
  0
ARC
  5
729
  8
DATA
  6
CONTINUOUS
 62
     7
 10
1800.336546954501
 20
-594.9870518316438
 30
0.0
 40
0.2231481803728832
 50
5.732980710559376
 51
52.35809750239152
  0
ARC
  5
72A
  8
DATA
  6
CONTINUOUS
 62
     7
 10
1799.920301823822
 20
-595.8823825724107
 30
0.0
 40
1.227604317367166
 50
77.17351719312146
 51
90.34878006237653
  0
ARC
  5
72B
  8
DATA
  6
CONTINUOUS
 62
     7
 10
1800.058181219227
 20
-595.3633757821408
 30
0.0
 40
0.6912065325850926
 50
53.13799110593067
 51
78.76689637733905
  0
TEXT
  5
72C
  8
DATA
 62
     7
 10
1791.92366265191
 20
-608.5180257161459
 30
0.0
 40
2.036051432291667
  1
PROFESSIONAL
 41
0.7
 72
     1
 11
1800.0
 21
-607.5
 31
0.0
 73
     2
  0
LINE
  5
72D
  8
DATA
  6
CONTINUOUS
 62
     7
 10
554.5
 20
60.625
 30
0.0
 11
554.5
 21
114.625
 31
0.0
  0
LINE
  5
72E
  8
DATA
  6
CONTINUOUS
 62
     7
 10
645.5
 20
60.625
 30
0.0
 11
645.5
 21
114.625
 31
0.0
  0
LINE
  5
72F
  8
DATA
  6
CONTINUOUS
 62
     7
 10
630.0
 20
43.625
 30
0.0
 11
570.0
 21
43.625
 31
0.0
  0
LINE
  5
730
  8
DATA
  6
CONTINUOUS
 62
     7
 10
559.0
 20
60.76393622743058
 30
0.0
 11
559.0
 21
113.2348633859436
 31
0.0
  0
LINE
  5
731
  8
DATA
  6
CONTINUOUS
 62
     7
 10
641.0
 20
60.76393622743058
 30
0.0
 11
641.0
 21
113.2348633859436
 31
0.0
  0
LINE
  5
732
  8
DATA
  6
CONTINUOUS
 62
     7
 10
571.4355006779515
 20
47.125
 30
0.0
 11
628.5644993220485
 21
47.125
 31
0.0
  0
ARC
  5
733
  8
DATA
  6
CONTINUOUS
 62
     7
 10
600.0
 20
41.5
 30
0.0
 40
86.125
 50
58.10920819815429
 51
121.8907918018457
  0
ARC
  5
734
  8
DATA
  6
CONTINUOUS
 62
     7
 10
600.0
 20
41.5
 30
0.0
 40
82.62499999999989
 50
60.24991103599317
 51
119.7500889640067
  0
LINE
  5
735
  8
DATA
  6
CONTINUOUS
 62
     7
 10
554.5
 20
60.625
 30
0.0
 11
570.0
 21
43.625
 31
0.0
  0
LINE
  5
736
  8
DATA
  6
CONTINUOUS
 62
     7
 10
630.0
 20
43.625
 30
0.0
 11
645.5
 21
60.625
 31
0.0
  0
LINE
  5
737
  8
DATA
  6
CONTINUOUS
 62
     7
 10
559.0
 20
60.76393622743058
 30
0.0
 11
571.4355006779515
 21
47.125
 31
0.0
  0
LINE
  5
738
  8
DATA
  6
CONTINUOUS
 62
     7
 10
641.0
 20
60.76393622743058
 30
0.0
 11
628.5644993220485
 21
47.125
 31
0.0
  0
ARC
  5
739
  8
DATA
  6
CONTINUOUS
 62
     7
 10
600.0
 20
41.5
 30
0.0
 40
77.62499999999997
 50
63.19947828261986
 51
116.8005217173801
  0
LINE
  5
73A
  8
DATA
  6
CONTINUOUS
 62
     7
 10
573.6429813075556
 20
52.125
 30
0.0
 11
626.3570186924444
 21
52.125
 31
0.0
  0
LINE
  5
73B
  8
DATA
  6
CONTINUOUS
 62
     7
 10
565.0
 20
61.60439885344817
 30
0.0
 11
565.0
 21
110.7866554612069
 31
0.0
  0
LINE
  5
73C
  8
DATA
  6
CONTINUOUS
 62
     7
 10
635.0
 20
61.60439885344817
 30
0.0
 11
635.0
 21
110.7866554612069
 31
0.0
  0
LINE
  5
73D
  8
DATA
  6
CONTINUOUS
 62
     7
 10
565.0
 20
61.60439885344817
 30
0.0
 11
573.6429813075556
 21
52.125
 31
0.0
  0
LINE
  5
73E
  8
DATA
  6
CONTINUOUS
 62
     7
 10
635.0
 20
61.60439885344817
 30
0.0
 11
626.3570186924444
 21
52.125
 31
0.0
  0
LINE
  5
73F
  8
DATA
  6
CONTINUOUS
 62
     7
 10
-1727.5
 20
-2380.0
 30
0.0
 11
-1628.9
 21
-2380.0
 31
0.0
  0
LINE
  5
740
  8
DATA
  6
CONTINUOUS
 62
     7
 10
-1571.1
 20
-2380.0
 30
0.0
 11
-1472.5
 21
-2380.0
 31
0.0
  0
LINE
  5
741
  8
DATA
  6
CONTINUOUS
 62
     7
 10
-1574.1
 20
-2306.571239415712
 30
0.0
 11
-1574.1
 21
-2377.0
 31
0.0
  0
LINE
  5
742
  8
DATA
  6
CONTINUOUS
 62
     7
 10
-1625.9
 20
-2306.571239415712
 30
0.0
 11
-1625.9
 21
-2377.0
 31
0.0
  0
ARC
  5
743
  8
DATA
  6
CONTINUOUS
 62
     7
 10
-1628.9
 20
-2377.0
 30
0.0
 40
3.0
 50
270.0
 51
0.0
  0
ARC
  5
744
  8
DATA
  6
CONTINUOUS
 62
     7
 10
-1571.1
 20
-2377.0
 30
0.0
 40
3.0
 50
180.0
 51
270.0
  0
LINE
  5
745
  8
DATA
  6
CONTINUOUS
 62
     7
 10
-1727.5
 20
-2682.0
 30
0.0
 11
-1472.5
 21
-2682.0
 31
0.0
  0
LINE
  5
746
  8
DATA
  6
CONTINUOUS
 62
     7
 10
-1742.5
 20
-2395.0
 30
0.0
 11
-1742.5
 21
-2667.0
 31
0.0
  0
LINE
  5
747
  8
DATA
  6
CONTINUOUS
 62
     7
 10
-1457.5
 20
-2395.0
 30
0.0
 11
-1457.5
 21
-2667.0
 31
0.0
  0
ARC
  5
748
  8
DATA
  6
CONTINUOUS
 62
     7
 10
-1727.5
 20
-2395.0
 30
0.0
 40
15.0
 50
90.0
 51
180.0
  0
ARC
  5
749
  8
DATA
  6
CONTINUOUS
 62
     7
 10
-1727.5
 20
-2667.0
 30
0.0
 40
15.0
 50
180.0
 51
270.0
  0
ARC
  5
74A
  8
DATA
  6
CONTINUOUS
 62
     7
 10
-1472.5
 20
-2667.0
 30
0.0
 40
15.0
 50
270.0
 51
0.0
  0
ARC
  5
74B
  8
DATA
  6
CONTINUOUS
 62
     7
 10
-1472.5
 20
-2395.0
 30
0.0
 40
15.0
 50
0.0
 51
90.0
  0
LINE
  5
74C
  8
DATA
  6
CONTINUOUS
 62
     7
 10
-1664.5
 20
-2307.983141815465
 30
0.0
 11
-1664.5
 21
-2380.0
 31
0.0
  0
LINE
  5
74D
  8
DATA
  6
CONTINUOUS
 62
     7
 10
-1667.5
 20
-2308.143473920958
 30
0.0
 11
-1667.5
 21
-2380.0
 31
0.0
  0
LINE
  5
74E
  8
DATA
  6
CONTINUOUS
 62
     7
 10
-1724.5
 20
-2330.374439490904
 30
0.0
 11
-1724.5
 21
-2380.0
 31
0.0
  0
LINE
  5
74F
  8
DATA
  6
CONTINUOUS
 62
     7
 10
-1727.5
 20
-2330.686199864078
 30
0.0
 11
-1727.5
 21
-2380.0
 31
0.0
  0
LINE
  5
750
  8
DATA
  6
CONTINUOUS
 62
     7
 10
-1535.5
 20
-2307.983141815465
 30
0.0
 11
-1535.5
 21
-2380.0
 31
0.0
  0
LINE
  5
751
  8
DATA
  6
CONTINUOUS
 62
     7
 10
-1532.5
 20
-2308.143473920958
 30
0.0
 11
-1532.5
 21
-2380.0
 31
0.0
  0
LINE
  5
752
  8
DATA
  6
CONTINUOUS
 62
     7
 10
-1475.5
 20
-2330.374439490904
 30
0.0
 11
-1475.5
 21
-2380.0
 31
0.0
  0
LINE
  5
753
  8
DATA
  6
CONTINUOUS
 62
     7
 10
-1472.5
 20
-2330.686199864078
 30
0.0
 11
-1472.5
 21
-2380.0
 31
0.0
  0
CIRCLE
  5
754
  8
DATA
  6
CONTINUOUS
 62
     7
 10
-1650.0
 20
-2332.0
 30
0.0
 40
3.75
  0
CIRCLE
  5
755
  8
DATA
  6
CONTINUOUS
 62
     7
 10
-1650.0
 20
-2332.0
 30
0.0
 40
8.0
  0
LINE
  5
756
  8
DATA
  6
CONTINUOUS
 62
     7
 10
-1652.0
 20
-2332.0
 30
0.0
 11
-1648.0
 21
-2332.0
 31
0.0
  0
LINE
  5
757
  8
DATA
  6
CONTINUOUS
 62
     7
 10
-1650.0
 20
-2334.0
 30
0.0
 11
-1650.0
 21
-2330.0
 31
0.0
  0
CIRCLE
  5
758
  8
DATA
  6
CONTINUOUS
 62
     7
 10
-1550.0
 20
-2332.0
 30
0.0
 40
3.75
  0
CIRCLE
  5
759
  8
DATA
  6
CONTINUOUS
 62
     7
 10
-1550.0
 20
-2332.0
 30
0.0
 40
8.0
  0
LINE
  5
75A
  8
DATA
  6
CONTINUOUS
 62
     7
 10
-1552.0
 20
-2332.0
 30
0.0
 11
-1548.0
 21
-2332.0
 31
0.0
  0
LINE
  5
75B
  8
DATA
  6
CONTINUOUS
 62
     7
 10
-1550.0
 20
-2334.0
 30
0.0
 11
-1550.0
 21
-2330.0
 31
0.0
  0
LINE
  5
75C
  8
DATA
  6
CONTINUOUS
 62
     7
 10
-1571.0
 20
-2328.5
 30
0.0
 11
-1574.1
 21
-2328.5
 31
0.0
  0
LINE
  5
75D
  8
DATA
  6
CONTINUOUS
 62
     7
 10
-1625.9
 20
-2328.5
 30
0.0
 11
-1629.0
 21
-2328.5
 31
0.0
  0
LINE
  5
75E
  8
DATA
  6
CONTINUOUS
 62
     7
 10
-1629.0
 20
-2321.5
 30
0.0
 11
-1625.9
 21
-2321.5
 31
0.0
  0
LINE
  5
75F
  8
DATA
  6
CONTINUOUS
 62
     7
 10
-1574.1
 20
-2321.5
 30
0.0
 11
-1571.0
 21
-2321.5
 31
0.0
  0
ARC
  5
760
  8
DATA
  6
CONTINUOUS
 62
     7
 10
-1629.0
 20
-2325.0
 30
0.0
 40
3.500000000000455
 50
89.99999999999629
 51
270.0000000000074
  0
ARC
  5
761
  8
DATA
  6
CONTINUOUS
 62
     7
 10
-1571.0
 20
-2325.0
 30
0.0
 40
3.500000000000455
 50
269.9999999999926
 51
90.0000000000037
  0
LINE
  5
762
  8
DATA
  6
CONTINUOUS
 62
     7
 10
-1763.678297486971
 20
-2388.6
 30
0.0
 11
-1741.066134305689
 21
-2388.6
 31
0.0
  0
LINE
  5
763
  8
DATA
  6
CONTINUOUS
 62
     7
 10
-1764.992923187986
 20
-2391.4
 30
0.0
 11
-1742.061593319414
 21
-2391.4
 31
0.0
  0
LINE
  5
764
  8
DATA
  6
CONTINUOUS
 62
     7
 10
-1436.321702513029
 20
-2388.6
 30
0.0
 11
-1458.933865694311
 21
-2388.6
 31
0.0
  0
LINE
  5
765
  8
DATA
  6
CONTINUOUS
 62
     7
 10
-1435.007076812014
 20
-2391.4
 30
0.0
 11
-1457.938406680586
 21
-2391.4
 31
0.0
  0
LINE
  5
766
  8
DATA
  6
CONTINUOUS
 62
     7
 10
-1780.907763975155
 20
-2439.6
 30
0.0
 11
-1742.5
 21
-2439.6
 31
0.0
  0
LINE
  5
767
  8
DATA
  6
CONTINUOUS
 62
     7
 10
-1457.5
 20
-2439.6
 30
0.0
 11
-1419.092236024845
 21
-2439.6
 31
0.0
  0
LINE
  5
768
  8
DATA
  6
CONTINUOUS
 62
     7
 10
-1780.899068322982
 20
-2442.4
 30
0.0
 11
-1742.5
 21
-2442.4
 31
0.0
  0
LINE
  5
769
  8
DATA
  6
CONTINUOUS
 62
     7
 10
-1457.5
 20
-2442.4
 30
0.0
 11
-1419.100931677018
 21
-2442.4
 31
0.0
  0
LINE
  5
76A
  8
DATA
  6
CONTINUOUS
 62
     7
 10
-1780.792857142857
 20
-2476.6
 30
0.0
 11
-1742.5
 21
-2476.6
 31
0.0
  0
LINE
  5
76B
  8
DATA
  6
CONTINUOUS
 62
     7
 10
-1457.5
 20
-2476.6
 30
0.0
 11
-1419.207142857143
 21
-2476.6
 31
0.0
  0
LINE
  5
76C
  8
DATA
  6
CONTINUOUS
 62
     7
 10
-1780.784161490683
 20
-2479.4
 30
0.0
 11
-1742.5
 21
-2479.4
 31
0.0
  0
LINE
  5
76D
  8
DATA
  6
CONTINUOUS
 62
     7
 10
-1457.5
 20
-2479.4
 30
0.0
 11
-1419.215838509317
 21
-2479.4
 31
0.0
  0
LINE
  5
76E
  8
DATA
  6
CONTINUOUS
 62
     7
 10
-1419.333850931677
 20
-2517.4
 30
0.0
 11
-1457.5
 21
-2517.4
 31
0.0
  0
LINE
  5
76F
  8
DATA
  6
CONTINUOUS
 62
     7
 10
-1742.5
 20
-2517.4
 30
0.0
 11
-1780.666149068323
 21
-2517.4
 31
0.0
  0
LINE
  5
770
  8
DATA
  6
CONTINUOUS
 62
     7
 10
-1419.325155279503
 20
-2514.6
 30
0.0
 11
-1457.5
 21
-2514.6
 31
0.0
  0
LINE
  5
771
  8
DATA
  6
CONTINUOUS
 62
     7
 10
-1742.5
 20
-2514.6
 30
0.0
 11
-1780.674844720497
 21
-2514.6
 31
0.0
  0
LINE
  5
772
  8
DATA
  6
CONTINUOUS
 62
     7
 10
-1780.553726708075
 20
-2553.6
 30
0.0
 11
-1742.5
 21
-2553.6
 31
0.0
  0
LINE
  5
773
  8
DATA
  6
CONTINUOUS
 62
     7
 10
-1457.5
 20
-2553.6
 30
0.0
 11
-1419.446273291925
 21
-2553.6
 31
0.0
  0
LINE
  5
774
  8
DATA
  6
CONTINUOUS
 62
     7
 10
-1780.545031055901
 20
-2556.4
 30
0.0
 11
-1742.5
 21
-2556.4
 31
0.0
  0
LINE
  5
775
  8
DATA
  6
CONTINUOUS
 62
     7
 10
-1457.5
 20
-2556.4
 30
0.0
 11
-1419.454968944099
 21
-2556.4
 31
0.0
  0
LINE
  5
776
  8
DATA
  6
CONTINUOUS
 62
     7
 10
-1419.572981366459
 20
-2594.4
 30
0.0
 11
-1457.5
 21
-2594.4
 31
0.0
  0
LINE
  5
777
  8
DATA
  6
CONTINUOUS
 62
     7
 10
-1742.5
 20
-2594.4
 30
0.0
 11
-1780.42701863354
 21
-2594.4
 31
0.0
  0
LINE
  5
778
  8
DATA
  6
CONTINUOUS
 62
     7
 10
-1419.564285714285
 20
-2591.6
 30
0.0
 11
-1457.5
 21
-2591.6
 31
0.0
  0
LINE
  5
779
  8
DATA
  6
CONTINUOUS
 62
     7
 10
-1742.5
 20
-2591.6
 30
0.0
 11
-1780.435714285715
 21
-2591.6
 31
0.0
  0
LINE
  5
77A
  8
DATA
  6
CONTINUOUS
 62
     7
 10
-1762.63432139803
 20
-2642.6
 30
0.0
 11
-1742.5
 21
-2642.6
 31
0.0
  0
LINE
  5
77B
  8
DATA
  6
CONTINUOUS
 62
     7
 10
-1457.5
 20
-2642.6
 30
0.0
 11
-1437.365678601969
 21
-2642.6
 31
0.0
  0
LINE
  5
77C
  8
DATA
  6
CONTINUOUS
 62
     7
 10
-1762.593784962
 20
-2645.4
 30
0.0
 11
-1742.5
 21
-2645.4
 31
0.0
  0
LINE
  5
77D
  8
DATA
  6
CONTINUOUS
 62
     7
 10
-1457.5
 20
-2645.4
 30
0.0
 11
-1437.406215038
 21
-2645.4
 31
0.0
  0
CIRCLE
  5
77E
  8
DATA
  6
CONTINUOUS
 62
     7
 10
-1760.0
 20
-2461.0
 30
0.0
 40
3.75
  0
CIRCLE
  5
77F
  8
DATA
  6
CONTINUOUS
 62
     7
 10
-1760.0
 20
-2461.0
 30
0.0
 40
8.0
  0
LINE
  5
780
  8
DATA
  6
CONTINUOUS
 62
     7
 10
-1762.0
 20
-2461.0
 30
0.0
 11
-1758.0
 21
-2461.0
 31
0.0
  0
LINE
  5
781
  8
DATA
  6
CONTINUOUS
 62
     7
 10
-1760.0
 20
-2463.0
 30
0.0
 11
-1760.0
 21
-2459.0
 31
0.0
  0
CIRCLE
  5
782
  8
DATA
  6
CONTINUOUS
 62
     7
 10
-1760.0
 20
-2579.0
 30
0.0
 40
3.75
  0
CIRCLE
  5
783
  8
DATA
  6
CONTINUOUS
 62
     7
 10
-1760.0
 20
-2579.0
 30
0.0
 40
8.0
  0
LINE
  5
784
  8
DATA
  6
CONTINUOUS
 62
     7
 10
-1762.0
 20
-2579.0
 30
0.0
 11
-1758.0
 21
-2579.0
 31
0.0
  0
LINE
  5
785
  8
DATA
  6
CONTINUOUS
 62
     7
 10
-1760.0
 20
-2581.0
 30
0.0
 11
-1760.0
 21
-2577.0
 31
0.0
  0
CIRCLE
  5
786
  8
DATA
  6
CONTINUOUS
 62
     7
 10
-1440.0
 20
-2579.0
 30
0.0
 40
3.75
  0
CIRCLE
  5
787
  8
DATA
  6
CONTINUOUS
 62
     7
 10
-1440.0
 20
-2579.0
 30
0.0
 40
8.0
  0
LINE
  5
788
  8
DATA
  6
CONTINUOUS
 62
     7
 10
-1442.0
 20
-2579.0
 30
0.0
 11
-1438.0
 21
-2579.0
 31
0.0
  0
LINE
  5
789
  8
DATA
  6
CONTINUOUS
 62
     7
 10
-1440.0
 20
-2581.0
 30
0.0
 11
-1440.0
 21
-2577.0
 31
0.0
  0
CIRCLE
  5
78A
  8
DATA
  6
CONTINUOUS
 62
     7
 10
-1440.0
 20
-2461.0
 30
0.0
 40
3.75
  0
CIRCLE
  5
78B
  8
DATA
  6
CONTINUOUS
 62
     7
 10
-1440.0
 20
-2461.0
 30
0.0
 40
8.0
  0
LINE
  5
78C
  8
DATA
  6
CONTINUOUS
 62
     7
 10
-1442.0
 20
-2461.0
 30
0.0
 11
-1438.0
 21
-2461.0
 31
0.0
  0
LINE
  5
78D
  8
DATA
  6
CONTINUOUS
 62
     7
 10
-1440.0
 20
-2463.0
 30
0.0
 11
-1440.0
 21
-2459.0
 31
0.0
  0
CIRCLE
  5
78E
  8
DATA
  6
CONTINUOUS
 62
     7
 10
-1747.5
 20
-2346.0
 30
0.0
 40
3.75
  0
CIRCLE
  5
78F
  8
DATA
  6
CONTINUOUS
 62
     7
 10
-1747.5
 20
-2346.0
 30
0.0
 40
8.0
  0
LINE
  5
790
  8
DATA
  6
CONTINUOUS
 62
     7
 10
-1749.5
 20
-2346.0
 30
0.0
 11
-1745.5
 21
-2346.0
 31
0.0
  0
LINE
  5
791
  8
DATA
  6
CONTINUOUS
 62
     7
 10
-1747.5
 20
-2348.0
 30
0.0
 11
-1747.5
 21
-2344.0
 31
0.0
  0
CIRCLE
  5
792
  8
DATA
  6
CONTINUOUS
 62
     7
 10
-1452.5
 20
-2346.0
 30
0.0
 40
3.75
  0
CIRCLE
  5
793
  8
DATA
  6
CONTINUOUS
 62
     7
 10
-1452.5
 20
-2346.0
 30
0.0
 40
8.0
  0
LINE
  5
794
  8
DATA
  6
CONTINUOUS
 62
     7
 10
-1454.5
 20
-2346.0
 30
0.0
 11
-1450.5
 21
-2346.0
 31
0.0
  0
LINE
  5
795
  8
DATA
  6
CONTINUOUS
 62
     7
 10
-1452.5
 20
-2348.0
 30
0.0
 11
-1452.5
 21
-2344.0
 31
0.0
  0
LINE
  5
796
  8
DATA
  6
CONTINUOUS
 62
     7
 10
-1707.6
 20
-2682.0
 30
0.0
 11
-1707.6
 21
-2720.5
 31
0.0
  0
LINE
  5
797
  8
DATA
  6
CONTINUOUS
 62
     7
 10
-1710.4
 20
-2682.0
 30
0.0
 11
-1710.4
 21
-2720.5
 31
0.0
  0
LINE
  5
798
  8
DATA
  6
CONTINUOUS
 62
     7
 10
-1489.6
 20
-2682.0
 30
0.0
 11
-1489.6
 21
-2720.5
 31
0.0
  0
LINE
  5
799
  8
DATA
  6
CONTINUOUS
 62
     7
 10
-1492.4
 20
-2682.0
 30
0.0
 11
-1492.4
 21
-2720.5
 31
0.0
  0
LINE
  5
79A
  8
DATA
  6
CONTINUOUS
 62
     7
 10
-1664.1
 20
-2682.0
 30
0.0
 11
-1664.1
 21
-2738.2
 31
0.0
  0
LINE
  5
79B
  8
DATA
  6
CONTINUOUS
 62
     7
 10
-1666.9
 20
-2682.0
 30
0.0
 11
-1666.9
 21
-2738.2
 31
0.0
  0
LINE
  5
79C
  8
DATA
  6
CONTINUOUS
 62
     7
 10
-1533.1
 20
-2682.0
 30
0.0
 11
-1533.1
 21
-2738.2
 31
0.0
  0
LINE
  5
79D
  8
DATA
  6
CONTINUOUS
 62
     7
 10
-1535.9
 20
-2682.0
 30
0.0
 11
-1535.9
 21
-2738.2
 31
0.0
  0
LINE
  5
79E
  8
DATA
  6
CONTINUOUS
 62
     7
 10
-1623.6
 20
-2682.0
 30
0.0
 11
-1623.6
 21
-2738.2
 31
0.0
  0
LINE
  5
79F
  8
DATA
  6
CONTINUOUS
 62
     7
 10
-1626.4
 20
-2682.0
 30
0.0
 11
-1626.4
 21
-2738.2
 31
0.0
  0
LINE
  5
7A0
  8
DATA
  6
CONTINUOUS
 62
     7
 10
-1573.6
 20
-2682.0
 30
0.0
 11
-1573.6
 21
-2738.2
 31
0.0
  0
LINE
  5
7A1
  8
DATA
  6
CONTINUOUS
 62
     7
 10
-1576.4
 20
-2682.0
 30
0.0
 11
-1576.4
 21
-2738.2
 31
0.0
  0
CIRCLE
  5
7A2
  8
DATA
  6
CONTINUOUS
 62
     7
 10
-1550.0
 20
-2722.5
 30
0.0
 40
3.75
  0
CIRCLE
  5
7A3
  8
DATA
  6
CONTINUOUS
 62
     7
 10
-1550.0
 20
-2722.5
 30
0.0
 40
8.0
  0
LINE
  5
7A4
  8
DATA
  6
CONTINUOUS
 62
     7
 10
-1548.0
 20
-2722.5
 30
0.0
 11
-1552.0
 21
-2722.5
 31
0.0
  0
LINE
  5
7A5
  8
DATA
  6
CONTINUOUS
 62
     7
 10
-1550.0
 20
-2720.5
 30
0.0
 11
-1550.0
 21
-2724.5
 31
0.0
  0
CIRCLE
  5
7A6
  8
DATA
  6
CONTINUOUS
 62
     7
 10
-1650.0
 20
-2722.5
 30
0.0
 40
3.75
  0
CIRCLE
  5
7A7
  8
DATA
  6
CONTINUOUS
 62
     7
 10
-1650.0
 20
-2722.5
 30
0.0
 40
8.0
  0
LINE
  5
7A8
  8
DATA
  6
CONTINUOUS
 62
     7
 10
-1648.0
 20
-2722.5
 30
0.0
 11
-1652.0
 21
-2722.5
 31
0.0
  0
LINE
  5
7A9
  8
DATA
  6
CONTINUOUS
 62
     7
 10
-1650.0
 20
-2720.5
 30
0.0
 11
-1650.0
 21
-2724.5
 31
0.0
  0
CIRCLE
  5
7AA
  8
DATA
  6
CONTINUOUS
 62
     7
 10
-1735.0
 20
-2697.5
 30
0.0
 40
3.75
  0
CIRCLE
  5
7AB
  8
DATA
  6
CONTINUOUS
 62
     7
 10
-1735.0
 20
-2697.5
 30
0.0
 40
8.0
  0
LINE
  5
7AC
  8
DATA
  6
CONTINUOUS
 62
     7
 10
-1733.0
 20
-2697.5
 30
0.0
 11
-1737.0
 21
-2697.5
 31
0.0
  0
LINE
  5
7AD
  8
DATA
  6
CONTINUOUS
 62
     7
 10
-1735.0
 20
-2695.5
 30
0.0
 11
-1735.0
 21
-2699.5
 31
0.0
  0
CIRCLE
  5
7AE
  8
DATA
  6
CONTINUOUS
 62
     7
 10
-1465.0
 20
-2697.5
 30
0.0
 40
3.75
  0
CIRCLE
  5
7AF
  8
DATA
  6
CONTINUOUS
 62
     7
 10
-1465.0
 20
-2697.5
 30
0.0
 40
8.0
  0
LINE
  5
7B0
  8
DATA
  6
CONTINUOUS
 62
     7
 10
-1463.0
 20
-2697.5
 30
0.0
 11
-1467.0
 21
-2697.5
 31
0.0
  0
LINE
  5
7B1
  8
DATA
  6
CONTINUOUS
 62
     7
 10
-1465.0
 20
-2695.5
 30
0.0
 11
-1465.0
 21
-2699.5
 31
0.0
  0
LINE
  5
7B2
  8
DATA
  6
CONTINUOUS
 62
     7
 10
-1755.761968205561
 20
-2681.700474197579
 30
0.0
 11
-1755.707993174022
 21
-2681.66931169859
 31
0.0
  0
LINE
  5
7B3
  8
DATA
  6
CONTINUOUS
 62
     7
 10
-1753.361414339101
 20
-2680.314513776574
 30
0.0
 11
-1741.13367697138
 21
-2673.25482631574
 31
0.0
  0
LINE
  5
7B4
  8
DATA
  6
CONTINUOUS
 62
     7
 10
-1752.069364402179
 20
-2682.801709905148
 30
0.0
 11
-1739.73367697138
 21
-2675.679697446336
 31
0.0
  0
LINE
  5
7B5
  8
DATA
  6
CONTINUOUS
 62
     7
 10
-1444.238031794439
 20
-2681.700474197579
 30
0.0
 11
-1444.292006825978
 21
-2681.66931169859
 31
0.0
  0
LINE
  5
7B6
  8
DATA
  6
CONTINUOUS
 62
     7
 10
-1446.638585660899
 20
-2680.314513776574
 30
0.0
 11
-1458.86632302862
 21
-2673.25482631574
 31
0.0
  0
LINE
  5
7B7
  8
DATA
  6
CONTINUOUS
 62
     7
 10
-1447.930635597821
 20
-2682.801709905148
 30
0.0
 11
-1460.26632302862
 21
-2675.679697446336
 31
0.0
  0
LINE
  5
7B8
  8
DATA
  6
CONTINUOUS
 62
     7
 10
-409.0000000000027
 20
-1500.0
 30
0.0
 11
-409.0000000000027
 21
-2140.455251244595
 31
0.0
  0
LINE
  5
7B9
  8
DATA
  6
CONTINUOUS
 62
     7
 10
2209.000000000003
 20
-1500.0
 30
0.0
 11
2209.000000000003
 21
-2165.794748755405
 31
0.0
  0
LINE
  5
7BA
  8
DATA
  6
CONTINUOUS
 62
     7
 10
-409.0000000000027
 20
-1500.0
 30
0.0
 11
2209.000000000003
 21
-1500.0
 31
0.0
  0
LINE
  5
7BB
  8
DATA
  6
CONTINUOUS
 62
     7
 10
1667.249999999997
 20
-1610.000000000003
 30
0.0
 11
1667.249999999997
 21
-1500.0
 31
0.0
  0
LINE
  5
7BC
  8
DATA
  6
CONTINUOUS
 62
     7
 10
1672.749999999997
 20
-1610.000000000003
 30
0.0
 11
1672.749999999997
 21
-1500.0
 31
0.0
  0
LINE
  5
7BD
  8
DATA
  6
CONTINUOUS
 62
     7
 10
1372.08333333333
 20
-1610.000000000003
 30
0.0
 11
1372.08333333333
 21
-1500.0
 31
0.0
  0
LINE
  5
7BE
  8
DATA
  6
CONTINUOUS
 62
     7
 10
1377.58333333333
 20
-1610.000000000003
 30
0.0
 11
1377.58333333333
 21
-1500.0
 31
0.0
  0
LINE
  5
7BF
  8
DATA
  6
CONTINUOUS
 62
     7
 10
1076.916666666664
 20
-1610.000000000003
 30
0.0
 11
1076.916666666664
 21
-1500.0
 31
0.0
  0
LINE
  5
7C0
  8
DATA
  6
CONTINUOUS
 62
     7
 10
1082.416666666664
 20
-1610.000000000003
 30
0.0
 11
1082.416666666664
 21
-1500.0
 31
0.0
  0
LINE
  5
7C1
  8
DATA
  6
CONTINUOUS
 62
     7
 10
781.7499999999973
 20
-1610.000000000003
 30
0.0
 11
781.7499999999973
 21
-1500.0
 31
0.0
  0
LINE
  5
7C2
  8
DATA
  6
CONTINUOUS
 62
     7
 10
787.2499999999973
 20
-1610.000000000003
 30
0.0
 11
787.2499999999973
 21
-1500.0
 31
0.0
  0
LINE
  5
7C3
  8
DATA
  6
CONTINUOUS
 62
     7
 10
486.5833333333302
 20
-1610.000000000003
 30
0.0
 11
486.5833333333302
 21
-1500.0
 31
0.0
  0
LINE
  5
7C4
  8
DATA
  6
CONTINUOUS
 62
     7
 10
492.0833333333302
 20
-1610.000000000003
 30
0.0
 11
492.0833333333302
 21
-1500.0
 31
0.0
  0
LINE
  5
7C5
  8
DATA
  6
CONTINUOUS
 62
     7
 10
191.4166666666644
 20
-1610.000000000003
 30
0.0
 11
191.4166666666644
 21
-1500.0
 31
0.0
  0
LINE
  5
7C6
  8
DATA
  6
CONTINUOUS
 62
     7
 10
196.9166666666644
 20
-1610.000000000003
 30
0.0
 11
196.9166666666644
 21
-1500.0
 31
0.0
  0
LINE
  5
7C7
  8
DATA
  6
CONTINUOUS
 62
     7
 10
-103.7500000000027
 20
-1610.000000000003
 30
0.0
 11
-103.7500000000027
 21
-1500.0
 31
0.0
  0
LINE
  5
7C8
  8
DATA
  6
CONTINUOUS
 62
     7
 10
-98.25000000000273
 20
-1610.000000000003
 30
0.0
 11
-98.25000000000273
 21
-1500.0
 31
0.0
  0
LINE
  5
7C9
  8
DATA
  6
CONTINUOUS
 62
     7
 10
-103.7500000000027
 20
-1610.000000000003
 30
0.0
 11
-98.25000000000273
 21
-1610.000000000003
 31
0.0
  0
LINE
  5
7CA
  8
DATA
  6
CONTINUOUS
 62
     7
 10
191.4166666666644
 20
-1610.000000000003
 30
0.0
 11
196.9166666666644
 21
-1610.000000000003
 31
0.0
  0
LINE
  5
7CB
  8
DATA
  6
CONTINUOUS
 62
     7
 10
486.5833333333302
 20
-1610.000000000003
 30
0.0
 11
492.0833333333302
 21
-1610.000000000003
 31
0.0
  0
LINE
  5
7CC
  8
DATA
  6
CONTINUOUS
 62
     7
 10
781.7499999999973
 20
-1610.000000000003
 30
0.0
 11
787.2499999999973
 21
-1610.000000000003
 31
0.0
  0
LINE
  5
7CD
  8
DATA
  6
CONTINUOUS
 62
     7
 10
1076.916666666664
 20
-1610.000000000003
 30
0.0
 11
1082.416666666664
 21
-1610.000000000003
 31
0.0
  0
LINE
  5
7CE
  8
DATA
  6
CONTINUOUS
 62
     7
 10
1372.08333333333
 20
-1610.000000000003
 30
0.0
 11
1377.58333333333
 21
-1610.000000000003
 31
0.0
  0
LINE
  5
7CF
  8
DATA
  6
CONTINUOUS
 62
     7
 10
1667.249999999997
 20
-1610.000000000003
 30
0.0
 11
1672.749999999997
 21
-1610.000000000003
 31
0.0
  0
ARC
  5
7D0
  8
DATA
  6
CONTINUOUS
 62
     7
 10
-337.5000000000002
 20
-2165.5
 30
0.0
 40
44.00000000000079
 50
65.78996968610235
 51
132.6369782742784
  0
CIRCLE
  5
7D1
  8
DATA
  6
CONTINUOUS
 62
     7
 10
1901.000000000002
 20
-1874.0
 30
0.0
 40
118.799999999997
  0
ARC
  5
7D2
  8
DATA
  6
CONTINUOUS
 62
     7
 10
1824.789764466973
 20
-1918.0
 30
0.0
 40
13.20000000000343
 50
115.698777695327
 51
304.3012223046557
  0
ARC
  5
7D3
  8
DATA
  6
CONTINUOUS
 62
     7
 10
1900.999999999907
 20
-1874.000000000055
 30
0.0
 40
87.99999999989024
 50
218.6024446093492
 51
201.3975553906467
  0
CIRCLE
  5
7D4
  8
DATA
  6
CONTINUOUS
 62
     7
 10
1851.500000000002
 20
-1874.0
 30
0.0
 40
13.199999999998
  0
CIRCLE
  5
7D5
  8
DATA
  6
CONTINUOUS
 62
     7
 10
1950.500000000002
 20
-1874.0
 30
0.0
 40
13.199999999998
  0
CIRCLE
  5
7D6
  8
DATA
  6
CONTINUOUS
 62
     7
 10
1901.000000000002
 20
-1830.0
 30
0.0
 40
13.199999999998
  0
CIRCLE
  5
7D7
  8
DATA
  6
CONTINUOUS
 62
     7
 10
1777.847078246902
 20
-1750.84707824707
 30
0.0
 40
27.5
  0
CIRCLE
  5
7D8
  8
DATA
  6
CONTINUOUS
 62
     7
 10
2023.895158570138
 20
-1996.895158570271
 30
0.0
 40
27.5
  0
LINE
  5
7D9
  8
DATA
  6
CONTINUOUS
 62
     7
 10
2045.895158570138
 20
-1996.895158570271
 30
0.0
 11
2001.895158570138
 21
-1996.895158570271
 31
0.0
  0
LINE
  5
7DA
  8
DATA
  6
CONTINUOUS
 62
     7
 10
2023.895158570138
 20
-2018.895158570271
 30
0.0
 11
2023.895158570138
 21
-1974.895158570271
 31
0.0
  0
LINE
  5
7DB
  8
DATA
  6
CONTINUOUS
 62
     7
 10
1799.847078246902
 20
-1750.84707824707
 30
0.0
 11
1755.847078246902
 21
-1750.84707824707
 31
0.0
  0
LINE
  5
7DC
  8
DATA
  6
CONTINUOUS
 62
     7
 10
1777.847078246902
 20
-1772.84707824707
 30
0.0
 11
1777.847078246902
 21
-1728.84707824707
 31
0.0
  0
CIRCLE
  5
7DD
  8
DATA
  6
CONTINUOUS
 62
     7
 10
-101.0000000000027
 20
-1874.0
 30
0.0
 40
118.799999999997
  0
ARC
  5
7DE
  8
DATA
  6
CONTINUOUS
 62
     7
 10
-150.4999999999977
 20
-1874.0
 30
0.0
 40
13.200000000003
 50
90.0
 51
270.0
  0
ARC
  5
7DF
  8
DATA
  6
CONTINUOUS
 62
     7
 10
-100.9999999999977
 20
-1830.0
 30
0.0
 40
13.199999999998
 50
0.0
 51
180.0
  0
CIRCLE
  5
7E0
  8
DATA
  6
CONTINUOUS
 62
     7
 10
-224.1529217530979
 20
-1750.84707824707
 30
0.0
 40
27.5
  0
CIRCLE
  5
7E1
  8
DATA
  6
CONTINUOUS
 62
     7
 10
21.89515857013293
 20
-1996.895158570271
 30
0.0
 40
27.5
  0
LINE
  5
7E2
  8
DATA
  6
CONTINUOUS
 62
     7
 10
43.89515857013293
 20
-1996.895158570271
 30
0.0
 11
-0.104841429867065
 21
-1996.895158570271
 31
0.0
  0
LINE
  5
7E3
  8
DATA
  6
CONTINUOUS
 62
     7
 10
21.89515857013293
 20
-2018.895158570271
 30
0.0
 11
21.89515857013293
 21
-1974.895158570271
 31
0.0
  0
LINE
  5
7E4
  8
DATA
  6
CONTINUOUS
 62
     7
 10
-202.1529217530979
 20
-1750.84707824707
 30
0.0
 11
-246.1529217530979
 21
-1750.84707824707
 31
0.0
  0
LINE
  5
7E5
  8
DATA
  6
CONTINUOUS
 62
     7
 10
-224.1529217530979
 20
-1772.84707824707
 30
0.0
 11
-224.1529217530979
 21
-1728.84707824707
 31
0.0
  0
ARC
  5
7E6
  8
DATA
  6
CONTINUOUS
 62
     7
 10
-24.78976446696879
 20
-1918.0
 30
0.0
 40
13.19999999999989
 50
235.6987776953438
 51
64.30122230467319
  0
ARC
  5
7E7
  8
DATA
  6
CONTINUOUS
 62
     7
 10
-101.0000000000027
 20
-1874.0
 30
0.0
 40
88.00000000000277
 50
338.6024446093438
 51
321.3975553906589
  0
ARC
  5
7E8
  8
DATA
  6
CONTINUOUS
 62
     7
 10
-101.0000000000027
 20
-1874.0
 30
0.0
 40
110.0000000000004
 50
299.9999999999999
 51
240.0000000000026
  0
LINE
  5
7E9
  8
DATA
  6
CONTINUOUS
 62
     7
 10
-155.9999999999977
 20
-1969.262794416289
 30
0.0
 11
-155.9999999999977
 21
-1979.301661905213
 31
0.0
  0
LINE
  5
7EA
  8
DATA
  6
CONTINUOUS
 62
     7
 10
-46.00000000000273
 20
-1969.262794416289
 30
0.0
 11
-46.00000000000273
 21
-1979.301661905213
 31
0.0
  0
ARC
  5
7EB
  8
DATA
  6
CONTINUOUS
 62
     7
 10
-101.0000000000778
 20
-1874.00000000006
 30
0.0
 40
34.64999999999046
 50
22.39268780552085
 51
67.60731219445319
  0
ARC
  5
7EC
  8
DATA
  6
CONTINUOUS
 62
     7
 10
-101.0000000000778
 20
-1874.00000000006
 30
0.0
 40
34.6499999999926
 50
112.3926878052689
 51
157.6073121944791
  0
ARC
  5
7ED
  8
DATA
  6
CONTINUOUS
 62
     7
 10
-101.0000000000778
 20
-1874.00000000006
 30
0.0
 40
34.6499999999937
 50
202.392687805295
 51
337.6073121947018
  0
LINE
  5
7EE
  8
DATA
  6
CONTINUOUS
 62
     7
 10
-51.49999999999773
 20
-1887.199999999998
 30
0.0
 11
-68.96279506580049
 21
-1887.199999999998
 31
0.0
  0
LINE
  5
7EF
  8
DATA
  6
CONTINUOUS
 62
     7
 10
-133.03720493436
 20
-1887.199999999998
 30
0.0
 11
-150.4999999999977
 21
-1887.199999999998
 31
0.0
  0
LINE
  5
7F0
  8
DATA
  6
CONTINUOUS
 62
     7
 10
-51.49999999999773
 20
-1860.799999999997
 30
0.0
 11
-68.96279506585051
 21
-1860.799999999997
 31
0.0
  0
LINE
  5
7F1
  8
DATA
  6
CONTINUOUS
 62
     7
 10
-133.037204934305
 20
-1860.799999999997
 30
0.0
 11
-150.4999999999977
 21
-1860.799999999997
 31
0.0
  0
LINE
  5
7F2
  8
DATA
  6
CONTINUOUS
 62
     7
 10
-114.2000000000007
 20
-1830.0
 30
0.0
 11
-114.2000000000007
 21
-1841.962795065773
 31
0.0
  0
LINE
  5
7F3
  8
DATA
  6
CONTINUOUS
 62
     7
 10
-87.79999999999973
 20
-1830.0
 30
0.0
 11
-87.79999999999973
 21
-1841.962795065838
 31
0.0
  0
ARC
  5
7F4
  8
DATA
  6
CONTINUOUS
 62
     7
 10
-51.5000000001603
 20
-1874.0
 30
0.0
 40
13.199999999998
 50
270.0
 51
90.0
  0
CIRCLE
  5
7F5
  8
DATA
  6
CONTINUOUS
 62
     7
 10
194.1666666666644
 20
-1874.0
 30
0.0
 40
118.799999999997
  0
ARC
  5
7F6
  8
DATA
  6
CONTINUOUS
 62
     7
 10
144.6666666666694
 20
-1874.0
 30
0.0
 40
13.200000000003
 50
90.0
 51
270.0
  0
ARC
  5
7F7
  8
DATA
  6
CONTINUOUS
 62
     7
 10
194.1666666666694
 20
-1830.0
 30
0.0
 40
13.199999999998
 50
0.0
 51
180.0
  0
CIRCLE
  5
7F8
  8
DATA
  6
CONTINUOUS
 62
     7
 10
71.01374491356921
 20
-1750.84707824707
 30
0.0
 40
27.5
  0
CIRCLE
  5
7F9
  8
DATA
  6
CONTINUOUS
 62
     7
 10
317.0618252368
 20
-1996.895158570271
 30
0.0
 40
27.5
  0
LINE
  5
7FA
  8
DATA
  6
CONTINUOUS
 62
     7
 10
339.0618252368
 20
-1996.895158570271
 30
0.0
 11
295.0618252368
 21
-1996.895158570271
 31
0.0
  0
LINE
  5
7FB
  8
DATA
  6
CONTINUOUS
 62
     7
 10
317.0618252368
 20
-2018.895158570271
 30
0.0
 11
317.0618252368
 21
-1974.895158570271
 31
0.0
  0
LINE
  5
7FC
  8
DATA
  6
CONTINUOUS
 62
     7
 10
93.01374491356921
 20
-1750.84707824707
 30
0.0
 11
49.01374491356921
 21
-1750.84707824707
 31
0.0
  0
LINE
  5
7FD
  8
DATA
  6
CONTINUOUS
 62
     7
 10
71.01374491356921
 20
-1772.84707824707
 30
0.0
 11
71.01374491356921
 21
-1728.84707824707
 31
0.0
  0
ARC
  5
7FE
  8
DATA
  6
CONTINUOUS
 62
     7
 10
270.3769021996983
 20
-1918.0
 30
0.0
 40
13.19999999999989
 50
235.6987776953438
 51
64.30122230467319
  0
ARC
  5
7FF
  8
DATA
  6
CONTINUOUS
 62
     7
 10
194.1666666666644
 20
-1874.0
 30
0.0
 40
88.00000000000277
 50
338.6024446093438
 51
321.3975553906589
  0
ARC
  5
800
  8
DATA
  6
CONTINUOUS
 62
     7
 10
194.1666666666644
 20
-1874.0
 30
0.0
 40
110.0000000000004
 50
299.9999999999999
 51
240.0000000000024
  0
LINE
  5
801
  8
DATA
  6
CONTINUOUS
 62
     7
 10
139.1666666666694
 20
-1969.262794416289
 30
0.0
 11
139.1666666666694
 21
-1979.301661905213
 31
0.0
  0
LINE
  5
802
  8
DATA
  6
CONTINUOUS
 62
     7
 10
249.1666666666644
 20
-1969.262794416289
 30
0.0
 11
249.1666666666644
 21
-1979.301661905213
 31
0.0
  0
ARC
  5
803
  8
DATA
  6
CONTINUOUS
 62
     7
 10
194.1666666665893
 20
-1874.00000000006
 30
0.0
 40
34.64999999999046
 50
22.39268780552085
 51
67.60731219445319
  0
ARC
  5
804
  8
DATA
  6
CONTINUOUS
 62
     7
 10
194.1666666665893
 20
-1874.00000000006
 30
0.0
 40
34.6499999999926
 50
112.3926878052689
 51
157.607312194479
  0
ARC
  5
805
  8
DATA
  6
CONTINUOUS
 62
     7
 10
194.1666666665893
 20
-1874.00000000006
 30
0.0
 40
34.6499999999937
 50
202.392687805295
 51
337.6073121947018
  0
LINE
  5
806
  8
DATA
  6
CONTINUOUS
 62
     7
 10
243.6666666666694
 20
-1887.199999999998
 30
0.0
 11
226.2038716008666
 21
-1887.199999999998
 31
0.0
  0
LINE
  5
807
  8
DATA
  6
CONTINUOUS
 62
     7
 10
162.129461732307
 20
-1887.199999999998
 30
0.0
 11
144.6666666666694
 21
-1887.199999999998
 31
0.0
  0
LINE
  5
808
  8
DATA
  6
CONTINUOUS
 62
     7
 10
243.6666666666694
 20
-1860.799999999997
 30
0.0
 11
226.2038716008166
 21
-1860.799999999997
 31
0.0
  0
LINE
  5
809
  8
DATA
  6
CONTINUOUS
 62
     7
 10
162.1294617323621
 20
-1860.799999999997
 30
0.0
 11
144.6666666666694
 21
-1860.799999999997
 31
0.0
  0
LINE
  5
80A
  8
DATA
  6
CONTINUOUS
 62
     7
 10
180.9666666666664
 20
-1830.0
 30
0.0
 11
180.9666666666664
 21
-1841.962795065773
 31
0.0
  0
LINE
  5
80B
  8
DATA
  6
CONTINUOUS
 62
     7
 10
207.3666666666674
 20
-1830.0
 30
0.0
 11
207.3666666666674
 21
-1841.962795065838
 31
0.0
  0
ARC
  5
80C
  8
DATA
  6
CONTINUOUS
 62
     7
 10
243.6666666665068
 20
-1874.0
 30
0.0
 40
13.199999999998
 50
270.0
 51
90.0
  0
CIRCLE
  5
80D
  8
DATA
  6
CONTINUOUS
 62
     7
 10
489.3333333333302
 20
-1874.0
 30
0.0
 40
118.799999999997
  0
ARC
  5
80E
  8
DATA
  6
CONTINUOUS
 62
     7
 10
439.8333333333352
 20
-1874.0
 30
0.0
 40
13.200000000003
 50
90.0
 51
270.0
  0
ARC
  5
80F
  8
DATA
  6
CONTINUOUS
 62
     7
 10
489.3333333333352
 20
-1830.0
 30
0.0
 40
13.199999999998
 50
0.0
 51
180.0
  0
CIRCLE
  5
810
  8
DATA
  6
CONTINUOUS
 62
     7
 10
366.180411580235
 20
-1750.84707824707
 30
0.0
 40
27.5
  0
CIRCLE
  5
811
  8
DATA
  6
CONTINUOUS
 62
     7
 10
612.2284919034659
 20
-1996.895158570271
 30
0.0
 40
27.5
  0
LINE
  5
812
  8
DATA
  6
CONTINUOUS
 62
     7
 10
634.2284919034659
 20
-1996.895158570271
 30
0.0
 11
590.2284919034659
 21
-1996.895158570271
 31
0.0
  0
LINE
  5
813
  8
DATA
  6
CONTINUOUS
 62
     7
 10
612.2284919034659
 20
-2018.895158570271
 30
0.0
 11
612.2284919034659
 21
-1974.895158570271
 31
0.0
  0
LINE
  5
814
  8
DATA
  6
CONTINUOUS
 62
     7
 10
388.180411580235
 20
-1750.84707824707
 30
0.0
 11
344.180411580235
 21
-1750.84707824707
 31
0.0
  0
LINE
  5
815
  8
DATA
  6
CONTINUOUS
 62
     7
 10
366.180411580235
 20
-1772.84707824707
 30
0.0
 11
366.180411580235
 21
-1728.84707824707
 31
0.0
  0
ARC
  5
816
  8
DATA
  6
CONTINUOUS
 62
     7
 10
565.5435688663641
 20
-1918.0
 30
0.0
 40
13.19999999999989
 50
235.6987776953438
 51
64.30122230467272
  0
ARC
  5
817
  8
DATA
  6
CONTINUOUS
 62
     7
 10
489.3333333333302
 20
-1874.0
 30
0.0
 40
88.00000000000277
 50
338.6024446093438
 51
321.3975553906589
  0
ARC
  5
818
  8
DATA
  6
CONTINUOUS
 62
     7
 10
489.3333333333302
 20
-1874.0
 30
0.0
 40
110.0000000000004
 50
299.9999999999999
 51
240.0000000000024
  0
LINE
  5
819
  8
DATA
  6
CONTINUOUS
 62
     7
 10
434.3333333333352
 20
-1969.262794416289
 30
0.0
 11
434.3333333333352
 21
-1979.301661905213
 31
0.0
  0
LINE
  5
81A
  8
DATA
  6
CONTINUOUS
 62
     7
 10
544.3333333333302
 20
-1969.262794416289
 30
0.0
 11
544.3333333333302
 21
-1979.301661905213
 31
0.0
  0
ARC
  5
81B
  8
DATA
  6
CONTINUOUS
 62
     7
 10
489.3333333332552
 20
-1874.00000000006
 30
0.0
 40
34.64999999999046
 50
22.39268780552085
 51
67.60731219445302
  0
ARC
  5
81C
  8
DATA
  6
CONTINUOUS
 62
     7
 10
489.3333333332552
 20
-1874.00000000006
 30
0.0
 40
34.6499999999926
 50
112.3926878052689
 51
157.607312194479
  0
ARC
  5
81D
  8
DATA
  6
CONTINUOUS
 62
     7
 10
489.3333333332552
 20
-1874.00000000006
 30
0.0
 40
34.6499999999937
 50
202.392687805295
 51
337.6073121947018
  0
LINE
  5
81E
  8
DATA
  6
CONTINUOUS
 62
     7
 10
538.8333333333352
 20
-1887.199999999998
 30
0.0
 11
521.3705382675324
 21
-1887.199999999998
 31
0.0
  0
LINE
  5
81F
  8
DATA
  6
CONTINUOUS
 62
     7
 10
457.2961283989729
 20
-1887.199999999998
 30
0.0
 11
439.8333333333352
 21
-1887.199999999998
 31
0.0
  0
LINE
  5
820
  8
DATA
  6
CONTINUOUS
 62
     7
 10
538.8333333333352
 20
-1860.799999999997
 30
0.0
 11
521.3705382674824
 21
-1860.799999999997
 31
0.0
  0
LINE
  5
821
  8
DATA
  6
CONTINUOUS
 62
     7
 10
457.2961283990279
 20
-1860.799999999997
 30
0.0
 11
439.8333333333352
 21
-1860.799999999997
 31
0.0
  0
LINE
  5
822
  8
DATA
  6
CONTINUOUS
 62
     7
 10
476.1333333333322
 20
-1830.0
 30
0.0
 11
476.1333333333322
 21
-1841.962795065773
 31
0.0
  0
LINE
  5
823
  8
DATA
  6
CONTINUOUS
 62
     7
 10
502.5333333333332
 20
-1830.0
 30
0.0
 11
502.5333333333332
 21
-1841.962795065838
 31
0.0
  0
ARC
  5
824
  8
DATA
  6
CONTINUOUS
 62
     7
 10
538.8333333331726
 20
-1874.0
 30
0.0
 40
13.199999999998
 50
270.0
 51
90.0
  0
CIRCLE
  5
825
  8
DATA
  6
CONTINUOUS
 62
     7
 10
784.4999999999973
 20
-1874.0
 30
0.0
 40
118.799999999997
  0
ARC
  5
826
  8
DATA
  6
CONTINUOUS
 62
     7
 10
735.0000000000023
 20
-1874.0
 30
0.0
 40
13.200000000003
 50
90.0
 51
270.0
  0
ARC
  5
827
  8
DATA
  6
CONTINUOUS
 62
     7
 10
784.5000000000023
 20
-1830.0
 30
0.0
 40
13.199999999998
 50
0.0
 51
180.0
  0
CIRCLE
  5
828
  8
DATA
  6
CONTINUOUS
 62
     7
 10
661.3470782469021
 20
-1750.84707824707
 30
0.0
 40
27.5
  0
CIRCLE
  5
829
  8
DATA
  6
CONTINUOUS
 62
     7
 10
907.3951585701329
 20
-1996.895158570271
 30
0.0
 40
27.5
  0
LINE
  5
82A
  8
DATA
  6
CONTINUOUS
 62
     7
 10
929.3951585701329
 20
-1996.895158570271
 30
0.0
 11
885.3951585701329
 21
-1996.895158570271
 31
0.0
  0
LINE
  5
82B
  8
DATA
  6
CONTINUOUS
 62
     7
 10
907.3951585701329
 20
-2018.895158570271
 30
0.0
 11
907.3951585701329
 21
-1974.895158570271
 31
0.0
  0
LINE
  5
82C
  8
DATA
  6
CONTINUOUS
 62
     7
 10
683.3470782469021
 20
-1750.84707824707
 30
0.0
 11
639.3470782469021
 21
-1750.84707824707
 31
0.0
  0
LINE
  5
82D
  8
DATA
  6
CONTINUOUS
 62
     7
 10
661.3470782469021
 20
-1772.84707824707
 30
0.0
 11
661.3470782469021
 21
-1728.84707824707
 31
0.0
  0
ARC
  5
82E
  8
DATA
  6
CONTINUOUS
 62
     7
 10
860.7102355330312
 20
-1918.0
 30
0.0
 40
13.19999999999989
 50
235.6987776953438
 51
64.30122230467319
  0
ARC
  5
82F
  8
DATA
  6
CONTINUOUS
 62
     7
 10
784.4999999999973
 20
-1874.0
 30
0.0
 40
88.00000000000277
 50
338.6024446093438
 51
321.3975553906589
  0
ARC
  5
830
  8
DATA
  6
CONTINUOUS
 62
     7
 10
784.4999999999973
 20
-1874.0
 30
0.0
 40
110.0000000000004
 50
299.9999999999999
 51
240.0000000000024
  0
LINE
  5
831
  8
DATA
  6
CONTINUOUS
 62
     7
 10
729.5000000000023
 20
-1969.262794416289
 30
0.0
 11
729.5000000000023
 21
-1979.301661905213
 31
0.0
  0
LINE
  5
832
  8
DATA
  6
CONTINUOUS
 62
     7
 10
839.4999999999973
 20
-1969.262794416289
 30
0.0
 11
839.4999999999973
 21
-1979.301661905213
 31
0.0
  0
ARC
  5
833
  8
DATA
  6
CONTINUOUS
 62
     7
 10
784.4999999999222
 20
-1874.00000000006
 30
0.0
 40
34.64999999999046
 50
22.39268780552085
 51
67.60731219445319
  0
ARC
  5
834
  8
DATA
  6
CONTINUOUS
 62
     7
 10
784.4999999999222
 20
-1874.00000000006
 30
0.0
 40
34.6499999999926
 50
112.3926878052689
 51
157.6073121944791
  0
ARC
  5
835
  8
DATA
  6
CONTINUOUS
 62
     7
 10
784.4999999999222
 20
-1874.00000000006
 30
0.0
 40
34.6499999999937
 50
202.392687805295
 51
337.6073121947018
  0
LINE
  5
836
  8
DATA
  6
CONTINUOUS
 62
     7
 10
834.0000000000023
 20
-1887.199999999998
 30
0.0
 11
816.5372049341995
 21
-1887.199999999998
 31
0.0
  0
LINE
  5
837
  8
DATA
  6
CONTINUOUS
 62
     7
 10
752.46279506564
 20
-1887.199999999998
 30
0.0
 11
735.0000000000023
 21
-1887.199999999998
 31
0.0
  0
LINE
  5
838
  8
DATA
  6
CONTINUOUS
 62
     7
 10
834.0000000000023
 20
-1860.799999999997
 30
0.0
 11
816.5372049341495
 21
-1860.799999999997
 31
0.0
  0
LINE
  5
839
  8
DATA
  6
CONTINUOUS
 62
     7
 10
752.462795065695
 20
-1860.799999999997
 30
0.0
 11
735.0000000000023
 21
-1860.799999999997
 31
0.0
  0
LINE
  5
83A
  8
DATA
  6
CONTINUOUS
 62
     7
 10
771.2999999999993
 20
-1830.0
 30
0.0
 11
771.2999999999993
 21
-1841.962795065773
 31
0.0
  0
LINE
  5
83B
  8
DATA
  6
CONTINUOUS
 62
     7
 10
797.7000000000003
 20
-1830.0
 30
0.0
 11
797.7000000000003
 21
-1841.962795065838
 31
0.0
  0
ARC
  5
83C
  8
DATA
  6
CONTINUOUS
 62
     7
 10
833.9999999998397
 20
-1874.0
 30
0.0
 40
13.199999999998
 50
270.0
 51
90.0
  0
CIRCLE
  5
83D
  8
DATA
  6
CONTINUOUS
 62
     7
 10
1079.666666666664
 20
-1808.0
 30
0.0
 40
33.0
  0
CIRCLE
  5
83E
  8
DATA
  6
CONTINUOUS
 62
     7
 10
1079.666666666664
 20
-1808.0
 30
0.0
 40
50.60000000000036
  0
CIRCLE
  5
83F
  8
DATA
  6
CONTINUOUS
 62
     7
 10
1079.666666666664
 20
-1808.0
 30
0.0
 40
90.74999999999886
  0
POLYLINE
  5
840
  8
DATA
  6
CONTINUOUS
 62
     7
 66
     1
 10
0.0
 20
0.0
 30
0.0
 70
     1
  0
VERTEX
  5
A4C
  8
DATA
  6
CONTINUOUS
 62
     7
 10
1008.219570854449
 20
-1766.75
 30
0.0
  0
VERTEX
  5
A4D
  8
DATA
  6
CONTINUOUS
 62
     7
 10
1008.219570854449
 20
-1849.25
 30
0.0
  0
VERTEX
  5
A4E
  8
DATA
  6
CONTINUOUS
 62
     7
 10
1079.666666666664
 20
-1890.5
 30
0.0
  0
VERTEX
  5
A4F
  8
DATA
  6
CONTINUOUS
 62
     7
 10
1151.113762478881
 20
-1849.25
 30
0.0
  0
VERTEX
  5
A50
  8
DATA
  6
CONTINUOUS
 62
     7
 10
1151.113762478881
 20
-1766.75
 30
0.0
  0
VERTEX
  5
A51
  8
DATA
  6
CONTINUOUS
 62
     7
 10
1079.666666666664
 20
-1725.5
 30
0.0
  0
SEQEND
  5
A6D
  8
DATA
  6
CONTINUOUS
 62
     7
  0
CIRCLE
  5
849
  8
DATA
  6
CONTINUOUS
 62
     7
 10
1374.833333333331
 20
-1808.0
 30
0.0
 40
33.0
  0
CIRCLE
  5
84A
  8
DATA
  6
CONTINUOUS
 62
     7
 10
1374.833333333331
 20
-1808.0
 30
0.0
 40
50.60000000000036
  0
CIRCLE
  5
84B
  8
DATA
  6
CONTINUOUS
 62
     7
 10
1374.833333333331
 20
-1808.0
 30
0.0
 40
90.75
  0
POLYLINE
  5
84C
  8
DATA
  6
CONTINUOUS
 62
     7
 66
     1
 10
0.0
 20
0.0
 30
0.0
 70
     1
  0
VERTEX
  5
A52
  8
DATA
  6
CONTINUOUS
 62
     7
 10
1303.386237521115
 20
-1766.75
 30
0.0
  0
VERTEX
  5
A53
  8
DATA
  6
CONTINUOUS
 62
     7
 10
1303.386237521115
 20
-1849.25
 30
0.0
  0
VERTEX
  5
A54
  8
DATA
  6
CONTINUOUS
 62
     7
 10
1374.833333333331
 20
-1890.5
 30
0.0
  0
VERTEX
  5
A55
  8
DATA
  6
CONTINUOUS
 62
     7
 10
1446.280429145548
 20
-1849.25
 30
0.0
  0
VERTEX
  5
A56
  8
DATA
  6
CONTINUOUS
 62
     7
 10
1446.280429145548
 20
-1766.75
 30
0.0
  0
VERTEX
  5
A57
  8
DATA
  6
CONTINUOUS
 62
     7
 10
1374.833333333331
 20
-1725.5
 30
0.0
  0
SEQEND
  5
A6E
  8
DATA
  6
CONTINUOUS
 62
     7
  0
CIRCLE
  5
855
  8
DATA
  6
CONTINUOUS
 62
     7
 10
1669.999999999997
 20
-1808.0
 30
0.0
 40
16.5
  0
CIRCLE
  5
856
  8
DATA
  6
CONTINUOUS
 62
     7
 10
1669.999999999997
 20
-1808.0
 30
0.0
 40
33.0
  0
TEXT
  5
857
  8
DATA
 62
     7
 10
-174.16211480035
 20
-1668.931043836808
 30
0.0
 40
29.86208767361111
  1
MIC/LINE
 41
0.7
 72
     1
 11
-101.0000000000027
 21
-1654.000000000003
 31
0.0
 73
     2
  0
TEXT
  5
858
  8
DATA
 62
     7
 10
121.0045518663171
 20
-1668.931043836808
 30
0.0
 40
29.86208767361111
  1
MIC/LINE
 41
0.7
 72
     1
 11
194.1666666666644
 21
-1654.000000000003
 31
0.0
 73
     2
  0
TEXT
  5
859
  8
DATA
 62
     7
 10
416.1712185329829
 20
-1668.931043836808
 30
0.0
 40
29.86208767361111
  1
MIC/LINE
 41
0.7
 72
     1
 11
489.3333333333302
 21
-1654.000000000003
 31
0.0
 73
     2
  0
TEXT
  5
85A
  8
DATA
 62
     7
 10
711.33788519965
 20
-1668.931043836808
 30
0.0
 40
29.86208767361111
  1
MIC/LINE
 41
0.7
 72
     1
 11
784.4999999999973
 21
-1654.000000000003
 31
0.0
 73
     2
  0
TEXT
  5
85B
  8
DATA
 62
     7
 10
1044.827564380785
 20
-1668.931043836808
 30
0.0
 40
29.86208767361111
  1
LINE
 41
0.7
 72
     1
 11
1079.666666666664
 21
-1654.000000000003
 31
0.0
 73
     2
  0
TEXT
  5
85C
  8
DATA
 62
     7
 10
1339.994231047452
 20
-1668.931043836808
 30
0.0
 40
29.86208767361111
  1
LINE
 41
0.7
 72
     1
 11
1374.833333333331
 21
-1654.000000000003
 31
0.0
 73
     2
  0
TEXT
  5
85D
  8
DATA
 62
     7
 10
1814.599026331021
 20
-1668.931043836808
 30
0.0
 40
29.86208767361111
  1
PASS THRU
 41
0.7
 72
     1
 11
1901.000000000002
 21
-1654.000000000003
 31
0.0
 73
     2
  0
TEXT
  5
85E
  8
DATA
 62
     7
 10
1585.986397931134
 20
-1668.931043836808
 30
0.0
 40
29.86208767361111
  1
AUX IN/
 41
0.7
 72
     1
 11
1648.0
 21
-1654.000000000003
 31
0.0
 73
     2
  0
LINE
  5
85F
  8
DATA
  6
CONTINUOUS
 62
     7
 10
1728.628476848143
 20
-1640.250000000003
 30
0.0
 11
1728.628476848143
 21
-1667.750000000003
 31
0.0
  0
LINE
  5
860
  8
DATA
  6
CONTINUOUS
 62
     7
 10
1728.628476848143
 20
-1640.250000000003
 30
0.0
 11
1735.503476848142
 21
-1647.125000000003
 31
0.0
  0
LINE
  5
861
  8
DATA
  6
CONTINUOUS
 62
     7
 10
1723.058397499258
 20
-1659.570079348886
 30
0.0
 11
1735.503476848142
 21
-1647.125000000003
 31
0.0
  0
LINE
  5
862
  8
DATA
  6
CONTINUOUS
 62
     7
 10
1728.628476848143
 20
-1667.750000000003
 30
0.0
 11
1735.503476848142
 21
-1660.875000000003
 31
0.0
  0
LINE
  5
863
  8
DATA
  6
CONTINUOUS
 62
     7
 10
1723.058397499258
 20
-1648.429920651119
 30
0.0
 11
1735.503476848142
 21
-1660.875000000003
 31
0.0
  0
ARC
  5
864
  8
DATA
  6
CONTINUOUS
 62
     7
 10
459.9999999999998
 20
-2121.5
 30
0.0
 40
43.9999999999998
 50
35.49083357261534
 51
136.2662153557836
  0
ARC
  5
865
  8
DATA
  6
CONTINUOUS
 62
     7
 10
1339.999999999747
 20
-2105.652174961985
 30
0.0
 40
2.082174961984735
 50
359.0566788815885
 51
180.9433209280192
  0
ARC
  5
866
  8
DATA
  6
CONTINUOUS
 62
     7
 10
1330.504973875825
 20
-2105.054132334144
 30
0.0
 40
7.44005224806532
 50
244.8753886700254
 51
355.1246113518827
  0
ARC
  5
867
  8
DATA
  6
CONTINUOUS
 62
     7
 10
1326.275380922295
 20
-2113.576087481338
 30
0.0
 40
2.08217496198379
 50
59.0566788816036
 51
240.9433209279869
  0
ARC
  5
868
  8
DATA
  6
CONTINUOUS
 62
     7
 10
1321.009947752075
 20
-2121.50000000033
 30
0.0
 40
7.440052248067529
 50
304.875388670036
 51
55.12461135187544
  0
ARC
  5
869
  8
DATA
  6
CONTINUOUS
 62
     7
 10
1339.999999999747
 20
-2137.347825038015
 30
0.0
 40
2.082174961985876
 50
179.0566790719813
 51
0.9433211184110065
  0
ARC
  5
86A
  8
DATA
  6
CONTINUOUS
 62
     7
 10
1330.504973875825
 20
-2137.945867665856
 30
0.0
 40
7.440052248065803
 50
4.875388648116908
 51
115.1246113299747
  0
ARC
  5
86B
  8
DATA
  6
CONTINUOUS
 62
     7
 10
1326.275380922295
 20
-2129.423912518662
 30
0.0
 40
2.082174961983531
 50
119.0566790720137
 51
300.9433211183975
  0
ARC
  5
86C
  8
DATA
  6
CONTINUOUS
 62
     7
 10
1349.495026123668
 20
-2105.054132334144
 30
0.0
 40
7.440052248067162
 50
184.875388648116
 51
295.1246113299734
  0
ARC
  5
86D
  8
DATA
  6
CONTINUOUS
 62
     7
 10
1353.724619077198
 20
-2113.576087481338
 30
0.0
 40
2.082174961983421
 50
299.0566790720082
 51
120.9433211184028
  0
ARC
  5
86E
  8
DATA
  6
CONTINUOUS
 62
     7
 10
1358.990052247417
 20
-2121.50000000033
 30
0.0
 40
7.440052248068183
 50
124.8753886481171
 51
235.1246113299709
  0
ARC
  5
86F
  8
DATA
  6
CONTINUOUS
 62
     7
 10
1349.495026123668
 20
-2137.945867665856
 30
0.0
 40
7.440052248065223
 50
64.87538867002701
 51
175.1246113518863
  0
ARC
  5
870
  8
DATA
  6
CONTINUOUS
 62
     7
 10
1353.724619077198
 20
-2129.423912518662
 30
0.0
 40
2.082174961983907
 50
239.0566788815982
 51
60.94332092799241
  0
CIRCLE
  5
871
  8
DATA
  6
CONTINUOUS
 62
     7
 10
1340.0
 20
-2121.5
 30
0.0
 40
44.0
  0
ARC
  5
872
  8
DATA
  6
CONTINUOUS
 62
     7
 10
2137.499999999747
 20
-2149.652174961985
 30
0.0
 40
2.082174961984735
 50
359.0566788815885
 51
180.9433209280193
  0
ARC
  5
873
  8
DATA
  6
CONTINUOUS
 62
     7
 10
2128.004973875825
 20
-2149.054132334144
 30
0.0
 40
7.440052248065513
 50
244.8753886700222
 51
355.1246113518827
  0
ARC
  5
874
  8
DATA
  6
CONTINUOUS
 62
     7
 10
2123.775380922295
 20
-2157.576087481338
 30
0.0
 40
2.082174961983556
 50
59.05667888161433
 51
240.9433209279754
  0
ARC
  5
875
  8
DATA
  6
CONTINUOUS
 62
     7
 10
2118.509947752075
 20
-2165.50000000033
 30
0.0
 40
7.440052248067529
 50
304.875388670036
 51
55.12461135187397
  0
ARC
  5
876
  8
DATA
  6
CONTINUOUS
 62
     7
 10
2128.004973875825
 20
-2181.945867665856
 30
0.0
 40
7.440052248066568
 50
27.60639508842382
 51
115.1246113299748
  0
ARC
  5
877
  8
DATA
  6
CONTINUOUS
 62
     7
 10
2123.775380922295
 20
-2173.423912518662
 30
0.0
 40
2.082174961983531
 50
119.0566790720137
 51
300.9433211183857
  0
ARC
  5
878
  8
DATA
  6
CONTINUOUS
 62
     7
 10
2146.995026123668
 20
-2149.054132334144
 30
0.0
 40
7.440052248066936
 50
184.8753886481162
 51
295.1246113299718
  0
ARC
  5
879
  8
DATA
  6
CONTINUOUS
 62
     7
 10
2151.224619077198
 20
-2157.576087481338
 30
0.0
 40
2.082174961983531
 50
299.0566790720137
 51
120.9433211183921
  0
ARC
  5
87A
  8
DATA
  6
CONTINUOUS
 62
     7
 10
2156.490052247416
 20
-2165.50000000033
 30
0.0
 40
7.440052248067922
 50
124.8753886481143
 51
235.1246113299709
  0
ARC
  5
87B
  8
DATA
  6
CONTINUOUS
 62
     7
 10
2146.995026123668
 20
-2181.945867665856
 30
0.0
 40
7.440052248065127
 50
64.8753886700286
 51
142.9291172911337
  0
ARC
  5
87C
  8
DATA
  6
CONTINUOUS
 62
     7
 10
2151.224619077198
 20
-2173.423912518662
 30
0.0
 40
2.082174961984023
 50
239.0566788815929
 51
60.94332092799241
  0
ARC
  5
87D
  8
DATA
  6
CONTINUOUS
 62
     7
 10
2137.5
 20
-2165.5
 30
0.0
 40
44.00000000000032
 50
353.1623632448408
 51
205.1333217947685
  0
ARC
  5
87E
  8
DATA
  6
CONTINUOUS
 62
     7
 10
212.4999999999998
 20
-5556.25
 30
0.0
 40
3471.875
 50
78.57881372500073
 51
100.5805905371599
  0
ARC
  5
87F
  8
DATA
  6
CONTINUOUS
 62
     7
 10
1587.5
 20
1250.0
 30
0.0
 40
3471.875
 50
258.5788137250007
 51
280.5805905371599
  0
LINE
  5
880
  8
DATA
  6
CONTINUOUS
 62
     7
 10
554.5
 20
-817.0
 30
0.0
 11
554.5
 21
-871.0
 31
0.0
  0
LINE
  5
881
  8
DATA
  6
CONTINUOUS
 62
     7
 10
645.5
 20
-817.0
 30
0.0
 11
645.5
 21
-871.0
 31
0.0
  0
LINE
  5
882
  8
DATA
  6
CONTINUOUS
 62
     7
 10
630.0
 20
-800.0
 30
0.0
 11
570.0
 21
-800.0
 31
0.0
  0
ARC
  5
883
  8
DATA
  6
CONTINUOUS
 62
     7
 10
600.0
 20
-797.875
 30
0.0
 40
86.125
 50
238.1092081981543
 51
301.8907918018458
  0
LINE
  5
884
  8
DATA
  6
CONTINUOUS
 62
     7
 10
554.5
 20
-817.0
 30
0.0
 11
570.0
 21
-800.0
 31
0.0
  0
LINE
  5
885
  8
DATA
  6
CONTINUOUS
 62
     7
 10
630.0
 20
-800.0
 30
0.0
 11
645.5
 21
-817.0
 31
0.0
  0
LINE
  5
886
  8
DATA
  6
CONTINUOUS
 62
     7
 10
568.5458453575438
 20
-833.196156840143
 30
0.0
 11
568.048266502799
 21
-854.2935002813192
 31
0.0
  0
LINE
  5
887
  8
DATA
  6
CONTINUOUS
 62
     7
 10
631.9517334972008
 20
-854.2935002813173
 30
0.0
 11
631.4541546424564
 21
-833.196156840149
 31
0.0
  0
ARC
  5
888
  8
DATA
  6
CONTINUOUS
 62
     7
 10
600.0
 20
-884.9451562499999
 30
0.0
 40
64.64515624999996
 50
65.53777084688576
 51
114.4622291531116
  0
ARC
  5
889
  8
DATA
  6
CONTINUOUS
 62
     7
 10
576.5436212942451
 20
-833.3847836311029
 30
0.0
 40
7.999999999996637
 50
114.4622291530902
 51
178.6489349172805
  0
ARC
  5
88A
  8
DATA
  6
CONTINUOUS
 62
     7
 10
623.4563787057455
 20
-833.3847836311091
 30
0.0
 40
8.000000000006262
 50
1.351065082719492
 51
65.53777084684528
  0
ARC
  5
88B
  8
DATA
  6
CONTINUOUS
 62
     7
 10
600.0
 20
-884.9451562499999
 30
0.0
 40
60.64515624999991
 50
65.53777084688598
 51
114.4622291531114
  0
LINE
  5
88C
  8
DATA
  6
CONTINUOUS
 62
     7
 10
572.5458453575438
 20
-833.196156840143
 30
0.0
 11
572.0495199838888
 21
-854.2751783727747
 31
0.0
  0
ARC
  5
88D
  8
DATA
  6
CONTINUOUS
 62
     7
 10
576.5436212942451
 20
-833.3847836311029
 30
0.0
 40
4.002223445328329
 50
114.4622291530897
 51
178.6489349172809
  0
LINE
  5
88E
  8
DATA
  6
CONTINUOUS
 62
     7
 10
627.4541546424562
 20
-833.196156840143
 30
0.0
 11
627.9512960537239
 21
-854.2749526778917
 31
0.0
  0
ARC
  5
88F
  8
DATA
  6
CONTINUOUS
 62
     7
 10
623.4563787057549
 20
-833.3847836311029
 30
0.0
 40
4.002223445328348
 50
1.351065082719077
 51
65.53777084691036
  0
ARC
  5
890
  8
DATA
  6
CONTINUOUS
 62
     7
 10
600.0
 20
-745.6030555555556
 30
0.0
 40
117.0969444444443
 50
256.0872077312152
 51
283.912792268784
  0
ARC
  5
891
  8
DATA
  6
CONTINUOUS
 62
     7
 10
573.0468764632367
 20
-854.4113920256691
 30
0.0
 40
4.999999999997235
 50
178.6489349172797
 51
256.0872077312474
  0
ARC
  5
892
  8
DATA
  6
CONTINUOUS
 62
     7
 10
626.9531235367608
 20
-854.4113920256673
 30
0.0
 40
4.999999999999569
 50
283.9127922687795
 51
1.351065082719686
  0
ARC
  5
893
  8
DATA
  6
CONTINUOUS
 62
     7
 10
600.0
 20
-745.6030555555556
 30
0.0
 40
112.5969444444444
 50
255.8250897175833
 51
284.175340721908
  0
ARC
  5
894
  8
DATA
  6
CONTINUOUS
 62
     7
 10
572.5493814386732
 20
-854.2869480805355
 30
0.0
 40
0.4999999999999735
 50
178.6511662531338
 51
255.8250897175759
  0
ARC
  5
895
  8
DATA
  6
CONTINUOUS
 62
     7
 10
627.4514350576806
 20
-854.2867418523267
 30
0.0
 40
0.4999999999992972
 50
284.1753407218329
 51
1.351065082717525
  0
LINE
  5
896
  8
DATA
  6
CONTINUOUS
 62
     7
 10
624.9
 20
-855.4122623563758
 30
0.0
 11
624.9
 21
-860.0219543364182
 31
0.0
  0
LINE
  5
897
  8
DATA
  6
CONTINUOUS
 62
     7
 10
575.1
 20
-855.4122623563758
 30
0.0
 11
575.1
 21
-860.0219543364182
 31
0.0
  0
LINE
  5
898
  8
DATA
  6
CONTINUOUS
 62
     7
 10
568.048266502799
 20
-762.5
 30
0.0
 11
568.048266502799
 21
-708.5
 31
0.0
  0
LINE
  5
899
  8
DATA
  6
CONTINUOUS
 62
     7
 10
631.951733497201
 20
-762.5
 30
0.0
 11
631.951733497201
 21
-708.5
 31
0.0
  0
LINE
  5
89A
  8
DATA
  6
CONTINUOUS
 62
     7
 10
608.0002114735677
 20
-833.2499999996028
 30
0.0
 11
608.0002114735677
 21
-849.2499999996028
 31
0.0
  0
LINE
  5
89B
  8
DATA
  6
CONTINUOUS
 62
     7
 10
592.0002114735677
 20
-833.2499999996028
 30
0.0
 11
592.0002114735677
 21
-849.2499999996028
 31
0.0
  0
LINE
  5
89C
  8
DATA
  6
CONTINUOUS
 62
     7
 10
608.0002114735677
 20
-833.2499999996028
 30
0.0
 11
592.0002114735677
 21
-833.2499999996028
 31
0.0
  0
LINE
  5
89D
  8
DATA
  6
CONTINUOUS
 62
     7
 10
608.0002114735677
 20
-849.2499999996028
 30
0.0
 11
592.0002114735677
 21
-849.2499999996028
 31
0.0
  0
LINE
  5
89E
  8
DATA
  6
CONTINUOUS
 62
     7
 10
607.0002114735677
 20
-834.2499999996028
 30
0.0
 11
593.0002114735677
 21
-834.2499999996028
 31
0.0
  0
LINE
  5
89F
  8
DATA
  6
CONTINUOUS
 62
     7
 10
593.0002114735677
 20
-834.2499999996028
 30
0.0
 11
593.0002114735677
 21
-848.2499999996028
 31
0.0
  0
LINE
  5
8A0
  8
DATA
  6
CONTINUOUS
 62
     7
 10
607.0002114735677
 20
-834.2499999996028
 30
0.0
 11
607.0002114735677
 21
-848.2499999996028
 31
0.0
  0
LINE
  5
8A1
  8
DATA
  6
CONTINUOUS
 62
     7
 10
607.0002114735677
 20
-848.2499999996028
 30
0.0
 11
593.0002114735677
 21
-848.2499999996028
 31
0.0
  0
LINE
  5
8A2
  8
DATA
  6
CONTINUOUS
 62
     7
 10
608.0002114735677
 20
-838.7499999996028
 30
0.0
 11
611.0002114735677
 21
-838.7499999996028
 31
0.0
  0
LINE
  5
8A3
  8
DATA
  6
CONTINUOUS
 62
     7
 10
608.0002114735677
 20
-843.7499999996028
 30
0.0
 11
611.0002114735677
 21
-843.7499999996028
 31
0.0
  0
LINE
  5
8A4
  8
DATA
  6
CONTINUOUS
 62
     7
 10
611.0002114735677
 20
-843.7499999996028
 30
0.0
 11
611.0002114735677
 21
-838.7499999996028
 31
0.0
  0
LINE
  5
8A5
  8
DATA
  6
CONTINUOUS
 62
     7
 10
592.0002114735677
 20
-838.7499999996028
 30
0.0
 11
589.0002114735677
 21
-838.7499999996028
 31
0.0
  0
LINE
  5
8A6
  8
DATA
  6
CONTINUOUS
 62
     7
 10
592.0002114735677
 20
-843.7499999996028
 30
0.0
 11
589.0002114735677
 21
-843.7499999996028
 31
0.0
  0
LINE
  5
8A7
  8
DATA
  6
CONTINUOUS
 62
     7
 10
589.0002114735677
 20
-843.7499999996028
 30
0.0
 11
589.0002114735677
 21
-838.7499999996028
 31
0.0
  0
LINE
  5
8A8
  8
DATA
  6
CONTINUOUS
 62
     7
 10
600.2502114735677
 20
-837.4999999996028
 30
0.0
 11
600.2502114735677
 21
-844.9999999996028
 31
0.0
  0
LINE
  5
8A9
  8
DATA
  6
CONTINUOUS
 62
     7
 10
593.0002114735677
 20
-840.9999999996028
 30
0.0
 11
607.0002114735677
 21
-840.9999999996028
 31
0.0
  0
LINE
  5
8AA
  8
DATA
  6
CONTINUOUS
 62
     7
 10
592.0002114735677
 20
-841.4999999996028
 30
0.0
 11
603.7502114735677
 21
-841.4999999996028
 31
0.0
  0
LINE
  5
8AB
  8
DATA
  6
CONTINUOUS
 62
     7
 10
600.2502114735677
 20
-844.9999999996028
 30
0.0
 11
603.7502114735677
 21
-844.9999999996028
 31
0.0
  0
LINE
  5
8AC
  8
DATA
  6
CONTINUOUS
 62
     7
 10
603.7502114735677
 20
-841.4999999996028
 30
0.0
 11
603.7502114735677
 21
-844.9999999996028
 31
0.0
  0
LINE
  5
8AD
  8
DATA
  6
CONTINUOUS
 62
     7
 10
603.7502114735677
 20
-844.9999999996028
 30
0.0
 11
607.0002114735677
 21
-848.2499999996028
 31
0.0
  0
LINE
  5
8AE
  8
DATA
  6
CONTINUOUS
 62
     7
 10
603.7502114735677
 20
-844.9999999996028
 30
0.0
 11
608.0002114735677
 21
-844.9999999996028
 31
0.0
  0
LINE
  5
8AF
  8
DATA
  6
CONTINUOUS
 62
     7
 10
603.7502114735677
 20
-841.4999999996028
 30
0.0
 11
608.0002114735677
 21
-841.4999999996028
 31
0.0
  0
LINE
  5
8B0
  8
DATA
  6
CONTINUOUS
 62
     7
 10
600.2502114735677
 20
-837.4999999996028
 30
0.0
 11
603.7502114735677
 21
-837.4999999996028
 31
0.0
  0
LINE
  5
8B1
  8
DATA
  6
CONTINUOUS
 62
     7
 10
603.7502114735677
 20
-840.9999999996028
 30
0.0
 11
603.7502114735677
 21
-837.4999999996028
 31
0.0
  0
LINE
  5
8B2
  8
DATA
  6
CONTINUOUS
 62
     7
 10
603.7502114735677
 20
-837.4999999996028
 30
0.0
 11
607.0002114735677
 21
-834.2499999996028
 31
0.0
  0
LINE
  5
8B3
  8
DATA
  6
CONTINUOUS
 62
     7
 10
599.7502114735677
 20
-837.4999999996028
 30
0.0
 11
599.7502114735677
 21
-844.9999999996028
 31
0.0
  0
LINE
  5
8B4
  8
DATA
  6
CONTINUOUS
 62
     7
 10
599.7502114735677
 20
-844.9999999996028
 30
0.0
 11
592.0002114735677
 21
-844.9999999996028
 31
0.0
  0
LINE
  5
8B5
  8
DATA
  6
CONTINUOUS
 62
     7
 10
596.2502114735677
 20
-841.4999999996028
 30
0.0
 11
596.2502114735677
 21
-844.9999999996028
 31
0.0
  0
LINE
  5
8B6
  8
DATA
  6
CONTINUOUS
 62
     7
 10
596.2502114735677
 20
-844.9999999996028
 30
0.0
 11
593.0002114735677
 21
-848.2499999996028
 31
0.0
  0
LINE
  5
8B7
  8
DATA
  6
CONTINUOUS
 62
     7
 10
599.7502114735677
 20
-837.4999999996028
 30
0.0
 11
596.2502114735677
 21
-837.4999999996028
 31
0.0
  0
LINE
  5
8B8
  8
DATA
  6
CONTINUOUS
 62
     7
 10
596.2502114735677
 20
-840.9999999996028
 30
0.0
 11
596.2502114735677
 21
-837.4999999996028
 31
0.0
  0
LINE
  5
8B9
  8
DATA
  6
CONTINUOUS
 62
     7
 10
596.2502114735677
 20
-837.4999999996028
 30
0.0
 11
593.0002114735677
 21
-834.2499999996028
 31
0.0
  0
LINE
  5
8BA
  8
DATA
  6
CONTINUOUS
 62
     7
 10
720.3
 20
-762.5
 30
0.0
 11
720.3
 21
-708.5
 31
0.0
  0
LINE
  5
8BB
  8
DATA
  6
CONTINUOUS
 62
     7
 10
762.6999999999998
 20
-762.5
 30
0.0
 11
762.6999999999998
 21
-708.5
 31
0.0
  0
LINE
  5
8BC
  8
DATA
  6
CONTINUOUS
 62
     7
 10
931.951733497201
 20
-762.5
 30
0.0
 11
868.048266502799
 21
-762.5
 31
0.0
  0
LINE
  5
8BD
  8
DATA
  6
CONTINUOUS
 62
     7
 10
868.048266502799
 20
-762.5
 30
0.0
 11
868.048266502799
 21
-708.5
 31
0.0
  0
LINE
  5
8BE
  8
DATA
  6
CONTINUOUS
 62
     7
 10
931.951733497201
 20
-762.5
 30
0.0
 11
931.951733497201
 21
-708.5
 31
0.0
  0
LINE
  5
8BF
  8
DATA
  6
CONTINUOUS
 62
     7
 10
875.1
 20
-762.5
 30
0.0
 11
875.1
 21
-738.0
 31
0.0
  0
LINE
  5
8C0
  8
DATA
  6
CONTINUOUS
 62
     7
 10
924.9
 20
-762.5
 30
0.0
 11
924.9
 21
-738.0
 31
0.0
  0
LINE
  5
8C1
  8
DATA
  6
CONTINUOUS
 62
     7
 10
917.9
 20
-731.0
 30
0.0
 11
882.1
 21
-731.0
 31
0.0
  0
ARC
  5
8C2
  8
DATA
  6
CONTINUOUS
 62
     7
 10
882.1
 20
-738.0
 30
0.0
 40
7.0
 50
90.0
 51
180.0
  0
ARC
  5
8C3
  8
DATA
  6
CONTINUOUS
 62
     7
 10
917.9
 20
-738.0
 30
0.0
 40
7.0
 50
0.0
 51
90.0
  0
LINE
  5
8C4
  8
DATA
  6
CONTINUOUS
 62
     7
 10
1545.5
 20
-700.0
 30
0.0
 11
1454.5
 21
-700.0
 31
0.0
  0
LINE
  5
8C5
  8
DATA
  6
CONTINUOUS
 62
     7
 10
1545.5
 20
-683.0
 30
0.0
 11
1454.5
 21
-683.0
 31
0.0
  0
LINE
  5
8C6
  8
DATA
  6
CONTINUOUS
 62
     7
 10
1845.5
 20
-700.0
 30
0.0
 11
1754.5
 21
-700.0
 31
0.0
  0
LINE
  5
8C7
  8
DATA
  6
CONTINUOUS
 62
     7
 10
1684.0
 20
-700.0
 30
0.0
 11
1602.0
 21
-700.0
 31
0.0
  0
LINE
  5
8C8
  8
DATA
  6
CONTINUOUS
 62
     7
 10
1634.0
 20
-683.0
 30
0.0
 11
1602.0
 21
-683.0
 31
0.0
  0
ARC
  5
8C9
  8
DATA
  6
CONTINUOUS
 62
     7
 10
1500.0
 20
201.5
 30
0.0
 40
151.5
 50
258.9321362894509
 51
281.0678637105501
  0
LINE
  5
8CA
  8
DATA
  6
CONTINUOUS
 62
     7
 10
1542.575715577332
 20
65.80436495146535
 30
0.0
 11
1530.648118893276
 21
53.65990287315414
 31
0.0
  0
LINE
  5
8CB
  8
DATA
  6
CONTINUOUS
 62
     7
 10
1469.351881106726
 20
53.65990287315194
 30
0.0
 11
1457.424284422668
 21
65.80436495146536
 31
0.0
  0
ARC
  5
8CC
  8
DATA
  6
CONTINUOUS
 62
     7
 10
1500.0
 20
57.49166666666667
 30
0.0
 40
76.50833333333328
 50
55.93532872025181
 51
124.0646712810059
  0
ARC
  5
8CD
  8
DATA
  6
CONTINUOUS
 62
     7
 10
1500.0
 20
57.49166666666667
 30
0.0
 40
73.50833333333324
 50
55.93434248090468
 51
124.0656575190921
  0
LINE
  5
8CE
  8
DATA
  6
CONTINUOUS
 62
     7
 10
1470.836890237592
 20
56.42927745696627
 30
0.0
 11
1459.563577790512
 21
67.9075592212657
 31
0.0
  0
ARC
  5
8CF
  8
DATA
  6
CONTINUOUS
 62
     7
 10
1500.0
 20
201.5
 30
0.0
 40
148.5
 50
259.2966846523391
 51
280.7033153476644
  0
LINE
  5
8D0
  8
DATA
  6
CONTINUOUS
 62
     7
 10
1529.163109762416
 20
56.42927745697418
 30
0.0
 11
1540.436422209488
 21
67.9075592212657
 31
0.0
  0
LINE
  5
8D1
  8
DATA
  6
CONTINUOUS
 62
     7
 10
631.951733497201
 20
-762.5
 30
0.0
 11
568.048266502799
 21
-762.5
 31
0.0
  0
LINE
  5
8D2
  8
DATA
  6
CONTINUOUS
 62
     7
 10
762.6999999999998
 20
-762.5
 30
0.0
 11
720.3
 21
-762.5
 31
0.0
  0
ARC
  5
8D3
  8
DATA
  6
CONTINUOUS
 62
     7
 10
1500.0
 20
57.49166666666667
 30
0.0
 40
57.50833333333325
 50
58.73610601715035
 51
121.2638939910734
  0
ARC
  5
8D4
  8
DATA
  6
CONTINUOUS
 62
     7
 10
1500.0
 20
57.49166666666667
 30
0.0
 40
50.50833333333326
 50
60.07165001045177
 51
119.9283499896611
  0
LINE
  5
8D5
  8
DATA
  6
CONTINUOUS
 62
     7
 10
1532.249099315938
 20
102.2445047776291
 30
0.0
 11
1531.608007176338
 21
77.69983429008612
 31
0.0
  0
LINE
  5
8D6
  8
DATA
  6
CONTINUOUS
 62
     7
 10
1468.391992823695
 20
77.69983428453456
 30
0.0
 11
1467.750900684341
 21
102.244504762648
 31
0.0
  0
LINE
  5
8D7
  8
DATA
  6
CONTINUOUS
 62
     7
 10
1525.700189375837
 20
100.3719527851765
 30
0.0
 11
1525.097311516359
 21
77.29034330804754
 31
0.0
  0
LINE
  5
8D8
  8
DATA
  6
CONTINUOUS
 62
     7
 10
1474.902688483637
 20
77.29034330389297
 30
0.0
 11
1474.299810624051
 21
100.3719527851765
 31
0.0
  0
ARC
  5
8D9
  8
DATA
  6
CONTINUOUS
 62
     7
 10
1500.0
 20
201.5
 30
0.0
 40
131.5
 50
257.8569336823815
 51
282.143066318162
  0
ARC
  5
8DA
  8
DATA
  6
CONTINUOUS
 62
     7
 10
1500.0
 20
201.5
 30
0.0
 40
127.5
 50
259.0183106383913
 51
280.9816893619656
  0
ARC
  5
8DB
  8
DATA
  6
CONTINUOUS
 62
     7
 10
1472.749196003458
 20
102.3750572523264
 30
0.0
 40
5.00000000496689
 50
121.2638940404794
 51
181.4961913708291
  0
ARC
  5
8DC
  8
DATA
  6
CONTINUOUS
 62
     7
 10
1526.609711859411
 20
77.83038677970734
 30
0.0
 40
5.000000002776057
 50
282.1430663490767
 51
358.5038086291708
  0
ARC
  5
8DD
  8
DATA
  6
CONTINUOUS
 62
     7
 10
1473.390288133531
 20
77.8303867739706
 30
0.0
 40
4.999999995683171
 50
181.4961913708294
 51
257.8569337304538
  0
ARC
  5
8DE
  8
DATA
  6
CONTINUOUS
 62
     7
 10
1527.250804022532
 20
102.375057266636
 30
0.0
 40
4.999999979246637
 50
358.5038086291706
 51
58.73610622358598
  0
ARC
  5
8DF
  8
DATA
  6
CONTINUOUS
 62
     7
 10
1475.299469707881
 20
100.3980632836347
 30
0.0
 40
1.000000021006194
 50
119.9283510480526
 51
181.4961913708289
  0
ARC
  5
8E0
  8
DATA
  6
CONTINUOUS
 62
     7
 10
1475.902347545807
 20
77.31645380178546
 30
0.0
 40
0.9999999993393385
 50
181.4961913708287
 51
259.0183106753506
  0
ARC
  5
8E1
  8
DATA
  6
CONTINUOUS
 62
     7
 10
1524.097652448988
 20
77.3164538060759
 30
0.0
 40
1.000000004542761
 50
280.9816896161041
 51
358.503808629171
  0
ARC
  5
8E2
  8
DATA
  6
CONTINUOUS
 62
     7
 10
1524.7005302919
 20
100.3980632836375
 30
0.0
 40
1.000000021113017
 50
358.5038086291698
 51
60.07164894669359
  0
LINE
  5
8E3
  8
DATA
  6
CONTINUOUS
 62
     7
 10
1500.249999999971
 20
92.58114804557334
 30
0.0
 11
1500.249999999971
 21
89.08114804557334
 31
0.0
  0
LINE
  5
8E4
  8
DATA
  6
CONTINUOUS
 62
     7
 10
1500.249999999971
 20
88.58114804557334
 30
0.0
 11
1500.249999999971
 21
85.08114804557334
 31
0.0
  0
LINE
  5
8E5
  8
DATA
  6
CONTINUOUS
 62
     7
 10
1496.249999999971
 20
89.08114804557334
 30
0.0
 11
1499.749999999972
 21
89.08114804557334
 31
0.0
  0
LINE
  5
8E6
  8
DATA
  6
CONTINUOUS
 62
     7
 10
1500.249999999971
 20
89.08114804557334
 30
0.0
 11
1503.749999999971
 21
89.08114804557334
 31
0.0
  0
LINE
  5
8E7
  8
DATA
  6
CONTINUOUS
 62
     7
 10
1495.749999999971
 20
85.08114804557334
 30
0.0
 11
1504.250000000029
 21
85.08114804557334
 31
0.0
  0
LINE
  5
8E8
  8
DATA
  6
CONTINUOUS
 62
     7
 10
1503.749999999971
 20
88.58114804557334
 30
0.0
 11
1503.749999999971
 21
85.08114804557334
 31
0.0
  0
LINE
  5
8E9
  8
DATA
  6
CONTINUOUS
 62
     7
 10
1496.249999999971
 20
88.58114804557334
 30
0.0
 11
1499.749999999972
 21
88.58114804557334
 31
0.0
  0
LINE
  5
8EA
  8
DATA
  6
CONTINUOUS
 62
     7
 10
1500.249999999971
 20
88.58114804557334
 30
0.0
 11
1503.749999999971
 21
88.58114804557334
 31
0.0
  0
LINE
  5
8EB
  8
DATA
  6
CONTINUOUS
 62
     7
 10
1500.249999999971
 20
92.58114804557334
 30
0.0
 11
1503.749999999971
 21
92.58114804557334
 31
0.0
  0
LINE
  5
8EC
  8
DATA
  6
CONTINUOUS
 62
     7
 10
1503.749999999971
 20
89.08114804557334
 30
0.0
 11
1503.749999999971
 21
92.58114804557334
 31
0.0
  0
LINE
  5
8ED
  8
DATA
  6
CONTINUOUS
 62
     7
 10
1499.749999999971
 20
92.58114804557334
 30
0.0
 11
1499.749999999971
 21
89.08114804557334
 31
0.0
  0
LINE
  5
8EE
  8
DATA
  6
CONTINUOUS
 62
     7
 10
1499.749999999971
 20
88.58114804557334
 30
0.0
 11
1499.749999999971
 21
85.08114804557334
 31
0.0
  0
LINE
  5
8EF
  8
DATA
  6
CONTINUOUS
 62
     7
 10
1496.249999999971
 20
88.58114804557334
 30
0.0
 11
1496.249999999971
 21
85.08114804557334
 31
0.0
  0
LINE
  5
8F0
  8
DATA
  6
CONTINUOUS
 62
     7
 10
1499.749999999971
 20
92.58114804557334
 30
0.0
 11
1496.249999999971
 21
92.58114804557334
 31
0.0
  0
LINE
  5
8F1
  8
DATA
  6
CONTINUOUS
 62
     7
 10
1496.249999999971
 20
89.08114804557334
 30
0.0
 11
1496.249999999971
 21
92.58114804557334
 31
0.0
  0
CIRCLE
  5
8F2
  8
DATA
  6
CONTINUOUS
 62
     7
 10
1514.32077991032
 20
88.83114804557334
 30
0.0
 40
5.5
  0
CIRCLE
  5
8F3
  8
DATA
  6
CONTINUOUS
 62
     7
 10
1514.32077991032
 20
88.83114804557334
 30
0.0
 40
1.550763497815751
  0
CIRCLE
  5
8F4
  8
DATA
  6
CONTINUOUS
 62
     7
 10
1514.32077991032
 20
88.83114804557334
 30
0.0
 40
2.250763497815569
  0
ARC
  5
8F5
  8
DATA
  6
CONTINUOUS
 62
     7
 10
1514.816142786539
 20
92.36552977534592
 30
0.0
 40
2.497237585765803
 50
132.777273214539
 51
223.3031045751951
  0
ARC
  5
8F6
  8
DATA
  6
CONTINUOUS
 62
     7
 10
1513.906015925198
 20
91.25833852366776
 30
0.0
 40
3.043377700447283
 50
104.9646951493723
 51
232.8950482767863
  0
ARC
  5
8F7
  8
DATA
  6
CONTINUOUS
 62
     7
 10
1513.8254170341
 20
85.29676631580077
 30
0.0
 40
2.497237585765803
 50
312.777273214539
 51
43.30310457519511
  0
ARC
  5
8F8
  8
DATA
  6
CONTINUOUS
 62
     7
 10
1514.735543895441
 20
86.40395756747893
 30
0.0
 40
3.043377700447283
 50
284.9646951493723
 51
52.89504827678641
  0
CIRCLE
  5
8F9
  8
DATA
  6
CONTINUOUS
 62
     7
 10
1485.679220089621
 20
88.83114804557334
 30
0.0
 40
5.5
  0
CIRCLE
  5
8FA
  8
DATA
  6
CONTINUOUS
 62
     7
 10
1485.679220089621
 20
88.83114804557334
 30
0.0
 40
1.550763497815751
  0
CIRCLE
  5
8FB
  8
DATA
  6
CONTINUOUS
 62
     7
 10
1485.679220089621
 20
88.83114804557334
 30
0.0
 40
2.250763497815569
  0
ARC
  5
8FC
  8
DATA
  6
CONTINUOUS
 62
     7
 10
1485.183857213401
 20
92.36552977534592
 30
0.0
 40
2.497237585765659
 50
316.6968954248049
 51
47.22272678546096
  0
ARC
  5
8FD
  8
DATA
  6
CONTINUOUS
 62
     7
 10
1486.093984074743
 20
91.25833852366776
 30
0.0
 40
3.043377700444754
 50
307.1049517232136
 51
75.03530485062774
  0
ARC
  5
8FE
  8
DATA
  6
CONTINUOUS
 62
     7
 10
1486.174582965841
 20
85.29676631580077
 30
0.0
 40
2.497237585765659
 50
136.6968954248049
 51
227.2227267854609
  0
ARC
  5
8FF
  8
DATA
  6
CONTINUOUS
 62
     7
 10
1485.264456104499
 20
86.40395756747893
 30
0.0
 40
3.043377700444754
 50
127.1049517232136
 51
255.0353048506277
  0
LINE
  5
900
  8
DATA
  6
CONTINUOUS
 62
     7
 10
1492.999999999971
 20
88.83114804557334
 30
0.0
 11
1492.999999999971
 21
94.08114804557334
 31
0.0
  0
LINE
  5
901
  8
DATA
  6
CONTINUOUS
 62
     7
 10
1506.999999999971
 20
94.08114804557334
 30
0.0
 11
1506.999999999971
 21
88.83114804557334
 31
0.0
  0
LINE
  5
902
  8
DATA
  6
CONTINUOUS
 62
     7
 10
1506.999999999971
 20
88.83114804557334
 30
0.0
 11
1504.250000000029
 21
88.83114804557334
 31
0.0
  0
LINE
  5
903
  8
DATA
  6
CONTINUOUS
 62
     7
 10
1495.749999999971
 20
88.83114804557334
 30
0.0
 11
1492.999999999971
 21
88.83114804557334
 31
0.0
  0
LINE
  5
904
  8
DATA
  6
CONTINUOUS
 62
     7
 10
1492.999999999971
 20
94.08114804557334
 30
0.0
 11
1506.999999999971
 21
94.08114804557334
 31
0.0
  0
LINE
  5
905
  8
DATA
  6
CONTINUOUS
 62
     7
 10
1495.749999999971
 20
93.08114804557334
 30
0.0
 11
1495.749999999971
 21
85.08114804557334
 31
0.0
  0
LINE
  5
906
  8
DATA
  6
CONTINUOUS
 62
     7
 10
1504.250000000029
 20
93.08114804557334
 30
0.0
 11
1504.250000000029
 21
85.08114804557334
 31
0.0
  0
LINE
  5
907
  8
DATA
  6
CONTINUOUS
 62
     7
 10
1504.250000000029
 20
93.08114804557334
 30
0.0
 11
1495.749999999971
 21
93.08114804557334
 31
0.0
  0
LINE
  5
908
  8
DATA
  6
CONTINUOUS
 62
     7
 10
1455.707019009342
 20
69.85195005331241
 30
0.0
 11
1454.508332460219
 21
115.7445207911944
 31
0.0
  0
LINE
  5
909
  8
DATA
  6
CONTINUOUS
 62
     7
 10
1458.704945083849
 20
69.93135177218922
 30
0.0
 11
1457.506304244775
 21
115.8221724681786
 31
0.0
  0
ARC
  5
90A
  8
DATA
  6
CONTINUOUS
 62
     7
 10
1460.506286849539
 20
115.9011837789752
 30
0.0
 40
6.000000012342442
 50
124.064671380334
 51
181.4961913708293
  0
LINE
  5
90B
  8
DATA
  6
CONTINUOUS
 62
     7
 10
1544.292980990658
 20
69.85195005331241
 30
0.0
 11
1545.491667539857
 21
115.7445207940684
 31
0.0
  0
LINE
  5
90C
  8
DATA
  6
CONTINUOUS
 62
     7
 10
1541.295054916151
 20
69.93135177218922
 30
0.0
 11
1542.493695755225
 21
115.8221724681713
 31
0.0
  0
ARC
  5
90D
  8
DATA
  6
CONTINUOUS
 62
     7
 10
1461.704973386324
 20
70.00861304077118
 30
0.0
 40
5.999999999999833
 50
181.496191370832
 51
224.4838357702387
  0
ARC
  5
90E
  8
DATA
  6
CONTINUOUS
 62
     7
 10
1538.295026613675
 20
70.00861304077068
 30
0.0
 40
5.999999999999867
 50
315.5161642297661
 51
358.5038086291729
  0
ARC
  5
90F
  8
DATA
  6
CONTINUOUS
 62
     7
 10
1539.493713155782
 20
115.9011837817121
 30
0.0
 40
6.000000007094484
 50
358.5038086291708
 51
55.93532866315854
  0
ARC
  5
910
  8
DATA
  6
CONTINUOUS
 62
     7
 10
1460.505281442432
 20
115.9005039621472
 30
0.0
 40
3.000000009168901
 50
124.0656576666636
 51
181.4961913708292
  0
ARC
  5
911
  8
DATA
  6
CONTINUOUS
 62
     7
 10
1461.70392227234
 20
70.00968326591837
 30
0.0
 40
3.000000000000024
 50
181.4961913708274
 51
224.4838357702324
  0
ARC
  5
912
  8
DATA
  6
CONTINUOUS
 62
     7
 10
1472.977234719412
 20
58.53140150161119
 30
0.0
 40
2.999999999988743
 50
224.4838357702363
 51
259.2966846524648
  0
ARC
  5
913
  8
DATA
  6
CONTINUOUS
 62
     7
 10
1527.022765280571
 20
58.5314015016433
 30
0.0
 40
3.000000000023493
 50
280.7033153479182
 51
315.5161642297655
  0
ARC
  5
914
  8
DATA
  6
CONTINUOUS
 62
     7
 10
1538.29607772766
 20
70.00968326591838
 30
0.0
 40
3.000000000000024
 50
315.5161642297674
 51
358.5038086291723
  0
ARC
  5
915
  8
DATA
  6
CONTINUOUS
 62
     7
 10
1539.494718557555
 20
115.9005039621403
 30
0.0
 40
3.00000000918246
 50
358.5038086291708
 51
55.93434233311307
  0
ARC
  5
916
  8
DATA
  6
CONTINUOUS
 62
     7
 10
1471.492225588546
 20
55.76202691779702
 30
0.0
 40
2.999999999989019
 50
224.4838357702355
 51
258.9321362895683
  0
ARC
  5
917
  8
DATA
  6
CONTINUOUS
 62
     7
 10
1528.507774411448
 20
55.7620269178067
 30
0.0
 40
2.999999999999602
 50
281.067863710547
 51
315.516164229766
  0
LINE
  5
918
  8
DATA
  6
CONTINUOUS
 62
     7
 10
1535.0
 20
-770.0
 30
0.0
 11
1465.0
 21
-770.0
 31
0.0
  0
LINE
  5
919
  8
DATA
  6
CONTINUOUS
 62
     7
 10
1465.0
 20
-770.0
 30
0.0
 11
1465.0
 21
-700.0
 31
0.0
  0
LINE
  5
91A
  8
DATA
  6
CONTINUOUS
 62
     7
 10
1535.0
 20
-770.0
 30
0.0
 11
1535.0
 21
-700.0
 31
0.0
  0
ARC
  5
91B
  8
DATA
  6
CONTINUOUS
 62
     7
 10
1500.0
 20
-951.4999999999999
 30
0.0
 40
151.4999999999999
 50
78.93213628944991
 51
101.0678637105491
  0
LINE
  5
91C
  8
DATA
  6
CONTINUOUS
 62
     7
 10
1542.575715577332
 20
-815.8043649514653
 30
0.0
 11
1530.648118893276
 21
-803.659902873154
 31
0.0
  0
LINE
  5
91D
  8
DATA
  6
CONTINUOUS
 62
     7
 10
1469.351881106726
 20
-803.6599028731519
 30
0.0
 11
1457.424284422668
 21
-815.8043649514653
 31
0.0
  0
ARC
  5
91E
  8
DATA
  6
CONTINUOUS
 62
     7
 10
1500.0
 20
-807.4916666666667
 30
0.0
 40
76.5083333333333
 50
235.9353287189941
 51
304.0646712797483
  0
ARC
  5
91F
  8
DATA
  6
CONTINUOUS
 62
     7
 10
1500.0
 20
-807.4916666666667
 30
0.0
 40
73.5083333333332
 50
235.9343424809078
 51
304.0656575190953
  0
LINE
  5
920
  8
DATA
  6
CONTINUOUS
 62
     7
 10
1470.836890237592
 20
-806.4292774569662
 30
0.0
 11
1459.563577790512
 21
-817.9075592212656
 31
0.0
  0
ARC
  5
921
  8
DATA
  6
CONTINUOUS
 62
     7
 10
1500.0
 20
-951.4999999999999
 30
0.0
 40
148.4999999999999
 50
79.29668465233556
 51
100.7033153476609
  0
LINE
  5
922
  8
DATA
  6
CONTINUOUS
 62
     7
 10
1529.163109762416
 20
-806.4292774569741
 30
0.0
 11
1540.436422209488
 21
-817.9075592212656
 31
0.0
  0
LINE
  5
923
  8
DATA
  6
CONTINUOUS
 62
     7
 10
1455.707019009342
 20
-819.8519500533124
 30
0.0
 11
1454.508332460219
 21
-865.7445207911944
 31
0.0
  0
LINE
  5
924
  8
DATA
  6
CONTINUOUS
 62
     7
 10
1458.704945083849
 20
-819.9313517721891
 30
0.0
 11
1457.506304244775
 21
-865.8221724681786
 31
0.0
  0
ARC
  5
925
  8
DATA
  6
CONTINUOUS
 62
     7
 10
1460.506286849539
 20
-865.9011837789751
 30
0.0
 40
6.000000012342464
 50
178.5038086291714
 51
235.9353286196661
  0
LINE
  5
926
  8
DATA
  6
CONTINUOUS
 62
     7
 10
1544.292980990658
 20
-819.8519500533124
 30
0.0
 11
1545.491667539857
 21
-865.7445207940683
 31
0.0
  0
LINE
  5
927
  8
DATA
  6
CONTINUOUS
 62
     7
 10
1541.295054916151
 20
-819.9313517721891
 30
0.0
 11
1542.493695755225
 21
-865.8221724681713
 31
0.0
  0
ARC
  5
928
  8
DATA
  6
CONTINUOUS
 62
     7
 10
1461.704973386324
 20
-820.0086130407711
 30
0.0
 40
6.000000000000024
 50
135.5161642297615
 51
178.5038086291684
  0
ARC
  5
929
  8
DATA
  6
CONTINUOUS
 62
     7
 10
1538.295026613675
 20
-820.0086130407707
 30
0.0
 40
6.000000000000047
 50
1.496191370827157
 51
44.48383577023392
  0
ARC
  5
92A
  8
DATA
  6
CONTINUOUS
 62
     7
 10
1539.493713155782
 20
-865.9011837817121
 30
0.0
 40
6.00000000709447
 50
304.0646713368416
 51
1.49619137082999
  0
ARC
  5
92B
  8
DATA
  6
CONTINUOUS
 62
     7
 10
1460.505281442432
 20
-865.9005039621471
 30
0.0
 40
3.00000000916881
 50
178.5038086291724
 51
235.9343423333364
  0
ARC
  5
92C
  8
DATA
  6
CONTINUOUS
 62
     7
 10
1461.70392227234
 20
-820.0096832659183
 30
0.0
 40
3.000000000000015
 50
135.5161642297676
 51
178.5038086291729
  0
ARC
  5
92D
  8
DATA
  6
CONTINUOUS
 62
     7
 10
1472.977234719412
 20
-808.5314015016112
 30
0.0
 40
2.999999999988866
 50
100.703315347535
 51
135.5161642297634
  0
ARC
  5
92E
  8
DATA
  6
CONTINUOUS
 62
     7
 10
1527.022765280571
 20
-808.5314015016432
 30
0.0
 40
3.000000000023407
 50
44.48383577023489
 51
79.29668465208161
  0
ARC
  5
92F
  8
DATA
  6
CONTINUOUS
 62
     7
 10
1538.29607772766
 20
-820.0096832659183
 30
0.0
 40
3.000000000000024
 50
1.496191370827157
 51
44.4838357702324
  0
ARC
  5
930
  8
DATA
  6
CONTINUOUS
 62
     7
 10
1539.494718557555
 20
-865.9005039621402
 30
0.0
 40
3.000000009182442
 50
304.065657666887
 51
1.496191370827319
  0
ARC
  5
931
  8
DATA
  6
CONTINUOUS
 62
     7
 10
1471.492225588546
 20
-805.762026917797
 30
0.0
 40
2.999999999989015
 50
101.0678637104317
 51
135.5161642297634
  0
ARC
  5
932
  8
DATA
  6
CONTINUOUS
 62
     7
 10
1528.507774411448
 20
-805.7620269178067
 30
0.0
 40
2.999999999999852
 50
44.48383577023545
 51
78.93213628945293
  0
LINE
  5
933
  8
DATA
  6
CONTINUOUS
 62
     7
 10
1510.00000000006
 20
-836.5
 30
0.0
 11
1510.00000000006
 21
-852.5
 31
0.0
  0
LINE
  5
934
  8
DATA
  6
CONTINUOUS
 62
     7
 10
1510.00000000006
 20
-836.5
 30
0.0
 11
1490.00000000006
 21
-836.5
 31
0.0
  0
LINE
  5
935
  8
DATA
  6
CONTINUOUS
 62
     7
 10
1510.00000000006
 20
-852.5
 30
0.0
 11
1504.00000000006
 21
-852.5
 31
0.0
  0
LINE
  5
936
  8
DATA
  6
CONTINUOUS
 62
     7
 10
1496.00000000006
 20
-852.5
 30
0.0
 11
1490.00000000006
 21
-852.5
 31
0.0
  0
LINE
  5
937
  8
DATA
  6
CONTINUOUS
 62
     7
 10
1509.00000000006
 20
-837.5
 30
0.0
 11
1491.00000000006
 21
-837.5
 31
0.0
  0
LINE
  5
938
  8
DATA
  6
CONTINUOUS
 62
     7
 10
1509.00000000006
 20
-837.5
 30
0.0
 11
1509.00000000006
 21
-844.75
 31
0.0
  0
LINE
  5
939
  8
DATA
  6
CONTINUOUS
 62
     7
 10
1504.00000000006
 20
-851.5
 30
0.0
 11
1496.00000000006
 21
-851.5
 31
0.0
  0
LINE
  5
93A
  8
DATA
  6
CONTINUOUS
 62
     7
 10
1510.00000000006
 20
-842.0
 30
0.0
 11
1513.00000000006
 21
-842.0
 31
0.0
  0
LINE
  5
93B
  8
DATA
  6
CONTINUOUS
 62
     7
 10
1510.00000000006
 20
-847.0
 30
0.0
 11
1513.00000000006
 21
-847.0
 31
0.0
  0
LINE
  5
93C
  8
DATA
  6
CONTINUOUS
 62
     7
 10
1513.00000000006
 20
-847.0
 30
0.0
 11
1513.00000000006
 21
-842.0
 31
0.0
  0
LINE
  5
93D
  8
DATA
  6
CONTINUOUS
 62
     7
 10
1494.25000000006
 20
-844.25
 30
0.0
 11
1497.75000000006
 21
-844.25
 31
0.0
  0
LINE
  5
93E
  8
DATA
  6
CONTINUOUS
 62
     7
 10
1498.25000000006
 20
-844.25
 30
0.0
 11
1501.75000000006
 21
-844.25
 31
0.0
  0
LINE
  5
93F
  8
DATA
  6
CONTINUOUS
 62
     7
 10
1502.25000000006
 20
-844.25
 30
0.0
 11
1505.75000000006
 21
-844.25
 31
0.0
  0
LINE
  5
940
  8
DATA
  6
CONTINUOUS
 62
     7
 10
1494.25000000006
 20
-844.75
 30
0.0
 11
1497.75000000006
 21
-844.75
 31
0.0
  0
LINE
  5
941
  8
DATA
  6
CONTINUOUS
 62
     7
 10
1498.25000000006
 20
-844.75
 30
0.0
 11
1501.75000000006
 21
-844.75
 31
0.0
  0
LINE
  5
942
  8
DATA
  6
CONTINUOUS
 62
     7
 10
1502.25000000006
 20
-844.75
 30
0.0
 11
1505.75000000006
 21
-844.75
 31
0.0
  0
LINE
  5
943
  8
DATA
  6
CONTINUOUS
 62
     7
 10
1505.75000000006
 20
-840.75
 30
0.0
 11
1509.00000000006
 21
-837.5
 31
0.0
  0
LINE
  5
944
  8
DATA
  6
CONTINUOUS
 62
     7
 10
1502.25000000006
 20
-840.75
 30
0.0
 11
1502.25000000006
 21
-844.25
 31
0.0
  0
LINE
  5
945
  8
DATA
  6
CONTINUOUS
 62
     7
 10
1502.25000000006
 20
-844.75
 30
0.0
 11
1502.25000000006
 21
-848.25
 31
0.0
  0
LINE
  5
946
  8
DATA
  6
CONTINUOUS
 62
     7
 10
1505.75000000006
 20
-844.75
 30
0.0
 11
1505.75000000006
 21
-848.25
 31
0.0
  0
LINE
  5
947
  8
DATA
  6
CONTINUOUS
 62
     7
 10
1502.25000000006
 20
-840.75
 30
0.0
 11
1505.75000000006
 21
-840.75
 31
0.0
  0
LINE
  5
948
  8
DATA
  6
CONTINUOUS
 62
     7
 10
1505.75000000006
 20
-844.25
 30
0.0
 11
1505.75000000006
 21
-840.75
 31
0.0
  0
LINE
  5
949
  8
DATA
  6
CONTINUOUS
 62
     7
 10
1501.75000000006
 20
-840.75
 30
0.0
 11
1501.75000000006
 21
-844.25
 31
0.0
  0
LINE
  5
94A
  8
DATA
  6
CONTINUOUS
 62
     7
 10
1501.75000000006
 20
-844.75
 30
0.0
 11
1501.75000000006
 21
-848.25
 31
0.0
  0
LINE
  5
94B
  8
DATA
  6
CONTINUOUS
 62
     7
 10
1498.25000000006
 20
-844.75
 30
0.0
 11
1498.25000000006
 21
-848.25
 31
0.0
  0
LINE
  5
94C
  8
DATA
  6
CONTINUOUS
 62
     7
 10
1501.75000000006
 20
-840.75
 30
0.0
 11
1498.25000000006
 21
-840.75
 31
0.0
  0
LINE
  5
94D
  8
DATA
  6
CONTINUOUS
 62
     7
 10
1498.25000000006
 20
-844.25
 30
0.0
 11
1498.25000000006
 21
-840.75
 31
0.0
  0
LINE
  5
94E
  8
DATA
  6
CONTINUOUS
 62
     7
 10
1490.00000000006
 20
-836.5
 30
0.0
 11
1490.00000000006
 21
-852.5
 31
0.0
  0
LINE
  5
94F
  8
DATA
  6
CONTINUOUS
 62
     7
 10
1491.00000000006
 20
-837.5
 30
0.0
 11
1491.00000000006
 21
-844.75
 31
0.0
  0
LINE
  5
950
  8
DATA
  6
CONTINUOUS
 62
     7
 10
1490.00000000006
 20
-842.0
 30
0.0
 11
1487.00000000006
 21
-842.0
 31
0.0
  0
LINE
  5
951
  8
DATA
  6
CONTINUOUS
 62
     7
 10
1490.00000000006
 20
-847.0
 30
0.0
 11
1487.00000000006
 21
-847.0
 31
0.0
  0
LINE
  5
952
  8
DATA
  6
CONTINUOUS
 62
     7
 10
1487.00000000006
 20
-847.0
 30
0.0
 11
1487.00000000006
 21
-842.0
 31
0.0
  0
LINE
  5
953
  8
DATA
  6
CONTINUOUS
 62
     7
 10
1497.75000000006
 20
-840.75
 30
0.0
 11
1497.75000000006
 21
-844.25
 31
0.0
  0
LINE
  5
954
  8
DATA
  6
CONTINUOUS
 62
     7
 10
1497.75000000006
 20
-844.75
 30
0.0
 11
1497.75000000006
 21
-848.25
 31
0.0
  0
LINE
  5
955
  8
DATA
  6
CONTINUOUS
 62
     7
 10
1510.00000000006
 20
-848.25
 30
0.0
 11
1490.00000000006
 21
-848.25
 31
0.0
  0
LINE
  5
956
  8
DATA
  6
CONTINUOUS
 62
     7
 10
1494.25000000006
 20
-844.75
 30
0.0
 11
1494.25000000006
 21
-848.25
 31
0.0
  0
LINE
  5
957
  8
DATA
  6
CONTINUOUS
 62
     7
 10
1497.75000000006
 20
-840.75
 30
0.0
 11
1494.25000000006
 21
-840.75
 31
0.0
  0
LINE
  5
958
  8
DATA
  6
CONTINUOUS
 62
     7
 10
1494.25000000006
 20
-844.25
 30
0.0
 11
1494.25000000006
 21
-840.75
 31
0.0
  0
LINE
  5
959
  8
DATA
  6
CONTINUOUS
 62
     7
 10
1494.25000000006
 20
-840.75
 30
0.0
 11
1491.00000000006
 21
-837.5
 31
0.0
  0
LINE
  5
95A
  8
DATA
  6
CONTINUOUS
 62
     7
 10
1496.00000000006
 20
-848.25
 30
0.0
 11
1496.00000000006
 21
-852.5
 31
0.0
  0
LINE
  5
95B
  8
DATA
  6
CONTINUOUS
 62
     7
 10
1504.00000000006
 20
-848.25
 30
0.0
 11
1504.00000000006
 21
-852.5
 31
0.0
  0
LINE
  5
95C
  8
DATA
  6
CONTINUOUS
 62
     7
 10
1491.00000000006
 20
-844.75
 30
0.0
 11
1490.00000000006
 21
-844.75
 31
0.0
  0
LINE
  5
95D
  8
DATA
  6
CONTINUOUS
 62
     7
 10
1509.00000000006
 20
-844.75
 30
0.0
 11
1510.00000000006
 21
-844.75
 31
0.0
  0
ARC
  5
95E
  8
DATA
  6
CONTINUOUS
 62
     7
 10
1500.0
 20
-929.125
 30
0.0
 40
108.1249999999999
 50
74.78861948821212
 51
105.2113805118387
  0
ARC
  5
95F
  8
DATA
  6
CONTINUOUS
 62
     7
 10
1500.0
 20
-743.0
 30
0.0
 40
125.0
 50
256.0530857055041
 51
283.9469142946494
  0
LINE
  5
960
  8
DATA
  6
CONTINUOUS
 62
     7
 10
1465.331937024574
 20
-858.0873320363072
 30
0.0
 11
1467.218004881042
 21
-830.1735277605778
 31
0.0
  0
LINE
  5
961
  8
DATA
  6
CONTINUOUS
 62
     7
 10
1532.781995118939
 20
-830.1735277603013
 30
0.0
 11
1534.668062975471
 21
-858.0873320369659
 31
0.0
  0
ARC
  5
962
  8
DATA
  6
CONTINUOUS
 62
     7
 10
1473.20435547271
 20
-830.5780109086635
 30
0.0
 40
6.000000001954052
 50
105.2113805294753
 51
176.1345388301484
  0
ARC
  5
963
  8
DATA
  6
CONTINUOUS
 62
     7
 10
1471.318287614638
 20
-858.4918151842845
 30
0.0
 40
6.000000000346358
 50
176.134538830148
 51
256.0530857022467
  0
ARC
  5
964
  8
DATA
  6
CONTINUOUS
 62
     7
 10
1526.795644527659
 20
-830.5780109083609
 30
0.0
 40
6.000000001565128
 50
3.865461169852303
 51
74.78861947408708
  0
ARC
  5
965
  8
DATA
  6
CONTINUOUS
 62
     7
 10
1528.681712386193
 20
-858.49181518489
 30
0.0
 40
5.999999999558422
 50
283.9469142902903
 51
3.865461169852324
  0
ARC
  5
966
  8
DATA
  6
CONTINUOUS
 62
     7
 10
1500.0
 20
-929.125
 30
0.0
 40
104.125
 50
74.78861948821215
 51
105.2113805118387
  0
LINE
  5
967
  8
DATA
  6
CONTINUOUS
 62
     7
 10
1469.322837417719
 20
-858.3569874682765
 30
0.0
 11
1471.208905274188
 21
-830.4431831925472
 31
0.0
  0
ARC
  5
968
  8
DATA
  6
CONTINUOUS
 62
     7
 10
1500.0
 20
-743.0
 30
0.0
 40
121.0
 50
256.0530857055041
 51
283.9469142946495
  0
LINE
  5
969
  8
DATA
  6
CONTINUOUS
 62
     7
 10
1530.677162582281
 20
-858.3569874682765
 30
0.0
 11
1528.791094725812
 21
-830.4431831925472
 31
0.0
  0
ARC
  5
96A
  8
DATA
  6
CONTINUOUS
 62
     7
 10
1472.372701481626
 20
-857.7202352537744
 30
0.0
 40
2.9999999995565
 50
176.1345388301487
 51
256.4596759150745
  0
ARC
  5
96B
  8
DATA
  6
CONTINUOUS
 62
     7
 10
1474.15388440137
 20
-831.3587280366105
 30
0.0
 40
2.99999999922288
 50
104.8083002236128
 51
176.134538830147
  0
ARC
  5
96C
  8
DATA
  6
CONTINUOUS
 62
     7
 10
1525.846115597926
 20
-831.3587280371916
 30
0.0
 40
2.999999999964655
 50
3.86546116985122
 51
75.19169976286616
  0
ARC
  5
96D
  8
DATA
  6
CONTINUOUS
 62
     7
 10
1527.627298517823
 20
-857.7202352533694
 30
0.0
 40
3.000000000079133
 50
283.5403240948045
 51
3.865461169851529
  0
LINE
  5
96E
  8
DATA
  6
CONTINUOUS
 62
     7
 10
1621.0
 20
-770.0
 30
0.0
 11
1621.0
 21
-700.0
 31
0.0
  0
LINE
  5
96F
  8
DATA
  6
CONTINUOUS
 62
     7
 10
1668.0
 20
-770.0
 30
0.0
 11
1621.0
 21
-770.0
 31
0.0
  0
LINE
  5
970
  8
DATA
  6
CONTINUOUS
 62
     7
 10
1668.0
 20
-770.0
 30
0.0
 11
1668.0
 21
-700.0
 31
0.0
  0
LINE
  5
971
  8
DATA
  6
CONTINUOUS
 62
     7
 10
725.76995164091
 20
-762.5
 30
0.0
 11
725.76995164091
 21
-708.5
 31
0.0
  0
LINE
  5
972
  8
DATA
  6
CONTINUOUS
 62
     7
 10
755.5944526922518
 20
-762.5
 30
0.0
 11
755.5944526922518
 21
-708.5
 31
0.0
  0
LINE
  5
973
  8
DATA
  6
CONTINUOUS
 62
     7
 10
1626.0
 20
-769.9999999999999
 30
0.0
 11
1626.0
 21
-700.0
 31
0.0
  0
LINE
  5
974
  8
DATA
  6
CONTINUOUS
 62
     7
 10
1663.0
 20
-769.9999999999999
 30
0.0
 11
1663.0
 21
-700.0
 31
0.0
  0
LINE
  5
975
  8
DATA
  6
CONTINUOUS
 62
     7
 10
1835.0
 20
-770.0
 30
0.0
 11
1765.0
 21
-770.0
 31
0.0
  0
LINE
  5
976
  8
DATA
  6
CONTINUOUS
 62
     7
 10
1765.0
 20
-770.0
 30
0.0
 11
1765.0
 21
-700.0
 31
0.0
  0
LINE
  5
977
  8
DATA
  6
CONTINUOUS
 62
     7
 10
1835.0
 20
-770.0
 30
0.0
 11
1835.0
 21
-700.0
 31
0.0
  0
CIRCLE
  5
978
  8
DATA
  6
CONTINUOUS
 62
     7
 10
1800.0
 20
-738.0
 30
0.0
 40
2.25
  0
ARC
  5
979
  8
DATA
  6
CONTINUOUS
 62
     7
 10
1800.0
 20
-737.4821428571429
 30
0.0
 40
7.517857142857141
 50
183.9498680217637
 51
356.0501319782363
  0
LINE
  5
97A
  8
DATA
  6
CONTINUOUS
 62
     7
 10
1792.5
 20
-738.0
 30
0.0
 11
1790.0
 21
-700.0
 31
0.0
  0
LINE
  5
97B
  8
DATA
  6
CONTINUOUS
 62
     7
 10
1807.5
 20
-738.0
 30
0.0
 11
1810.0
 21
-700.0
 31
0.0
  0
ENDSEC
  0
EOF
