  0
SECTION
  2
HEADER
  9
$ACADVER
  1
AC1009
  9
$DWGCODEPAGE
  3
ansi_932
  9
$INSBASE
 10
0.0
 20
0.0
 30
0.0
  9
$EXTMIN
 10
-1630.220269097222
 20
-1350.85011233299
 30
0.0
  9
$EXTMAX
 10
7541.079912124733
 20
1331.786335066766
 30
0.0
  9
$LIMMIN
 10
0.0
 20
0.0
  9
$LIMMAX
 10
0.0
 20
0.0
  9
$ORTHOMODE
 70
     0
  9
$REGENMODE
 70
     1
  9
$FILLMODE
 70
     1
  9
$QTEXTMODE
 70
     0
  9
$MIRRTEXT
 70
     1
  9
$DRAGMODE
 70
     2
  9
$LTSCALE
 40
50.8
  9
$OSMODE
 70
    37
  9
$ATTMODE
 70
     1
  9
$TEXTSIZE
 40
0.0
  9
$TRACEWID
 40
1.0
  9
$TEXTSTYLE
  7
STANDARD
  9
$CLAYER
  8
DATA
  9
$CELTYPE
  6
BYLAYER
  9
$CECOLOR
 62
   256
  9
$DIMSCALE
 40
1.0
  9
$DIMASZ
 40
0.18
  9
$DIMEXO
 40
0.0625
  9
$DIMDLI
 40
0.38
  9
$DIMRND
 40
0.0
  9
$DIMDLE
 40
0.0
  9
$DIMEXE
 40
0.18
  9
$DIMTP
 40
0.0
  9
$DIMTM
 40
0.0
  9
$DIMTXT
 40
0.18
  9
$DIMCEN
 40
0.09
  9
$DIMTSZ
 40
0.0
  9
$DIMTOL
 70
     0
  9
$DIMLIM
 70
     0
  9
$DIMTIH
 70
     1
  9
$DIMTOH
 70
     1
  9
$DIMSE1
 70
     0
  9
$DIMSE2
 70
     0
  9
$DIMTAD
 70
     0
  9
$DIMZIN
 70
     0
  9
$DIMBLK
  1

  9
$DIMASO
 70
     1
  9
$DIMSHO
 70
     1
  9
$DIMPOST
  1

  9
$DIMAPOST
  1

  9
$DIMALT
 70
     0
  9
$DIMALTD
 70
     2
  9
$DIMALTF
 40
25.4
  9
$DIMLFAC
 40
1.0
  9
$DIMTOFL
 70
     0
  9
$DIMTVP
 40
0.0
  9
$DIMTIX
 70
     0
  9
$DIMSOXD
 70
     0
  9
$DIMSAH
 70
     0
  9
$DIMBLK1
  1

  9
$DIMBLK2
  1

  9
$DIMSTYLE
  2
STANDARD
  9
$DIMCLRD
 70
     0
  9
$DIMCLRE
 70
     0
  9
$DIMCLRT
 70
     0
  9
$DIMTFAC
 40
1.0
  9
$DIMGAP
 40
0.09
  9
$LUNITS
 70
     2
  9
$LUPREC
 70
     2
  9
$SKETCHINC
 40
0.1
  9
$FILLETRAD
 40
0.0
  9
$AUNITS
 70
     0
  9
$AUPREC
 70
     0
  9
$MENU
  1
acad
  9
$ELEVATION
 40
0.0
  9
$PELEVATION
 40
0.0
  9
$THICKNESS
 40
0.0
  9
$LIMCHECK
 70
     0
  9
$CHAMFERA
 40
0.0
  9
$CHAMFERB
 40
0.0
  9
$SKPOLY
 70
     0
  9
$TDCREATE
 40
2459674.429896643
  9
$TDUPDATE
 40
2459674.430459769
  9
$TDINDWG
 40
2459674.055460312
  9
$TDUSRTIMER
 40
0.0005636806
  9
$USRTIMER
 70
     1
  9
$ANGBASE
 50
0.0
  9
$ANGDIR
 70
     0
  9
$PDMODE
 70
     1
  9
$PDSIZE
 40
-2.0
  9
$PLINEWID
 40
0.0
  9
$COORDS
 70
     1
  9
$SPLFRAME
 70
     0
  9
$SPLINETYPE
 70
     6
  9
$SPLINESEGS
 70
     8
  9
$ATTDIA
 70
     1
  9
$ATTREQ
 70
     1
  9
$HANDLING
 70
     1
  9
$HANDSEED
  5
610
  9
$SURFTAB1
 70
     6
  9
$SURFTAB2
 70
     6
  9
$SURFTYPE
 70
     6
  9
$SURFU
 70
     6
  9
$SURFV
 70
     6
  9
$UCSNAME
  2

  9
$UCSORG
 10
0.0
 20
0.0
 30
0.0
  9
$UCSXDIR
 10
1.0
 20
0.0
 30
0.0
  9
$UCSYDIR
 10
0.0
 20
1.0
 30
0.0
  9
$PUCSNAME
  2

  9
$PUCSORG
 10
0.0
 20
0.0
 30
0.0
  9
$PUCSXDIR
 10
1.0
 20
0.0
 30
0.0
  9
$PUCSYDIR
 10
0.0
 20
1.0
 30
0.0
  9
$USERI1
 70
     0
  9
$USERI2
 70
     0
  9
$USERI3
 70
     0
  9
$USERI4
 70
     0
  9
$USERI5
 70
     0
  9
$USERR1
 40
0.0
  9
$USERR2
 40
0.0
  9
$USERR3
 40
0.0
  9
$USERR4
 40
0.0
  9
$USERR5
 40
0.0
  9
$WORLDVIEW
 70
     1
  9
$SHADEDGE
 70
     3
  9
$SHADEDIF
 70
    70
  9
$TILEMODE
 70
     1
  9
$MAXACTVP
 70
    64
  9
$PLIMCHECK
 70
     0
  9
$PEXTMIN
 10
1.000000000000000E+20
 20
1.000000000000000E+20
 30
1.000000000000000E+20
  9
$PEXTMAX
 10
-1.000000000000000E+20
 20
-1.000000000000000E+20
 30
-1.000000000000000E+20
  9
$PLIMMIN
 10
0.0
 20
0.0
  9
$PLIMMAX
 10
12.0
 20
9.0
  9
$UNITMODE
 70
     0
  9
$VISRETAIN
 70
     0
  9
$PLINEGEN
 70
     1
  9
$PSLTSCALE
 70
     0
  0
ENDSEC
  0
SECTION
  2
TABLES
  0
TABLE
  2
VPORT
 70
     1
  0
VPORT
  2
*ACTIVE
 70
     0
 10
0.0
 20
0.0
 11
1.0
 21
1.0
 12
0.0
 22
-3.531814999999824
 13
0.0
 23
0.0
 14
1.0
 24
1.0
 15
0.0
 25
0.0
 16
0.0
 26
0.0
 36
1.0
 17
0.0
 27
0.0
 37
0.0
 40
2670.636300133531
 41
2.451612903225807
 42
50.0
 43
0.0
 44
0.0
 50
0.0
 51
0.0
 71
     0
 72
  2000
 73
     1
 74
     1
 75
     0
 76
     0
 77
     0
 78
     0
  0
ENDTAB
  0
TABLE
  2
LTYPE
 70
    11
  0
LTYPE
  2
CONTINUOUS
 70
     0
  3
Solid line
 72
    65
 73
     0
 40
0.0
  0
LTYPE
  2
STYLE_05
 70
     0
  3

 72
    65
 73
     4
 40
1.041641235351562
 49
0.625
 49
-0.208282470703125
 49
0.069427490234375
 49
-0.1389312744140625
  0
ENDTAB
  0
TABLE
  2
LAYER
 70
     5
  0
LAYER
  2
0
 70
     0
 62
     7
  6
CONTINUOUS
  0
LAYER
  2
HIBINO-BASE
 70
     0
 62
     7
  6
CONTINUOUS
  0
LAYER
  2
SPEC
 70
     0
 62
     7
  6
CONTINUOUS
  0
LAYER
  2
DIMNSIONS
 70
     0
 62
     7
  6
CONTINUOUS
  0
LAYER
  2
DATA
 70
     0
 62
     7
  6
CONTINUOUS
  0
ENDTAB
  0
TABLE
  2
STYLE
 70
     2
  0
STYLE
  2
STANDARD
 70
     0
 40
0.0
 41
1.0
 50
0.0
 71
     0
 42
0.0
  3
txt
  4
BIGFONT.SHX
  0
ENDTAB
  0
TABLE
  2
VIEW
 70
     0
  0
ENDTAB
  0
TABLE
  2
UCS
 70
     0
  0
ENDTAB
  0
TABLE
  2
APPID
 70
     5
  0
APPID
  2
ACAD
 70
     0
  0
APPID
  2
ACAECLAYERSTANDARD
 70
     0
  0
APPID
  2
ACCMTRANSPARENCY
 70
     0
  0
APPID
  2
ACAD_MLEADERVER
 70
     0
  0
APPID
  2
ACADANNOPO
 70
     0
  0
ENDTAB
  0
TABLE
  2
DIMSTYLE
 70
     1
  0
DIMSTYLE
  2
STANDARD
 70
     0
  3

  4

  5

  6

  7

 40
1.0
 41
0.18
 42
0.0625
 43
0.38
 44
0.18
 45
0.0
 46
0.0
 47
0.0
 48
0.0
140
0.18
141
0.09
142
0.0
143
25.4
144
1.0
145
0.0
146
1.0
147
0.09
 71
     0
 72
     0
 73
     1
 74
     1
 75
     0
 76
     0
 77
     0
 78
     0
170
     0
171
     2
172
     0
173
     0
174
     0
175
     0
176
     0
177
     0
178
     0
  0
ENDTAB
  0
ENDSEC
  0
SECTION
  2
BLOCKS
  0
BLOCK
  8
DATA
  2
$MODEL_SPACE
 70
     0
 10
0.0
 20
0.0
 30
0.0
  3
$MODEL_SPACE
  1

  0
ENDBLK
  5
58E
  8
DATA
  6
CONTINUOUS
  0
BLOCK
 67
     1
  8
DATA
  2
$PAPER_SPACE
 70
     0
 10
0.0
 20
0.0
 30
0.0
  3
$PAPER_SPACE
  1

  0
ENDBLK
  5
58C
 67
     1
  8
DATA
  6
CONTINUOUS
  0
ENDSEC
  0
SECTION
  2
ENTITIES
  0
LINE
  5
2C
  8
HIBINO-BASE
  6
CONTINUOUS
 62
     7
 10
-900.0000000449998
 20
1331.786335066766
 30
0.0
 11
900.0000000449998
 21
1331.786335066766
 31
0.0
  0
LINE
  5
2D
  8
HIBINO-BASE
  6
CONTINUOUS
 62
     7
 10
900.0000000449998
 20
-1268.213665063234
 30
0.0
 11
-900.0000000449998
 21
-1268.213665063234
 31
0.0
  0
LINE
  5
2E
  8
HIBINO-BASE
  6
CONTINUOUS
 62
     7
 10
-900.0000000449998
 20
-1268.213665063234
 30
0.0
 11
-900.0000000449998
 21
1331.786335066766
 31
0.0
  0
LINE
  5
2F
  8
HIBINO-BASE
  6
CONTINUOUS
 62
     7
 10
900.0000000449998
 20
1331.786335066766
 30
0.0
 11
900.0000000449998
 21
-1268.213665063234
 31
0.0
  0
LINE
  5
30
  8
HIBINO-BASE
  6
CONTINUOUS
 62
     7
 10
0.0000000000001421
 20
-1043.213665051984
 30
0.0
 11
900.0000000449998
 21
-1043.213665051984
 31
0.0
  0
LINE
  5
31
  8
HIBINO-BASE
  6
CONTINUOUS
 62
     7
 10
0.0000000000001421
 20
-1268.213665063234
 30
0.0
 11
0.0000000000001421
 21
-1043.213665051984
 31
0.0
  0
TEXT
  5
32
  8
HIBINO-BASE
 62
     7
 10
9.000000000450198
 20
-1068.300598386571
 30
0.0
 40
16.28841145914775
  1
NOTE
 41
0.7
 11
9.000000000450198
 21
-1052.012186927423
 31
0.0
 73
     3
  0
LINE
  5
33
  8
HIBINO-BASE
  6
CONTINUOUS
 62
     7
 10
350.0000000175002
 20
-1268.213665063234
 30
0.0
 11
350.0000000175002
 21
-1043.213665051984
 31
0.0
  0
TEXT
  5
34
  8
HIBINO-BASE
 62
     7
 10
359.0000000179499
 20
-1068.300598386571
 30
0.0
 40
16.28841145914775
  1
TITLE
 41
0.7
 11
359.0000000179499
 21
-1052.012186927423
 31
0.0
 73
     3
  0
LINE
  5
35
  8
HIBINO-BASE
  6
CONTINUOUS
 62
     7
 10
0.0000000000001421
 20
-1168.213665058234
 30
0.0
 11
900.0000000449998
 21
-1168.213665058234
 31
0.0
  0
TEXT
  5
36
  8
HIBINO-BASE
 62
     7
 10
484.0000000241999
 20
-1192.737398392793
 30
0.0
 40
16.28841145914775
  1
DRAWN
 41
0.7
 11
484.0000000241999
 21
-1176.448986933646
 31
0.0
 73
     3
  0
TEXT
  5
37
  8
HIBINO-BASE
 62
     7
 10
234.0000000116999
 20
-1192.737398392793
 30
0.0
 40
16.28841145914775
  1
DATE
 41
0.7
 11
234.0000000116999
 21
-1176.448986933646
 31
0.0
 73
     3
  0
TEXT
  5
38
  8
HIBINO-BASE
 62
     7
 10
134.0000000066999
 20
-1192.737398392793
 30
0.0
 40
16.28841145914775
  1
SCALE
 41
0.7
 11
134.0000000066999
 21
-1176.448986933646
 31
0.0
 73
     3
  0
TEXT
  5
39
  8
HIBINO-BASE
 62
     7
 10
359.0000000179499
 20
-1192.737398392793
 30
0.0
 40
16.28841145914775
  1
DESIGN
 41
0.7
 11
359.0000000179499
 21
-1176.448986933646
 31
0.0
 73
     3
  0
TEXT
  5
3A
  8
HIBINO-BASE
 62
     7
 10
734.0000000366998
 20
-1192.737398392793
 30
0.0
 40
16.28841145914775
  1
DRAWING NO.
 41
0.7
 11
734.0000000366998
 21
-1176.448986933646
 31
0.0
 73
     3
  0
TEXT
  5
3B
  8
HIBINO-BASE
 62
     7
 10
609.0000000304499
 20
-1192.737398392793
 30
0.0
 40
16.28841145914775
  1
CHECK
 41
0.7
 11
609.0000000304499
 21
-1176.448986933646
 31
0.0
 73
     3
  0
LINE
  5
3C
  8
HIBINO-BASE
  6
CONTINUOUS
 62
     7
 10
143.7500000071876
 20
-1255.713665062608
 30
0.0
 11
181.2500000090626
 21
-1218.213665060734
 31
0.0
  0
TEXT
  5
3D
  8
HIBINO-BASE
 62
     7
 10
137.5000000068751
 20
-1229.303098394621
 30
0.0
 40
16.28841145914775
  1
1
 41
0.7
 11
137.5000000068751
 21
-1213.014686935474
 31
0.0
 73
     3
  0
LINE
  5
3E
  8
HIBINO-BASE
  6
CONTINUOUS
 62
     7
 10
125.0000000062501
 20
-1268.213665063234
 30
0.0
 11
125.0000000062501
 21
-1168.213665058234
 31
0.0
  0
LINE
  5
3F
  8
HIBINO-BASE
  6
CONTINUOUS
 62
     7
 10
225.0000000112498
 20
-1268.213665063234
 30
0.0
 11
225.0000000112498
 21
-1168.213665058234
 31
0.0
  0
LINE
  5
40
  8
HIBINO-BASE
  6
CONTINUOUS
 62
     7
 10
475.0000000237497
 20
-1168.213665058234
 30
0.0
 11
475.0000000237497
 21
-1268.213665063234
 31
0.0
  0
LINE
  5
41
  8
HIBINO-BASE
  6
CONTINUOUS
 62
     7
 10
725.0000000362501
 20
-1168.213665058234
 30
0.0
 11
725.0000000362501
 21
-1268.213665063234
 31
0.0
  0
LINE
  5
42
  8
HIBINO-BASE
  6
CONTINUOUS
 62
     7
 10
600.0000000299998
 20
-1268.213665063234
 30
0.0
 11
600.0000000299998
 21
-1168.213665058234
 31
0.0
  0
TEXT
  5
43
  8
HIBINO-BASE
 62
     7
 10
233.5654000116783
 20
-1239.577198395135
 30
0.0
 40
16.28841145914775
  1
'22.03.
 41
0.7
 11
233.5654000116783
 21
-1223.288786935987
 31
0.0
 73
     3
  0
TEXT
  5
44
  8
HIBINO-BASE
 62
     7
 10
175.0000000087501
 20
-1248.053098395559
 30
0.0
 40
16.28841145914775
  1
10
 41
0.7
 11
175.0000000087501
 21
-1231.764686936411
 31
0.0
 73
     3
  0
TEXT
  5
45
  8
HIBINO-BASE
 62
     7
 10
490.0581001348491
 20
-1239.577198395135
 30
0.0
 40
16.28841145914775
  1
N.Sasaki
 41
0.7
 11
490.0581001348491
 21
-1223.288786935987
 31
0.0
 73
     3
  0
TEXT
  5
46
  8
HIBINO-BASE
 62
     7
 10
38.83333333527535
 20
-1248.453665062245
 30
0.0
 40
32.5768229182955
  1
A4
 41
0.7
 11
38.83333333527535
 21
-1215.87684214395
 31
0.0
 73
     3
  0
TEXT
  5
47
  8
HIBINO-BASE
 62
     7
 10
9.583333333812453
 20
-1194.408215059544
 30
0.0
 40
16.28841145914775
  1
PAPER SIZE
 41
0.7
 11
9.583333333812453
 21
-1178.119803600396
 31
0.0
 73
     3
  0
TEXT
  5
48
  8
HIBINO-BASE
 62
     7
 10
-828.1600000414077
 20
-1332.300443066438
 30
0.0
 40
36.00044179867502
  1
Hibino Corporation
 41
0.7
 11
-828.1600000414077
 21
-1296.300001267763
 31
0.0
 73
     3
  0
TEXT
  5
49
  8
HIBINO-BASE
 62
     7
 10
500.6839000250342
 20
-1332.300443066438
 30
0.0
 40
36.00044179867502
  1
ヒビノ株式会社
 41
0.7
 11
500.6839000250342
 21
-1296.300001267763
 31
0.0
 73
     3
  0
LINE
  5
4A
  8
SPEC
  6
CONTINUOUS
 62
     7
 10
-825.0000000412495
 20
1231.786335061766
 30
0.0
 11
-825.0000000412495
 21
969.2863350486409
 31
0.0
  0
TEXT
  5
4B
  8
SPEC
 62
     7
 10
-812.5000000406246
 20
1245.719035062463
 30
0.0
 40
24.43261718872163
  1
仕様
 41
0.7
 11
-812.5000000406246
 21
1270.151652251184
 31
0.0
 73
     3
  0
LINE
  5
4C
  8
SPEC
  6
CONTINUOUS
 62
     7
 10
-600.00000003
 20
1231.786335061766
 30
0.0
 11
-600.00000003
 21
969.2863350486409
 31
0.0
  0
LINE
  5
4D
  8
SPEC
  6
CONTINUOUS
 62
     7
 10
720.0000000359998
 20
1231.786335061766
 30
0.0
 11
720.0000000359998
 21
969.2863350486409
 31
0.0
  0
TEXT
  5
4E
  8
SPEC
 62
     7
 10
-816.0000000407998
 20
1052.165512830563
 30
0.0
 40
19.00314670233904
  1
質量
 41
0.7
 11
-816.0000000407998
 21
1071.168659532902
 31
0.0
 73
     3
  0
TEXT
  5
4F
  8
SPEC
 62
     7
 10
-816.0000000407998
 20
1202.165512838063
 30
0.0
 40
19.00314670233904
  1
セット内容
 41
0.7
 11
-816.0000000407998
 21
1221.168659540402
 31
0.0
 73
     3
  0
LINE
  5
50
  8
SPEC
  6
CONTINUOUS
 62
     7
 10
-825.0000000412495
 20
1194.286335059891
 30
0.0
 11
720.000000036
 21
1194.286335059891
 31
0.0
  0
LINE
  5
51
  8
SPEC
  6
CONTINUOUS
 62
     7
 10
-825.0000000412495
 20
1081.786335054266
 30
0.0
 11
720.000000036
 21
1081.786335054266
 31
0.0
  0
LINE
  5
52
  8
SPEC
  6
CONTINUOUS
 62
     7
 10
-825.0000000412495
 20
969.2863350486409
 30
0.0
 11
720.000000036
 21
969.2863350486409
 31
0.0
  0
TEXT
  5
53
  8
SPEC
 62
     7
 10
-591.0000000295499
 20
1164.665512836187
 30
0.0
 40
19.00314670233904
  1
取付金具:106×500×242mm
 41
0.7
 11
-591.0000000295499
 21
1183.668659538527
 31
0.0
 73
     3
  0
TEXT
  5
54
  8
SPEC
 62
     7
 10
-591.0000000295499
 20
1089.665512832438
 30
0.0
 40
19.00314670233904
  1
ケーブル接続用アダプター(パワードサブウーファー側):91×183×84mm
 41
0.7
 11
-591.0000000295499
 21
1108.668659534777
 31
0.0
 73
     3
  0
TEXT
  5
55
  8
SPEC
 62
     7
 10
-816.0000000407998
 20
1164.665512836187
 30
0.0
 40
19.00314670233904
  1
寸法(W×H×D)
 41
0.7
 11
-816.0000000407998
 21
1183.668659538526
 31
0.0
 73
     3
  0
TEXT
  5
56
  8
SPEC
 62
     7
 10
-591.00000002955
 20
1202.165512838063
 30
0.0
 40
19.00314670233904
  1
取付金具(壁側、本体側)、本体側金具用ねじ、ケーブル接続用アダプター(コラム側、パワードサブウーファー側)
 41
0.7
 11
-591.00000002955
 21
1221.168659540402
 31
0.0
 73
     3
  0
TEXT
  5
57
  8
SPEC
 62
     7
 10
-591.0000000295499
 20
1127.165512834312
 30
0.0
 40
19.00314670233904
  1
ケーブル接続用アダプター(コラム側):91×84×84mm
 41
0.7
 11
-591.0000000295499
 21
1146.168659536651
 31
0.0
 73
     3
  0
TEXT
  5
58
  8
SPEC
 62
     7
 10
-591.0000000295499
 20
1052.165512830563
 30
0.0
 40
19.00314670233904
  1
取付金具:3000g
 41
0.7
 11
-591.0000000295499
 21
1071.168659532902
 31
0.0
 73
     3
  0
LINE
  5
59
  8
SPEC
  6
CONTINUOUS
 62
     7
 10
-825.0000000412495
 20
1231.786335061766
 30
0.0
 11
720.0000000359998
 21
1231.786335061766
 31
0.0
  0
TEXT
  5
5A
  8
SPEC
 62
     7
 10
-591.0000000295499
 20
1014.665512828687
 30
0.0
 40
19.00314670233904
  1
ケーブル接続用アダプター(コラム側):250g
 41
0.7
 11
-591.0000000295499
 21
1033.668659531026
 31
0.0
 73
     3
  0
TEXT
  5
5B
  8
SPEC
 62
     7
 10
-591.00000002955
 20
977.1655128268127
 30
0.0
 40
19.00314670233904
  1
ケーブル接続用アダプター(パワードサブウーファー側):252g
 41
0.7
 11
-591.00000002955
 21
996.1686595291517
 31
0.0
 73
     3
  0
TEXT
  5
5C
  8
DIMNSIONS
 62
     7
 10
-200.0000000099999
 20
-1145.518765057099
 30
0.0
 40
24.43261718872163
  1
(単位：mm)
 41
0.7
 11
-200.0000000099999
 21
-1121.086147868377
 31
0.0
 73
     3
  0
LINE
  5
5D
  8
DIMNSIONS
  6
CONTINUOUS
 62
     7
 10
-453.5
 20
600.0
 30
0.0
 11
-485.0
 21
600.0
 31
0.0
  0
LINE
  5
5E
  8
DIMNSIONS
  6
CONTINUOUS
 62
     7
 10
-457.5
 20
683.7999999999997
 30
0.0
 11
-485.0
 21
683.7999999999997
 31
0.0
  0
LINE
  5
5F
  8
DIMNSIONS
  6
CONTINUOUS
 62
     7
 10
-475.0
 20
600.0
 30
0.0
 11
-475.0
 21
683.7999999999997
 31
0.0
  0
LINE
  5
60
  8
DIMNSIONS
  6
CONTINUOUS
 62
     7
 10
-475.0
 20
600.0
 30
0.0
 11
-480.3586567622059
 21
619.998779296875
 31
0.0
  0
LINE
  5
61
  8
DIMNSIONS
  6
CONTINUOUS
 62
     7
 10
-475.0
 20
600.0
 30
0.0
 11
-469.6413432377941
 21
619.998779296875
 31
0.0
  0
LINE
  5
62
  8
DIMNSIONS
  6
CONTINUOUS
 62
     7
 10
-475.0
 20
683.7999999999997
 30
0.0
 11
-469.6413432377941
 21
663.8012207031247
 31
0.0
  0
LINE
  5
63
  8
DIMNSIONS
  6
CONTINUOUS
 62
     7
 10
-475.0
 20
683.7999999999997
 30
0.0
 11
-480.3586567622059
 21
663.8012207031247
 31
0.0
  0
TEXT
  5
64
  8
DIMNSIONS
 62
     7
 10
-484.938888888889
 20
606.622222222222
 30
0.0
 40
27.14735243055556
  1
83.8
 50
90.0
 41
0.7
 11
-512.0862413194445
 21
606.622222222222
 31
0.0
 73
     3
  0
LINE
  5
65
  8
DIMNSIONS
  6
CONTINUOUS
 62
     7
 10
-445.5
 20
599.25
 30
0.0
 11
-445.5
 21
540.0
 31
0.0
  0
LINE
  5
66
  8
DIMNSIONS
  6
CONTINUOUS
 62
     7
 10
-354.5
 20
599.25
 30
0.0
 11
-354.5
 21
540.0
 31
0.0
  0
LINE
  5
67
  8
DIMNSIONS
  6
CONTINUOUS
 62
     7
 10
-445.5
 20
550.0
 30
0.0
 11
-354.5
 21
550.0
 31
0.0
  0
LINE
  5
68
  8
DIMNSIONS
  6
CONTINUOUS
 62
     7
 10
-445.5
 20
550.0
 30
0.0
 11
-425.501220703125
 21
555.3586567622059
 31
0.0
  0
LINE
  5
69
  8
DIMNSIONS
  6
CONTINUOUS
 62
     7
 10
-445.5
 20
550.0
 30
0.0
 11
-425.501220703125
 21
544.6413432377941
 31
0.0
  0
LINE
  5
6A
  8
DIMNSIONS
  6
CONTINUOUS
 62
     7
 10
-354.5
 20
550.0
 30
0.0
 11
-374.498779296875
 21
544.6413432377941
 31
0.0
  0
LINE
  5
6B
  8
DIMNSIONS
  6
CONTINUOUS
 62
     7
 10
-354.5
 20
550.0
 30
0.0
 11
-374.498779296875
 21
555.3586567622059
 31
0.0
  0
TEXT
  5
6C
  8
DIMNSIONS
 62
     7
 10
-435.2777777777778
 20
559.938888888889
 30
0.0
 40
27.14735243055556
  1
91.0
 41
0.7
 11
-435.2777777777778
 21
587.0862413194445
 31
0.0
 73
     3
  0
LINE
  5
6D
  8
DIMNSIONS
  6
CONTINUOUS
 62
     7
 10
-388.0
 20
725.0
 30
0.0
 11
-315.0
 21
724.9999999999999
 31
0.0
  0
LINE
  5
6E
  8
DIMNSIONS
  6
CONTINUOUS
 62
     7
 10
-388.0
 20
808.5
 30
0.0
 11
-314.9999999999999
 21
808.5
 31
0.0
  0
LINE
  5
6F
  8
DIMNSIONS
  6
CONTINUOUS
 62
     7
 10
-325.0
 20
725.0
 30
0.0
 11
-324.9999999999999
 21
808.5
 31
0.0
  0
LINE
  5
70
  8
DIMNSIONS
  6
CONTINUOUS
 62
     7
 10
-325.0
 20
725.0
 30
0.0
 11
-330.0088137882872
 21
745.0892548416938
 31
0.0
  0
LINE
  5
71
  8
DIMNSIONS
  6
CONTINUOUS
 62
     7
 10
-325.0
 20
725.0
 30
0.0
 11
-319.2931325626356
 21
744.9022119301499
 31
0.0
  0
LINE
  5
72
  8
DIMNSIONS
  6
CONTINUOUS
 62
     7
 10
-324.9999999999999
 20
808.5
 30
0.0
 11
-319.641343237794
 21
788.501220703125
 31
0.0
  0
LINE
  5
73
  8
DIMNSIONS
  6
CONTINUOUS
 62
     7
 10
-324.9999999999999
 20
808.5
 30
0.0
 11
-330.3586567622058
 21
788.501220703125
 31
0.0
  0
TEXT
  5
74
  8
DIMNSIONS
 62
     7
 10
-360.2777777777778
 20
754.0500000000001
 30
0.0
 40
27.14735243055556
  1
83.5
 41
0.7
 11
-360.2777777777778
 21
781.1973524305556
 31
0.0
 73
     3
  0
LINE
  5
75
  8
DIMNSIONS
  6
CONTINUOUS
 62
     7
 10
312.000000000007
 20
798.279687499999
 30
0.0
 11
435.0000000000112
 21
798.2796874999937
 31
0.0
  0
LINE
  5
76
  8
DIMNSIONS
  6
CONTINUOUS
 62
     7
 10
312.0000000000106
 20
882.0796874999992
 30
0.0
 11
435.0000000000148
 21
882.0796874999938
 31
0.0
  0
LINE
  5
77
  8
DIMNSIONS
  6
CONTINUOUS
 62
     7
 10
425.0000000000112
 20
798.2796874999941
 30
0.0
 11
425.0000000000148
 21
882.0796874999943
 31
0.0
  0
LINE
  5
78
  8
DIMNSIONS
  6
CONTINUOUS
 62
     7
 10
425.0000000000112
 20
798.2796874999941
 30
0.0
 11
419.991186211724
 21
818.3689423416879
 31
0.0
  0
LINE
  5
79
  8
DIMNSIONS
  6
CONTINUOUS
 62
     7
 10
425.0000000000112
 20
798.2796874999941
 30
0.0
 11
430.7068674373756
 21
818.181899430144
 31
0.0
  0
LINE
  5
7A
  8
DIMNSIONS
  6
CONTINUOUS
 62
     7
 10
425.0000000000148
 20
882.0796874999943
 30
0.0
 11
430.3586567622207
 21
862.0809082031193
 31
0.0
  0
LINE
  5
7B
  8
DIMNSIONS
  6
CONTINUOUS
 62
     7
 10
425.0000000000148
 20
882.0796874999943
 30
0.0
 11
419.6413432378089
 21
862.0809082031193
 31
0.0
  0
TEXT
  5
7C
  8
DIMNSIONS
 62
     7
 10
389.7222222222352
 20
827.4796874999943
 30
0.0
 40
27.14735243055556
  1
83.8
 41
0.7
 11
389.7222222222352
 21
854.6270399305498
 31
0.0
 73
     3
  0
LINE
  5
7D
  8
DIMNSIONS
  6
CONTINUOUS
 62
     7
 10
254.3499999999999
 20
599.5
 30
0.0
 11
254.3499999999999
 21
540.0
 31
0.0
  0
LINE
  5
7E
  8
DIMNSIONS
  6
CONTINUOUS
 62
     7
 10
345.6499999999996
 20
599.5
 30
0.0
 11
345.6499999999996
 21
540.0
 31
0.0
  0
LINE
  5
7F
  8
DIMNSIONS
  6
CONTINUOUS
 62
     7
 10
254.3499999999999
 20
550.0
 30
0.0
 11
345.6499999999996
 21
550.0
 31
0.0
  0
LINE
  5
80
  8
DIMNSIONS
  6
CONTINUOUS
 62
     7
 10
254.3499999999999
 20
550.0
 30
0.0
 11
274.3487792968749
 21
555.3586567622059
 31
0.0
  0
LINE
  5
81
  8
DIMNSIONS
  6
CONTINUOUS
 62
     7
 10
254.3499999999999
 20
550.0
 30
0.0
 11
274.3487792968749
 21
544.6413432377941
 31
0.0
  0
LINE
  5
82
  8
DIMNSIONS
  6
CONTINUOUS
 62
     7
 10
345.6499999999996
 20
550.0
 30
0.0
 11
325.6512207031246
 21
544.6413432377941
 31
0.0
  0
LINE
  5
83
  8
DIMNSIONS
  6
CONTINUOUS
 62
     7
 10
345.6499999999996
 20
550.0
 30
0.0
 11
325.6512207031246
 21
555.3586567622059
 31
0.0
  0
TEXT
  5
84
  8
DIMNSIONS
 62
     7
 10
264.722222222222
 20
559.938888888889
 30
0.0
 40
27.14735243055556
  1
91.3
 41
0.7
 11
264.722222222222
 21
587.0862413194445
 31
0.0
 73
     3
  0
LINE
  5
85
  8
DIMNSIONS
  6
CONTINUOUS
 62
     7
 10
247.0
 20
600.0
 30
0.0
 11
165.0
 21
600.0
 31
0.0
  0
LINE
  5
86
  8
DIMNSIONS
  6
CONTINUOUS
 62
     7
 10
253.0
 20
783.4110189620137
 30
0.0
 11
165.0
 21
783.4110189620137
 31
0.0
  0
LINE
  5
87
  8
DIMNSIONS
  6
CONTINUOUS
 62
     7
 10
175.0
 20
600.0
 30
0.0
 11
175.0
 21
783.4110189620137
 31
0.0
  0
LINE
  5
88
  8
DIMNSIONS
  6
CONTINUOUS
 62
     7
 10
175.0
 20
600.0
 30
0.0
 11
169.6413432377941
 21
619.998779296875
 31
0.0
  0
LINE
  5
89
  8
DIMNSIONS
  6
CONTINUOUS
 62
     7
 10
175.0
 20
600.0
 30
0.0
 11
180.3586567622059
 21
619.998779296875
 31
0.0
  0
LINE
  5
8A
  8
DIMNSIONS
  6
CONTINUOUS
 62
     7
 10
175.0
 20
783.4110189620137
 30
0.0
 11
180.3586567622059
 21
763.4122396651387
 31
0.0
  0
LINE
  5
8B
  8
DIMNSIONS
  6
CONTINUOUS
 62
     7
 10
175.0
 20
783.4110189620137
 30
0.0
 11
169.6413432377941
 21
763.4122396651387
 31
0.0
  0
TEXT
  5
8C
  8
DIMNSIONS
 62
     7
 10
165.0611111111111
 20
665.2471761476735
 30
0.0
 40
27.14735243055556
  1
183
 50
90.0
 41
0.7
 11
137.9137586805556
 21
665.2471761476735
 31
0.0
 73
     3
  0
LINE
  5
8D
  8
DIMNSIONS
  6
CONTINUOUS
 62
     7
 10
247.0
 20
600.0
 30
0.0
 11
215.0
 21
600.0
 31
0.0
  0
LINE
  5
8E
  8
DIMNSIONS
  6
CONTINUOUS
 62
     7
 10
245.5
 20
684.0000000000068
 30
0.0
 11
215.0
 21
684.0000000000068
 31
0.0
  0
LINE
  5
8F
  8
DIMNSIONS
  6
CONTINUOUS
 62
     7
 10
225.0
 20
600.0
 30
0.0
 11
225.0
 21
684.0000000000068
 31
0.0
  0
LINE
  5
90
  8
DIMNSIONS
  6
CONTINUOUS
 62
     7
 10
225.0
 20
600.0
 30
0.0
 11
219.6413432377941
 21
619.998779296875
 31
0.0
  0
LINE
  5
91
  8
DIMNSIONS
  6
CONTINUOUS
 62
     7
 10
225.0
 20
600.0
 30
0.0
 11
230.3586567622059
 21
619.998779296875
 31
0.0
  0
LINE
  5
92
  8
DIMNSIONS
  6
CONTINUOUS
 62
     7
 10
225.0
 20
684.0000000000068
 30
0.0
 11
230.3586567622059
 21
664.0012207031318
 31
0.0
  0
LINE
  5
93
  8
DIMNSIONS
  6
CONTINUOUS
 62
     7
 10
225.0
 20
684.0000000000068
 30
0.0
 11
219.6413432377941
 21
664.0012207031318
 31
0.0
  0
TEXT
  5
94
  8
DIMNSIONS
 62
     7
 10
215.0611111111111
 20
606.7222222222256
 30
0.0
 40
27.14735243055556
  1
84.0
 50
90.0
 41
0.7
 11
187.9137586805556
 21
606.7222222222256
 31
0.0
 73
     3
  0
LINE
  5
95
  8
DIMNSIONS
  6
CONTINUOUS
 62
     7
 10
-452.3999999999996
 20
-250.0
 30
0.0
 11
-485.0
 21
-250.0
 31
0.0
  0
LINE
  5
96
  8
DIMNSIONS
  6
CONTINUOUS
 62
     7
 10
-452.3999999999996
 20
-750.0
 30
0.0
 11
-485.0
 21
-750.0
 31
0.0
  0
LINE
  5
97
  8
DIMNSIONS
  6
CONTINUOUS
 62
     7
 10
-475.0
 20
-250.0
 30
0.0
 11
-475.0
 21
-750.0
 31
0.0
  0
LINE
  5
98
  8
DIMNSIONS
  6
CONTINUOUS
 62
     7
 10
-475.0
 20
-250.0
 30
0.0
 11
-469.6413432377941
 21
-269.998779296875
 31
0.0
  0
LINE
  5
99
  8
DIMNSIONS
  6
CONTINUOUS
 62
     7
 10
-475.0
 20
-250.0
 30
0.0
 11
-480.3586567622059
 21
-269.998779296875
 31
0.0
  0
LINE
  5
9A
  8
DIMNSIONS
  6
CONTINUOUS
 62
     7
 10
-475.0
 20
-750.0
 30
0.0
 11
-480.3586567622059
 21
-730.001220703125
 31
0.0
  0
LINE
  5
9B
  8
DIMNSIONS
  6
CONTINUOUS
 62
     7
 10
-475.0
 20
-750.0
 30
0.0
 11
-469.6413432377941
 21
-730.001220703125
 31
0.0
  0
TEXT
  5
9C
  8
DIMNSIONS
 62
     7
 10
-484.938888888889
 20
-526.4583333333334
 30
0.0
 40
27.14735243055556
  1
500
 50
90.0
 41
0.7
 11
-512.0862413194445
 21
-526.4583333333334
 31
0.0
 73
     3
  0
LINE
  5
9D
  8
DIMNSIONS
  6
CONTINUOUS
 62
     7
 10
-450.6724504803669
 20
-225.4000000000001
 30
0.0
 11
-485.0
 21
-225.4000000000001
 31
0.0
  0
LINE
  5
9E
  8
DIMNSIONS
  6
CONTINUOUS
 62
     7
 10
-464.75
 20
17.00000000000011
 30
0.0
 11
-485.0
 21
17.00000000000011
 31
0.0
  0
LINE
  5
9F
  8
DIMNSIONS
  6
CONTINUOUS
 62
     7
 10
-475.0
 20
-225.4000000000001
 30
0.0
 11
-475.0
 21
17.00000000000011
 31
0.0
  0
LINE
  5
A0
  8
DIMNSIONS
  6
CONTINUOUS
 62
     7
 10
-475.0
 20
-225.4000000000001
 30
0.0
 11
-480.3586567622059
 21
-205.4012207031251
 31
0.0
  0
LINE
  5
A1
  8
DIMNSIONS
  6
CONTINUOUS
 62
     7
 10
-475.0
 20
-225.4000000000001
 30
0.0
 11
-469.6413432377941
 21
-205.4012207031251
 31
0.0
  0
LINE
  5
A2
  8
DIMNSIONS
  6
CONTINUOUS
 62
     7
 10
-475.0
 20
17.00000000000011
 30
0.0
 11
-469.6413432377941
 21
-2.998779296874886
 31
0.0
  0
LINE
  5
A3
  8
DIMNSIONS
  6
CONTINUOUS
 62
     7
 10
-475.0
 20
17.00000000000011
 30
0.0
 11
-480.3586567622059
 21
-2.998779296874886
 31
0.0
  0
TEXT
  5
A4
  8
DIMNSIONS
 62
     7
 10
-484.938888888889
 20
-130.6583333333334
 30
0.0
 40
27.14735243055556
  1
242
 50
90.0
 41
0.7
 11
-512.0862413194445
 21
-130.6583333333334
 31
0.0
 73
     3
  0
LINE
  5
A5
  8
DIMNSIONS
  6
CONTINUOUS
 62
     7
 10
-452.75
 20
-597.45
 30
0.0
 11
-452.75
 21
-885.0
 31
0.0
  0
LINE
  5
A6
  8
DIMNSIONS
  6
CONTINUOUS
 62
     7
 10
-347.25
 20
-597.45
 30
0.0
 11
-347.25
 21
-885.0
 31
0.0
  0
LINE
  5
A7
  8
DIMNSIONS
  6
CONTINUOUS
 62
     7
 10
-452.75
 20
-875.0
 30
0.0
 11
-347.25
 21
-875.0
 31
0.0
  0
LINE
  5
A8
  8
DIMNSIONS
  6
CONTINUOUS
 62
     7
 10
-452.75
 20
-875.0
 30
0.0
 11
-432.751220703125
 21
-869.6413432377941
 31
0.0
  0
LINE
  5
A9
  8
DIMNSIONS
  6
CONTINUOUS
 62
     7
 10
-452.75
 20
-875.0
 30
0.0
 11
-432.751220703125
 21
-880.3586567622059
 31
0.0
  0
LINE
  5
AA
  8
DIMNSIONS
  6
CONTINUOUS
 62
     7
 10
-347.25
 20
-875.0
 30
0.0
 11
-367.248779296875
 21
-880.3586567622059
 31
0.0
  0
LINE
  5
AB
  8
DIMNSIONS
  6
CONTINUOUS
 62
     7
 10
-347.25
 20
-875.0
 30
0.0
 11
-367.248779296875
 21
-869.6413432377941
 31
0.0
  0
TEXT
  5
AC
  8
DIMNSIONS
 62
     7
 10
-426.4583333333333
 20
-865.061111111111
 30
0.0
 40
27.14735243055556
  1
106
 41
0.7
 11
-426.4583333333333
 21
-837.9137586805555
 31
0.0
 73
     3
  0
LINE
  5
AD
  8
DIMNSIONS
  6
CONTINUOUS
 62
     7
 10
106.0
 20
-600.5000000000001
 30
0.0
 11
106.0
 21
-810.0
 31
0.0
  0
LINE
  5
AE
  8
DIMNSIONS
  6
CONTINUOUS
 62
     7
 10
194.0
 20
-600.5000000000001
 30
0.0
 11
194.0
 21
-810.0
 31
0.0
  0
LINE
  5
AF
  8
DIMNSIONS
  6
CONTINUOUS
 62
     7
 10
194.0
 20
-800.0
 30
0.0
 11
284.0000000000003
 21
-800.0
 31
0.0
  0
LINE
  5
B0
  8
DIMNSIONS
  6
CONTINUOUS
 62
     7
 10
106.0
 20
-800.0
 30
0.0
 11
194.0
 21
-800.0
 31
0.0
  0
LINE
  5
B1
  8
DIMNSIONS
  6
CONTINUOUS
 62
     7
 10
106.0
 20
-800.0
 30
0.0
 11
125.998779296875
 21
-794.6413432377941
 31
0.0
  0
LINE
  5
B2
  8
DIMNSIONS
  6
CONTINUOUS
 62
     7
 10
106.0
 20
-800.0
 30
0.0
 11
125.998779296875
 21
-805.3586567622059
 31
0.0
  0
LINE
  5
B3
  8
DIMNSIONS
  6
CONTINUOUS
 62
     7
 10
194.0
 20
-800.0
 30
0.0
 11
174.001220703125
 21
-805.3586567622059
 31
0.0
  0
LINE
  5
B4
  8
DIMNSIONS
  6
CONTINUOUS
 62
     7
 10
194.0
 20
-800.0
 30
0.0
 11
174.001220703125
 21
-794.6413432377941
 31
0.0
  0
TEXT
  5
B5
  8
DIMNSIONS
 62
     7
 10
213.4444444444447
 20
-790.061111111111
 30
0.0
 40
27.14735243055556
  1
88.0
 41
0.7
 11
213.4444444444447
 21
-762.9137586805555
 31
0.0
 73
     3
  0
TEXT
  5
B6
  8
DIMNSIONS
 62
     7
 10
284.0000000000003
 20
-768.6122222222223
 30
0.0
 40
19.00314670138889
  1
※
 41
0.7
 11
284.0000000000003
 21
-749.6090755208334
 31
0.0
 73
     3
  0
LINE
  5
B7
  8
DIMNSIONS
  6
CONTINUOUS
 62
     7
 10
97.25
 20
-600.5000000000001
 30
0.0
 11
97.25
 21
-860.0
 31
0.0
  0
LINE
  5
B8
  8
DIMNSIONS
  6
CONTINUOUS
 62
     7
 10
202.75
 20
-600.5000000000001
 30
0.0
 11
202.75
 21
-860.0
 31
0.0
  0
LINE
  5
B9
  8
DIMNSIONS
  6
CONTINUOUS
 62
     7
 10
97.25
 20
-850.0
 30
0.0
 11
202.75
 21
-850.0
 31
0.0
  0
LINE
  5
BA
  8
DIMNSIONS
  6
CONTINUOUS
 62
     7
 10
97.25
 20
-850.0
 30
0.0
 11
117.248779296875
 21
-844.6413432377941
 31
0.0
  0
LINE
  5
BB
  8
DIMNSIONS
  6
CONTINUOUS
 62
     7
 10
97.25
 20
-850.0
 30
0.0
 11
117.248779296875
 21
-855.3586567622059
 31
0.0
  0
LINE
  5
BC
  8
DIMNSIONS
  6
CONTINUOUS
 62
     7
 10
202.75
 20
-850.0
 30
0.0
 11
182.751220703125
 21
-855.3586567622059
 31
0.0
  0
LINE
  5
BD
  8
DIMNSIONS
  6
CONTINUOUS
 62
     7
 10
202.75
 20
-850.0
 30
0.0
 11
182.751220703125
 21
-844.6413432377941
 31
0.0
  0
TEXT
  5
BE
  8
DIMNSIONS
 62
     7
 10
123.5416666666667
 20
-840.061111111111
 30
0.0
 40
27.14735243055556
  1
106
 41
0.7
 11
123.5416666666667
 21
-812.9137586805555
 31
0.0
 73
     3
  0
LINE
  5
BF
  8
DIMNSIONS
  6
CONTINUOUS
 62
     7
 10
-300.4000000000001
 20
-666.25
 30
0.0
 11
-300.4000000000001
 21
-835.0
 31
0.0
  0
LINE
  5
C0
  8
DIMNSIONS
  6
CONTINUOUS
 62
     7
 10
-58.0
 20
-609.5
 30
0.0
 11
-58.0
 21
-835.0
 31
0.0
  0
LINE
  5
C1
  8
DIMNSIONS
  6
CONTINUOUS
 62
     7
 10
-300.4000000000001
 20
-825.0
 30
0.0
 11
-58.0
 21
-825.0
 31
0.0
  0
LINE
  5
C2
  8
DIMNSIONS
  6
CONTINUOUS
 62
     7
 10
-300.4000000000001
 20
-825.0
 30
0.0
 11
-280.4012207031251
 21
-819.6413432377941
 31
0.0
  0
LINE
  5
C3
  8
DIMNSIONS
  6
CONTINUOUS
 62
     7
 10
-300.4000000000001
 20
-825.0
 30
0.0
 11
-280.4012207031251
 21
-830.3586567622059
 31
0.0
  0
LINE
  5
C4
  8
DIMNSIONS
  6
CONTINUOUS
 62
     7
 10
-58.0
 20
-825.0
 30
0.0
 11
-77.998779296875
 21
-830.3586567622059
 31
0.0
  0
LINE
  5
C5
  8
DIMNSIONS
  6
CONTINUOUS
 62
     7
 10
-58.0
 20
-825.0
 30
0.0
 11
-77.998779296875
 21
-819.6413432377941
 31
0.0
  0
TEXT
  5
C6
  8
DIMNSIONS
 62
     7
 10
-205.6583333333334
 20
-815.061111111111
 30
0.0
 40
27.14735243055558
  1
242
 41
0.7
 11
-205.6583333333334
 21
-787.9137586805555
 31
0.0
 73
     3
  0
LINE
  5
C7
  8
DIMNSIONS
  6
CONTINUOUS
 62
     7
 10
-440.3999999999996
 20
-762.0
 30
0.0
 11
-440.3999999999996
 21
-835.0
 31
0.0
  0
LINE
  5
C8
  8
DIMNSIONS
  6
CONTINUOUS
 62
     7
 10
-359.5999999999999
 20
-762.0
 30
0.0
 11
-359.5999999999999
 21
-835.0
 31
0.0
  0
LINE
  5
C9
  8
DIMNSIONS
  6
CONTINUOUS
 62
     7
 10
-440.3999999999996
 20
-825.0
 30
0.0
 11
-560.2777777777776
 21
-825.0
 31
0.0
  0
LINE
  5
CA
  8
DIMNSIONS
  6
CONTINUOUS
 62
     7
 10
-440.3999999999996
 20
-825.0
 30
0.0
 11
-359.5999999999999
 21
-825.0
 31
0.0
  0
LINE
  5
CB
  8
DIMNSIONS
  6
CONTINUOUS
 62
     7
 10
-440.3999999999996
 20
-825.0
 30
0.0
 11
-420.4012207031246
 21
-819.6413432377941
 31
0.0
  0
LINE
  5
CC
  8
DIMNSIONS
  6
CONTINUOUS
 62
     7
 10
-440.3999999999996
 20
-825.0
 30
0.0
 11
-420.4012207031246
 21
-830.3586567622059
 31
0.0
  0
LINE
  5
CD
  8
DIMNSIONS
  6
CONTINUOUS
 62
     7
 10
-359.5999999999999
 20
-825.0
 30
0.0
 11
-379.5987792968749
 21
-830.3586567622059
 31
0.0
  0
LINE
  5
CE
  8
DIMNSIONS
  6
CONTINUOUS
 62
     7
 10
-359.5999999999999
 20
-825.0
 30
0.0
 11
-379.5987792968749
 21
-819.6413432377941
 31
0.0
  0
TEXT
  5
CF
  8
DIMNSIONS
 62
     7
 10
-560.2777777777776
 20
-815.061111111111
 30
0.0
 40
27.14735243055558
  1
80.8
 41
0.7
 11
-560.2777777777776
 21
-787.9137586805555
 31
0.0
 73
     3
  0
TEXT
  5
D0
  8
DIMNSIONS
 62
     7
 10
100.0
 20
-1012.700000000635
 30
0.0
 40
27.14735243191292
  1
※ センター振り分け
 41
0.7
 11
100.0
 21
-985.5526475687221
 31
0.0
 73
     3
  0
TEXT
  5
D1
  8
DIMNSIONS
 62
     7
 10
-489.7222222222221
 20
-784.7222222222222
 30
0.0
 40
19.00314670138889
  1
※
 41
0.7
 11
-489.7222222222221
 21
-765.7190755208333
 31
0.0
 73
     3
  0
LINE
  5
D2
  8
DIMNSIONS
  6
CONTINUOUS
 62
     7
 10
94.0
 20
-411.5
 30
0.0
 11
65.0
 21
-411.5
 31
0.0
  0
LINE
  5
D3
  8
DIMNSIONS
  6
CONTINUOUS
 62
     7
 10
94.0
 20
-588.5
 30
0.0
 11
65.0
 21
-588.5
 31
0.0
  0
LINE
  5
D4
  8
DIMNSIONS
  6
CONTINUOUS
 62
     7
 10
75.0
 20
-411.5
 30
0.0
 11
75.0
 21
-588.5
 31
0.0
  0
LINE
  5
D5
  8
DIMNSIONS
  6
CONTINUOUS
 62
     7
 10
75.0
 20
-411.5
 30
0.0
 11
80.35865676220591
 21
-431.498779296875
 31
0.0
  0
LINE
  5
D6
  8
DIMNSIONS
  6
CONTINUOUS
 62
     7
 10
75.0
 20
-411.5
 30
0.0
 11
69.64134323779409
 21
-431.498779296875
 31
0.0
  0
LINE
  5
D7
  8
DIMNSIONS
  6
CONTINUOUS
 62
     7
 10
75.0
 20
-588.5
 30
0.0
 11
69.64134323779409
 21
-568.501220703125
 31
0.0
  0
LINE
  5
D8
  8
DIMNSIONS
  6
CONTINUOUS
 62
     7
 10
75.0
 20
-588.5
 30
0.0
 11
80.35865676220591
 21
-568.501220703125
 31
0.0
  0
TEXT
  5
D9
  8
DIMNSIONS
 62
     7
 10
65.06111111111112
 20
-526.4583333333334
 30
0.0
 40
27.14735243055556
  1
177
 50
90.0
 41
0.7
 11
37.91375868055556
 21
-526.4583333333334
 31
0.0
 73
     3
  0
TEXT
  5
DA
  8
DIMNSIONS
 62
     7
 10
43.61222222222223
 20
-473.5416666666667
 30
0.0
 40
19.00314670138889
  1
※
 50
90.0
 41
0.7
 11
24.60907552083333
 21
-473.5416666666667
 31
0.0
 73
     3
  0
LINE
  5
DB
  8
DIMNSIONS
  6
CONTINUOUS
 62
     7
 10
-60.96969600708417
 20
-399.0
 30
0.0
 11
10.0
 21
-399.0
 31
0.0
  0
LINE
  5
DC
  8
DIMNSIONS
  6
CONTINUOUS
 62
     7
 10
-60.96969600708417
 20
-601.0
 30
0.0
 11
10.0
 21
-601.0
 31
0.0
  0
LINE
  5
DD
  8
DIMNSIONS
  6
CONTINUOUS
 62
     7
 10
0.0
 20
-399.0
 30
0.0
 11
0.0
 21
-601.0
 31
0.0
  0
LINE
  5
DE
  8
DIMNSIONS
  6
CONTINUOUS
 62
     7
 10
0.0
 20
-399.0
 30
0.0
 11
5.358656762205912
 21
-418.998779296875
 31
0.0
  0
LINE
  5
DF
  8
DIMNSIONS
  6
CONTINUOUS
 62
     7
 10
0.0
 20
-399.0
 30
0.0
 11
-5.358656762205913
 21
-418.998779296875
 31
0.0
  0
LINE
  5
E0
  8
DIMNSIONS
  6
CONTINUOUS
 62
     7
 10
0.0
 20
-601.0
 30
0.0
 11
-5.358656762205913
 21
-581.001220703125
 31
0.0
  0
LINE
  5
E1
  8
DIMNSIONS
  6
CONTINUOUS
 62
     7
 10
0.0
 20
-601.0
 30
0.0
 11
5.358656762205912
 21
-581.001220703125
 31
0.0
  0
TEXT
  5
E2
  8
DIMNSIONS
 62
     7
 10
-9.93888888888889
 20
-526.4583333333334
 30
0.0
 40
27.14735243055556
  1
202
 50
90.0
 41
0.7
 11
-37.08624131944445
 21
-526.4583333333334
 31
0.0
 73
     3
  0
LINE
  5
E3
  8
DIMNSIONS
  6
CONTINUOUS
 62
     7
 10
196.1411680738485
 20
-409.1896105783796
 30
0.0
 11
225.0
 21
-378.05
 31
0.0
  0
LINE
  5
E4
  8
DIMNSIONS
  6
CONTINUOUS
 62
     7
 10
196.1411680738485
 20
-409.1896105783796
 30
0.0
 11
205.8612292988232
 21
-390.908834187783
 31
0.0
  0
LINE
  5
E5
  8
DIMNSIONS
  6
CONTINUOUS
 62
     7
 10
196.1411680738485
 20
-409.1896105783796
 30
0.0
 11
213.699376216315
 21
-398.2180244357075
 31
0.0
  0
LINE
  5
E6
  8
DIMNSIONS
  6
CONTINUOUS
 62
     7
 10
225.0
 20
-378.05
 30
0.0
 11
245.0
 21
-378.05
 31
0.0
  0
TEXT
  5
E7
  8
DIMNSIONS
 62
     7
 10
245.0
 20
-390.75
 30
0.0
 40
27.14735243055556
  1
φ6.3(4ヵ所)
 41
0.7
 11
245.0
 21
-363.6026475694445
 31
0.0
 73
     3
  0
TEXT
  5
E8
  8
DIMNSIONS
 62
     7
 10
-31.38777777777778
 20
-473.5416666666667
 30
0.0
 40
19.00314670138889
  1
※
 50
90.0
 41
0.7
 11
-50.39092447916667
 21
-473.5416666666667
 31
0.0
 73
     3
  0
POLYLINE
  5
E9
  8
DATA
  6
CONTINUOUS
 62
     7
 66
     1
 10
0.0
 20
0.0
 30
0.0
 70
     1
  0
VERTEX
  5
5D9
  8
DATA
  6
CONTINUOUS
 62
     7
 10
-300.0
 20
-250.0
 30
0.0
  0
VERTEX
  5
5DA
  8
DATA
  6
CONTINUOUS
 62
     7
 10
-288.0
 20
-250.0
 30
0.0
  0
VERTEX
  5
5DB
  8
DATA
  6
CONTINUOUS
 62
     7
 10
-288.0
 20
-750.0
 30
0.0
  0
VERTEX
  5
5DC
  8
DATA
  6
CONTINUOUS
 62
     7
 10
-300.0
 20
-750.0
 30
0.0
  0
SEQEND
  5
605
  8
DATA
  6
CONTINUOUS
 62
     7
  0
LINE
  5
F0
  8
DATA
  6
CONTINUOUS
 62
     7
 10
-300.3999999999996
 20
-345.75
 30
0.0
 11
-300.0
 21
-345.75
 31
0.0
  0
LINE
  5
F1
  8
DATA
  6
CONTINUOUS
 62
     7
 10
-300.3999999999996
 20
-371.25
 30
0.0
 11
-300.0
 21
-371.25
 31
0.0
  0
LINE
  5
F2
  8
DATA
  6
CONTINUOUS
 62
     7
 10
-300.4000000000001
 20
-345.75
 30
0.0
 11
-300.4000000000001
 21
-371.25
 31
0.0
  0
LINE
  5
F3
  8
DATA
  6
CONTINUOUS
 62
     7
 10
-300.3999999999996
 20
-654.25
 30
0.0
 11
-300.0
 21
-654.25
 31
0.0
  0
LINE
  5
F4
  8
DATA
  6
CONTINUOUS
 62
     7
 10
-300.3999999999996
 20
-628.75
 30
0.0
 11
-300.0
 21
-628.75
 31
0.0
  0
LINE
  5
F5
  8
DATA
  6
CONTINUOUS
 62
     7
 10
-300.4000000000001
 20
-654.25
 30
0.0
 11
-300.4000000000001
 21
-628.75
 31
0.0
  0
TEXT
  5
F6
  8
DATA
 62
     7
 10
-880.0000000439998
 20
-1189.450887281518
 30
0.0
 40
19.00314670233904
  1
※仕様及び外観は予告なく変更されることがあります。
 41
0.7
 11
-880.0000000439998
 21
-1170.447740579179
 31
0.0
 73
     3
  0
TEXT
  5
F7
  8
DATA
 62
     7
 10
-880.0000000439998
 20
-1214.145331727197
 30
0.0
 40
19.00314670233904
  1
　また、同一商品でも若干の個体差があることがあります。ご了承ください。
 41
0.7
 11
-880.0000000439998
 21
-1195.142185024858
 31
0.0
 73
     3
  0
TEXT
  5
F8
  8
DATA
 62
     7
 10
500.0000000249997
 20
-1084.404765054043
 30
0.0
 40
24.43261718872163
  1
JBL PROFESSIONAL
 41
0.7
 11
500.0000000249997
 21
-1059.972147865321
 31
0.0
 73
     3
  0
TEXT
  5
F9
  8
DATA
 62
     7
 10
475.0000000237497
 20
-1120.444315055845
 30
0.0
 40
19.00314670233904
  1
PRX ONE-Y3用の壁取付金具
 41
0.7
 11
475.0000000237497
 21
-1101.441168353506
 31
0.0
 73
     3
  0
LINE
  5
FA
  8
DATA
  6
CONTINUOUS
 62
     7
 10
-50.0
 20
325.0
 30
0.0
 11
-525.0
 21
325.0
 31
0.0
  0
POLYLINE
  5
FB
  8
DATA
  6
CONTINUOUS
 62
     7
 66
     1
 10
0.0
 20
0.0
 30
0.0
 70
     1
  0
VERTEX
  5
5DD
  8
DATA
  6
CONTINUOUS
 62
     7
 10
-445.5
 20
681.8
 30
0.0
  0
VERTEX
  5
5DE
  8
DATA
  6
CONTINUOUS
 62
     7
 10
-354.5
 20
681.8
 30
0.0
  0
VERTEX
  5
5DF
  8
DATA
  6
CONTINUOUS
 62
     7
 10
-354.5
 20
611.75
 30
0.0
  0
VERTEX
  5
5E0
  8
DATA
  6
CONTINUOUS
 62
     7
 10
-445.5
 20
611.75
 30
0.0
  0
SEQEND
  5
606
  8
DATA
  6
CONTINUOUS
 62
     7
  0
LINE
  5
102
  8
DATA
  6
CONTINUOUS
 62
     7
 10
-441.5
 20
600.0
 30
0.0
 11
-358.5
 21
600.0
 31
0.0
  0
LINE
  5
103
  8
DATA
  6
CONTINUOUS
 62
     7
 10
-445.5
 20
611.25
 30
0.0
 11
-354.5
 21
611.25
 31
0.0
  0
LINE
  5
104
  8
DATA
  6
CONTINUOUS
 62
     7
 10
-445.0
 20
611.75
 30
0.0
 11
-445.0
 21
611.25
 31
0.0
  0
LINE
  5
105
  8
DATA
  6
CONTINUOUS
 62
     7
 10
-355.0
 20
611.75
 30
0.0
 11
-355.0
 21
611.25
 31
0.0
  0
ARC
  5
106
  8
DATA
  6
CONTINUOUS
 62
     7
 10
-400.0991290983593
 20
621.1269125683052
 30
0.0
 40
46.65655341332851
 50
333.0753919953148
 51
347.7783563438655
  0
ARC
  5
107
  8
DATA
  6
CONTINUOUS
 62
     7
 10
-399.9008709016412
 20
621.1269125683052
 30
0.0
 40
46.65655341332814
 50
192.2216436561346
 51
206.9246080046854
  0
LINE
  5
108
  8
DATA
  6
CONTINUOUS
 62
     7
 10
-354.5
 20
792.0045371939868
 30
0.0
 11
-356.1561882557075
 21
745.6269720642354
 31
0.0
  0
LINE
  5
109
  8
DATA
  6
CONTINUOUS
 62
     7
 10
-443.8438117442925
 20
745.6269720642354
 30
0.0
 11
-445.5
 21
792.0045371939868
 31
0.0
  0
ARC
  5
10A
  8
DATA
  6
CONTINUOUS
 62
     7
 10
-400.0
 20
716.2395833333335
 30
0.0
 40
92.26041666666643
 50
63.36389330966139
 51
116.6361066903386
  0
ARC
  5
10B
  8
DATA
  6
CONTINUOUS
 62
     7
 10
-362.0
 20
792.0045371939868
 30
0.0
 40
7.5
 50
0.0
 51
63.36389330965931
  0
ARC
  5
10C
  8
DATA
  6
CONTINUOUS
 62
     7
 10
-438.0
 20
792.0045371939868
 30
0.0
 40
7.499999999999846
 50
116.6361066903407
 51
180.0
  0
ARC
  5
10D
  8
DATA
  6
CONTINUOUS
 62
     7
 10
-400.0
 20
951.0
 30
0.0
 40
225.9999999999997
 50
263.1154285338366
 51
276.8845714661635
  0
LINE
  5
10E
  8
DATA
  6
CONTINUOUS
 62
     7
 10
-431.8796331977228
 20
729.1872095391686
 30
0.0
 11
-442.0367355759395
 21
741.0063832156388
 31
0.0
  0
LINE
  5
10F
  8
DATA
  6
CONTINUOUS
 62
     7
 10
-357.9632644240605
 20
741.0063832156388
 30
0.0
 11
-368.1203668022772
 21
729.1872095391686
 31
0.0
  0
ARC
  5
110
  8
DATA
  6
CONTINUOUS
 62
     7
 10
-363.6514105473011
 20
745.8946337902985
 30
0.0
 40
7.499999999999821
 50
319.3250604347398
 51
357.9547807289708
  0
ARC
  5
111
  8
DATA
  6
CONTINUOUS
 62
     7
 10
-373.8085129255178
 20
734.0754601138283
 30
0.0
 40
7.499999999999577
 50
276.8845714661668
 51
319.3250604347398
  0
ARC
  5
112
  8
DATA
  6
CONTINUOUS
 62
     7
 10
-426.1914870744827
 20
734.0754601138283
 30
0.0
 40
7.499999999999476
 50
220.6749395652625
 51
263.1154285338401
  0
ARC
  5
113
  8
DATA
  6
CONTINUOUS
 62
     7
 10
-436.3485894526989
 20
745.8946337902985
 30
0.0
 40
7.500000000000011
 50
182.0452192710292
 51
220.6749395652602
  0
ARC
  5
114
  8
DATA
  6
CONTINUOUS
 62
     7
 10
-400.0
 20
716.2395833333335
 30
0.0
 40
89.26041666669997
 50
63.36389330966145
 51
116.6361066903383
  0
LINE
  5
115
  8
DATA
  6
CONTINUOUS
 62
     7
 10
-357.5
 20
792.0045371939868
 30
0.0
 11
-359.1561882557075
 21
745.6269720642354
 31
0.0
  0
LINE
  5
116
  8
DATA
  6
CONTINUOUS
 62
     7
 10
-440.8438117442925
 20
745.6269720642354
 30
0.0
 11
-442.5
 21
792.0045371939868
 31
0.0
  0
ARC
  5
117
  8
DATA
  6
CONTINUOUS
 62
     7
 10
-400.0
 20
951.0
 30
0.0
 40
223.0000000000003
 50
263.1154285338366
 51
276.8845714661634
  0
ARC
  5
118
  8
DATA
  6
CONTINUOUS
 62
     7
 10
-362.0
 20
792.0045371939868
 30
0.0
 40
4.500000000033197
 50
0.0
 51
63.36389330966455
  0
ARC
  5
119
  8
DATA
  6
CONTINUOUS
 62
     7
 10
-363.6514105473011
 20
745.8946337902985
 30
0.0
 40
4.503184012500089
 50
319.3250604347375
 51
357.9547807289658
  0
ARC
  5
11A
  8
DATA
  6
CONTINUOUS
 62
     7
 10
-373.8085129255178
 20
734.0754601138283
 30
0.0
 40
4.499999999999655
 50
276.884571466167
 51
319.325060434743
  0
LINE
  5
11B
  8
DATA
  6
CONTINUOUS
 62
     7
 10
-370.3956252515732
 20
731.1425097690326
 30
0.0
 11
-360.2361080562423
 21
742.9596082120447
 31
0.0
  0
ARC
  5
11C
  8
DATA
  6
CONTINUOUS
 62
     7
 10
-438.0
 20
792.0045371939868
 30
0.0
 40
4.500000000033179
 50
116.6361066903355
 51
180.0
  0
ARC
  5
11D
  8
DATA
  6
CONTINUOUS
 62
     7
 10
-436.3485894526989
 20
745.8946337902985
 30
0.0
 40
4.503184012500276
 50
182.0452192710342
 51
220.6749395652625
  0
ARC
  5
11E
  8
DATA
  6
CONTINUOUS
 62
     7
 10
-426.1914870744822
 20
734.0754601138283
 30
0.0
 40
4.50000000000004
 50
220.6749395652571
 51
263.115428533833
  0
LINE
  5
11F
  8
DATA
  6
CONTINUOUS
 62
     7
 10
-429.6043747484268
 20
731.1425097690326
 30
0.0
 11
-439.7638919437577
 21
742.9596082120447
 31
0.0
  0
LINE
  5
120
  8
DATA
  6
CONTINUOUS
 62
     7
 10
-364.1986160457113
 20
782.9382357727159
 30
0.0
 11
-365.1243325761588
 21
757.0157728313357
 31
0.0
  0
ARC
  5
121
  8
DATA
  6
CONTINUOUS
 62
     7
 10
-400.0000000000164
 20
692.0576923077847
 30
0.0
 40
102.9423076922155
 50
72.74776884716276
 51
107.2522311528182
  0
ARC
  5
122
  8
DATA
  6
CONTINUOUS
 62
     7
 10
-371.6938383373063
 20
783.2058974987794
 30
0.0
 40
7.50000000000139
 50
357.9547807289676
 51
72.74776884715044
  0
LINE
  5
123
  8
DATA
  6
CONTINUOUS
 62
     7
 10
-435.8013839542887
 20
782.9382357727159
 30
0.0
 11
-434.8756674238439
 21
757.0157728314111
 31
0.0
  0
ARC
  5
124
  8
DATA
  6
CONTINUOUS
 62
     7
 10
-428.3061616626937
 20
783.2058974987794
 30
0.0
 40
7.500000000001481
 50
107.2522311528495
 51
182.0452192710324
  0
ARC
  5
125
  8
DATA
  6
CONTINUOUS
 62
     7
 10
-400.0
 20
833.2547393537848
 30
0.0
 40
88.25473935378496
 50
250.1805791223636
 51
289.8194208776901
  0
ARC
  5
126
  8
DATA
  6
CONTINUOUS
 62
     7
 10
-372.6195548676774
 20
757.2834345573965
 30
0.0
 40
7.499999999924452
 50
289.8194208771077
 51
357.9547807289676
  0
ARC
  5
127
  8
DATA
  6
CONTINUOUS
 62
     7
 10
-427.3804451322139
 20
757.2834345574761
 30
0.0
 40
7.500000000036432
 50
182.0452192710332
 51
250.1805791220823
  0
LINE
  5
128
  8
DATA
  6
CONTINUOUS
 62
     7
 10
-409.00000000001
 20
764.75
 30
0.0
 11
-391.00000000001
 21
764.75
 31
0.0
  0
LINE
  5
129
  8
DATA
  6
CONTINUOUS
 62
     7
 10
-391.00000000001
 20
769.25
 30
0.0
 11
-393.25000000001
 21
769.25
 31
0.0
  0
LINE
  5
12A
  8
DATA
  6
CONTINUOUS
 62
     7
 10
-394.25000000001
 20
769.25
 30
0.0
 11
-397.75000000001
 21
769.25
 31
0.0
  0
LINE
  5
12B
  8
DATA
  6
CONTINUOUS
 62
     7
 10
-398.25000000001
 20
769.25
 30
0.0
 11
-401.75000000001
 21
769.25
 31
0.0
  0
LINE
  5
12C
  8
DATA
  6
CONTINUOUS
 62
     7
 10
-402.25000000001
 20
769.25
 30
0.0
 11
-405.75000000001
 21
769.25
 31
0.0
  0
LINE
  5
12D
  8
DATA
  6
CONTINUOUS
 62
     7
 10
-406.75000000001
 20
769.25
 30
0.0
 11
-409.00000000001
 21
769.25
 31
0.0
  0
LINE
  5
12E
  8
DATA
  6
CONTINUOUS
 62
     7
 10
-394.25000000001
 20
769.75
 30
0.0
 11
-397.75000000001
 21
769.75
 31
0.0
  0
LINE
  5
12F
  8
DATA
  6
CONTINUOUS
 62
     7
 10
-398.25000000001
 20
769.75
 30
0.0
 11
-401.75000000001
 21
769.75
 31
0.0
  0
LINE
  5
130
  8
DATA
  6
CONTINUOUS
 62
     7
 10
-402.25000000001
 20
769.75
 30
0.0
 11
-405.75000000001
 21
769.75
 31
0.0
  0
LINE
  5
131
  8
DATA
  6
CONTINUOUS
 62
     7
 10
-402.25000000001
 20
765.75
 30
0.0
 11
-402.25000000001
 21
769.25
 31
0.0
  0
LINE
  5
132
  8
DATA
  6
CONTINUOUS
 62
     7
 10
-402.25000000001
 20
769.75
 30
0.0
 11
-402.25000000001
 21
773.25
 31
0.0
  0
LINE
  5
133
  8
DATA
  6
CONTINUOUS
 62
     7
 10
-405.75000000001
 20
769.75
 30
0.0
 11
-405.75000000001
 21
773.25
 31
0.0
  0
LINE
  5
134
  8
DATA
  6
CONTINUOUS
 62
     7
 10
-402.25000000001
 20
765.75
 30
0.0
 11
-405.75000000001
 21
765.75
 31
0.0
  0
LINE
  5
135
  8
DATA
  6
CONTINUOUS
 62
     7
 10
-405.75000000001
 20
769.25
 30
0.0
 11
-405.75000000001
 21
765.75
 31
0.0
  0
LINE
  5
136
  8
DATA
  6
CONTINUOUS
 62
     7
 10
-401.75000000001
 20
765.75
 30
0.0
 11
-401.75000000001
 21
769.25
 31
0.0
  0
LINE
  5
137
  8
DATA
  6
CONTINUOUS
 62
     7
 10
-401.75000000001
 20
769.75
 30
0.0
 11
-401.75000000001
 21
773.25
 31
0.0
  0
LINE
  5
138
  8
DATA
  6
CONTINUOUS
 62
     7
 10
-398.25000000001
 20
769.75
 30
0.0
 11
-398.25000000001
 21
773.25
 31
0.0
  0
LINE
  5
139
  8
DATA
  6
CONTINUOUS
 62
     7
 10
-401.75000000001
 20
765.75
 30
0.0
 11
-398.25000000001
 21
765.75
 31
0.0
  0
LINE
  5
13A
  8
DATA
  6
CONTINUOUS
 62
     7
 10
-398.25000000001
 20
769.25
 30
0.0
 11
-398.25000000001
 21
765.75
 31
0.0
  0
LINE
  5
13B
  8
DATA
  6
CONTINUOUS
 62
     7
 10
-397.75000000001
 20
765.75
 30
0.0
 11
-397.75000000001
 21
769.25
 31
0.0
  0
LINE
  5
13C
  8
DATA
  6
CONTINUOUS
 62
     7
 10
-397.75000000001
 20
769.75
 30
0.0
 11
-397.75000000001
 21
773.25
 31
0.0
  0
LINE
  5
13D
  8
DATA
  6
CONTINUOUS
 62
     7
 10
-405.75000000001
 20
773.25
 30
0.0
 11
-402.25000000001
 21
773.25
 31
0.0
  0
LINE
  5
13E
  8
DATA
  6
CONTINUOUS
 62
     7
 10
-401.75000000001
 20
773.25
 30
0.0
 11
-398.25000000001
 21
773.25
 31
0.0
  0
LINE
  5
13F
  8
DATA
  6
CONTINUOUS
 62
     7
 10
-397.75000000001
 20
773.25
 30
0.0
 11
-394.25000000001
 21
773.25
 31
0.0
  0
LINE
  5
140
  8
DATA
  6
CONTINUOUS
 62
     7
 10
-394.25000000001
 20
769.75
 30
0.0
 11
-394.25000000001
 21
773.25
 31
0.0
  0
LINE
  5
141
  8
DATA
  6
CONTINUOUS
 62
     7
 10
-397.75000000001
 20
765.75
 30
0.0
 11
-394.25000000001
 21
765.75
 31
0.0
  0
LINE
  5
142
  8
DATA
  6
CONTINUOUS
 62
     7
 10
-394.25000000001
 20
769.25
 30
0.0
 11
-394.25000000001
 21
765.75
 31
0.0
  0
LINE
  5
143
  8
DATA
  6
CONTINUOUS
 62
     7
 10
-375.5984822419259
 20
780.3822937471914
 30
0.0
 11
-376.3345392097012
 21
759.7707902876227
 31
0.0
  0
ARC
  5
144
  8
DATA
  6
CONTINUOUS
 62
     7
 10
-400.0000000000114
 20
716.9992307692933
 30
0.0
 40
70.00076923070687
 50
71.37030363481428
 51
108.6296963651772
  0
LINE
  5
145
  8
DATA
  6
CONTINUOUS
 62
     7
 10
-424.4015177580727
 20
780.3822937471514
 30
0.0
 11
-423.6654607903006
 21
759.7707902876764
 31
0.0
  0
ARC
  5
146
  8
DATA
  6
CONTINUOUS
 62
     7
 10
-400.0
 20
813.0132227605736
 30
0.0
 40
60.01322276057353
 50
248.746106035648
 51
291.2538939643305
  0
ARC
  5
147
  8
DATA
  6
CONTINUOUS
 62
     7
 10
-378.5965711585159
 20
780.4893584376155
 30
0.0
 40
2.999999999952517
 50
357.9547807289609
 51
71.37030363568624
  0
ARC
  5
148
  8
DATA
  6
CONTINUOUS
 62
     7
 10
-379.3326281263148
 20
759.8778549780473
 30
0.0
 40
2.999999999975882
 50
291.2538939639103
 51
357.9547807289684
  0
ARC
  5
149
  8
DATA
  6
CONTINUOUS
 62
     7
 10
-420.6673718736056
 20
759.8778549781041
 30
0.0
 40
3.000000000057626
 50
182.0452192710368
 51
248.7461060346377
  0
ARC
  5
14A
  8
DATA
  6
CONTINUOUS
 62
     7
 10
-421.4034288414191
 20
780.4893584375773
 30
0.0
 40
3.000000000016457
 50
108.6296963654686
 51
182.0452192710303
  0
CIRCLE
  5
14B
  8
DATA
  6
CONTINUOUS
 62
     7
 10
-383.50000000001
 20
769.5
 30
0.0
 40
5.5
  0
CIRCLE
  5
14C
  8
DATA
  6
CONTINUOUS
 62
     7
 10
-383.50000000001
 20
769.5
 30
0.0
 40
1.550763497815751
  0
CIRCLE
  5
14D
  8
DATA
  6
CONTINUOUS
 62
     7
 10
-383.50000000001
 20
769.5
 30
0.0
 40
2.250763497815569
  0
ARC
  5
14E
  8
DATA
  6
CONTINUOUS
 62
     7
 10
-383.0046371237904
 20
765.9656182702274
 30
0.0
 40
2.497237585765659
 50
136.6968954248049
 51
227.2227267854609
  0
ARC
  5
14F
  8
DATA
  6
CONTINUOUS
 62
     7
 10
-383.9147639851317
 20
767.0728095219056
 30
0.0
 40
3.043377700444754
 50
127.1049517232136
 51
255.0353048506277
  0
ARC
  5
150
  8
DATA
  6
CONTINUOUS
 62
     7
 10
-383.9953628762296
 20
773.0343817297726
 30
0.0
 40
2.497237585765659
 50
316.6968954248049
 51
47.22272678546096
  0
ARC
  5
151
  8
DATA
  6
CONTINUOUS
 62
     7
 10
-383.0852360148883
 20
771.9271904780944
 30
0.0
 40
3.043377700444754
 50
307.1049517232136
 51
75.03530485062774
  0
CIRCLE
  5
152
  8
DATA
  6
CONTINUOUS
 62
     7
 10
-416.50000000001
 20
769.5
 30
0.0
 40
5.5
  0
CIRCLE
  5
153
  8
DATA
  6
CONTINUOUS
 62
     7
 10
-416.50000000001
 20
769.5
 30
0.0
 40
1.550763497815751
  0
CIRCLE
  5
154
  8
DATA
  6
CONTINUOUS
 62
     7
 10
-416.50000000001
 20
769.5
 30
0.0
 40
2.250763497815569
  0
ARC
  5
155
  8
DATA
  6
CONTINUOUS
 62
     7
 10
-416.9953628762296
 20
765.9656182702274
 30
0.0
 40
2.497237585765803
 50
312.777273214539
 51
43.30310457519511
  0
ARC
  5
156
  8
DATA
  6
CONTINUOUS
 62
     7
 10
-416.0852360148883
 20
767.0728095219056
 30
0.0
 40
3.043377700447283
 50
284.9646951493723
 51
52.89504827678641
  0
ARC
  5
157
  8
DATA
  6
CONTINUOUS
 62
     7
 10
-416.0046371237904
 20
773.0343817297726
 30
0.0
 40
2.497237585765803
 50
132.777273214539
 51
223.3031045751951
  0
ARC
  5
158
  8
DATA
  6
CONTINUOUS
 62
     7
 10
-416.9147639851317
 20
771.9271904780944
 30
0.0
 40
3.043377700447283
 50
104.9646951493723
 51
232.8950482767863
  0
LINE
  5
159
  8
DATA
  6
CONTINUOUS
 62
     7
 10
-391.00000000001
 20
769.25
 30
0.0
 11
-391.00000000001
 21
764.75
 31
0.0
  0
LINE
  5
15A
  8
DATA
  6
CONTINUOUS
 62
     7
 10
-409.00000000001
 20
769.25
 30
0.0
 11
-409.00000000001
 21
764.75
 31
0.0
  0
LINE
  5
15B
  8
DATA
  6
CONTINUOUS
 62
     7
 10
-393.25000000001
 20
774.25
 30
0.0
 11
-393.25000000001
 21
764.75
 31
0.0
  0
LINE
  5
15C
  8
DATA
  6
CONTINUOUS
 62
     7
 10
-406.75000000001
 20
774.25
 30
0.0
 11
-393.25000000001
 21
774.25
 31
0.0
  0
LINE
  5
15D
  8
DATA
  6
CONTINUOUS
 62
     7
 10
-406.75000000001
 20
764.75
 30
0.0
 11
-406.75000000001
 21
774.25
 31
0.0
  0
CIRCLE
  5
15E
  8
DATA
  6
CONTINUOUS
 62
     7
 10
-400.0
 20
481.7287500000001
 30
0.0
 40
11.75
  0
ARC
  5
15F
  8
DATA
  6
CONTINUOUS
 62
     7
 10
-400.0
 20
481.7287500000001
 30
0.0
 40
8.800002677414637
 50
199.9322641506783
 51
347.1961668196983
  0
ARC
  5
160
  8
DATA
  6
CONTINUOUS
 62
     7
 10
-400.0
 20
481.7287500000001
 30
0.0
 40
8.799995993413626
 50
13.13656487499659
 51
160.0678804625851
  0
ARC
  5
161
  8
DATA
  6
CONTINUOUS
 62
     7
 10
-400.0
 20
481.7287500000001
 30
0.0
 40
6.200002162064217
 50
150.0000115355622
 51
240.0000115355585
  0
ARC
  5
162
  8
DATA
  6
CONTINUOUS
 62
     7
 10
-400.0
 20
481.7287500000001
 30
0.0
 40
6.200002162063823
 50
330.0000115355601
 51
60.00001153556224
  0
ARC
  5
163
  8
DATA
  6
CONTINUOUS
 62
     7
 10
-400.0
 20
481.7287500000001
 30
0.0
 40
5.625003831581032
 50
239.9996696821013
 51
330.0002126043028
  0
ARC
  5
164
  8
DATA
  6
CONTINUOUS
 62
     7
 10
-400.0
 20
481.7287500000001
 30
0.0
 40
5.624996152034259
 50
60.00021260430234
 51
150.0007182431216
  0
ARC
  5
165
  8
DATA
  6
CONTINUOUS
 62
     7
 10
-400.0
 20
481.7287500000001
 30
0.0
 40
3.59999008087534
 50
149.9999088547113
 51
239.9999088547014
  0
ARC
  5
166
  8
DATA
  6
CONTINUOUS
 62
     7
 10
-400.0
 20
481.7287500000001
 30
0.0
 40
3.599990080874946
 50
329.9999088547078
 51
59.99990885470771
  0
ARC
  5
167
  8
DATA
  6
CONTINUOUS
 62
     7
 10
-400.0
 20
481.7287500000001
 30
0.0
 40
2.900001820861436
 50
239.9997926340293
 51
330.0002336238281
  0
ARC
  5
168
  8
DATA
  6
CONTINUOUS
 62
     7
 10
-400.0
 20
481.7287500000001
 30
0.0
 40
2.900000481120561
 50
60.00023362383796
 51
149.9997926340327
  0
LINE
  5
169
  8
DATA
  6
CONTINUOUS
 62
     7
 10
-410.0
 20
478.7287500000001
 30
0.0
 11
-410.0
 21
484.7287500000001
 31
0.0
  0
LINE
  5
16A
  8
DATA
  6
CONTINUOUS
 62
     7
 10
-390.0
 20
479.7287500000001
 30
0.0
 11
-390.0
 21
483.7287500000001
 31
0.0
  0
LINE
  5
16B
  8
DATA
  6
CONTINUOUS
 62
     7
 10
-390.0
 20
479.7287500000001
 30
0.0
 11
-391.2000000000003
 21
479.7287500000001
 31
0.0
  0
LINE
  5
16C
  8
DATA
  6
CONTINUOUS
 62
     7
 10
-390.0
 20
483.7287500000001
 30
0.0
 11
-391.2000000000003
 21
483.7287500000001
 31
0.0
  0
LINE
  5
16D
  8
DATA
  6
CONTINUOUS
 62
     7
 10
-410.0
 20
478.7287500000001
 30
0.0
 11
-408.2728500000003
 21
478.7287500000001
 31
0.0
  0
LINE
  5
16E
  8
DATA
  6
CONTINUOUS
 62
     7
 10
-410.0
 20
484.7287500000001
 30
0.0
 11
-408.2728500000003
 21
484.7287500000001
 31
0.0
  0
LINE
  5
16F
  8
DATA
  6
CONTINUOUS
 62
     7
 10
-403.1000300000001
 20
476.3594100000004
 30
0.0
 11
-402.8125300000002
 21
476.8573700000001
 31
0.0
  0
LINE
  5
170
  8
DATA
  6
CONTINUOUS
 62
     7
 10
-405.3693800000001
 20
484.8287199999999
 30
0.0
 11
-404.8714100000002
 21
484.54122
 31
0.0
  0
LINE
  5
171
  8
DATA
  6
CONTINUOUS
 62
     7
 10
-394.6306400000003
 20
478.6287500000002
 30
0.0
 11
-395.1286100000002
 21
478.9162500000001
 31
0.0
  0
LINE
  5
172
  8
DATA
  6
CONTINUOUS
 62
     7
 10
-396.90002
 20
487.09812
 30
0.0
 11
-397.1875199999999
 21
486.6001500000001
 31
0.0
  0
LINE
  5
173
  8
DATA
  6
CONTINUOUS
 62
     7
 10
-403.11769
 20
483.5287300000003
 30
0.0
 11
-402.5114800000001
 21
483.1787400000002
 31
0.0
  0
LINE
  5
174
  8
DATA
  6
CONTINUOUS
 62
     7
 10
-401.8000100000004
 20
478.61108
 30
0.0
 11
-401.45001
 21
479.2172800000002
 31
0.0
  0
LINE
  5
175
  8
DATA
  6
CONTINUOUS
 62
     7
 10
-396.8823200000002
 20
479.9287500000004
 30
0.0
 11
-397.4885300000001
 21
480.2787499999998
 31
0.0
  0
LINE
  5
176
  8
DATA
  6
CONTINUOUS
 62
     7
 10
-398.2000200000002
 20
484.8464400000001
 30
0.0
 11
-398.5500100000004
 21
484.2402300000002
 31
0.0
  0
LINE
  5
177
  8
DATA
  6
CONTINUOUS
 62
     7
 10
-354.5
 20
457.9954628060131
 30
0.0
 11
-356.1561882557075
 21
504.373027935765
 31
0.0
  0
LINE
  5
178
  8
DATA
  6
CONTINUOUS
 62
     7
 10
-443.8438117442925
 20
504.373027935765
 30
0.0
 11
-445.5
 21
457.9954628060131
 31
0.0
  0
ARC
  5
179
  8
DATA
  6
CONTINUOUS
 62
     7
 10
-400.0
 20
533.7604166666669
 30
0.0
 40
92.26041666666684
 50
243.3638933096615
 51
296.6361066903383
  0
ARC
  5
17A
  8
DATA
  6
CONTINUOUS
 62
     7
 10
-362.0
 20
457.9954628060131
 30
0.0
 40
7.499999999999642
 50
296.6361066903376
 51
0.0
  0
ARC
  5
17B
  8
DATA
  6
CONTINUOUS
 62
     7
 10
-438.0
 20
457.9954628060131
 30
0.0
 40
7.5
 50
180.0
 51
243.3638933096593
  0
ARC
  5
17C
  8
DATA
  6
CONTINUOUS
 62
     7
 10
-400.0
 20
298.9999999999999
 30
0.0
 40
226.0000000000001
 50
83.11542853383663
 51
96.88457146616348
  0
LINE
  5
17D
  8
DATA
  6
CONTINUOUS
 62
     7
 10
-431.8796331977228
 20
520.8127904608317
 30
0.0
 11
-442.0367355759395
 21
508.9936167843615
 31
0.0
  0
LINE
  5
17E
  8
DATA
  6
CONTINUOUS
 62
     7
 10
-357.9632644240605
 20
508.9936167843615
 30
0.0
 11
-368.1203668022772
 21
520.8127904608313
 31
0.0
  0
ARC
  5
17F
  8
DATA
  6
CONTINUOUS
 62
     7
 10
-363.6514105473011
 20
504.1053662097014
 30
0.0
 40
7.500000000000027
 50
2.045219271032721
 51
40.67493956526286
  0
ARC
  5
180
  8
DATA
  6
CONTINUOUS
 62
     7
 10
-373.8085129255178
 20
515.9245398861716
 30
0.0
 40
7.499999999999821
 50
40.67493956526022
 51
83.11542853383706
  0
ARC
  5
181
  8
DATA
  6
CONTINUOUS
 62
     7
 10
-426.1914870744827
 20
515.9245398861716
 30
0.0
 40
7.499999999999974
 50
96.88457146616297
 51
139.3250604347349
  0
ARC
  5
182
  8
DATA
  6
CONTINUOUS
 62
     7
 10
-436.3485894526989
 20
504.1053662097014
 30
0.0
 40
7.500000000000116
 50
139.3250604347371
 51
177.9547807289673
  0
LINE
  5
183
  8
DATA
  6
CONTINUOUS
 62
     7
 10
-358.5950000000003
 20
460.2683711534722
 30
0.0
 11
-360.1021313126939
 21
502.4719554215461
 31
0.0
  0
LINE
  5
184
  8
DATA
  6
CONTINUOUS
 62
     7
 10
-439.8978686873061
 20
502.4719554215461
 30
0.0
 11
-441.4050000000002
 21
460.2683711534722
 31
0.0
  0
ARC
  5
185
  8
DATA
  6
CONTINUOUS
 62
     7
 10
-400.0
 20
529.2144791666668
 30
0.0
 40
83.9569791666669
 50
243.3638933096614
 51
296.6361066903383
  0
ARC
  5
186
  8
DATA
  6
CONTINUOUS
 62
     7
 10
-365.4200000000001
 20
460.2683711534722
 30
0.0
 40
6.825000000000096
 50
296.6361066903376
 51
0.0
  0
ARC
  5
187
  8
DATA
  6
CONTINUOUS
 62
     7
 10
-434.5799999999999
 20
460.2683711534722
 30
0.0
 40
6.825000000000273
 50
180.0
 51
243.363893309659
  0
ARC
  5
188
  8
DATA
  6
CONTINUOUS
 62
     7
 10
-400.0
 20
315.5824999999999
 30
0.0
 40
205.6600000000002
 50
83.11542853383662
 51
96.88457146616338
  0
LINE
  5
189
  8
DATA
  6
CONTINUOUS
 62
     7
 10
-429.0104662099279
 20
517.4321393193567
 30
0.0
 11
-438.2534293741051
 21
506.6766912737688
 31
0.0
  0
LINE
  5
18A
  8
DATA
  6
CONTINUOUS
 62
     7
 10
-361.7465706258954
 20
506.6766912737688
 30
0.0
 11
-370.9895337900721
 21
517.4321393193567
 31
0.0
  0
ARC
  5
18B
  8
DATA
  6
CONTINUOUS
 62
     7
 10
-366.9227835980441
 20
502.2283832508282
 30
0.0
 40
6.825000000000091
 50
2.045219271033274
 51
40.67493956526359
  0
ARC
  5
18C
  8
DATA
  6
CONTINUOUS
 62
     7
 10
-376.1657467622213
 20
512.983831296416
 30
0.0
 40
6.825000000000261
 50
40.67493956526108
 51
83.115428533836
  0
ARC
  5
18D
  8
DATA
  6
CONTINUOUS
 62
     7
 10
-423.8342532377792
 20
512.9838312964165
 30
0.0
 40
6.824999999999608
 50
96.88457146616066
 51
139.3250604347393
  0
ARC
  5
18E
  8
DATA
  6
CONTINUOUS
 62
     7
 10
-433.0772164019563
 20
502.2283832508282
 30
0.0
 40
6.824999999999916
 50
139.3250604347364
 51
177.9547807289666
  0
LINE
  5
18F
  8
DATA
  6
CONTINUOUS
 62
     7
 10
-365.6475
 20
464.1828244185402
 30
0.0
 11
-366.8979221330592
 21
499.1978860915027
 31
0.0
  0
LINE
  5
190
  8
DATA
  6
CONTINUOUS
 62
     7
 10
-433.1020778669408
 20
499.1978860915027
 30
0.0
 11
-434.3525
 21
464.1828244185402
 31
0.0
  0
ARC
  5
191
  8
DATA
  6
CONTINUOUS
 62
     7
 10
-400.0
 20
521.3853645833332
 30
0.0
 40
69.65661458333325
 50
243.3638933096613
 51
296.6361066903384
  0
ARC
  5
192
  8
DATA
  6
CONTINUOUS
 62
     7
 10
-371.3100000000004
 20
464.1828244185402
 30
0.0
 40
5.662500000000266
 50
296.6361066903401
 51
0.0
  0
ARC
  5
193
  8
DATA
  6
CONTINUOUS
 62
     7
 10
-428.6900000000001
 20
464.1828244185402
 30
0.0
 40
5.662499999999909
 50
180.0
 51
243.36389330966
  0
ARC
  5
194
  8
DATA
  6
CONTINUOUS
 62
     7
 10
-400.0
 20
344.14125
 30
0.0
 40
170.6300000000001
 50
83.11542853383655
 51
96.88457146616346
  0
LINE
  5
195
  8
DATA
  6
CONTINUOUS
 62
     7
 10
-424.069123064281
 20
511.6099067979279
 30
0.0
 11
-431.7377353598345
 21
502.6864306721926
 31
0.0
  0
LINE
  5
196
  8
DATA
  6
CONTINUOUS
 62
     7
 10
-368.262264640166
 20
502.6864306721926
 30
0.0
 11
-375.9308769357194
 21
511.6099067979279
 31
0.0
  0
ARC
  5
197
  8
DATA
  6
CONTINUOUS
 62
     7
 10
-372.5568149632127
 20
498.9958014883244
 30
0.0
 40
5.66250000000038
 50
2.045219271035239
 51
40.674939565261
  0
ARC
  5
198
  8
DATA
  6
CONTINUOUS
 62
     7
 10
-380.2254272587661
 20
507.9192776140593
 30
0.0
 40
5.662500000000274
 50
40.67493956526448
 51
83.1154285338331
  0
ARC
  5
199
  8
DATA
  6
CONTINUOUS
 62
     7
 10
-419.7745727412344
 20
507.9192776140598
 30
0.0
 40
5.662499999999858
 50
96.88457146616288
 51
139.325060434739
  0
ARC
  5
19A
  8
DATA
  6
CONTINUOUS
 62
     7
 10
-427.4431850367878
 20
498.9958014883244
 30
0.0
 40
5.662499999999978
 50
139.325060434739
 51
177.9547807289646
  0
TEXT
  5
19B
  8
DATA
 62
     7
 10
-434.2889033564815
 20
379.0652126736111
 30
0.0
 40
27.14735243055556
  1
ケーブル接続用アダプター
 41
0.7
 72
     1
 11
-300.0
 21
392.6388888888889
 31
0.0
 73
     2
  0
TEXT
  5
19C
  8
DATA
 62
     7
 10
-355.1091254340278
 20
343.7874348958333
 30
0.0
 40
27.14735243055556
  1
(コラム側)
 41
0.7
 72
     1
 11
-300.0
 21
357.3611111111111
 31
0.0
 73
     2
  0
TEXT
  5
19D
  8
DATA
 62
     7
 10
265.7110966435185
 20
379.0652126736111
 30
0.0
 40
27.14735243055556
  1
ケーブル接続用アダプター
 41
0.7
 72
     1
 11
400.0
 21
392.6388888888889
 31
0.0
 73
     2
  0
TEXT
  5
19E
  8
DATA
 62
     7
 10
253.6757703993056
 20
343.7874348958333
 30
0.0
 40
27.14735243055556
  1
(パワードサブウーファー側)
 41
0.7
 72
     1
 11
400.0
 21
357.3611111111111
 31
0.0
 73
     2
  0
LINE
  5
19F
  8
DATA
  6
CONTINUOUS
 62
     7
 10
625.0
 20
325.0
 30
0.0
 11
175.0
 21
325.0
 31
0.0
  0
LINE
  5
1A0
  8
DATA
  6
CONTINUOUS
 62
     7
 10
-321.2425000000003
 20
600.0
 30
0.0
 11
-245.2574999999997
 21
600.0
 31
0.0
  0
LINE
  5
1A1
  8
DATA
  6
CONTINUOUS
 62
     7
 10
-325.0
 20
681.7999999999997
 30
0.0
 11
-325.0
 21
611.75
 31
0.0
  0
LINE
  5
1A2
  8
DATA
  6
CONTINUOUS
 62
     7
 10
-241.5
 20
681.7999999999997
 30
0.0
 11
-241.5
 21
611.75
 31
0.0
  0
LINE
  5
1A3
  8
DATA
  6
CONTINUOUS
 62
     7
 10
-323.25
 20
683.7999999999997
 30
0.0
 11
-243.25
 21
683.7999999999997
 31
0.0
  0
LINE
  5
1A4
  8
DATA
  6
CONTINUOUS
 62
     7
 10
-309.25
 20
683.7999999999997
 30
0.0
 11
-309.25
 21
611.75
 31
0.0
  0
LINE
  5
1A5
  8
DATA
  6
CONTINUOUS
 62
     7
 10
-255.25
 20
683.7999999999997
 30
0.0
 11
-255.25
 21
611.75
 31
0.0
  0
LINE
  5
1A6
  8
DATA
  6
CONTINUOUS
 62
     7
 10
-243.5
 20
683.7999999999997
 30
0.0
 11
-243.5
 21
611.75
 31
0.0
  0
LINE
  5
1A7
  8
DATA
  6
CONTINUOUS
 62
     7
 10
265.0
 20
783.4110189620137
 30
0.0
 11
335.0
 21
783.4110189620137
 31
0.0
  0
LINE
  5
1A8
  8
DATA
  6
CONTINUOUS
 62
     7
 10
254.3499999999999
 20
611.75
 30
0.0
 11
254.3499999999999
 21
682.0000000000068
 31
0.0
  0
LINE
  5
1A9
  8
DATA
  6
CONTINUOUS
 62
     7
 10
341.0
 20
600.0
 30
0.0
 11
259.0
 21
600.0
 31
0.0
  0
LINE
  5
1AA
  8
DATA
  6
CONTINUOUS
 62
     7
 10
345.6499999999996
 20
682.0000000000068
 30
0.0
 11
345.6499999999996
 21
611.75
 31
0.0
  0
LINE
  5
1AB
  8
DATA
  6
CONTINUOUS
 62
     7
 10
257.5
 20
684.0000000000068
 30
0.0
 11
342.5
 21
684.0000000000068
 31
0.0
  0
LINE
  5
1AC
  8
DATA
  6
CONTINUOUS
 62
     7
 10
265.0
 20
783.4110189620137
 30
0.0
 11
265.0
 21
684.0000000000068
 31
0.0
  0
LINE
  5
1AD
  8
DATA
  6
CONTINUOUS
 62
     7
 10
335.0
 20
783.4110189620137
 30
0.0
 11
335.0
 21
684.0000000000068
 31
0.0
  0
LINE
  5
1AE
  8
DATA
  6
CONTINUOUS
 62
     7
 10
345.6499999999996
 20
611.75
 30
0.0
 11
254.3499999999999
 21
611.75
 31
0.0
  0
LINE
  5
1AF
  8
DATA
  6
CONTINUOUS
 62
     7
 10
254.3499999999999
 20
682.0000000000068
 30
0.0
 11
345.6499999999996
 21
682.0000000000068
 31
0.0
  0
LINE
  5
1B0
  8
DATA
  6
CONTINUOUS
 62
     7
 10
345.6499999999996
 20
682.0000000000068
 30
0.0
 11
342.5
 21
684.0000000000068
 31
0.0
  0
LINE
  5
1B1
  8
DATA
  6
CONTINUOUS
 62
     7
 10
257.5
 20
684.0000000000068
 30
0.0
 11
254.3499999999999
 21
682.0000000000068
 31
0.0
  0
ARC
  5
1B2
  8
DATA
  6
CONTINUOUS
 62
     7
 10
300.0000000000111
 20
789.2495833333334
 30
0.0
 40
92.83010416666635
 50
63.58799891641004
 51
116.41200108359
  0
LINE
  5
1B3
  8
DATA
  6
CONTINUOUS
 62
     7
 10
345.4500664040362
 20
865.3556750927834
 30
0.0
 11
343.6031366939703
 21
821.7165917107619
 31
0.0
  0
LINE
  5
1B4
  8
DATA
  6
CONTINUOUS
 62
     7
 10
331.5603847510026
 20
804.2446164456925
 30
0.0
 11
341.9831761235598
 21
817.3696129889132
 31
0.0
  0
LINE
  5
1B5
  8
DATA
  6
CONTINUOUS
 62
     7
 10
258.0168238764615
 20
817.3696129889132
 30
0.0
 11
268.4396152490141
 21
804.2446164456993
 31
0.0
  0
ARC
  5
1B6
  8
DATA
  6
CONTINUOUS
 62
     7
 10
300.0000000000106
 20
912.7796874999996
 30
0.0
 40
114.4999999999996
 50
256.1095689794077
 51
283.8904310205889
  0
ARC
  5
1B7
  8
DATA
  6
CONTINUOUS
 62
     7
 10
325.6870533947692
 20
808.9087325227011
 30
0.0
 40
7.499999999994582
 50
283.8904310205666
 51
321.5462907832954
  0
ARC
  5
1B8
  8
DATA
  6
CONTINUOUS
 62
     7
 10
336.1098447673227
 20
822.0337290659251
 30
0.0
 40
7.499999999999829
 50
321.5462907832936
 51
357.5765265005365
  0
ARC
  5
1B9
  8
DATA
  6
CONTINUOUS
 62
     7
 10
337.9567744767684
 20
865.6728124479729
 30
0.0
 40
7.500000000620911
 50
357.5765265005356
 51
63.58799891207571
  0
ARC
  5
1BA
  8
DATA
  6
CONTINUOUS
 62
     7
 10
263.8901552326985
 20
822.0337290659255
 30
0.0
 40
7.49999999999964
 50
182.4234734994671
 51
218.4537092167091
  0
ARC
  5
1BB
  8
DATA
  6
CONTINUOUS
 62
     7
 10
274.3129466052675
 20
808.9087325227243
 30
0.0
 40
7.500000000020851
 50
218.4537092167076
 51
256.1095689793116
  0
LINE
  5
1BC
  8
DATA
  6
CONTINUOUS
 62
     7
 10
254.5499335959855
 20
865.3556750927834
 30
0.0
 11
256.3968633060514
 21
821.7165917107619
 31
0.0
  0
ARC
  5
1BD
  8
DATA
  6
CONTINUOUS
 62
     7
 10
262.0432255232533
 20
865.6728124479729
 30
0.0
 40
7.500000000621061
 50
116.4120010879211
 51
182.4234734994644
  0
ARC
  5
1BE
  8
DATA
  6
CONTINUOUS
 62
     7
 10
300.0000000000111
 20
793.833292708333
 30
0.0
 40
84.47539479166664
 50
63.58799891641054
 51
116.4120010835901
  0
LINE
  5
1BF
  8
DATA
  6
CONTINUOUS
 62
     7
 10
341.359560427674
 20
863.0898362094332
 30
0.0
 11
339.6788543915142
 21
823.3782703317935
 31
0.0
  0
LINE
  5
1C0
  8
DATA
  6
CONTINUOUS
 62
     7
 10
328.7199501234133
 20
807.4787728405801
 30
0.0
 11
338.2046902724402
 21
819.4225196949111
 31
0.0
  0
LINE
  5
1C1
  8
DATA
  6
CONTINUOUS
 62
     7
 10
261.795309727581
 20
819.4225196949111
 30
0.0
 11
271.2800498766034
 21
807.4787728405864
 31
0.0
  0
ARC
  5
1C2
  8
DATA
  6
CONTINUOUS
 62
     7
 10
300.0000000000106
 20
906.2456874999995
 30
0.0
 40
104.1949999999997
 50
256.1095689794077
 51
283.8904310205887
  0
ARC
  5
1C3
  8
DATA
  6
CONTINUOUS
 62
     7
 10
323.3752185892415
 20
811.723118470658
 30
0.0
 40
6.824999999995129
 50
283.8904310205575
 51
321.5462907832917
  0
ARC
  5
1C4
  8
DATA
  6
CONTINUOUS
 62
     7
 10
332.8599587382648
 20
823.6668653249918
 30
0.0
 40
6.824999999999638
 50
321.5462907832928
 51
357.5765265005376
  0
ARC
  5
1C5
  8
DATA
  6
CONTINUOUS
 62
     7
 10
334.5406647738602
 20
863.3784312026556
 30
0.0
 40
6.82500000056511
 50
357.5765265005359
 51
63.58799891207753
  0
ARC
  5
1C6
  8
DATA
  6
CONTINUOUS
 62
     7
 10
267.1400412617569
 20
823.6668653249923
 30
0.0
 40
6.824999999999819
 50
182.4234734994663
 51
218.4537092167078
  0
ARC
  5
1C7
  8
DATA
  6
CONTINUOUS
 62
     7
 10
276.6247814107944
 20
811.7231184706794
 30
0.0
 40
6.825000000019381
 50
218.4537092167072
 51
256.1095689793115
  0
LINE
  5
1C8
  8
DATA
  6
CONTINUOUS
 62
     7
 10
258.6404395723477
 20
863.0898362094332
 30
0.0
 11
260.3211456085079
 21
823.3782703317935
 31
0.0
  0
ARC
  5
1C9
  8
DATA
  6
CONTINUOUS
 62
     7
 10
265.4593352261615
 20
863.3784312026556
 30
0.0
 40
6.82500000056488
 50
116.4120010879259
 51
182.4234734994642
  0
LINE
  5
1CA
  8
DATA
  6
CONTINUOUS
 62
     7
 10
335.0645703222996
 20
853.4914971436339
 30
0.0
 11
334.189220706711
 21
829.4719036919488
 31
0.0
  0
ARC
  5
1CB
  8
DATA
  6
CONTINUOUS
 62
     7
 10
300.0000000000106
 20
784.9195312499997
 30
0.0
 40
81.66015624999987
 50
68.17599263190259
 51
111.8240073666782
  0
LINE
  5
1CC
  8
DATA
  6
CONTINUOUS
 62
     7
 10
264.935429677522
 20
853.491497149074
 30
0.0
 11
265.8107792932848
 21
829.471903692474
 31
0.0
  0
ARC
  5
1CD
  8
DATA
  6
CONTINUOUS
 62
     7
 10
300.000000000007
 20
917.613020833333
 30
0.0
 40
99.33333333333343
 50
253.1012749956147
 51
286.8987250047132
  0
ARC
  5
1CE
  8
DATA
  6
CONTINUOUS
 62
     7
 10
327.5695457484659
 20
853.7646394385994
 30
0.0
 40
7.50000000504466
 50
357.9128850289407
 51
68.17599259562621
  0
ARC
  5
1CF
  8
DATA
  6
CONTINUOUS
 62
     7
 10
272.4304542436254
 20
853.7646394437562
 30
0.0
 40
7.499999997309719
 50
111.8240073473289
 51
182.0871149710471
  0
ARC
  5
1D0
  8
DATA
  6
CONTINUOUS
 62
     7
 10
326.6941961377685
 20
829.745045986736
 30
0.0
 40
7.500000000150411
 50
286.8987250058888
 51
357.9128850289408
  0
ARC
  5
1D1
  8
DATA
  6
CONTINUOUS
 62
     7
 10
273.3058038629621
 20
829.7450459872867
 30
0.0
 40
7.500000000885461
 50
182.0871149710492
 51
253.1012749886942
  0
LINE
  5
1D2
  8
DATA
  6
CONTINUOUS
 62
     7
 10
330.1555304771661
 20
851.942843793525
 30
0.0
 11
329.4027298077596
 21
831.2859934250756
 31
0.0
  0
ARC
  5
1D3
  8
DATA
  6
CONTINUOUS
 62
     7
 10
299.999999999997
 20
792.9709531249997
 30
0.0
 40
70.22773437499977
 50
68.17599263190264
 51
111.8240073666782
  0
LINE
  5
1D4
  8
DATA
  6
CONTINUOUS
 62
     7
 10
269.8444695226569
 20
851.9428437982039
 30
0.0
 11
270.5972701922125
 21
831.2859934255276
 31
0.0
  0
ARC
  5
1D5
  8
DATA
  6
CONTINUOUS
 62
     7
 10
299.9999999999938
 20
907.0873541666662
 30
0.0
 40
85.42666666666635
 50
253.1012749956145
 51
286.8987250047132
  0
ARC
  5
1D6
  8
DATA
  6
CONTINUOUS
 62
     7
 10
323.7098093436686
 20
852.1777461671956
 30
0.0
 40
6.450000004338944
 50
357.9128850289387
 51
68.17599259562661
  0
ARC
  5
1D7
  8
DATA
  6
CONTINUOUS
 62
     7
 10
276.290190649506
 20
852.1777461716302
 30
0.0
 40
6.449999997686153
 50
111.8240073473308
 51
182.0871149710444
  0
ARC
  5
1D8
  8
DATA
  6
CONTINUOUS
 62
     7
 10
322.9570086784685
 20
831.520895798593
 30
0.0
 40
6.450000000129336
 50
286.8987250058919
 51
357.9128850289382
  0
ARC
  5
1D9
  8
DATA
  6
CONTINUOUS
 62
     7
 10
277.0429913221348
 20
831.5208957990664
 30
0.0
 40
6.450000000761289
 50
182.0871149710473
 51
253.1012749886991
  0
POLYLINE
  5
1DA
  8
DATA
  6
CONTINUOUS
 62
     7
 66
     1
 10
0.0
 20
0.0
 30
0.0
 70
     1
  0
VERTEX
  5
5E1
  8
DATA
  6
CONTINUOUS
 62
     7
 10
-220.5
 20
681.8
 30
0.0
  0
VERTEX
  5
5E2
  8
DATA
  6
CONTINUOUS
 62
     7
 10
-129.5
 20
681.8
 30
0.0
  0
VERTEX
  5
5E3
  8
DATA
  6
CONTINUOUS
 62
     7
 10
-129.5
 20
611.75
 30
0.0
  0
VERTEX
  5
5E4
  8
DATA
  6
CONTINUOUS
 62
     7
 10
-220.5
 20
611.75
 30
0.0
  0
SEQEND
  5
607
  8
DATA
  6
CONTINUOUS
 62
     7
  0
LINE
  5
1E1
  8
DATA
  6
CONTINUOUS
 62
     7
 10
-216.5
 20
600.0
 30
0.0
 11
-133.5
 21
600.0
 31
0.0
  0
LINE
  5
1E2
  8
DATA
  6
CONTINUOUS
 62
     7
 10
-220.5
 20
611.25
 30
0.0
 11
-129.5
 21
611.25
 31
0.0
  0
LINE
  5
1E3
  8
DATA
  6
CONTINUOUS
 62
     7
 10
-220.0
 20
611.75
 30
0.0
 11
-220.0
 21
611.25
 31
0.0
  0
LINE
  5
1E4
  8
DATA
  6
CONTINUOUS
 62
     7
 10
-130.0
 20
611.75
 30
0.0
 11
-130.0
 21
611.25
 31
0.0
  0
ARC
  5
1E5
  8
DATA
  6
CONTINUOUS
 62
     7
 10
-175.0991290983588
 20
621.1269125683052
 30
0.0
 40
46.6565534133281
 50
333.0753919953145
 51
347.7783563438654
  0
ARC
  5
1E6
  8
DATA
  6
CONTINUOUS
 62
     7
 10
-174.9008709016412
 20
621.1269125683052
 30
0.0
 40
46.65655341332814
 50
192.2216436561346
 51
206.9246080046854
  0
LINE
  5
1E7
  8
DATA
  6
CONTINUOUS
 62
     7
 10
-175.0
 20
648.5250000000001
 30
0.0
 11
-175.0
 21
647.0250000000001
 31
0.0
  0
LINE
  5
1E8
  8
DATA
  6
CONTINUOUS
 62
     7
 10
-176.0
 20
650.0500000000116
 30
0.0
 11
-176.0
 21
649.5000000000118
 31
0.0
  0
ARC
  5
1E9
  8
DATA
  6
CONTINUOUS
 62
     7
 10
-179.7057759999998
 20
629.8086640000001
 30
0.0
 40
2.06308274013425
 50
264.6908562215335
 51
323.9911991542397
  0
ARC
  5
1EA
  8
DATA
  6
CONTINUOUS
 62
     7
 10
-180.0875599999999
 20
629.8086640000001
 30
0.0
 40
2.063079389557398
 50
216.0088008457546
 51
275.309143778467
  0
ARC
  5
1EB
  8
DATA
  6
CONTINUOUS
 62
     7
 10
-174.4633199999998
 20
629.2731280000003
 30
0.0
 40
1.522089129374584
 50
273.8309816091041
 51
351.1351473098006
  0
ARC
  5
1EC
  8
DATA
  6
CONTINUOUS
 62
     7
 10
-174.448144
 20
634.2380560000001
 30
0.0
 40
1.519783946329184
 50
8.22692385900896
 51
86.15412669215198
  0
ARC
  5
1ED
  8
DATA
  6
CONTINUOUS
 62
     7
 10
-174.6153749091413
 20
628.8869152361644
 30
0.0
 40
0.2550264918544302
 50
307.6419024975827
 51
354.2670192894653
  0
LINE
  5
1EE
  8
DATA
  6
CONTINUOUS
 62
     7
 10
-181.1660400000001
 20
632.9057200000002
 30
0.0
 11
-179.970472
 21
635.7544240000002
 31
0.0
  0
LINE
  5
1EF
  8
DATA
  6
CONTINUOUS
 62
     7
 10
-181.1660400000001
 20
632.9057200000002
 30
0.0
 11
-182.3468560000001
 21
635.7544240000002
 31
0.0
  0
LINE
  5
1F0
  8
DATA
  6
CONTINUOUS
 62
     7
 10
-172.1033200000002
 20
627.7544240000002
 30
0.0
 11
-172.1033200000002
 21
635.7544240000002
 31
0.0
  0
LINE
  5
1F1
  8
DATA
  6
CONTINUOUS
 62
     7
 10
-170.568264
 20
635.7544240000002
 30
0.0
 11
-170.568264
 21
628.9795120000003
 31
0.0
  0
LINE
  5
1F2
  8
DATA
  6
CONTINUOUS
 62
     7
 10
-179.409584
 20
635.7544240000002
 30
0.0
 11
-179.409584
 21
628.9795120000003
 31
0.0
  0
LINE
  5
1F3
  8
DATA
  6
CONTINUOUS
 62
     7
 10
-177.9335679999999
 20
635.7544240000002
 30
0.0
 11
-177.9335679999999
 21
628.9795120000003
 31
0.0
  0
LINE
  5
1F4
  8
DATA
  6
CONTINUOUS
 62
     7
 10
-177.1660400000001
 20
635.7544240000002
 30
0.0
 11
-177.1660400000001
 21
627.7544240000002
 31
0.0
  0
LINE
  5
1F5
  8
DATA
  6
CONTINUOUS
 62
     7
 10
-175.8228639999998
 20
635.0016639999999
 30
0.0
 11
-175.8228639999998
 21
632.4333919999999
 31
0.0
  0
LINE
  5
1F6
  8
DATA
  6
CONTINUOUS
 62
     7
 10
-172.944
 20
632.5819999999999
 30
0.0
 11
-172.944
 21
634.455528
 31
0.0
  0
LINE
  5
1F7
  8
DATA
  6
CONTINUOUS
 62
     7
 10
-174.3616240000001
 20
634.6474160000002
 30
0.0
 11
-174.3616240000001
 21
632.787632
 31
0.0
  0
LINE
  5
1F8
  8
DATA
  6
CONTINUOUS
 62
     7
 10
-180.531352
 20
630.2636560000001
 30
0.0
 11
-180.531352
 21
628.9795280000003
 31
0.0
  0
LINE
  5
1F9
  8
DATA
  6
CONTINUOUS
 62
     7
 10
-180.531352
 20
630.2636560000001
 30
0.0
 11
-181.8597680000003
 21
630.2636560000001
 31
0.0
  0
LINE
  5
1FA
  8
DATA
  6
CONTINUOUS
 62
     7
 10
-181.8597680000003
 20
630.2636560000001
 30
0.0
 11
-181.8597680000003
 21
628.9795280000003
 31
0.0
  0
ARC
  5
1FB
  8
DATA
  6
CONTINUOUS
 62
     7
 10
-179.9676559999998
 20
628.9622159999999
 30
0.0
 40
0.5583430609934662
 50
269.7118487927314
 51
1.775987005673699
  0
ARC
  5
1FC
  8
DATA
  6
CONTINUOUS
 62
     7
 10
-179.9732800000002
 20
628.9622159999999
 30
0.0
 40
0.558340205967476
 50
178.2240129942698
 51
270.2881512072898
  0
ARC
  5
1FD
  8
DATA
  6
CONTINUOUS
 62
     7
 10
-180.927416
 20
629.0247519999998
 30
0.0
 40
0.9334401665412124
 50
182.7769954499626
 51
207.3596066671344
  0
CIRCLE
  5
1FE
  8
DATA
  6
CONTINUOUS
 62
     7
 10
-181.0848559999999
 20
631.7987040000003
 30
0.0
 40
0.7601439999998547
  0
LINE
  5
1FF
  8
DATA
  6
CONTINUOUS
 62
     7
 10
-168.1033200000002
 20
627.7544320000002
 30
0.0
 11
-172.1033200000002
 21
627.7544320000002
 31
0.0
  0
LINE
  5
200
  8
DATA
  6
CONTINUOUS
 62
     7
 10
-168.1033200000002
 20
627.7544320000002
 30
0.0
 11
-168.1033200000002
 21
630.2636640000001
 31
0.0
  0
LINE
  5
201
  8
DATA
  6
CONTINUOUS
 62
     7
 10
-168.1033200000002
 20
630.2636560000001
 30
0.0
 11
-169.446488
 21
630.2636560000001
 31
0.0
  0
LINE
  5
202
  8
DATA
  6
CONTINUOUS
 62
     7
 10
-169.446488
 20
630.2636560000001
 30
0.0
 11
-169.446488
 21
628.9795280000003
 31
0.0
  0
LINE
  5
203
  8
DATA
  6
CONTINUOUS
 62
     7
 10
-177.1660400000001
 20
627.7544320000002
 30
0.0
 11
-174.3616240000001
 21
627.7544400000002
 31
0.0
  0
LINE
  5
204
  8
DATA
  6
CONTINUOUS
 62
     7
 10
-175.8228719999997
 20
628.5072
 30
0.0
 11
-175.0996239999999
 21
628.5072
 31
0.0
  0
LINE
  5
205
  8
DATA
  6
CONTINUOUS
 62
     7
 10
-175.8228639999998
 20
628.5072
 30
0.0
 11
-175.8228639999998
 21
631.665872
 31
0.0
  0
LINE
  5
206
  8
DATA
  6
CONTINUOUS
 62
     7
 10
-175.8228719999997
 20
631.665872
 30
0.0
 11
-175.0996239999999
 21
631.665872
 31
0.0
  0
LINE
  5
207
  8
DATA
  6
CONTINUOUS
 62
     7
 10
-174.3616240000001
 20
628.8614400000001
 30
0.0
 11
-174.3616240000001
 21
631.3116319999999
 31
0.0
  0
ARC
  5
208
  8
DATA
  6
CONTINUOUS
 62
     7
 10
-178.8659200000002
 20
629.0247519999998
 30
0.0
 40
0.9334388382919978
 50
332.6403933328721
 51
357.2230045500219
  0
ARC
  5
209
  8
DATA
  6
CONTINUOUS
 62
     7
 10
-170.0045680000003
 20
628.9622159999999
 30
0.0
 40
0.5583430609934639
 50
269.7118487927781
 51
1.775987005672278
  0
ARC
  5
20A
  8
DATA
  6
CONTINUOUS
 62
     7
 10
-170.0101839999998
 20
628.9622159999999
 30
0.0
 40
0.5583402059679305
 50
178.2240129942712
 51
270.2881512071965
  0
LINE
  5
20B
  8
DATA
  6
CONTINUOUS
 62
     7
 10
-172.9446480000001
 20
629.0385679999999
 30
0.0
 11
-172.9446480000001
 21
631.1640240000002
 31
0.0
  0
LINE
  5
20C
  8
DATA
  6
CONTINUOUS
 62
     7
 10
-175.8228719999997
 20
632.4333919999999
 30
0.0
 11
-175.0996239999999
 21
632.4333919999999
 31
0.0
  0
LINE
  5
20D
  8
DATA
  6
CONTINUOUS
 62
     7
 10
-179.409584
 20
635.7544240000002
 30
0.0
 11
-177.9335679999999
 21
635.7544240000002
 31
0.0
  0
LINE
  5
20E
  8
DATA
  6
CONTINUOUS
 62
     7
 10
-182.3468560000001
 20
635.7544240000002
 30
0.0
 11
-179.970472
 21
635.7544240000002
 31
0.0
  0
LINE
  5
20F
  8
DATA
  6
CONTINUOUS
 62
     7
 10
-172.1033200000002
 20
635.7544240000002
 30
0.0
 11
-170.568264
 21
635.7544240000002
 31
0.0
  0
LINE
  5
210
  8
DATA
  6
CONTINUOUS
 62
     7
 10
-177.1660400000001
 20
635.7544240000002
 30
0.0
 11
-174.3462078974826
 21
635.7544175250077
 31
0.0
  0
LINE
  5
211
  8
DATA
  6
CONTINUOUS
 62
     7
 10
-175.8228719999997
 20
635.0016559999999
 30
0.0
 11
-175.0996239999999
 21
635.0016559999999
 31
0.0
  0
ARC
  5
212
  8
DATA
  6
CONTINUOUS
 62
     7
 10
-175.0910836299172
 20
629.9101503684697
 30
0.0
 40
1.402976362705469
 50
269.6512199376102
 51
282.8264828068734
  0
ARC
  5
213
  8
DATA
  6
CONTINUOUS
 62
     7
 10
-174.9335071780265
 20
629.3169997510181
 30
0.0
 40
0.7899503229542174
 50
281.2331036226684
 51
306.8620088940609
  0
ARC
  5
214
  8
DATA
  6
CONTINUOUS
 62
     7
 10
-174.6153749091413
 20
631.2861567638352
 30
0.0
 40
0.2550264918545622
 50
5.732980710636359
 51
52.35809750247967
  0
ARC
  5
215
  8
DATA
  6
CONTINUOUS
 62
     7
 10
-175.0910836299172
 20
630.2629216315304
 30
0.0
 40
1.402976362705304
 50
77.17351719312664
 51
90.3487800623898
  0
ARC
  5
216
  8
DATA
  6
CONTINUOUS
 62
     7
 10
-174.9335071780265
 20
630.8560722489815
 30
0.0
 40
0.7899503229545864
 50
53.13799110595895
 51
78.7668963773381
  0
ARC
  5
217
  8
DATA
  6
CONTINUOUS
 62
     7
 10
-173.7187920000001
 20
631.1116959999999
 30
0.0
 40
0.7759105311309992
 50
3.867006359837992
 51
88.36163456788452
  0
ARC
  5
218
  8
DATA
  6
CONTINUOUS
 62
     7
 10
-173.7195040000001
 20
632.6636320000002
 30
0.0
 40
0.7766815519584064
 50
271.6892821046437
 51
356.0782829826254
  0
ARC
  5
219
  8
DATA
  6
CONTINUOUS
 62
     7
 10
-174.6153749091413
 20
632.8131072361648
 30
0.0
 40
0.2550264918547903
 50
307.6419024975203
 51
354.2670192893637
  0
ARC
  5
21A
  8
DATA
  6
CONTINUOUS
 62
     7
 10
-175.0910836299172
 20
633.8363423684696
 30
0.0
 40
1.402976362705469
 50
269.6512199376102
 51
282.8264828068734
  0
ARC
  5
21B
  8
DATA
  6
CONTINUOUS
 62
     7
 10
-174.9335071780265
 20
633.2431917510185
 30
0.0
 40
0.7899503229546635
 50
281.2331036226619
 51
306.8620088940411
  0
ARC
  5
21C
  8
DATA
  6
CONTINUOUS
 62
     7
 10
-174.6153749091413
 20
634.6219407638355
 30
0.0
 40
0.2550264918545622
 50
5.732980710636359
 51
52.35809750241727
  0
ARC
  5
21D
  8
DATA
  6
CONTINUOUS
 62
     7
 10
-175.0910836299172
 20
633.5987056315303
 30
0.0
 40
1.402976362705747
 50
77.17351719313078
 51
90.3487800623898
  0
ARC
  5
21E
  8
DATA
  6
CONTINUOUS
 62
     7
 10
-174.9335071780265
 20
634.1918562489818
 30
0.0
 40
0.7899503229542226
 50
53.13799110593915
 51
78.76689637733168
  0
POLYLINE
  5
21F
  8
DATA
  6
CONTINUOUS
 62
     7
 66
     1
 10
0.0
 20
0.0
 30
0.0
 70
     1
  0
VERTEX
  5
5E5
  8
DATA
  6
CONTINUOUS
 62
     7
 10
-185.25
 20
640.25
 30
0.0
  0
VERTEX
  5
5E6
  8
DATA
  6
CONTINUOUS
 62
     7
 10
-164.75
 20
640.25
 30
0.0
  0
VERTEX
  5
5E7
  8
DATA
  6
CONTINUOUS
 62
     7
 10
-164.75
 20
619.75
 30
0.0
  0
VERTEX
  5
5E8
  8
DATA
  6
CONTINUOUS
 62
     7
 10
-185.25
 20
619.75
 30
0.0
  0
SEQEND
  5
608
  8
DATA
  6
CONTINUOUS
 62
     7
  0
LINE
  5
226
  8
DATA
  6
CONTINUOUS
 62
     7
 10
-164.75
 20
623.25
 30
0.0
 11
-185.25
 21
623.25
 31
0.0
  0
ARC
  5
227
  8
DATA
  6
CONTINUOUS
 62
     7
 10
-176.75
 20
649.0000000000114
 30
0.0
 40
0.5000000000004547
 50
90.0
 51
179.9999999999479
  0
LINE
  5
228
  8
DATA
  6
CONTINUOUS
 62
     7
 10
-177.25
 20
646.5000000000118
 30
0.0
 11
-177.25
 21
649.0000000000118
 31
0.0
  0
ARC
  5
229
  8
DATA
  6
CONTINUOUS
 62
     7
 10
-176.7499999999995
 20
646.5000000000123
 30
0.0
 40
0.5000000000004547
 50
180.0000000000521
 51
269.9999999999479
  0
LINE
  5
22A
  8
DATA
  6
CONTINUOUS
 62
     7
 10
-173.25
 20
646.0000000000114
 30
0.0
 11
-176.75
 21
646.0000000000114
 31
0.0
  0
ARC
  5
22B
  8
DATA
  6
CONTINUOUS
 62
     7
 10
-173.25
 20
646.5000000000118
 30
0.0
 40
0.5000000000004547
 50
270.0
 51
359.9999999999479
  0
LINE
  5
22C
  8
DATA
  6
CONTINUOUS
 62
     7
 10
-172.75
 20
649.0000000000118
 30
0.0
 11
-172.75
 21
646.5000000000114
 31
0.0
  0
ARC
  5
22D
  8
DATA
  6
CONTINUOUS
 62
     7
 10
-173.25
 20
649.0000000000114
 30
0.0
 40
0.5
 50
0.0000000000521102
 51
90.0
  0
LINE
  5
22E
  8
DATA
  6
CONTINUOUS
 62
     7
 10
-176.75
 20
649.5000000000118
 30
0.0
 11
-173.25
 21
649.5000000000118
 31
0.0
  0
ARC
  5
22F
  8
DATA
  6
CONTINUOUS
 62
     7
 10
-175.00000000001
 20
650.0500000000102
 30
0.0
 40
0.9999999999895408
 50
359.999999999974
 51
179.9999999999219
  0
CIRCLE
  5
230
  8
DATA
  6
CONTINUOUS
 62
     7
 10
-175.0
 20
664.75
 30
0.0
 40
7.999999999999946
  0
LINE
  5
231
  8
DATA
  6
CONTINUOUS
 62
     7
 10
515.0
 20
783.4110189620137
 30
0.0
 11
585.0
 21
783.4110189620137
 31
0.0
  0
LINE
  5
232
  8
DATA
  6
CONTINUOUS
 62
     7
 10
504.3499999999999
 20
611.75
 30
0.0
 11
504.3499999999999
 21
682.0000000000068
 31
0.0
  0
LINE
  5
233
  8
DATA
  6
CONTINUOUS
 62
     7
 10
595.6499999999996
 20
682.0000000000068
 30
0.0
 11
595.6499999999996
 21
611.75
 31
0.0
  0
LINE
  5
234
  8
DATA
  6
CONTINUOUS
 62
     7
 10
507.5
 20
684.0000000000068
 30
0.0
 11
592.5
 21
684.0000000000068
 31
0.0
  0
LINE
  5
235
  8
DATA
  6
CONTINUOUS
 62
     7
 10
515.0
 20
783.4110189620137
 30
0.0
 11
515.0
 21
684.0000000000068
 31
0.0
  0
LINE
  5
236
  8
DATA
  6
CONTINUOUS
 62
     7
 10
585.0
 20
783.4110189620137
 30
0.0
 11
585.0
 21
684.0000000000068
 31
0.0
  0
CIRCLE
  5
237
  8
DATA
  6
CONTINUOUS
 62
     7
 10
550.0
 20
644.0
 30
0.0
 40
11.75
  0
ARC
  5
238
  8
DATA
  6
CONTINUOUS
 62
     7
 10
550.0
 20
644.0
 30
0.0
 40
8.80000267741421
 50
289.9322641506793
 51
77.19616681970118
  0
ARC
  5
239
  8
DATA
  6
CONTINUOUS
 62
     7
 10
550.0
 20
644.0
 30
0.0
 40
8.799995993413626
 50
103.1365648749966
 51
250.0678804625841
  0
ARC
  5
23A
  8
DATA
  6
CONTINUOUS
 62
     7
 10
550.0
 20
644.0
 30
0.0
 40
6.200002162064217
 50
240.0000115355622
 51
330.0000115355622
  0
ARC
  5
23B
  8
DATA
  6
CONTINUOUS
 62
     7
 10
550.0
 20
644.0
 30
0.0
 40
6.200002162064217
 50
60.00001153556218
 51
150.0000115355622
  0
ARC
  5
23C
  8
DATA
  6
CONTINUOUS
 62
     7
 10
550.0
 20
644.0
 30
0.0
 40
5.625003831581032
 50
329.9996696821015
 51
60.00021260430117
  0
ARC
  5
23D
  8
DATA
  6
CONTINUOUS
 62
     7
 10
550.0
 20
644.0
 30
0.0
 40
5.624996152034259
 50
150.0002126043024
 51
240.0007182431255
  0
ARC
  5
23E
  8
DATA
  6
CONTINUOUS
 62
     7
 10
550.0
 20
644.0
 30
0.0
 40
3.599990080875173
 50
239.9999088547014
 51
329.9999088547015
  0
ARC
  5
23F
  8
DATA
  6
CONTINUOUS
 62
     7
 10
550.0
 20
644.0
 30
0.0
 40
3.599990080875173
 50
59.99990885470143
 51
149.9999088547077
  0
ARC
  5
240
  8
DATA
  6
CONTINUOUS
 62
     7
 10
550.0
 20
644.0
 30
0.0
 40
2.900001820861436
 50
329.9997926340293
 51
60.00023362382808
  0
ARC
  5
241
  8
DATA
  6
CONTINUOUS
 62
     7
 10
550.0
 20
644.0
 30
0.0
 40
2.900000481120789
 50
150.0002336238302
 51
239.9997926340327
  0
LINE
  5
242
  8
DATA
  6
CONTINUOUS
 62
     7
 10
553.0
 20
634.0
 30
0.0
 11
547.0
 21
634.0
 31
0.0
  0
LINE
  5
243
  8
DATA
  6
CONTINUOUS
 62
     7
 10
552.0
 20
654.0
 30
0.0
 11
548.0
 21
654.0
 31
0.0
  0
LINE
  5
244
  8
DATA
  6
CONTINUOUS
 62
     7
 10
552.0
 20
654.0
 30
0.0
 11
552.0
 21
652.7999999999997
 31
0.0
  0
LINE
  5
245
  8
DATA
  6
CONTINUOUS
 62
     7
 10
548.0
 20
654.0
 30
0.0
 11
548.0
 21
652.7999999999997
 31
0.0
  0
LINE
  5
246
  8
DATA
  6
CONTINUOUS
 62
     7
 10
553.0
 20
634.0
 30
0.0
 11
553.0
 21
635.7271500000002
 31
0.0
  0
LINE
  5
247
  8
DATA
  6
CONTINUOUS
 62
     7
 10
547.0
 20
634.0
 30
0.0
 11
547.0
 21
635.7271500000002
 31
0.0
  0
LINE
  5
248
  8
DATA
  6
CONTINUOUS
 62
     7
 10
555.3693400000002
 20
640.8999699999999
 30
0.0
 11
554.87138
 21
641.1874699999998
 31
0.0
  0
LINE
  5
249
  8
DATA
  6
CONTINUOUS
 62
     7
 10
546.9000299999998
 20
638.6306199999999
 30
0.0
 11
547.1875300000002
 21
639.1285899999998
 31
0.0
  0
LINE
  5
24A
  8
DATA
  6
CONTINUOUS
 62
     7
 10
553.0999999999999
 20
649.3693600000001
 30
0.0
 11
552.8125
 21
648.8713899999998
 31
0.0
  0
LINE
  5
24B
  8
DATA
  6
CONTINUOUS
 62
     7
 10
544.6306300000001
 20
647.09998
 30
0.0
 11
545.1286
 21
646.81248
 31
0.0
  0
LINE
  5
24C
  8
DATA
  6
CONTINUOUS
 62
     7
 10
548.2000200000002
 20
640.88231
 30
0.0
 11
548.5500099999999
 21
641.4885199999999
 31
0.0
  0
LINE
  5
24D
  8
DATA
  6
CONTINUOUS
 62
     7
 10
553.1176700000001
 20
642.1999900000001
 30
0.0
 11
552.5114699999999
 21
642.54999
 31
0.0
  0
LINE
  5
24E
  8
DATA
  6
CONTINUOUS
 62
     7
 10
551.8000000000002
 20
647.1176799999998
 30
0.0
 11
551.4499999999998
 21
646.5114699999999
 31
0.0
  0
LINE
  5
24F
  8
DATA
  6
CONTINUOUS
 62
     7
 10
546.88231
 20
645.7999799999998
 30
0.0
 11
547.4885199999999
 21
645.4499900000001
 31
0.0
  0
LINE
  5
250
  8
DATA
  6
CONTINUOUS
 62
     7
 10
504.3499999999999
 20
682.0000000000068
 30
0.0
 11
595.6499999999996
 21
682.0000000000068
 31
0.0
  0
LINE
  5
251
  8
DATA
  6
CONTINUOUS
 62
     7
 10
595.6499999999996
 20
682.0000000000068
 30
0.0
 11
592.5
 21
684.0000000000068
 31
0.0
  0
LINE
  5
252
  8
DATA
  6
CONTINUOUS
 62
     7
 10
507.5
 20
684.0000000000068
 30
0.0
 11
504.3499999999999
 21
682.0000000000068
 31
0.0
  0
ARC
  5
253
  8
DATA
  6
CONTINUOUS
 62
     7
 10
300.0000000000036
 20
534.0301041666663
 30
0.0
 40
92.83010416666635
 50
243.58799891641
 51
296.4120010835899
  0
LINE
  5
254
  8
DATA
  6
CONTINUOUS
 62
     7
 10
345.4500664040288
 20
457.9240124072159
 30
0.0
 11
343.6031366939628
 21
501.5630957892378
 31
0.0
  0
LINE
  5
255
  8
DATA
  6
CONTINUOUS
 62
     7
 10
331.5603847509951
 20
519.0350710543072
 30
0.0
 11
341.9831761235523
 21
505.910074511086
 31
0.0
  0
LINE
  5
256
  8
DATA
  6
CONTINUOUS
 62
     7
 10
258.0168238764541
 20
505.910074511086
 30
0.0
 11
268.4396152490067
 21
519.0350710542999
 31
0.0
  0
ARC
  5
257
  8
DATA
  6
CONTINUOUS
 62
     7
 10
300.0000000000032
 20
410.5000000000001
 30
0.0
 40
114.4999999999999
 50
76.10956897941104
 51
103.8904310205923
  0
ARC
  5
258
  8
DATA
  6
CONTINUOUS
 62
     7
 10
325.6870533947617
 20
514.3709549772985
 30
0.0
 40
7.499999999995001
 50
38.45370921670468
 51
76.10956897943345
  0
ARC
  5
259
  8
DATA
  6
CONTINUOUS
 62
     7
 10
337.956774476761
 20
457.6068750520263
 30
0.0
 40
7.500000000620856
 50
296.4120010879258
 51
2.423473499464422
  0
ARC
  5
25A
  8
DATA
  6
CONTINUOUS
 62
     7
 10
263.8901552326911
 20
501.2459584340742
 30
0.0
 40
7.499999999999829
 50
141.5462907832936
 51
177.5765265005329
  0
ARC
  5
25B
  8
DATA
  6
CONTINUOUS
 62
     7
 10
274.3129466052601
 20
514.3709549772749
 30
0.0
 40
7.500000000021013
 50
103.8904310206884
 51
141.5462907832924
  0
LINE
  5
25C
  8
DATA
  6
CONTINUOUS
 62
     7
 10
254.5499335968448
 20
457.9240124074792
 30
0.0
 11
256.3968633069103
 21
501.5630957895011
 31
0.0
  0
ARC
  5
25D
  8
DATA
  6
CONTINUOUS
 62
     7
 10
262.0432255232458
 20
457.6068750520263
 30
0.0
 40
7.500000000620911
 50
177.5765265005356
 51
243.5879989120774
  0
ARC
  5
25E
  8
DATA
  6
CONTINUOUS
 62
     7
 10
336.1098447673153
 20
501.2459584340746
 30
0.0
 40
7.500000000000075
 50
2.423473499463469
 51
38.45370921670373
  0
ARC
  5
25F
  8
DATA
  6
CONTINUOUS
 62
     7
 10
299.9999999999995
 20
524.5749303281247
 30
0.0
 40
75.59619532812475
 50
243.5879989164096
 51
296.4120010835895
  0
LINE
  5
260
  8
DATA
  6
CONTINUOUS
 62
     7
 10
337.0122615761175
 20
462.5979345038164
 30
0.0
 11
335.5082143667255
 21
498.1354220559657
 31
0.0
  0
LINE
  5
261
  8
DATA
  6
CONTINUOUS
 62
     7
 10
325.7011993219689
 20
512.363725113075
 30
0.0
 11
334.1889994762118
 21
501.6753841781029
 31
0.0
  0
LINE
  5
262
  8
DATA
  6
CONTINUOUS
 62
     7
 10
265.8110005237872
 20
501.6753841781029
 30
0.0
 11
274.2988006780247
 21
512.3637251130691
 31
0.0
  0
ARC
  5
263
  8
DATA
  6
CONTINUOUS
 62
     7
 10
299.9999999999995
 20
423.9781899999999
 30
0.0
 40
93.24307500000016
 50
76.10956897941124
 51
103.8904310205925
  0
ARC
  5
264
  8
DATA
  6
CONTINUOUS
 62
     7
 10
320.9182519320207
 20
508.565502185763
 30
0.0
 40
6.107624999995659
 50
38.45370921670735
 51
76.10956897943177
  0
ARC
  5
265
  8
DATA
  6
CONTINUOUS
 62
     7
 10
329.4060520862599
 20
497.8771612507886
 30
0.0
 40
6.107625000000197
 50
2.423473499463266
 51
38.45370921670617
  0
ARC
  5
266
  8
DATA
  6
CONTINUOUS
 62
     7
 10
330.9100992951467
 20
462.3396736986175
 30
0.0
 40
6.107625000505637
 50
296.4120010879232
 51
2.423473499467434
  0
ARC
  5
267
  8
DATA
  6
CONTINUOUS
 62
     7
 10
270.5939479137387
 20
497.8771612507882
 30
0.0
 40
6.10762499999985
 50
141.5462907832912
 51
177.5765265005323
  0
ARC
  5
268
  8
DATA
  6
CONTINUOUS
 62
     7
 10
279.0817480679902
 20
508.5655021857439
 30
0.0
 40
6.10762500001738
 50
103.8904310206898
 51
141.5462907832966
  0
LINE
  5
269
  8
DATA
  6
CONTINUOUS
 62
     7
 10
262.987738424587
 20
462.5979345040306
 30
0.0
 11
264.4917856339794
 21
498.1354220561803
 31
0.0
  0
ARC
  5
26A
  8
DATA
  6
CONTINUOUS
 62
     7
 10
269.0899007048515
 20
462.3396736986175
 30
0.0
 40
6.107625000505438
 50
177.5765265005324
 51
243.5879989120787
  0
ARC
  5
26B
  8
DATA
  6
CONTINUOUS
 62
     7
 10
299.9999999999995
 20
520.8421865985935
 30
0.0
 40
68.79253774859357
 50
243.58799891641
 51
296.41200108359
  0
LINE
  5
26C
  8
DATA
  6
CONTINUOUS
 62
     7
 10
333.6811580342669
 20
464.4431203984728
 30
0.0
 11
332.3124750737202
 21
496.7822340709287
 31
0.0
  0
LINE
  5
26D
  8
DATA
  6
CONTINUOUS
 62
     7
 10
323.3880913829921
 20
509.7299898528983
 30
0.0
 11
331.1119895233528
 21
500.0035996020739
 31
0.0
  0
LINE
  5
26E
  8
DATA
  6
CONTINUOUS
 62
     7
 10
268.8880104766463
 20
500.0035996020739
 30
0.0
 11
276.6119086170024
 21
509.7299898528933
 31
0.0
  0
ARC
  5
26F
  8
DATA
  6
CONTINUOUS
 62
     7
 10
299.9999999999995
 20
429.2991529000002
 30
0.0
 40
84.85119824999978
 50
76.10956897941121
 51
103.8904310205923
  0
ARC
  5
270
  8
DATA
  6
CONTINUOUS
 62
     7
 10
319.0356092581392
 20
506.2736069890444
 30
0.0
 40
5.557938749995972
 50
38.45370921670618
 51
76.10956897944011
  0
ARC
  5
271
  8
DATA
  6
CONTINUOUS
 62
     7
 10
326.7595073984967
 20
496.5472167382178
 30
0.0
 40
5.557938750000003
 50
2.423473499460433
 51
38.45370921670413
  0
ARC
  5
272
  8
DATA
  6
CONTINUOUS
 62
     7
 10
328.1281903585837
 20
464.208103065742
 30
0.0
 40
5.557938750460084
 50
296.4120010879262
 51
2.423473499466127
  0
ARC
  5
273
  8
DATA
  6
CONTINUOUS
 62
     7
 10
273.240492601502
 20
496.5472167382173
 30
0.0
 40
5.557938749999805
 50
141.5462907832893
 51
177.5765265005347
  0
ARC
  5
274
  8
DATA
  6
CONTINUOUS
 62
     7
 10
280.9643907418708
 20
506.2736069890271
 30
0.0
 40
5.557938750015212
 50
103.8904310206843
 51
141.5462907832946
  0
LINE
  5
275
  8
DATA
  6
CONTINUOUS
 62
     7
 10
266.3188419663743
 20
464.4431203986679
 30
0.0
 11
267.687524926921
 21
496.7822340711238
 31
0.0
  0
ARC
  5
276
  8
DATA
  6
CONTINUOUS
 62
     7
 10
271.8718096414154
 20
464.208103065742
 30
0.0
 40
5.557938750460188
 50
177.5765265005339
 51
243.5879989120737
  0
POLYLINE
  5
277
  8
DATA
  6
CONTINUOUS
 62
     7
 66
     1
 10
0.0
 20
0.0
 30
0.0
 70
     1
  0
VERTEX
  5
5E9
  8
DATA
  6
CONTINUOUS
 62
     7
 10
289.9999999999995
 20
493.1
 30
0.0
  0
VERTEX
  5
5EA
  8
DATA
  6
CONTINUOUS
 62
     7
 10
309.9999999999995
 20
493.1
 30
0.0
  0
VERTEX
  5
5EB
  8
DATA
  6
CONTINUOUS
 62
     7
 10
309.9999999999995
 20
473.1
 30
0.0
  0
VERTEX
  5
5EC
  8
DATA
  6
CONTINUOUS
 62
     7
 10
289.9999999999995
 20
473.1
 30
0.0
  0
SEQEND
  5
609
  8
DATA
  6
CONTINUOUS
 62
     7
  0
LINE
  5
27E
  8
DATA
  6
CONTINUOUS
 62
     7
 10
289.9999999999995
 20
489.1
 30
0.0
 11
309.9999999999995
 21
489.1
 31
0.0
  0
ARC
  5
27F
  8
DATA
  6
CONTINUOUS
 62
     7
 10
304.1175539999995
 20
482.7986689999999
 30
0.0
 40
1.805197397617639
 50
84.69085622153396
 51
143.9911991542417
  0
ARC
  5
280
  8
DATA
  6
CONTINUOUS
 62
     7
 10
304.4516149999995
 20
482.7986689999999
 30
0.0
 40
1.805194465862631
 50
36.00880084575674
 51
95.30914377845687
  0
ARC
  5
281
  8
DATA
  6
CONTINUOUS
 62
     7
 10
299.5304049999995
 20
483.2672629999998
 30
0.0
 40
1.331827988202777
 50
93.83098160911388
 51
171.1351473097936
  0
ARC
  5
282
  8
DATA
  6
CONTINUOUS
 62
     7
 10
299.5171259999993
 20
478.9229510000001
 30
0.0
 40
1.329810953037812
 50
188.2269238590277
 51
266.1541266921527
  0
ARC
  5
283
  8
DATA
  6
CONTINUOUS
 62
     7
 10
299.663453045498
 20
483.6051991683559
 30
0.0
 40
0.2231481803726779
 50
127.6419024974804
 51
174.2670192893767
  0
LINE
  5
284
  8
DATA
  6
CONTINUOUS
 62
     7
 10
305.3952849999996
 20
480.0887450000001
 30
0.0
 11
304.3491629999994
 21
477.5961290000001
 31
0.0
  0
LINE
  5
285
  8
DATA
  6
CONTINUOUS
 62
     7
 10
305.3952849999996
 20
480.0887450000001
 30
0.0
 11
306.4284989999992
 21
477.5961290000001
 31
0.0
  0
LINE
  5
286
  8
DATA
  6
CONTINUOUS
 62
     7
 10
297.4654049999995
 20
484.5961290000001
 30
0.0
 11
297.4654049999995
 21
477.5961290000001
 31
0.0
  0
LINE
  5
287
  8
DATA
  6
CONTINUOUS
 62
     7
 10
296.1222309999998
 20
477.5961290000001
 30
0.0
 11
296.1222309999998
 21
483.5241769999999
 31
0.0
  0
LINE
  5
288
  8
DATA
  6
CONTINUOUS
 62
     7
 10
303.8583859999994
 20
477.5961290000001
 30
0.0
 11
303.8583859999994
 21
483.5241769999999
 31
0.0
  0
LINE
  5
289
  8
DATA
  6
CONTINUOUS
 62
     7
 10
302.5668719999999
 20
477.5961290000001
 30
0.0
 11
302.5668719999999
 21
483.5241769999999
 31
0.0
  0
LINE
  5
28A
  8
DATA
  6
CONTINUOUS
 62
     7
 10
301.8952849999996
 20
477.5961290000001
 30
0.0
 11
301.8952849999996
 21
484.5961290000001
 31
0.0
  0
LINE
  5
28B
  8
DATA
  6
CONTINUOUS
 62
     7
 10
300.7200059999996
 20
478.2547940000001
 30
0.0
 11
300.7200059999996
 21
480.502032
 31
0.0
  0
LINE
  5
28C
  8
DATA
  6
CONTINUOUS
 62
     7
 10
298.2009999999996
 20
480.372
 30
0.0
 11
298.2009999999996
 21
478.7326629999999
 31
0.0
  0
LINE
  5
28D
  8
DATA
  6
CONTINUOUS
 62
     7
 10
299.4414209999995
 20
478.5647609999997
 30
0.0
 11
299.4414209999995
 21
480.1920719999999
 31
0.0
  0
LINE
  5
28E
  8
DATA
  6
CONTINUOUS
 62
     7
 10
304.8399329999997
 20
482.4005509999998
 30
0.0
 11
304.8399329999997
 21
483.5241630000002
 31
0.0
  0
LINE
  5
28F
  8
DATA
  6
CONTINUOUS
 62
     7
 10
304.8399329999997
 20
482.4005509999998
 30
0.0
 11
306.0022969999995
 21
482.4005509999998
 31
0.0
  0
LINE
  5
290
  8
DATA
  6
CONTINUOUS
 62
     7
 10
306.0022969999995
 20
482.4005509999998
 30
0.0
 11
306.0022969999995
 21
483.5241630000002
 31
0.0
  0
ARC
  5
291
  8
DATA
  6
CONTINUOUS
 62
     7
 10
304.3466989999993
 20
483.5393110000001
 30
0.0
 40
0.4885501783694551
 50
89.71184879269155
 51
181.7759870057076
  0
ARC
  5
292
  8
DATA
  6
CONTINUOUS
 62
     7
 10
304.3516199999995
 20
483.5393110000001
 30
0.0
 40
0.4885476802219944
 50
358.2240129942782
 51
90.28815120723652
  0
ARC
  5
293
  8
DATA
  6
CONTINUOUS
 62
     7
 10
305.1864889999997
 20
483.4845919999999
 30
0.0
 40
0.816760145723083
 50
2.776995450012171
 51
27.3596066671576
  0
CIRCLE
  5
294
  8
DATA
  6
CONTINUOUS
 62
     7
 10
305.3242489999998
 20
481.0573839999998
 30
0.0
 40
0.6651260000003276
  0
LINE
  5
295
  8
DATA
  6
CONTINUOUS
 62
     7
 10
293.9654049999995
 20
484.596122
 30
0.0
 11
297.4654049999995
 21
484.596122
 31
0.0
  0
LINE
  5
296
  8
DATA
  6
CONTINUOUS
 62
     7
 10
293.9654049999995
 20
484.596122
 30
0.0
 11
293.9654049999995
 21
482.4005440000002
 31
0.0
  0
LINE
  5
297
  8
DATA
  6
CONTINUOUS
 62
     7
 10
293.9654049999995
 20
482.4005509999998
 30
0.0
 11
295.1406769999994
 21
482.4005509999998
 31
0.0
  0
LINE
  5
298
  8
DATA
  6
CONTINUOUS
 62
     7
 10
295.1406769999994
 20
482.4005509999998
 30
0.0
 11
295.1406769999994
 21
483.5241630000002
 31
0.0
  0
LINE
  5
299
  8
DATA
  6
CONTINUOUS
 62
     7
 10
301.8952849999996
 20
484.596122
 30
0.0
 11
299.4414209999995
 21
484.5961149999999
 31
0.0
  0
LINE
  5
29A
  8
DATA
  6
CONTINUOUS
 62
     7
 10
300.7200129999997
 20
483.93745
 30
0.0
 11
300.0871709999997
 21
483.93745
 31
0.0
  0
LINE
  5
29B
  8
DATA
  6
CONTINUOUS
 62
     7
 10
300.7200059999996
 20
483.93745
 30
0.0
 11
300.7200059999996
 21
481.1736120000002
 31
0.0
  0
LINE
  5
29C
  8
DATA
  6
CONTINUOUS
 62
     7
 10
300.7200129999997
 20
481.1736120000002
 30
0.0
 11
300.0871709999997
 21
481.1736120000002
 31
0.0
  0
LINE
  5
29D
  8
DATA
  6
CONTINUOUS
 62
     7
 10
299.4414209999995
 20
483.62749
 30
0.0
 11
299.4414209999995
 21
481.4835719999998
 31
0.0
  0
ARC
  5
29E
  8
DATA
  6
CONTINUOUS
 62
     7
 10
303.3826799999993
 20
483.4845919999999
 30
0.0
 40
0.816758983505324
 50
152.6403933328523
 51
177.2230045500024
  0
ARC
  5
29F
  8
DATA
  6
CONTINUOUS
 62
     7
 10
295.6289969999993
 20
483.5393110000001
 30
0.0
 40
0.4885501783694528
 50
89.71184879274489
 51
181.7759870057076
  0
ARC
  5
2A0
  8
DATA
  6
CONTINUOUS
 62
     7
 10
295.6339109999994
 20
483.5393110000001
 30
0.0
 40
0.4885476802215398
 50
358.2240129942764
 51
90.28815120723652
  0
LINE
  5
2A1
  8
DATA
  6
CONTINUOUS
 62
     7
 10
298.2015669999996
 20
483.4725030000001
 30
0.0
 11
298.2015669999996
 21
481.6127290000001
 31
0.0
  0
LINE
  5
2A2
  8
DATA
  6
CONTINUOUS
 62
     7
 10
300.7200129999997
 20
480.502032
 30
0.0
 11
300.0871709999997
 21
480.502032
 31
0.0
  0
LINE
  5
2A3
  8
DATA
  6
CONTINUOUS
 62
     7
 10
303.8583859999994
 20
477.5961290000001
 30
0.0
 11
302.5668719999999
 21
477.5961290000001
 31
0.0
  0
LINE
  5
2A4
  8
DATA
  6
CONTINUOUS
 62
     7
 10
306.4284989999992
 20
477.5961290000001
 30
0.0
 11
304.3491629999994
 21
477.5961290000001
 31
0.0
  0
LINE
  5
2A5
  8
DATA
  6
CONTINUOUS
 62
     7
 10
297.4654049999995
 20
477.5961290000001
 30
0.0
 11
296.1222309999998
 21
477.5961290000001
 31
0.0
  0
LINE
  5
2A6
  8
DATA
  6
CONTINUOUS
 62
     7
 10
301.8952849999996
 20
477.5961290000001
 30
0.0
 11
299.4279319102966
 21
477.5961346656183
 31
0.0
  0
LINE
  5
2A7
  8
DATA
  6
CONTINUOUS
 62
     7
 10
300.7200129999997
 20
478.2548010000002
 30
0.0
 11
300.0871709999997
 21
478.2548010000002
 31
0.0
  0
ARC
  5
2A8
  8
DATA
  6
CONTINUOUS
 62
     7
 10
300.0796981761773
 20
482.709868427589
 30
0.0
 40
1.227604317367399
 50
89.6512199376129
 51
102.8264828068785
  0
ARC
  5
2A9
  8
DATA
  6
CONTINUOUS
 62
     7
 10
299.9418187807728
 20
483.2288752178589
 30
0.0
 40
0.6912065325850965
 50
101.233103622661
 51
126.8620088940731
  0
ARC
  5
2AA
  8
DATA
  6
CONTINUOUS
 62
     7
 10
299.663453045498
 20
481.5058628316439
 30
0.0
 40
0.2231481803726796
 50
185.7329807106233
 51
232.3580975024272
  0
ARC
  5
2AB
  8
DATA
  6
CONTINUOUS
 62
     7
 10
300.0796981761773
 20
482.4011935724108
 30
0.0
 40
1.227604317367166
 50
257.1735171931215
 51
270.3487800623872
  0
ARC
  5
2AC
  8
DATA
  6
CONTINUOUS
 62
     7
 10
299.9418187807728
 20
481.8821867821408
 30
0.0
 40
0.6912065325847743
 50
233.1379911059344
 51
258.766896377339
  0
ARC
  5
2AD
  8
DATA
  6
CONTINUOUS
 62
     7
 10
298.8789429999993
 20
481.6585160000001
 30
0.0
 40
0.6789217147392724
 50
183.8670063598256
 51
268.3616345679174
  0
ARC
  5
2AE
  8
DATA
  6
CONTINUOUS
 62
     7
 10
298.8795659999996
 20
480.3005719999998
 30
0.0
 40
0.6795963579634401
 50
91.68928210465849
 51
176.0782829826445
  0
ARC
  5
2AF
  8
DATA
  6
CONTINUOUS
 62
     7
 10
299.663453045498
 20
480.1697811683558
 30
0.0
 40
0.2231481803726779
 50
127.6419024974804
 51
174.2670192893767
  0
ARC
  5
2B0
  8
DATA
  6
CONTINUOUS
 62
     7
 10
300.0796981761773
 20
479.2744504275889
 30
0.0
 40
1.227604317367399
 50
89.6512199376129
 51
102.8264828068738
  0
ARC
  5
2B1
  8
DATA
  6
CONTINUOUS
 62
     7
 10
299.9418187807728
 20
479.7934572178589
 30
0.0
 40
0.6912065325855424
 50
101.2331036226536
 51
126.8620088940731
  0
ARC
  5
2B2
  8
DATA
  6
CONTINUOUS
 62
     7
 10
299.663453045498
 20
478.5870518316439
 30
0.0
 40
0.2231481803726796
 50
185.7329807106233
 51
232.3580975024272
  0
ARC
  5
2B3
  8
DATA
  6
CONTINUOUS
 62
     7
 10
300.0796981761773
 20
479.4823825724108
 30
0.0
 40
1.227604317367166
 50
257.1735171931215
 51
270.3487800623872
  0
ARC
  5
2B4
  8
DATA
  6
CONTINUOUS
 62
     7
 10
299.9418187807728
 20
478.9633757821408
 30
0.0
 40
0.6912065325847743
 50
233.1379911059344
 51
258.766896377339
  0
TEXT
  5
2B5
  8
DATA
 62
     7
 10
309.4223935727715
 20
492.2876966688368
 30
0.0
 40
2.375393337673612
  1
PROFESSIONAL
 50
180.0
 41
0.7
 72
     1
 11
299.9999999999995
 21
491.1
 31
0.0
 73
     2
  0
ARC
  5
2B6
  8
DATA
  6
CONTINUOUS
 62
     7
 10
300.0000000000036
 20
528.4277927083332
 30
0.0
 40
82.61879270833337
 50
243.5879989164098
 51
296.4120010835895
  0
LINE
  5
2B7
  8
DATA
  6
CONTINUOUS
 62
     7
 10
340.4505590995859
 20
460.6933710424224
 30
0.0
 11
338.8067916576274
 21
499.5321552524216
 31
0.0
  0
LINE
  5
2B8
  8
DATA
  6
CONTINUOUS
 62
     7
 10
328.088742428386
 20
515.0822132383333
 30
0.0
 11
337.365026749962
 21
503.4009663148669
 31
0.0
  0
LINE
  5
2B9
  8
DATA
  6
CONTINUOUS
 62
     7
 10
262.6349732500444
 20
503.4009663148669
 30
0.0
 11
271.9112575716158
 21
515.082213238327
 31
0.0
  0
ARC
  5
2BA
  8
DATA
  6
CONTINUOUS
 62
     7
 10
300.0000000000032
 20
418.486
 30
0.0
 40
101.9050000000001
 50
76.10956897941115
 51
103.8904310205923
  0
ARC
  5
2BB
  8
DATA
  6
CONTINUOUS
 62
     7
 10
322.8614775213387
 20
510.9311499297957
 30
0.0
 40
6.674999999995255
 50
38.4537092167065
 51
76.10956897943797
  0
ARC
  5
2BC
  8
DATA
  6
CONTINUOUS
 62
     7
 10
332.137761842911
 20
499.2499030063265
 30
0.0
 40
6.675000000000146
 50
2.423473499462971
 51
38.45370921670543
  0
ARC
  5
2BD
  8
DATA
  6
CONTINUOUS
 62
     7
 10
333.7815292843175
 20
460.4111187963036
 30
0.0
 40
6.675000000552622
 50
296.4120010879232
 51
2.423473499465217
  0
ARC
  5
2BE
  8
DATA
  6
CONTINUOUS
 62
     7
 10
267.8622381570954
 20
499.249903006326
 30
0.0
 40
6.675000000000083
 50
141.5462907832915
 51
177.576526500533
  0
ARC
  5
2BF
  8
DATA
  6
CONTINUOUS
 62
     7
 10
277.1385224786818
 20
510.9311499297747
 30
0.0
 40
6.675000000018974
 50
103.8904310206885
 51
141.5462907832952
  0
LINE
  5
2C0
  8
DATA
  6
CONTINUOUS
 62
     7
 10
259.5494409011922
 20
460.6933710426566
 30
0.0
 11
261.1932083431507
 21
499.5321552526558
 31
0.0
  0
ARC
  5
2C1
  8
DATA
  6
CONTINUOUS
 62
     7
 10
266.2184707156889
 20
460.4111187963036
 30
0.0
 40
6.675000000552262
 50
177.5765265005345
 51
243.5879989120768
  0
LINE
  5
2C2
  8
DATA
  6
CONTINUOUS
 62
     7
 10
-430.0
 20
683.7999999999997
 30
0.0
 11
-430.0
 21
600.0
 31
0.0
  0
LINE
  5
2C3
  8
DATA
  6
CONTINUOUS
 62
     7
 10
-370.0
 20
683.7999999999997
 30
0.0
 11
-370.0
 21
600.0
 31
0.0
  0
LINE
  5
2C4
  8
DATA
  6
CONTINUOUS
 62
     7
 10
-442.5
 20
683.7999999999997
 30
0.0
 11
-357.5
 21
683.7999999999997
 31
0.0
  0
LINE
  5
2C5
  8
DATA
  6
CONTINUOUS
 62
     7
 10
-442.5
 20
683.7999999999997
 30
0.0
 11
-445.5
 21
681.7999999999997
 31
0.0
  0
LINE
  5
2C6
  8
DATA
  6
CONTINUOUS
 62
     7
 10
-354.5
 20
681.7999999999997
 30
0.0
 11
-357.5
 21
683.7999999999997
 31
0.0
  0
LINE
  5
2C7
  8
DATA
  6
CONTINUOUS
 62
     7
 10
-325.0
 20
681.7999999999997
 30
0.0
 11
-241.5
 21
681.7999999999997
 31
0.0
  0
LINE
  5
2C8
  8
DATA
  6
CONTINUOUS
 62
     7
 10
-241.5
 20
681.7999999999997
 30
0.0
 11
-243.25
 21
683.7999999999997
 31
0.0
  0
LINE
  5
2C9
  8
DATA
  6
CONTINUOUS
 62
     7
 10
-323.25
 20
683.7999999999997
 30
0.0
 11
-325.0
 21
681.7999999999997
 31
0.0
  0
LINE
  5
2CA
  8
DATA
  6
CONTINUOUS
 62
     7
 10
-217.5
 20
683.7999999999997
 30
0.0
 11
-132.5
 21
683.7999999999997
 31
0.0
  0
LINE
  5
2CB
  8
DATA
  6
CONTINUOUS
 62
     7
 10
-217.5
 20
683.7999999999997
 30
0.0
 11
-220.5
 21
681.7999999999997
 31
0.0
  0
LINE
  5
2CC
  8
DATA
  6
CONTINUOUS
 62
     7
 10
-129.5
 20
681.7999999999997
 30
0.0
 11
-132.5
 21
683.7999999999997
 31
0.0
  0
LINE
  5
2CD
  8
DATA
  6
CONTINUOUS
 62
     7
 10
-443.75
 20
681.7999999999997
 30
0.0
 11
-443.75
 21
611.75
 31
0.0
  0
LINE
  5
2CE
  8
DATA
  6
CONTINUOUS
 62
     7
 10
-440.75
 20
683.7999999999997
 30
0.0
 11
-443.75
 21
681.7999999999997
 31
0.0
  0
ARC
  5
2CF
  8
DATA
  6
CONTINUOUS
 62
     7
 10
-398.1508709016412
 20
621.1269125683052
 30
0.0
 40
46.65655341332814
 50
192.2216436561346
 51
206.9246080046854
  0
LINE
  5
2D0
  8
DATA
  6
CONTINUOUS
 62
     7
 10
-356.25
 20
681.7999999999997
 30
0.0
 11
-356.25
 21
611.75
 31
0.0
  0
LINE
  5
2D1
  8
DATA
  6
CONTINUOUS
 62
     7
 10
-359.25
 20
683.7999999999997
 30
0.0
 11
-356.25
 21
681.7999999999997
 31
0.0
  0
ARC
  5
2D2
  8
DATA
  6
CONTINUOUS
 62
     7
 10
-401.8491290983588
 20
621.1269125683052
 30
0.0
 40
46.6565534133281
 50
333.0753919953145
 51
347.7783563438654
  0
LINE
  5
2D3
  8
DATA
  6
CONTINUOUS
 62
     7
 10
-443.25
 20
611.75
 30
0.0
 11
-443.25
 21
611.25
 31
0.0
  0
LINE
  5
2D4
  8
DATA
  6
CONTINUOUS
 62
     7
 10
-356.75
 20
611.75
 30
0.0
 11
-356.75
 21
611.25
 31
0.0
  0
LINE
  5
2D5
  8
DATA
  6
CONTINUOUS
 62
     7
 10
-241.5
 20
611.75
 30
0.0
 11
-325.0
 21
611.75
 31
0.0
  0
LINE
  5
2D6
  8
DATA
  6
CONTINUOUS
 62
     7
 10
-325.0
 20
611.25
 30
0.0
 11
-241.5
 21
611.25
 31
0.0
  0
ARC
  5
2D7
  8
DATA
  6
CONTINUOUS
 62
     7
 10
-264.6540390624968
 20
625.1530484531263
 30
0.0
 40
61.92680968498728
 50
192.9739335486072
 51
203.9647052761698
  0
ARC
  5
2D8
  8
DATA
  6
CONTINUOUS
 62
     7
 10
-301.8459609375032
 20
625.1530484531263
 30
0.0
 40
61.92680968498759
 50
336.0352947238302
 51
347.0260664513929
  0
LINE
  5
2D9
  8
DATA
  6
CONTINUOUS
 62
     7
 10
-324.5
 20
611.25
 30
0.0
 11
-324.5
 21
611.75
 31
0.0
  0
LINE
  5
2DA
  8
DATA
  6
CONTINUOUS
 62
     7
 10
-242.0
 20
611.25
 30
0.0
 11
-242.0
 21
611.75
 31
0.0
  0
ARC
  5
2DB
  8
DATA
  6
CONTINUOUS
 62
     7
 10
-248.9040390624964
 20
625.1530484531263
 30
0.0
 40
61.92680968498772
 50
192.9739335486071
 51
203.9647052761698
  0
LINE
  5
2DC
  8
DATA
  6
CONTINUOUS
 62
     7
 10
-308.75
 20
611.25
 30
0.0
 11
-308.75
 21
611.75
 31
0.0
  0
ARC
  5
2DD
  8
DATA
  6
CONTINUOUS
 62
     7
 10
-303.8459609375032
 20
625.1530484531263
 30
0.0
 40
61.92680968498718
 50
336.0352947238301
 51
347.0260664513929
  0
LINE
  5
2DE
  8
DATA
  6
CONTINUOUS
 62
     7
 10
-244.0
 20
611.25
 30
0.0
 11
-244.0
 21
611.75
 31
0.0
  0
LINE
  5
2DF
  8
DATA
  6
CONTINUOUS
 62
     7
 10
375.0
 20
611.75
 30
0.0
 11
375.0
 21
682.0000000000068
 31
0.0
  0
LINE
  5
2E0
  8
DATA
  6
CONTINUOUS
 62
     7
 10
458.8000000000002
 20
611.75
 30
0.0
 11
458.8000000000002
 21
682.0000000000068
 31
0.0
  0
LINE
  5
2E1
  8
DATA
  6
CONTINUOUS
 62
     7
 10
375.0
 20
682.0000000000068
 30
0.0
 11
458.8000000000002
 21
682.0000000000068
 31
0.0
  0
LINE
  5
2E2
  8
DATA
  6
CONTINUOUS
 62
     7
 10
379.6089999999999
 20
599.9999999999986
 30
0.0
 11
454.1909999999998
 21
600.0000000000014
 31
0.0
  0
LINE
  5
2E3
  8
DATA
  6
CONTINUOUS
 62
     7
 10
375.0
 20
682.0000000000068
 30
0.0
 11
378.7709999999997
 21
684.0000000000068
 31
0.0
  0
LINE
  5
2E4
  8
DATA
  6
CONTINUOUS
 62
     7
 10
458.8000000000002
 20
682.0000000000068
 30
0.0
 11
455.029
 21
684.0000000000068
 31
0.0
  0
LINE
  5
2E5
  8
DATA
  6
CONTINUOUS
 62
     7
 10
378.7709999999997
 20
684.0000000000068
 30
0.0
 11
455.029
 21
684.0000000000068
 31
0.0
  0
LINE
  5
2E6
  8
DATA
  6
CONTINUOUS
 62
     7
 10
395.0
 20
783.4110189620137
 30
0.0
 11
395.0
 21
684.0000000000068
 31
0.0
  0
LINE
  5
2E7
  8
DATA
  6
CONTINUOUS
 62
     7
 10
443.3000000000002
 20
783.4110189620137
 30
0.0
 11
443.3000000000002
 21
684.0000000000068
 31
0.0
  0
LINE
  5
2E8
  8
DATA
  6
CONTINUOUS
 62
     7
 10
395.0
 20
783.4110189620137
 30
0.0
 11
443.3000000000002
 21
783.4110189620137
 31
0.0
  0
LINE
  5
2E9
  8
DATA
  6
CONTINUOUS
 62
     7
 10
265.9999999999991
 20
783.4110189620137
 30
0.0
 11
265.9999999999991
 21
684.0000000000068
 31
0.0
  0
LINE
  5
2EA
  8
DATA
  6
CONTINUOUS
 62
     7
 10
334.0000000000009
 20
783.4110189620137
 30
0.0
 11
334.0000000000009
 21
684.0000000000068
 31
0.0
  0
LINE
  5
2EB
  8
DATA
  6
CONTINUOUS
 62
     7
 10
401.0
 20
783.4110189620137
 30
0.0
 11
401.0
 21
684.0000000000068
 31
0.0
  0
LINE
  5
2EC
  8
DATA
  6
CONTINUOUS
 62
     7
 10
435.3000000000002
 20
783.4110189620137
 30
0.0
 11
435.3000000000002
 21
684.0000000000068
 31
0.0
  0
LINE
  5
2ED
  8
DATA
  6
CONTINUOUS
 62
     7
 10
254.3499999999999
 20
611.25
 30
0.0
 11
345.6499999999996
 21
611.25
 31
0.0
  0
LINE
  5
2EE
  8
DATA
  6
CONTINUOUS
 62
     7
 10
254.8499999999999
 20
611.75
 30
0.0
 11
254.8499999999999
 21
611.25
 31
0.0
  0
ARC
  5
2EF
  8
DATA
  6
CONTINUOUS
 62
     7
 10
318.2687500000097
 20
631.0837500000048
 30
0.0
 40
66.9252137884254
 50
197.2389218763684
 51
207.6749561235169
  0
LINE
  5
2F0
  8
DATA
  6
CONTINUOUS
 62
     7
 10
345.1500000000001
 20
611.75
 30
0.0
 11
345.1500000000001
 21
611.25
 31
0.0
  0
ARC
  5
2F1
  8
DATA
  6
CONTINUOUS
 62
     7
 10
281.7312499999903
 20
631.0837500000048
 30
0.0
 40
66.92521378842545
 50
332.3250438764831
 51
342.7610781236316
  0
LINE
  5
2F2
  8
DATA
  6
CONTINUOUS
 62
     7
 10
458.8000000000002
 20
611.75
 30
0.0
 11
375.0
 21
611.75
 31
0.0
  0
LINE
  5
2F3
  8
DATA
  6
CONTINUOUS
 62
     7
 10
375.0
 20
611.25
 30
0.0
 11
458.8000000000002
 21
611.25
 31
0.0
  0
LINE
  5
2F4
  8
DATA
  6
CONTINUOUS
 62
     7
 10
375.5
 20
611.75
 30
0.0
 11
375.5
 21
611.25
 31
0.0
  0
ARC
  5
2F5
  8
DATA
  6
CONTINUOUS
 62
     7
 10
438.7400754166811
 20
630.7944726307046
 30
0.0
 40
66.6692104688255
 50
197.0469901658487
 51
207.509744568341
  0
LINE
  5
2F6
  8
DATA
  6
CONTINUOUS
 62
     7
 10
458.3000000000002
 20
611.75
 30
0.0
 11
458.3000000000002
 21
611.25
 31
0.0
  0
ARC
  5
2F7
  8
DATA
  6
CONTINUOUS
 62
     7
 10
395.0599245833191
 20
630.7944726307046
 30
0.0
 40
66.66921046882536
 50
332.490255431659
 51
342.9530098341513
  0
LINE
  5
2F8
  8
DATA
  6
CONTINUOUS
 62
     7
 10
591.0
 20
600.0
 30
0.0
 11
509.0
 21
600.0
 31
0.0
  0
LINE
  5
2F9
  8
DATA
  6
CONTINUOUS
 62
     7
 10
595.6499999999996
 20
611.75
 30
0.0
 11
504.3499999999999
 21
611.75
 31
0.0
  0
LINE
  5
2FA
  8
DATA
  6
CONTINUOUS
 62
     7
 10
504.3499999999999
 20
611.25
 30
0.0
 11
595.6499999999996
 21
611.25
 31
0.0
  0
LINE
  5
2FB
  8
DATA
  6
CONTINUOUS
 62
     7
 10
504.8499999999999
 20
611.75
 30
0.0
 11
504.8499999999999
 21
611.25
 31
0.0
  0
ARC
  5
2FC
  8
DATA
  6
CONTINUOUS
 62
     7
 10
568.2687500000097
 20
631.0837500000048
 30
0.0
 40
66.9252137884254
 50
197.2389218763684
 51
207.6749561235169
  0
LINE
  5
2FD
  8
DATA
  6
CONTINUOUS
 62
     7
 10
595.1500000000001
 20
611.75
 30
0.0
 11
595.1500000000001
 21
611.25
 31
0.0
  0
ARC
  5
2FE
  8
DATA
  6
CONTINUOUS
 62
     7
 10
531.7312499999903
 20
631.0837500000048
 30
0.0
 40
66.92521378842545
 50
332.3250438764831
 51
342.7610781236316
  0
LINE
  5
2FF
  8
DATA
  6
CONTINUOUS
 62
     7
 10
379.0
 20
684.0000000000068
 30
0.0
 11
379.0
 21
611.75
 31
0.0
  0
LINE
  5
300
  8
DATA
  6
CONTINUOUS
 62
     7
 10
396.0
 20
684.0000000000068
 30
0.0
 11
396.0
 21
611.75
 31
0.0
  0
LINE
  5
301
  8
DATA
  6
CONTINUOUS
 62
     7
 10
446.8000000000002
 20
684.0000000000068
 30
0.0
 11
446.8000000000002
 21
611.75
 31
0.0
  0
LINE
  5
302
  8
DATA
  6
CONTINUOUS
 62
     7
 10
379.5
 20
611.75
 30
0.0
 11
379.5
 21
611.25
 31
0.0
  0
ARC
  5
303
  8
DATA
  6
CONTINUOUS
 62
     7
 10
442.7400754166811
 20
630.7944726307046
 30
0.0
 40
66.6692104688255
 50
197.0469901658487
 51
207.5097445683408
  0
LINE
  5
304
  8
DATA
  6
CONTINUOUS
 62
     7
 10
396.5
 20
611.75
 30
0.0
 11
396.5
 21
611.25
 31
0.0
  0
ARC
  5
305
  8
DATA
  6
CONTINUOUS
 62
     7
 10
459.7400754166811
 20
630.7944726307046
 30
0.0
 40
66.6692104688255
 50
197.0469901658487
 51
207.509744568341
  0
LINE
  5
306
  8
DATA
  6
CONTINUOUS
 62
     7
 10
446.3000000000006
 20
611.75
 30
0.0
 11
446.3000000000006
 21
611.25
 31
0.0
  0
ARC
  5
307
  8
DATA
  6
CONTINUOUS
 62
     7
 10
383.0599245833196
 20
630.7944726307046
 30
0.0
 40
66.66921046882536
 50
332.490255431659
 51
342.9530098341513
  0
LINE
  5
308
  8
DATA
  6
CONTINUOUS
 62
     7
 10
290.0000000005527
 20
834.4296874999997
 30
0.0
 11
290.0000000005527
 21
850.4296874999997
 31
0.0
  0
LINE
  5
309
  8
DATA
  6
CONTINUOUS
 62
     7
 10
290.0000000005527
 20
834.4296874999997
 30
0.0
 11
310.0000000005527
 21
834.4296874999997
 31
0.0
  0
LINE
  5
30A
  8
DATA
  6
CONTINUOUS
 62
     7
 10
290.0000000005527
 20
850.4296874999997
 30
0.0
 11
296.0000000005527
 21
850.4296874999997
 31
0.0
  0
LINE
  5
30B
  8
DATA
  6
CONTINUOUS
 62
     7
 10
304.0000000005527
 20
850.4296874999997
 30
0.0
 11
310.0000000005527
 21
850.4296874999997
 31
0.0
  0
LINE
  5
30C
  8
DATA
  6
CONTINUOUS
 62
     7
 10
291.0000000005527
 20
835.4296874999997
 30
0.0
 11
309.0000000005527
 21
835.4296874999997
 31
0.0
  0
LINE
  5
30D
  8
DATA
  6
CONTINUOUS
 62
     7
 10
291.0000000005527
 20
835.4296874999997
 30
0.0
 11
291.0000000005527
 21
842.6796874999997
 31
0.0
  0
LINE
  5
30E
  8
DATA
  6
CONTINUOUS
 62
     7
 10
296.0000000005527
 20
849.4296874999997
 30
0.0
 11
304.0000000005527
 21
849.4296874999997
 31
0.0
  0
LINE
  5
30F
  8
DATA
  6
CONTINUOUS
 62
     7
 10
290.0000000005527
 20
839.9296874999997
 30
0.0
 11
287.0000000005527
 21
839.9296874999997
 31
0.0
  0
LINE
  5
310
  8
DATA
  6
CONTINUOUS
 62
     7
 10
290.0000000005527
 20
844.9296874999997
 30
0.0
 11
287.0000000005527
 21
844.9296874999997
 31
0.0
  0
LINE
  5
311
  8
DATA
  6
CONTINUOUS
 62
     7
 10
287.0000000005527
 20
844.9296874999997
 30
0.0
 11
287.0000000005527
 21
839.9296874999997
 31
0.0
  0
LINE
  5
312
  8
DATA
  6
CONTINUOUS
 62
     7
 10
305.7500000005527
 20
842.1796874999997
 30
0.0
 11
302.2500000005527
 21
842.1796874999997
 31
0.0
  0
LINE
  5
313
  8
DATA
  6
CONTINUOUS
 62
     7
 10
301.7500000005527
 20
842.1796874999997
 30
0.0
 11
298.2500000005527
 21
842.1796874999997
 31
0.0
  0
LINE
  5
314
  8
DATA
  6
CONTINUOUS
 62
     7
 10
297.7500000005527
 20
842.1796874999997
 30
0.0
 11
294.2500000005527
 21
842.1796874999997
 31
0.0
  0
LINE
  5
315
  8
DATA
  6
CONTINUOUS
 62
     7
 10
305.7500000005527
 20
842.6796874999997
 30
0.0
 11
302.2500000005527
 21
842.6796874999997
 31
0.0
  0
LINE
  5
316
  8
DATA
  6
CONTINUOUS
 62
     7
 10
301.7500000005527
 20
842.6796874999997
 30
0.0
 11
298.2500000005527
 21
842.6796874999997
 31
0.0
  0
LINE
  5
317
  8
DATA
  6
CONTINUOUS
 62
     7
 10
297.7500000005527
 20
842.6796874999997
 30
0.0
 11
294.2500000005527
 21
842.6796874999997
 31
0.0
  0
LINE
  5
318
  8
DATA
  6
CONTINUOUS
 62
     7
 10
294.2500000005527
 20
838.6796874999997
 30
0.0
 11
291.0000000005527
 21
835.4296874999997
 31
0.0
  0
LINE
  5
319
  8
DATA
  6
CONTINUOUS
 62
     7
 10
297.7500000005527
 20
838.6796874999997
 30
0.0
 11
297.7500000005527
 21
842.1796874999997
 31
0.0
  0
LINE
  5
31A
  8
DATA
  6
CONTINUOUS
 62
     7
 10
297.7500000005527
 20
842.6796874999997
 30
0.0
 11
297.7500000005527
 21
846.1796874999997
 31
0.0
  0
LINE
  5
31B
  8
DATA
  6
CONTINUOUS
 62
     7
 10
294.2500000005527
 20
842.6796874999997
 30
0.0
 11
294.2500000005527
 21
846.1796874999997
 31
0.0
  0
LINE
  5
31C
  8
DATA
  6
CONTINUOUS
 62
     7
 10
297.7500000005527
 20
838.6796874999997
 30
0.0
 11
294.2500000005527
 21
838.6796874999997
 31
0.0
  0
LINE
  5
31D
  8
DATA
  6
CONTINUOUS
 62
     7
 10
294.2500000005527
 20
842.1796874999997
 30
0.0
 11
294.2500000005527
 21
838.6796874999997
 31
0.0
  0
LINE
  5
31E
  8
DATA
  6
CONTINUOUS
 62
     7
 10
298.2500000005527
 20
838.6796874999997
 30
0.0
 11
298.2500000005527
 21
842.1796874999997
 31
0.0
  0
LINE
  5
31F
  8
DATA
  6
CONTINUOUS
 62
     7
 10
298.2500000005527
 20
842.6796874999997
 30
0.0
 11
298.2500000005527
 21
846.1796874999997
 31
0.0
  0
LINE
  5
320
  8
DATA
  6
CONTINUOUS
 62
     7
 10
301.7500000005527
 20
842.6796874999997
 30
0.0
 11
301.7500000005527
 21
846.1796874999997
 31
0.0
  0
LINE
  5
321
  8
DATA
  6
CONTINUOUS
 62
     7
 10
298.2500000005527
 20
838.6796874999997
 30
0.0
 11
301.7500000005527
 21
838.6796874999997
 31
0.0
  0
LINE
  5
322
  8
DATA
  6
CONTINUOUS
 62
     7
 10
301.7500000005527
 20
842.1796874999997
 30
0.0
 11
301.7500000005527
 21
838.6796874999997
 31
0.0
  0
LINE
  5
323
  8
DATA
  6
CONTINUOUS
 62
     7
 10
310.0000000005527
 20
834.4296874999997
 30
0.0
 11
310.0000000005527
 21
850.4296874999997
 31
0.0
  0
LINE
  5
324
  8
DATA
  6
CONTINUOUS
 62
     7
 10
309.0000000005527
 20
835.4296874999997
 30
0.0
 11
309.0000000005527
 21
842.6796874999997
 31
0.0
  0
LINE
  5
325
  8
DATA
  6
CONTINUOUS
 62
     7
 10
310.0000000005527
 20
839.9296874999997
 30
0.0
 11
313.0000000005527
 21
839.9296874999997
 31
0.0
  0
LINE
  5
326
  8
DATA
  6
CONTINUOUS
 62
     7
 10
310.0000000005527
 20
844.9296874999997
 30
0.0
 11
313.0000000005527
 21
844.9296874999997
 31
0.0
  0
LINE
  5
327
  8
DATA
  6
CONTINUOUS
 62
     7
 10
313.0000000005527
 20
844.9296874999997
 30
0.0
 11
313.0000000005527
 21
839.9296874999997
 31
0.0
  0
LINE
  5
328
  8
DATA
  6
CONTINUOUS
 62
     7
 10
302.2500000005527
 20
838.6796874999997
 30
0.0
 11
302.2500000005527
 21
842.1796874999997
 31
0.0
  0
LINE
  5
329
  8
DATA
  6
CONTINUOUS
 62
     7
 10
302.2500000005527
 20
842.6796874999997
 30
0.0
 11
302.2500000005527
 21
846.1796874999997
 31
0.0
  0
LINE
  5
32A
  8
DATA
  6
CONTINUOUS
 62
     7
 10
290.0000000005527
 20
846.1796874999997
 30
0.0
 11
310.0000000005527
 21
846.1796874999997
 31
0.0
  0
LINE
  5
32B
  8
DATA
  6
CONTINUOUS
 62
     7
 10
305.7500000005527
 20
842.6796874999997
 30
0.0
 11
305.7500000005527
 21
846.1796874999997
 31
0.0
  0
LINE
  5
32C
  8
DATA
  6
CONTINUOUS
 62
     7
 10
302.2500000005527
 20
838.6796874999997
 30
0.0
 11
305.7500000005527
 21
838.6796874999997
 31
0.0
  0
LINE
  5
32D
  8
DATA
  6
CONTINUOUS
 62
     7
 10
305.7500000005527
 20
842.1796874999997
 30
0.0
 11
305.7500000005527
 21
838.6796874999997
 31
0.0
  0
LINE
  5
32E
  8
DATA
  6
CONTINUOUS
 62
     7
 10
305.7500000005527
 20
838.6796874999997
 30
0.0
 11
309.0000000005527
 21
835.4296874999997
 31
0.0
  0
LINE
  5
32F
  8
DATA
  6
CONTINUOUS
 62
     7
 10
304.0000000005527
 20
846.1796874999997
 30
0.0
 11
304.0000000005527
 21
850.4296874999997
 31
0.0
  0
LINE
  5
330
  8
DATA
  6
CONTINUOUS
 62
     7
 10
296.0000000005527
 20
846.1796874999997
 30
0.0
 11
296.0000000005527
 21
850.4296874999997
 31
0.0
  0
LINE
  5
331
  8
DATA
  6
CONTINUOUS
 62
     7
 10
309.0000000005527
 20
842.6796874999997
 30
0.0
 11
310.0000000005527
 21
842.6796874999997
 31
0.0
  0
LINE
  5
332
  8
DATA
  6
CONTINUOUS
 62
     7
 10
291.0000000005527
 20
842.6796874999997
 30
0.0
 11
290.0000000005527
 21
842.6796874999997
 31
0.0
  0
LINE
  5
333
  8
DATA
  6
CONTINUOUS
 62
     7
 10
-285.4000000000005
 20
-346.75
 30
0.0
 11
-285.4000000000005
 21
-370.1500000000001
 31
0.0
  0
LINE
  5
334
  8
DATA
  6
CONTINUOUS
 62
     7
 10
-285.4000000000005
 20
-629.8499999999999
 30
0.0
 11
-285.4000000000005
 21
-653.25
 31
0.0
  0
LINE
  5
335
  8
DATA
  6
CONTINUOUS
 62
     7
 10
-288.0
 20
-370.1500000000001
 30
0.0
 11
-255.3290805270635
 21
-370.1500000000001
 31
0.0
  0
LINE
  5
336
  8
DATA
  6
CONTINUOUS
 62
     7
 10
-245.0251363283651
 20
-346.75
 30
0.0
 11
-288.0
 21
-346.75
 31
0.0
  0
LINE
  5
337
  8
DATA
  6
CONTINUOUS
 62
     7
 10
-239.7345511241065
 20
-348.9340139017793
 30
0.0
 11
-180.1337800701663
 21
-408.25
 31
0.0
  0
LINE
  5
338
  8
DATA
  6
CONTINUOUS
 62
     7
 10
-288.0
 20
-629.8499999999999
 30
0.0
 11
-255.329080527059
 21
-629.8499999999999
 31
0.0
  0
ARC
  5
339
  8
DATA
  6
CONTINUOUS
 62
     7
 10
-352.9759879032254
 20
-500.0
 30
0.0
 40
166.9759879032254
 50
311.6342569443282
 51
329.4733536451443
  0
ARC
  5
33A
  8
DATA
  6
CONTINUOUS
 62
     7
 10
-352.9759879032254
 20
-500.0
 30
0.0
 40
166.9759879032256
 50
30.52806461394299
 51
48.36574305567316
  0
ARC
  5
33B
  8
DATA
  6
CONTINUOUS
 62
     7
 10
-255.3290805270635
 20
-390.150000000006
 30
0.0
 40
20.00000000000594
 50
48.36574305568445
 51
90.0
  0
ARC
  5
33C
  8
DATA
  6
CONTINUOUS
 62
     7
 10
-255.329080527059
 20
-609.8500000000067
 30
0.0
 40
19.99999999999318
 50
270.0
 51
311.6342569443415
  0
LINE
  5
33D
  8
DATA
  6
CONTINUOUS
 62
     7
 10
-247.8941755804217
 20
-357.2
 30
0.0
 11
-265.6500000000005
 21
-357.2
 31
0.0
  0
LINE
  5
33E
  8
DATA
  6
CONTINUOUS
 62
     7
 10
-247.8941755804217
 20
-359.7
 30
0.0
 11
-265.6500000000005
 21
-359.7
 31
0.0
  0
ARC
  5
33F
  8
DATA
  6
CONTINUOUS
 62
     7
 10
-265.6500000000005
 20
-358.45
 30
0.0
 40
1.25
 50
90.0
 51
270.0
  0
ARC
  5
340
  8
DATA
  6
CONTINUOUS
 62
     7
 10
-245.025136328366
 20
-354.25
 30
0.0
 40
7.500000000000375
 50
45.13721316682627
 51
89.99999999999305
  0
LINE
  5
341
  8
DATA
  6
CONTINUOUS
 62
     7
 10
-245.0251363283651
 20
-653.25
 30
0.0
 11
-288.0
 21
-653.25
 31
0.0
  0
LINE
  5
342
  8
DATA
  6
CONTINUOUS
 62
     7
 10
-239.7345511241065
 20
-651.0659860982205
 30
0.0
 11
-180.1337800701662
 21
-591.7499999999999
 31
0.0
  0
ARC
  5
343
  8
DATA
  6
CONTINUOUS
 62
     7
 10
-245.025136328366
 20
-645.75
 30
0.0
 40
7.5
 50
270.0000000000069
 51
314.862786833175
  0
LINE
  5
344
  8
DATA
  6
CONTINUOUS
 62
     7
 10
-194.9262674185071
 20
-408.2714607974103
 30
0.0
 11
-245.0725301381508
 21
-358.3648074142823
 31
0.0
  0
LINE
  5
345
  8
DATA
  6
CONTINUOUS
 62
     7
 10
-198.0711186169252
 20
-408.668733615853
 30
0.0
 11
-246.8360585395703
 21
-360.1368027803555
 31
0.0
  0
ARC
  5
346
  8
DATA
  6
CONTINUOUS
 62
     7
 10
-247.8941755804217
 20
-361.2
 30
0.0
 40
3.999999999999644
 50
45.13721316683549
 51
90.0
  0
ARC
  5
347
  8
DATA
  6
CONTINUOUS
 62
     7
 10
-247.8941755804217
 20
-361.2
 30
0.0
 40
1.499999999999787
 50
45.13721316684472
 51
90.0
  0
LINE
  5
348
  8
DATA
  6
CONTINUOUS
 62
     7
 10
-247.8941755804217
 20
-642.8000000000002
 30
0.0
 11
-265.6500000000005
 21
-642.8000000000002
 31
0.0
  0
LINE
  5
349
  8
DATA
  6
CONTINUOUS
 62
     7
 10
-247.8941755804217
 20
-640.3000000000002
 30
0.0
 11
-265.6500000000005
 21
-640.3000000000002
 31
0.0
  0
ARC
  5
34A
  8
DATA
  6
CONTINUOUS
 62
     7
 10
-265.6500000000005
 20
-641.5500000000002
 30
0.0
 40
1.25
 50
90.0
 51
270.0
  0
LINE
  5
34B
  8
DATA
  6
CONTINUOUS
 62
     7
 10
-194.9262674185067
 20
-591.7285392025897
 30
0.0
 11
-245.0725301381508
 21
-641.635192585718
 31
0.0
  0
LINE
  5
34C
  8
DATA
  6
CONTINUOUS
 62
     7
 10
-198.0711186169255
 20
-591.3312663841469
 30
0.0
 11
-246.8360585395703
 21
-639.8631972196445
 31
0.0
  0
ARC
  5
34D
  8
DATA
  6
CONTINUOUS
 62
     7
 10
-247.8941755804217
 20
-638.8000000000002
 30
0.0
 40
4.0
 50
270.0
 51
314.8627868331645
  0
ARC
  5
34E
  8
DATA
  6
CONTINUOUS
 62
     7
 10
-247.8941755804217
 20
-638.8000000000002
 30
0.0
 40
1.5
 50
270.0
 51
314.8627868331553
  0
TEXT
  5
34F
  8
DATA
 62
     7
 10
-157.2265305855147
 20
-465.5660372979079
 30
0.0
 40
3.393419053819445
  1
UP
 50
350.0
 41
0.7
 72
     1
 11
-154.9824785886412
 21
-464.2388402048052
 31
0.0
 73
     2
  0
TEXT
  5
350
  8
DATA
 62
     7
 10
-193.4015024447698
 20
-466.734738350174
 30
0.0
 40
3.393419053819445
  1
DOWN
 50
10.0
 41
0.7
 72
     1
 11
-189.0175214113588
 21
-464.2388402048052
 31
0.0
 73
     2
  0
LINE
  5
351
  8
DATA
  6
CONTINUOUS
 62
     7
 10
-214.0
 20
-571.75
 30
0.0
 11
-214.0
 21
-560.2079728939616
 31
0.0
  0
LINE
  5
352
  8
DATA
  6
CONTINUOUS
 62
     7
 10
-214.0
 20
-439.7920271060386
 30
0.0
 11
-214.0
 21
-428.25
 31
0.0
  0
LINE
  5
353
  8
DATA
  6
CONTINUOUS
 62
     7
 10
-111.0
 20
-594.9000000000001
 30
0.0
 11
-111.0
 21
-405.0999999999999
 31
0.0
  0
LINE
  5
354
  8
DATA
  6
CONTINUOUS
 62
     7
 10
-194.0
 20
-408.25
 30
0.0
 11
-111.0
 21
-408.25
 31
0.0
  0
LINE
  5
355
  8
DATA
  6
CONTINUOUS
 62
     7
 10
-194.0
 20
-591.75
 30
0.0
 11
-111.0
 21
-591.75
 31
0.0
  0
LINE
  5
356
  8
DATA
  6
CONTINUOUS
 62
     7
 10
-128.8000000000002
 20
-591.75
 30
0.0
 11
-128.8000000000002
 21
-408.25
 31
0.0
  0
LINE
  5
357
  8
DATA
  6
CONTINUOUS
 62
     7
 10
-127.0
 20
-591.75
 30
0.0
 11
-127.0
 21
-408.25
 31
0.0
  0
ARC
  5
358
  8
DATA
  6
CONTINUOUS
 62
     7
 10
-194.0
 20
-428.25
 30
0.0
 40
20.0
 50
90.0
 51
180.0
  0
ARC
  5
359
  8
DATA
  6
CONTINUOUS
 62
     7
 10
-194.0
 20
-571.75
 30
0.0
 40
20.0
 50
180.0
 51
270.0
  0
ARC
  5
35A
  8
DATA
  6
CONTINUOUS
 62
     7
 10
-307.333333333333
 20
-500.0
 30
0.0
 40
108.3333333333332
 50
332.0206677242547
 51
27.97933227574532
  0
ARC
  5
35B
  8
DATA
  6
CONTINUOUS
 62
     7
 10
-194.0
 20
-439.7920271060386
 30
0.0
 40
20.0
 50
180.0
 51
207.9793322757457
  0
ARC
  5
35C
  8
DATA
  6
CONTINUOUS
 62
     7
 10
-194.0
 20
-560.2079728939616
 30
0.0
 40
19.99999999999993
 50
152.0206677242538
 51
180.0
  0
LINE
  5
35D
  8
DATA
  6
CONTINUOUS
 62
     7
 10
-148.0999999999995
 20
-401.5999999999999
 30
0.0
 11
-72.67349939952055
 21
-401.5999999999995
 31
0.0
  0
LINE
  5
35E
  8
DATA
  6
CONTINUOUS
 62
     7
 10
-134.0
 20
-404.1999999999998
 30
0.0
 11
-114.5
 21
-404.1999999999998
 31
0.0
  0
LINE
  5
35F
  8
DATA
  6
CONTINUOUS
 62
     7
 10
-113.5999999999995
 20
-408.25
 30
0.0
 11
-113.5999999999995
 21
-405.0999999999999
 31
0.0
  0
LINE
  5
360
  8
DATA
  6
CONTINUOUS
 62
     7
 10
-134.0
 20
-404.1999999999998
 30
0.0
 11
-134.0
 21
-401.5999999999999
 31
0.0
  0
ARC
  5
361
  8
DATA
  6
CONTINUOUS
 62
     7
 10
-114.5
 20
-405.0999999999999
 30
0.0
 40
3.5
 50
0.0
 51
90.0
  0
ARC
  5
362
  8
DATA
  6
CONTINUOUS
 62
     7
 10
-114.5
 20
-405.0999999999999
 30
0.0
 40
0.9000000000005457
 50
0.0
 51
90.0
  0
LINE
  5
363
  8
DATA
  6
CONTINUOUS
 62
     7
 10
-58.0
 20
-597.5
 30
0.0
 11
-58.0
 21
-579.5
 31
0.0
  0
LINE
  5
364
  8
DATA
  6
CONTINUOUS
 62
     7
 10
-58.0
 20
-420.4999999999998
 30
0.0
 11
-58.0
 21
-402.5
 31
0.0
  0
LINE
  5
365
  8
DATA
  6
CONTINUOUS
 62
     7
 10
-72.96969600708417
 20
-399.0
 30
0.0
 11
-148.0999999999995
 21
-399.0
 31
0.0
  0
LINE
  5
366
  8
DATA
  6
CONTINUOUS
 62
     7
 10
-148.0999999999995
 20
-598.4000000000001
 30
0.0
 11
-72.67349939952055
 21
-598.4000000000005
 31
0.0
  0
LINE
  5
367
  8
DATA
  6
CONTINUOUS
 62
     7
 10
-134.0
 20
-595.8000000000002
 30
0.0
 11
-114.5
 21
-595.8000000000002
 31
0.0
  0
LINE
  5
368
  8
DATA
  6
CONTINUOUS
 62
     7
 10
-113.5999999999995
 20
-591.75
 30
0.0
 11
-113.5999999999995
 21
-594.9000000000001
 31
0.0
  0
LINE
  5
369
  8
DATA
  6
CONTINUOUS
 62
     7
 10
-134.0
 20
-595.8000000000002
 30
0.0
 11
-134.0
 21
-598.4000000000001
 31
0.0
  0
ARC
  5
36A
  8
DATA
  6
CONTINUOUS
 62
     7
 10
-114.5
 20
-594.9000000000001
 30
0.0
 40
3.5
 50
270.0
 51
0.0
  0
ARC
  5
36B
  8
DATA
  6
CONTINUOUS
 62
     7
 10
-114.5
 20
-594.9000000000001
 30
0.0
 40
0.900000000000091
 50
270.0
 51
0.0
  0
LINE
  5
36C
  8
DATA
  6
CONTINUOUS
 62
     7
 10
-72.96969600708417
 20
-601.0
 30
0.0
 11
-148.0999999999995
 21
-601.0
 31
0.0
  0
LINE
  5
36D
  8
DATA
  6
CONTINUOUS
 62
     7
 10
-73.0
 20
-593.6999999999998
 30
0.0
 11
-73.0
 21
-406.3
 31
0.0
  0
LINE
  5
36E
  8
DATA
  6
CONTINUOUS
 62
     7
 10
-70.80000000000018
 20
-402.5
 30
0.0
 11
-58.0
 21
-402.5
 31
0.0
  0
LINE
  5
36F
  8
DATA
  6
CONTINUOUS
 62
     7
 10
-58.0
 20
-597.5
 30
0.0
 11
-70.80000000000018
 21
-597.5
 31
0.0
  0
LINE
  5
370
  8
DATA
  6
CONTINUOUS
 62
     7
 10
-60.59999999999945
 20
-597.5
 30
0.0
 11
-60.59999999999945
 21
-402.5
 31
0.0
  0
LINE
  5
371
  8
DATA
  6
CONTINUOUS
 62
     7
 10
-60.59999999999945
 20
-420.5
 30
0.0
 11
-58.0
 21
-420.5
 31
0.0
  0
LINE
  5
372
  8
DATA
  6
CONTINUOUS
 62
     7
 10
-60.59999999999945
 20
-579.5
 30
0.0
 11
-58.0
 21
-579.5
 31
0.0
  0
LINE
  5
373
  8
DATA
  6
CONTINUOUS
 62
     7
 10
-148.0999999999995
 20
-399.0
 30
0.0
 11
-148.0999999999995
 21
-401.5999999999999
 31
0.0
  0
LINE
  5
374
  8
DATA
  6
CONTINUOUS
 62
     7
 10
-148.0999999999995
 20
-598.4000000000001
 30
0.0
 11
-148.0999999999995
 21
-601.0
 31
0.0
  0
LINE
  5
375
  8
DATA
  6
CONTINUOUS
 62
     7
 10
-70.80000000000018
 20
-597.5
 30
0.0
 11
-70.80000000000018
 21
-402.5
 31
0.0
  0
ARC
  5
376
  8
DATA
  6
CONTINUOUS
 62
     7
 10
-72.96969600708417
 20
-596.0
 30
0.0
 40
5.0
 50
270.0
 51
342.5423968762766
  0
ARC
  5
377
  8
DATA
  6
CONTINUOUS
 62
     7
 10
-72.67349939952055
 20
-596.0
 30
0.0
 40
2.400000000000546
 50
270.0
 51
321.3178125465232
  0
ARC
  5
378
  8
DATA
  6
CONTINUOUS
 62
     7
 10
-72.96969600708417
 20
-404.0
 30
0.0
 40
4.999999999999638
 50
17.4576031237234
 51
90.0
  0
ARC
  5
379
  8
DATA
  6
CONTINUOUS
 62
     7
 10
-72.67349939952055
 20
-403.9999999999998
 30
0.0
 40
2.400000000000521
 50
38.68218745347252
 51
90.0
  0
LINE
  5
37A
  8
DATA
  6
CONTINUOUS
 62
     7
 10
-75.0
 20
-404.3
 30
0.0
 11
-105.142403457874
 21
-404.3
 31
0.0
  0
ARC
  5
37B
  8
DATA
  6
CONTINUOUS
 62
     7
 10
-75.0
 20
-406.3
 30
0.0
 40
2.0
 50
0.0
 51
90.0
  0
ARC
  5
37C
  8
DATA
  6
CONTINUOUS
 62
     7
 10
-75.0
 20
-593.6999999999998
 30
0.0
 40
2.0
 50
270.0
 51
0.0
  0
ARC
  5
37D
  8
DATA
  6
CONTINUOUS
 62
     7
 10
-97.13170000000082
 20
-400.2693749999996
 30
0.0
 40
8.967569781195495
 50
188.5331666522202
 51
206.7094803008127
  0
LINE
  5
37E
  8
DATA
  6
CONTINUOUS
 62
     7
 10
-75.0
 20
-595.6999999999998
 30
0.0
 11
-105.142403457874
 21
-595.6999999999998
 31
0.0
  0
ARC
  5
37F
  8
DATA
  6
CONTINUOUS
 62
     7
 10
-97.13170000000082
 20
-599.7306250000001
 30
0.0
 40
8.967569781195426
 50
153.2905196991873
 51
171.4668333477827
  0
CIRCLE
  5
380
  8
DATA
  6
CONTINUOUS
 62
     7
 10
-172.0
 20
-560.75
 30
0.0
 40
7.0
  0
CIRCLE
  5
381
  8
DATA
  6
CONTINUOUS
 62
     7
 10
-172.0
 20
-560.75
 30
0.0
 40
6.0
  0
LINE
  5
382
  8
DATA
  6
CONTINUOUS
 62
     7
 10
-173.4433756729741
 20
-558.25
 30
0.0
 11
-170.5566243270259
 21
-558.25
 31
0.0
  0
LINE
  5
383
  8
DATA
  6
CONTINUOUS
 62
     7
 10
-174.8867513459481
 20
-560.75
 30
0.0
 11
-173.4433756729741
 21
-558.25
 31
0.0
  0
LINE
  5
384
  8
DATA
  6
CONTINUOUS
 62
     7
 10
-169.1132486540519
 20
-560.75
 30
0.0
 11
-170.5566243270259
 21
-558.25
 31
0.0
  0
LINE
  5
385
  8
DATA
  6
CONTINUOUS
 62
     7
 10
-173.4433756729741
 20
-563.25
 30
0.0
 11
-170.5566243270259
 21
-563.25
 31
0.0
  0
LINE
  5
386
  8
DATA
  6
CONTINUOUS
 62
     7
 10
-174.8867513459481
 20
-560.75
 30
0.0
 11
-173.4433756729741
 21
-563.25
 31
0.0
  0
LINE
  5
387
  8
DATA
  6
CONTINUOUS
 62
     7
 10
-169.1132486540519
 20
-560.75
 30
0.0
 11
-170.5566243270259
 21
-563.25
 31
0.0
  0
CIRCLE
  5
388
  8
DATA
  6
CONTINUOUS
 62
     7
 10
-182.0229104159807
 20
-446.1876097194493
 30
0.0
 40
3.180000000000291
  0
CIRCLE
  5
389
  8
DATA
  6
CONTINUOUS
 62
     7
 10
-191.9695404316972
 20
-447.497108403596
 30
0.0
 40
3.180000000000291
  0
CIRCLE
  5
38A
  8
DATA
  6
CONTINUOUS
 62
     7
 10
-201.7641901867901
 20
-449.6685299767571
 30
0.0
 40
3.180000000000291
  0
CIRCLE
  5
38B
  8
DATA
  6
CONTINUOUS
 62
     7
 10
-161.9770895840193
 20
-446.1876097194493
 30
0.0
 40
3.180000000000291
  0
CIRCLE
  5
38C
  8
DATA
  6
CONTINUOUS
 62
     7
 10
-152.0304595683028
 20
-447.497108403596
 30
0.0
 40
3.180000000000291
  0
CIRCLE
  5
38D
  8
DATA
  6
CONTINUOUS
 62
     7
 10
-142.2358098132099
 20
-449.6685299767571
 30
0.0
 40
3.180000000000291
  0
ARC
  5
38E
  8
DATA
  6
CONTINUOUS
 62
     7
 10
-172.0
 20
-560.75
 30
0.0
 40
133.1750000000001
 50
75.14663426420856
 51
87.77404327607695
  0
ARC
  5
38F
  8
DATA
  6
CONTINUOUS
 62
     7
 10
-172.0
 20
-560.75
 30
0.0
 40
133.1750000000001
 50
92.228395571283
 51
104.8533657357914
  0
ARC
  5
390
  8
DATA
  6
CONTINUOUS
 62
     7
 10
-172.0
 20
-560.75
 30
0.0
 40
126.8250000000001
 50
75.14663426420843
 51
87.74053813437645
  0
ARC
  5
391
  8
DATA
  6
CONTINUOUS
 62
     7
 10
-172.0
 20
-560.75
 30
0.0
 40
126.8250000000002
 50
92.2619007129835
 51
104.8533657357916
  0
ARC
  5
392
  8
DATA
  6
CONTINUOUS
 62
     7
 10
-205.3249999999998
 20
-435.0939441371804
 30
0.0
 40
3.175000000000135
 50
104.8533657357202
 51
284.8533657358576
  0
ARC
  5
393
  8
DATA
  6
CONTINUOUS
 62
     7
 10
-138.6750000000002
 20
-435.0939441371804
 30
0.0
 40
3.174999999999802
 50
255.1466342641424
 51
75.14663426427978
  0
TEXT
  5
394
  8
DATA
 62
     7
 10
-171.4012710347907
 20
-459.4467095269097
 30
0.0
 40
3.393419053819445
  1
0°
 41
0.7
 72
     1
 11
-170.0156249211477
 21
-457.75
 31
0.0
 73
     2
  0
TEXT
  5
395
  8
DATA
 62
     7
 10
-181.3934391987316
 20
-459.8815668561053
 30
0.0
 40
3.393419053819445
  1
-5°
 50
5.0
 41
0.7
 72
     1
 11
-178.7805705540914
 21
-457.9497797887561
 31
0.0
 73
     2
  0
TEXT
  5
396
  8
DATA
 62
     7
 10
-190.1755756307028
 20
-461.1786491452585
 30
0.0
 40
3.393419053819445
  1
-10°
 50
10.0
 41
0.7
 72
     1
 11
-187.1561896329385
 21
-458.9233659224151
 31
0.0
 73
     2
  0
TEXT
  5
397
  8
DATA
 62
     7
 10
-198.9987362014161
 20
-463.1074059378763
 30
0.0
 40
3.393419053819445
  1
-15°
 50
15.0
 41
0.7
 72
     1
 11
-195.9961962823063
 21
-460.5463148330241
 31
0.0
 73
     2
  0
TEXT
  5
398
  8
DATA
 62
     7
 10
-163.1010527635967
 20
-459.8383044151968
 30
0.0
 40
3.393419053819445
  1
5°
 50
355.0
 41
0.7
 72
     1
 11
-161.3756052853032
 21
-458.2860708273961
 31
0.0
 73
     2
  0
TEXT
  5
399
  8
DATA
 62
     7
 10
-154.3818675285924
 20
-460.9904950864376
 30
0.0
 40
3.393419053819445
  1
10°
 50
350.0
 41
0.7
 72
     1
 11
-151.9428733837694
 21
-459.6976715536957
 31
0.0
 73
     2
  0
TEXT
  5
39A
  8
DATA
 62
     7
 10
-145.945500575863
 20
-462.8543984559406
 30
0.0
 40
3.393419053819445
  1
15°
 50
345.0
 41
0.7
 72
     1
 11
-143.2119060638379
 21
-461.8302999395873
 31
0.0
 73
     2
  0
ARC
  5
39B
  8
DATA
  6
CONTINUOUS
 62
     7
 10
-172.0
 20
-560.7499999998836
 30
0.0
 40
97.99999999988366
 50
93.21726989368138
 51
97.07632225856528
  0
ARC
  5
39C
  8
DATA
  6
CONTINUOUS
 62
     7
 10
-172.0
 20
-560.7499999998836
 30
0.0
 40
97.99999999988354
 50
102.9236777414601
 51
106.2967487856525
  0
ARC
  5
39D
  8
DATA
  6
CONTINUOUS
 62
     7
 10
-172.0
 20
-560.7499999998836
 30
0.0
 40
97.99999999988366
 50
73.70325121434756
 51
78.53868990910513
  0
ARC
  5
39E
  8
DATA
  6
CONTINUOUS
 62
     7
 10
-172.0
 20
-560.7499999998836
 30
0.0
 40
97.99999999988367
 50
81.46131009087158
 51
86.78273010631864
  0
LINE
  5
39F
  8
DATA
  6
CONTINUOUS
 62
     7
 10
-360.5
 20
-213.0
 30
0.0
 11
-360.5
 21
-210.4000000000001
 31
0.0
  0
LINE
  5
3A0
  8
DATA
  6
CONTINUOUS
 62
     7
 10
-360.5
 20
-210.4000000000001
 30
0.0
 11
-382.8000000000002
 21
-210.4000000000001
 31
0.0
  0
LINE
  5
3A1
  8
DATA
  6
CONTINUOUS
 62
     7
 10
-407.1999999999998
 20
-203.0
 30
0.0
 11
-407.1999999999998
 21
-88.00000000000045
 31
0.0
  0
LINE
  5
3A2
  8
DATA
  6
CONTINUOUS
 62
     7
 10
-392.8000000000002
 20
-203.0
 30
0.0
 11
-392.8000000000002
 21
-88.00000000000045
 31
0.0
  0
LINE
  5
3A3
  8
DATA
  6
CONTINUOUS
 62
     7
 10
-409.8000000000002
 20
-203.0
 30
0.0
 11
-409.8000000000002
 21
-88.0
 31
0.0
  0
LINE
  5
3A4
  8
DATA
  6
CONTINUOUS
 62
     7
 10
-390.1999999999998
 20
-203.0000000000002
 30
0.0
 11
-390.1999999999998
 21
-88.00000000000023
 31
0.0
  0
LINE
  5
3A5
  8
DATA
  6
CONTINUOUS
 62
     7
 10
-393.1999999999998
 20
-85.00000000000023
 30
0.0
 11
-406.8000000000002
 21
-85.0
 31
0.0
  0
LINE
  5
3A6
  8
DATA
  6
CONTINUOUS
 62
     7
 10
-393.1999999999998
 20
-87.59999999999991
 30
0.0
 11
-406.8000000000002
 21
-87.59999999999991
 31
0.0
  0
ARC
  5
3A7
  8
DATA
  6
CONTINUOUS
 62
     7
 10
-406.8000000000002
 20
-88.0
 30
0.0
 40
3.0
 50
90.0
 51
180.0
  0
ARC
  5
3A8
  8
DATA
  6
CONTINUOUS
 62
     7
 10
-393.1999999999998
 20
-88.00000000000023
 30
0.0
 40
3.0
 50
0.0
 51
90.0
  0
ARC
  5
3A9
  8
DATA
  6
CONTINUOUS
 62
     7
 10
-393.1999999999998
 20
-88.00000000000023
 30
0.0
 40
0.3999999999996362
 50
0.0
 51
90.0
  0
ARC
  5
3AA
  8
DATA
  6
CONTINUOUS
 62
     7
 10
-406.8000000000002
 20
-88.00000000000023
 30
0.0
 40
0.3999999999998636
 50
90.0
 51
180.0
  0
ARC
  5
3AB
  8
DATA
  6
CONTINUOUS
 62
     7
 10
-382.8000000000002
 20
-203.0
 30
0.0
 40
10.0
 50
180.0
 51
270.0
  0
ARC
  5
3AC
  8
DATA
  6
CONTINUOUS
 62
     7
 10
-382.8000000000002
 20
-203.0
 30
0.0
 40
7.399999999999636
 50
180.0
 51
270.0
  0
LINE
  5
3AD
  8
DATA
  6
CONTINUOUS
 62
     7
 10
-439.5
 20
-213.0
 30
0.0
 11
-439.5
 21
-210.4000000000001
 31
0.0
  0
LINE
  5
3AE
  8
DATA
  6
CONTINUOUS
 62
     7
 10
-439.5
 20
-210.4000000000001
 30
0.0
 11
-417.1999999999998
 21
-210.4000000000001
 31
0.0
  0
ARC
  5
3AF
  8
DATA
  6
CONTINUOUS
 62
     7
 10
-417.1999999999998
 20
-203.0
 30
0.0
 40
7.399999999999864
 50
270.0
 51
0.0
  0
LINE
  5
3B0
  8
DATA
  6
CONTINUOUS
 62
     7
 10
-396.1999999999998
 20
-190.6500000000001
 30
0.0
 11
-396.1999999999998
 21
-111.8859976830367
 31
0.0
  0
ARC
  5
3B1
  8
DATA
  6
CONTINUOUS
 62
     7
 10
-391.4693749999997
 20
-119.5042976830364
 30
0.0
 40
8.967569781196012
 50
98.53316665222265
 51
121.8384393667126
  0
ARC
  5
3B2
  8
DATA
  6
CONTINUOUS
 62
     7
 10
-391.4693749999997
 20
-183.0317000000005
 30
0.0
 40
8.967569781196065
 50
238.1615606332874
 51
261.4668333477774
  0
LINE
  5
3B3
  8
DATA
  6
CONTINUOUS
 62
     7
 10
-403.8000000000002
 20
-190.6500000000001
 30
0.0
 11
-403.8000000000002
 21
-111.8859976830367
 31
0.0
  0
ARC
  5
3B4
  8
DATA
  6
CONTINUOUS
 62
     7
 10
-408.5306250000003
 20
-119.5042976830364
 30
0.0
 40
8.967569781196065
 50
58.16156063328737
 51
81.46683334777737
  0
ARC
  5
3B5
  8
DATA
  6
CONTINUOUS
 62
     7
 10
-408.5306250000003
 20
-183.0317000000005
 30
0.0
 40
8.967569781196012
 50
278.5331666522226
 51
301.8384393667126
  0
LINE
  5
3B6
  8
DATA
  6
CONTINUOUS
 62
     7
 10
-389.3499999999995
 20
-99.59999999999945
 30
0.0
 11
-390.1999999999994
 21
-99.59999999999945
 31
0.0
  0
LINE
  5
3B7
  8
DATA
  6
CONTINUOUS
 62
     7
 10
-392.7999999999997
 20
-99.59999999999945
 30
0.0
 11
-407.1999999999998
 21
-99.59999999999945
 31
0.0
  0
LINE
  5
3B8
  8
DATA
  6
CONTINUOUS
 62
     7
 10
-409.8000000000002
 20
-99.59999999999945
 30
0.0
 11
-410.6500000000005
 21
-99.59999999999945
 31
0.0
  0
LINE
  5
3B9
  8
DATA
  6
CONTINUOUS
 62
     7
 10
-389.3499999999995
 20
-102.5499999999995
 30
0.0
 11
-390.1999999999994
 21
-102.5499999999995
 31
0.0
  0
LINE
  5
3BA
  8
DATA
  6
CONTINUOUS
 62
     7
 10
-392.7999999999997
 20
-102.5499999999995
 30
0.0
 11
-407.1999999999998
 21
-102.5499999999995
 31
0.0
  0
LINE
  5
3BB
  8
DATA
  6
CONTINUOUS
 62
     7
 10
-409.8000000000002
 20
-102.5499999999995
 30
0.0
 11
-410.6500000000005
 21
-102.5499999999995
 31
0.0
  0
POLYLINE
  5
3BC
  8
DATA
  6
CONTINUOUS
 62
     7
 66
     1
 10
0.0
 20
0.0
 30
0.0
 70
     1
  0
VERTEX
  5
5ED
  8
DATA
  6
CONTINUOUS
 62
     7
 10
-440.3999999999996
 20
-250.0
 30
0.0
  0
VERTEX
  5
5EE
  8
DATA
  6
CONTINUOUS
 62
     7
 10
-359.5999999999999
 20
-250.0
 30
0.0
  0
VERTEX
  5
5EF
  8
DATA
  6
CONTINUOUS
 62
     7
 10
-359.5999999999999
 20
-750.0
 30
0.0
  0
VERTEX
  5
5F0
  8
DATA
  6
CONTINUOUS
 62
     7
 10
-440.3999999999996
 20
-750.0
 30
0.0
  0
SEQEND
  5
60A
  8
DATA
  6
CONTINUOUS
 62
     7
  0
CIRCLE
  5
3C3
  8
DATA
  6
CONTINUOUS
 62
     7
 10
-428.0
 20
-641.5
 30
0.0
 40
3.100000000000364
  0
CIRCLE
  5
3C4
  8
DATA
  6
CONTINUOUS
 62
     7
 10
-372.0
 20
-641.5
 30
0.0
 40
3.100000000000364
  0
CIRCLE
  5
3C5
  8
DATA
  6
CONTINUOUS
 62
     7
 10
-428.0
 20
-358.5
 30
0.0
 40
3.100000000000364
  0
CIRCLE
  5
3C6
  8
DATA
  6
CONTINUOUS
 62
     7
 10
-372.0
 20
-358.5
 30
0.0
 40
3.100000000000364
  0
ARC
  5
3C7
  8
DATA
  6
CONTINUOUS
 62
     7
 10
-413.8977438660704
 20
-611.5
 30
0.0
 40
13.85225613392986
 50
88.96589245511655
 51
271.0341075448835
  0
ARC
  5
3C8
  8
DATA
  6
CONTINUOUS
 62
     7
 10
-386.1022561339296
 20
-611.5
 30
0.0
 40
13.85225613392986
 50
268.9658924551166
 51
91.03410754488345
  0
LINE
  5
3C9
  8
DATA
  6
CONTINUOUS
 62
     7
 10
-386.3522561339296
 20
-625.3499999999999
 30
0.0
 11
-413.6477438660704
 21
-625.3499999999999
 31
0.0
  0
ARC
  5
3CA
  8
DATA
  6
CONTINUOUS
 62
     7
 10
-413.8977438660704
 20
-388.5
 30
0.0
 40
13.85225613392986
 50
88.96589245511655
 51
271.0341075448835
  0
ARC
  5
3CB
  8
DATA
  6
CONTINUOUS
 62
     7
 10
-386.1022561339296
 20
-388.5
 30
0.0
 40
13.85225613392986
 50
268.9658924551166
 51
91.03410754488345
  0
LINE
  5
3CC
  8
DATA
  6
CONTINUOUS
 62
     7
 10
-386.3522561339296
 20
-374.6500000000001
 30
0.0
 11
-413.6477438660704
 21
-374.6500000000001
 31
0.0
  0
POLYLINE
  5
3CD
  8
DATA
  6
CONTINUOUS
 62
     7
 66
     1
 10
0.0
 20
0.0
 30
0.0
 70
     1
  0
VERTEX
  5
5F1
  8
DATA
  6
CONTINUOUS
 62
     7
 10
-438.8562499999998
 20
-628.75
 30
0.0
  0
VERTEX
  5
5F2
  8
DATA
  6
CONTINUOUS
 62
     7
 10
-361.1437500000002
 20
-628.75
 30
0.0
  0
VERTEX
  5
5F3
  8
DATA
  6
CONTINUOUS
 62
     7
 10
-361.1437500000002
 20
-654.25
 30
0.0
  0
VERTEX
  5
5F4
  8
DATA
  6
CONTINUOUS
 62
     7
 10
-438.8562499999998
 20
-654.25
 30
0.0
  0
SEQEND
  5
60B
  8
DATA
  6
CONTINUOUS
 62
     7
  0
POLYLINE
  5
3D4
  8
DATA
  6
CONTINUOUS
 62
     7
 66
     1
 10
0.0
 20
0.0
 30
0.0
 70
     1
  0
VERTEX
  5
5F5
  8
DATA
  6
CONTINUOUS
 62
     7
 10
-438.8562499999998
 20
-345.75
 30
0.0
  0
VERTEX
  5
5F6
  8
DATA
  6
CONTINUOUS
 62
     7
 10
-361.1437500000002
 20
-345.75
 30
0.0
  0
VERTEX
  5
5F7
  8
DATA
  6
CONTINUOUS
 62
     7
 10
-361.1437500000002
 20
-371.25
 30
0.0
  0
VERTEX
  5
5F8
  8
DATA
  6
CONTINUOUS
 62
     7
 10
-438.8562499999998
 20
-371.25
 30
0.0
  0
SEQEND
  5
60C
  8
DATA
  6
CONTINUOUS
 62
     7
  0
LINE
  5
3DB
  8
DATA
  6
CONTINUOUS
 62
     7
 10
-438.8562499999998
 20
-250.0
 30
0.0
 11
-438.8562499999998
 21
-750.0
 31
0.0
  0
LINE
  5
3DC
  8
DATA
  6
CONTINUOUS
 62
     7
 10
-361.1437500000002
 20
-250.0
 30
0.0
 11
-361.1437500000002
 21
-750.0
 31
0.0
  0
LINE
  5
3DD
  8
DATA
  6
CONTINUOUS
 62
     7
 10
-407.1999999999998
 20
-625.5999999999999
 30
0.0
 11
-407.1999999999998
 21
-597.8999999999999
 31
0.0
  0
LINE
  5
3DE
  8
DATA
  6
CONTINUOUS
 62
     7
 10
-407.1999999999998
 20
-402.0999999999997
 30
0.0
 11
-407.1999999999998
 21
-374.4000000000003
 31
0.0
  0
LINE
  5
3DF
  8
DATA
  6
CONTINUOUS
 62
     7
 10
-392.8000000000002
 20
-374.4000000000005
 30
0.0
 11
-392.8000000000002
 21
-402.0999999999999
 31
0.0
  0
LINE
  5
3E0
  8
DATA
  6
CONTINUOUS
 62
     7
 10
-392.8000000000002
 20
-597.9000000000001
 30
0.0
 11
-392.8000000000002
 21
-625.5999999999999
 31
0.0
  0
LINE
  5
3E1
  8
DATA
  6
CONTINUOUS
 62
     7
 10
-409.8000000000002
 20
-625.5999999999999
 30
0.0
 11
-409.8000000000002
 21
-597.8999999999999
 31
0.0
  0
LINE
  5
3E2
  8
DATA
  6
CONTINUOUS
 62
     7
 10
-409.8000000000002
 20
-402.0999999999999
 30
0.0
 11
-409.8000000000002
 21
-374.4000000000005
 31
0.0
  0
LINE
  5
3E3
  8
DATA
  6
CONTINUOUS
 62
     7
 10
-390.1999999999998
 20
-625.5999999999999
 30
0.0
 11
-390.1999999999998
 21
-597.8999999999999
 31
0.0
  0
LINE
  5
3E4
  8
DATA
  6
CONTINUOUS
 62
     7
 10
-390.1999999999998
 20
-402.0999999999999
 30
0.0
 11
-390.1999999999998
 21
-374.4000000000005
 31
0.0
  0
LINE
  5
3E5
  8
DATA
  6
CONTINUOUS
 62
     7
 10
-396.1999999999998
 20
-402.0999999999999
 30
0.0
 11
-396.1999999999998
 21
-374.4000000000003
 31
0.0
  0
LINE
  5
3E6
  8
DATA
  6
CONTINUOUS
 62
     7
 10
-403.8000000000002
 20
-402.0999999999999
 30
0.0
 11
-403.8000000000002
 21
-374.4000000000003
 31
0.0
  0
LINE
  5
3E7
  8
DATA
  6
CONTINUOUS
 62
     7
 10
-396.1999999999998
 20
-625.5999999999997
 30
0.0
 11
-396.1999999999998
 21
-597.9000000000001
 31
0.0
  0
LINE
  5
3E8
  8
DATA
  6
CONTINUOUS
 62
     7
 10
-403.8000000000002
 20
-625.5999999999997
 30
0.0
 11
-403.8000000000002
 21
-597.9000000000001
 31
0.0
  0
LINE
  5
3E9
  8
DATA
  6
CONTINUOUS
 62
     7
 10
-443.75
 20
-402.5
 30
0.0
 11
-440.3999999999996
 21
-402.5
 31
0.0
  0
LINE
  5
3EA
  8
DATA
  6
CONTINUOUS
 62
     7
 10
-359.6000000000004
 20
-402.5
 30
0.0
 11
-356.25
 21
-402.5
 31
0.0
  0
LINE
  5
3EB
  8
DATA
  6
CONTINUOUS
 62
     7
 10
-356.25
 20
-597.5
 30
0.0
 11
-359.6000000000004
 21
-597.5
 31
0.0
  0
LINE
  5
3EC
  8
DATA
  6
CONTINUOUS
 62
     7
 10
-440.3999999999996
 20
-597.5
 30
0.0
 11
-443.75
 21
-597.5
 31
0.0
  0
LINE
  5
3ED
  8
DATA
  6
CONTINUOUS
 62
     7
 10
-443.75
 20
-420.5
 30
0.0
 11
-440.3999999999996
 21
-420.5
 31
0.0
  0
LINE
  5
3EE
  8
DATA
  6
CONTINUOUS
 62
     7
 10
-443.75
 20
-579.5
 30
0.0
 11
-440.3999999999996
 21
-579.5
 31
0.0
  0
LINE
  5
3EF
  8
DATA
  6
CONTINUOUS
 62
     7
 10
-359.6000000000004
 20
-579.5
 30
0.0
 11
-356.25
 21
-579.5
 31
0.0
  0
ARC
  5
3F0
  8
DATA
  6
CONTINUOUS
 62
     7
 10
-443.75
 20
-411.5
 30
0.0
 40
9.0
 50
90.0
 51
270.0
  0
ARC
  5
3F1
  8
DATA
  6
CONTINUOUS
 62
     7
 10
-356.25
 20
-411.5
 30
0.0
 40
9.0
 50
270.0
 51
90.0
  0
ARC
  5
3F2
  8
DATA
  6
CONTINUOUS
 62
     7
 10
-443.75
 20
-588.5
 30
0.0
 40
9.0
 50
90.0
 51
270.0
  0
ARC
  5
3F3
  8
DATA
  6
CONTINUOUS
 62
     7
 10
-356.25
 20
-588.5
 30
0.0
 40
9.0
 50
270.0
 51
90.0
  0
CIRCLE
  5
3F4
  8
DATA
  6
CONTINUOUS
 62
     7
 10
-444.0
 20
-411.5
 30
0.0
 40
3.150000000000546
  0
CIRCLE
  5
3F5
  8
DATA
  6
CONTINUOUS
 62
     7
 10
-356.0
 20
-411.5
 30
0.0
 40
3.150000000000546
  0
CIRCLE
  5
3F6
  8
DATA
  6
CONTINUOUS
 62
     7
 10
-444.0
 20
-588.5
 30
0.0
 40
3.150000000000546
  0
CIRCLE
  5
3F7
  8
DATA
  6
CONTINUOUS
 62
     7
 10
-356.0
 20
-588.5
 30
0.0
 40
3.150000000000546
  0
LINE
  5
3F8
  8
DATA
  6
CONTINUOUS
 62
     7
 10
131.3000000000002
 20
-601.0000000000001
 30
0.0
 11
131.3000000000002
 21
-597.5000000000001
 31
0.0
  0
LINE
  5
3F9
  8
DATA
  6
CONTINUOUS
 62
     7
 10
131.3000000000002
 20
-402.5000000000001
 30
0.0
 11
131.3000000000002
 21
-399.0000000000001
 31
0.0
  0
LINE
  5
3FA
  8
DATA
  6
CONTINUOUS
 62
     7
 10
168.6999999999998
 20
-601.0000000000001
 30
0.0
 11
131.3000000000002
 21
-601.0000000000001
 31
0.0
  0
LINE
  5
3FB
  8
DATA
  6
CONTINUOUS
 62
     7
 10
168.6999999999998
 20
-399.0000000000001
 30
0.0
 11
168.6999999999998
 21
-402.5000000000001
 31
0.0
  0
LINE
  5
3FC
  8
DATA
  6
CONTINUOUS
 62
     7
 10
168.6999999999998
 20
-597.5000000000001
 30
0.0
 11
168.6999999999998
 21
-601.0000000000001
 31
0.0
  0
LINE
  5
3FD
  8
DATA
  6
CONTINUOUS
 62
     7
 10
129.25
 20
-591.7500000000001
 30
0.0
 11
129.25
 21
-408.2500000000001
 31
0.0
  0
LINE
  5
3FE
  8
DATA
  6
CONTINUOUS
 62
     7
 10
170.75
 20
-591.7500000000001
 30
0.0
 11
160.25
 21
-591.7500000000001
 31
0.0
  0
LINE
  5
3FF
  8
DATA
  6
CONTINUOUS
 62
     7
 10
139.75
 20
-591.7500000000001
 30
0.0
 11
129.25
 21
-591.7500000000001
 31
0.0
  0
LINE
  5
400
  8
DATA
  6
CONTINUOUS
 62
     7
 10
170.75
 20
-408.2500000000001
 30
0.0
 11
170.75
 21
-591.7500000000001
 31
0.0
  0
LINE
  5
401
  8
DATA
  6
CONTINUOUS
 62
     7
 10
129.25
 20
-408.2500000000001
 30
0.0
 11
139.75
 21
-408.2500000000001
 31
0.0
  0
LINE
  5
402
  8
DATA
  6
CONTINUOUS
 62
     7
 10
160.25
 20
-408.2500000000001
 30
0.0
 11
170.75
 21
-408.2500000000001
 31
0.0
  0
LINE
  5
403
  8
DATA
  6
CONTINUOUS
 62
     7
 10
160.6500000000005
 20
-408.2499999999999
 30
0.0
 11
160.6500000000005
 21
-591.7499999999997
 31
0.0
  0
LINE
  5
404
  8
DATA
  6
CONTINUOUS
 62
     7
 10
139.3499999999995
 20
-408.2499999999999
 30
0.0
 11
139.3499999999995
 21
-591.7499999999997
 31
0.0
  0
LINE
  5
405
  8
DATA
  6
CONTINUOUS
 62
     7
 10
136.75
 20
-408.2499999999999
 30
0.0
 11
136.75
 21
-591.7499999999997
 31
0.0
  0
LINE
  5
406
  8
DATA
  6
CONTINUOUS
 62
     7
 10
163.25
 20
-408.2499999999999
 30
0.0
 11
163.25
 21
-591.7499999999997
 31
0.0
  0
LINE
  5
407
  8
DATA
  6
CONTINUOUS
 62
     7
 10
168.6999999999998
 20
-598.3999999999997
 30
0.0
 11
131.3000000000002
 21
-598.3999999999997
 31
0.0
  0
LINE
  5
408
  8
DATA
  6
CONTINUOUS
 62
     7
 10
131.3000000000002
 20
-401.6
 30
0.0
 11
168.6999999999998
 21
-401.6
 31
0.0
  0
LINE
  5
409
  8
DATA
  6
CONTINUOUS
 62
     7
 10
160.25
 20
-595.8000000000003
 30
0.0
 11
139.75
 21
-595.8000000000003
 31
0.0
  0
LINE
  5
40A
  8
DATA
  6
CONTINUOUS
 62
     7
 10
139.75
 20
-591.7500000000001
 30
0.0
 11
139.75
 21
-598.3999999999997
 31
0.0
  0
LINE
  5
40B
  8
DATA
  6
CONTINUOUS
 62
     7
 10
160.25
 20
-591.7500000000001
 30
0.0
 11
160.25
 21
-598.3999999999997
 31
0.0
  0
LINE
  5
40C
  8
DATA
  6
CONTINUOUS
 62
     7
 10
160.25
 20
-404.2000000000002
 30
0.0
 11
139.75
 21
-404.2000000000002
 31
0.0
  0
LINE
  5
40D
  8
DATA
  6
CONTINUOUS
 62
     7
 10
139.75
 20
-408.2500000000001
 30
0.0
 11
139.75
 21
-401.6000000000003
 31
0.0
  0
LINE
  5
40E
  8
DATA
  6
CONTINUOUS
 62
     7
 10
160.25
 20
-408.2500000000001
 30
0.0
 11
160.25
 21
-401.6000000000003
 31
0.0
  0
LINE
  5
40F
  8
DATA
  6
CONTINUOUS
 62
     7
 10
106.25
 20
-402.5000000000001
 30
0.0
 11
131.3000000000002
 21
-402.5000000000001
 31
0.0
  0
LINE
  5
410
  8
DATA
  6
CONTINUOUS
 62
     7
 10
168.6999999999998
 20
-402.5000000000001
 30
0.0
 11
193.75
 21
-402.5000000000001
 31
0.0
  0
LINE
  5
411
  8
DATA
  6
CONTINUOUS
 62
     7
 10
193.75
 20
-597.5000000000001
 30
0.0
 11
168.6999999999998
 21
-597.5000000000001
 31
0.0
  0
LINE
  5
412
  8
DATA
  6
CONTINUOUS
 62
     7
 10
131.3000000000002
 20
-597.5000000000001
 30
0.0
 11
106.25
 21
-597.5000000000001
 31
0.0
  0
LINE
  5
413
  8
DATA
  6
CONTINUOUS
 62
     7
 10
168.6999999999998
 20
-399.0000000000001
 30
0.0
 11
131.3000000000002
 21
-399.0000000000001
 31
0.0
  0
LINE
  5
414
  8
DATA
  6
CONTINUOUS
 62
     7
 10
123.4000000000005
 20
-597.5000000000001
 30
0.0
 11
123.4000000000005
 21
-402.5000000000001
 31
0.0
  0
LINE
  5
415
  8
DATA
  6
CONTINUOUS
 62
     7
 10
176.5999999999995
 20
-402.5000000000001
 30
0.0
 11
176.5999999999995
 21
-597.5000000000001
 31
0.0
  0
LINE
  5
416
  8
DATA
  6
CONTINUOUS
 62
     7
 10
106.25
 20
-420.5000000000001
 30
0.0
 11
123.4000000000005
 21
-420.5000000000001
 31
0.0
  0
LINE
  5
417
  8
DATA
  6
CONTINUOUS
 62
     7
 10
176.5999999999995
 20
-420.5000000000001
 30
0.0
 11
193.75
 21
-420.5000000000001
 31
0.0
  0
LINE
  5
418
  8
DATA
  6
CONTINUOUS
 62
     7
 10
106.25
 20
-579.5000000000001
 30
0.0
 11
123.4000000000005
 21
-579.5000000000001
 31
0.0
  0
LINE
  5
419
  8
DATA
  6
CONTINUOUS
 62
     7
 10
176.5999999999995
 20
-579.5000000000001
 30
0.0
 11
193.75
 21
-579.5000000000001
 31
0.0
  0
ARC
  5
41A
  8
DATA
  6
CONTINUOUS
 62
     7
 10
106.25
 20
-411.5000000000001
 30
0.0
 40
9.0
 50
90.0
 51
270.0
  0
ARC
  5
41B
  8
DATA
  6
CONTINUOUS
 62
     7
 10
193.75
 20
-411.5000000000001
 30
0.0
 40
9.0
 50
270.0
 51
90.0
  0
ARC
  5
41C
  8
DATA
  6
CONTINUOUS
 62
     7
 10
106.25
 20
-588.5000000000001
 30
0.0
 40
9.0
 50
90.0
 51
270.0
  0
ARC
  5
41D
  8
DATA
  6
CONTINUOUS
 62
     7
 10
193.75
 20
-588.5000000000001
 30
0.0
 40
9.0
 50
270.0
 51
90.0
  0
CIRCLE
  5
41E
  8
DATA
  6
CONTINUOUS
 62
     7
 10
106.0
 20
-411.5000000000001
 30
0.0
 40
3.150000000000546
  0
CIRCLE
  5
41F
  8
DATA
  6
CONTINUOUS
 62
     7
 10
194.0
 20
-411.5000000000001
 30
0.0
 40
3.150000000000546
  0
CIRCLE
  5
420
  8
DATA
  6
CONTINUOUS
 62
     7
 10
106.0
 20
-588.5000000000001
 30
0.0
 40
3.150000000000546
  0
CIRCLE
  5
421
  8
DATA
  6
CONTINUOUS
 62
     7
 10
194.0
 20
-588.5000000000001
 30
0.0
 40
3.150000000000546
  0
LINE
  5
422
  8
DATA
  6
CONTINUOUS
 62
     7
 10
170.0
 20
-402.5000000000001
 30
0.0
 11
170.0
 21
-408.2500000000001
 31
0.0
  0
LINE
  5
423
  8
DATA
  6
CONTINUOUS
 62
     7
 10
130.0
 20
-402.5000000000001
 30
0.0
 11
130.0
 21
-408.2500000000001
 31
0.0
  0
LINE
  5
424
  8
DATA
  6
CONTINUOUS
 62
     7
 10
170.0
 20
-597.5000000000001
 30
0.0
 11
170.0
 21
-591.7500000000001
 31
0.0
  0
LINE
  5
425
  8
DATA
  6
CONTINUOUS
 62
     7
 10
130.0
 20
-597.5000000000001
 30
0.0
 11
130.0
 21
-591.7500000000001
 31
0.0
  0
ARC
  5
426
  8
DATA
  6
CONTINUOUS
 62
     7
 10
138.9599143773039
 20
-355.5084523585783
 30
0.0
 40
2.449631098692442
 50
100.5462097144007
 51
113.6422634233096
  0
ARC
  5
427
  8
DATA
  6
CONTINUOUS
 62
     7
 10
138.1835267540673
 20
-353.707190345837
 30
0.0
 40
0.4883301647560742
 50
114.9479830502538
 51
135.4191742210909
  0
ARC
  5
428
  8
DATA
  6
CONTINUOUS
 62
     7
 10
137.9320503436165
 20
-353.4548627917841
 30
0.0
 40
0.1321398501330558
 50
136.8103306613762
 51
177.891019469615
  0
LINE
  5
429
  8
DATA
  6
CONTINUOUS
 62
     7
 10
142.8000000000002
 20
-653.25
 30
0.0
 11
142.8000000000002
 21
-601.0000000000002
 31
0.0
  0
LINE
  5
42A
  8
DATA
  6
CONTINUOUS
 62
     7
 10
142.8000000000002
 20
-399.0000000000001
 30
0.0
 11
142.8000000000002
 21
-346.75
 31
0.0
  0
LINE
  5
42B
  8
DATA
  6
CONTINUOUS
 62
     7
 10
157.1999999999998
 20
-346.75
 30
0.0
 11
157.1999999999998
 21
-399.0000000000001
 31
0.0
  0
LINE
  5
42C
  8
DATA
  6
CONTINUOUS
 62
     7
 10
157.1999999999998
 20
-601.0000000000001
 30
0.0
 11
157.1999999999998
 21
-653.25
 31
0.0
  0
ARC
  5
42D
  8
DATA
  6
CONTINUOUS
 62
     7
 10
122.1999999999998
 20
-358.45
 30
0.0
 40
11.70000000000005
 50
90.0
 51
270.0
  0
ARC
  5
42E
  8
DATA
  6
CONTINUOUS
 62
     7
 10
177.8000000000002
 20
-358.45
 30
0.0
 40
11.70000000000005
 50
270.0
 51
90.0
  0
ARC
  5
42F
  8
DATA
  6
CONTINUOUS
 62
     7
 10
122.1999999999998
 20
-641.5500000000002
 30
0.0
 40
11.70000000000027
 50
90.0
 51
270.0
  0
ARC
  5
430
  8
DATA
  6
CONTINUOUS
 62
     7
 10
177.8000000000002
 20
-641.5500000000002
 30
0.0
 40
11.69999999999982
 50
270.0
 51
90.0
  0
LINE
  5
431
  8
DATA
  6
CONTINUOUS
 62
     7
 10
142.8000000000002
 20
-629.8499999999999
 30
0.0
 11
122.1999999999998
 21
-629.8499999999999
 31
0.0
  0
LINE
  5
432
  8
DATA
  6
CONTINUOUS
 62
     7
 10
122.1999999999998
 20
-653.25
 30
0.0
 11
142.8000000000002
 21
-653.25
 31
0.0
  0
LINE
  5
433
  8
DATA
  6
CONTINUOUS
 62
     7
 10
157.1999999999998
 20
-653.25
 30
0.0
 11
177.8000000000002
 21
-653.25
 31
0.0
  0
LINE
  5
434
  8
DATA
  6
CONTINUOUS
 62
     7
 10
177.8000000000002
 20
-629.8499999999999
 30
0.0
 11
157.1999999999998
 21
-629.8499999999999
 31
0.0
  0
LINE
  5
435
  8
DATA
  6
CONTINUOUS
 62
     7
 10
142.8000000000002
 20
-346.75
 30
0.0
 11
122.1999999999998
 21
-346.75
 31
0.0
  0
LINE
  5
436
  8
DATA
  6
CONTINUOUS
 62
     7
 10
122.1999999999998
 20
-370.1500000000001
 30
0.0
 11
142.8000000000002
 21
-370.1500000000001
 31
0.0
  0
LINE
  5
437
  8
DATA
  6
CONTINUOUS
 62
     7
 10
157.1999999999998
 20
-370.1500000000001
 30
0.0
 11
177.8000000000002
 21
-370.1500000000001
 31
0.0
  0
LINE
  5
438
  8
DATA
  6
CONTINUOUS
 62
     7
 10
177.8000000000002
 20
-346.75
 30
0.0
 11
157.1999999999998
 21
-346.75
 31
0.0
  0
CIRCLE
  5
439
  8
DATA
  6
CONTINUOUS
 62
     7
 10
122.0
 20
-641.5
 30
0.0
 40
3.550000000000182
  0
CIRCLE
  5
43A
  8
DATA
  6
CONTINUOUS
 62
     7
 10
178.0
 20
-641.5
 30
0.0
 40
3.550000000000182
  0
CIRCLE
  5
43B
  8
DATA
  6
CONTINUOUS
 62
     7
 10
122.0
 20
-358.5
 30
0.0
 40
3.550000000000182
  0
CIRCLE
  5
43C
  8
DATA
  6
CONTINUOUS
 62
     7
 10
178.0
 20
-358.5
 30
0.0
 40
3.550000000000182
  0
ARC
  5
43D
  8
DATA
  6
CONTINUOUS
 62
     7
 10
140.2375058192329
 20
-362.9283922671284
 30
0.0
 40
9.978587964201987
 50
89.64116403816983
 51
99.96023913810536
  0
LINE
  5
43E
  8
DATA
  6
CONTINUOUS
 62
     7
 10
142.8000000000002
 20
-352.95
 30
0.0
 11
140.3000000000002
 21
-352.95
 31
0.0
  0
LINE
  5
43F
  8
DATA
  6
CONTINUOUS
 62
     7
 10
140.3000000000002
 20
-353.95
 30
0.0
 11
142.8000000000002
 21
-353.95
 31
0.0
  0
ARC
  5
440
  8
DATA
  6
CONTINUOUS
 62
     7
 10
138.9599143773039
 20
-351.3915476414218
 30
0.0
 40
2.449631098692628
 50
246.3577365766904
 51
259.4537902855993
  0
ARC
  5
441
  8
DATA
  6
CONTINUOUS
 62
     7
 10
138.1835267540673
 20
-353.1928096541631
 30
0.0
 40
0.4883301647561001
 50
224.5808257789091
 51
245.0520169497462
  0
ARC
  5
442
  8
DATA
  6
CONTINUOUS
 62
     7
 10
137.9320503436165
 20
-353.445137208216
 30
0.0
 40
0.1321398501328522
 50
182.108980530385
 51
223.1896693386239
  0
ARC
  5
443
  8
DATA
  6
CONTINUOUS
 62
     7
 10
140.2375058192329
 20
-343.9716077328717
 30
0.0
 40
9.978587964202033
 50
260.0397608618946
 51
270.3588359618301
  0
ARC
  5
444
  8
DATA
  6
CONTINUOUS
 62
     7
 10
138.9599143773039
 20
-365.5084523585783
 30
0.0
 40
2.449631098692442
 50
100.5462097144007
 51
113.6422634233096
  0
ARC
  5
445
  8
DATA
  6
CONTINUOUS
 62
     7
 10
138.1835267540673
 20
-363.707190345837
 30
0.0
 40
0.4883301647560742
 50
114.9479830502538
 51
135.4191742210909
  0
ARC
  5
446
  8
DATA
  6
CONTINUOUS
 62
     7
 10
137.9320503436165
 20
-363.4548627917841
 30
0.0
 40
0.1321398501330558
 50
136.8103306613762
 51
177.891019469615
  0
ARC
  5
447
  8
DATA
  6
CONTINUOUS
 62
     7
 10
140.2375058192329
 20
-372.9283922671284
 30
0.0
 40
9.978587964201987
 50
89.64116403816983
 51
99.96023913810536
  0
LINE
  5
448
  8
DATA
  6
CONTINUOUS
 62
     7
 10
142.8000000000002
 20
-362.95
 30
0.0
 11
140.3000000000002
 21
-362.95
 31
0.0
  0
LINE
  5
449
  8
DATA
  6
CONTINUOUS
 62
     7
 10
140.3000000000002
 20
-363.95
 30
0.0
 11
142.8000000000002
 21
-363.95
 31
0.0
  0
ARC
  5
44A
  8
DATA
  6
CONTINUOUS
 62
     7
 10
138.9599143773039
 20
-361.3915476414218
 30
0.0
 40
2.449631098692628
 50
246.3577365766904
 51
259.4537902855993
  0
ARC
  5
44B
  8
DATA
  6
CONTINUOUS
 62
     7
 10
138.1835267540673
 20
-363.1928096541631
 30
0.0
 40
0.4883301647561001
 50
224.5808257789091
 51
245.0520169497462
  0
ARC
  5
44C
  8
DATA
  6
CONTINUOUS
 62
     7
 10
137.9320503436165
 20
-363.445137208216
 30
0.0
 40
0.1321398501328522
 50
182.108980530385
 51
223.1896693386239
  0
ARC
  5
44D
  8
DATA
  6
CONTINUOUS
 62
     7
 10
140.2375058192329
 20
-353.9716077328717
 30
0.0
 40
9.978587964202033
 50
260.0397608618946
 51
270.3588359618301
  0
ARC
  5
44E
  8
DATA
  6
CONTINUOUS
 62
     7
 10
161.0400856226961
 20
-355.5084523585783
 30
0.0
 40
2.449631098692628
 50
66.35773657669039
 51
79.45379028557839
  0
ARC
  5
44F
  8
DATA
  6
CONTINUOUS
 62
     7
 10
161.8164732459336
 20
-353.707190345837
 30
0.0
 40
0.4883301647554523
 50
44.58082577898401
 51
65.05201694984298
  0
ARC
  5
450
  8
DATA
  6
CONTINUOUS
 62
     7
 10
162.0679496563835
 20
-353.4548627917841
 30
0.0
 40
0.1321398501328522
 50
2.108980530385048
 51
43.1896693386239
  0
ARC
  5
451
  8
DATA
  6
CONTINUOUS
 62
     7
 10
159.7624941807671
 20
-362.9283922671284
 30
0.0
 40
9.97858796420219
 50
80.03976086188952
 51
90.35883596183017
  0
LINE
  5
452
  8
DATA
  6
CONTINUOUS
 62
     7
 10
157.1999999999998
 20
-352.95
 30
0.0
 11
159.6999999999998
 21
-352.95
 31
0.0
  0
LINE
  5
453
  8
DATA
  6
CONTINUOUS
 62
     7
 10
159.6999999999998
 20
-353.95
 30
0.0
 11
157.1999999999998
 21
-353.95
 31
0.0
  0
ARC
  5
454
  8
DATA
  6
CONTINUOUS
 62
     7
 10
161.0400856226961
 20
-351.3915476414218
 30
0.0
 40
2.449631098692608
 50
280.5462097144217
 51
293.6422634233096
  0
ARC
  5
455
  8
DATA
  6
CONTINUOUS
 62
     7
 10
161.8164732459336
 20
-353.1928096541631
 30
0.0
 40
0.4883301647556906
 50
294.947983050157
 51
315.419174221016
  0
ARC
  5
456
  8
DATA
  6
CONTINUOUS
 62
     7
 10
162.0679496563835
 20
-353.445137208216
 30
0.0
 40
0.1321398501330558
 50
316.8103306613761
 51
357.8910194696149
  0
ARC
  5
457
  8
DATA
  6
CONTINUOUS
 62
     7
 10
159.7624941807671
 20
-343.9716077328717
 30
0.0
 40
9.978587964201987
 50
269.6411640381698
 51
279.9602391381105
  0
ARC
  5
458
  8
DATA
  6
CONTINUOUS
 62
     7
 10
161.0400856226961
 20
-365.5084523585783
 30
0.0
 40
2.449631098692628
 50
66.35773657669039
 51
79.45379028557839
  0
ARC
  5
459
  8
DATA
  6
CONTINUOUS
 62
     7
 10
161.8164732459336
 20
-363.707190345837
 30
0.0
 40
0.4883301647554523
 50
44.58082577898401
 51
65.05201694984298
  0
ARC
  5
45A
  8
DATA
  6
CONTINUOUS
 62
     7
 10
162.0679496563835
 20
-363.4548627917841
 30
0.0
 40
0.1321398501328522
 50
2.108980530385048
 51
43.1896693386239
  0
ARC
  5
45B
  8
DATA
  6
CONTINUOUS
 62
     7
 10
159.7624941807671
 20
-372.9283922671284
 30
0.0
 40
9.97858796420219
 50
80.03976086188952
 51
90.35883596183017
  0
LINE
  5
45C
  8
DATA
  6
CONTINUOUS
 62
     7
 10
157.1999999999998
 20
-362.95
 30
0.0
 11
159.6999999999998
 21
-362.95
 31
0.0
  0
LINE
  5
45D
  8
DATA
  6
CONTINUOUS
 62
     7
 10
159.6999999999998
 20
-363.95
 30
0.0
 11
157.1999999999998
 21
-363.95
 31
0.0
  0
ARC
  5
45E
  8
DATA
  6
CONTINUOUS
 62
     7
 10
161.0400856226961
 20
-361.3915476414218
 30
0.0
 40
2.449631098692608
 50
280.5462097144217
 51
293.6422634233096
  0
ARC
  5
45F
  8
DATA
  6
CONTINUOUS
 62
     7
 10
161.8164732459336
 20
-363.1928096541631
 30
0.0
 40
0.4883301647556906
 50
294.947983050157
 51
315.419174221016
  0
ARC
  5
460
  8
DATA
  6
CONTINUOUS
 62
     7
 10
162.0679496563835
 20
-363.445137208216
 30
0.0
 40
0.1321398501330558
 50
316.8103306613761
 51
357.8910194696149
  0
ARC
  5
461
  8
DATA
  6
CONTINUOUS
 62
     7
 10
159.7624941807671
 20
-353.9716077328717
 30
0.0
 40
9.978587964201987
 50
269.6411640381698
 51
279.9602391381105
  0
ARC
  5
462
  8
DATA
  6
CONTINUOUS
 62
     7
 10
138.9599143773039
 20
-644.4915476414217
 30
0.0
 40
2.449631098692628
 50
246.3577365766904
 51
259.4537902855993
  0
ARC
  5
463
  8
DATA
  6
CONTINUOUS
 62
     7
 10
138.1835267540673
 20
-646.2928096541627
 30
0.0
 40
0.4883301647561001
 50
224.5808257789091
 51
245.0520169497575
  0
ARC
  5
464
  8
DATA
  6
CONTINUOUS
 62
     7
 10
137.9320503436165
 20
-646.5451372082161
 30
0.0
 40
0.1321398501328522
 50
182.108980530385
 51
223.1896693384801
  0
ARC
  5
465
  8
DATA
  6
CONTINUOUS
 62
     7
 10
140.2375058192329
 20
-637.0716077328716
 30
0.0
 40
9.978587964202033
 50
260.0397608618946
 51
270.3588359618301
  0
LINE
  5
466
  8
DATA
  6
CONTINUOUS
 62
     7
 10
142.8000000000002
 20
-647.0500000000002
 30
0.0
 11
140.3000000000002
 21
-647.0500000000002
 31
0.0
  0
LINE
  5
467
  8
DATA
  6
CONTINUOUS
 62
     7
 10
140.3000000000002
 20
-646.0500000000002
 30
0.0
 11
142.8000000000002
 21
-646.0500000000002
 31
0.0
  0
ARC
  5
468
  8
DATA
  6
CONTINUOUS
 62
     7
 10
138.9599143773039
 20
-648.6084523585782
 30
0.0
 40
2.449631098692442
 50
100.5462097144007
 51
113.6422634233096
  0
ARC
  5
469
  8
DATA
  6
CONTINUOUS
 62
     7
 10
138.1835267540673
 20
-646.8071903458367
 30
0.0
 40
0.488330164755868
 50
114.947983050265
 51
135.4191742210909
  0
ARC
  5
46A
  8
DATA
  6
CONTINUOUS
 62
     7
 10
137.9320503436165
 20
-646.5548627917842
 30
0.0
 40
0.1321398501333671
 50
136.8103306612324
 51
177.8910194696149
  0
ARC
  5
46B
  8
DATA
  6
CONTINUOUS
 62
     7
 10
140.2375058192329
 20
-656.0283922671283
 30
0.0
 40
9.97858796420176
 50
89.64116403816983
 51
99.96023913810536
  0
ARC
  5
46C
  8
DATA
  6
CONTINUOUS
 62
     7
 10
138.9599143773039
 20
-634.4915476414217
 30
0.0
 40
2.449631098692628
 50
246.3577365766904
 51
259.4537902855993
  0
ARC
  5
46D
  8
DATA
  6
CONTINUOUS
 62
     7
 10
138.1835267540673
 20
-636.2928096541627
 30
0.0
 40
0.4883301647561001
 50
224.5808257789091
 51
245.0520169497575
  0
ARC
  5
46E
  8
DATA
  6
CONTINUOUS
 62
     7
 10
137.9320503436165
 20
-636.5451372082161
 30
0.0
 40
0.1321398501328522
 50
182.108980530385
 51
223.1896693384801
  0
ARC
  5
46F
  8
DATA
  6
CONTINUOUS
 62
     7
 10
140.2375058192329
 20
-627.0716077328716
 30
0.0
 40
9.978587964202033
 50
260.0397608618946
 51
270.3588359618301
  0
LINE
  5
470
  8
DATA
  6
CONTINUOUS
 62
     7
 10
142.8000000000002
 20
-637.0500000000002
 30
0.0
 11
140.3000000000002
 21
-637.0500000000002
 31
0.0
  0
LINE
  5
471
  8
DATA
  6
CONTINUOUS
 62
     7
 10
140.3000000000002
 20
-636.0500000000002
 30
0.0
 11
142.8000000000002
 21
-636.0500000000002
 31
0.0
  0
ARC
  5
472
  8
DATA
  6
CONTINUOUS
 62
     7
 10
138.9599143773039
 20
-638.6084523585782
 30
0.0
 40
2.449631098692442
 50
100.5462097144007
 51
113.6422634233096
  0
ARC
  5
473
  8
DATA
  6
CONTINUOUS
 62
     7
 10
138.1835267540673
 20
-636.8071903458367
 30
0.0
 40
0.488330164755868
 50
114.947983050265
 51
135.4191742210909
  0
ARC
  5
474
  8
DATA
  6
CONTINUOUS
 62
     7
 10
137.9320503436165
 20
-636.5548627917842
 30
0.0
 40
0.1321398501333671
 50
136.8103306612324
 51
177.8910194696149
  0
ARC
  5
475
  8
DATA
  6
CONTINUOUS
 62
     7
 10
140.2375058192329
 20
-646.0283922671283
 30
0.0
 40
9.97858796420176
 50
89.64116403816983
 51
99.96023913810536
  0
ARC
  5
476
  8
DATA
  6
CONTINUOUS
 62
     7
 10
161.0400856226961
 20
-644.4915476414217
 30
0.0
 40
2.449631098692608
 50
280.5462097144217
 51
293.6422634233096
  0
ARC
  5
477
  8
DATA
  6
CONTINUOUS
 62
     7
 10
161.8164732459336
 20
-646.2928096541627
 30
0.0
 40
0.4883301647558967
 50
294.9479830501458
 51
315.419174221016
  0
ARC
  5
478
  8
DATA
  6
CONTINUOUS
 62
     7
 10
162.0679496563835
 20
-646.5451372082161
 30
0.0
 40
0.1321398501327446
 50
316.8103306615199
 51
357.8910194696149
  0
ARC
  5
479
  8
DATA
  6
CONTINUOUS
 62
     7
 10
159.7624941807671
 20
-637.0716077328716
 30
0.0
 40
9.978587964202214
 50
269.6411640381698
 51
279.9602391381105
  0
LINE
  5
47A
  8
DATA
  6
CONTINUOUS
 62
     7
 10
157.1999999999998
 20
-647.0500000000002
 30
0.0
 11
159.6999999999998
 21
-647.0500000000002
 31
0.0
  0
LINE
  5
47B
  8
DATA
  6
CONTINUOUS
 62
     7
 10
159.6999999999998
 20
-646.0500000000002
 30
0.0
 11
157.1999999999998
 21
-646.0500000000002
 31
0.0
  0
ARC
  5
47C
  8
DATA
  6
CONTINUOUS
 62
     7
 10
161.0400856226961
 20
-648.6084523585782
 30
0.0
 40
2.449631098692628
 50
66.35773657669039
 51
79.45379028557839
  0
ARC
  5
47D
  8
DATA
  6
CONTINUOUS
 62
     7
 10
161.8164732459336
 20
-646.8071903458367
 30
0.0
 40
0.4883301647554523
 50
44.58082577898401
 51
65.05201694983174
  0
ARC
  5
47E
  8
DATA
  6
CONTINUOUS
 62
     7
 10
162.0679496563835
 20
-646.5548627917842
 30
0.0
 40
0.1321398501328522
 50
2.108980530385048
 51
43.18966933876766
  0
ARC
  5
47F
  8
DATA
  6
CONTINUOUS
 62
     7
 10
159.7624941807671
 20
-656.0283922671283
 30
0.0
 40
9.97858796420219
 50
80.03976086188952
 51
90.35883596183018
  0
ARC
  5
480
  8
DATA
  6
CONTINUOUS
 62
     7
 10
161.0400856226961
 20
-634.4915476414217
 30
0.0
 40
2.449631098692608
 50
280.5462097144217
 51
293.6422634233096
  0
ARC
  5
481
  8
DATA
  6
CONTINUOUS
 62
     7
 10
161.8164732459336
 20
-636.2928096541627
 30
0.0
 40
0.4883301647558967
 50
294.9479830501458
 51
315.419174221016
  0
ARC
  5
482
  8
DATA
  6
CONTINUOUS
 62
     7
 10
162.0679496563835
 20
-636.5451372082161
 30
0.0
 40
0.1321398501327446
 50
316.8103306615199
 51
357.8910194696149
  0
ARC
  5
483
  8
DATA
  6
CONTINUOUS
 62
     7
 10
159.7624941807671
 20
-627.0716077328716
 30
0.0
 40
9.978587964202214
 50
269.6411640381698
 51
279.9602391381105
  0
LINE
  5
484
  8
DATA
  6
CONTINUOUS
 62
     7
 10
157.1999999999998
 20
-637.0500000000002
 30
0.0
 11
159.6999999999998
 21
-637.0500000000002
 31
0.0
  0
LINE
  5
485
  8
DATA
  6
CONTINUOUS
 62
     7
 10
159.6999999999998
 20
-636.0500000000002
 30
0.0
 11
157.1999999999998
 21
-636.0500000000002
 31
0.0
  0
ARC
  5
486
  8
DATA
  6
CONTINUOUS
 62
     7
 10
161.0400856226961
 20
-638.6084523585782
 30
0.0
 40
2.449631098692628
 50
66.35773657669039
 51
79.45379028557839
  0
ARC
  5
487
  8
DATA
  6
CONTINUOUS
 62
     7
 10
161.8164732459336
 20
-636.8071903458367
 30
0.0
 40
0.4883301647554523
 50
44.58082577898401
 51
65.05201694983174
  0
ARC
  5
488
  8
DATA
  6
CONTINUOUS
 62
     7
 10
162.0679496563835
 20
-636.5548627917842
 30
0.0
 40
0.1321398501328522
 50
2.108980530385048
 51
43.18966933876766
  0
ARC
  5
489
  8
DATA
  6
CONTINUOUS
 62
     7
 10
159.7624941807671
 20
-646.0283922671283
 30
0.0
 40
9.97858796420219
 50
80.03976086188952
 51
90.35883596183018
  0
LINE
  5
48A
  8
DATA
  6
CONTINUOUS
 62
     7
 10
140.1999999999998
 20
-629.8499999999999
 30
0.0
 11
140.1999999999998
 21
-601.0000000000002
 31
0.0
  0
LINE
  5
48B
  8
DATA
  6
CONTINUOUS
 62
     7
 10
140.1999999999998
 20
-399.0000000000001
 30
0.0
 11
140.1999999999998
 21
-370.1500000000001
 31
0.0
  0
LINE
  5
48C
  8
DATA
  6
CONTINUOUS
 62
     7
 10
159.8000000000002
 20
-629.8499999999999
 30
0.0
 11
159.8000000000002
 21
-601.0000000000002
 31
0.0
  0
LINE
  5
48D
  8
DATA
  6
CONTINUOUS
 62
     7
 10
159.8000000000002
 20
-399.0000000000001
 30
0.0
 11
159.8000000000002
 21
-370.1500000000001
 31
0.0
  0
LINE
  5
48E
  8
DATA
  6
CONTINUOUS
 62
     7
 10
153.8000000000002
 20
-399.0000000000001
 30
0.0
 11
153.8000000000002
 21
-358.45
 31
0.0
  0
ARC
  5
48F
  8
DATA
  6
CONTINUOUS
 62
     7
 10
158.5306250000003
 20
-366.0682999999997
 30
0.0
 40
8.967569781196012
 50
98.53316665222265
 51
121.8384393667126
  0
LINE
  5
490
  8
DATA
  6
CONTINUOUS
 62
     7
 10
146.1999999999998
 20
-399.0000000000001
 30
0.0
 11
146.1999999999998
 21
-358.45
 31
0.0
  0
ARC
  5
491
  8
DATA
  6
CONTINUOUS
 62
     7
 10
141.4693749999997
 20
-366.0682999999997
 30
0.0
 40
8.967569781196065
 50
58.16156063328737
 51
81.46683334777737
  0
LINE
  5
492
  8
DATA
  6
CONTINUOUS
 62
     7
 10
153.8000000000002
 20
-641.5500000000002
 30
0.0
 11
153.8000000000002
 21
-601.0000000000001
 31
0.0
  0
ARC
  5
493
  8
DATA
  6
CONTINUOUS
 62
     7
 10
158.5306250000003
 20
-633.9317000000001
 30
0.0
 40
8.96756978119645
 50
238.1615606332889
 51
261.4668333477778
  0
LINE
  5
494
  8
DATA
  6
CONTINUOUS
 62
     7
 10
146.1999999999998
 20
-641.5500000000002
 30
0.0
 11
146.1999999999998
 21
-601.0000000000001
 31
0.0
  0
ARC
  5
495
  8
DATA
  6
CONTINUOUS
 62
     7
 10
141.4693749999997
 20
-633.9317000000001
 30
0.0
 40
8.967569781196461
 50
278.5331666522222
 51
301.8384393667111
  0
POLYLINE
  5
496
  8
DATA
  6
CONTINUOUS
 62
     7
 66
     1
 10
0.0
 20
0.0
 30
0.0
  0
VERTEX
  5
5F9
  8
DATA
  6
CONTINUOUS
 62
     7
 10
109.6000000000004
 20
-579.5000000000003
 30
0.0
  0
VERTEX
  5
5FA
  8
DATA
  6
CONTINUOUS
 62
     7
 10
109.6000000000004
 20
-420.5000000000001
 30
0.0
  0
SEQEND
  5
60D
  8
DATA
  6
CONTINUOUS
 62
     7
  0
LINE
  5
49B
  8
DATA
  6
CONTINUOUS
 62
     7
 10
190.3999999999996
 20
-250.0
 30
0.0
 11
190.3999999999996
 21
-402.5000000000001
 31
0.0
  0
LINE
  5
49C
  8
DATA
  6
CONTINUOUS
 62
     7
 10
109.6000000000004
 20
-250.0
 30
0.0
 11
190.3999999999996
 21
-250.0
 31
0.0
  0
LINE
  5
49D
  8
DATA
  6
CONTINUOUS
 62
     7
 10
109.6000000000004
 20
-402.5000000000001
 30
0.0
 11
109.6000000000004
 21
-250.0
 31
0.0
  0
POLYLINE
  5
49E
  8
DATA
  6
CONTINUOUS
 62
     7
 66
     1
 10
0.0
 20
0.0
 30
0.0
  0
VERTEX
  5
5FB
  8
DATA
  6
CONTINUOUS
 62
     7
 10
190.3999999999996
 20
-420.4999999999999
 30
0.0
  0
VERTEX
  5
5FC
  8
DATA
  6
CONTINUOUS
 62
     7
 10
190.3999999999996
 20
-579.5000000000001
 30
0.0
  0
SEQEND
  5
60E
  8
DATA
  6
CONTINUOUS
 62
     7
  0
LINE
  5
4A3
  8
DATA
  6
CONTINUOUS
 62
     7
 10
109.6000000000004
 20
-750.0
 30
0.0
 11
109.6000000000004
 21
-597.5000000000001
 31
0.0
  0
LINE
  5
4A4
  8
DATA
  6
CONTINUOUS
 62
     7
 10
190.3999999999996
 20
-750.0
 30
0.0
 11
109.6000000000004
 21
-750.0
 31
0.0
  0
LINE
  5
4A5
  8
DATA
  6
CONTINUOUS
 62
     7
 10
190.3999999999996
 20
-597.5000000000001
 30
0.0
 11
190.3999999999996
 21
-750.0
 31
0.0
  0
ARC
  5
4A6
  8
DATA
  6
CONTINUOUS
 62
     7
 10
136.1022561339305
 20
-611.5
 30
0.0
 40
13.85225613392982
 50
110.2841888677999
 51
271.0341075448835
  0
ARC
  5
4A7
  8
DATA
  6
CONTINUOUS
 62
     7
 10
163.8977438660713
 20
-611.5
 30
0.0
 40
13.85225613392986
 50
268.9658924551166
 51
69.71581113220822
  0
LINE
  5
4A8
  8
DATA
  6
CONTINUOUS
 62
     7
 10
163.6477438660713
 20
-625.3499999999999
 30
0.0
 11
159.8000000000002
 21
-625.3499999999999
 31
0.0
  0
LINE
  5
4A9
  8
DATA
  6
CONTINUOUS
 62
     7
 10
140.1999999999998
 20
-625.3499999999999
 30
0.0
 11
136.3522561339305
 21
-625.3499999999999
 31
0.0
  0
ARC
  5
4AA
  8
DATA
  6
CONTINUOUS
 62
     7
 10
136.1022561339305
 20
-388.5
 30
0.0
 40
13.85225613392986
 50
88.96589245511655
 51
249.9152577310673
  0
ARC
  5
4AB
  8
DATA
  6
CONTINUOUS
 62
     7
 10
163.8977438660713
 20
-388.5
 30
0.0
 40
13.85225613392988
 50
290.0847422689242
 51
91.03410754488345
  0
LINE
  5
4AC
  8
DATA
  6
CONTINUOUS
 62
     7
 10
163.6477438660713
 20
-374.6500000000001
 30
0.0
 11
159.8000000000002
 21
-374.6500000000001
 31
0.0
  0
LINE
  5
4AD
  8
DATA
  6
CONTINUOUS
 62
     7
 10
157.1999999999998
 20
-374.6500000000001
 30
0.0
 11
142.8000000000002
 21
-374.6500000000001
 31
0.0
  0
LINE
  5
4AE
  8
DATA
  6
CONTINUOUS
 62
     7
 10
140.1999999999998
 20
-374.6500000000001
 30
0.0
 11
136.3522561339305
 21
-374.6500000000001
 31
0.0
  0
TEXT
  5
4AF
  8
DATA
 62
     7
 10
-193.0737991898148
 20
-954.3803159629821
 30
0.0
 40
27.14735243055556
  1
取付金具
 41
0.7
 72
     1
 11
-150.0
 21
-940.8066397477043
 31
0.0
 73
     2
  0
LINE
  5
4B0
  8
DATA
  6
CONTINUOUS
 62
     7
 10
-225.0
 20
-975.0
 30
0.0
 11
-75.0
 21
-975.0
 31
0.0
  0
TEXT
  5
4B1
  8
DATA
 62
     7
 10
-443.7072374131944
 20
-920.9347873263889
 30
0.0
 40
27.14735243055556
  1
(本体側)
 41
0.7
 72
     1
 11
-400.0
 21
-907.3611111111111
 31
0.0
 73
     2
  0
TEXT
  5
4B2
  8
DATA
 62
     7
 10
117.6946506076389
 20
-920.9347873263889
 30
0.0
 40
27.14735243055556
  1
(壁側)
 41
0.7
 72
     1
 11
150.0
 21
-907.3611111111111
 31
0.0
 73
     2
  0
TEXT
  5
4B3
  8
DATA
 62
     7
 10
-88.56241161462694
 20
-151.9666215957911
 30
0.0
 40
27.14735243055556
  1
角度調整部拡大図
 41
0.7
 72
     1
 11
0.1189396585212137
 21
-138.3929453805133
 31
0.0
 73
     2
  0
TEXT
  5
4B4
  8
DATA
 62
     7
 10
103.5332255599185
 20
-88.71226108535558
 30
0.0
 40
23.75393337673611
  1
UP
 50
350.0
 41
0.7
 72
     1
 11
119.2415895380325
 21
-79.4218814336366
 31
0.0
 73
     2
  0
TEXT
  5
4B5
  8
DATA
 62
     7
 10
-149.6915774548674
 20
-96.89316845121785
 30
0.0
 40
23.75393337673611
  1
DOWN
 50
10.0
 41
0.7
 72
     1
 11
-119.0037102209901
 21
-79.4218814336366
 31
0.0
 73
     2
  0
CIRCLE
  5
4B6
  8
DATA
  6
CONTINUOUS
 62
     7
 10
0.1189396585212137
 20
50.0
 30
0.0
 40
22.25999999999567
  0
CIRCLE
  5
4B7
  8
DATA
  6
CONTINUOUS
 62
     7
 10
-70.04143325334391
 20
46.93673196385521
 30
0.0
 40
22.26000000000204
  0
CIRCLE
  5
4B8
  8
DATA
  6
CONTINUOUS
 62
     7
 10
-139.667843363359
 20
37.77024117482779
 30
0.0
 40
22.26000000000204
  0
CIRCLE
  5
4B9
  8
DATA
  6
CONTINUOUS
 62
     7
 10
-208.2303916490093
 20
22.5702901627003
 30
0.0
 40
22.26000000000204
  0
CIRCLE
  5
4BA
  8
DATA
  6
CONTINUOUS
 62
     7
 10
70.27931257038634
 20
46.93673196385521
 30
0.0
 40
22.26000000000204
  0
CIRCLE
  5
4BB
  8
DATA
  6
CONTINUOUS
 62
     7
 10
139.9057226804014
 20
37.77024117482779
 30
0.0
 40
22.26000000000204
  0
CIRCLE
  5
4BC
  8
DATA
  6
CONTINUOUS
 62
     7
 10
208.4682709660517
 20
22.5702901627003
 30
0.0
 40
22.26000000000204
  0
ARC
  5
4BD
  8
DATA
  6
CONTINUOUS
 62
     7
 10
0.1189396585212137
 20
-755.0
 30
0.0
 40
932.2250000000004
 50
75.14663426420856
 51
104.8533657357914
  0
ARC
  5
4BE
  8
DATA
  6
CONTINUOUS
 62
     7
 10
0.1189396585212137
 20
-755.0
 30
0.0
 40
887.7750000000008
 50
75.14663426420843
 51
104.8533657357916
  0
ARC
  5
4BF
  8
DATA
  6
CONTINUOUS
 62
     7
 10
-233.1560603414775
 20
124.5923910397371
 30
0.0
 40
22.22500000000094
 50
104.8533657357202
 51
284.8533657358576
  0
ARC
  5
4C0
  8
DATA
  6
CONTINUOUS
 62
     7
 10
233.3939396585199
 20
124.5923910397371
 30
0.0
 40
22.22499999999862
 50
255.1466342641424
 51
75.14663426427975
  0
TEXT
  5
4C1
  8
DATA
 62
     7
 10
4.310042414986603
 20
-45.87696668836806
 30
0.0
 40
23.75393337673611
  1
0°
 41
0.7
 72
     1
 11
14.00956521048718
 21
-34.0
 31
0.0
 73
     2
  0
TEXT
  5
4C2
  8
DATA
 62
     7
 10
-65.63513473259977
 20
-48.92096799273685
 30
0.0
 40
23.75393337673611
  1
-5°
 50
5.0
 41
0.7
 72
     1
 11
-47.34505422011827
 21
-35.39845852129292
 31
0.0
 73
     2
  0
TEXT
  5
4C3
  8
DATA
 62
     7
 10
-127.1100897563983
 20
-58.00054401680933
 30
0.0
 40
23.75393337673611
  1
-10°
 50
10.0
 41
0.7
 72
     1
 11
-105.9743877720486
 21
-42.21356145690561
 31
0.0
 73
     2
  0
TEXT
  5
4C4
  8
DATA
 62
     7
 10
-188.8722137513913
 20
-71.50184156513387
 30
0.0
 40
23.75393337673611
  1
-15°
 50
15.0
 41
0.7
 72
     1
 11
-167.8544343176229
 21
-53.57420383116869
 31
0.0
 73
     2
  0
TEXT
  5
4C5
  8
DATA
 62
     7
 10
62.4115703133446
 20
-48.6181309063775
 30
0.0
 40
23.75393337673611
  1
5°
 50
355.0
 41
0.7
 72
     1
 11
74.48970266139875
 21
-37.75249579177262
 31
0.0
 73
     2
  0
TEXT
  5
4C6
  8
DATA
 62
     7
 10
123.4458669583744
 20
-56.68346560506372
 30
0.0
 40
23.75393337673611
  1
10°
 50
350.0
 41
0.7
 72
     1
 11
140.5188259721351
 21
-47.63370087587009
 31
0.0
 73
     2
  0
TEXT
  5
4C7
  8
DATA
 62
     7
 10
182.5004356274806
 20
-69.73078919158408
 30
0.0
 40
23.75393337673611
  1
15°
 50
345.0
 41
0.7
 72
     1
 11
201.635597211656
 21
-62.56209957711144
 31
0.0
 73
     2
  0
ARC
  5
4C8
  8
DATA
  6
CONTINUOUS
 62
     7
 10
0.1189396585212137
 20
-754.9999999991851
 30
0.0
 40
685.9999999991855
 50
93.21726989368138
 51
97.07632225856528
  0
ARC
  5
4C9
  8
DATA
  6
CONTINUOUS
 62
     7
 10
0.1189396585212137
 20
-754.9999999991851
 30
0.0
 40
685.9999999991848
 50
102.9236777414601
 51
106.2967487856525
  0
ARC
  5
4CA
  8
DATA
  6
CONTINUOUS
 62
     7
 10
0.1189396585212137
 20
-754.9999999991851
 30
0.0
 40
685.9999999991855
 50
73.70325121434756
 51
78.53868990910513
  0
ARC
  5
4CB
  8
DATA
  6
CONTINUOUS
 62
     7
 10
0.1189396585212137
 20
-754.9999999991851
 30
0.0
 40
685.9999999991857
 50
81.46131009087158
 51
86.78273010631864
  0
ARC
  5
4CC
  8
DATA
  6
CONTINUOUS
 62
     7
 10
-250.8163850655086
 20
175.9517043484386
 30
0.0
 40
24.04874510757252
 50
90.3502964159263
 51
180.3460645981145
  0
LINE
  5
4CD
  8
DATA
  6
CONTINUOUS
 62
     7
 10
-274.8646915109075
 20
-150.8064516129035
 30
0.0
 11
-274.8646915109075
 21
175.8064516129028
 31
0.0
  0
ARC
  5
4CE
  8
DATA
  6
CONTINUOUS
 62
     7
 10
-250.8163850655102
 20
-150.9517043484408
 30
0.0
 40
24.04874510757101
 50
179.653935401882
 51
269.6497035840774
  0
LINE
  5
4CF
  8
DATA
  6
CONTINUOUS
 62
     7
 10
250.9634139882197
 20
-175.0000000000001
 30
0.0
 11
-250.9634139882197
 21
-175.0000000000001
 31
0.0
  0
ARC
  5
4D0
  8
DATA
  6
CONTINUOUS
 62
     7
 10
250.8163850655093
 20
-150.9517043484403
 30
0.0
 40
24.0487451075715
 50
270.3502964159246
 51
0.3460645981172092
  0
LINE
  5
4D1
  8
DATA
  6
CONTINUOUS
 62
     7
 10
274.8646915109072
 20
175.8064516129028
 30
0.0
 11
274.8646915109072
 21
-150.8064516129033
 31
0.0
  0
ARC
  5
4D2
  8
DATA
  6
CONTINUOUS
 62
     7
 10
250.81638506551
 20
175.9517043484403
 30
0.0
 40
24.04874510757078
 50
359.6539354018814
 51
89.64970358407703
  0
LINE
  5
4D3
  8
DATA
  6
CONTINUOUS
 62
     7
 10
-250.9634139882197
 20
199.9999999999994
 30
0.0
 11
250.9634139882197
 21
199.9999999999994
 31
0.0
  0
CIRCLE
  5
4D4
  8
DATA
  6
CONTINUOUS
 62
     7
 10
-172.0
 20
-445.75
 30
0.0
 40
6.0
  0
CIRCLE
  5
4D5
  8
DATA
  6
CONTINUOUS
 62
     7
 10
-172.0027676096169
 20
-430.7112341747993
 30
0.0
 40
6.0
  0
LINE
  5
4D6
  8
DATA
  6
CONTINUOUS
 62
     7
 10
-173.4461432825909
 20
-428.2112341747993
 30
0.0
 11
-170.5593919366428
 21
-428.2112341747993
 31
0.0
  0
LINE
  5
4D7
  8
DATA
  6
CONTINUOUS
 62
     7
 10
-174.889518955565
 20
-430.7112341747993
 30
0.0
 11
-173.4461432825909
 21
-428.2112341747993
 31
0.0
  0
LINE
  5
4D8
  8
DATA
  6
CONTINUOUS
 62
     7
 10
-169.1160162636687
 20
-430.7112341747993
 30
0.0
 11
-170.5593919366428
 21
-428.2112341747993
 31
0.0
  0
LINE
  5
4D9
  8
DATA
  6
CONTINUOUS
 62
     7
 10
-173.4461432825909
 20
-433.2112341747993
 30
0.0
 11
-170.5593919366428
 21
-433.2112341747993
 31
0.0
  0
LINE
  5
4DA
  8
DATA
  6
CONTINUOUS
 62
     7
 10
-174.889518955565
 20
-430.7112341747993
 30
0.0
 11
-173.4461432825909
 21
-433.2112341747993
 31
0.0
  0
LINE
  5
4DB
  8
DATA
  6
CONTINUOUS
 62
     7
 10
-169.1160162636687
 20
-430.7112341747993
 30
0.0
 11
-170.5593919366428
 21
-433.2112341747993
 31
0.0
  0
LINE
  5
4DC
  8
DATA
  6
CONTINUOUS
 62
     7
 10
-173.443375672974
 20
-443.25
 30
0.0
 11
-170.556624327026
 21
-443.25
 31
0.0
  0
LINE
  5
4DD
  8
DATA
  6
CONTINUOUS
 62
     7
 10
-174.8867513459481
 20
-445.75
 30
0.0
 11
-173.443375672974
 21
-443.25
 31
0.0
  0
LINE
  5
4DE
  8
DATA
  6
CONTINUOUS
 62
     7
 10
-169.1132486540519
 20
-445.75
 30
0.0
 11
-170.556624327026
 21
-443.25
 31
0.0
  0
LINE
  5
4DF
  8
DATA
  6
CONTINUOUS
 62
     7
 10
-173.4433756729741
 20
-448.25
 30
0.0
 11
-170.5566243270259
 21
-448.25
 31
0.0
  0
LINE
  5
4E0
  8
DATA
  6
CONTINUOUS
 62
     7
 10
-174.8867513459481
 20
-445.75
 30
0.0
 11
-173.4433756729741
 21
-448.25
 31
0.0
  0
LINE
  5
4E1
  8
DATA
  6
CONTINUOUS
 62
     7
 10
-169.1132486540519
 20
-445.75
 30
0.0
 11
-170.5566243270259
 21
-448.25
 31
0.0
  0
LINE
  5
4E2
  8
DATA
  6
CONTINUOUS
 62
     7
 10
-389.3499999999995
 20
-69.77099541343989
 30
0.0
 11
-389.3499999999995
 21
-138.9999999999997
 31
0.0
  0
LINE
  5
4E3
  8
DATA
  6
CONTINUOUS
 62
     7
 10
-410.6500000000005
 20
-69.77099541343989
 30
0.0
 11
-410.6500000000005
 21
-138.9999999999997
 31
0.0
  0
LINE
  5
4E4
  8
DATA
  6
CONTINUOUS
 62
     7
 10
-413.25
 20
-67.59573794829191
 30
0.0
 11
-413.25
 21
-138.9999999999997
 31
0.0
  0
LINE
  5
4E5
  8
DATA
  6
CONTINUOUS
 62
     7
 10
-386.75
 20
-67.59573794829191
 30
0.0
 11
-386.75
 21
-138.9999999999997
 31
0.0
  0
LINE
  5
4E6
  8
DATA
  6
CONTINUOUS
 62
     7
 10
-386.75
 20
-138.9999999999999
 30
0.0
 11
-389.3499999999995
 21
-138.9999999999999
 31
0.0
  0
LINE
  5
4E7
  8
DATA
  6
CONTINUOUS
 62
     7
 10
-410.6500000000005
 20
-138.9999999999999
 30
0.0
 11
-413.25
 21
-138.9999999999999
 31
0.0
  0
ARC
  5
4E8
  8
DATA
  6
CONTINUOUS
 62
     7
 10
-400.0
 20
-54.39999999999975
 30
0.0
 40
18.69999999999982
 50
180.0
 51
0.0
  0
LINE
  5
4E9
  8
DATA
  6
CONTINUOUS
 62
     7
 10
-379.25
 20
-35.99999999999989
 30
0.0
 11
-379.25
 21
-51.99999999999989
 31
0.0
  0
LINE
  5
4EA
  8
DATA
  6
CONTINUOUS
 62
     7
 10
-381.3000000000002
 20
6.800000000000068
 30
0.0
 11
-393.0000000000027
 21
6.800000000000068
 31
0.0
  0
LINE
  5
4EB
  8
DATA
  6
CONTINUOUS
 62
     7
 10
-406.9999999999973
 20
6.800000000000068
 30
0.0
 11
-418.6999999999998
 21
6.800000000000068
 31
0.0
  0
LINE
  5
4EC
  8
DATA
  6
CONTINUOUS
 62
     7
 10
-418.6999999999998
 20
-54.39999999999975
 30
0.0
 11
-418.6999999999998
 21
6.800000000000068
 31
0.0
  0
LINE
  5
4ED
  8
DATA
  6
CONTINUOUS
 62
     7
 10
-381.3000000000002
 20
-54.39999999999975
 30
0.0
 11
-381.3000000000002
 21
6.800000000000068
 31
0.0
  0
CIRCLE
  5
4EE
  8
DATA
  6
CONTINUOUS
 62
     7
 10
-400.0
 20
-54.39999999999975
 30
0.0
 40
6.900000000000546
  0
POLYLINE
  5
4EF
  8
DATA
  6
CONTINUOUS
 62
     7
 66
     1
 10
0.0
 20
0.0
 30
0.0
 70
     1
  0
VERTEX
  5
5FD
  8
DATA
  6
CONTINUOUS
 62
     7
 10
-400.0
 20
-48.74999999999966
 30
0.0
  0
VERTEX
  5
5FE
  8
DATA
  6
CONTINUOUS
 62
     7
 10
-404.8930435313823
 20
-51.5749999999997
 30
0.0
  0
VERTEX
  5
5FF
  8
DATA
  6
CONTINUOUS
 62
     7
 10
-404.8930435313823
 20
-57.2249999999998
 30
0.0
  0
VERTEX
  5
600
  8
DATA
  6
CONTINUOUS
 62
     7
 10
-400.0
 20
-60.04999999999984
 30
0.0
  0
VERTEX
  5
601
  8
DATA
  6
CONTINUOUS
 62
     7
 10
-395.1069564686177
 20
-57.2249999999998
 30
0.0
  0
VERTEX
  5
602
  8
DATA
  6
CONTINUOUS
 62
     7
 10
-395.1069564686177
 20
-51.5749999999997
 30
0.0
  0
SEQEND
  5
60F
  8
DATA
  6
CONTINUOUS
 62
     7
  0
ARC
  5
4F8
  8
DATA
  6
CONTINUOUS
 62
     7
 10
-384.25
 20
-51.99999999999989
 30
0.0
 40
4.999999999999887
 50
306.1570082009972
 51
0.0
  0
ARC
  5
4F9
  8
DATA
  6
CONTINUOUS
 62
     7
 10
-384.25
 20
-35.99999999999989
 30
0.0
 40
5.0
 50
0.0
 51
53.84299179900285
  0
LINE
  5
4FA
  8
DATA
  6
CONTINUOUS
 62
     7
 10
-420.75
 20
-35.99999999999989
 30
0.0
 11
-420.75
 21
-51.99999999999989
 31
0.0
  0
ARC
  5
4FB
  8
DATA
  6
CONTINUOUS
 62
     7
 10
-415.75
 20
-51.99999999999989
 30
0.0
 40
5.0
 50
180.0
 51
233.8429917990028
  0
ARC
  5
4FC
  8
DATA
  6
CONTINUOUS
 62
     7
 10
-415.75
 20
-35.99999999999989
 30
0.0
 40
4.999999999999887
 50
126.1570082009972
 51
180.0
  0
LINE
  5
4FD
  8
DATA
  6
CONTINUOUS
 62
     7
 10
-385.75
 20
-89.99999999999989
 30
0.0
 11
-386.75
 21
-89.99999999999989
 31
0.0
  0
LINE
  5
4FE
  8
DATA
  6
CONTINUOUS
 62
     7
 10
-385.75
 20
-103.9999999999999
 30
0.0
 11
-386.75
 21
-103.9999999999999
 31
0.0
  0
LINE
  5
4FF
  8
DATA
  6
CONTINUOUS
 62
     7
 10
-385.75
 20
-89.99999999999989
 30
0.0
 11
-385.75
 21
-103.9999999999999
 31
0.0
  0
LINE
  5
500
  8
DATA
  6
CONTINUOUS
 62
     7
 10
-384.0500000000002
 20
-91.99999999999989
 30
0.0
 11
-385.75
 21
-91.99999999999989
 31
0.0
  0
LINE
  5
501
  8
DATA
  6
CONTINUOUS
 62
     7
 10
-384.0500000000002
 20
-101.9999999999999
 30
0.0
 11
-385.75
 21
-101.9999999999999
 31
0.0
  0
LINE
  5
502
  8
DATA
  6
CONTINUOUS
 62
     7
 10
-384.0500000000002
 20
-90.99999999999989
 30
0.0
 11
-384.0500000000002
 21
-102.9999999999999
 31
0.0
  0
LINE
  5
503
  8
DATA
  6
CONTINUOUS
 62
     7
 10
-379.9499999999998
 20
-90.99999999999989
 30
0.0
 11
-379.9499999999998
 21
-102.9999999999999
 31
0.0
  0
LINE
  5
504
  8
DATA
  6
CONTINUOUS
 62
     7
 10
-379.9499999999998
 20
-90.99999999999989
 30
0.0
 11
-384.0500000000002
 21
-90.99999999999989
 31
0.0
  0
LINE
  5
505
  8
DATA
  6
CONTINUOUS
 62
     7
 10
-379.9499999999998
 20
-102.9999999999999
 30
0.0
 11
-384.0500000000002
 21
-102.9999999999999
 31
0.0
  0
LINE
  5
506
  8
DATA
  6
CONTINUOUS
 62
     7
 10
-414.25
 20
-89.99999999999989
 30
0.0
 11
-413.25
 21
-89.99999999999989
 31
0.0
  0
LINE
  5
507
  8
DATA
  6
CONTINUOUS
 62
     7
 10
-414.25
 20
-103.9999999999999
 30
0.0
 11
-413.25
 21
-103.9999999999999
 31
0.0
  0
LINE
  5
508
  8
DATA
  6
CONTINUOUS
 62
     7
 10
-414.25
 20
-89.99999999999989
 30
0.0
 11
-414.25
 21
-103.9999999999999
 31
0.0
  0
LINE
  5
509
  8
DATA
  6
CONTINUOUS
 62
     7
 10
-415.9499999999998
 20
-91.99999999999989
 30
0.0
 11
-414.25
 21
-91.99999999999989
 31
0.0
  0
LINE
  5
50A
  8
DATA
  6
CONTINUOUS
 62
     7
 10
-415.9499999999998
 20
-101.9999999999999
 30
0.0
 11
-414.25
 21
-101.9999999999999
 31
0.0
  0
LINE
  5
50B
  8
DATA
  6
CONTINUOUS
 62
     7
 10
-415.9499999999998
 20
-91.44999999999993
 30
0.0
 11
-415.9499999999998
 21
-102.5499999999998
 31
0.0
  0
LINE
  5
50C
  8
DATA
  6
CONTINUOUS
 62
     7
 10
-384.0500000000002
 20
-98.99999999999989
 30
0.0
 11
-385.75
 21
-98.99999999999989
 31
0.0
  0
LINE
  5
50D
  8
DATA
  6
CONTINUOUS
 62
     7
 10
-415.9499999999998
 20
-94.99999999999989
 30
0.0
 11
-414.25
 21
-94.99999999999989
 31
0.0
  0
LINE
  5
50E
  8
DATA
  6
CONTINUOUS
 62
     7
 10
-420.4499999999998
 20
-91.45000000000016
 30
0.0
 11
-420.4499999999998
 21
-102.5499999999998
 31
0.0
  0
LINE
  5
50F
  8
DATA
  6
CONTINUOUS
 62
     7
 10
-420.4499999999998
 20
-91.44999999999993
 30
0.0
 11
-415.9499999999998
 21
-91.44999999999993
 31
0.0
  0
LINE
  5
510
  8
DATA
  6
CONTINUOUS
 62
     7
 10
-420.4499999999998
 20
-102.5499999999998
 30
0.0
 11
-415.9499999999998
 21
-102.5499999999998
 31
0.0
  0
LINE
  5
511
  8
DATA
  6
CONTINUOUS
 62
     7
 10
-420.4499999999998
 20
-99.77499999999975
 30
0.0
 11
-415.9499999999998
 21
-99.77499999999975
 31
0.0
  0
LINE
  5
512
  8
DATA
  6
CONTINUOUS
 62
     7
 10
-420.4499999999998
 20
-94.2249999999998
 30
0.0
 11
-415.9499999999998
 21
-94.2249999999998
 31
0.0
  0
LINE
  5
513
  8
DATA
  6
CONTINUOUS
 62
     7
 10
-347.25
 20
14.4000000000002
 30
0.0
 11
-347.25
 21
17.00000000000011
 31
0.0
  0
LINE
  5
514
  8
DATA
  6
CONTINUOUS
 62
     7
 10
-347.25
 20
17.00000000000011
 30
0.0
 11
-372.0943355202844
 21
17.00000000000011
 31
0.0
  0
LINE
  5
515
  8
DATA
  6
CONTINUOUS
 62
     7
 10
-347.25
 20
14.4000000000002
 30
0.0
 11
-372.0943355202844
 21
14.4000000000002
 31
0.0
  0
LINE
  5
516
  8
DATA
  6
CONTINUOUS
 62
     7
 10
-378.5222835469795
 20
6.483743609213775
 30
0.0
 11
-374.1093038974495
 21
13.30380306757763
 31
0.0
  0
LINE
  5
517
  8
DATA
  6
CONTINUOUS
 62
     7
 10
-376.2921863060456
 20
14.7162563907865
 30
0.0
 11
-380.7051659555755
 21
7.89619693242264
 31
0.0
  0
ARC
  5
518
  8
DATA
  6
CONTINUOUS
 62
     7
 10
-372.0943355202844
 20
12.00000000000011
 30
0.0
 40
5.0
 50
90.0
 51
147.0947570770144
  0
ARC
  5
519
  8
DATA
  6
CONTINUOUS
 62
     7
 10
-372.0943355202844
 20
12.00000000000011
 30
0.0
 40
2.400000000000091
 50
90.0
 51
147.0947570770105
  0
ARC
  5
51A
  8
DATA
  6
CONTINUOUS
 62
     7
 10
-382.7201343327406
 20
9.20000000000016
 30
0.0
 40
2.400000000000091
 50
270.0
 51
327.0947570770105
  0
ARC
  5
51B
  8
DATA
  6
CONTINUOUS
 62
     7
 10
-382.7201343327406
 20
9.20000000000016
 30
0.0
 40
5.000000000000163
 50
286.5006885071228
 51
327.0947570770144
  0
LINE
  5
51C
  8
DATA
  6
CONTINUOUS
 62
     7
 10
-452.75
 20
14.4000000000002
 30
0.0
 11
-452.75
 21
17.00000000000011
 31
0.0
  0
LINE
  5
51D
  8
DATA
  6
CONTINUOUS
 62
     7
 10
-452.75
 20
17.00000000000011
 30
0.0
 11
-427.9056644797156
 21
17.00000000000011
 31
0.0
  0
LINE
  5
51E
  8
DATA
  6
CONTINUOUS
 62
     7
 10
-452.75
 20
14.4000000000002
 30
0.0
 11
-427.9056644797156
 21
14.4000000000002
 31
0.0
  0
LINE
  5
51F
  8
DATA
  6
CONTINUOUS
 62
     7
 10
-421.4777164530205
 20
6.483743609213775
 30
0.0
 11
-425.8906961025505
 21
13.30380306757763
 31
0.0
  0
LINE
  5
520
  8
DATA
  6
CONTINUOUS
 62
     7
 10
-423.7078136939544
 20
14.7162563907865
 30
0.0
 11
-419.2948340444245
 21
7.89619693242264
 31
0.0
  0
ARC
  5
521
  8
DATA
  6
CONTINUOUS
 62
     7
 10
-427.9056644797156
 20
12.00000000000011
 30
0.0
 40
5.000000000000336
 50
32.90524292298559
 51
90.0
  0
ARC
  5
522
  8
DATA
  6
CONTINUOUS
 62
     7
 10
-427.9056644797156
 20
12.00000000000011
 30
0.0
 40
2.400000000000008
 50
32.90524292298952
 51
90.0
  0
ARC
  5
523
  8
DATA
  6
CONTINUOUS
 62
     7
 10
-417.2798656672594
 20
9.20000000000016
 30
0.0
 40
2.400000000000008
 50
212.9052429229895
 51
270.0
  0
ARC
  5
524
  8
DATA
  6
CONTINUOUS
 62
     7
 10
-417.2798656672594
 20
9.20000000000016
 30
0.0
 40
5.000000000000336
 50
212.9052429229856
 51
253.4993114928772
  0
LINE
  5
525
  8
DATA
  6
CONTINUOUS
 62
     7
 10
-405.0
 20
-25.99999999999989
 30
0.0
 11
-405.0
 21
4.800000000003479
 31
0.0
  0
LINE
  5
526
  8
DATA
  6
CONTINUOUS
 62
     7
 10
-395.0
 20
-25.99999999999989
 30
0.0
 11
-395.0
 21
4.800000000003479
 31
0.0
  0
ARC
  5
527
  8
DATA
  6
CONTINUOUS
 62
     7
 10
-400.0
 20
-25.99999999999989
 30
0.0
 40
5.0
 50
180.0
 51
0.0
  0
LINE
  5
528
  8
DATA
  6
CONTINUOUS
 62
     7
 10
-405.0
 20
4.800000000003024
 30
0.0
 11
-395.0
 21
4.800000000003024
 31
0.0
  0
ARC
  5
529
  8
DATA
  6
CONTINUOUS
 62
     7
 10
-391.7490434132333
 20
3.549043413232653
 30
0.0
 40
3.483333333321241
 50
111.0465483751924
 51
158.9534516247909
  0
ARC
  5
52A
  8
DATA
  6
CONTINUOUS
 62
     7
 10
-408.2509565867667
 20
3.549043413232653
 30
0.0
 40
3.483333333321143
 50
21.04654837520909
 51
68.95345162480757
  0
LINE
  5
52B
  8
DATA
  6
CONTINUOUS
 62
     7
 10
-57.55524585570818
 20
-196.4769309982394
 30
0.0
 11
-101.3438536186595
 21
-231.2268638065545
 31
0.0
  0
LINE
  5
52C
  8
DATA
  6
CONTINUOUS
 62
     7
 10
-57.55524585570818
 20
-196.4769309982394
 30
0.0
 11
-56.02846426682684
 21
-252.3577768935895
 31
0.0
  0
LINE
  5
52D
  8
DATA
  6
CONTINUOUS
 62
     7
 10
-56.79185506126784
 20
-224.4173539459145
 30
0.0
 11
-131.1159068063333
 21
-383.8057972735194
 31
0.0
  0
LINE
  5
52E
  8
DATA
  6
CONTINUOUS
 62
     7
 10
-79.44954973718394
 20
-213.851897402397
 30
0.0
 11
-153.7736014822501
 21
-373.2403407300019
 31
0.0
  0
LINE
  5
52F
  8
DATA
  6
CONTINUOUS
 62
     7
 10
-440.356197917572
 20
-223.5124997829625
 30
0.0
 11
-440.3937499999993
 21
-214.4999999999704
 31
0.0
  0
LINE
  5
530
  8
DATA
  6
CONTINUOUS
 62
     7
 10
-359.6062500000007
 20
-214.4999999999432
 30
0.0
 11
-359.643802082428
 21
-223.51249978292
 31
0.0
  0
LINE
  5
531
  8
DATA
  6
CONTINUOUS
 62
     7
 10
-439.5
 20
-213.0
 30
0.0
 11
-360.5
 21
-213.0
 31
0.0
  0
ARC
  5
532
  8
DATA
  6
CONTINUOUS
 62
     7
 10
-438.8937499999993
 20
-214.5
 30
0.0
 40
1.5
 50
90.0
 51
180.4774620673337
  0
ARC
  5
533
  8
DATA
  6
CONTINUOUS
 62
     7
 10
-438.8562500000007
 20
-223.5
 30
0.0
 40
1.5
 50
180.0
 51
270.0
  0
ARC
  5
534
  8
DATA
  6
CONTINUOUS
 62
     7
 10
-361.1062500000007
 20
-214.5
 30
0.0
 40
1.500000000000635
 50
359.5225379326663
 51
90.0
  0
ARC
  5
535
  8
DATA
  6
CONTINUOUS
 62
     7
 10
-361.1437499999993
 20
-223.5
 30
0.0
 40
1.5
 50
270.0
 51
0.0
  0
ARC
  5
536
  8
DATA
  6
CONTINUOUS
 62
     7
 10
-400.0
 20
-309.5622449448522
 30
0.0
 40
93.06224494485255
 50
65.32127574863222
 51
114.6787242513678
  0
LINE
  5
537
  8
DATA
  6
CONTINUOUS
 62
     7
 10
-437.4648631564924
 20
-221.4328424417592
 30
0.0
 11
-437.4883333333328
 21
-215.8000000000002
 31
0.0
  0
LINE
  5
538
  8
DATA
  6
CONTINUOUS
 62
     7
 10
-437.4883333333328
 20
-215.8
 30
0.0
 11
-429.1883333333335
 21
-215.8
 31
0.0
  0
ARC
  5
539
  8
DATA
  6
CONTINUOUS
 62
     7
 10
-400.0
 20
-309.5622449448522
 30
0.0
 40
95.76224494489998
 50
107.7394492906491
 51
113.0309252816159
  0
LINE
  5
53A
  8
DATA
  6
CONTINUOUS
 62
     7
 10
-429.1776945390284
 20
-218.3533106331618
 30
0.0
 11
-429.1883333333335
 21
-215.8000000000002
 31
0.0
  0
LINE
  5
53B
  8
DATA
  6
CONTINUOUS
 62
     7
 10
-362.5351368435076
 20
-221.4328424417592
 30
0.0
 11
-362.5116666666672
 21
-215.8000000000002
 31
0.0
  0
LINE
  5
53C
  8
DATA
  6
CONTINUOUS
 62
     7
 10
-362.5116666666672
 20
-215.8
 30
0.0
 11
-370.8116666666665
 21
-215.8
 31
0.0
  0
ARC
  5
53D
  8
DATA
  6
CONTINUOUS
 62
     7
 10
-400.0
 20
-309.5622449448522
 30
0.0
 40
95.76224494490019
 50
66.96907471838406
 51
72.26055070935095
  0
LINE
  5
53E
  8
DATA
  6
CONTINUOUS
 62
     7
 10
-370.8223054609716
 20
-218.3533106331618
 30
0.0
 11
-370.8116666666665
 21
-215.8000000000002
 31
0.0
  0
ARC
  5
53F
  8
DATA
  6
CONTINUOUS
 62
     7
 10
-400.0
 20
-309.5622449448522
 30
0.0
 40
92.62203787605687
 50
65.32127574863232
 51
114.6787242513677
  0
LINE
  5
540
  8
DATA
  6
CONTINUOUS
 62
     7
 10
-361.3275495196331
 20
-225.4000000000001
 30
0.0
 11
-361.1437499999993
 21
-225.0
 31
0.0
  0
LINE
  5
541
  8
DATA
  6
CONTINUOUS
 62
     7
 10
-438.6724504803669
 20
-225.4000000000001
 30
0.0
 11
-438.8562500000007
 21
-225.0
 31
0.0
  0
TEXT
  5
542
  8
DATA
 62
     7
 10
500.0
 20
-1156.904765057096
 30
0.0
 40
24.4326171875
  1
PRX ONE INSKIT
 41
0.7
 11
500.0
 21
-1132.472147869596
 31
0.0
 73
     3
  0
LINE
  5
543
  8
DATA
  6
STYLE_05
 62
     7
 10
-400.0
 20
-762.5
 30
0.0
 11
-399.9999999999999
 21
-237.5
 31
0.0
  0
LINE
  5
544
  8
DATA
  6
STYLE_05
 62
     7
 10
200.0
 20
-500.0
 30
0.0
 11
100.0
 21
-500.0
 31
0.0
  0
LINE
  5
545
  8
DATA
  6
STYLE_05
 62
     7
 10
150.0
 20
-775.0
 30
0.0
 11
150.0
 21
-225.0
 31
0.0
  0
LINE
  5
546
  8
DATA
  6
STYLE_05
 62
     7
 10
-350.0
 20
-500.0
 30
0.0
 11
-450.0
 21
-500.0
 31
0.0
  0
LINE
  5
547
  8
DATA
  6
STYLE_05
 62
     7
 10
-50.0
 20
-500.0
 30
0.0
 11
-325.0
 21
-500.0
 31
0.0
  0
LINE
  5
548
  8
DATA
  6
STYLE_05
 62
     7
 10
-399.9999999999999
 20
-225.0
 30
0.0
 11
-399.9999999999999
 21
25.0
 31
0.0
  0
LINE
  5
549
  8
DATA
  6
CONTINUOUS
 62
     7
 10
-359.6000000000004
 20
-420.5
 30
0.0
 11
-356.25
 21
-420.5
 31
0.0
  0
LINE
  5
54A
  8
DATA
  6
CONTINUOUS
 62
     7
 10
157.1999999999998
 20
-625.3499999999999
 30
0.0
 11
142.8000000000002
 21
-625.3499999999999
 31
0.0
  0
LINE
  5
54B
  8
DATA
  6
CONTINUOUS
 62
     7
 10
-418.6999999999998
 20
-601.0
 30
0.0
 11
-418.6999999999998
 21
-598.5067965449573
 31
0.0
  0
LINE
  5
54C
  8
DATA
  6
CONTINUOUS
 62
     7
 10
-418.6999999999998
 20
-401.4932034550427
 30
0.0
 11
-418.6999999999998
 21
-399.0
 31
0.0
  0
LINE
  5
54D
  8
DATA
  6
CONTINUOUS
 62
     7
 10
-381.3000000000002
 20
-601.0
 30
0.0
 11
-418.6999999999998
 21
-601.0
 31
0.0
  0
LINE
  5
54E
  8
DATA
  6
CONTINUOUS
 62
     7
 10
-381.3000000000002
 20
-399.0
 30
0.0
 11
-381.3000000000002
 21
-401.4932034550428
 31
0.0
  0
LINE
  5
54F
  8
DATA
  6
CONTINUOUS
 62
     7
 10
-381.3000000000002
 20
-598.5067965449573
 30
0.0
 11
-381.3000000000002
 21
-601.0
 31
0.0
  0
LINE
  5
550
  8
DATA
  6
CONTINUOUS
 62
     7
 10
-381.5994792129625
 20
-598.3999999999999
 30
0.0
 11
-418.4005207870375
 21
-598.3999999999999
 31
0.0
  0
LINE
  5
551
  8
DATA
  6
CONTINUOUS
 62
     7
 10
-418.4005207870382
 20
-401.5999999999999
 30
0.0
 11
-381.5994792129619
 21
-401.5999999999999
 31
0.0
  0
LINE
  5
552
  8
DATA
  6
CONTINUOUS
 62
     7
 10
-410.25
 20
-597.6500000000001
 30
0.0
 11
-410.25
 21
-598.3999999999999
 31
0.0
  0
LINE
  5
553
  8
DATA
  6
CONTINUOUS
 62
     7
 10
-389.75
 20
-597.6500000000001
 30
0.0
 11
-389.75
 21
-598.3999999999999
 31
0.0
  0
LINE
  5
554
  8
DATA
  6
CONTINUOUS
 62
     7
 10
-410.25
 20
-402.3499999999999
 30
0.0
 11
-410.25
 21
-401.6000000000001
 31
0.0
  0
LINE
  5
555
  8
DATA
  6
CONTINUOUS
 62
     7
 10
-389.75
 20
-402.3499999999999
 30
0.0
 11
-389.75
 21
-401.6000000000001
 31
0.0
  0
LINE
  5
556
  8
DATA
  6
CONTINUOUS
 62
     7
 10
-381.3000000000002
 20
-399.0
 30
0.0
 11
-418.6999999999998
 21
-399.0
 31
0.0
  0
LINE
  5
557
  8
DATA
  6
CONTINUOUS
 62
     7
 10
-413.6477438660704
 20
-402.3499999999999
 30
0.0
 11
-386.3522561339296
 21
-402.3499999999999
 31
0.0
  0
LINE
  5
558
  8
DATA
  6
CONTINUOUS
 62
     7
 10
-413.6477438660704
 20
-597.6500000000001
 30
0.0
 11
-386.3522561339296
 21
-597.6500000000001
 31
0.0
  0
ARC
  5
559
  8
DATA
  6
CONTINUOUS
 62
     7
 10
-417.1999999999998
 20
-203.0
 30
0.0
 40
10.0
 50
270.0
 51
0.0
  0
ENDSEC
  0
EOF
