  0
SECTION
  2
HEADER
  9
$ACADVER
  1
AC1009
  9
$INSBASE
 10
0.0
 20
0.0
 30
0.0
  9
$EXTMIN
 10
-540.03295646984225
 20
-808.07240683733426
 30
-0.0015258207003583
  9
$EXTMAX
 10
540.03296149898449
 20
797.70797954204954
 30
0.0000000349246037
  9
$LIMMIN
 10
0.0
 20
0.0
  9
$LIMMAX
 10
0.0
 20
0.0
  9
$ORTHOMODE
 70
     0
  9
$REGENMODE
 70
     1
  9
$FILLMODE
 70
     1
  9
$QTEXTMODE
 70
     0
  9
$MIRRTEXT
 70
     1
  9
$DRAGMODE
 70
     2
  9
$LTSCALE
 40
30.48
  9
$OSMODE
 70
   231
  9
$ATTMODE
 70
     1
  9
$TEXTSIZE
 40
0.0
  9
$TRACEWID
 40
1.0
  9
$TEXTSTYLE
  7
STANDARD
  9
$CLAYER
  8
DATA
  9
$CELTYPE
  6
BYLAYER
  9
$CECOLOR
 62
   256
  9
$DIMSCALE
 40
1.0
  9
$DIMASZ
 40
0.18
  9
$DIMEXO
 40
0.0625
  9
$DIMDLI
 40
0.38
  9
$DIMRND
 40
0.0
  9
$DIMDLE
 40
0.0
  9
$DIMEXE
 40
0.18
  9
$DIMTP
 40
0.0
  9
$DIMTM
 40
0.0
  9
$DIMTXT
 40
0.18
  9
$DIMCEN
 40
0.09
  9
$DIMTSZ
 40
0.0
  9
$DIMTOL
 70
     0
  9
$DIMLIM
 70
     0
  9
$DIMTIH
 70
     1
  9
$DIMTOH
 70
     1
  9
$DIMSE1
 70
     0
  9
$DIMSE2
 70
     0
  9
$DIMTAD
 70
     0
  9
$DIMZIN
 70
     0
  9
$DIMBLK
  1

  9
$DIMASO
 70
     1
  9
$DIMSHO
 70
     1
  9
$DIMPOST
  1

  9
$DIMAPOST
  1

  9
$DIMALT
 70
     0
  9
$DIMALTD
 70
     2
  9
$DIMALTF
 40
25.399999999999999
  9
$DIMLFAC
 40
1.0
  9
$DIMTOFL
 70
     0
  9
$DIMTVP
 40
0.0
  9
$DIMTIX
 70
     0
  9
$DIMSOXD
 70
     0
  9
$DIMSAH
 70
     0
  9
$DIMBLK1
  1

  9
$DIMBLK2
  1

  9
$DIMSTYLE
  2
STANDARD
  9
$DIMCLRD
 70
     0
  9
$DIMCLRE
 70
     0
  9
$DIMCLRT
 70
     0
  9
$DIMTFAC
 40
1.0
  9
$DIMGAP
 40
0.09
  9
$LUNITS
 70
     2
  9
$LUPREC
 70
     4
  9
$SKETCHINC
 40
0.1
  9
$FILLETRAD
 40
0.0
  9
$AUNITS
 70
     0
  9
$AUPREC
 70
     0
  9
$MENU
  1
acad
  9
$ELEVATION
 40
0.0
  9
$PELEVATION
 40
0.0
  9
$THICKNESS
 40
0.0
  9
$LIMCHECK
 70
     0
  9
$BLIPMODE
 70
     0
  9
$CHAMFERA
 40
0.0
  9
$CHAMFERB
 40
0.0
  9
$SKPOLY
 70
     0
  9
$TDCREATE
 40
2456563.4929282409
  9
$TDUPDATE
 40
2456563.4934184491
  9
$TDINDWG
 40
0.0003485069
  9
$TDUSRTIMER
 40
0.0003484491
  9
$USRTIMER
 70
     1
  9
$ANGBASE
 50
0.0
  9
$ANGDIR
 70
     0
  9
$PDMODE
 70
     1
  9
$PDSIZE
 40
-2.0
  9
$PLINEWID
 40
0.0
  9
$COORDS
 70
     2
  9
$SPLFRAME
 70
     0
  9
$SPLINETYPE
 70
     6
  9
$SPLINESEGS
 70
     8
  9
$ATTDIA
 70
     0
  9
$ATTREQ
 70
     1
  9
$HANDLING
 70
     1
  9
$HANDSEED
  5
286
  9
$SURFTAB1
 70
     6
  9
$SURFTAB2
 70
     6
  9
$SURFTYPE
 70
     6
  9
$SURFU
 70
     6
  9
$SURFV
 70
     6
  9
$UCSNAME
  2

  9
$UCSORG
 10
0.0
 20
0.0
 30
0.0
  9
$UCSXDIR
 10
1.0
 20
0.0
 30
0.0
  9
$UCSYDIR
 10
0.0
 20
1.0
 30
0.0
  9
$PUCSNAME
  2

  9
$PUCSORG
 10
0.0
 20
0.0
 30
0.0
  9
$PUCSXDIR
 10
1.0
 20
0.0
 30
0.0
  9
$PUCSYDIR
 10
0.0
 20
1.0
 30
0.0
  9
$USERI1
 70
     0
  9
$USERI2
 70
     0
  9
$USERI3
 70
     0
  9
$USERI4
 70
     0
  9
$USERI5
 70
     0
  9
$USERR1
 40
0.0
  9
$USERR2
 40
0.0
  9
$USERR3
 40
0.0
  9
$USERR4
 40
0.0
  9
$USERR5
 40
0.0
  9
$WORLDVIEW
 70
     1
  9
$SHADEDGE
 70
     3
  9
$SHADEDIF
 70
    70
  9
$TILEMODE
 70
     1
  9
$MAXACTVP
 70
    64
  9
$PLIMCHECK
 70
     0
  9
$PEXTMIN
 10
1.0000000000000000E+020
 20
1.0000000000000000E+020
 30
1.0000000000000000E+020
  9
$PEXTMAX
 10
-1.0000000000000000E+020
 20
-1.0000000000000000E+020
 30
-1.0000000000000000E+020
  9
$PLIMMIN
 10
0.0
 20
0.0
  9
$PLIMMAX
 10
12.0
 20
9.0
  9
$UNITMODE
 70
     0
  9
$VISRETAIN
 70
     0
  9
$PLINEGEN
 70
     1
  9
$PSLTSCALE
 70
     0
  0
ENDSEC
  0
SECTION
  2
TABLES
  0
TABLE
  2
VPORT
 70
     1
  0
VPORT
  2
*ACTIVE
 70
     0
 10
0.0
 20
0.0
 11
1.0
 21
1.0
 12
0.0000025145711788
 22
-5.1822136476423557
 13
0.0
 23
0.0
 14
1.0
 24
1.0
 15
0.0
 25
0.0
 16
0.0
 26
0.0
 36
1.0
 17
0.0
 27
0.0
 37
0.0
 40
1618.4243264296149
 41
2.1787122207621552
 42
50.0
 43
0.0
 44
0.0
 50
0.0
 51
0.0
 71
     0
 72
  2000
 73
     1
 74
     1
 75
     0
 76
     0
 77
     0
 78
     0
  0
ENDTAB
  0
TABLE
  2
LTYPE
 70
    11
  0
LTYPE
  2
CONTINUOUS
 70
     0
  3
Solid line
 72
    65
 73
     0
 40
0.0
  0
ENDTAB
  0
TABLE
  2
LAYER
 70
     5
  0
LAYER
  2
0
 70
     0
 62
     7
  6
CONTINUOUS
  0
LAYER
  2
DATA
 70
     0
 62
     7
  6
CONTINUOUS
  0
LAYER
  2
HIBINO-BASE
 70
     0
 62
     7
  6
CONTINUOUS
  0
LAYER
  2
SPEC
 70
     0
 62
     7
  6
CONTINUOUS
  0
LAYER
  2
DIMNSIONS
 70
     0
 62
     7
  6
CONTINUOUS
  0
ENDTAB
  0
TABLE
  2
STYLE
 70
     3
  0
STYLE
  2
STANDARD
 70
     0
 40
0.0
 41
1.0
 50
0.0
 71
     0
 42
0.0
  3
txt
  4
BIGFONT.SHX
  0
ENDTAB
  0
TABLE
  2
VIEW
 70
     0
  0
ENDTAB
  0
TABLE
  2
UCS
 70
     0
  0
ENDTAB
  0
TABLE
  2
APPID
 70
     4
  0
APPID
  2
ACAD
 70
     0
  0
APPID
  2
ACADANNOTATIVE
 70
     0
  0
APPID
  2
ACAD_NAV_VCDISPLAY
 70
     0
  0
APPID
  2
ACAD_MLEADERVER
 70
     0
  0
ENDTAB
  0
TABLE
  2
DIMSTYLE
 70
     2
  0
DIMSTYLE
  2
STANDARD
 70
     0
  3

  4

  5

  6

  7

 40
1.0
 41
0.18
 42
0.0625
 43
0.38
 44
0.18
 45
0.0
 46
0.0
 47
0.0
 48
0.0
140
0.18
141
0.09
142
0.0
143
25.399999999999999
144
1.0
145
0.0
146
1.0
147
0.09
 71
     0
 72
     0
 73
     1
 74
     1
 75
     0
 76
     0
 77
     0
 78
     0
170
     0
171
     2
172
     0
173
     0
174
     0
175
     0
176
     0
177
     0
178
     0
  0
ENDTAB
  0
ENDSEC
  0
SECTION
  2
BLOCKS
  0
BLOCK
  8
0
  2
$MODEL_SPACE
 70
     0
 10
0.0
 20
0.0
 30
0.0
  3
$MODEL_SPACE
  1

  0
ENDBLK
  5
20B
  8
0
  0
BLOCK
 67
     1
  8
0
  2
$PAPER_SPACE
 70
     0
 10
0.0
 20
0.0
 30
0.0
  3
$PAPER_SPACE
  1

  0
ENDBLK
  5
207
 67
     1
  8
0
  0
ENDSEC
  0
SECTION
  2
ENTITIES
  0
LINE
  5
2C
  8
HIBINO-BASE
  6
CONTINUOUS
 62
     7
 10
-539.99999999999977
 20
797.65907500000003
 30
0.0
 11
539.99999999999977
 21
797.65907500000003
 31
0.0
  0
LINE
  5
2D
  8
HIBINO-BASE
  6
CONTINUOUS
 62
     7
 10
539.99999999999977
 20
-762.34092499999986
 30
0.0
 11
-539.99999999999977
 21
-762.34092499999986
 31
0.0
  0
LINE
  5
2E
  8
HIBINO-BASE
  6
CONTINUOUS
 62
     7
 10
-539.99999999999977
 20
-762.34092499999986
 30
0.0
 11
-539.99999999999977
 21
797.65907500000003
 31
0.0
  0
LINE
  5
2F
  8
HIBINO-BASE
  6
CONTINUOUS
 62
     7
 10
539.99999999999977
 20
797.65907500000003
 30
0.0
 11
539.99999999999977
 21
-762.34092499999986
 31
0.0
  0
LINE
  5
30
  8
HIBINO-BASE
  6
CONTINUOUS
 62
     7
 10
0.0000000000000426
 20
-627.3409250000002
 30
0.0
 11
539.99999999999977
 21
-627.3409250000002
 31
0.0
  0
LINE
  5
31
  8
HIBINO-BASE
  6
CONTINUOUS
 62
     7
 10
0.0000000000000426
 20
-762.34092499999986
 30
0.0
 11
0.0000000000000426
 21
-627.3409250000002
 31
0.0
  0
TEXT
  5
32
  8
HIBINO-BASE
 62
     7
 10
5.400000000000075
 20
-642.39308500000016
 30
0.0
 40
9.7730468749999986
  1
NOTE
 41
0.7
 11
5.4000000000000759
 21
-632.62003812500018
 31
0.0
 73
     3
  0
LINE
  5
33
  8
HIBINO-BASE
  6
CONTINUOUS
 62
     7
 10
210.00000000000011
 20
-762.34092499999986
 30
0.0
 11
210.00000000000011
 21
-627.3409250000002
 31
0.0
  0
TEXT
  5
34
  8
HIBINO-BASE
 62
     7
 10
215.40000000000001
 20
-642.39308500000016
 30
0.0
 40
9.7730468749999986
  1
TITLE
 41
0.7
 11
215.40000000000001
 21
-632.62003812500018
 31
0.0
 73
     3
  0
LINE
  5
35
  8
HIBINO-BASE
  6
CONTINUOUS
 62
     7
 10
0.0000000000000426
 20
-702.3409250000002
 30
0.0
 11
539.99999999999977
 21
-702.3409250000002
 31
0.0
  0
TEXT
  5
36
  8
HIBINO-BASE
 62
     7
 10
290.39999999999998
 20
-717.05516499999999
 30
0.0
 40
9.7730468749999986
  1
DRAWN
 41
0.7
 11
290.39999999999998
 21
-707.28211812500001
 31
0.0
 73
     3
  0
TEXT
  5
37
  8
HIBINO-BASE
 62
     7
 10
140.39999999999989
 20
-717.05516499999999
 30
0.0
 40
9.7730468749999986
  1
DATE
 41
0.7
 11
140.39999999999989
 21
-707.28211812500001
 31
0.0
 73
     3
  0
TEXT
  5
38
  8
HIBINO-BASE
 62
     7
 10
80.399999999999963
 20
-717.05516499999999
 30
0.0
 40
9.7730468749999986
  1
SCALE
 41
0.7
 11
80.399999999999963
 21
-707.28211812500001
 31
0.0
 73
     3
  0
TEXT
  5
39
  8
HIBINO-BASE
 62
     7
 10
215.40000000000001
 20
-717.05516499999999
 30
0.0
 40
9.7730468749999986
  1
DESIGN
 41
0.7
 11
215.40000000000001
 21
-707.28211812500001
 31
0.0
 73
     3
  0
TEXT
  5
3A
  8
HIBINO-BASE
 62
     7
 10
440.39999999999992
 20
-717.05516499999999
 30
0.0
 40
9.7730468749999986
  1
DRAWING NO.
 41
0.7
 11
440.39999999999992
 21
-707.28211812500001
 31
0.0
 73
     3
  0
TEXT
  5
3B
  8
HIBINO-BASE
 62
     7
 10
365.39999999999998
 20
-717.05516499999999
 30
0.0
 40
9.7730468749999986
  1
CHECK
 41
0.7
 11
365.39999999999998
 21
-707.28211812500001
 31
0.0
 73
     3
  0
LINE
  5
3C
  8
HIBINO-BASE
  6
CONTINUOUS
 62
     7
 10
86.250000000000057
 20
-754.84092499999986
 30
0.0
 11
108.7500000000001
 21
-732.34092499999997
 31
0.0
  0
TEXT
  5
3D
  8
HIBINO-BASE
 62
     7
 10
82.500000000000028
 20
-738.99458500000014
 30
0.0
 40
9.7730468749999986
  1
1
 41
0.7
 11
82.500000000000028
 21
-729.22153812500005
 31
0.0
 73
     3
  0
LINE
  5
3E
  8
HIBINO-BASE
  6
CONTINUOUS
 62
     7
 10
75.000000000000028
 20
-762.34092499999986
 30
0.0
 11
75.000000000000028
 21
-702.3409250000002
 31
0.0
  0
LINE
  5
3F
  8
HIBINO-BASE
  6
CONTINUOUS
 62
     7
 10
134.99999999999989
 20
-762.34092499999986
 30
0.0
 11
134.99999999999989
 21
-702.3409250000002
 31
0.0
  0
LINE
  5
40
  8
HIBINO-BASE
  6
CONTINUOUS
 62
     7
 10
284.99999999999989
 20
-702.3409250000002
 30
0.0
 11
284.99999999999989
 21
-762.34092499999986
 31
0.0
  0
LINE
  5
41
  8
HIBINO-BASE
  6
CONTINUOUS
 62
     7
 10
435.0
 20
-702.3409250000002
 30
0.0
 11
435.0
 21
-762.34092499999986
 31
0.0
  0
LINE
  5
42
  8
HIBINO-BASE
  6
CONTINUOUS
 62
     7
 10
359.99999999999977
 20
-762.34092499999986
 30
0.0
 11
359.99999999999977
 21
-702.3409250000002
 31
0.0
  0
TEXT
  5
43
  8
HIBINO-BASE
 62
     7
 10
140.13924000000009
 20
-745.15904499999999
 30
0.0
 40
9.7730468749999986
  1
'13.09.
 41
0.7
 11
140.13924000000009
 21
-735.38599812500001
 31
0.0
 73
     3
  0
TEXT
  5
44
  8
HIBINO-BASE
 62
     7
 10
105.0
 20
-750.24458500000014
 30
0.0
 40
9.7730468749999986
  1
6
 41
0.7
 11
105.0
 21
-740.47153812500005
 31
0.0
 73
     3
  0
TEXT
  5
45
  8
HIBINO-BASE
 62
     7
 10
294.03486006620773
 20
-745.15904499999999
 30
0.0
 40
9.7730468749999986
  1
Ootake
 41
0.7
 11
294.03486006620773
 21
-735.38599812500001
 31
0.0
 73
     3
  0
TEXT
  5
46
  8
HIBINO-BASE
 62
     7
 10
23.300000000000171
 20
-750.48492499999986
 30
0.0
 40
19.546093750000001
  1
A4
 41
0.7
 11
23.300000000000171
 21
-730.93883125000002
 31
0.0
 73
     3
  0
TEXT
  5
47
  8
HIBINO-BASE
 62
     7
 10
5.7500000000000133
 20
-718.05765499999995
 30
0.0
 40
9.7730468749999986
  1
PAPER SIZE
 41
0.7
 11
5.7500000000000142
 21
-708.28460812499986
 31
0.0
 73
     3
  0
TEXT
  5
48
  8
HIBINO-BASE
 62
     7
 10
-496.89599999999979
 20
-800.79299179999998
 30
0.0
 40
21.600265078124998
  1
Hibino Corporation
 41
0.7
 11
-496.89599999999979
 21
-779.19272672187503
 31
0.0
 73
     3
  0
TEXT
  5
49
  8
HIBINO-BASE
 62
     7
 10
300.41034000000002
 20
-800.79299179999998
 30
0.0
 40
21.600265078124998
  1
ヒビノ株式会社
 41
0.7
 11
300.41034000000002
 21
-779.19272672187503
 31
0.0
 73
     3
  0
LINE
  5
4A
  8
SPEC
  6
CONTINUOUS
 62
     7
 10
-494.99999999999977
 20
737.6590749999998
 30
0.0
 11
390.00000000000011
 21
737.6590749999998
 31
0.0
  0
LINE
  5
4B
  8
SPEC
  6
CONTINUOUS
 62
     7
 10
-494.99999999999977
 20
692.6590749999998
 30
0.0
 11
390.00000000000011
 21
692.6590749999998
 31
0.0
  0
LINE
  5
4C
  8
SPEC
  6
CONTINUOUS
 62
     7
 10
-494.99999999999977
 20
715.15907499999969
 30
0.0
 11
390.00000000000011
 21
715.15907499999969
 31
0.0
  0
LINE
  5
4D
  8
SPEC
  6
CONTINUOUS
 62
     7
 10
-494.99999999999977
 20
737.6590749999998
 30
0.0
 11
-494.99999999999977
 21
692.65907499999969
 31
0.0
  0
TEXT
  5
4E
  8
SPEC
 62
     7
 10
-487.49999999999977
 20
746.01869499999975
 30
0.0
 40
14.6595703125
  1
仕様
 41
0.7
 11
-487.49999999999977
 21
760.67826531249989
 31
0.0
 73
     3
  0
LINE
  5
4F
  8
SPEC
  6
CONTINUOUS
 62
     7
 10
-299.99999999999989
 20
737.6590749999998
 30
0.0
 11
-299.99999999999989
 21
692.65907499999969
 31
0.0
  0
LINE
  5
50
  8
SPEC
  6
CONTINUOUS
 62
     7
 10
390.00000000000011
 20
737.6590749999998
 30
0.0
 11
390.00000000000011
 21
692.65907499999969
 31
0.0
  0
TEXT
  5
51
  8
SPEC
 62
     7
 10
-490.12886984623867
 20
720.83854738989692
 30
0.0
 40
11.401888020833329
  1
寸法(W\U+00D7H\U+00D7D)
 41
0.7
 11
-490.12886984623867
 21
732.24043541073024
 31
0.0
 73
     3
  0
TEXT
  5
52
  8
SPEC
 62
     7
 10
-490.02309587699102
 20
698.82902291169466
 30
0.0
 40
11.401888020833329
  1
質量
 41
0.7
 11
-490.02309587699102
 21
710.2309109325281
 31
0.0
 73
     3
  0
TEXT
  5
53
  8
SPEC
 62
     7
 10
-294.59999999999991
 20
720.67998421102936
 30
0.0
 40
11.401888020833329
  1
369\U+00D7375\U+00D774mm(除突起部)
 41
0.7
 11
-294.59999999999991
 21
732.0818722318628
 31
0.0
 73
     3
  0
TEXT
  5
54
  8
SPEC
 62
     7
 10
-294.59999999999991
 20
698.17998421102902
 30
0.0
 40
11.401888020833329
  1
1.9kg
 41
0.7
 11
-294.59999999999991
 21
709.58187223186235
 31
0.0
 73
     3
  0
TEXT
  5
55
  8
DIMNSIONS
 62
     7
 10
-119.9999999999999
 20
-688.72398499999997
 30
0.0
 40
14.6595703125
  1
(単位：mm)
 41
0.7
 11
-119.9999999999999
 21
-674.06441468749995
 31
0.0
 73
     3
  0
LINE
  5
56
  8
DIMNSIONS
  6
CONTINUOUS
 62
     7
 10
-312.0
 20
-219.99999999999989
 30
0.0
 11
-392.0
 21
-219.99999999999989
 31
0.0
  0
LINE
  5
57
  8
DIMNSIONS
  6
CONTINUOUS
 62
     7
 10
-312.0
 20
155.00000000000011
 30
0.0
 11
-392.0
 21
155.00000000000011
 31
0.0
  0
LINE
  5
58
  8
DIMNSIONS
  6
CONTINUOUS
 62
     7
 10
-380.0
 20
-219.99999999999989
 30
0.0
 11
-380.0
 21
155.00000000000011
 31
0.0
  0
LINE
  5
59
  8
DIMNSIONS
  6
CONTINUOUS
 62
     7
 10
-380.0
 20
-219.99999999999989
 30
0.0
 11
-384.02023877090153
 21
-204.9962646484374
 31
0.0
  0
LINE
  5
5A
  8
DIMNSIONS
  6
CONTINUOUS
 62
     7
 10
-380.0
 20
-219.99999999999989
 30
0.0
 11
-375.97976122909847
 21
-204.9962646484374
 31
0.0
  0
LINE
  5
5B
  8
DIMNSIONS
  6
CONTINUOUS
 62
     7
 10
-380.0
 20
155.00000000000011
 30
0.0
 11
-375.97976122909847
 21
139.9962646484376
 31
0.0
  0
LINE
  5
5C
  8
DIMNSIONS
  6
CONTINUOUS
 62
     7
 10
-380.0
 20
155.00000000000011
 30
0.0
 11
-384.02023877090153
 21
139.9962646484376
 31
0.0
  0
TEXT
  5
5D
  8
DIMNSIONS
 62
     7
 10
-385.96333368659009
 20
-48.375001009305201
 30
0.0
 40
16.288413400063551
  1
375
 50
90.0
 41
0.7
 11
-402.25174708665372
 21
-48.375001009305201
 31
0.0
 73
     3
  0
LINE
  5
5E
  8
DIMNSIONS
  6
CONTINUOUS
 62
     7
 10
-300.0
 20
-231.99999999999989
 30
0.0
 11
-300.0
 21
-292.0
 31
0.0
  0
LINE
  5
5F
  8
DIMNSIONS
  6
CONTINUOUS
 62
     7
 10
69.000000000000071
 20
-231.99999999999989
 30
0.0
 11
69.000000000000071
 21
-292.0
 31
0.0
  0
LINE
  5
60
  8
DIMNSIONS
  6
CONTINUOUS
 62
     7
 10
-300.0
 20
-280.0
 30
0.0
 11
69.000000000000071
 21
-280.0
 31
0.0
  0
LINE
  5
61
  8
DIMNSIONS
  6
CONTINUOUS
 62
     7
 10
-300.0
 20
-280.0
 30
0.0
 11
-284.99626464843749
 21
-275.97976122909847
 31
0.0
  0
LINE
  5
62
  8
DIMNSIONS
  6
CONTINUOUS
 62
     7
 10
-300.0
 20
-280.0
 30
0.0
 11
-284.99626464843749
 21
-284.02023877090153
 31
0.0
  0
LINE
  5
63
  8
DIMNSIONS
  6
CONTINUOUS
 62
     7
 10
69.000000000000071
 20
-280.0
 30
0.0
 11
53.99626464843756
 21
-284.02023877090153
 31
0.0
  0
LINE
  5
64
  8
DIMNSIONS
  6
CONTINUOUS
 62
     7
 10
69.000000000000071
 20
-280.0
 30
0.0
 11
53.99626464843756
 21
-275.97976122909847
 31
0.0
  0
TEXT
  5
65
  8
DIMNSIONS
 62
     7
 10
-131.37500100930529
 20
-274.03666631340991
 30
0.0
 40
16.288413400063551
  1
369
 41
0.7
 11
-131.37500100930529
 21
-257.74825291334628
 31
0.0
 73
     3
  0
LINE
  5
66
  8
DIMNSIONS
  6
CONTINUOUS
 62
     7
 10
-302.49999999999989
 20
145.00000000000011
 30
0.0
 11
-352.0
 21
145.00000000000011
 31
0.0
  0
LINE
  5
67
  8
DIMNSIONS
  6
CONTINUOUS
 62
     7
 10
-308.49999999999989
 20
155.00000000000011
 30
0.0
 11
-352.0
 21
155.00000000000011
 31
0.0
  0
LINE
  5
68
  8
DIMNSIONS
  6
CONTINUOUS
 62
     7
 10
-340.0
 20
155.00000000000011
 30
0.0
 11
-340.0
 21
145.00000000000011
 31
0.0
  0
LINE
  5
69
  8
DIMNSIONS
  6
CONTINUOUS
 62
     7
 10
-340.0
 20
145.00000000000011
 30
0.0
 11
-340.0
 21
92.660154231389356
 31
0.0
  0
LINE
  5
6A
  8
DIMNSIONS
  6
CONTINUOUS
 62
     7
 10
-340.0
 20
145.00000000000011
 30
0.0
 11
-335.97976122909847
 21
129.9962646484376
 31
0.0
  0
LINE
  5
6B
  8
DIMNSIONS
  6
CONTINUOUS
 62
     7
 10
-340.0
 20
145.00000000000011
 30
0.0
 11
-344.02023877090153
 21
129.9962646484376
 31
0.0
  0
LINE
  5
6C
  8
DIMNSIONS
  6
CONTINUOUS
 62
     7
 10
-340.0
 20
155.00000000000011
 30
0.0
 11
-340.0
 21
185.00000000000011
 31
0.0
  0
LINE
  5
6D
  8
DIMNSIONS
  6
CONTINUOUS
 62
     7
 10
-340.0
 20
155.00000000000011
 30
0.0
 11
-344.02023877090153
 21
170.0037353515626
 31
0.0
  0
LINE
  5
6E
  8
DIMNSIONS
  6
CONTINUOUS
 62
     7
 10
-340.0
 20
155.00000000000011
 30
0.0
 11
-335.97976122909847
 21
170.0037353515626
 31
0.0
  0
TEXT
  5
6F
  8
DIMNSIONS
 62
     7
 10
-345.9633336865902
 20
92.660154231389356
 30
0.0
 40
16.288413400063551
  1
10.0
 50
90.0
 41
0.7
 11
-362.25174708665372
 21
92.660154231389356
 31
0.0
 73
     3
  0
LINE
  5
70
  8
DIMNSIONS
  6
CONTINUOUS
 62
     7
 10
-290.49999999999989
 20
167.00000000000011
 30
0.0
 11
-290.49999999999989
 21
212.0
 31
0.0
  0
LINE
  5
71
  8
DIMNSIONS
  6
CONTINUOUS
 62
     7
 10
59.500000000000057
 20
167.00000000000011
 30
0.0
 11
59.500000000000057
 21
212.0
 31
0.0
  0
LINE
  5
72
  8
DIMNSIONS
  6
CONTINUOUS
 62
     7
 10
-290.49999999999989
 20
200.0
 30
0.0
 11
59.500000000000057
 21
200.0
 31
0.0
  0
LINE
  5
73
  8
DIMNSIONS
  6
CONTINUOUS
 62
     7
 10
-290.49999999999989
 20
200.0
 30
0.0
 11
-275.49626464843737
 21
204.02023877090139
 31
0.0
  0
LINE
  5
74
  8
DIMNSIONS
  6
CONTINUOUS
 62
     7
 10
-290.49999999999989
 20
200.0
 30
0.0
 11
-275.49626464843737
 21
195.9797612290985
 31
0.0
  0
LINE
  5
75
  8
DIMNSIONS
  6
CONTINUOUS
 62
     7
 10
59.500000000000057
 20
200.0
 30
0.0
 11
44.49626464843756
 21
195.9797612290985
 31
0.0
  0
LINE
  5
76
  8
DIMNSIONS
  6
CONTINUOUS
 62
     7
 10
59.500000000000057
 20
200.0
 30
0.0
 11
44.49626464843756
 21
204.02023877090139
 31
0.0
  0
TEXT
  5
77
  8
DIMNSIONS
 62
     7
 10
-131.37500100930529
 20
205.9633336865902
 30
0.0
 40
16.288413400063551
  1
350
 41
0.7
 11
-131.37500100930529
 21
222.25174708665381
 31
0.0
 73
     3
  0
LINE
  5
78
  8
DIMNSIONS
  6
CONTINUOUS
 62
     7
 10
-245.0
 20
344.89999999999998
 30
0.0
 11
-245.0
 21
268.0
 31
0.0
  0
LINE
  5
79
  8
DIMNSIONS
  6
CONTINUOUS
 62
     7
 10
-115.4999999999999
 20
344.89999999999998
 30
0.0
 11
-115.4999999999999
 21
268.0
 31
0.0
  0
LINE
  5
7A
  8
DIMNSIONS
  6
CONTINUOUS
 62
     7
 10
-245.0
 20
280.0
 30
0.0
 11
-115.4999999999999
 21
280.0
 31
0.0
  0
LINE
  5
7B
  8
DIMNSIONS
  6
CONTINUOUS
 62
     7
 10
-245.0
 20
280.0
 30
0.0
 11
-229.9962646484374
 21
284.02023877090153
 31
0.0
  0
LINE
  5
7C
  8
DIMNSIONS
  6
CONTINUOUS
 62
     7
 10
-245.0
 20
280.0
 30
0.0
 11
-229.9962646484374
 21
275.97976122909847
 31
0.0
  0
LINE
  5
7D
  8
DIMNSIONS
  6
CONTINUOUS
 62
     7
 10
-115.4999999999999
 20
280.0
 30
0.0
 11
-130.5037353515624
 21
275.97976122909847
 31
0.0
  0
LINE
  5
7E
  8
DIMNSIONS
  6
CONTINUOUS
 62
     7
 10
-115.4999999999999
 20
280.0
 30
0.0
 11
-130.5037353515624
 21
284.02023877090153
 31
0.0
  0
TEXT
  5
7F
  8
DIMNSIONS
 62
     7
 10
-206.7083353519439
 20
285.96333368659009
 30
0.0
 40
16.288413400063551
  1
129.5
 41
0.7
 11
-206.7083353519439
 21
302.25174708665361
 31
0.0
 73
     3
  0
LINE
  5
80
  8
DIMNSIONS
  6
CONTINUOUS
 62
     7
 10
-115.4999999999999
 20
344.89999999999998
 30
0.0
 11
-115.4999999999999
 21
268.0
 31
0.0
  0
LINE
  5
81
  8
DIMNSIONS
  6
CONTINUOUS
 62
     7
 10
14.00000000000005
 20
344.89999999999998
 30
0.0
 11
14.00000000000005
 21
268.0
 31
0.0
  0
LINE
  5
82
  8
DIMNSIONS
  6
CONTINUOUS
 62
     7
 10
-115.4999999999999
 20
280.0
 30
0.0
 11
14.00000000000005
 21
280.0
 31
0.0
  0
LINE
  5
83
  8
DIMNSIONS
  6
CONTINUOUS
 62
     7
 10
-115.4999999999999
 20
280.0
 30
0.0
 11
-100.4962646484374
 21
284.02023877090153
 31
0.0
  0
LINE
  5
84
  8
DIMNSIONS
  6
CONTINUOUS
 62
     7
 10
-115.4999999999999
 20
280.0
 30
0.0
 11
-100.4962646484374
 21
275.97976122909847
 31
0.0
  0
LINE
  5
85
  8
DIMNSIONS
  6
CONTINUOUS
 62
     7
 10
14.00000000000005
 20
280.0
 30
0.0
 11
-1.0037353515624401
 21
275.97976122909847
 31
0.0
  0
LINE
  5
86
  8
DIMNSIONS
  6
CONTINUOUS
 62
     7
 10
14.00000000000005
 20
280.0
 30
0.0
 11
-1.0037353515624401
 21
284.02023877090153
 31
0.0
  0
TEXT
  5
87
  8
DIMNSIONS
 62
     7
 10
-77.208335351943902
 20
285.96333368659009
 30
0.0
 40
16.288413400063551
  1
129.5
 41
0.7
 11
-77.208335351943902
 21
302.25174708665372
 31
0.0
 73
     3
  0
LINE
  5
88
  8
DIMNSIONS
  6
CONTINUOUS
 62
     7
 10
-302.5
 20
320.0
 30
0.0
 11
-392.0
 21
320.0
 31
0.0
  0
LINE
  5
89
  8
DIMNSIONS
  6
CONTINUOUS
 62
     7
 10
-302.5
 20
394.0
 30
0.0
 11
-392.0
 21
394.0
 31
0.0
  0
LINE
  5
8A
  8
DIMNSIONS
  6
CONTINUOUS
 62
     7
 10
-380.0
 20
320.0
 30
0.0
 11
-380.0
 21
394.0
 31
0.0
  0
LINE
  5
8B
  8
DIMNSIONS
  6
CONTINUOUS
 62
     7
 10
-380.0
 20
320.0
 30
0.0
 11
-384.02023877090153
 21
335.00373535156251
 31
0.0
  0
LINE
  5
8C
  8
DIMNSIONS
  6
CONTINUOUS
 62
     7
 10
-380.0
 20
320.0
 30
0.0
 11
-375.97976122909847
 21
335.00373535156251
 31
0.0
  0
LINE
  5
8D
  8
DIMNSIONS
  6
CONTINUOUS
 62
     7
 10
-380.0
 20
394.0
 30
0.0
 11
-375.97976122909847
 21
378.99626464843749
 31
0.0
  0
LINE
  5
8E
  8
DIMNSIONS
  6
CONTINUOUS
 62
     7
 10
-380.0
 20
394.0
 30
0.0
 11
-384.02023877090153
 21
378.99626464843749
 31
0.0
  0
TEXT
  5
8F
  8
DIMNSIONS
 62
     7
 10
-385.96333368659009
 20
335.83333131472273
 30
0.0
 40
16.288413400063551
  1
74.0
 50
90.0
 41
0.7
 11
-402.25174708665372
 21
335.83333131472273
 31
0.0
 73
     3
  0
LINE
  5
90
  8
DIMNSIONS
  6
CONTINUOUS
 62
     7
 10
-112.554494073463
 20
362.227235869629
 30
0.0
 11
-80.000000000000014
 21
420.0
 31
0.0
  0
LINE
  5
91
  8
DIMNSIONS
  6
CONTINUOUS
 62
     7
 10
-112.554494073463
 20
362.227235869629
 30
0.0
 11
-108.5342553025615
 21
377.23097122119151
 31
0.0
  0
LINE
  5
92
  8
DIMNSIONS
  6
CONTINUOUS
 62
     7
 10
-112.554494073463
 20
362.227235869629
 30
0.0
 11
-101.57099749280189
 21
373.2107324502901
 31
0.0
  0
LINE
  5
93
  8
DIMNSIONS
  6
CONTINUOUS
 62
     7
 10
-80.000000000000014
 20
420.0
 30
0.0
 11
-4.4999959627787538
 21
420.0
 31
0.0
  0
TEXT
  5
94
  8
DIMNSIONS
 62
     7
 10
-68.000000000000014
 20
425.96333368659009
 30
0.0
 40
16.288413400063551
  1
\U+03A612.0
 41
0.7
 11
-68.000000000000014
 21
442.25174708665361
 31
0.0
 73
     3
  0
LINE
  5
95
  8
DIMNSIONS
  6
CONTINUOUS
 62
     7
 10
16.65362808028868
 20
360.63431671865618
 30
0.0
 11
60.0
 21
420.0
 31
0.0
  0
LINE
  5
96
  8
DIMNSIONS
  6
CONTINUOUS
 62
     7
 10
16.65362808028868
 20
360.63431671865618
 30
0.0
 11
22.47239597694568
 21
375.03627264275269
 31
0.0
  0
LINE
  5
97
  8
DIMNSIONS
  6
CONTINUOUS
 62
     7
 10
16.65362808028868
 20
360.63431671865618
 30
0.0
 11
28.89380685956727
 21
370.19739246477911
 31
0.0
  0
LINE
  5
98
  8
DIMNSIONS
  6
CONTINUOUS
 62
     7
 10
60.0
 20
420.0
 30
0.0
 11
146.08334140777581
 21
420.0
 31
0.0
  0
TEXT
  5
99
  8
DIMNSIONS
 62
     7
 10
72.0
 20
425.96333368659009
 30
0.0
 40
16.288413400063551
  1
2-\U+03A69.0
 41
0.7
 11
72.0
 21
442.25174708665361
 31
0.0
 73
     3
  0
LINE
  5
9A
  8
DIMNSIONS
  6
CONTINUOUS
 62
     7
 10
-312.0
 20
327.0
 30
0.0
 11
-352.0
 21
327.0
 31
0.0
  0
LINE
  5
9B
  8
DIMNSIONS
  6
CONTINUOUS
 62
     7
 10
-312.0
 20
387.0
 30
0.0
 11
-352.0
 21
387.0
 31
0.0
  0
LINE
  5
9C
  8
DIMNSIONS
  6
CONTINUOUS
 62
     7
 10
-340.0
 20
327.0
 30
0.0
 11
-340.0
 21
387.0
 31
0.0
  0
LINE
  5
9D
  8
DIMNSIONS
  6
CONTINUOUS
 62
     7
 10
-340.0
 20
327.0
 30
0.0
 11
-344.02023877090153
 21
342.00373535156251
 31
0.0
  0
LINE
  5
9E
  8
DIMNSIONS
  6
CONTINUOUS
 62
     7
 10
-340.0
 20
327.0
 30
0.0
 11
-335.97976122909847
 21
342.00373535156251
 31
0.0
  0
LINE
  5
9F
  8
DIMNSIONS
  6
CONTINUOUS
 62
     7
 10
-340.0
 20
387.0
 30
0.0
 11
-335.97976122909847
 21
371.99626464843749
 31
0.0
  0
LINE
  5
A0
  8
DIMNSIONS
  6
CONTINUOUS
 62
     7
 10
-340.0
 20
387.0
 30
0.0
 11
-344.02023877090153
 21
371.99626464843749
 31
0.0
  0
TEXT
  5
A1
  8
DIMNSIONS
 62
     7
 10
-345.9633336865902
 20
335.83333131472273
 30
0.0
 40
16.288413400063551
  1
60.0
 50
90.0
 41
0.7
 11
-362.25174708665372
 21
335.83333131472273
 31
0.0
 73
     3
  0
LINE
  5
A2
  8
DIMNSIONS
  6
CONTINUOUS
 62
     7
 10
165.0
 20
-220.49999999999989
 30
0.0
 11
108.0
 21
-220.49999999999989
 31
0.0
  0
LINE
  5
A3
  8
DIMNSIONS
  6
CONTINUOUS
 62
     7
 10
165.0
 20
-194.49999999999989
 30
0.0
 11
108.0
 21
-194.49999999999989
 31
0.0
  0
LINE
  5
A4
  8
DIMNSIONS
  6
CONTINUOUS
 62
     7
 10
120.0
 20
-194.49999999999989
 30
0.0
 11
120.0
 21
-220.49999999999989
 31
0.0
  0
LINE
  5
A5
  8
DIMNSIONS
  6
CONTINUOUS
 62
     7
 10
120.0
 20
-220.49999999999989
 30
0.0
 11
120.0
 21
-282.33984576861059
 31
0.0
  0
LINE
  5
A6
  8
DIMNSIONS
  6
CONTINUOUS
 62
     7
 10
120.0
 20
-220.49999999999989
 30
0.0
 11
124.0202387709014
 21
-235.5037353515624
 31
0.0
  0
LINE
  5
A7
  8
DIMNSIONS
  6
CONTINUOUS
 62
     7
 10
120.0
 20
-220.49999999999989
 30
0.0
 11
115.9797612290985
 21
-235.5037353515624
 31
0.0
  0
LINE
  5
A8
  8
DIMNSIONS
  6
CONTINUOUS
 62
     7
 10
120.0
 20
-194.49999999999989
 30
0.0
 11
120.0
 21
-164.4999999999998
 31
0.0
  0
LINE
  5
A9
  8
DIMNSIONS
  6
CONTINUOUS
 62
     7
 10
120.0
 20
-194.49999999999989
 30
0.0
 11
115.9797612290985
 21
-179.49626464843729
 31
0.0
  0
LINE
  5
AA
  8
DIMNSIONS
  6
CONTINUOUS
 62
     7
 10
120.0
 20
-194.49999999999989
 30
0.0
 11
124.0202387709014
 21
-179.49626464843729
 31
0.0
  0
TEXT
  5
AB
  8
DIMNSIONS
 62
     7
 10
114.0366663134097
 20
-282.3398457686107
 30
0.0
 40
16.288413400063551
  1
26.0
 50
90.0
 41
0.7
 11
97.748252913346207
 21
-282.3398457686107
 31
0.0
 73
     3
  0
LINE
  5
AC
  8
DIMNSIONS
  6
CONTINUOUS
 62
     7
 10
181.28990754409219
 20
-191.0580974355538
 30
0.0
 11
220.0
 21
-160.0
 31
0.0
  0
LINE
  5
AD
  8
DIMNSIONS
  6
CONTINUOUS
 62
     7
 10
181.28990754409219
 20
-191.0580974355538
 30
0.0
 11
190.6379062125381
 21
-178.6528842100781
 31
0.0
  0
LINE
  5
AE
  8
DIMNSIONS
  6
CONTINUOUS
 62
     7
 10
181.28990754409219
 20
-191.0580974355538
 30
0.0
 11
195.5881184782474
 21
-184.9888669771521
 31
0.0
  0
LINE
  5
AF
  8
DIMNSIONS
  6
CONTINUOUS
 62
     7
 10
220.0
 20
-160.0
 30
0.0
 11
316.6666747411092
 21
-160.0
 31
0.0
  0
TEXT
  5
B0
  8
DIMNSIONS
 62
     7
 10
232.0
 20
-154.03666631340971
 30
0.0
 40
16.288413400063551
  1
2-\U+03A611.0
 41
0.7
 11
232.0
 21
-137.74825291334619
 31
0.0
 73
     3
  0
LINE
  5
B1
  8
DIMNSIONS
  6
CONTINUOUS
 62
     7
 10
251.0
 20
-437.0
 30
0.0
 11
251.0
 21
-472.0
 31
0.0
  0
LINE
  5
B2
  8
DIMNSIONS
  6
CONTINUOUS
 62
     7
 10
286.0
 20
-437.27854745982569
 30
0.0
 11
286.0
 21
-472.0
 31
0.0
  0
LINE
  5
B3
  8
DIMNSIONS
  6
CONTINUOUS
 62
     7
 10
251.0
 20
-460.0
 30
0.0
 11
200.66666262934541
 21
-460.0
 31
0.0
  0
LINE
  5
B4
  8
DIMNSIONS
  6
CONTINUOUS
 62
     7
 10
251.0
 20
-460.0
 30
0.0
 11
286.0
 21
-460.0
 31
0.0
  0
LINE
  5
B5
  8
DIMNSIONS
  6
CONTINUOUS
 62
     7
 10
251.0
 20
-460.0
 30
0.0
 11
266.00373535156251
 21
-455.97976122909847
 31
0.0
  0
LINE
  5
B6
  8
DIMNSIONS
  6
CONTINUOUS
 62
     7
 10
251.0
 20
-460.0
 30
0.0
 11
266.00373535156251
 21
-464.02023877090141
 31
0.0
  0
LINE
  5
B7
  8
DIMNSIONS
  6
CONTINUOUS
 62
     7
 10
286.0
 20
-460.0
 30
0.0
 11
270.99626464843749
 21
-464.02023877090141
 31
0.0
  0
LINE
  5
B8
  8
DIMNSIONS
  6
CONTINUOUS
 62
     7
 10
286.0
 20
-460.0
 30
0.0
 11
270.99626464843749
 21
-455.97976122909847
 31
0.0
  0
TEXT
  5
B9
  8
DIMNSIONS
 62
     7
 10
200.66666262934541
 20
-454.0366663134098
 30
0.0
 40
16.288413400063551
  1
35.0
 41
0.7
 11
200.66666262934541
 21
-437.74825291334622
 31
0.0
 73
     3
  0
LINE
  5
BA
  8
DIMNSIONS
  6
CONTINUOUS
 62
     7
 10
321.36363376213723
 20
-445.0
 30
0.0
 11
372.0
 21
-445.0
 31
0.0
  0
LINE
  5
BB
  8
DIMNSIONS
  6
CONTINUOUS
 62
     7
 10
321.36363376213723
 20
-395.0
 30
0.0
 11
372.0
 21
-395.0
 31
0.0
  0
LINE
  5
BC
  8
DIMNSIONS
  6
CONTINUOUS
 62
     7
 10
360.0
 20
-445.0
 30
0.0
 11
360.0
 21
-395.0
 31
0.0
  0
LINE
  5
BD
  8
DIMNSIONS
  6
CONTINUOUS
 62
     7
 10
360.0
 20
-445.0
 30
0.0
 11
355.97976122909859
 21
-429.99626464843749
 31
0.0
  0
LINE
  5
BE
  8
DIMNSIONS
  6
CONTINUOUS
 62
     7
 10
360.0
 20
-445.0
 30
0.0
 11
364.02023877090153
 21
-429.99626464843749
 31
0.0
  0
LINE
  5
BF
  8
DIMNSIONS
  6
CONTINUOUS
 62
     7
 10
360.0
 20
-395.0
 30
0.0
 11
364.02023877090153
 21
-410.00373535156251
 31
0.0
  0
LINE
  5
C0
  8
DIMNSIONS
  6
CONTINUOUS
 62
     7
 10
360.0
 20
-395.0
 30
0.0
 11
355.97976122909859
 21
-410.00373535156251
 31
0.0
  0
TEXT
  5
C1
  8
DIMNSIONS
 62
     7
 10
354.0366663134098
 20
-441.16666868527727
 30
0.0
 40
16.288413400063551
  1
50.0
 50
90.0
 41
0.7
 11
337.74825291334628
 21
-441.16666868527727
 31
0.0
 73
     3
  0
LINE
  5
C2
  8
DIMNSIONS
  6
CONTINUOUS
 62
     7
 10
-300.0
 20
-231.99999999999989
 30
0.0
 11
-300.0
 21
-272.0
 31
0.0
  0
LINE
  5
C3
  8
DIMNSIONS
  6
CONTINUOUS
 62
     7
 10
-296.49999999999989
 20
-231.99999999999989
 30
0.0
 11
-296.49999999999989
 21
-272.0
 31
0.0
  0
LINE
  5
C4
  8
DIMNSIONS
  6
CONTINUOUS
 62
     7
 10
-296.49999999999989
 20
-260.0
 30
0.0
 11
-300.0
 21
-260.0
 31
0.0
  0
LINE
  5
C5
  8
DIMNSIONS
  6
CONTINUOUS
 62
     7
 10
-300.0
 20
-260.0
 30
0.0
 11
-329.99999999999989
 21
-260.0
 31
0.0
  0
LINE
  5
C6
  8
DIMNSIONS
  6
CONTINUOUS
 62
     7
 10
-300.0
 20
-260.0
 30
0.0
 11
-315.0037353515624
 21
-264.02023877090153
 31
0.0
  0
LINE
  5
C7
  8
DIMNSIONS
  6
CONTINUOUS
 62
     7
 10
-300.0
 20
-260.0
 30
0.0
 11
-315.0037353515624
 21
-255.97976122909861
 31
0.0
  0
LINE
  5
C8
  8
DIMNSIONS
  6
CONTINUOUS
 62
     7
 10
-296.49999999999989
 20
-260.0
 30
0.0
 11
-245.240234375
 21
-260.0
 31
0.0
  0
LINE
  5
C9
  8
DIMNSIONS
  6
CONTINUOUS
 62
     7
 10
-296.49999999999989
 20
-260.0
 30
0.0
 11
-281.49626464843737
 21
-255.97976122909861
 31
0.0
  0
LINE
  5
CA
  8
DIMNSIONS
  6
CONTINUOUS
 62
     7
 10
-296.49999999999989
 20
-260.0
 30
0.0
 11
-281.49626464843737
 21
-264.02023877090153
 31
0.0
  0
TEXT
  5
CB
  8
DIMNSIONS
 62
     7
 10
-276.99023639361059
 20
-254.0366663134098
 30
0.0
 40
16.288413400063551
  1
3.5
 41
0.7
 11
-276.99023639361059
 21
-237.74825291334619
 31
0.0
 73
     3
  0
LINE
  5
CC
  8
DIMNSIONS
  6
CONTINUOUS
 62
     7
 10
-295.0
 20
-200.0
 30
0.0
 11
-152.20100255409881
 21
-200.0
 31
0.0
  0
LINE
  5
CD
  8
DIMNSIONS
  6
CONTINUOUS
 62
     7
 10
-296.49999999999989
 20
-200.0
 30
0.0
 11
-295.0
 21
-200.0
 31
0.0
  0
LINE
  5
CE
  8
DIMNSIONS
  6
CONTINUOUS
 62
     7
 10
-296.49999999999989
 20
-200.0
 30
0.0
 11
-281.49626464843737
 21
-195.9797612290985
 31
0.0
  0
LINE
  5
CF
  8
DIMNSIONS
  6
CONTINUOUS
 62
     7
 10
-296.49999999999989
 20
-200.0
 30
0.0
 11
-281.49626464843737
 21
-204.02023877090139
 31
0.0
  0
LINE
  5
D0
  8
DIMNSIONS
  6
CONTINUOUS
 62
     7
 10
-295.0
 20
-200.0
 30
0.0
 11
-310.00373535156251
 21
-204.02023877090139
 31
0.0
  0
LINE
  5
D1
  8
DIMNSIONS
  6
CONTINUOUS
 62
     7
 10
-295.0
 20
-200.0
 30
0.0
 11
-310.00373535156251
 21
-195.9797612290985
 31
0.0
  0
TEXT
  5
D2
  8
DIMNSIONS
 62
     7
 10
-268.61767729520801
 20
-194.03666631340971
 30
0.0
 40
16.288413400063551
  1
ゴム厚さ1.5
 41
0.7
 11
-268.61767729520801
 21
-177.74825291334619
 31
0.0
 73
     3
  0
TEXT
  5
D3
  8
DATA
 62
     7
 10
299.4719043529775
 20
-695.55558499999984
 30
0.0
 40
14.6595703125
  1
STX812M-YK
 41
0.7
 11
299.4719043529775
 21
-680.89601468749981
 31
0.0
 73
     3
  0
TEXT
  5
D4
  8
DATA
 62
     7
 10
294.32968976406198
 20
-669.04462078850258
 30
0.0
 40
9.7730622656249988
  1
U字金具
 41
0.7
 11
294.32968976406198
 21
-659.27155852287763
 31
0.0
 73
     3
  0
TEXT
  5
D5
  8
DATA
 62
     7
 10
-524.99999999999989
 20
-715.08325833333345
 30
0.0
 40
11.401888020833329
  1
※仕様及び外観は予告なく変更されることがあります。
 41
0.7
 11
-524.99999999999989
 21
-703.68137031250012
 31
0.0
 73
     3
  0
TEXT
  5
D6
  8
DATA
 62
     7
 10
-524.99999999999989
 20
-729.89992500000005
 30
0.0
 40
11.401888020833329
  1
　また、同一商品でも若干の個体差があることがあります。ご了承ください。
 41
0.7
 11
-524.99999999999989
 21
-718.49803697916661
 31
0.0
 73
     3
  0
LINE
  5
D7
  8
DATA
  6
CONTINUOUS
 62
     7
 10
-300.0
 20
-219.99999999999989
 30
0.0
 11
-300.0
 21
151.50000000000011
 31
0.0
  0
LINE
  5
D8
  8
DATA
  6
CONTINUOUS
 62
     7
 10
69.000000000000071
 20
151.50000000000011
 30
0.0
 11
69.000000000000071
 21
-219.99999999999989
 31
0.0
  0
LINE
  5
D9
  8
DATA
  6
CONTINUOUS
 62
     7
 10
-296.49999999999989
 20
155.00000000000011
 30
0.0
 11
65.500000000000071
 21
155.00000000000011
 31
0.0
  0
LINE
  5
DA
  8
DATA
  6
CONTINUOUS
 62
     7
 10
-296.49999999999989
 20
-219.99999999999989
 30
0.0
 11
-296.49999999999989
 21
148.00000000000011
 31
0.0
  0
LINE
  5
DB
  8
DATA
  6
CONTINUOUS
 62
     7
 10
65.500000000000071
 20
148.00000000000011
 30
0.0
 11
65.500000000000071
 21
-219.99999999999989
 31
0.0
  0
LINE
  5
DC
  8
DATA
  6
CONTINUOUS
 62
     7
 10
-300.0
 20
-219.99999999999989
 30
0.0
 11
-296.49999999999989
 21
-219.99999999999989
 31
0.0
  0
LINE
  5
DD
  8
DATA
  6
CONTINUOUS
 62
     7
 10
65.500000000000071
 20
-219.99999999999989
 30
0.0
 11
69.000000000000071
 21
-219.99999999999989
 31
0.0
  0
LINE
  5
DE
  8
DATA
  6
CONTINUOUS
 62
     7
 10
-290.5
 20
145.00000000000011
 30
0.0
 11
59.500000000000057
 21
145.00000000000011
 31
0.0
  0
LINE
  5
DF
  8
DATA
  6
CONTINUOUS
 62
     7
 10
-290.49999999999989
 20
155.00000000000011
 30
0.0
 11
-290.49999999999989
 21
145.00000000000011
 31
0.0
  0
LINE
  5
E0
  8
DATA
  6
CONTINUOUS
 62
     7
 10
59.500000000000057
 20
155.00000000000011
 30
0.0
 11
59.500000000000057
 21
145.00000000000011
 31
0.0
  0
LINE
  5
E1
  8
DATA
  6
CONTINUOUS
 62
     7
 10
-292.99999999999989
 20
151.50000000000011
 30
0.0
 11
-290.5
 21
151.50000000000011
 31
0.0
  0
LINE
  5
E2
  8
DATA
  6
CONTINUOUS
 62
     7
 10
59.500000000000057
 20
151.50000000000011
 30
0.0
 11
62.000000000000057
 21
151.50000000000011
 31
0.0
  0
ARC
  5
E3
  8
DATA
  6
CONTINUOUS
 62
     7
 10
-292.99999999999989
 20
148.00000000000011
 30
0.0
 40
3.5
 50
90.0
 51
180.0
  0
ARC
  5
E4
  8
DATA
  6
CONTINUOUS
 62
     7
 10
-296.49999999999989
 20
151.50000000000011
 30
0.0
 40
3.5
 50
90.0
 51
180.0
  0
ARC
  5
E5
  8
DATA
  6
CONTINUOUS
 62
     7
 10
62.000000000000057
 20
148.00000000000011
 30
0.0
 40
3.5
 50
0.0
 51
90.0
  0
ARC
  5
E6
  8
DATA
  6
CONTINUOUS
 62
     7
 10
65.500000000000071
 20
151.50000000000011
 30
0.0
 40
3.5
 50
0.0
 51
90.0
  0
LINE
  5
E7
  8
DATA
  6
CONTINUOUS
 62
     7
 10
-296.49999999999989
 20
-170.4999999999998
 30
0.0
 11
-294.99999999999989
 21
-170.4999999999998
 31
0.0
  0
LINE
  5
E8
  8
DATA
  6
CONTINUOUS
 62
     7
 10
64.000000000000171
 20
-170.4999999999998
 30
0.0
 11
65.500000000000099
 21
-170.4999999999998
 31
0.0
  0
LINE
  5
E9
  8
DATA
  6
CONTINUOUS
 62
     7
 10
65.500000000000071
 20
-218.49999999999989
 30
0.0
 11
64.000000000000071
 21
-218.49999999999989
 31
0.0
  0
LINE
  5
EA
  8
DATA
  6
CONTINUOUS
 62
     7
 10
-295.0
 20
-218.49999999999989
 30
0.0
 11
-296.5
 21
-218.49999999999989
 31
0.0
  0
LINE
  5
EB
  8
DATA
  6
CONTINUOUS
 62
     7
 10
-295.0
 20
-218.49999999999989
 30
0.0
 11
-294.99999999999989
 21
-170.4999999999998
 31
0.0
  0
LINE
  5
EC
  8
DATA
  6
CONTINUOUS
 62
     7
 10
64.000000000000071
 20
-218.49999999999989
 30
0.0
 11
64.000000000000099
 21
-170.4999999999998
 31
0.0
  0
LINE
  5
ED
  8
DATA
  6
CONTINUOUS
 62
     7
 10
-300.0
 20
327.0
 30
0.0
 11
-300.0
 21
387.0
 31
0.0
  0
LINE
  5
EE
  8
DATA
  6
CONTINUOUS
 62
     7
 10
69.000000000000071
 20
327.0
 30
0.0
 11
69.000000000000071
 21
387.0
 31
0.0
  0
LINE
  5
EF
  8
DATA
  6
CONTINUOUS
 62
     7
 10
-290.5
 20
320.0
 30
0.0
 11
60.0
 21
320.0
 31
0.0
  0
LINE
  5
F0
  8
DATA
  6
CONTINUOUS
 62
     7
 10
-290.5
 20
394.0
 30
0.0
 11
60.0
 21
394.0
 31
0.0
  0
CIRCLE
  5
F1
  8
DATA
  6
CONTINUOUS
 62
     7
 10
-115.4999999999999
 20
357.0
 30
0.0
 40
6.0
  0
CIRCLE
  5
F2
  8
DATA
  6
CONTINUOUS
 62
     7
 10
-245.0
 20
357.0
 30
0.0
 40
4.5
  0
CIRCLE
  5
F3
  8
DATA
  6
CONTINUOUS
 62
     7
 10
14.00000000000005
 20
357.0
 30
0.0
 40
4.5
  0
LINE
  5
F4
  8
DATA
  6
CONTINUOUS
 62
     7
 10
-290.49999999999989
 20
320.0
 30
0.0
 11
-290.49999999999989
 21
326.0
 31
0.0
  0
LINE
  5
F5
  8
DATA
  6
CONTINUOUS
 62
     7
 10
-290.49999999999989
 20
388.0
 30
0.0
 11
-290.49999999999989
 21
394.0
 31
0.0
  0
LINE
  5
F6
  8
DATA
  6
CONTINUOUS
 62
     7
 10
60.0
 20
320.0
 30
0.0
 11
60.0
 21
326.0
 31
0.0
  0
LINE
  5
F7
  8
DATA
  6
CONTINUOUS
 62
     7
 10
60.0
 20
388.0
 30
0.0
 11
60.0
 21
394.0
 31
0.0
  0
LINE
  5
F8
  8
DATA
  6
CONTINUOUS
 62
     7
 10
60.0
 20
388.0
 30
0.0
 11
69.000000000000071
 21
387.0
 31
0.0
  0
LINE
  5
F9
  8
DATA
  6
CONTINUOUS
 62
     7
 10
60.0
 20
326.0
 30
0.0
 11
69.000000000000071
 21
327.0
 31
0.0
  0
LINE
  5
FA
  8
DATA
  6
CONTINUOUS
 62
     7
 10
-290.49999999999989
 20
388.0
 30
0.0
 11
-300.0
 21
387.0
 31
0.0
  0
LINE
  5
FB
  8
DATA
  6
CONTINUOUS
 62
     7
 10
-290.49999999999989
 20
326.0
 30
0.0
 11
-300.0
 21
327.0
 31
0.0
  0
LINE
  5
FC
  8
DATA
  6
CONTINUOUS
 62
     7
 10
48.000000000000057
 20
337.0
 30
0.0
 11
-279.0
 21
337.0
 31
0.0
  0
LINE
  5
FD
  8
DATA
  6
CONTINUOUS
 62
     7
 10
-279.0
 20
377.0
 30
0.0
 11
48.000000000000057
 21
377.0
 31
0.0
  0
ARC
  5
FE
  8
DATA
  6
CONTINUOUS
 62
     7
 10
-299.8454545454544
 20
376.74545454545438
 30
0.0
 40
11.74647124786229
 50
269.24615166692882
 51
318.9370143093704
  0
ARC
  5
FF
  8
DATA
  6
CONTINUOUS
 62
     7
 10
-293.25072093781017
 20
371.0
 30
0.0
 40
3.0000000000004148
 50
318.93701430937722
 51
41.062985690622718
  0
ARC
  5
100
  8
DATA
  6
CONTINUOUS
 62
     7
 10
-299.8454545454544
 20
365.25454545454562
 30
0.0
 40
11.74647124786226
 50
41.062985690629539
 51
90.753848333071176
  0
ARC
  5
101
  8
DATA
  6
CONTINUOUS
 62
     7
 10
-299.8454545454544
 20
337.25454545454562
 30
0.0
 40
11.74647124786226
 50
41.062985690629539
 51
90.753848333071176
  0
ARC
  5
102
  8
DATA
  6
CONTINUOUS
 62
     7
 10
-293.25072093781017
 20
343.0
 30
0.0
 40
3.0000000000004148
 50
318.93701430937722
 51
41.062985690622718
  0
ARC
  5
103
  8
DATA
  6
CONTINUOUS
 62
     7
 10
-299.8454545454544
 20
348.74545454545438
 30
0.0
 40
11.74647124786229
 50
269.24615166692882
 51
318.9370143093704
  0
ARC
  5
104
  8
DATA
  6
CONTINUOUS
 62
     7
 10
68.845454545454515
 20
376.74545454545438
 30
0.0
 40
11.74647124786226
 50
221.0629856906296
 51
270.75384833307118
  0
ARC
  5
105
  8
DATA
  6
CONTINUOUS
 62
     7
 10
62.250720937810343
 20
371.0
 30
0.0
 40
3.0000000000004148
 50
138.93701430937719
 51
221.06298569062281
  0
ARC
  5
106
  8
DATA
  6
CONTINUOUS
 62
     7
 10
68.845454545454515
 20
365.25454545454562
 30
0.0
 40
11.74647124786229
 50
89.246151666928796
 51
138.9370143093704
  0
ARC
  5
107
  8
DATA
  6
CONTINUOUS
 62
     7
 10
68.845454545454515
 20
337.25454545454562
 30
0.0
 40
11.74647124786229
 50
89.246151666928796
 51
138.9370143093704
  0
ARC
  5
108
  8
DATA
  6
CONTINUOUS
 62
     7
 10
62.250720937810343
 20
343.0
 30
0.0
 40
3.0000000000004148
 50
138.93701430937719
 51
221.06298569062281
  0
ARC
  5
109
  8
DATA
  6
CONTINUOUS
 62
     7
 10
68.845454545454515
 20
348.74545454545438
 30
0.0
 40
11.74647124786226
 50
221.0629856906296
 51
270.75384833307118
  0
LINE
  5
10A
  8
DATA
  6
CONTINUOUS
 62
     7
 10
140.0
 20
145.00000000000011
 30
0.0
 11
140.0
 21
151.50000000000011
 31
0.0
  0
LINE
  5
10B
  8
DATA
  6
CONTINUOUS
 62
     7
 10
214.0
 20
145.00000000000011
 30
0.0
 11
214.0
 21
151.50000000000011
 31
0.0
  0
LINE
  5
10C
  8
DATA
  6
CONTINUOUS
 62
     7
 10
143.5
 20
155.00000000000011
 30
0.0
 11
210.5
 21
155.00000000000011
 31
0.0
  0
CIRCLE
  5
10D
  8
DATA
  6
CONTINUOUS
 62
     7
 10
177.0
 20
-194.49999999999989
 30
0.0
 40
5.5
  0
LINE
  5
10E
  8
DATA
  6
CONTINUOUS
 62
     7
 10
151.0
 20
-194.49999999999989
 30
0.0
 11
147.00000000000421
 21
155.0
 31
0.0
  0
LINE
  5
10F
  8
DATA
  6
CONTINUOUS
 62
     7
 10
206.99999999999579
 20
155.00000000000011
 30
0.0
 11
203.0
 21
-194.4999999999998
 31
0.0
  0
LINE
  5
110
  8
DATA
  6
CONTINUOUS
 62
     7
 10
140.0
 20
145.00000000000011
 30
0.0
 11
143.5
 21
145.00000000000011
 31
0.0
  0
LINE
  5
111
  8
DATA
  6
CONTINUOUS
 62
     7
 10
210.5
 20
145.00000000000011
 30
0.0
 11
214.0
 21
145.00000000000011
 31
0.0
  0
LINE
  5
112
  8
DATA
  6
CONTINUOUS
 62
     7
 10
147.0
 20
151.50000000000011
 30
0.0
 11
147.04005722461071
 21
151.50000000000011
 31
0.0
  0
LINE
  5
113
  8
DATA
  6
CONTINUOUS
 62
     7
 10
206.95994277538929
 20
151.50000000000011
 30
0.0
 11
207.0
 21
151.50000000000011
 31
0.0
  0
LINE
  5
114
  8
DATA
  6
CONTINUOUS
 62
     7
 10
143.5
 20
145.00000000000011
 30
0.0
 11
143.5
 21
148.00000000000011
 31
0.0
  0
LINE
  5
115
  8
DATA
  6
CONTINUOUS
 62
     7
 10
210.5
 20
145.00000000000011
 30
0.0
 11
210.5
 21
148.00000000000011
 31
0.0
  0
ARC
  5
116
  8
DATA
  6
CONTINUOUS
 62
     7
 10
143.5
 20
151.50000000000011
 30
0.0
 40
3.5
 50
90.0
 51
180.0
  0
ARC
  5
117
  8
DATA
  6
CONTINUOUS
 62
     7
 10
147.0
 20
148.00000000000011
 30
0.0
 40
3.5
 50
90.0
 51
180.0
  0
ARC
  5
118
  8
DATA
  6
CONTINUOUS
 62
     7
 10
207.0
 20
148.00000000000011
 30
0.0
 40
3.5
 50
0.0
 51
90.0
  0
ARC
  5
119
  8
DATA
  6
CONTINUOUS
 62
     7
 10
210.5
 20
151.50000000000011
 30
0.0
 40
3.5
 50
0.0
 51
90.0
  0
ARC
  5
11A
  8
DATA
  6
CONTINUOUS
 62
     7
 10
177.0
 20
-194.49999999999989
 30
0.0
 40
26.0
 50
180.0
 51
0.0000000000000568
  0
ARC
  5
11B
  8
DATA
  6
CONTINUOUS
 62
     7
 10
157.2545454545407
 20
154.84545454544161
 30
0.0
 40
11.74647124786226
 50
311.0629856906296
 51
0.7538483330712325
  0
ARC
  5
11C
  8
DATA
  6
CONTINUOUS
 62
     7
 10
162.99999999999511
 20
148.25072093779741
 30
0.0
 40
3.0000000000004148
 50
228.93701430937719
 51
311.06298569062278
  0
ARC
  5
11D
  8
DATA
  6
CONTINUOUS
 62
     7
 10
168.74545454544941
 20
154.84545454544161
 30
0.0
 40
11.74647124786229
 50
179.2461516669288
 51
228.9370143093704
  0
ARC
  5
11E
  8
DATA
  6
CONTINUOUS
 62
     7
 10
196.74545454544941
 20
154.84545454544161
 30
0.0
 40
11.74647124786229
 50
179.2461516669288
 51
228.9370143093704
  0
ARC
  5
11F
  8
DATA
  6
CONTINUOUS
 62
     7
 10
190.99999999999511
 20
148.25072093779741
 30
0.0
 40
3.0000000000004148
 50
228.93701430937719
 51
311.06298569062278
  0
ARC
  5
120
  8
DATA
  6
CONTINUOUS
 62
     7
 10
185.25454545454059
 20
154.84545454544161
 30
0.0
 40
11.74647124786226
 50
311.0629856906296
 51
0.7538483330712325
  0
LINE
  5
121
  8
DATA
  6
CONTINUOUS
 62
     7
 10
-300.0
 20
-333.00000000002848
 30
0.0
 11
-300.0
 21
-393.00000000002848
 31
0.0
  0
LINE
  5
122
  8
DATA
  6
CONTINUOUS
 62
     7
 10
69.000000000000071
 20
-333.00000000002848
 30
0.0
 11
69.000000000000071
 21
-393.00000000002848
 31
0.0
  0
LINE
  5
123
  8
DATA
  6
CONTINUOUS
 62
     7
 10
-290.5
 20
-326.00000000002848
 30
0.0
 11
60.0
 21
-326.00000000002848
 31
0.0
  0
LINE
  5
124
  8
DATA
  6
CONTINUOUS
 62
     7
 10
-290.5
 20
-400.00000000002882
 30
0.0
 11
60.0
 21
-400.00000000002882
 31
0.0
  0
CIRCLE
  5
125
  8
DATA
  6
CONTINUOUS
 62
     7
 10
-115.4999999999999
 20
-363.00000000002848
 30
0.0
 40
6.0
  0
CIRCLE
  5
126
  8
DATA
  6
CONTINUOUS
 62
     7
 10
-245.0
 20
-363.00000000002848
 30
0.0
 40
4.5
  0
CIRCLE
  5
127
  8
DATA
  6
CONTINUOUS
 62
     7
 10
14.00000000000005
 20
-363.00000000002848
 30
0.0
 40
4.5
  0
LINE
  5
128
  8
DATA
  6
CONTINUOUS
 62
     7
 10
-290.49999999999989
 20
-326.00000000002848
 30
0.0
 11
-290.49999999999989
 21
-332.00000000002848
 31
0.0
  0
LINE
  5
129
  8
DATA
  6
CONTINUOUS
 62
     7
 10
-290.49999999999989
 20
-394.00000000002848
 30
0.0
 11
-290.49999999999989
 21
-400.00000000002882
 31
0.0
  0
LINE
  5
12A
  8
DATA
  6
CONTINUOUS
 62
     7
 10
60.0
 20
-326.00000000002848
 30
0.0
 11
60.0
 21
-332.00000000002848
 31
0.0
  0
LINE
  5
12B
  8
DATA
  6
CONTINUOUS
 62
     7
 10
60.0
 20
-394.00000000002848
 30
0.0
 11
60.0
 21
-400.00000000002882
 31
0.0
  0
LINE
  5
12C
  8
DATA
  6
CONTINUOUS
 62
     7
 10
60.0
 20
-394.00000000002848
 30
0.0
 11
69.000000000000071
 21
-393.00000000002848
 31
0.0
  0
LINE
  5
12D
  8
DATA
  6
CONTINUOUS
 62
     7
 10
60.0
 20
-332.00000000002848
 30
0.0
 11
69.000000000000071
 21
-333.00000000002848
 31
0.0
  0
LINE
  5
12E
  8
DATA
  6
CONTINUOUS
 62
     7
 10
-290.49999999999989
 20
-394.00000000002848
 30
0.0
 11
-300.0
 21
-393.00000000002848
 31
0.0
  0
LINE
  5
12F
  8
DATA
  6
CONTINUOUS
 62
     7
 10
-290.49999999999989
 20
-332.00000000002848
 30
0.0
 11
-300.0
 21
-333.00000000002848
 31
0.0
  0
ARC
  5
130
  8
DATA
  6
CONTINUOUS
 62
     7
 10
-299.8454545454544
 20
-382.74545454548291
 30
0.0
 40
11.74647124786226
 50
41.062985690629539
 51
65.637833819436935
  0
ARC
  5
131
  8
DATA
  6
CONTINUOUS
 62
     7
 10
-293.25072093781017
 20
-377.00000000002859
 30
0.0
 40
3.0000000000004148
 50
318.93701430937722
 51
41.062985690622718
  0
ARC
  5
132
  8
DATA
  6
CONTINUOUS
 62
     7
 10
-299.8454545454544
 20
-371.25454545457421
 30
0.0
 40
11.746471247862299
 50
294.36216618056318
 51
318.93701430937062
  0
ARC
  5
133
  8
DATA
  6
CONTINUOUS
 62
     7
 10
-299.8454545454544
 20
-343.25454545457421
 30
0.0
 40
11.746471247862299
 50
294.36216618056318
 51
318.93701430937062
  0
ARC
  5
134
  8
DATA
  6
CONTINUOUS
 62
     7
 10
-293.25072093781017
 20
-349.00000000002848
 30
0.0
 40
3.0000000000004148
 50
318.93701430937722
 51
41.062985690622718
  0
ARC
  5
135
  8
DATA
  6
CONTINUOUS
 62
     7
 10
-299.8454545454544
 20
-354.7454545454828
 30
0.0
 40
11.74647124786226
 50
41.062985690629539
 51
65.637833819436679
  0
ARC
  5
136
  8
DATA
  6
CONTINUOUS
 62
     7
 10
68.845454545454515
 20
-382.74545454548291
 30
0.0
 40
11.746471247862321
 50
114.36216618056331
 51
138.9370143093706
  0
ARC
  5
137
  8
DATA
  6
CONTINUOUS
 62
     7
 10
62.250720937810343
 20
-377.00000000002859
 30
0.0
 40
3.0000000000004148
 50
138.93701430937719
 51
221.06298569062281
  0
ARC
  5
138
  8
DATA
  6
CONTINUOUS
 62
     7
 10
68.845454545454515
 20
-371.25454545457421
 30
0.0
 40
11.74647124786226
 50
221.0629856906296
 51
245.63783381943639
  0
ARC
  5
139
  8
DATA
  6
CONTINUOUS
 62
     7
 10
68.845454545454515
 20
-343.25454545457421
 30
0.0
 40
11.74647124786226
 50
221.0629856906296
 51
245.63783381943639
  0
ARC
  5
13A
  8
DATA
  6
CONTINUOUS
 62
     7
 10
62.250720937810343
 20
-349.00000000002848
 30
0.0
 40
3.0000000000004148
 50
138.93701430937719
 51
221.06298569062281
  0
ARC
  5
13B
  8
DATA
  6
CONTINUOUS
 62
     7
 10
68.845454545454515
 20
-354.7454545454828
 30
0.0
 40
11.746471247862321
 50
114.36216618056331
 51
138.9370143093706
  0
LINE
  5
13C
  8
DATA
  6
CONTINUOUS
 62
     7
 10
-296.49999999999989
 20
-332.63157894739692
 30
0.0
 11
-296.49999999999989
 21
-393.36842105265998
 31
0.0
  0
LINE
  5
13D
  8
DATA
  6
CONTINUOUS
 62
     7
 10
65.500000000000071
 20
-332.61111111113962
 30
0.0
 11
65.500000000000071
 21
-393.38888888891751
 31
0.0
  0
LINE
  5
13E
  8
DATA
  6
CONTINUOUS
 62
     7
 10
-295.0
 20
-387.00000000002859
 30
0.0
 11
-295.0
 21
-339.00000000002848
 31
0.0
  0
LINE
  5
13F
  8
DATA
  6
CONTINUOUS
 62
     7
 10
-296.49999999999989
 20
-339.00000000002848
 30
0.0
 11
-295.0
 21
-339.00000000002848
 31
0.0
  0
LINE
  5
140
  8
DATA
  6
CONTINUOUS
 62
     7
 10
-296.49999999999989
 20
-387.00000000002859
 30
0.0
 11
-295.0
 21
-387.00000000002859
 31
0.0
  0
LINE
  5
141
  8
DATA
  6
CONTINUOUS
 62
     7
 10
64.000000000000071
 20
-387.00000000002859
 30
0.0
 11
64.000000000000071
 21
-339.00000000002848
 31
0.0
  0
LINE
  5
142
  8
DATA
  6
CONTINUOUS
 62
     7
 10
64.000000000000071
 20
-339.00000000002848
 30
0.0
 11
65.500000000000071
 21
-339.00000000002848
 31
0.0
  0
LINE
  5
143
  8
DATA
  6
CONTINUOUS
 62
     7
 10
64.000000000000071
 20
-387.00000000002859
 30
0.0
 11
65.500000000000071
 21
-387.00000000002859
 31
0.0
  0
LINE
  5
144
  8
DATA
  6
CONTINUOUS
 62
     7
 10
48.000000000000057
 20
-334.50000000002848
 30
0.0
 11
-279.0
 21
-334.50000000002848
 31
0.0
  0
LINE
  5
145
  8
DATA
  6
CONTINUOUS
 62
     7
 10
48.000000000000057
 20
-351.50000000002848
 30
0.0
 11
-279.0
 21
-351.50000000002848
 31
0.0
  0
LINE
  5
146
  8
DATA
  6
CONTINUOUS
 62
     7
 10
48.000000000000057
 20
-391.50000000002859
 30
0.0
 11
-279.0
 21
-391.50000000002859
 31
0.0
  0
LINE
  5
147
  8
DATA
  6
CONTINUOUS
 62
     7
 10
48.000000000000057
 20
-374.50000000002848
 30
0.0
 11
-279.0
 21
-374.50000000002848
 31
0.0
  0
LINE
  5
148
  8
DATA
  6
CONTINUOUS
 62
     7
 10
423.5
 20
-397.47392491029751
 30
0.0
 11
423.5
 21
-400.00000000000011
 31
0.0
  0
LINE
  5
149
  8
DATA
  6
CONTINUOUS
 62
     7
 10
423.5
 20
-439.99999999999972
 30
0.0
 11
423.5
 21
-442.52607508970249
 31
0.0
  0
LINE
  5
14A
  8
DATA
  6
CONTINUOUS
 62
     7
 10
416.5
 20
-442.52607508970249
 30
0.0
 11
416.5
 21
-439.99999999999972
 31
0.0
  0
LINE
  5
14B
  8
DATA
  6
CONTINUOUS
 62
     7
 10
416.5
 20
-400.00000000000011
 30
0.0
 11
416.5
 21
-397.47392491029751
 31
0.0
  0
LINE
  5
14C
  8
DATA
  6
CONTINUOUS
 62
     7
 10
442.52607508970249
 20
-423.5
 30
0.0
 11
440.0000000000008
 21
-423.5
 31
0.0
  0
LINE
  5
14D
  8
DATA
  6
CONTINUOUS
 62
     7
 10
399.9999999999992
 20
-423.5
 30
0.0
 11
397.47392491029751
 21
-423.5
 31
0.0
  0
LINE
  5
14E
  8
DATA
  6
CONTINUOUS
 62
     7
 10
397.47392491029763
 20
-416.5
 30
0.0
 11
400.00000000000023
 21
-416.5
 31
0.0
  0
LINE
  5
14F
  8
DATA
  6
CONTINUOUS
 62
     7
 10
439.99999999999972
 20
-416.5
 30
0.0
 11
442.5260750897026
 21
-416.5
 31
0.0
  0
ARC
  5
150
  8
DATA
  6
CONTINUOUS
 62
     7
 10
398.04234824156168
 20
-398.04234824156168
 30
0.0
 40
18.56117746381133
 50
276.0542595075874
 51
353.94574049241243
  0
ARC
  5
151
  8
DATA
  6
CONTINUOUS
 62
     7
 10
441.95765175843832
 20
-398.04234824156168
 30
0.0
 40
18.56117746381134
 50
186.0542595075876
 51
263.9457404924126
  0
ARC
  5
152
  8
DATA
  6
CONTINUOUS
 62
     7
 10
398.04234824156168
 20
-441.95765175843832
 30
0.0
 40
18.56117746381134
 50
6.0542595075875969
 51
83.945740492412583
  0
ARC
  5
153
  8
DATA
  6
CONTINUOUS
 62
     7
 10
441.95765175843832
 20
-441.95765175843832
 30
0.0
 40
18.56117746381133
 50
96.054259507587403
 51
173.9457404924124
  0
ARC
  5
154
  8
DATA
  6
CONTINUOUS
 62
     7
 10
418.5
 20
-397.47392491029751
 30
0.0
 40
2.0000000000000511
 50
125.0678566494318
 51
180.0
  0
ARC
  5
155
  8
DATA
  6
CONTINUOUS
 62
     7
 10
421.49999999999989
 20
-397.47392491029751
 30
0.0
 40
2.000000000000056
 50
0.0
 51
54.93214335056819
  0
ARC
  5
156
  8
DATA
  6
CONTINUOUS
 62
     7
 10
420.0
 20
-399.61075622617881
 30
0.0
 40
4.6107562261787454
 50
54.932143350569802
 51
125.0678566494302
  0
ARC
  5
157
  8
DATA
  6
CONTINUOUS
 62
     7
 10
418.5
 20
-442.52607508970249
 30
0.0
 40
2.000000000000056
 50
180.0
 51
234.9321433505682
  0
ARC
  5
158
  8
DATA
  6
CONTINUOUS
 62
     7
 10
421.49999999999989
 20
-442.52607508970249
 30
0.0
 40
2.0000000000000511
 50
305.0678566494318
 51
0.0
  0
ARC
  5
159
  8
DATA
  6
CONTINUOUS
 62
     7
 10
420.0
 20
-440.38924377382119
 30
0.0
 40
4.6107562261787454
 50
234.9321433505699
 51
305.06785664943021
  0
ARC
  5
15A
  8
DATA
  6
CONTINUOUS
 62
     7
 10
442.52607508970249
 20
-421.49999999999989
 30
0.0
 40
2.000000000000056
 50
270.0
 51
324.9321433505682
  0
ARC
  5
15B
  8
DATA
  6
CONTINUOUS
 62
     7
 10
442.52607508970249
 20
-418.5
 30
0.0
 40
2.0000000000000511
 50
35.067856649431803
 51
90.0
  0
ARC
  5
15C
  8
DATA
  6
CONTINUOUS
 62
     7
 10
440.38924377382119
 20
-420.0
 30
0.0
 40
4.6107562261787454
 50
324.93214335056979
 51
35.067856649430212
  0
ARC
  5
15D
  8
DATA
  6
CONTINUOUS
 62
     7
 10
397.47392491029751
 20
-421.49999999999989
 30
0.0
 40
2.0000000000000511
 50
215.06785664943169
 51
270.0
  0
ARC
  5
15E
  8
DATA
  6
CONTINUOUS
 62
     7
 10
397.47392491029751
 20
-418.5
 30
0.0
 40
2.000000000000056
 50
90.0
 51
144.93214335056811
  0
ARC
  5
15F
  8
DATA
  6
CONTINUOUS
 62
     7
 10
399.61075622617881
 20
-420.0
 30
0.0
 40
4.6107562261787454
 50
144.93214335056979
 51
215.0678566494301
  0
LINE
  5
160
  8
DATA
  6
CONTINUOUS
 62
     7
 10
251.0
 20
-425.0
 30
0.0
 11
251.0
 21
-415.0
 31
0.0
  0
LINE
  5
161
  8
DATA
  6
CONTINUOUS
 62
     7
 10
286.0
 20
-430.55709491965138
 30
0.0
 11
286.0
 21
-409.44290508034851
 31
0.0
  0
LINE
  5
162
  8
DATA
  6
CONTINUOUS
 62
     7
 10
251.0
 20
-415.0
 30
0.0
 11
280.69999999999999
 21
-415.0
 31
0.0
  0
LINE
  5
163
  8
DATA
  6
CONTINUOUS
 62
     7
 10
280.69999999999999
 20
-425.0
 30
0.0
 11
251.0
 21
-425.0
 31
0.0
  0
LINE
  5
164
  8
DATA
  6
CONTINUOUS
 62
     7
 10
303.0
 20
-444.0
 30
0.0
 11
303.0
 21
-396.0
 31
0.0
  0
LINE
  5
165
  8
DATA
  6
CONTINUOUS
 62
     7
 10
286.94127797804862
 20
-408.44463070717347
 30
0.0
 11
303.0
 21
-407.5
 31
0.0
  0
LINE
  5
166
  8
DATA
  6
CONTINUOUS
 62
     7
 10
286.9412779780485
 20
-431.55536929282641
 30
0.0
 11
303.0
 21
-432.5
 31
0.0
  0
LINE
  5
167
  8
DATA
  6
CONTINUOUS
 62
     7
 10
314.7272675242744
 20
-395.0
 30
0.0
 11
304.0
 21
-395.0
 31
0.0
  0
LINE
  5
168
  8
DATA
  6
CONTINUOUS
 62
     7
 10
314.7272675242744
 20
-445.0
 30
0.0
 11
304.0
 21
-445.0
 31
0.0
  0
ARC
  5
169
  8
DATA
  6
CONTINUOUS
 62
     7
 10
181.30000000000001
 20
-427.69999999999999
 30
0.0
 40
138.9135702514337
 50
3.1775422238660411
 51
12.957547772561631
  0
ARC
  5
16A
  8
DATA
  6
CONTINUOUS
 62
     7
 10
314.7272675242744
 20
-397.0
 30
0.0
 40
1.999999999999992
 50
12.95754777256221
 51
90.0
  0
ARC
  5
16B
  8
DATA
  6
CONTINUOUS
 62
     7
 10
314.7272675242744
 20
-443.0
 30
0.0
 40
1.9999999999998861
 50
270.0
 51
347.042452227441
  0
ARC
  5
16C
  8
DATA
  6
CONTINUOUS
 62
     7
 10
181.30000000000001
 20
-412.30000000000001
 30
0.0
 40
138.9135702514337
 50
347.04245222743828
 51
356.82245777613412
  0
ARC
  5
16D
  8
DATA
  6
CONTINUOUS
 62
     7
 10
287.0
 20
-409.44290508034851
 30
0.0
 40
1.000000000000038
 50
93.366460663427901
 51
179.99999999999679
  0
ARC
  5
16E
  8
DATA
  6
CONTINUOUS
 62
     7
 10
287.0
 20
-430.55709491965138
 30
0.0
 40
0.9999999999999431
 50
180.0
 51
266.63353933657191
  0
ARC
  5
16F
  8
DATA
  6
CONTINUOUS
 62
     7
 10
304.0
 20
-396.0
 30
0.0
 40
1.0
 50
90.0
 51
180.0
  0
ARC
  5
170
  8
DATA
  6
CONTINUOUS
 62
     7
 10
304.0
 20
-444.0
 30
0.0
 40
1.0
 50
180.0
 51
270.0
  0
LINE
  5
171
  8
DATA
  6
CONTINUOUS
 62
     7
 10
319.76133034172381
 20
-416.5
 30
0.0
 11
303.0
 21
-416.5
 31
0.0
  0
LINE
  5
172
  8
DATA
  6
CONTINUOUS
 62
     7
 10
398.73696245514839
 20
-423.5
 30
0.0
 11
397.47392491029751
 21
-423.5
 31
0.0
  0
LINE
  5
173
  8
DATA
  6
CONTINUOUS
 62
     7
 10
319.76133034172392
 20
-423.5
 30
0.0
 11
303.0
 21
-423.5
 31
0.0
  0
LINE
  5
174
  8
DATA
  6
CONTINUOUS
 62
     7
 10
251.0
 20
-415.0
 30
0.0
 11
252.17647058823539
 21
-425.0
 31
0.0
  0
LINE
  5
175
  8
DATA
  6
CONTINUOUS
 62
     7
 10
253.0
 20
-415.0
 30
0.0
 11
254.17647058823539
 21
-425.0
 31
0.0
  0
LINE
  5
176
  8
DATA
  6
CONTINUOUS
 62
     7
 10
255.0
 20
-415.0
 30
0.0
 11
256.1764705882353
 21
-425.0
 31
0.0
  0
LINE
  5
177
  8
DATA
  6
CONTINUOUS
 62
     7
 10
257.0
 20
-415.0
 30
0.0
 11
258.1764705882353
 21
-425.0
 31
0.0
  0
LINE
  5
178
  8
DATA
  6
CONTINUOUS
 62
     7
 10
259.0
 20
-415.0
 30
0.0
 11
260.1764705882353
 21
-425.0
 31
0.0
  0
LINE
  5
179
  8
DATA
  6
CONTINUOUS
 62
     7
 10
261.0
 20
-415.0
 30
0.0
 11
262.1764705882353
 21
-425.0
 31
0.0
  0
LINE
  5
17A
  8
DATA
  6
CONTINUOUS
 62
     7
 10
263.0
 20
-415.0
 30
0.0
 11
264.1764705882353
 21
-425.0
 31
0.0
  0
LINE
  5
17B
  8
DATA
  6
CONTINUOUS
 62
     7
 10
265.0
 20
-415.0
 30
0.0
 11
266.1764705882353
 21
-425.0
 31
0.0
  0
LINE
  5
17C
  8
DATA
  6
CONTINUOUS
 62
     7
 10
267.0
 20
-415.0
 30
0.0
 11
268.1764705882353
 21
-425.0
 31
0.0
  0
LINE
  5
17D
  8
DATA
  6
CONTINUOUS
 62
     7
 10
269.0
 20
-415.0
 30
0.0
 11
270.1764705882353
 21
-425.0
 31
0.0
  0
LINE
  5
17E
  8
DATA
  6
CONTINUOUS
 62
     7
 10
271.0
 20
-415.0
 30
0.0
 11
272.1764705882353
 21
-425.0
 31
0.0
  0
LINE
  5
17F
  8
DATA
  6
CONTINUOUS
 62
     7
 10
273.0
 20
-415.0
 30
0.0
 11
274.1764705882353
 21
-425.0
 31
0.0
  0
LINE
  5
180
  8
DATA
  6
CONTINUOUS
 62
     7
 10
275.0
 20
-415.0
 30
0.0
 11
276.1764705882353
 21
-425.0
 31
0.0
  0
LINE
  5
181
  8
DATA
  6
CONTINUOUS
 62
     7
 10
277.0
 20
-415.0
 30
0.0
 11
278.1764705882353
 21
-425.0
 31
0.0
  0
LINE
  5
182
  8
DATA
  6
CONTINUOUS
 62
     7
 10
279.0
 20
-415.0
 30
0.0
 11
280.1764705882353
 21
-425.0
 31
0.0
  0
TEXT
  5
183
  8
DATA
 62
     7
 10
259.39096916639761
 20
-514.79693800701034
 30
0.0
 40
16.288413400063551
  1
ノブ　\U+00D72式
 41
0.7
 11
259.39096916639761
 21
-506.65273130697841
 31
0.0
 73
     2
  0
TEXT
  5
184
  8
DATA
 62
     7
 10
195.50488180319471
 20
-375.16075058747492
 30
0.0
 40
16.288413400063551
  1
M10
 41
0.7
 11
195.50488180319471
 21
-367.01654388744322
 31
0.0
 73
     2
  0
LINE
  5
185
  8
DATA
  6
CONTINUOUS
 62
     7
 10
240.0
 20
-380.0
 30
0.0
 11
184.0
 21
-380.0
 31
0.0
  0
LINE
  5
186
  8
DATA
  6
CONTINUOUS
 62
     7
 10
240.0
 20
-380.0
 30
0.0
 11
255.0
 21
-415.0
 31
0.0
  0
LINE
  5
187
  8
DATA
  6
CONTINUOUS
 62
     7
 10
255.0
 20
-415.0
 30
0.0
 11
242.857917465555
 21
-399.4588430626394
 31
0.0
  0
LINE
  5
188
  8
DATA
  6
CONTINUOUS
 62
     7
 10
255.0
 20
-415.0
 30
0.0
 11
252.25522653900359
 21
-395.46992202082259
 31
0.0
  0
POLYLINE
  5
189
  8
DATA
  6
CONTINUOUS
 62
     7
 66
     1
 10
0.0
 20
0.0
 30
0.0
 70
     1
  0
VERTEX
  5
23B
  8
DATA
  6
CONTINUOUS
 62
     7
 10
283.40000000000009
 20
-412.5
 30
0.0
  0
VERTEX
  5
23C
  8
DATA
  6
CONTINUOUS
 62
     7
 10
286.00000000000011
 20
-412.5
 30
0.0
  0
VERTEX
  5
23D
  8
DATA
  6
CONTINUOUS
 62
     7
 10
286.00000000000011
 20
-427.5
 30
0.0
  0
VERTEX
  5
23E
  8
DATA
  6
CONTINUOUS
 62
     7
 10
283.40000000000009
 20
-427.5
 30
0.0
  0
SEQEND
  5
23F
  8
DATA
  6
CONTINUOUS
 62
     7
  0
POLYLINE
  5
190
  8
DATA
  6
CONTINUOUS
 62
     7
 66
     1
 10
0.0
 20
0.0
 30
0.0
 70
     1
  0
VERTEX
  5
240
  8
DATA
  6
CONTINUOUS
 62
     7
 10
280.69999999999999
 20
-407.5
 30
0.0
  0
VERTEX
  5
241
  8
DATA
  6
CONTINUOUS
 62
     7
 10
283.40000000000009
 20
-407.5
 30
0.0
  0
VERTEX
  5
242
  8
DATA
  6
CONTINUOUS
 62
     7
 10
283.40000000000009
 20
-432.5
 30
0.0
  0
VERTEX
  5
243
  8
DATA
  6
CONTINUOUS
 62
     7
 10
280.69999999999999
 20
-432.5
 30
0.0
  0
SEQEND
  5
244
  8
DATA
  6
CONTINUOUS
 62
     7
  0
LINE
  5
197
  8
DATA
  6
CONTINUOUS
 62
     7
 10
250.0
 20
-520.0
 30
0.0
 11
390.0
 21
-520.0
 31
0.0
  0
TEXT
  5
198
  8
DATA
 62
     7
 10
299.11976184667981
 20
-647.12625134140751
 30
0.0
 40
14.6595703125
  1
JBL PROFESSIONAL
 41
0.7
 11
299.11976184667981
 21
-632.46668102890737
 31
0.0
 73
     3
  0
ENDSEC
  0
EOF
