  0
SECTION
  2
HEADER
  9
$ACADVER
  1
AC1009
  9
$INSBASE
 10
0.0
 20
0.0
 30
0.0
  9
$EXTMIN
 10
79.970706757123935
 20
19.050298020069931
 30
-0.0015258207003583
  9
$EXTMAX
 10
1520.0463902578299
 20
2160.0659229979692
 30
0.0000000349246037
  9
$LIMMIN
 10
0.0
 20
0.0
  9
$LIMMAX
 10
0.0
 20
0.0
  9
$ORTHOMODE
 70
     0
  9
$REGENMODE
 70
     1
  9
$FILLMODE
 70
     1
  9
$QTEXTMODE
 70
     0
  9
$MIRRTEXT
 70
     1
  9
$DRAGMODE
 70
     2
  9
$LTSCALE
 40
40.640000000000001
  9
$OSMODE
 70
   231
  9
$ATTMODE
 70
     1
  9
$TEXTSIZE
 40
0.0
  9
$TRACEWID
 40
1.0
  9
$TEXTSTYLE
  7
STANDARD
  9
$CLAYER
  8
DATA
  9
$CELTYPE
  6
BYLAYER
  9
$CECOLOR
 62
   256
  9
$DIMSCALE
 40
1.0
  9
$DIMASZ
 40
0.18
  9
$DIMEXO
 40
0.0625
  9
$DIMDLI
 40
0.38
  9
$DIMRND
 40
0.0
  9
$DIMDLE
 40
0.0
  9
$DIMEXE
 40
0.18
  9
$DIMTP
 40
0.0
  9
$DIMTM
 40
0.0
  9
$DIMTXT
 40
0.18
  9
$DIMCEN
 40
0.09
  9
$DIMTSZ
 40
0.0
  9
$DIMTOL
 70
     0
  9
$DIMLIM
 70
     0
  9
$DIMTIH
 70
     1
  9
$DIMTOH
 70
     1
  9
$DIMSE1
 70
     0
  9
$DIMSE2
 70
     0
  9
$DIMTAD
 70
     0
  9
$DIMZIN
 70
     0
  9
$DIMBLK
  1

  9
$DIMASO
 70
     1
  9
$DIMSHO
 70
     1
  9
$DIMPOST
  1

  9
$DIMAPOST
  1

  9
$DIMALT
 70
     0
  9
$DIMALTD
 70
     2
  9
$DIMALTF
 40
25.399999999999999
  9
$DIMLFAC
 40
1.0
  9
$DIMTOFL
 70
     0
  9
$DIMTVP
 40
0.0
  9
$DIMTIX
 70
     0
  9
$DIMSOXD
 70
     0
  9
$DIMSAH
 70
     0
  9
$DIMBLK1
  1

  9
$DIMBLK2
  1

  9
$DIMSTYLE
  2
STANDARD
  9
$DIMCLRD
 70
     0
  9
$DIMCLRE
 70
     0
  9
$DIMCLRT
 70
     0
  9
$DIMTFAC
 40
1.0
  9
$DIMGAP
 40
0.09
  9
$LUNITS
 70
     2
  9
$LUPREC
 70
     4
  9
$SKETCHINC
 40
0.1
  9
$FILLETRAD
 40
0.0
  9
$AUNITS
 70
     0
  9
$AUPREC
 70
     0
  9
$MENU
  1
acad
  9
$ELEVATION
 40
0.0
  9
$PELEVATION
 40
0.0
  9
$THICKNESS
 40
0.0
  9
$LIMCHECK
 70
     0
  9
$BLIPMODE
 70
     0
  9
$CHAMFERA
 40
0.0
  9
$CHAMFERB
 40
0.0
  9
$SKPOLY
 70
     0
  9
$TDCREATE
 40
2454851.5924652782
  9
$TDUPDATE
 40
2454851.5930726621
  9
$TDINDWG
 40
0.0003915394
  9
$TDUSRTIMER
 40
0.0003902778
  9
$USRTIMER
 70
     1
  9
$ANGBASE
 50
0.0
  9
$ANGDIR
 70
     0
  9
$PDMODE
 70
     1
  9
$PDSIZE
 40
-2.0
  9
$PLINEWID
 40
0.0
  9
$COORDS
 70
     1
  9
$SPLFRAME
 70
     0
  9
$SPLINETYPE
 70
     6
  9
$SPLINESEGS
 70
     8
  9
$ATTDIA
 70
     0
  9
$ATTREQ
 70
     1
  9
$HANDLING
 70
     1
  9
$HANDSEED
  5
31E
  9
$SURFTAB1
 70
     6
  9
$SURFTAB2
 70
     6
  9
$SURFTYPE
 70
     6
  9
$SURFU
 70
     6
  9
$SURFV
 70
     6
  9
$UCSNAME
  2

  9
$UCSORG
 10
0.0
 20
0.0
 30
0.0
  9
$UCSXDIR
 10
1.0
 20
0.0
 30
0.0
  9
$UCSYDIR
 10
0.0
 20
1.0
 30
0.0
  9
$PUCSNAME
  2

  9
$PUCSORG
 10
0.0
 20
0.0
 30
0.0
  9
$PUCSXDIR
 10
1.0
 20
0.0
 30
0.0
  9
$PUCSYDIR
 10
0.0
 20
1.0
 30
0.0
  9
$USERI1
 70
     0
  9
$USERI2
 70
     0
  9
$USERI3
 70
     0
  9
$USERI4
 70
     0
  9
$USERI5
 70
     0
  9
$USERR1
 40
0.0
  9
$USERR2
 40
0.0
  9
$USERR3
 40
0.0
  9
$USERR4
 40
0.0
  9
$USERR5
 40
0.0
  9
$WORLDVIEW
 70
     1
  9
$SHADEDGE
 70
     3
  9
$SHADEDIF
 70
    70
  9
$TILEMODE
 70
     1
  9
$MAXACTVP
 70
    64
  9
$PLIMCHECK
 70
     0
  9
$PEXTMIN
 10
1.0000000000000000E+020
 20
1.0000000000000000E+020
 30
1.0000000000000000E+020
  9
$PEXTMAX
 10
-1.0000000000000000E+020
 20
-1.0000000000000000E+020
 30
-1.0000000000000000E+020
  9
$PLIMMIN
 10
0.0
 20
0.0
  9
$PLIMMAX
 10
12.0
 20
9.0
  9
$UNITMODE
 70
     0
  9
$VISRETAIN
 70
     0
  9
$PLINEGEN
 70
     1
  9
$PSLTSCALE
 70
     0
  0
ENDSEC
  0
SECTION
  2
TABLES
  0
TABLE
  2
VPORT
 70
     1
  0
VPORT
  2
*ACTIVE
 70
     0
 10
0.0
 20
0.0
 11
1.0
 21
1.0
 12
800.00854850747703
 22
1089.5581105090189
 13
0.0
 23
0.0
 14
1.0
 24
1.0
 15
0.0
 25
0.0
 16
0.0
 26
0.0
 36
1.0
 17
0.0
 27
0.0
 37
0.0
 40
2158.7343749777169
 41
1.665745856353591
 42
50.0
 43
0.0
 44
0.0
 50
0.0
 51
0.0
 71
     0
 72
  2000
 73
     1
 74
     1
 75
     0
 76
     0
 77
     0
 78
     0
  0
ENDTAB
  0
TABLE
  2
LTYPE
 70
    11
  0
LTYPE
  2
CONTINUOUS
 70
     0
  3
Solid line
 72
    65
 73
     0
 40
0.0
  0
ENDTAB
  0
TABLE
  2
LAYER
 70
     5
  0
LAYER
  2
0
 70
     0
 62
     7
  6
CONTINUOUS
  0
LAYER
  2
DATA
 70
     0
 62
     7
  6
CONTINUOUS
  0
LAYER
  2
HIBINO-BASE
 70
     0
 62
     7
  6
CONTINUOUS
  0
LAYER
  2
SPEC
 70
     0
 62
     7
  6
CONTINUOUS
  0
LAYER
  2
DIMNSIONS
 70
     0
 62
     7
  6
CONTINUOUS
  0
ENDTAB
  0
TABLE
  2
STYLE
 70
     3
  0
STYLE
  2
STANDARD
 70
     0
 40
0.0
 41
1.0
 50
0.0
 71
     0
 42
0.0
  3
txt
  4
BIGFONT.SHX
  0
ENDTAB
  0
TABLE
  2
VIEW
 70
     0
  0
ENDTAB
  0
TABLE
  2
UCS
 70
     0
  0
ENDTAB
  0
TABLE
  2
APPID
 70
     3
  0
APPID
  2
ACAD
 70
     0
  0
APPID
  2
ACADANNOTATIVE
 70
     0
  0
APPID
  2
ACAD_MLEADERVER
 70
     0
  0
ENDTAB
  0
TABLE
  2
DIMSTYLE
 70
     2
  0
DIMSTYLE
  2
STANDARD
 70
     0
  3

  4

  5

  6

  7

 40
1.0
 41
0.18
 42
0.0625
 43
0.38
 44
0.18
 45
0.0
 46
0.0
 47
0.0
 48
0.0
140
0.18
141
0.09
142
0.0
143
25.399999999999999
144
1.0
145
0.0
146
1.0
147
0.09
 71
     0
 72
     0
 73
     1
 74
     1
 75
     0
 76
     0
 77
     0
 78
     0
170
     0
171
     2
172
     0
173
     0
174
     0
175
     0
176
     0
177
     0
178
     0
  0
ENDTAB
  0
ENDSEC
  0
SECTION
  2
BLOCKS
  0
BLOCK
  8
0
  2
$MODEL_SPACE
 70
     0
 10
0.0
 20
0.0
 30
0.0
  3
$MODEL_SPACE
  1

  0
ENDBLK
  5
2DD
  8
0
  0
BLOCK
 67
     1
  8
0
  2
$PAPER_SPACE
 70
     0
 10
0.0
 20
0.0
 30
0.0
  3
$PAPER_SPACE
  1

  0
ENDBLK
  5
2D9
 67
     1
  8
0
  0
ENDSEC
  0
SECTION
  2
ENTITIES
  0
LINE
  5
2C
  8
HIBINO-BASE
  6
CONTINUOUS
 62
     7
 10
80.0
 20
2160.0
 30
0.0
 11
1520.0
 21
2160.0
 31
0.0
  0
LINE
  5
2D
  8
HIBINO-BASE
  6
CONTINUOUS
 62
     7
 10
1520.0
 20
80.0
 30
0.0
 11
80.0
 21
80.0
 31
0.0
  0
LINE
  5
2E
  8
HIBINO-BASE
  6
CONTINUOUS
 62
     7
 10
80.0
 20
80.0
 30
0.0
 11
80.0
 21
2160.0
 31
0.0
  0
TEXT
  5
2F
  8
HIBINO-BASE
 62
     7
 10
137.47199999999989
 20
28.730577600000299
 30
0.0
 40
28.8003534375
  1
Hibino Corporation
 41
0.7
 11
137.47199999999989
 21
57.530931037500288
 31
0.0
 73
     3
  0
LINE
  5
30
  8
HIBINO-BASE
  6
CONTINUOUS
 62
     7
 10
1520.0
 20
2160.0
 30
0.0
 11
1520.0
 21
80.0
 31
0.0
  0
LINE
  5
31
  8
HIBINO-BASE
  6
CONTINUOUS
 62
     7
 10
800.0
 20
260.0
 30
0.0
 11
1520.0
 21
260.0
 31
0.0
  0
LINE
  5
32
  8
HIBINO-BASE
  6
CONTINUOUS
 62
     7
 10
800.0
 20
80.0
 30
0.0
 11
800.0
 21
260.0
 31
0.0
  0
TEXT
  5
33
  8
HIBINO-BASE
 62
     7
 10
807.19999999999993
 20
239.93045333333339
 30
0.0
 40
13.03072916666666
  1
NOTE
 41
0.7
 11
807.19999999999993
 21
252.96118250000009
 31
0.0
 73
     3
  0
LINE
  5
34
  8
HIBINO-BASE
  6
CONTINUOUS
 62
     7
 10
1080.0
 20
80.0
 30
0.0
 11
1080.0
 21
260.0
 31
0.0
  0
TEXT
  5
35
  8
HIBINO-BASE
 62
     7
 10
1087.1999999999989
 20
239.93045333333339
 30
0.0
 40
13.03072916666666
  1
TITLE
 41
0.7
 11
1087.1999999999989
 21
252.96118250000009
 31
0.0
 73
     3
  0
TEXT
  5
36
  8
HIBINO-BASE
 62
     7
 10
1200.547119999999
 20
28.730577600000299
 30
0.0
 40
28.8003534375
  1
ヒビノ株式会社
 41
0.7
 11
1200.547119999999
 21
57.530931037500288
 31
0.0
 73
     3
  0
LINE
  5
37
  8
HIBINO-BASE
  6
CONTINUOUS
 62
     7
 10
800.0
 20
160.00000000000011
 30
0.0
 11
1520.0
 21
160.00000000000011
 31
0.0
  0
TEXT
  5
38
  8
HIBINO-BASE
 62
     7
 10
1187.1999999999989
 20
140.38101333333341
 30
0.0
 40
13.03072916666666
  1
DRAWN
 41
0.7
 11
1187.1999999999989
 21
153.4117425
 31
0.0
 73
     3
  0
TEXT
  5
39
  8
HIBINO-BASE
 62
     7
 10
987.19999999999982
 20
140.38101333333341
 30
0.0
 40
13.03072916666666
  1
DATE
 41
0.7
 11
987.19999999999982
 21
153.4117425
 31
0.0
 73
     3
  0
TEXT
  5
3A
  8
HIBINO-BASE
 62
     7
 10
907.19999999999993
 20
140.38101333333341
 30
0.0
 40
13.03072916666666
  1
SCALE
 41
0.7
 11
907.19999999999993
 21
153.4117425
 31
0.0
 73
     3
  0
TEXT
  5
3B
  8
HIBINO-BASE
 62
     7
 10
1087.1999999999989
 20
140.38101333333341
 30
0.0
 40
13.03072916666666
  1
DESIGN
 41
0.7
 11
1087.1999999999989
 21
153.4117425
 31
0.0
 73
     3
  0
TEXT
  5
3C
  8
HIBINO-BASE
 62
     7
 10
1387.1999999999989
 20
140.38101333333341
 30
0.0
 40
13.03072916666666
  1
DRAWING NO.
 41
0.7
 11
1387.1999999999989
 21
153.4117425
 31
0.0
 73
     3
  0
TEXT
  5
3D
  8
HIBINO-BASE
 62
     7
 10
1287.1999999999989
 20
140.38101333333341
 30
0.0
 40
13.03072916666666
  1
CHECK
 41
0.7
 11
1287.1999999999989
 21
153.4117425
 31
0.0
 73
     3
  0
LINE
  5
3E
  8
HIBINO-BASE
  6
CONTINUOUS
 62
     7
 10
915.0
 20
90.0
 30
0.0
 11
945.0
 21
120.0000000000001
 31
0.0
  0
TEXT
  5
3F
  8
HIBINO-BASE
 62
     7
 10
910.0
 20
111.1284533333334
 30
0.0
 40
13.03072916666666
  1
1
 41
0.7
 11
910.0
 21
124.1591825
 31
0.0
 73
     3
  0
LINE
  5
40
  8
HIBINO-BASE
  6
CONTINUOUS
 62
     7
 10
900.0
 20
80.0
 30
0.0
 11
900.0
 21
160.00000000000011
 31
0.0
  0
LINE
  5
41
  8
HIBINO-BASE
  6
CONTINUOUS
 62
     7
 10
980.0
 20
80.0
 30
0.0
 11
980.0
 21
160.00000000000011
 31
0.0
  0
LINE
  5
42
  8
HIBINO-BASE
  6
CONTINUOUS
 62
     7
 10
1179.9999999999991
 20
160.00000000000011
 30
0.0
 11
1179.9999999999991
 21
80.0
 31
0.0
  0
LINE
  5
43
  8
HIBINO-BASE
  6
CONTINUOUS
 62
     7
 10
1380.0
 20
160.00000000000011
 30
0.0
 11
1380.0
 21
80.0
 31
0.0
  0
LINE
  5
44
  8
HIBINO-BASE
  6
CONTINUOUS
 62
     7
 10
1280.0
 20
80.0
 30
0.0
 11
1280.0
 21
160.00000000000011
 31
0.0
  0
TEXT
  5
45
  8
HIBINO-BASE
 62
     7
 10
986.85231999999985
 20
102.9091733333333
 30
0.0
 40
13.03072916666666
  1
'07.09.
 41
0.7
 11
986.85231999999985
 21
115.9399025
 31
0.0
 73
     3
  0
TEXT
  5
46
  8
HIBINO-BASE
 62
     7
 10
940.0
 20
96.128453333333397
 30
0.0
 40
13.03072916666666
  1
8
 41
0.7
 11
940.0
 21
109.1591825
 31
0.0
 73
     3
  0
TEXT
  5
47
  8
HIBINO-BASE
 62
     7
 10
1192.0464800882769
 20
102.9091733333333
 30
0.0
 40
13.03072916666666
  1
N.Sasaki
 41
0.7
 11
1192.0464800882769
 21
115.9399025
 31
0.0
 73
     3
  0
TEXT
  5
48
  8
HIBINO-BASE
 62
     7
 10
831.06666666666672
 20
95.808000000000106
 30
0.0
 40
26.061458333333331
  1
A4
 41
0.7
 11
831.06666666666672
 21
121.8694583333334
 31
0.0
 73
     3
  0
TEXT
  5
49
  8
HIBINO-BASE
 62
     7
 10
807.6666666666664
 20
139.04436000000001
 30
0.0
 40
13.03072916666666
  1
PAPER SIZE
 41
0.7
 11
807.6666666666664
 21
152.07508916666669
 31
0.0
 73
     3
  0
LINE
  5
4A
  8
SPEC
  6
CONTINUOUS
 62
     7
 10
140.0
 20
2080.0
 30
0.0
 11
1320.0
 21
2080.0
 31
0.0
  0
LINE
  5
4B
  8
SPEC
  6
CONTINUOUS
 62
     7
 10
140.0
 20
2050.0
 30
0.0
 11
1320.0
 21
2050.0
 31
0.0
  0
LINE
  5
4C
  8
SPEC
  6
CONTINUOUS
 62
     7
 10
140.0
 20
2020.0
 30
0.0
 11
1320.0
 21
2020.0
 31
0.0
  0
LINE
  5
4D
  8
SPEC
  6
CONTINUOUS
 62
     7
 10
140.0
 20
2080.0
 30
0.0
 11
140.0
 21
2020.0
 31
0.0
  0
TEXT
  5
4E
  8
SPEC
 62
     7
 10
150.0
 20
2091.1461599999998
 30
0.0
 40
19.546093750000001
  1
仕様
 41
0.7
 11
150.0
 21
2110.69225375
 31
0.0
 73
     3
  0
LINE
  5
4F
  8
SPEC
  6
CONTINUOUS
 62
     7
 10
400.0
 20
2080.0
 30
0.0
 11
400.0
 21
2020.0
 31
0.0
  0
LINE
  5
50
  8
SPEC
  6
CONTINUOUS
 62
     7
 10
1320.0
 20
2080.0
 30
0.0
 11
1320.0
 21
2020.0
 31
0.0
  0
TEXT
  5
51
  8
SPEC
 62
     7
 10
147.1999999999999
 20
2056.3033728
 30
0.0
 40
15.202489999999999
  1
寸法
 41
0.7
 11
147.1999999999999
 21
2071.5058628000002
 31
0.0
 73
     3
  0
TEXT
  5
52
  8
SPEC
 62
     7
 10
147.1999999999999
 20
2026.3033728
 30
0.0
 40
15.202489999999999
  1
重量
 41
0.7
 11
147.1999999999999
 21
2041.5058627999999
 31
0.0
 73
     3
  0
TEXT
  5
53
  8
SPEC
 62
     7
 10
407.19999999999987
 20
2026.3033728
 30
0.0
 40
15.202489999999999
  1
約1.2kg(付属品含まず) / 付属品約0.4kg
 41
0.7
 11
407.19999999999987
 21
2041.5058627999999
 31
0.0
 73
     3
  0
TEXT
  5
54
  8
SPEC
 62
     7
 10
408.555264073366
 20
2057.408035791344
 30
0.0
 40
15.202517361111109
  1
424(W)×64(H)×457(D)mm
 41
0.7
 11
408.555264073366
 21
2072.6105531524549
 31
0.0
 73
     3
  0
TEXT
  5
55
  8
DIMNSIONS
 62
     7
 10
639.99999999999977
 20
178.15592000000001
 30
0.0
 40
19.546093750000001
  1
(単位：mm)
 41
0.7
 11
639.99999999999977
 21
197.70201374999999
 31
0.0
 73
     3
  0
LINE
  5
56
  8
DIMNSIONS
  6
CONTINUOUS
 62
     7
 10
584.0
 20
487.91000000000003
 30
0.0
 11
484.0
 21
487.91000000000003
 31
0.0
  0
LINE
  5
57
  8
DIMNSIONS
  6
CONTINUOUS
 62
     7
 10
584.0
 20
912.09000000000003
 30
0.0
 11
484.0
 21
912.09000000000003
 31
0.0
  0
LINE
  5
58
  8
DIMNSIONS
  6
CONTINUOUS
 62
     7
 10
500.0
 20
487.91000000000003
 30
0.0
 11
500.0
 21
912.09000000000003
 31
0.0
  0
LINE
  5
59
  8
DIMNSIONS
  6
CONTINUOUS
 62
     7
 10
500.0
 20
487.91000000000003
 30
0.0
 11
494.63968163879798
 21
507.91498046874989
 31
0.0
  0
LINE
  5
5A
  8
DIMNSIONS
  6
CONTINUOUS
 62
     7
 10
500.0
 20
487.91000000000003
 30
0.0
 11
505.36031836120202
 21
507.91498046874989
 31
0.0
  0
LINE
  5
5B
  8
DIMNSIONS
  6
CONTINUOUS
 62
     7
 10
500.0
 20
912.09000000000003
 30
0.0
 11
505.36031836120202
 21
892.08501953124983
 31
0.0
  0
LINE
  5
5C
  8
DIMNSIONS
  6
CONTINUOUS
 62
     7
 10
500.0
 20
912.09000000000003
 30
0.0
 11
494.63968163879798
 21
892.08501953124983
 31
0.0
  0
TEXT
  5
5D
  8
DIMNSIONS
 62
     7
 10
492.04888888888883
 20
678.83333333333326
 30
0.0
 40
21.71788194444445
  1
424
 50
90.0
 41
0.7
 11
470.33100694444443
 21
678.83333333333326
 31
0.0
 73
     3
  0
LINE
  5
5E
  8
DIMNSIONS
  6
CONTINUOUS
 62
     7
 10
600.0
 20
471.91000000000003
 30
0.0
 11
600.0
 21
384.0
 31
0.0
  0
LINE
  5
5F
  8
DIMNSIONS
  6
CONTINUOUS
 62
     7
 10
650.79999999999995
 20
471.91000000000003
 30
0.0
 11
650.79999999999995
 21
384.0
 31
0.0
  0
LINE
  5
60
  8
DIMNSIONS
  6
CONTINUOUS
 62
     7
 10
600.0
 20
400.0
 30
0.0
 11
529.12179882581495
 21
400.0
 31
0.0
  0
LINE
  5
61
  8
DIMNSIONS
  6
CONTINUOUS
 62
     7
 10
600.0
 20
400.0
 30
0.0
 11
650.79999999999995
 21
400.0
 31
0.0
  0
LINE
  5
62
  8
DIMNSIONS
  6
CONTINUOUS
 62
     7
 10
600.0
 20
400.0
 30
0.0
 11
620.00498046874986
 21
405.36031836120202
 31
0.0
  0
LINE
  5
63
  8
DIMNSIONS
  6
CONTINUOUS
 62
     7
 10
600.0
 20
400.0
 30
0.0
 11
620.00498046874986
 21
394.63968163879798
 31
0.0
  0
LINE
  5
64
  8
DIMNSIONS
  6
CONTINUOUS
 62
     7
 10
650.79999999999995
 20
400.0
 30
0.0
 11
630.79501953124998
 21
394.63968163879798
 31
0.0
  0
LINE
  5
65
  8
DIMNSIONS
  6
CONTINUOUS
 62
     7
 10
650.79999999999995
 20
400.0
 30
0.0
 11
630.79501953124998
 21
405.36031836120202
 31
0.0
  0
TEXT
  5
66
  8
DIMNSIONS
 62
     7
 10
529.12179882581495
 20
407.95111111111089
 30
0.0
 40
21.71788194444445
  1
50.8
 41
0.7
 11
529.12179882581495
 21
429.6689930555554
 31
0.0
 73
     3
  0
LINE
  5
67
  8
DIMNSIONS
  6
CONTINUOUS
 62
     7
 10
900.0
 20
679.14999999999998
 30
0.0
 11
900.0
 21
334.0
 31
0.0
  0
LINE
  5
68
  8
DIMNSIONS
  6
CONTINUOUS
 62
     7
 10
1357.1999999999989
 20
679.14999999999998
 30
0.0
 11
1357.1999999999989
 21
334.0
 31
0.0
  0
LINE
  5
69
  8
DIMNSIONS
  6
CONTINUOUS
 62
     7
 10
900.0
 20
350.0
 30
0.0
 11
1357.1999999999989
 21
350.0
 31
0.0
  0
LINE
  5
6A
  8
DIMNSIONS
  6
CONTINUOUS
 62
     7
 10
900.0
 20
350.0
 30
0.0
 11
920.0049804687502
 21
355.36031836120202
 31
0.0
  0
LINE
  5
6B
  8
DIMNSIONS
  6
CONTINUOUS
 62
     7
 10
900.0
 20
350.0
 30
0.0
 11
920.0049804687502
 21
344.63968163879798
 31
0.0
  0
LINE
  5
6C
  8
DIMNSIONS
  6
CONTINUOUS
 62
     7
 10
1357.1999999999989
 20
350.0
 30
0.0
 11
1337.19501953125
 21
344.63968163879798
 31
0.0
  0
LINE
  5
6D
  8
DIMNSIONS
  6
CONTINUOUS
 62
     7
 10
1357.1999999999989
 20
350.0
 30
0.0
 11
1337.19501953125
 21
355.36031836120202
 31
0.0
  0
TEXT
  5
6E
  8
DIMNSIONS
 62
     7
 10
1107.4333333333329
 20
357.951111111111
 30
0.0
 40
21.71788194444445
  1
457
 41
0.7
 11
1107.4333333333329
 21
379.6689930555554
 31
0.0
 73
     3
  0
LINE
  5
6F
  8
DIMNSIONS
  6
CONTINUOUS
 62
     7
 10
1014.15
 20
471.91000000399993
 30
0.0
 11
1014.15
 21
434.0
 31
0.0
  0
LINE
  5
70
  8
DIMNSIONS
  6
CONTINUOUS
 62
     7
 10
1039.55
 20
471.91000000399993
 30
0.0
 11
1039.55
 21
434.0
 31
0.0
  0
LINE
  5
71
  8
DIMNSIONS
  6
CONTINUOUS
 62
     7
 10
1039.55
 20
450.0
 30
0.0
 11
1014.15
 21
450.0
 31
0.0
  0
LINE
  5
72
  8
DIMNSIONS
  6
CONTINUOUS
 62
     7
 10
1014.15
 20
450.0
 30
0.0
 11
932.70555555555541
 21
450.0
 31
0.0
  0
LINE
  5
73
  8
DIMNSIONS
  6
CONTINUOUS
 62
     7
 10
1014.15
 20
450.0
 30
0.0
 11
994.14501953125
 21
444.63968163879798
 31
0.0
  0
LINE
  5
74
  8
DIMNSIONS
  6
CONTINUOUS
 62
     7
 10
1014.15
 20
450.0
 30
0.0
 11
994.14501953125
 21
455.36031836120202
 31
0.0
  0
LINE
  5
75
  8
DIMNSIONS
  6
CONTINUOUS
 62
     7
 10
1039.55
 20
450.0
 30
0.0
 11
1079.55
 21
450.0
 31
0.0
  0
LINE
  5
76
  8
DIMNSIONS
  6
CONTINUOUS
 62
     7
 10
1039.55
 20
450.0
 30
0.0
 11
1059.55498046875
 21
455.36031836120202
 31
0.0
  0
LINE
  5
77
  8
DIMNSIONS
  6
CONTINUOUS
 62
     7
 10
1039.55
 20
450.0
 30
0.0
 11
1059.55498046875
 21
444.63968163879798
 31
0.0
  0
TEXT
  5
78
  8
DIMNSIONS
 62
     7
 10
932.70555555555541
 20
457.95111111111089
 30
0.0
 40
21.71788194444445
  1
25.4
 41
0.7
 11
932.70555555555541
 21
479.6689930555554
 31
0.0
 73
     3
  0
LINE
  5
79
  8
DIMNSIONS
  6
CONTINUOUS
 62
     7
 10
1017.325
 20
928.09000000000003
 30
0.0
 11
1017.325
 21
966.0
 31
0.0
  0
LINE
  5
7A
  8
DIMNSIONS
  6
CONTINUOUS
 62
     7
 10
1036.375
 20
928.09000000000003
 30
0.0
 11
1036.375
 21
966.0
 31
0.0
  0
LINE
  5
7B
  8
DIMNSIONS
  6
CONTINUOUS
 62
     7
 10
1036.375
 20
950.0
 30
0.0
 11
1017.325
 21
950.0
 31
0.0
  0
LINE
  5
7C
  8
DIMNSIONS
  6
CONTINUOUS
 62
     7
 10
1017.325
 20
950.0
 30
0.0
 11
921.7694444444445
 21
950.0
 31
0.0
  0
LINE
  5
7D
  8
DIMNSIONS
  6
CONTINUOUS
 62
     7
 10
1017.325
 20
950.0
 30
0.0
 11
997.32001953124984
 21
944.63968163879815
 31
0.0
  0
LINE
  5
7E
  8
DIMNSIONS
  6
CONTINUOUS
 62
     7
 10
1017.325
 20
950.0
 30
0.0
 11
997.32001953124984
 21
955.36031836120196
 31
0.0
  0
LINE
  5
7F
  8
DIMNSIONS
  6
CONTINUOUS
 62
     7
 10
1036.375
 20
950.0
 30
0.0
 11
1076.375
 21
950.0
 31
0.0
  0
LINE
  5
80
  8
DIMNSIONS
  6
CONTINUOUS
 62
     7
 10
1036.375
 20
950.0
 30
0.0
 11
1056.3799804687501
 21
955.36031836120196
 31
0.0
  0
LINE
  5
81
  8
DIMNSIONS
  6
CONTINUOUS
 62
     7
 10
1036.375
 20
950.0
 30
0.0
 11
1056.3799804687501
 21
944.63968163879815
 31
0.0
  0
TEXT
  5
82
  8
DIMNSIONS
 62
     7
 10
921.7694444444445
 20
957.95111111111112
 30
0.0
 40
21.71788194444445
  1
19.05
 41
0.7
 11
921.7694444444445
 21
979.66899305555557
 31
0.0
 73
     3
  0
LINE
  5
83
  8
DIMNSIONS
  6
CONTINUOUS
 62
     7
 10
1331.8
 20
1320.4000000000001
 30
0.0
 11
1331.8
 21
984.0
 31
0.0
  0
LINE
  5
84
  8
DIMNSIONS
  6
CONTINUOUS
 62
     7
 10
1357.1999999999989
 20
1289.54
 30
0.0
 11
1357.1999999999989
 21
984.0
 31
0.0
  0
LINE
  5
85
  8
DIMNSIONS
  6
CONTINUOUS
 62
     7
 10
1357.1999999999989
 20
1000.0
 30
0.0
 11
1331.8
 21
1000.0
 31
0.0
  0
LINE
  5
86
  8
DIMNSIONS
  6
CONTINUOUS
 62
     7
 10
1331.8
 20
1000.0
 30
0.0
 11
1243.555555555555
 21
1000.0
 31
0.0
  0
LINE
  5
87
  8
DIMNSIONS
  6
CONTINUOUS
 62
     7
 10
1331.8
 20
1000.0
 30
0.0
 11
1311.7950195312501
 21
994.63968163879815
 31
0.0
  0
LINE
  5
88
  8
DIMNSIONS
  6
CONTINUOUS
 62
     7
 10
1331.8
 20
1000.0
 30
0.0
 11
1311.7950195312501
 21
1005.360318361202
 31
0.0
  0
LINE
  5
89
  8
DIMNSIONS
  6
CONTINUOUS
 62
     7
 10
1357.1999999999989
 20
1000.0
 30
0.0
 11
1397.1999999999989
 21
1000.0
 31
0.0
  0
LINE
  5
8A
  8
DIMNSIONS
  6
CONTINUOUS
 62
     7
 10
1357.1999999999989
 20
1000.0
 30
0.0
 11
1377.2049804687499
 21
1005.360318361202
 31
0.0
  0
LINE
  5
8B
  8
DIMNSIONS
  6
CONTINUOUS
 62
     7
 10
1357.1999999999989
 20
1000.0
 30
0.0
 11
1377.2049804687499
 21
994.63968163879815
 31
0.0
  0
TEXT
  5
8C
  8
DIMNSIONS
 62
     7
 10
1243.555555555555
 20
1007.951111111111
 30
0.0
 40
21.71788194444445
  1
25.4
 41
0.7
 11
1243.555555555555
 21
1029.668993055556
 31
0.0
 73
     3
  0
LINE
  5
8D
  8
DIMNSIONS
  6
CONTINUOUS
 62
     7
 10
1281.0
 20
1320.4000000000001
 30
0.0
 11
1281.0
 21
1030.1111111111111
 31
0.0
  0
LINE
  5
8E
  8
DIMNSIONS
  6
CONTINUOUS
 62
     7
 10
1331.8
 20
1320.4000000000001
 30
0.0
 11
1331.8
 21
1030.1111111111111
 31
0.0
  0
LINE
  5
8F
  8
DIMNSIONS
  6
CONTINUOUS
 62
     7
 10
1331.8
 20
1046.1111111111111
 30
0.0
 11
1281.0
 21
1046.1111111111111
 31
0.0
  0
LINE
  5
90
  8
DIMNSIONS
  6
CONTINUOUS
 62
     7
 10
1281.0
 20
1046.1111111111111
 30
0.0
 11
1241.0
 21
1046.1111111111111
 31
0.0
  0
LINE
  5
91
  8
DIMNSIONS
  6
CONTINUOUS
 62
     7
 10
1281.0
 20
1046.1111111111111
 30
0.0
 11
1260.9950195312499
 21
1040.7507927499089
 31
0.0
  0
LINE
  5
92
  8
DIMNSIONS
  6
CONTINUOUS
 62
     7
 10
1281.0
 20
1046.1111111111111
 30
0.0
 11
1260.9950195312499
 21
1051.471429472313
 31
0.0
  0
LINE
  5
93
  8
DIMNSIONS
  6
CONTINUOUS
 62
     7
 10
1331.8
 20
1046.1111111111111
 30
0.0
 11
1431.4444444444439
 21
1046.1111111111111
 31
0.0
  0
LINE
  5
94
  8
DIMNSIONS
  6
CONTINUOUS
 62
     7
 10
1331.8
 20
1046.1111111111111
 30
0.0
 11
1351.80498046875
 21
1051.471429472313
 31
0.0
  0
LINE
  5
95
  8
DIMNSIONS
  6
CONTINUOUS
 62
     7
 10
1331.8
 20
1046.1111111111111
 30
0.0
 11
1351.80498046875
 21
1040.7507927499089
 31
0.0
  0
TEXT
  5
96
  8
DIMNSIONS
 62
     7
 10
1375.0
 20
1054.0622222222221
 30
0.0
 40
21.71788194444445
  1
50.8
 41
0.7
 11
1375.0
 21
1075.7801041666669
 31
0.0
 73
     3
  0
LINE
  5
97
  8
DIMNSIONS
  6
CONTINUOUS
 62
     7
 10
925.40000000000032
 20
1320.4000000000001
 30
0.0
 11
925.40000000000032
 21
1209.0
 31
0.0
  0
LINE
  5
98
  8
DIMNSIONS
  6
CONTINUOUS
 62
     7
 10
1128.5999999999999
 20
1320.4000000000001
 30
0.0
 11
1128.5999999999999
 21
1209.0
 31
0.0
  0
LINE
  5
99
  8
DIMNSIONS
  6
CONTINUOUS
 62
     7
 10
925.40000000000032
 20
1225.0
 30
0.0
 11
1128.5999999999999
 21
1225.0
 31
0.0
  0
LINE
  5
9A
  8
DIMNSIONS
  6
CONTINUOUS
 62
     7
 10
925.40000000000032
 20
1225.0
 30
0.0
 11
945.40498046875007
 21
1230.360318361202
 31
0.0
  0
LINE
  5
9B
  8
DIMNSIONS
  6
CONTINUOUS
 62
     7
 10
925.40000000000032
 20
1225.0
 30
0.0
 11
945.40498046875007
 21
1219.639681638798
 31
0.0
  0
LINE
  5
9C
  8
DIMNSIONS
  6
CONTINUOUS
 62
     7
 10
1128.5999999999999
 20
1225.0
 30
0.0
 11
1108.59501953125
 21
1219.639681638798
 31
0.0
  0
LINE
  5
9D
  8
DIMNSIONS
  6
CONTINUOUS
 62
     7
 10
1128.5999999999999
 20
1225.0
 30
0.0
 11
1108.59501953125
 21
1230.360318361202
 31
0.0
  0
TEXT
  5
9E
  8
DIMNSIONS
 62
     7
 10
991.72222222222229
 20
1232.951111111111
 30
0.0
 40
21.71788194444445
  1
203.2
 41
0.7
 11
991.72222222222229
 21
1254.6689930555549
 31
0.0
 73
     3
  0
LINE
  5
9F
  8
DIMNSIONS
  6
CONTINUOUS
 62
     7
 10
886.53999999999985
 20
1303.0
 30
0.0
 11
784.0
 21
1303.0
 31
0.0
  0
LINE
  5
A0
  8
DIMNSIONS
  6
CONTINUOUS
 62
     7
 10
886.53999999999985
 20
1353.8
 30
0.0
 11
784.0
 21
1353.8
 31
0.0
  0
LINE
  5
A1
  8
DIMNSIONS
  6
CONTINUOUS
 62
     7
 10
800.0
 20
1353.8
 30
0.0
 11
800.0
 21
1431.4444444444439
 31
0.0
  0
LINE
  5
A2
  8
DIMNSIONS
  6
CONTINUOUS
 62
     7
 10
800.0
 20
1303.0
 30
0.0
 11
800.0
 21
1353.8
 31
0.0
  0
LINE
  5
A3
  8
DIMNSIONS
  6
CONTINUOUS
 62
     7
 10
800.0
 20
1303.0
 30
0.0
 11
794.63968163879804
 21
1323.0049804687501
 31
0.0
  0
LINE
  5
A4
  8
DIMNSIONS
  6
CONTINUOUS
 62
     7
 10
800.0
 20
1303.0
 30
0.0
 11
805.36031836120196
 21
1323.0049804687501
 31
0.0
  0
LINE
  5
A5
  8
DIMNSIONS
  6
CONTINUOUS
 62
     7
 10
800.0
 20
1353.8
 30
0.0
 11
805.36031836120196
 21
1333.7950195312501
 31
0.0
  0
LINE
  5
A6
  8
DIMNSIONS
  6
CONTINUOUS
 62
     7
 10
800.0
 20
1353.8
 30
0.0
 11
794.63968163879804
 21
1333.7950195312501
 31
0.0
  0
TEXT
  5
A7
  8
DIMNSIONS
 62
     7
 10
792.04888888888888
 20
1375.0
 30
0.0
 40
21.71788194444445
  1
50.8
 50
90.0
 41
0.7
 11
770.33100694444443
 21
1375.0
 31
0.0
 73
     3
  0
LINE
  5
A8
  8
DIMNSIONS
  6
CONTINUOUS
 62
     7
 10
1230.2
 20
1320.4000000000001
 30
0.0
 11
1230.2
 21
1084.0
 31
0.0
  0
LINE
  5
A9
  8
DIMNSIONS
  6
CONTINUOUS
 62
     7
 10
1281.0
 20
1320.4000000000001
 30
0.0
 11
1281.0
 21
1084.0
 31
0.0
  0
LINE
  5
AA
  8
DIMNSIONS
  6
CONTINUOUS
 62
     7
 10
1281.0
 20
1100.0
 30
0.0
 11
1230.2
 21
1100.0
 31
0.0
  0
LINE
  5
AB
  8
DIMNSIONS
  6
CONTINUOUS
 62
     7
 10
1230.2
 20
1100.0
 30
0.0
 11
1190.2
 21
1100.0
 31
0.0
  0
LINE
  5
AC
  8
DIMNSIONS
  6
CONTINUOUS
 62
     7
 10
1230.2
 20
1100.0
 30
0.0
 11
1210.19501953125
 21
1094.639681638798
 31
0.0
  0
LINE
  5
AD
  8
DIMNSIONS
  6
CONTINUOUS
 62
     7
 10
1230.2
 20
1100.0
 30
0.0
 11
1210.19501953125
 21
1105.360318361202
 31
0.0
  0
LINE
  5
AE
  8
DIMNSIONS
  6
CONTINUOUS
 62
     7
 10
1281.0
 20
1100.0
 30
0.0
 11
1431.4444444444439
 21
1100.0
 31
0.0
  0
LINE
  5
AF
  8
DIMNSIONS
  6
CONTINUOUS
 62
     7
 10
1281.0
 20
1100.0
 30
0.0
 11
1301.0049804687501
 21
1105.360318361202
 31
0.0
  0
LINE
  5
B0
  8
DIMNSIONS
  6
CONTINUOUS
 62
     7
 10
1281.0
 20
1100.0
 30
0.0
 11
1301.0049804687501
 21
1094.639681638798
 31
0.0
  0
TEXT
  5
B1
  8
DIMNSIONS
 62
     7
 10
1375.0
 20
1107.951111111111
 30
0.0
 40
21.71788194444445
  1
50.8
 41
0.7
 11
1375.0
 21
1129.6689930555549
 31
0.0
 73
     3
  0
LINE
  5
B2
  8
DIMNSIONS
  6
CONTINUOUS
 62
     7
 10
1179.4000000000001
 20
1320.4000000000001
 30
0.0
 11
1179.4000000000001
 21
1109.0
 31
0.0
  0
LINE
  5
B3
  8
DIMNSIONS
  6
CONTINUOUS
 62
     7
 10
1230.2
 20
1320.4000000000001
 30
0.0
 11
1230.2
 21
1109.0
 31
0.0
  0
LINE
  5
B4
  8
DIMNSIONS
  6
CONTINUOUS
 62
     7
 10
1230.2
 20
1125.0
 30
0.0
 11
1179.4000000000001
 21
1125.0
 31
0.0
  0
LINE
  5
B5
  8
DIMNSIONS
  6
CONTINUOUS
 62
     7
 10
1179.4000000000001
 20
1125.0
 30
0.0
 11
1093.555555555555
 21
1125.0
 31
0.0
  0
LINE
  5
B6
  8
DIMNSIONS
  6
CONTINUOUS
 62
     7
 10
1179.4000000000001
 20
1125.0
 30
0.0
 11
1159.39501953125
 21
1119.639681638798
 31
0.0
  0
LINE
  5
B7
  8
DIMNSIONS
  6
CONTINUOUS
 62
     7
 10
1179.4000000000001
 20
1125.0
 30
0.0
 11
1159.39501953125
 21
1130.360318361202
 31
0.0
  0
LINE
  5
B8
  8
DIMNSIONS
  6
CONTINUOUS
 62
     7
 10
1230.2
 20
1125.0
 30
0.0
 11
1270.2
 21
1125.0
 31
0.0
  0
LINE
  5
B9
  8
DIMNSIONS
  6
CONTINUOUS
 62
     7
 10
1230.2
 20
1125.0
 30
0.0
 11
1250.2049804687499
 21
1130.360318361202
 31
0.0
  0
LINE
  5
BA
  8
DIMNSIONS
  6
CONTINUOUS
 62
     7
 10
1230.2
 20
1125.0
 30
0.0
 11
1250.2049804687499
 21
1119.639681638798
 31
0.0
  0
TEXT
  5
BB
  8
DIMNSIONS
 62
     7
 10
1093.555555555555
 20
1132.951111111111
 30
0.0
 40
21.71788194444445
  1
50.8
 41
0.7
 11
1093.555555555555
 21
1154.668993055556
 31
0.0
 73
     3
  0
LINE
  5
BC
  8
DIMNSIONS
  6
CONTINUOUS
 62
     7
 10
1128.5999999999999
 20
1320.4000000000001
 30
0.0
 11
1128.5999999999999
 21
1159.0
 31
0.0
  0
LINE
  5
BD
  8
DIMNSIONS
  6
CONTINUOUS
 62
     7
 10
1179.4000000000001
 20
1320.4000000000001
 30
0.0
 11
1179.4000000000001
 21
1159.0
 31
0.0
  0
LINE
  5
BE
  8
DIMNSIONS
  6
CONTINUOUS
 62
     7
 10
1179.4000000000001
 20
1175.0
 30
0.0
 11
1128.5999999999999
 21
1175.0
 31
0.0
  0
LINE
  5
BF
  8
DIMNSIONS
  6
CONTINUOUS
 62
     7
 10
1128.5999999999999
 20
1175.0
 30
0.0
 11
1043.555555555555
 21
1175.0
 31
0.0
  0
LINE
  5
C0
  8
DIMNSIONS
  6
CONTINUOUS
 62
     7
 10
1128.5999999999999
 20
1175.0
 30
0.0
 11
1108.59501953125
 21
1169.639681638798
 31
0.0
  0
LINE
  5
C1
  8
DIMNSIONS
  6
CONTINUOUS
 62
     7
 10
1128.5999999999999
 20
1175.0
 30
0.0
 11
1108.59501953125
 21
1180.360318361202
 31
0.0
  0
LINE
  5
C2
  8
DIMNSIONS
  6
CONTINUOUS
 62
     7
 10
1179.4000000000001
 20
1175.0
 30
0.0
 11
1219.4000000000001
 21
1175.0
 31
0.0
  0
LINE
  5
C3
  8
DIMNSIONS
  6
CONTINUOUS
 62
     7
 10
1179.4000000000001
 20
1175.0
 30
0.0
 11
1199.40498046875
 21
1180.360318361202
 31
0.0
  0
LINE
  5
C4
  8
DIMNSIONS
  6
CONTINUOUS
 62
     7
 10
1179.4000000000001
 20
1175.0
 30
0.0
 11
1199.40498046875
 21
1169.639681638798
 31
0.0
  0
TEXT
  5
C5
  8
DIMNSIONS
 62
     7
 10
1043.555555555555
 20
1182.951111111111
 30
0.0
 40
21.71788194444445
  1
50.8
 41
0.7
 11
1043.555555555555
 21
1204.668993055556
 31
0.0
 73
     3
  0
LINE
  5
C6
  8
DIMNSIONS
  6
CONTINUOUS
 62
     7
 10
900.0
 20
1367.26
 30
0.0
 11
900.0
 21
1416.0
 31
0.0
  0
LINE
  5
C7
  8
DIMNSIONS
  6
CONTINUOUS
 62
     7
 10
1027.0
 20
1379.999999999
 30
0.0
 11
1027.0
 21
1416.0
 31
0.0
  0
LINE
  5
C8
  8
DIMNSIONS
  6
CONTINUOUS
 62
     7
 10
900.0
 20
1400.0
 30
0.0
 11
1027.0
 21
1400.0
 31
0.0
  0
LINE
  5
C9
  8
DIMNSIONS
  6
CONTINUOUS
 62
     7
 10
900.0
 20
1400.0
 30
0.0
 11
920.0049804687502
 21
1405.360318361202
 31
0.0
  0
LINE
  5
CA
  8
DIMNSIONS
  6
CONTINUOUS
 62
     7
 10
900.0
 20
1400.0
 30
0.0
 11
920.0049804687502
 21
1394.639681638798
 31
0.0
  0
LINE
  5
CB
  8
DIMNSIONS
  6
CONTINUOUS
 62
     7
 10
1027.0
 20
1400.0
 30
0.0
 11
1006.99501953125
 21
1394.639681638798
 31
0.0
  0
LINE
  5
CC
  8
DIMNSIONS
  6
CONTINUOUS
 62
     7
 10
1027.0
 20
1400.0
 30
0.0
 11
1006.99501953125
 21
1405.360318361202
 31
0.0
  0
TEXT
  5
CD
  8
DIMNSIONS
 62
     7
 10
942.33333333333314
 20
1407.951111111111
 30
0.0
 40
21.71788194444445
  1
127
 41
0.7
 11
942.33333333333314
 21
1429.6689930555549
 31
0.0
 73
     3
  0
LINE
  5
CE
  8
DIMNSIONS
  6
CONTINUOUS
 62
     7
 10
900.0
 20
1367.26
 30
0.0
 11
900.0
 21
1466.0
 31
0.0
  0
LINE
  5
CF
  8
DIMNSIONS
  6
CONTINUOUS
 62
     7
 10
1357.1999999999989
 20
1367.26
 30
0.0
 11
1357.1999999999989
 21
1466.0
 31
0.0
  0
LINE
  5
D0
  8
DIMNSIONS
  6
CONTINUOUS
 62
     7
 10
900.0
 20
1450.0
 30
0.0
 11
1357.1999999999989
 21
1450.0
 31
0.0
  0
LINE
  5
D1
  8
DIMNSIONS
  6
CONTINUOUS
 62
     7
 10
900.0
 20
1450.0
 30
0.0
 11
920.0049804687502
 21
1455.360318361202
 31
0.0
  0
LINE
  5
D2
  8
DIMNSIONS
  6
CONTINUOUS
 62
     7
 10
900.0
 20
1450.0
 30
0.0
 11
920.0049804687502
 21
1444.639681638798
 31
0.0
  0
LINE
  5
D3
  8
DIMNSIONS
  6
CONTINUOUS
 62
     7
 10
1357.1999999999989
 20
1450.0
 30
0.0
 11
1337.19501953125
 21
1444.639681638798
 31
0.0
  0
LINE
  5
D4
  8
DIMNSIONS
  6
CONTINUOUS
 62
     7
 10
1357.1999999999989
 20
1450.0
 30
0.0
 11
1337.19501953125
 21
1455.360318361202
 31
0.0
  0
TEXT
  5
D5
  8
DIMNSIONS
 62
     7
 10
1093.3222222222221
 20
1457.951111111111
 30
0.0
 40
21.71788194444445
  1
457.2
 41
0.7
 11
1093.3222222222221
 21
1479.6689930555549
 31
0.0
 73
     3
  0
LINE
  5
D6
  8
DIMNSIONS
  6
CONTINUOUS
 62
     7
 10
650.79999999999995
 20
471.91000000000003
 30
0.0
 11
650.79999999999995
 21
384.0
 31
0.0
  0
LINE
  5
D7
  8
DIMNSIONS
  6
CONTINUOUS
 62
     7
 10
660.79999999999995
 20
503.11000000000001
 30
0.0
 11
660.79999999999995
 21
384.0
 31
0.0
  0
LINE
  5
D8
  8
DIMNSIONS
  6
CONTINUOUS
 62
     7
 10
660.79999999999995
 20
400.0
 30
0.0
 11
650.79999999999995
 21
400.0
 31
0.0
  0
LINE
  5
D9
  8
DIMNSIONS
  6
CONTINUOUS
 62
     7
 10
650.79999999999995
 20
400.0
 30
0.0
 11
610.79999999999995
 21
400.0
 31
0.0
  0
LINE
  5
DA
  8
DIMNSIONS
  6
CONTINUOUS
 62
     7
 10
650.79999999999995
 20
400.0
 30
0.0
 11
630.79501953124998
 21
394.63968163879798
 31
0.0
  0
LINE
  5
DB
  8
DIMNSIONS
  6
CONTINUOUS
 62
     7
 10
650.79999999999995
 20
400.0
 30
0.0
 11
630.79501953124998
 21
405.36031836120202
 31
0.0
  0
LINE
  5
DC
  8
DIMNSIONS
  6
CONTINUOUS
 62
     7
 10
660.79999999999995
 20
400.0
 30
0.0
 11
703.22222222222206
 21
400.0
 31
0.0
  0
LINE
  5
DD
  8
DIMNSIONS
  6
CONTINUOUS
 62
     7
 10
660.79999999999995
 20
400.0
 30
0.0
 11
680.80498046874982
 21
405.36031836120202
 31
0.0
  0
LINE
  5
DE
  8
DIMNSIONS
  6
CONTINUOUS
 62
     7
 10
660.79999999999995
 20
400.0
 30
0.0
 11
680.80498046874982
 21
394.63968163879798
 31
0.0
  0
TEXT
  5
DF
  8
DIMNSIONS
 62
     7
 10
675.0
 20
407.95111111111089
 30
0.0
 40
21.71788194444445
  1
10
 41
0.7
 11
675.0
 21
429.6689930555554
 31
0.0
 73
     3
  0
LINE
  5
E0
  8
DIMNSIONS
  6
CONTINUOUS
 62
     7
 10
597.0
 20
679.14999999999998
 30
0.0
 11
597.0
 21
434.0
 31
0.0
  0
LINE
  5
E1
  8
DIMNSIONS
  6
CONTINUOUS
 62
     7
 10
600.0
 20
471.91000000000003
 30
0.0
 11
600.0
 21
434.0
 31
0.0
  0
LINE
  5
E2
  8
DIMNSIONS
  6
CONTINUOUS
 62
     7
 10
600.0
 20
450.0
 30
0.0
 11
597.0
 21
450.0
 31
0.0
  0
LINE
  5
E3
  8
DIMNSIONS
  6
CONTINUOUS
 62
     7
 10
597.0
 20
450.0
 30
0.0
 11
560.8888888888888
 21
450.0
 31
0.0
  0
LINE
  5
E4
  8
DIMNSIONS
  6
CONTINUOUS
 62
     7
 10
597.0
 20
450.0
 30
0.0
 11
576.9950195312498
 21
444.63968163879798
 31
0.0
  0
LINE
  5
E5
  8
DIMNSIONS
  6
CONTINUOUS
 62
     7
 10
597.0
 20
450.0
 30
0.0
 11
576.9950195312498
 21
455.36031836120202
 31
0.0
  0
LINE
  5
E6
  8
DIMNSIONS
  6
CONTINUOUS
 62
     7
 10
600.0
 20
450.0
 30
0.0
 11
640.0
 21
450.0
 31
0.0
  0
LINE
  5
E7
  8
DIMNSIONS
  6
CONTINUOUS
 62
     7
 10
600.0
 20
450.0
 30
0.0
 11
620.00498046874986
 21
455.36031836120202
 31
0.0
  0
LINE
  5
E8
  8
DIMNSIONS
  6
CONTINUOUS
 62
     7
 10
600.0
 20
450.0
 30
0.0
 11
620.00498046874986
 21
444.63968163879798
 31
0.0
  0
TEXT
  5
E9
  8
DIMNSIONS
 62
     7
 10
560.8888888888888
 20
457.95111111111089
 30
0.0
 40
21.71788194444445
  1
3
 41
0.7
 11
560.8888888888888
 21
479.6689930555554
 31
0.0
 73
     3
  0
LINE
  5
EA
  8
DIMNSIONS
  6
CONTINUOUS
 62
     7
 10
884.0
 20
695.14999999999998
 30
0.0
 11
834.0
 21
695.14999999999998
 31
0.0
  0
LINE
  5
EB
  8
DIMNSIONS
  6
CONTINUOUS
 62
     7
 10
884.0
 20
704.85000000000002
 30
0.0
 11
834.0
 21
704.85000000000002
 31
0.0
  0
LINE
  5
EC
  8
DIMNSIONS
  6
CONTINUOUS
 62
     7
 10
850.0
 20
704.85000000000002
 30
0.0
 11
850.0
 21
695.14999999999998
 31
0.0
  0
LINE
  5
ED
  8
DIMNSIONS
  6
CONTINUOUS
 62
     7
 10
850.0
 20
695.14999999999998
 30
0.0
 11
850.0
 21
655.14999999999986
 31
0.0
  0
LINE
  5
EE
  8
DIMNSIONS
  6
CONTINUOUS
 62
     7
 10
850.0
 20
695.14999999999998
 30
0.0
 11
855.36031836120196
 21
675.14501953125
 31
0.0
  0
LINE
  5
EF
  8
DIMNSIONS
  6
CONTINUOUS
 62
     7
 10
850.0
 20
695.14999999999998
 30
0.0
 11
844.63968163879815
 21
675.14501953125
 31
0.0
  0
LINE
  5
F0
  8
DIMNSIONS
  6
CONTINUOUS
 62
     7
 10
850.0
 20
704.85000000000002
 30
0.0
 11
850.0
 21
767.33333333333314
 31
0.0
  0
LINE
  5
F1
  8
DIMNSIONS
  6
CONTINUOUS
 62
     7
 10
850.0
 20
704.85000000000002
 30
0.0
 11
844.63968163879815
 21
724.85498046875
 31
0.0
  0
LINE
  5
F2
  8
DIMNSIONS
  6
CONTINUOUS
 62
     7
 10
850.0
 20
704.85000000000002
 30
0.0
 11
855.36031836120196
 21
724.85498046875
 31
0.0
  0
TEXT
  5
F3
  8
DIMNSIONS
 62
     7
 10
842.04888888888877
 20
725.0
 30
0.0
 40
21.71788194444445
  1
9.7
 50
90.0
 41
0.7
 11
820.33100694444443
 21
725.0
 31
0.0
 73
     3
  0
LINE
  5
F4
  8
DIMNSIONS
  6
CONTINUOUS
 62
     7
 10
190.99999999999989
 20
1821.95
 30
0.0
 11
190.99999999999989
 21
1866.0
 31
0.0
  0
LINE
  5
F5
  8
DIMNSIONS
  6
CONTINUOUS
 62
     7
 10
208.99999999999989
 20
1821.95
 30
0.0
 11
208.99999999999989
 21
1866.0
 31
0.0
  0
LINE
  5
F6
  8
DIMNSIONS
  6
CONTINUOUS
 62
     7
 10
208.99999999999989
 20
1850.0
 30
0.0
 11
190.99999999999989
 21
1850.0
 31
0.0
  0
LINE
  5
F7
  8
DIMNSIONS
  6
CONTINUOUS
 62
     7
 10
190.99999999999989
 20
1850.0
 30
0.0
 11
150.9999999999998
 21
1850.0
 31
0.0
  0
LINE
  5
F8
  8
DIMNSIONS
  6
CONTINUOUS
 62
     7
 10
190.99999999999989
 20
1850.0
 30
0.0
 11
170.99501953124991
 21
1844.6396816387969
 31
0.0
  0
LINE
  5
F9
  8
DIMNSIONS
  6
CONTINUOUS
 62
     7
 10
190.99999999999989
 20
1850.0
 30
0.0
 11
170.99501953124991
 21
1855.360318361202
 31
0.0
  0
LINE
  5
FA
  8
DIMNSIONS
  6
CONTINUOUS
 62
     7
 10
208.99999999999989
 20
1850.0
 30
0.0
 11
253.22222222222209
 21
1850.0
 31
0.0
  0
LINE
  5
FB
  8
DIMNSIONS
  6
CONTINUOUS
 62
     7
 10
208.99999999999989
 20
1850.0
 30
0.0
 11
229.00498046874981
 21
1855.360318361202
 31
0.0
  0
LINE
  5
FC
  8
DIMNSIONS
  6
CONTINUOUS
 62
     7
 10
208.99999999999989
 20
1850.0
 30
0.0
 11
229.00498046874981
 21
1844.6396816387969
 31
0.0
  0
TEXT
  5
FD
  8
DIMNSIONS
 62
     7
 10
225.0
 20
1857.951111111111
 30
0.0
 40
21.71788194444445
  1
18
 41
0.7
 11
225.0
 21
1879.6689930555549
 31
0.0
 73
     3
  0
LINE
  5
FE
  8
DIMNSIONS
  6
CONTINUOUS
 62
     7
 10
174.99999999999989
 20
1794.0
 30
0.0
 11
134.0
 21
1794.0
 31
0.0
  0
LINE
  5
FF
  8
DIMNSIONS
  6
CONTINUOUS
 62
     7
 10
174.99999999999989
 20
1806.0
 30
0.0
 11
134.0
 21
1806.0
 31
0.0
  0
LINE
  5
100
  8
DIMNSIONS
  6
CONTINUOUS
 62
     7
 10
150.0
 20
1806.0
 30
0.0
 11
150.0
 21
1794.0
 31
0.0
  0
LINE
  5
101
  8
DIMNSIONS
  6
CONTINUOUS
 62
     7
 10
150.0
 20
1794.0
 30
0.0
 11
150.0
 21
1746.7777777777769
 31
0.0
  0
LINE
  5
102
  8
DIMNSIONS
  6
CONTINUOUS
 62
     7
 10
150.0
 20
1794.0
 30
0.0
 11
155.36031836120191
 21
1773.9950195312499
 31
0.0
  0
LINE
  5
103
  8
DIMNSIONS
  6
CONTINUOUS
 62
     7
 10
150.0
 20
1794.0
 30
0.0
 11
144.63968163879801
 21
1773.9950195312499
 31
0.0
  0
LINE
  5
104
  8
DIMNSIONS
  6
CONTINUOUS
 62
     7
 10
150.0
 20
1806.0
 30
0.0
 11
150.0
 21
1846.0
 31
0.0
  0
LINE
  5
105
  8
DIMNSIONS
  6
CONTINUOUS
 62
     7
 10
150.0
 20
1806.0
 30
0.0
 11
144.63968163879801
 21
1826.0049804687501
 31
0.0
  0
LINE
  5
106
  8
DIMNSIONS
  6
CONTINUOUS
 62
     7
 10
150.0
 20
1806.0
 30
0.0
 11
155.36031836120191
 21
1826.0049804687501
 31
0.0
  0
TEXT
  5
107
  8
DIMNSIONS
 62
     7
 10
142.048888888889
 20
1746.7777777777769
 30
0.0
 40
21.71788194444445
  1
12
 50
90.0
 41
0.7
 11
120.3310069444445
 21
1746.7777777777769
 31
0.0
 73
     3
  0
LINE
  5
108
  8
DIMNSIONS
  6
CONTINUOUS
 62
     7
 10
233.99999999999969
 20
1347.5
 30
0.0
 11
196.49999999999989
 21
1347.5
 31
0.0
  0
LINE
  5
109
  8
DIMNSIONS
  6
CONTINUOUS
 62
     7
 10
233.99999999999969
 20
1412.8
 30
0.0
 11
196.49999999999989
 21
1412.8
 31
0.0
  0
LINE
  5
10A
  8
DIMNSIONS
  6
CONTINUOUS
 62
     7
 10
212.49999999999989
 20
1347.5
 30
0.0
 11
212.49999999999989
 21
1412.8
 31
0.0
  0
LINE
  5
10B
  8
DIMNSIONS
  6
CONTINUOUS
 62
     7
 10
212.49999999999989
 20
1347.5
 30
0.0
 11
207.1396816387979
 21
1367.5049804687501
 31
0.0
  0
LINE
  5
10C
  8
DIMNSIONS
  6
CONTINUOUS
 62
     7
 10
212.49999999999989
 20
1347.5
 30
0.0
 11
217.86031836120179
 21
1367.5049804687501
 31
0.0
  0
LINE
  5
10D
  8
DIMNSIONS
  6
CONTINUOUS
 62
     7
 10
212.49999999999989
 20
1412.8
 30
0.0
 11
217.86031836120179
 21
1392.7950195312501
 31
0.0
  0
LINE
  5
10E
  8
DIMNSIONS
  6
CONTINUOUS
 62
     7
 10
212.49999999999989
 20
1412.8
 30
0.0
 11
207.1396816387979
 21
1392.7950195312501
 31
0.0
  0
TEXT
  5
10F
  8
DIMNSIONS
 62
     7
 10
204.54888888888891
 20
1366.038888888889
 30
0.0
 40
21.71788194444445
  1
65
 50
90.0
 41
0.7
 11
182.8310069444444
 21
1366.038888888889
 31
0.0
 73
     3
  0
LINE
  5
110
  8
DIMNSIONS
  6
CONTINUOUS
 62
     7
 10
299.99999999983351
 20
1405.8
 30
0.0
 11
299.99999999983351
 21
1476.0
 31
0.0
  0
LINE
  5
111
  8
DIMNSIONS
  6
CONTINUOUS
 62
     7
 10
347.28206640616679
 20
1405.8
 30
0.0
 11
347.28206640616679
 21
1476.0
 31
0.0
  0
LINE
  5
112
  8
DIMNSIONS
  6
CONTINUOUS
 62
     7
 10
299.99999999983351
 20
1460.0
 30
0.0
 11
347.28206640616679
 21
1460.0
 31
0.0
  0
LINE
  5
113
  8
DIMNSIONS
  6
CONTINUOUS
 62
     7
 10
299.99999999983351
 20
1460.0
 30
0.0
 11
320.00498046858348
 21
1465.360318361202
 31
0.0
  0
LINE
  5
114
  8
DIMNSIONS
  6
CONTINUOUS
 62
     7
 10
299.99999999983351
 20
1460.0
 30
0.0
 11
320.00498046858348
 21
1454.639681638798
 31
0.0
  0
LINE
  5
115
  8
DIMNSIONS
  6
CONTINUOUS
 62
     7
 10
347.28206640616679
 20
1460.0
 30
0.0
 11
327.27708593741681
 21
1454.639681638798
 31
0.0
  0
LINE
  5
116
  8
DIMNSIONS
  6
CONTINUOUS
 62
     7
 10
347.28206640616679
 20
1460.0
 30
0.0
 11
327.27708593741681
 21
1465.360318361202
 31
0.0
  0
TEXT
  5
117
  8
DIMNSIONS
 62
     7
 10
309.52992209188909
 20
1467.951111111111
 30
0.0
 40
21.71788194444445
  1
47
 41
0.7
 11
309.52992209188909
 21
1489.6689930555549
 31
0.0
 73
     3
  0
LINE
  5
118
  8
DIMNSIONS
  6
CONTINUOUS
 62
     7
 10
300.0
 20
1616.0
 30
0.0
 11
300.0
 21
1666.0
 31
0.0
  0
LINE
  5
119
  8
DIMNSIONS
  6
CONTINUOUS
 62
     7
 10
355.30000000000001
 20
1616.0
 30
0.0
 11
355.30000000000001
 21
1666.0
 31
0.0
  0
LINE
  5
11A
  8
DIMNSIONS
  6
CONTINUOUS
 62
     7
 10
355.30000000000001
 20
1650.0
 30
0.0
 11
403.22222222222211
 21
1650.0
 31
0.0
  0
LINE
  5
11B
  8
DIMNSIONS
  6
CONTINUOUS
 62
     7
 10
300.0
 20
1650.0
 30
0.0
 11
355.30000000000001
 21
1650.0
 31
0.0
  0
LINE
  5
11C
  8
DIMNSIONS
  6
CONTINUOUS
 62
     7
 10
300.0
 20
1650.0
 30
0.0
 11
320.00498046874998
 21
1655.360318361202
 31
0.0
  0
LINE
  5
11D
  8
DIMNSIONS
  6
CONTINUOUS
 62
     7
 10
300.0
 20
1650.0
 30
0.0
 11
320.00498046874998
 21
1644.639681638798
 31
0.0
  0
LINE
  5
11E
  8
DIMNSIONS
  6
CONTINUOUS
 62
     7
 10
355.30000000000001
 20
1650.0
 30
0.0
 11
335.29501953125009
 21
1644.639681638798
 31
0.0
  0
LINE
  5
11F
  8
DIMNSIONS
  6
CONTINUOUS
 62
     7
 10
355.30000000000001
 20
1650.0
 30
0.0
 11
335.29501953125009
 21
1655.360318361202
 31
0.0
  0
TEXT
  5
120
  8
DIMNSIONS
 62
     7
 10
375.0
 20
1657.951111111111
 30
0.0
 40
21.71788194444445
  1
55
 41
0.7
 11
375.0
 21
1679.6689930555549
 31
0.0
 73
     3
  0
LINE
  5
121
  8
DIMNSIONS
  6
CONTINUOUS
 62
     7
 10
253.35410196624969
 20
1593.2917960674999
 30
0.0
 11
275.0
 21
1550.0
 31
0.0
  0
LINE
  5
122
  8
DIMNSIONS
  6
CONTINUOUS
 62
     7
 10
253.35410196624969
 20
1593.2917960674999
 30
0.0
 11
267.2122516780949
 21
1577.9007615651481
 31
0.0
  0
LINE
  5
123
  8
DIMNSIONS
  6
CONTINUOUS
 62
     7
 10
253.35410196624969
 20
1593.2917960674999
 30
0.0
 11
257.66009441497982
 21
1573.033694342018
 31
0.0
  0
LINE
  5
124
  8
DIMNSIONS
  6
CONTINUOUS
 62
     7
 10
275.0
 20
1550.0
 30
0.0
 11
347.44444444444451
 21
1550.0
 31
0.0
  0
TEXT
  5
125
  8
DIMNSIONS
 62
     7
 10
291.0
 20
1557.951111111111
 30
0.0
 40
21.71788194444445
  1
φ15
 41
0.7
 11
291.0
 21
1579.6689930555549
 31
0.0
 73
     3
  0
LINE
  5
126
  8
DIMNSIONS
  6
CONTINUOUS
 62
     7
 10
300.0
 20
1821.0
 30
0.0
 11
300.0
 21
1866.0
 31
0.0
  0
LINE
  5
127
  8
DIMNSIONS
  6
CONTINUOUS
 62
     7
 10
357.49999999999977
 20
1816.0
 30
0.0
 11
357.49999999999977
 21
1866.0
 31
0.0
  0
LINE
  5
128
  8
DIMNSIONS
  6
CONTINUOUS
 62
     7
 10
357.49999999999977
 20
1850.0
 30
0.0
 11
403.22222222222211
 21
1850.0
 31
0.0
  0
LINE
  5
129
  8
DIMNSIONS
  6
CONTINUOUS
 62
     7
 10
300.0
 20
1850.0
 30
0.0
 11
357.49999999999977
 21
1850.0
 31
0.0
  0
LINE
  5
12A
  8
DIMNSIONS
  6
CONTINUOUS
 62
     7
 10
300.0
 20
1850.0
 30
0.0
 11
320.00498046874992
 21
1855.360318361202
 31
0.0
  0
LINE
  5
12B
  8
DIMNSIONS
  6
CONTINUOUS
 62
     7
 10
300.0
 20
1850.0
 30
0.0
 11
320.00498046874992
 21
1844.6396816387969
 31
0.0
  0
LINE
  5
12C
  8
DIMNSIONS
  6
CONTINUOUS
 62
     7
 10
357.49999999999977
 20
1850.0
 30
0.0
 11
337.49501953124991
 21
1844.6396816387969
 31
0.0
  0
LINE
  5
12D
  8
DIMNSIONS
  6
CONTINUOUS
 62
     7
 10
357.49999999999977
 20
1850.0
 30
0.0
 11
337.49501953124991
 21
1855.360318361202
 31
0.0
  0
TEXT
  5
12E
  8
DIMNSIONS
 62
     7
 10
375.0
 20
1857.951111111111
 30
0.0
 40
21.71788194444445
  1
58
 41
0.7
 11
375.0
 21
1879.6689930555549
 31
0.0
 73
     3
  0
LINE
  5
12F
  8
DIMNSIONS
  6
CONTINUOUS
 62
     7
 10
1335.080438637895
 20
1333.8370232979919
 30
0.0
 11
1375.0
 21
1400.0
 31
0.0
  0
LINE
  5
130
  8
DIMNSIONS
  6
CONTINUOUS
 62
     7
 10
1335.080438637895
 20
1333.8370232979919
 30
0.0
 11
1341.135655387885
 21
1353.642744860186
 31
0.0
  0
LINE
  5
131
  8
DIMNSIONS
  6
CONTINUOUS
 62
     7
 10
1335.080438637895
 20
1333.8370232979919
 30
0.0
 11
1350.2272709499041
 21
1347.961672936138
 31
0.0
  0
LINE
  5
132
  8
DIMNSIONS
  6
CONTINUOUS
 62
     7
 10
1375.0
 20
1400.0
 30
0.0
 11
1475.6666666666661
 21
1400.0
 31
0.0
  0
TEXT
  5
133
  8
DIMNSIONS
 62
     7
 10
1391.0
 20
1407.951111111111
 30
0.0
 40
21.71788194444445
  1
φ12.7
 41
0.7
 11
1391.0
 21
1429.6689930555549
 31
0.0
 73
     3
  0
LINE
  5
134
  8
DIMNSIONS
  6
CONTINUOUS
 62
     7
 10
597.0
 20
679.14999999999998
 30
0.0
 11
597.0
 21
334.0
 31
0.0
  0
LINE
  5
135
  8
DIMNSIONS
  6
CONTINUOUS
 62
     7
 10
660.79999999999995
 20
503.11000000000001
 30
0.0
 11
660.79999999999995
 21
334.0
 31
0.0
  0
LINE
  5
136
  8
DIMNSIONS
  6
CONTINUOUS
 62
     7
 10
597.0
 20
350.0
 30
0.0
 11
660.79999999999995
 21
350.0
 31
0.0
  0
LINE
  5
137
  8
DIMNSIONS
  6
CONTINUOUS
 62
     7
 10
597.0
 20
350.0
 30
0.0
 11
617.00498046874998
 21
355.36031836120202
 31
0.0
  0
LINE
  5
138
  8
DIMNSIONS
  6
CONTINUOUS
 62
     7
 10
597.0
 20
350.0
 30
0.0
 11
617.00498046874998
 21
344.63968163879798
 31
0.0
  0
LINE
  5
139
  8
DIMNSIONS
  6
CONTINUOUS
 62
     7
 10
660.79999999999995
 20
350.0
 30
0.0
 11
640.79501953124986
 21
344.63968163879798
 31
0.0
  0
LINE
  5
13A
  8
DIMNSIONS
  6
CONTINUOUS
 62
     7
 10
660.79999999999995
 20
350.0
 30
0.0
 11
640.79501953124986
 21
355.36031836120202
 31
0.0
  0
TEXT
  5
13B
  8
DIMNSIONS
 62
     7
 10
614.78888888888866
 20
357.951111111111
 30
0.0
 40
21.71788194444445
  1
64
 41
0.7
 11
614.78888888888866
 21
379.6689930555554
 31
0.0
 73
     3
  0
LINE
  5
13C
  8
DIMNSIONS
  6
CONTINUOUS
 62
     7
 10
886.53999999999985
 20
1300.0
 30
0.0
 11
784.0
 21
1300.0
 31
0.0
  0
LINE
  5
13D
  8
DIMNSIONS
  6
CONTINUOUS
 62
     7
 10
886.53999999999985
 20
1303.0
 30
0.0
 11
784.0
 21
1303.0
 31
0.0
  0
LINE
  5
13E
  8
DIMNSIONS
  6
CONTINUOUS
 62
     7
 10
800.0
 20
1303.0
 30
0.0
 11
800.0
 21
1300.0
 31
0.0
  0
LINE
  5
13F
  8
DIMNSIONS
  6
CONTINUOUS
 62
     7
 10
800.0
 20
1300.0
 30
0.0
 11
800.0
 21
1260.888888888888
 31
0.0
  0
LINE
  5
140
  8
DIMNSIONS
  6
CONTINUOUS
 62
     7
 10
800.0
 20
1300.0
 30
0.0
 11
805.36031836120196
 21
1279.9950195312499
 31
0.0
  0
LINE
  5
141
  8
DIMNSIONS
  6
CONTINUOUS
 62
     7
 10
800.0
 20
1300.0
 30
0.0
 11
794.63968163879804
 21
1279.9950195312499
 31
0.0
  0
LINE
  5
142
  8
DIMNSIONS
  6
CONTINUOUS
 62
     7
 10
800.0
 20
1303.0
 30
0.0
 11
800.0
 21
1343.0
 31
0.0
  0
LINE
  5
143
  8
DIMNSIONS
  6
CONTINUOUS
 62
     7
 10
800.0
 20
1303.0
 30
0.0
 11
794.63968163879804
 21
1323.0049804687501
 31
0.0
  0
LINE
  5
144
  8
DIMNSIONS
  6
CONTINUOUS
 62
     7
 10
800.0
 20
1303.0
 30
0.0
 11
805.36031836120196
 21
1323.0049804687501
 31
0.0
  0
TEXT
  5
145
  8
DIMNSIONS
 62
     7
 10
792.04888888888888
 20
1260.888888888888
 30
0.0
 40
21.71788194444445
  1
3
 50
90.0
 41
0.7
 11
770.33100694444443
 21
1260.888888888888
 31
0.0
 73
     3
  0
TEXT
  5
146
  8
DATA
 62
     7
 10
1200.0
 20
169.04712000000009
 30
0.0
 40
19.546093750000001
  1
VRX-SMAF
 41
0.7
 11
1200.0
 21
188.5932137500001
 31
0.0
 73
     3
  0
TEXT
  5
147
  8
DATA
 62
     7
 10
1200.0
 20
227.04712000000009
 30
0.0
 40
19.546093750000001
  1
JBL
 41
0.7
 11
1200.0
 21
246.5932137500001
 31
0.0
 73
     3
  0
TEXT
  5
148
  8
DATA
 62
     7
 10
160.0
 20
113.904
 30
0.0
 40
13.03072916666666
  1
仕様および外観は予告なく変更されることがありますので、ご了承ください。
 41
0.7
 11
160.0
 21
126.9347291666667
 31
0.0
 73
     3
  0
LINE
  5
149
  8
DATA
  6
CONTINUOUS
 62
     7
 10
900.0
 20
695.14999999999998
 30
0.0
 11
900.0
 21
704.85000000000002
 31
0.0
  0
LINE
  5
14A
  8
DATA
  6
CONTINUOUS
 62
     7
 10
1357.1999999999989
 20
704.85000000000002
 30
0.0
 11
1357.1999999999989
 21
695.14999999999998
 31
0.0
  0
LINE
  5
14B
  8
DATA
  6
CONTINUOUS
 62
     7
 10
900.0
 20
1305.54
 30
0.0
 11
900.0
 21
1351.26
 31
0.0
  0
LINE
  5
14C
  8
DATA
  6
CONTINUOUS
 62
     7
 10
1354.6600000000001
 20
1303.0
 30
0.0
 11
902.53999999999985
 21
1303.0
 31
0.0
  0
LINE
  5
14D
  8
DATA
  6
CONTINUOUS
 62
     7
 10
1357.1999999999989
 20
1351.26
 30
0.0
 11
1357.1999999999989
 21
1305.54
 31
0.0
  0
LINE
  5
14E
  8
DATA
  6
CONTINUOUS
 62
     7
 10
902.53999999999985
 20
1353.8
 30
0.0
 11
1354.6600000000001
 21
1353.8
 31
0.0
  0
LINE
  5
14F
  8
DATA
  6
CONTINUOUS
 62
     7
 10
600.0
 20
487.91000000000003
 30
0.0
 11
600.0
 21
912.09000000000003
 31
0.0
  0
LINE
  5
150
  8
DATA
  6
CONTINUOUS
 62
     7
 10
650.79999999999995
 20
487.91000000000003
 30
0.0
 11
600.0
 21
487.91000000000003
 31
0.0
  0
LINE
  5
151
  8
DATA
  6
CONTINUOUS
 62
     7
 10
650.79999999999995
 20
912.09000000000003
 30
0.0
 11
650.79999999999995
 21
487.91000000000003
 31
0.0
  0
LINE
  5
152
  8
DATA
  6
CONTINUOUS
 62
     7
 10
600.0
 20
912.09000000000003
 30
0.0
 11
650.79999999999995
 21
912.09000000000003
 31
0.0
  0
LINE
  5
153
  8
DATA
  6
CONTINUOUS
 62
     7
 10
600.0
 20
704.85000000000002
 30
0.0
 11
650.79999999999995
 21
704.85000000000002
 31
0.0
  0
LINE
  5
154
  8
DATA
  6
CONTINUOUS
 62
     7
 10
900.0
 20
704.85000000000002
 30
0.0
 11
904.33130977451094
 21
704.85000000000002
 31
0.0
  0
LINE
  5
155
  8
DATA
  6
CONTINUOUS
 62
     7
 10
920.66869022548872
 20
704.85000000000002
 30
0.0
 11
1012.0
 21
704.85000000000002
 31
0.0
  0
LINE
  5
156
  8
DATA
  6
CONTINUOUS
 62
     7
 10
1041.7
 20
704.85000000000002
 30
0.0
 11
1336.5313097745091
 21
704.85000000000002
 31
0.0
  0
LINE
  5
157
  8
DATA
  6
CONTINUOUS
 62
     7
 10
1352.868690225491
 20
704.85000000000002
 30
0.0
 11
1357.1999999999989
 21
704.85000000000002
 31
0.0
  0
LINE
  5
158
  8
DATA
  6
CONTINUOUS
 62
     7
 10
1357.1999999999989
 20
695.14999999999998
 30
0.0
 11
1352.868690225491
 21
695.14999999999998
 31
0.0
  0
LINE
  5
159
  8
DATA
  6
CONTINUOUS
 62
     7
 10
1336.5313097745091
 20
695.14999999999998
 30
0.0
 11
1041.7
 21
695.14999999999998
 31
0.0
  0
LINE
  5
15A
  8
DATA
  6
CONTINUOUS
 62
     7
 10
1012.0
 20
695.14999999999998
 30
0.0
 11
920.66869022548872
 21
695.14999999999998
 31
0.0
  0
LINE
  5
15B
  8
DATA
  6
CONTINUOUS
 62
     7
 10
904.33130977451094
 20
695.14999999999998
 30
0.0
 11
900.0
 21
695.14999999999998
 31
0.0
  0
LINE
  5
15C
  8
DATA
  6
CONTINUOUS
 62
     7
 10
650.79999999999995
 20
695.14999999999998
 30
0.0
 11
600.0
 21
695.14999999999998
 31
0.0
  0
LINE
  5
15D
  8
DATA
  6
CONTINUOUS
 62
     7
 10
650.79999999999995
 20
677.90999999999985
 30
0.0
 11
650.79999999999995
 21
726.90999999999985
 31
0.0
  0
LINE
  5
15E
  8
DATA
  6
CONTINUOUS
 62
     7
 10
597.0
 20
695.14999999999998
 30
0.0
 11
597.0
 21
704.85000000000002
 31
0.0
  0
LINE
  5
15F
  8
DATA
  6
CONTINUOUS
 62
     7
 10
600.0
 20
704.85000000000002
 30
0.0
 11
597.0
 21
704.85000000000002
 31
0.0
  0
LINE
  5
160
  8
DATA
  6
CONTINUOUS
 62
     7
 10
600.0
 20
695.14999999999998
 30
0.0
 11
597.0
 21
695.14999999999998
 31
0.0
  0
LINE
  5
161
  8
DATA
  6
CONTINUOUS
 62
     7
 10
660.20000000000016
 20
696.20000000000005
 30
0.0
 11
660.20000000000016
 21
703.79999999999995
 31
0.0
  0
LINE
  5
162
  8
DATA
  6
CONTINUOUS
 62
     7
 10
660.79999999999995
 20
703.79999999999995
 30
0.0
 11
660.20000000000016
 21
703.79999999999995
 31
0.0
  0
LINE
  5
163
  8
DATA
  6
CONTINUOUS
 62
     7
 10
660.79999999999995
 20
696.20000000000005
 30
0.0
 11
660.20000000000016
 21
696.20000000000005
 31
0.0
  0
ARC
  5
164
  8
DATA
  6
CONTINUOUS
 62
     7
 10
650.03445911683934
 20
697.63665187689321
 30
0.0
 40
11.88802260823114
 50
31.228353671114501
 51
86.30782723185159
  0
ARC
  5
165
  8
DATA
  6
CONTINUOUS
 62
     7
 10
650.03445911683934
 20
702.36334812310668
 30
0.0
 40
11.88802260823112
 50
273.6921727681484
 51
328.77164632888548
  0
LINE
  5
166
  8
DATA
  6
CONTINUOUS
 62
     7
 10
600.0
 20
893.09000000000015
 30
0.0
 11
650.79999999999995
 21
893.09000000000015
 31
0.0
  0
CIRCLE
  5
167
  8
DATA
  6
CONTINUOUS
 62
     7
 10
621.49999999999989
 20
902.69000000000005
 30
0.0
 40
2.3000000000000109
  0
CIRCLE
  5
168
  8
DATA
  6
CONTINUOUS
 62
     7
 10
621.49999999999989
 20
497.31
 30
0.0
 40
2.3000000000000109
  0
LINE
  5
169
  8
DATA
  6
CONTINUOUS
 62
     7
 10
660.20000000000016
 20
873.28999999999985
 30
0.0
 11
660.20000000000016
 21
880.88999999999987
 31
0.0
  0
LINE
  5
16A
  8
DATA
  6
CONTINUOUS
 62
     7
 10
660.79999999999995
 20
880.88999999999987
 30
0.0
 11
660.20000000000016
 21
880.88999999999987
 31
0.0
  0
LINE
  5
16B
  8
DATA
  6
CONTINUOUS
 62
     7
 10
660.79999999999995
 20
873.28999999999985
 30
0.0
 11
660.20000000000016
 21
873.28999999999985
 31
0.0
  0
ARC
  5
16C
  8
DATA
  6
CONTINUOUS
 62
     7
 10
650.03445911683934
 20
874.72665187689313
 30
0.0
 40
11.88802260823114
 50
31.228353671114501
 51
86.30782723185159
  0
ARC
  5
16D
  8
DATA
  6
CONTINUOUS
 62
     7
 10
650.03445911683934
 20
879.45334812310682
 30
0.0
 40
11.88802260823112
 50
273.6921727681484
 51
328.77164632888548
  0
LINE
  5
16E
  8
DATA
  6
CONTINUOUS
 62
     7
 10
660.20000000000016
 20
519.11000000000001
 30
0.0
 11
660.20000000000016
 21
526.71000000000004
 31
0.0
  0
LINE
  5
16F
  8
DATA
  6
CONTINUOUS
 62
     7
 10
660.79999999999995
 20
526.71000000000004
 30
0.0
 11
660.20000000000016
 21
526.71000000000004
 31
0.0
  0
LINE
  5
170
  8
DATA
  6
CONTINUOUS
 62
     7
 10
660.79999999999995
 20
519.11000000000001
 30
0.0
 11
660.20000000000016
 21
519.11000000000001
 31
0.0
  0
ARC
  5
171
  8
DATA
  6
CONTINUOUS
 62
     7
 10
650.03445911683934
 20
520.54665187689295
 30
0.0
 40
11.88802260823117
 50
31.228353671114728
 51
86.30782723185159
  0
ARC
  5
172
  8
DATA
  6
CONTINUOUS
 62
     7
 10
650.03445911683934
 20
525.27334812310676
 30
0.0
 40
11.88802260823112
 50
273.6921727681484
 51
328.77164632888582
  0
LINE
  5
173
  8
DATA
  6
CONTINUOUS
 62
     7
 10
650.79999999999995
 20
506.91000000000003
 30
0.0
 11
600.0
 21
506.91000000000003
 31
0.0
  0
POLYLINE
  5
174
  8
DATA
  6
CONTINUOUS
 62
     7
 66
     1
 10
0.0
 20
0.0
 30
0.0
  0
VERTEX
  5
308
  8
DATA
  6
CONTINUOUS
 62
     7
 10
633.80000000000007
 20
695.14999999999998
 30
0.0
  0
VERTEX
  5
309
  8
DATA
  6
CONTINUOUS
 62
     7
 10
633.80000000000007
 20
693.59999999999991
 30
0.0
  0
VERTEX
  5
30A
  8
DATA
  6
CONTINUOUS
 62
     7
 10
617.80000000000007
 20
693.59999999999991
 30
0.0
  0
VERTEX
  5
30B
  8
DATA
  6
CONTINUOUS
 62
     7
 10
617.80000000000007
 20
695.14999999999998
 30
0.0
  0
SEQEND
  5
30C
  8
DATA
  6
CONTINUOUS
 62
     7
  0
POLYLINE
  5
17B
  8
DATA
  6
CONTINUOUS
 62
     7
 66
     1
 10
0.0
 20
0.0
 30
0.0
  0
VERTEX
  5
30D
  8
DATA
  6
CONTINUOUS
 62
     7
 10
617.80000000000007
 20
704.85000000000002
 30
0.0
  0
VERTEX
  5
30E
  8
DATA
  6
CONTINUOUS
 62
     7
 10
617.80000000000007
 20
706.39999999999998
 30
0.0
  0
VERTEX
  5
30F
  8
DATA
  6
CONTINUOUS
 62
     7
 10
633.80000000000007
 20
706.39999999999998
 30
0.0
  0
VERTEX
  5
310
  8
DATA
  6
CONTINUOUS
 62
     7
 10
633.80000000000007
 20
704.85000000000002
 30
0.0
  0
SEQEND
  5
311
  8
DATA
  6
CONTINUOUS
 62
     7
  0
LINE
  5
182
  8
DATA
  6
CONTINUOUS
 62
     7
 10
1022.0
 20
531.07869022948944
 30
0.0
 11
1022.0
 21
685.14999999999986
 31
0.0
  0
LINE
  5
183
  8
DATA
  6
CONTINUOUS
 62
     7
 10
1022.0
 20
714.85000000000002
 30
0.0
 11
1022.0
 21
868.92130977451075
 31
0.0
  0
LINE
  5
184
  8
DATA
  6
CONTINUOUS
 62
     7
 10
1031.7
 20
531.07869022948944
 30
0.0
 11
1031.7
 21
685.14999999999986
 31
0.0
  0
LINE
  5
185
  8
DATA
  6
CONTINUOUS
 62
     7
 10
1031.7
 20
714.85000000000002
 30
0.0
 11
1031.7
 21
868.92130977451075
 31
0.0
  0
ARC
  5
186
  8
DATA
  6
CONTINUOUS
 62
     7
 10
1012.0
 20
714.85000000000002
 30
0.0
 40
10.0
 50
270.0
 51
0.0
  0
ARC
  5
187
  8
DATA
  6
CONTINUOUS
 62
     7
 10
1041.7
 20
714.85000000000002
 30
0.0
 40
10.0
 50
180.0
 51
270.0
  0
ARC
  5
188
  8
DATA
  6
CONTINUOUS
 62
     7
 10
1041.7
 20
685.14999999999986
 30
0.0
 40
10.0
 50
90.0
 51
180.0
  0
ARC
  5
189
  8
DATA
  6
CONTINUOUS
 62
     7
 10
1012.0
 20
685.14999999999986
 30
0.0
 40
10.0
 50
0.0
 51
90.0
  0
CIRCLE
  5
18A
  8
DATA
  6
CONTINUOUS
 62
     7
 10
912.5
 20
700.0
 30
0.0
 40
9.5
  0
CIRCLE
  5
18B
  8
DATA
  6
CONTINUOUS
 62
     7
 10
912.5
 20
700.0
 30
0.0
 40
3.7999999999999958
  0
CIRCLE
  5
18C
  8
DATA
  6
CONTINUOUS
 62
     7
 10
1344.6999999999989
 20
700.0
 30
0.0
 40
9.5
  0
CIRCLE
  5
18D
  8
DATA
  6
CONTINUOUS
 62
     7
 10
1344.6999999999989
 20
700.0
 30
0.0
 40
3.8000000000000682
  0
CIRCLE
  5
18E
  8
DATA
  6
CONTINUOUS
 62
     7
 10
1026.8499999999999
 20
877.09000000000015
 30
0.0
 40
9.5
  0
CIRCLE
  5
18F
  8
DATA
  6
CONTINUOUS
 62
     7
 10
1026.8499999999999
 20
877.09000000000015
 30
0.0
 40
3.8000000000000109
  0
LINE
  5
190
  8
DATA
  6
CONTINUOUS
 62
     7
 10
1013.95
 20
912.09000000000003
 30
0.0
 11
1013.95
 21
893.09000000000015
 31
0.0
  0
LINE
  5
191
  8
DATA
  6
CONTINUOUS
 62
     7
 10
1039.75
 20
912.09000000000003
 30
0.0
 11
1039.75
 21
893.09000000000015
 31
0.0
  0
ARC
  5
192
  8
DATA
  6
CONTINUOUS
 62
     7
 10
1041.2360757231511
 20
883.50937196664756
 30
0.0
 40
9.6951975002264401
 50
98.817030682164273
 51
169.6051101583017
  0
ARC
  5
193
  8
DATA
  6
CONTINUOUS
 62
     7
 10
1012.463924276848
 20
883.50937196664756
 30
0.0
 40
9.6951975002264614
 50
10.39488984169828
 51
81.182969317835699
  0
CIRCLE
  5
194
  8
DATA
  6
CONTINUOUS
 62
     7
 10
1026.8499999999999
 20
522.91000000399981
 30
0.0
 40
9.5
  0
CIRCLE
  5
195
  8
DATA
  6
CONTINUOUS
 62
     7
 10
1026.8499999999999
 20
522.91000000399981
 30
0.0
 40
3.8000000000000109
  0
ARC
  5
196
  8
DATA
  6
CONTINUOUS
 62
     7
 10
1041.2360757231511
 20
516.49062803735205
 30
0.0
 40
9.6951975002264632
 50
190.39488984169839
 51
259.98486337187092
  0
ARC
  5
197
  8
DATA
  6
CONTINUOUS
 62
     7
 10
1012.463924276848
 20
516.49062803735205
 30
0.0
 40
9.6951975002264081
 50
280.01513662812908
 51
349.60511015830139
  0
LINE
  5
198
  8
DATA
  6
CONTINUOUS
 62
     7
 10
1013.95
 20
1303.0
 30
0.0
 11
1013.95
 21
1353.8
 31
0.0
  0
LINE
  5
199
  8
DATA
  6
CONTINUOUS
 62
     7
 10
1017.45
 20
1303.0
 30
0.0
 11
1017.45
 21
1353.8
 31
0.0
  0
LINE
  5
19A
  8
DATA
  6
CONTINUOUS
 62
     7
 10
1036.25
 20
1303.0
 30
0.0
 11
1036.25
 21
1353.8
 31
0.0
  0
LINE
  5
19B
  8
DATA
  6
CONTINUOUS
 62
     7
 10
1039.75
 20
1303.0
 30
0.0
 11
1039.75
 21
1353.8
 31
0.0
  0
CIRCLE
  5
19C
  8
DATA
  6
CONTINUOUS
 62
     7
 10
1331.8
 20
1328.4000000000001
 30
0.0
 40
6.3499999999999091
  0
CIRCLE
  5
19D
  8
DATA
  6
CONTINUOUS
 62
     7
 10
1331.8
 20
1328.4000000000001
 30
0.0
 40
8.0
  0
CIRCLE
  5
19E
  8
DATA
  6
CONTINUOUS
 62
     7
 10
1281.0
 20
1328.4000000000001
 30
0.0
 40
6.3500000000000227
  0
CIRCLE
  5
19F
  8
DATA
  6
CONTINUOUS
 62
     7
 10
1281.0
 20
1328.4000000000001
 30
0.0
 40
8.0
  0
CIRCLE
  5
1A0
  8
DATA
  6
CONTINUOUS
 62
     7
 10
1230.2
 20
1328.4000000000001
 30
0.0
 40
6.3500000000000227
  0
CIRCLE
  5
1A1
  8
DATA
  6
CONTINUOUS
 62
     7
 10
1230.2
 20
1328.4000000000001
 30
0.0
 40
8.0
  0
CIRCLE
  5
1A2
  8
DATA
  6
CONTINUOUS
 62
     7
 10
1179.4000000000001
 20
1328.4000000000001
 30
0.0
 40
6.3500000000000227
  0
CIRCLE
  5
1A3
  8
DATA
  6
CONTINUOUS
 62
     7
 10
1179.4000000000001
 20
1328.4000000000001
 30
0.0
 40
8.0
  0
CIRCLE
  5
1A4
  8
DATA
  6
CONTINUOUS
 62
     7
 10
1128.5999999999999
 20
1328.4000000000001
 30
0.0
 40
6.3500000000000227
  0
CIRCLE
  5
1A5
  8
DATA
  6
CONTINUOUS
 62
     7
 10
1128.5999999999999
 20
1328.4000000000001
 30
0.0
 40
8.0
  0
CIRCLE
  5
1A6
  8
DATA
  6
CONTINUOUS
 62
     7
 10
925.40000000000032
 20
1328.4000000000001
 30
0.0
 40
6.3500000000000227
  0
CIRCLE
  5
1A7
  8
DATA
  6
CONTINUOUS
 62
     7
 10
925.40000000000032
 20
1328.4000000000001
 30
0.0
 40
8.0
  0
LINE
  5
1A8
  8
DATA
  6
CONTINUOUS
 62
     7
 10
1039.55
 20
506.9431674731922
 30
0.0
 11
1039.55
 21
487.91000000399993
 31
0.0
  0
LINE
  5
1A9
  8
DATA
  6
CONTINUOUS
 62
     7
 10
1014.15
 20
487.91000000399993
 30
0.0
 11
1014.15
 21
506.9431674731922
 31
0.0
  0
LINE
  5
1AA
  8
DATA
  6
CONTINUOUS
 62
     7
 10
1036.375
 20
912.09000000000003
 30
0.0
 11
1036.375
 21
897.09000000000003
 31
0.0
  0
LINE
  5
1AB
  8
DATA
  6
CONTINUOUS
 62
     7
 10
1017.325
 20
897.09000000000003
 30
0.0
 11
1017.325
 21
912.09000000000003
 31
0.0
  0
LINE
  5
1AC
  8
DATA
  6
CONTINUOUS
 62
     7
 10
1017.325
 20
897.09000000000003
 30
0.0
 11
1036.375
 21
897.09000000000003
 31
0.0
  0
LINE
  5
1AD
  8
DATA
  6
CONTINUOUS
 62
     7
 10
916.35521386296193
 20
1363.1999999990001
 30
0.0
 11
908.7552138629618
 21
1363.1999999990001
 31
0.0
  0
LINE
  5
1AE
  8
DATA
  6
CONTINUOUS
 62
     7
 10
908.7552138629618
 20
1363.8
 30
0.0
 11
908.7552138629618
 21
1363.1999999990001
 31
0.0
  0
LINE
  5
1AF
  8
DATA
  6
CONTINUOUS
 62
     7
 10
916.35521386296193
 20
1363.8
 30
0.0
 11
916.35521386296193
 21
1363.1999999990001
 31
0.0
  0
ARC
  5
1B0
  8
DATA
  6
CONTINUOUS
 62
     7
 10
914.91856198606911
 20
1353.0344591158389
 30
0.0
 40
11.88802260823117
 50
121.2283536711147
 51
176.3078272318516
  0
ARC
  5
1B1
  8
DATA
  6
CONTINUOUS
 62
     7
 10
910.19186573985519
 20
1353.0344591158389
 30
0.0
 40
11.888022608231131
 50
3.6921727681483989
 51
58.77164632888568
  0
LINE
  5
1B2
  8
DATA
  6
CONTINUOUS
 62
     7
 10
1030.650000000262
 20
1363.1999999990001
 30
0.0
 11
1023.050000000262
 21
1363.1999999990001
 31
0.0
  0
LINE
  5
1B3
  8
DATA
  6
CONTINUOUS
 62
     7
 10
1023.050000000262
 20
1363.8
 30
0.0
 11
1023.050000000262
 21
1363.1999999990001
 31
0.0
  0
LINE
  5
1B4
  8
DATA
  6
CONTINUOUS
 62
     7
 10
1030.650000000262
 20
1363.8
 30
0.0
 11
1030.650000000262
 21
1363.1999999990001
 31
0.0
  0
ARC
  5
1B5
  8
DATA
  6
CONTINUOUS
 62
     7
 10
1029.2133481233691
 20
1353.0344591158389
 30
0.0
 40
11.88802260823117
 50
121.2283536711147
 51
176.3078272318516
  0
ARC
  5
1B6
  8
DATA
  6
CONTINUOUS
 62
     7
 10
1024.4866518771551
 20
1353.0344591158389
 30
0.0
 40
11.88802260823112
 50
3.692172768148402
 51
58.771646328885737
  0
LINE
  5
1B7
  8
DATA
  6
CONTINUOUS
 62
     7
 10
1348.500000000362
 20
1363.1999999990001
 30
0.0
 11
1340.9000000003621
 21
1363.1999999990001
 31
0.0
  0
LINE
  5
1B8
  8
DATA
  6
CONTINUOUS
 62
     7
 10
1340.9000000003621
 20
1363.8
 30
0.0
 11
1340.9000000003621
 21
1363.1999999990001
 31
0.0
  0
LINE
  5
1B9
  8
DATA
  6
CONTINUOUS
 62
     7
 10
1348.500000000362
 20
1363.8
 30
0.0
 11
1348.500000000362
 21
1363.1999999990001
 31
0.0
  0
ARC
  5
1BA
  8
DATA
  6
CONTINUOUS
 62
     7
 10
1347.063348123469
 20
1353.0344591158389
 30
0.0
 40
11.88802260823117
 50
121.2283536711147
 51
176.3078272318516
  0
ARC
  5
1BB
  8
DATA
  6
CONTINUOUS
 62
     7
 10
1342.336651877255
 20
1353.0344591158389
 30
0.0
 40
11.88802260823112
 50
3.692172768148402
 51
58.771646328885737
  0
LINE
  5
1BC
  8
DATA
  6
CONTINUOUS
 62
     7
 10
933.40000000000009
 20
706.39999999999998
 30
0.0
 11
933.40000000000009
 21
704.85000000000002
 31
0.0
  0
LINE
  5
1BD
  8
DATA
  6
CONTINUOUS
 62
     7
 10
933.40000000000009
 20
695.14999999999998
 30
0.0
 11
933.40000000000009
 21
693.59999999999991
 31
0.0
  0
LINE
  5
1BE
  8
DATA
  6
CONTINUOUS
 62
     7
 10
1120.5999999999999
 20
706.39999999999998
 30
0.0
 11
1120.5999999999999
 21
704.85000000000002
 31
0.0
  0
LINE
  5
1BF
  8
DATA
  6
CONTINUOUS
 62
     7
 10
1120.5999999999999
 20
695.14999999999998
 30
0.0
 11
1120.5999999999999
 21
693.59999999999991
 31
0.0
  0
LINE
  5
1C0
  8
DATA
  6
CONTINUOUS
 62
     7
 10
1136.5999999999999
 20
706.39999999999998
 30
0.0
 11
1136.5999999999999
 21
704.85000000000002
 31
0.0
  0
LINE
  5
1C1
  8
DATA
  6
CONTINUOUS
 62
     7
 10
1136.5999999999999
 20
695.14999999999998
 30
0.0
 11
1136.5999999999999
 21
693.59999999999991
 31
0.0
  0
LINE
  5
1C2
  8
DATA
  6
CONTINUOUS
 62
     7
 10
1171.4000000000001
 20
706.39999999999998
 30
0.0
 11
1171.4000000000001
 21
704.85000000000002
 31
0.0
  0
LINE
  5
1C3
  8
DATA
  6
CONTINUOUS
 62
     7
 10
1171.4000000000001
 20
695.14999999999998
 30
0.0
 11
1171.4000000000001
 21
693.59999999999991
 31
0.0
  0
LINE
  5
1C4
  8
DATA
  6
CONTINUOUS
 62
     7
 10
1187.4000000000001
 20
706.39999999999998
 30
0.0
 11
1187.4000000000001
 21
704.85000000000002
 31
0.0
  0
LINE
  5
1C5
  8
DATA
  6
CONTINUOUS
 62
     7
 10
1187.4000000000001
 20
695.14999999999998
 30
0.0
 11
1187.4000000000001
 21
693.59999999999991
 31
0.0
  0
LINE
  5
1C6
  8
DATA
  6
CONTINUOUS
 62
     7
 10
1222.2
 20
706.39999999999998
 30
0.0
 11
1222.2
 21
704.85000000000002
 31
0.0
  0
LINE
  5
1C7
  8
DATA
  6
CONTINUOUS
 62
     7
 10
1222.2
 20
695.14999999999998
 30
0.0
 11
1222.2
 21
693.59999999999991
 31
0.0
  0
LINE
  5
1C8
  8
DATA
  6
CONTINUOUS
 62
     7
 10
1238.2
 20
706.39999999999998
 30
0.0
 11
1238.2
 21
704.85000000000002
 31
0.0
  0
LINE
  5
1C9
  8
DATA
  6
CONTINUOUS
 62
     7
 10
1238.2
 20
695.14999999999998
 30
0.0
 11
1238.2
 21
693.59999999999991
 31
0.0
  0
LINE
  5
1CA
  8
DATA
  6
CONTINUOUS
 62
     7
 10
1273.0
 20
706.39999999999998
 30
0.0
 11
1273.0
 21
704.85000000000002
 31
0.0
  0
LINE
  5
1CB
  8
DATA
  6
CONTINUOUS
 62
     7
 10
1273.0
 20
695.14999999999998
 30
0.0
 11
1273.0
 21
693.59999999999991
 31
0.0
  0
LINE
  5
1CC
  8
DATA
  6
CONTINUOUS
 62
     7
 10
1289.0
 20
706.39999999999998
 30
0.0
 11
1289.0
 21
704.85000000000002
 31
0.0
  0
LINE
  5
1CD
  8
DATA
  6
CONTINUOUS
 62
     7
 10
1289.0
 20
695.14999999999998
 30
0.0
 11
1289.0
 21
693.59999999999991
 31
0.0
  0
LINE
  5
1CE
  8
DATA
  6
CONTINUOUS
 62
     7
 10
1323.8
 20
706.39999999999998
 30
0.0
 11
1323.8
 21
704.85000000000002
 31
0.0
  0
LINE
  5
1CF
  8
DATA
  6
CONTINUOUS
 62
     7
 10
1323.8
 20
695.14999999999998
 30
0.0
 11
1323.8
 21
693.59999999999991
 31
0.0
  0
LINE
  5
1D0
  8
DATA
  6
CONTINUOUS
 62
     7
 10
919.52068372738722
 20
706.39999999999998
 30
0.0
 11
933.40000000000009
 21
706.39999999999998
 31
0.0
  0
LINE
  5
1D1
  8
DATA
  6
CONTINUOUS
 62
     7
 10
1017.347663040992
 20
706.39999999999998
 30
0.0
 11
1036.3523369590071
 21
706.39999999999998
 31
0.0
  0
LINE
  5
1D2
  8
DATA
  6
CONTINUOUS
 62
     7
 10
1120.5999999999999
 20
706.39999999999998
 30
0.0
 11
1136.5999999999999
 21
706.39999999999998
 31
0.0
  0
LINE
  5
1D3
  8
DATA
  6
CONTINUOUS
 62
     7
 10
1171.4000000000001
 20
706.39999999999998
 30
0.0
 11
1187.4000000000001
 21
706.39999999999998
 31
0.0
  0
LINE
  5
1D4
  8
DATA
  6
CONTINUOUS
 62
     7
 10
1222.2
 20
706.39999999999998
 30
0.0
 11
1238.2
 21
706.39999999999998
 31
0.0
  0
LINE
  5
1D5
  8
DATA
  6
CONTINUOUS
 62
     7
 10
1273.0
 20
706.39999999999998
 30
0.0
 11
1289.0
 21
706.39999999999998
 31
0.0
  0
LINE
  5
1D6
  8
DATA
  6
CONTINUOUS
 62
     7
 10
1323.8
 20
706.39999999999998
 30
0.0
 11
1337.6793162726101
 21
706.39999999999998
 31
0.0
  0
LINE
  5
1D7
  8
DATA
  6
CONTINUOUS
 62
     7
 10
919.52068372738722
 20
693.59999999999991
 30
0.0
 11
933.40000000000009
 21
693.59999999999991
 31
0.0
  0
LINE
  5
1D8
  8
DATA
  6
CONTINUOUS
 62
     7
 10
1017.347663040992
 20
693.59999999999991
 30
0.0
 11
1036.3523369590071
 21
693.59999999999991
 31
0.0
  0
LINE
  5
1D9
  8
DATA
  6
CONTINUOUS
 62
     7
 10
1120.5999999999999
 20
693.59999999999991
 30
0.0
 11
1136.5999999999999
 21
693.59999999999991
 31
0.0
  0
LINE
  5
1DA
  8
DATA
  6
CONTINUOUS
 62
     7
 10
1171.4000000000001
 20
693.59999999999991
 30
0.0
 11
1187.4000000000001
 21
693.59999999999991
 31
0.0
  0
LINE
  5
1DB
  8
DATA
  6
CONTINUOUS
 62
     7
 10
1222.2
 20
693.59999999999991
 30
0.0
 11
1238.2
 21
693.59999999999991
 31
0.0
  0
LINE
  5
1DC
  8
DATA
  6
CONTINUOUS
 62
     7
 10
1273.0
 20
693.59999999999991
 30
0.0
 11
1289.0
 21
693.59999999999991
 31
0.0
  0
LINE
  5
1DD
  8
DATA
  6
CONTINUOUS
 62
     7
 10
1323.8
 20
693.59999999999991
 30
0.0
 11
1337.6793162726101
 21
693.59999999999991
 31
0.0
  0
LINE
  5
1DE
  8
DATA
  6
CONTINUOUS
 62
     7
 10
1014.15
 20
487.91000000399993
 30
0.0
 11
1017.45
 21
487.91000000399993
 31
0.0
  0
LINE
  5
1DF
  8
DATA
  6
CONTINUOUS
 62
     7
 10
1036.25
 20
487.91000000399993
 30
0.0
 11
1039.55
 21
487.91000000399993
 31
0.0
  0
LINE
  5
1E0
  8
DATA
  6
CONTINUOUS
 62
     7
 10
1017.45
 20
502.91000000399993
 30
0.0
 11
1017.45
 21
487.91000000399993
 31
0.0
  0
LINE
  5
1E1
  8
DATA
  6
CONTINUOUS
 62
     7
 10
1036.25
 20
487.91000000399993
 30
0.0
 11
1036.25
 21
502.91000000399993
 31
0.0
  0
LINE
  5
1E2
  8
DATA
  6
CONTINUOUS
 62
     7
 10
1017.45
 20
502.91000000399993
 30
0.0
 11
1036.25
 21
502.91000000399993
 31
0.0
  0
LINE
  5
1E3
  8
DATA
  6
CONTINUOUS
 62
     7
 10
660.79999999999995
 20
519.11000000000001
 30
0.0
 11
660.79999999999995
 21
526.71000000000004
 31
0.0
  0
LINE
  5
1E4
  8
DATA
  6
CONTINUOUS
 62
     7
 10
660.79999999999995
 20
696.20000000000005
 30
0.0
 11
660.79999999999995
 21
703.79999999999995
 31
0.0
  0
LINE
  5
1E5
  8
DATA
  6
CONTINUOUS
 62
     7
 10
660.79999999999995
 20
873.28999999999985
 30
0.0
 11
660.79999999999995
 21
880.88999999999987
 31
0.0
  0
LINE
  5
1E6
  8
DATA
  6
CONTINUOUS
 62
     7
 10
908.7552138629618
 20
1363.8
 30
0.0
 11
916.35521386296193
 21
1363.8
 31
0.0
  0
LINE
  5
1E7
  8
DATA
  6
CONTINUOUS
 62
     7
 10
1023.050000000262
 20
1363.8
 30
0.0
 11
1030.650000000262
 21
1363.8
 31
0.0
  0
LINE
  5
1E8
  8
DATA
  6
CONTINUOUS
 62
     7
 10
1340.9000000003621
 20
1363.8
 30
0.0
 11
1348.500000000362
 21
1363.8
 31
0.0
  0
TEXT
  5
1E9
  8
DATA
 62
     7
 10
1120.0
 20
206.0692491200949
 30
0.0
 40
9.234375
  1
VRX928LA、VRX928LA-WH、VRX915S、VRX915S-WH用アレイフレーム
 41
0.7
 11
1120.0
 21
215.3036241200949
 31
0.0
 73
     3
  0
LINE
  5
1EA
  8
DATA
  6
CONTINUOUS
 62
     7
 10
190.99999999999989
 20
1794.0
 30
0.0
 11
190.99999999999989
 21
1806.0
 31
0.0
  0
LINE
  5
1EB
  8
DATA
  6
CONTINUOUS
 62
     7
 10
208.99999999999989
 20
1794.0
 30
0.0
 11
190.99999999999989
 21
1794.0
 31
0.0
  0
LINE
  5
1EC
  8
DATA
  6
CONTINUOUS
 62
     7
 10
208.99999999999989
 20
1806.0
 30
0.0
 11
208.99999999999989
 21
1794.0
 31
0.0
  0
LINE
  5
1ED
  8
DATA
  6
CONTINUOUS
 62
     7
 10
190.99999999999989
 20
1806.0
 30
0.0
 11
208.99999999999989
 21
1806.0
 31
0.0
  0
LINE
  5
1EE
  8
DATA
  6
CONTINUOUS
 62
     7
 10
301.5
 20
1806.0
 30
0.0
 11
351.49999999999977
 21
1806.0
 31
0.0
  0
LINE
  5
1EF
  8
DATA
  6
CONTINUOUS
 62
     7
 10
300.0
 20
1795.5
 30
0.0
 11
300.0
 21
1804.5
 31
0.0
  0
LINE
  5
1F0
  8
DATA
  6
CONTINUOUS
 62
     7
 10
351.49999999999977
 20
1794.0
 30
0.0
 11
301.5
 21
1794.0
 31
0.0
  0
ARC
  5
1F1
  8
DATA
  6
CONTINUOUS
 62
     7
 10
351.49999999999977
 20
1800.0
 30
0.0
 40
6.0
 50
270.00000000000051
 51
89.999999999999446
  0
ARC
  5
1F2
  8
DATA
  6
CONTINUOUS
 62
     7
 10
307.19999999999987
 20
1800.0
 30
0.0
 40
2.75
 50
89.999999999998792
 51
270.00000000000108
  0
ARC
  5
1F3
  8
DATA
  6
CONTINUOUS
 62
     7
 10
308.94999999999987
 20
1800.0
 30
0.0
 40
2.75
 50
270.0
 51
90.0
  0
LINE
  5
1F4
  8
DATA
  6
CONTINUOUS
 62
     7
 10
307.19999999999999
 20
1802.75
 30
0.0
 11
308.94999999999987
 21
1802.75
 31
0.0
  0
LINE
  5
1F5
  8
DATA
  6
CONTINUOUS
 62
     7
 10
307.19999999999999
 20
1797.25
 30
0.0
 11
308.94999999999987
 21
1797.25
 31
0.0
  0
CIRCLE
  5
1F6
  8
DATA
  6
CONTINUOUS
 62
     7
 10
352.74999999999989
 20
1800.0
 30
0.0
 40
1.3500000000000221
  0
LINE
  5
1F7
  8
DATA
  6
CONTINUOUS
 62
     7
 10
300.0
 20
1751.0
 30
0.0
 11
300.0
 21
1769.0
 31
0.0
  0
LINE
  5
1F8
  8
DATA
  6
CONTINUOUS
 62
     7
 10
357.49999999999989
 20
1751.0
 30
0.0
 11
300.0
 21
1751.0
 31
0.0
  0
LINE
  5
1F9
  8
DATA
  6
CONTINUOUS
 62
     7
 10
357.49999999999989
 20
1769.0
 30
0.0
 11
357.49999999999989
 21
1751.0
 31
0.0
  0
LINE
  5
1FA
  8
DATA
  6
CONTINUOUS
 62
     7
 10
300.0
 20
1769.0
 30
0.0
 11
357.49999999999989
 21
1769.0
 31
0.0
  0
CIRCLE
  5
1FB
  8
DATA
  6
CONTINUOUS
 62
     7
 10
250.0
 20
1600.0
 30
0.0
 40
7.5
  0
CIRCLE
  5
1FC
  8
DATA
  6
CONTINUOUS
 62
     7
 10
250.0
 20
1600.0
 30
0.0
 40
2.7999999999999541
  0
LINE
  5
1FD
  8
DATA
  6
CONTINUOUS
 62
     7
 10
300.0
 20
1597.2
 30
0.0
 11
300.0
 21
1602.8
 31
0.0
  0
LINE
  5
1FE
  8
DATA
  6
CONTINUOUS
 62
     7
 10
303.89999999999998
 20
1592.5
 30
0.0
 11
303.89999999999998
 21
1607.5
 31
0.0
  0
LINE
  5
1FF
  8
DATA
  6
CONTINUOUS
 62
     7
 10
300.0
 20
1602.8
 30
0.0
 11
303.89999999999998
 21
1602.8
 31
0.0
  0
LINE
  5
200
  8
DATA
  6
CONTINUOUS
 62
     7
 10
300.0
 20
1597.2
 30
0.0
 11
303.89999999999998
 21
1597.2
 31
0.0
  0
LINE
  5
201
  8
DATA
  6
CONTINUOUS
 62
     7
 10
303.89999999999998
 20
1607.5
 30
0.0
 11
308.7999999999999
 21
1607.5
 31
0.0
  0
LINE
  5
202
  8
DATA
  6
CONTINUOUS
 62
     7
 10
303.89999999999998
 20
1592.5
 30
0.0
 11
308.7999999999999
 21
1592.5
 31
0.0
  0
LINE
  5
203
  8
DATA
  6
CONTINUOUS
 62
     7
 10
308.7999999999999
 20
1592.5
 30
0.0
 11
308.7999999999999
 21
1607.5
 31
0.0
  0
LINE
  5
204
  8
DATA
  6
CONTINUOUS
 62
     7
 10
322.89999999999998
 20
1595.325
 30
0.0
 11
322.89999999999998
 21
1604.675
 31
0.0
  0
LINE
  5
205
  8
DATA
  6
CONTINUOUS
 62
     7
 10
321.39999999999998
 20
1595.0
 30
0.0
 11
321.39999999999998
 21
1605.0
 31
0.0
  0
LINE
  5
206
  8
DATA
  6
CONTINUOUS
 62
     7
 10
308.7999999999999
 20
1606.0
 30
0.0
 11
314.69999999999987
 21
1606.0
 31
0.0
  0
LINE
  5
207
  8
DATA
  6
CONTINUOUS
 62
     7
 10
314.69999999999987
 20
1594.0
 30
0.0
 11
308.7999999999999
 21
1594.0
 31
0.0
  0
LINE
  5
208
  8
DATA
  6
CONTINUOUS
 62
     7
 10
321.39999999999998
 20
1605.0
 30
0.0
 11
314.69999999999987
 21
1606.0
 31
0.0
  0
LINE
  5
209
  8
DATA
  6
CONTINUOUS
 62
     7
 10
321.39999999999998
 20
1595.0
 30
0.0
 11
314.69999999999987
 21
1594.0
 31
0.0
  0
LINE
  5
20A
  8
DATA
  6
CONTINUOUS
 62
     7
 10
322.89999999999998
 20
1595.325
 30
0.0
 11
321.39999999999998
 21
1595.325
 31
0.0
  0
LINE
  5
20B
  8
DATA
  6
CONTINUOUS
 62
     7
 10
321.39999999999998
 20
1604.675
 30
0.0
 11
322.89999999999998
 21
1604.675
 31
0.0
  0
LINE
  5
20C
  8
DATA
  6
CONTINUOUS
 62
     7
 10
355.30000000000001
 20
1598.0
 30
0.0
 11
355.30000000000001
 21
1602.0
 31
0.0
  0
LINE
  5
20D
  8
DATA
  6
CONTINUOUS
 62
     7
 10
322.89999999999998
 20
1602.4000000000001
 30
0.0
 11
353.2999999999999
 21
1602.4000000000001
 31
0.0
  0
LINE
  5
20E
  8
DATA
  6
CONTINUOUS
 62
     7
 10
353.2999999999999
 20
1597.5999999999999
 30
0.0
 11
322.89999999999998
 21
1597.5999999999999
 31
0.0
  0
LINE
  5
20F
  8
DATA
  6
CONTINUOUS
 62
     7
 10
355.30000000000001
 20
1602.0
 30
0.0
 11
353.30000000000001
 21
1602.4000000000001
 31
0.0
  0
LINE
  5
210
  8
DATA
  6
CONTINUOUS
 62
     7
 10
353.30000000000001
 20
1597.5999999999999
 30
0.0
 11
355.30000000000001
 21
1598.0
 31
0.0
  0
CIRCLE
  5
211
  8
DATA
  6
CONTINUOUS
 62
     7
 10
349.0
 20
1600.0
 30
0.0
 40
0.5
  0
ARC
  5
212
  8
DATA
  6
CONTINUOUS
 62
     7
 10
249.99999999999969
 20
1360.0
 30
0.0
 40
12.50000000000038
 50
126.8698976458433
 51
53.130102354156072
  0
CIRCLE
  5
213
  8
DATA
  6
CONTINUOUS
 62
     7
 10
250.0
 20
1360.0
 30
0.0
 40
8.0
  0
LINE
  5
214
  8
DATA
  6
CONTINUOUS
 62
     7
 10
255.49999999999989
 20
1407.3
 30
0.0
 11
255.49999999999989
 21
1374.0
 31
0.0
  0
LINE
  5
215
  8
DATA
  6
CONTINUOUS
 62
     7
 10
244.49999999999989
 20
1374.0
 30
0.0
 11
244.49999999999989
 21
1407.3
 31
0.0
  0
ARC
  5
216
  8
DATA
  6
CONTINUOUS
 62
     7
 10
249.99999999999989
 20
1407.3
 30
0.0
 40
5.5
 50
0.0000000000006253
 51
179.9999999999994
  0
ARC
  5
217
  8
DATA
  6
CONTINUOUS
 62
     7
 10
239.50000000000011
 20
1374.0
 30
0.0
 40
4.999999999999841
 50
306.86989764584058
 51
0.0
  0
ARC
  5
218
  8
DATA
  6
CONTINUOUS
 62
     7
 10
260.49999999999989
 20
1374.0
 30
0.0
 40
5.0
 50
180.0
 51
233.13010235415601
  0
ARC
  5
219
  8
DATA
  6
CONTINUOUS
 62
     7
 10
345.8452955786812
 20
1375.3375405967299
 30
0.0
 40
9.839660975381129
 50
268.81050649948662
 51
307.93895875135888
  0
ARC
  5
21A
  8
DATA
  6
CONTINUOUS
 62
     7
 10
353.12457491226661
 20
1366.0000000000009
 30
0.0
 40
1.9999999999981799
 50
90.0
 51
127.9389587513913
  0
ARC
  5
21B
  8
DATA
  6
CONTINUOUS
 62
     7
 10
345.8452955786812
 20
1344.6624594032689
 30
0.0
 40
9.8396609753811184
 50
52.061041248641097
 51
91.189493500513436
  0
ARC
  5
21C
  8
DATA
  6
CONTINUOUS
 62
     7
 10
353.12457491226661
 20
1353.999999999998
 30
0.0
 40
1.999999999998143
 50
232.0610412486086
 51
270.0
  0
LINE
  5
21D
  8
DATA
  6
CONTINUOUS
 62
     7
 10
304.64103320300001
 20
1372.6344975102979
 30
0.0
 11
304.64103320300001
 21
1352.5
 31
0.0
  0
LINE
  5
21E
  8
DATA
  6
CONTINUOUS
 62
     7
 10
342.64103320300001
 20
1372.6344975102979
 30
0.0
 11
342.64103320300001
 21
1352.5
 31
0.0
  0
LINE
  5
21F
  8
DATA
  6
CONTINUOUS
 62
     7
 10
314.64103320299989
 20
1375.806139529335
 30
0.0
 11
314.64103320299989
 21
1352.5
 31
0.0
  0
LINE
  5
220
  8
DATA
  6
CONTINUOUS
 62
     7
 10
332.64103320300001
 20
1352.5
 30
0.0
 11
332.64103320300001
 21
1375.806139529335
 31
0.0
  0
ARC
  5
221
  8
DATA
  6
CONTINUOUS
 62
     7
 10
323.64103320300012
 20
1389.148809485067
 30
0.0
 40
23.649999999999711
 50
328.54832681609997
 51
211.45167318389861
  0
ARC
  5
222
  8
DATA
  6
CONTINUOUS
 62
     7
 10
323.64103320300012
 20
1388.9685861104231
 30
0.0
 40
13.49999999999994
 50
322.25075812698498
 51
217.74924187301369
  0
ARC
  5
223
  8
DATA
  6
CONTINUOUS
 62
     7
 10
296.64103320299978
 20
1372.6344975102979
 30
0.0
 40
8.0000000000001688
 50
0.0
 51
31.451673183898041
  0
ARC
  5
224
  8
DATA
  6
CONTINUOUS
 62
     7
 10
350.64103320299989
 20
1372.6344975102979
 30
0.0
 40
7.9999999999999369
 50
148.54832681609989
 51
180.0
  0
ARC
  5
225
  8
DATA
  6
CONTINUOUS
 62
     7
 10
306.64103320299989
 20
1375.806139529335
 30
0.0
 40
8.0000000000000568
 50
0.0
 51
37.749241873013887
  0
ARC
  5
226
  8
DATA
  6
CONTINUOUS
 62
     7
 10
340.64103320299978
 20
1375.806139529335
 30
0.0
 40
7.999999999999849
 50
142.25075812698449
 51
180.0
  0
ARC
  5
227
  8
DATA
  6
CONTINUOUS
 62
     7
 10
309.64103320299989
 20
1352.5
 30
0.0
 40
4.9999999999999432
 50
180.0
 51
0.0
  0
ARC
  5
228
  8
DATA
  6
CONTINUOUS
 62
     7
 10
337.64103320299989
 20
1352.5
 30
0.0
 40
4.9999999999999432
 50
180.0
 51
0.0
  0
LINE
  5
229
  8
DATA
  6
CONTINUOUS
 62
     7
 10
314.64103320299989
 20
1365.5
 30
0.0
 11
332.64103320300001
 21
1365.5
 31
0.0
  0
LINE
  5
22A
  8
DATA
  6
CONTINUOUS
 62
     7
 10
332.64103320300001
 20
1354.5
 30
0.0
 11
314.64103320299989
 21
1354.5
 31
0.0
  0
LINE
  5
22B
  8
DATA
  6
CONTINUOUS
 62
     7
 10
345.64103320299989
 20
1368.0
 30
0.0
 11
342.64103320300001
 21
1368.0
 31
0.0
  0
LINE
  5
22C
  8
DATA
  6
CONTINUOUS
 62
     7
 10
345.64103320299989
 20
1352.0
 30
0.0
 11
342.61597038853552
 21
1352.0
 31
0.0
  0
LINE
  5
22D
  8
DATA
  6
CONTINUOUS
 62
     7
 10
356.01476393461388
 20
1368.0
 30
0.0
 11
358.69879531639992
 21
1368.0
 31
0.0
  0
LINE
  5
22E
  8
DATA
  6
CONTINUOUS
 62
     7
 10
358.69879531639992
 20
1352.0
 30
0.0
 11
356.01476393461388
 21
1352.0
 31
0.0
  0
CIRCLE
  5
22F
  8
DATA
  6
CONTINUOUS
 62
     7
 10
356.69879531639992
 20
1360.0
 30
0.0
 40
3.0
  0
LINE
  5
230
  8
DATA
  6
CONTINUOUS
 62
     7
 10
353.12457491226661
 20
1368.0
 30
0.0
 11
359.90116517025882
 21
1368.0
 31
0.0
  0
LINE
  5
231
  8
DATA
  6
CONTINUOUS
 62
     7
 10
353.12457491226661
 20
1352.0
 30
0.0
 11
359.92362933773347
 21
1352.0
 31
0.0
  0
LINE
  5
232
  8
DATA
  6
CONTINUOUS
 62
     7
 10
361.58312572269972
 20
1360.672349182408
 30
0.0
 11
360.3939262023971
 21
1367.5847736114949
 31
0.0
  0
LINE
  5
233
  8
DATA
  6
CONTINUOUS
 62
     7
 10
360.41663233156987
 20
1352.416645047728
 30
0.0
 11
361.58506141628521
 21
1359.327320672269
 31
0.0
  0
ARC
  5
234
  8
DATA
  6
CONTINUOUS
 62
     7
 10
357.64103746559329
 20
1359.9941602904451
 30
0.0
 40
3.9999999999999281
 50
350.40341927451283
 51
9.7614946964140454
  0
ARC
  5
235
  8
DATA
  6
CONTINUOUS
 62
     7
 10
359.90116517025882
 20
1367.5
 30
0.0
 40
0.5000000000000068
 50
9.761494696409704
 51
89.999999999999986
  0
ARC
  5
236
  8
DATA
  6
CONTINUOUS
 62
     7
 10
359.92362933773347
 20
1352.5
 30
0.0
 40
0.5000000000000285
 50
270.0
 51
350.40341927450919
  0
LINE
  5
237
  8
DATA
  6
CONTINUOUS
 62
     7
 10
345.64103320299989
 20
1352.0
 30
0.0
 11
345.64103320299989
 21
1368.0
 31
0.0
  0
LINE
  5
238
  8
DATA
  6
CONTINUOUS
 62
     7
 10
305.49999999983339
 20
1305.5
 30
0.0
 11
341.78206640616679
 21
1305.5
 31
0.0
  0
LINE
  5
239
  8
DATA
  6
CONTINUOUS
 62
     7
 10
305.49999999983339
 20
1294.5
 30
0.0
 11
341.78206640616679
 21
1294.5
 31
0.0
  0
ARC
  5
23A
  8
DATA
  6
CONTINUOUS
 62
     7
 10
305.49999999983339
 20
1300.0
 30
0.0
 40
5.4999999999999432
 50
89.999999999999403
 51
270.00000000000063
  0
ARC
  5
23B
  8
DATA
  6
CONTINUOUS
 62
     7
 10
341.78206640616679
 20
1300.0
 30
0.0
 40
5.5
 50
270.0
 51
90.0
  0
ARC
  5
23C
  8
DATA
  6
CONTINUOUS
 62
     7
 10
309.64103320299989
 20
1307.5
 30
0.0
 40
5.000000000000056
 50
0.0
 51
180.0
  0
ARC
  5
23D
  8
DATA
  6
CONTINUOUS
 62
     7
 10
309.64103320299989
 20
1292.5
 30
0.0
 40
4.9999999999999432
 50
180.0
 51
0.0
  0
LINE
  5
23E
  8
DATA
  6
CONTINUOUS
 62
     7
 10
304.64103320300001
 20
1307.5
 30
0.0
 11
304.64103320300001
 21
1305.432511025477
 31
0.0
  0
LINE
  5
23F
  8
DATA
  6
CONTINUOUS
 62
     7
 10
304.64103320300001
 20
1294.5674889745219
 30
0.0
 11
304.64103320300001
 21
1292.5
 31
0.0
  0
LINE
  5
240
  8
DATA
  6
CONTINUOUS
 62
     7
 10
314.64103320299989
 20
1292.5
 30
0.0
 11
314.64103320299989
 21
1294.5
 31
0.0
  0
LINE
  5
241
  8
DATA
  6
CONTINUOUS
 62
     7
 10
314.64103320299989
 20
1305.5
 30
0.0
 11
314.64103320299989
 21
1307.5
 31
0.0
  0
ARC
  5
242
  8
DATA
  6
CONTINUOUS
 62
     7
 10
337.64103320299989
 20
1307.5
 30
0.0
 40
5.000000000000056
 50
0.0
 51
180.0
  0
ARC
  5
243
  8
DATA
  6
CONTINUOUS
 62
     7
 10
337.64103320299989
 20
1292.5
 30
0.0
 40
4.9999999999999432
 50
180.0
 51
0.0
  0
LINE
  5
244
  8
DATA
  6
CONTINUOUS
 62
     7
 10
332.64103320300001
 20
1307.5
 30
0.0
 11
332.64103320300001
 21
1305.432511025477
 31
0.0
  0
LINE
  5
245
  8
DATA
  6
CONTINUOUS
 62
     7
 10
332.64103320300001
 20
1294.5674889745219
 30
0.0
 11
332.64103320300001
 21
1292.5
 31
0.0
  0
LINE
  5
246
  8
DATA
  6
CONTINUOUS
 62
     7
 10
342.64103320300001
 20
1292.5
 30
0.0
 11
342.64103320300001
 21
1294.5
 31
0.0
  0
LINE
  5
247
  8
DATA
  6
CONTINUOUS
 62
     7
 10
342.64103320300001
 20
1305.5
 30
0.0
 11
342.64103320300001
 21
1307.5
 31
0.0
  0
LINE
  5
248
  8
DATA
  6
CONTINUOUS
 62
     7
 10
361.63573770640738
 20
1297.5
 30
0.0
 11
361.63573770640738
 21
1302.5
 31
0.0
  0
LINE
  5
249
  8
DATA
  6
CONTINUOUS
 62
     7
 10
342.61597038853279
 20
1308.0
 30
0.0
 11
345.64103320299989
 21
1308.0
 31
0.0
  0
LINE
  5
24A
  8
DATA
  6
CONTINUOUS
 62
     7
 10
345.64103320299989
 20
1292.0
 30
0.0
 11
342.61597038853068
 21
1292.0
 31
0.0
  0
LINE
  5
24B
  8
DATA
  6
CONTINUOUS
 62
     7
 10
361.63573770640738
 20
1302.5
 30
0.0
 11
348.64103320300001
 21
1302.5
 31
0.0
  0
LINE
  5
24C
  8
DATA
  6
CONTINUOUS
 62
     7
 10
361.63573770640738
 20
1297.5
 30
0.0
 11
348.64103320300001
 21
1297.5
 31
0.0
  0
LINE
  5
24D
  8
DATA
  6
CONTINUOUS
 62
     7
 10
345.64103320299989
 20
1305.5
 30
0.0
 11
345.64103320299989
 21
1308.0
 31
0.0
  0
ARC
  5
24E
  8
DATA
  6
CONTINUOUS
 62
     7
 10
348.64103320300001
 20
1305.5
 30
0.0
 40
3.0
 50
180.0
 51
270.0
  0
LINE
  5
24F
  8
DATA
  6
CONTINUOUS
 62
     7
 10
345.64103320299989
 20
1292.0
 30
0.0
 11
345.64103320299989
 21
1294.5
 31
0.0
  0
ARC
  5
250
  8
DATA
  6
CONTINUOUS
 62
     7
 10
348.64103320300001
 20
1294.5
 30
0.0
 40
3.0
 50
90.0
 51
180.0
  0
LINE
  5
251
  8
DATA
  6
CONTINUOUS
 62
     7
 10
247.49999999999969
 20
1352.400657923215
 30
0.0
 11
247.49999999999969
 21
1367.599342076785
 31
0.0
  0
LINE
  5
252
  8
DATA
  6
CONTINUOUS
 62
     7
 10
252.49999999999969
 20
1367.599342076785
 30
0.0
 11
252.49999999999969
 21
1352.400657923215
 31
0.0
  0
TEXT
  5
253
  8
DATA
 62
     7
 10
408.8888888888888
 20
1589.8399999999999
 30
0.0
 40
21.71788194444445
  1
Ball Locking Pin ×2
 41
0.7
 11
408.8888888888888
 21
1611.557881944444
 31
0.0
 73
     3
  0
TEXT
  5
254
  8
DATA
 62
     7
 10
422.3888888888888
 20
1339.8399999999999
 30
0.0
 40
21.71788194444445
  1
Shackle ×2
 41
0.7
 11
422.3888888888888
 21
1361.557881944444
 31
0.0
 73
     3
  0
TEXT
  5
255
  8
DATA
 62
     7
 10
426.22222222222217
 20
1789.8399999999999
 30
0.0
 40
21.71788194444445
  1
Drop Level ×2
 41
0.7
 11
426.22222222222217
 21
1811.557881944444
 31
0.0
 73
     3
  0
LINE
  5
256
  8
DATA
  6
CONTINUOUS
 62
     7
 10
400.0
 20
1775.0
 30
0.0
 11
650.0
 21
1775.0
 31
0.0
  0
LINE
  5
257
  8
DATA
  6
CONTINUOUS
 62
     7
 10
400.0
 20
1325.0
 30
0.0
 11
600.0
 21
1325.0
 31
0.0
  0
LINE
  5
258
  8
DATA
  6
CONTINUOUS
 62
     7
 10
400.0
 20
1575.0
 30
0.0
 11
700.0
 21
1575.0
 31
0.0
  0
TEXT
  5
259
  8
DATA
 62
     7
 10
282.66666666666657
 20
1214.8399999999999
 30
0.0
 40
21.71788194444445
  1
付属品
 41
0.7
 11
282.66666666666657
 21
1236.557881944444
 31
0.0
 73
     3
  0
LINE
  5
25A
  8
DATA
  6
CONTINUOUS
 62
     7
 10
250.0
 20
1200.0
 30
0.0
 11
400.0
 21
1200.0
 31
0.0
  0
ARC
  5
25B
  8
DATA
  6
CONTINUOUS
 62
     7
 10
301.5
 20
1804.5
 30
0.0
 40
1.5
 50
90.0
 51
180.0
  0
ARC
  5
25C
  8
DATA
  6
CONTINUOUS
 62
     7
 10
301.5
 20
1795.5
 30
0.0
 40
1.5
 50
180.0
 51
270.0
  0
LINE
  5
25D
  8
DATA
  6
CONTINUOUS
 62
     7
 10
1292.0
 20
1300.0
 30
0.0
 11
902.53999999999985
 21
1300.0
 31
0.0
  0
LINE
  5
25E
  8
DATA
  6
CONTINUOUS
 62
     7
 10
1292.0
 20
1300.0
 30
0.0
 11
1292.0
 21
1303.0
 31
0.0
  0
ARC
  5
25F
  8
DATA
  6
CONTINUOUS
 62
     7
 10
1354.6600000000001
 20
1351.26
 30
0.0
 40
2.5399999999999641
 50
0.0
 51
90.0
  0
ARC
  5
260
  8
DATA
  6
CONTINUOUS
 62
     7
 10
1354.6600000000001
 20
1305.54
 30
0.0
 40
2.5399999999999641
 50
270.0
 51
0.0000000000006821
  0
ARC
  5
261
  8
DATA
  6
CONTINUOUS
 62
     7
 10
902.53999999999985
 20
1305.54
 30
0.0
 40
2.5399999999999912
 50
180.0
 51
270.0000000000004
  0
ARC
  5
262
  8
DATA
  6
CONTINUOUS
 62
     7
 10
902.53999999999985
 20
1351.26
 30
0.0
 40
2.5399999999999641
 50
90.0
 51
180.0000000000006
  0
LINE
  5
263
  8
DATA
  6
CONTINUOUS
 62
     7
 10
902.53999999999985
 20
1303.0
 30
0.0
 11
902.53999999999985
 21
1300.0
 31
0.0
  0
LINE
  5
264
  8
DATA
  6
CONTINUOUS
 62
     7
 10
1013.95
 20
912.09000000000003
 30
0.0
 11
1017.325
 21
912.09000000000003
 31
0.0
  0
LINE
  5
265
  8
DATA
  6
CONTINUOUS
 62
     7
 10
1036.375
 20
912.09000000000003
 30
0.0
 11
1039.75
 21
912.09000000000003
 31
0.0
  0
ENDSEC
  0
EOF
