  0
SECTION
  2
HEADER
  9
$ACADVER
  1
AC1015
  9
$ACADMAINTVER
 70
    20
  9
$DWGCODEPAGE
  3
ANSI_932
  9
$INSBASE
 10
0.0
 20
0.0
 30
0.0
  9
$EXTMIN
 10
-1800.0
 20
-2685.069365531251
 30
0.0
  9
$EXTMAX
 10
1800.0
 20
2667.104485000001
 30
0.0
  9
$LIMMIN
 10
0.0
 20
0.0
  9
$LIMMAX
 10
0.0
 20
0.0
  9
$ORTHOMODE
 70
     0
  9
$REGENMODE
 70
     1
  9
$FILLMODE
 70
     1
  9
$QTEXTMODE
 70
     0
  9
$MIRRTEXT
 70
     1
  9
$LTSCALE
 40
101.6
  9
$ATTMODE
 70
     1
  9
$TEXTSIZE
 40
0.0
  9
$TRACEWID
 40
1.0
  9
$TEXTSTYLE
  7
STANDARD
  9
$CLAYER
  8
DATA
  9
$CELTYPE
  6
ByLayer
  9
$CECOLOR
 62
   256
  9
$CELTSCALE
 40
1.0
  9
$DISPSILH
 70
     0
  9
$DIMSCALE
 40
1.0
  9
$DIMASZ
 40
0.18
  9
$DIMEXO
 40
0.0625
  9
$DIMDLI
 40
0.38
  9
$DIMRND
 40
0.0
  9
$DIMDLE
 40
0.0
  9
$DIMEXE
 40
0.18
  9
$DIMTP
 40
0.0
  9
$DIMTM
 40
0.0
  9
$DIMTXT
 40
0.18
  9
$DIMCEN
 40
0.09
  9
$DIMTSZ
 40
0.0
  9
$DIMTOL
 70
     0
  9
$DIMLIM
 70
     0
  9
$DIMTIH
 70
     1
  9
$DIMTOH
 70
     1
  9
$DIMSE1
 70
     0
  9
$DIMSE2
 70
     0
  9
$DIMTAD
 70
     0
  9
$DIMZIN
 70
     0
  9
$DIMBLK
  1

  9
$DIMASO
 70
     1
  9
$DIMSHO
 70
     1
  9
$DIMPOST
  1

  9
$DIMAPOST
  1

  9
$DIMALT
 70
     0
  9
$DIMALTD
 70
     2
  9
$DIMALTF
 40
25.4
  9
$DIMLFAC
 40
1.0
  9
$DIMTOFL
 70
     0
  9
$DIMTVP
 40
0.0
  9
$DIMTIX
 70
     0
  9
$DIMSOXD
 70
     0
  9
$DIMSAH
 70
     0
  9
$DIMBLK1
  1

  9
$DIMBLK2
  1

  9
$DIMSTYLE
  2
STANDARD
  9
$DIMCLRD
 70
     0
  9
$DIMCLRE
 70
     0
  9
$DIMCLRT
 70
     0
  9
$DIMTFAC
 40
1.0
  9
$DIMGAP
 40
0.09
  9
$DIMJUST
 70
     0
  9
$DIMSD1
 70
     0
  9
$DIMSD2
 70
     0
  9
$DIMTOLJ
 70
     1
  9
$DIMTZIN
 70
     0
  9
$DIMALTZ
 70
     0
  9
$DIMALTTZ
 70
     0
  9
$DIMUPT
 70
     0
  9
$DIMDEC
 70
     4
  9
$DIMTDEC
 70
     4
  9
$DIMALTU
 70
     2
  9
$DIMALTTD
 70
     2
  9
$DIMTXSTY
  7
STANDARD
  9
$DIMAUNIT
 70
     0
  9
$DIMADEC
 70
     0
  9
$DIMALTRND
 40
0.0
  9
$DIMAZIN
 70
     0
  9
$DIMDSEP
 70
    46
  9
$DIMATFIT
 70
     3
  9
$DIMFRAC
 70
     0
  9
$DIMLDRBLK
  1

  9
$DIMLUNIT
 70
     2
  9
$DIMLWD
 70
    -2
  9
$DIMLWE
 70
    -2
  9
$DIMTMOVE
 70
     0
  9
$LUNITS
 70
     2
  9
$LUPREC
 70
     2
  9
$SKETCHINC
 40
0.1
  9
$FILLETRAD
 40
0.0
  9
$AUNITS
 70
     0
  9
$AUPREC
 70
     0
  9
$MENU
  1
acad
  9
$ELEVATION
 40
0.0
  9
$PELEVATION
 40
0.0
  9
$THICKNESS
 40
0.0
  9
$LIMCHECK
 70
     0
  9
$CHAMFERA
 40
0.0
  9
$CHAMFERB
 40
0.0
  9
$CHAMFERC
 40
0.0
  9
$CHAMFERD
 40
0.0
  9
$SKPOLY
 70
     0
  9
$TDCREATE
 40
2458463.492615741
  9
$TDUCREATE
 40
2458463.117615741
  9
$TDUPDATE
 40
2458463.550856482
  9
$TDUUPDATE
 40
2458463.175856481
  9
$TDINDWG
 40
0.0005787037
  9
$TDUSRTIMER
 40
0.0005787037
  9
$USRTIMER
 70
     1
  9
$ANGBASE
 50
0.0
  9
$ANGDIR
 70
     0
  9
$PDMODE
 70
     1
  9
$PDSIZE
 40
-2.0
  9
$PLINEWID
 40
0.0
  9
$SPLFRAME
 70
     0
  9
$SPLINETYPE
 70
     6
  9
$SPLINESEGS
 70
     8
  9
$HANDSEED
  5
445
  9
$SURFTAB1
 70
     6
  9
$SURFTAB2
 70
     6
  9
$SURFTYPE
 70
     6
  9
$SURFU
 70
     6
  9
$SURFV
 70
     6
  9
$UCSBASE
  2

  9
$UCSNAME
  2

  9
$UCSORG
 10
0.0
 20
0.0
 30
0.0
  9
$UCSXDIR
 10
1.0
 20
0.0
 30
0.0
  9
$UCSYDIR
 10
0.0
 20
1.0
 30
0.0
  9
$UCSORTHOREF
  2

  9
$UCSORTHOVIEW
 70
     0
  9
$UCSORGTOP
 10
0.0
 20
0.0
 30
0.0
  9
$UCSORGBOTTOM
 10
0.0
 20
0.0
 30
0.0
  9
$UCSORGLEFT
 10
0.0
 20
0.0
 30
0.0
  9
$UCSORGRIGHT
 10
0.0
 20
0.0
 30
0.0
  9
$UCSORGFRONT
 10
0.0
 20
0.0
 30
0.0
  9
$UCSORGBACK
 10
0.0
 20
0.0
 30
0.0
  9
$PUCSBASE
  2

  9
$PUCSNAME
  2

  9
$PUCSORG
 10
0.0
 20
0.0
 30
0.0
  9
$PUCSXDIR
 10
1.0
 20
0.0
 30
0.0
  9
$PUCSYDIR
 10
0.0
 20
1.0
 30
0.0
  9
$PUCSORTHOREF
  2

  9
$PUCSORTHOVIEW
 70
     0
  9
$PUCSORGTOP
 10
0.0
 20
0.0
 30
0.0
  9
$PUCSORGBOTTOM
 10
0.0
 20
0.0
 30
0.0
  9
$PUCSORGLEFT
 10
0.0
 20
0.0
 30
0.0
  9
$PUCSORGRIGHT
 10
0.0
 20
0.0
 30
0.0
  9
$PUCSORGFRONT
 10
0.0
 20
0.0
 30
0.0
  9
$PUCSORGBACK
 10
0.0
 20
0.0
 30
0.0
  9
$USERI1
 70
     0
  9
$USERI2
 70
     0
  9
$USERI3
 70
     0
  9
$USERI4
 70
     0
  9
$USERI5
 70
     0
  9
$USERR1
 40
0.0
  9
$USERR2
 40
0.0
  9
$USERR3
 40
0.0
  9
$USERR4
 40
0.0
  9
$USERR5
 40
0.0
  9
$WORLDVIEW
 70
     1
  9
$SHADEDGE
 70
     3
  9
$SHADEDIF
 70
    70
  9
$TILEMODE
 70
     1
  9
$MAXACTVP
 70
    64
  9
$PINSBASE
 10
0.0
 20
0.0
 30
0.0
  9
$PLIMCHECK
 70
     0
  9
$PEXTMIN
 10
1.000000000000000E+20
 20
1.000000000000000E+20
 30
1.000000000000000E+20
  9
$PEXTMAX
 10
-1.000000000000000E+20
 20
-1.000000000000000E+20
 30
-1.000000000000000E+20
  9
$PLIMMIN
 10
0.0
 20
0.0
  9
$PLIMMAX
 10
12.0
 20
9.0
  9
$UNITMODE
 70
     0
  9
$VISRETAIN
 70
     0
  9
$PLINEGEN
 70
     1
  9
$PSLTSCALE
 70
     0
  9
$TREEDEPTH
 70
  3020
  9
$CMLSTYLE
  2
Standard
  9
$CMLJUST
 70
     0
  9
$CMLSCALE
 40
1.0
  9
$PROXYGRAPHICS
 70
     1
  9
$MEASUREMENT
 70
     0
  9
$CELWEIGHT
370
    -1
  9
$ENDCAPS
280
     0
  9
$JOINSTYLE
280
     0
  9
$LWDISPLAY
290
     0
  9
$INSUNITS
 70
     4
  9
$HYPERLINKBASE
  1

  9
$STYLESHEET
  1

  9
$XEDIT
290
     1
  9
$CEPSNTYPE
380
     0
  9
$PSTYLEMODE
290
     1
  9
$FINGERPRINTGUID
  2
{1A0BEF42-50D7-184B-A32C-A819433E4257}
  9
$VERSIONGUID
  2
{56C22D2E-1A3A-4A4E-8087-98731456B083}
  9
$EXTNAMES
290
     1
  9
$PSVPSCALE
 40
0.0
  9
$OLESTARTUP
290
     0
  0
ENDSEC
  0
SECTION
  2
CLASSES
  0
CLASS
  1
ACDBDICTIONARYWDFLT
  2
AcDbDictionaryWithDefault
  3
ObjectDBX Classes
 90
        0
280
     0
281
     0
  0
CLASS
  1
MATERIAL
  2
AcDbMaterial
  3
ObjectDBX Classes
 90
     1153
280
     0
281
     0
  0
CLASS
  1
VISUALSTYLE
  2
AcDbVisualStyle
  3
ObjectDBX Classes
 90
     4095
280
     0
281
     0
  0
CLASS
  1
SCALE
  2
AcDbScale
  3
ObjectDBX Classes
 90
     1153
280
     0
281
     0
  0
CLASS
  1
TABLESTYLE
  2
AcDbTableStyle
  3
ObjectDBX Classes
 90
     4095
280
     0
281
     0
  0
CLASS
  1
MLEADERSTYLE
  2
AcDbMLeaderStyle
  3
ACDB_MLEADERSTYLE_CLASS
 90
     4095
280
     0
281
     0
  0
CLASS
  1
ACDBSECTIONVIEWSTYLE
  2
AcDbSectionViewStyle
  3
ObjectDBX Classes
 90
     1025
280
     0
281
     0
  0
CLASS
  1
ACDBDETAILVIEWSTYLE
  2
AcDbDetailViewStyle
  3
ObjectDBX Classes
 90
     1025
280
     0
281
     0
  0
CLASS
  1
DICTIONARYVAR
  2
AcDbDictionaryVar
  3
ObjectDBX Classes
 90
        0
280
     0
281
     0
  0
CLASS
  1
CELLSTYLEMAP
  2
AcDbCellStyleMap
  3
ObjectDBX Classes
 90
     1152
280
     0
281
     0
  0
CLASS
  1
ACDBPLACEHOLDER
  2
AcDbPlaceHolder
  3
ObjectDBX Classes
 90
        0
280
     0
281
     0
  0
CLASS
  1
LAYOUT
  2
AcDbLayout
  3
ObjectDBX Classes
 90
        0
280
     0
281
     0
  0
ENDSEC
  0
SECTION
  2
TABLES
  0
TABLE
  2
VPORT
  5
32D
330
0
100
AcDbSymbolTable
 70
     1
  0
VPORT
  5
399
330
32D
100
AcDbSymbolTableRecord
100
AcDbViewportTableRecord
  2
*ACTIVE
 70
     0
 10
0.0
 20
0.0
 11
1.0
 21
1.0
 12
0.0000083819013525
 22
79.51781685187961
 13
0.0
 23
0.0
 14
1.0
 24
1.0
 15
0.0
 25
0.0
 16
0.0
 26
0.0
 36
1.0
 17
0.0
 27
0.0
 37
0.0
 40
5382.087198846807
 41
2.321755027422303
 42
50.0
 43
0.0
 44
0.0
 50
0.0
 51
0.0
 71
     0
 72
  2000
 73
     1
 74
     1
 75
     0
 76
     0
 77
     0
 78
     0
281
     0
 65
     1
110
0.0
120
0.0
130
0.0
111
1.0
121
0.0
131
0.0
112
0.0
122
1.0
132
0.0
 79
     0
146
0.0
1001
ACAD_NAV_VCDISPLAY
1070
     3
  0
ENDTAB
  0
TABLE
  2
LTYPE
  5
32A
330
0
100
AcDbSymbolTable
 70
     1
  0
LTYPE
  5
37F
330
32A
100
AcDbSymbolTableRecord
100
AcDbLinetypeTableRecord
  2
ByBlock
 70
     0
  3

 72
    65
 73
     0
 40
0.0
  0
LTYPE
  5
380
330
32A
100
AcDbSymbolTableRecord
100
AcDbLinetypeTableRecord
  2
ByLayer
 70
     0
  3

 72
    65
 73
     0
 40
0.0
  0
LTYPE
  5
381
330
32A
100
AcDbSymbolTableRecord
100
AcDbLinetypeTableRecord
  2
CONTINUOUS
 70
     0
  3
Solid line
 72
    65
 73
     0
 40
0.0
  0
ENDTAB
  0
TABLE
  2
LAYER
  5
327
330
0
100
AcDbSymbolTable
 70
     5
  0
LAYER
  5
379
102
{ACAD_XDICTIONARY
360
3AD
102
}
330
327
100
AcDbSymbolTableRecord
100
AcDbLayerTableRecord
  2
0
 70
     0
 62
     7
  6
CONTINUOUS
370
    -3
390
334
  0
LAYER
  5
398
102
{ACAD_XDICTIONARY
360
3AF
102
}
330
327
100
AcDbSymbolTableRecord
100
AcDbLayerTableRecord
  2
DATA
 70
     0
 62
     7
  6
CONTINUOUS
370
    -3
390
334
  0
LAYER
  5
3A4
102
{ACAD_XDICTIONARY
360
3B1
102
}
330
327
100
AcDbSymbolTableRecord
100
AcDbLayerTableRecord
  2
HIBINO-BASE
 70
     0
 62
     7
  6
CONTINUOUS
370
    -3
390
334
  0
LAYER
  5
3A5
102
{ACAD_XDICTIONARY
360
3B3
102
}
330
327
100
AcDbSymbolTableRecord
100
AcDbLayerTableRecord
  2
SPEC
 70
     0
 62
     7
  6
CONTINUOUS
370
    -3
390
334
  0
LAYER
  5
3A6
102
{ACAD_XDICTIONARY
360
3B5
102
}
330
327
100
AcDbSymbolTableRecord
100
AcDbLayerTableRecord
  2
DIMNSIONS
 70
     0
 62
     7
  6
CONTINUOUS
370
    -3
390
334
  0
ENDTAB
  0
TABLE
  2
STYLE
  5
328
330
0
100
AcDbSymbolTable
 70
     1
  0
STYLE
  5
37A
330
328
100
AcDbSymbolTableRecord
100
AcDbTextStyleTableRecord
  2
STANDARD
 70
     0
 40
0.0
 41
1.0
 50
0.0
 71
     0
 42
0.0
  3
txt
  4
BIGFONT.SHX
  0
ENDTAB
  0
TABLE
  2
VIEW
  5
32B
330
0
100
AcDbSymbolTable
 70
     0
  0
ENDTAB
  0
TABLE
  2
UCS
  5
32C
330
0
100
AcDbSymbolTable
 70
     0
  0
ENDTAB
  0
TABLE
  2
APPID
  5
32E
330
0
100
AcDbSymbolTable
 70
     4
  0
APPID
  5
37B
330
32E
100
AcDbSymbolTableRecord
100
AcDbRegAppTableRecord
  2
ACAD
 70
     0
  0
APPID
  5
382
330
32E
100
AcDbSymbolTableRecord
100
AcDbRegAppTableRecord
  2
AcadAnnotative
 70
     0
  0
APPID
  5
3C1
330
32E
100
AcDbSymbolTableRecord
100
AcDbRegAppTableRecord
  2
ACAD_NAV_VCDISPLAY
 70
     0
  0
APPID
  5
3FA
330
32E
100
AcDbSymbolTableRecord
100
AcDbRegAppTableRecord
  2
ACAD_MLEADERVER
 70
     0
  0
ENDTAB
  0
TABLE
  2
DIMSTYLE
  5
32F
330
0
100
AcDbSymbolTable
 70
     1
100
AcDbDimStyleTable
 71
     0
  0
DIMSTYLE
105
37C
330
32F
100
AcDbSymbolTableRecord
100
AcDbDimStyleTableRecord
  2
STANDARD
 70
     0
279
     2
340
37A
  0
ENDTAB
  0
TABLE
  2
BLOCK_RECORD
  5
326
330
0
100
AcDbSymbolTable
 70
     0
  0
BLOCK_RECORD
  5
394
330
326
100
AcDbSymbolTableRecord
100
AcDbBlockTableRecord
  2
*Model_Space
340
397
  0
BLOCK_RECORD
  5
390
330
326
100
AcDbSymbolTableRecord
100
AcDbBlockTableRecord
  2
*Paper_Space
340
393
  0
ENDTAB
  0
ENDSEC
  0
SECTION
  2
BLOCKS
  0
BLOCK
  5
395
330
394
100
AcDbEntity
  8
0
100
AcDbBlockBegin
  2
*Model_Space
 70
     0
 10
0.0
 20
0.0
 30
0.0
  3
*Model_Space
  1

  0
ENDBLK
  5
396
330
394
100
AcDbEntity
  8
0
100
AcDbBlockEnd
  0
BLOCK
  5
391
330
390
100
AcDbEntity
 67
     1
  8
0
100
AcDbBlockBegin
  2
*Paper_Space
 70
     0
 10
0.0
 20
0.0
 30
0.0
  3
*Paper_Space
  1

  0
ENDBLK
  5
392
330
390
100
AcDbEntity
 67
     1
  8
0
100
AcDbBlockEnd
  0
ENDSEC
  0
SECTION
  2
ENTITIES
  0
LINE
  5
2C
330
394
100
AcDbEntity
  8
HIBINO-BASE
  6
Continuous
 62
     7
100
AcDbLine
 10
-1800.0
 20
2667.104485000001
 30
0.0
 11
1800.0
 21
2667.104485000001
 31
0.0
  0
LINE
  5
2D
330
394
100
AcDbEntity
  8
HIBINO-BASE
  6
Continuous
 62
     7
100
AcDbLine
 10
1800.0
 20
-2532.895514999999
 30
0.0
 11
-1800.0
 21
-2532.895514999999
 31
0.0
  0
LINE
  5
2E
330
394
100
AcDbEntity
  8
HIBINO-BASE
  6
Continuous
 62
     7
100
AcDbLine
 10
-1800.0
 20
-2532.895514999999
 30
0.0
 11
-1800.0
 21
2667.104485000001
 31
0.0
  0
LINE
  5
2F
330
394
100
AcDbEntity
  8
HIBINO-BASE
  6
Continuous
 62
     7
100
AcDbLine
 10
1800.0
 20
2667.104485000001
 30
0.0
 11
1800.0
 21
-2532.895514999999
 31
0.0
  0
LINE
  5
30
330
394
100
AcDbEntity
  8
HIBINO-BASE
  6
Continuous
 62
     7
100
AcDbLine
 10
0.0000000000002842
 20
-2082.895514999999
 30
0.0
 11
1800.0
 21
-2082.895514999999
 31
0.0
  0
LINE
  5
31
330
394
100
AcDbEntity
  8
HIBINO-BASE
  6
Continuous
 62
     7
100
AcDbLine
 10
0.0000000000002842
 20
-2532.895514999999
 30
0.0
 11
0.0000000000002842
 21
-2082.895514999999
 31
0.0
  0
TEXT
  5
32
330
394
100
AcDbEntity
  8
HIBINO-BASE
 62
     7
100
AcDbText
 10
18.00000000000039
 20
-2133.069381666666
 30
0.0
 40
32.57682291666667
  1
NOTE
 41
0.7
 11
18.00000000000039
 21
-2100.49255875
 31
0.0
100
AcDbText
 73
     3
  0
LINE
  5
33
330
394
100
AcDbEntity
  8
HIBINO-BASE
  6
Continuous
 62
     7
100
AcDbLine
 10
700.0
 20
-2532.895514999999
 30
0.0
 11
700.0
 21
-2082.895514999999
 31
0.0
  0
TEXT
  5
34
330
394
100
AcDbEntity
  8
HIBINO-BASE
 62
     7
100
AcDbText
 10
717.9999999999997
 20
-2133.069381666666
 30
0.0
 40
32.57682291666667
  1
TITLE
 41
0.7
 11
717.9999999999997
 21
-2100.49255875
 31
0.0
100
AcDbText
 73
     3
  0
LINE
  5
35
330
394
100
AcDbEntity
  8
HIBINO-BASE
  6
Continuous
 62
     7
100
AcDbLine
 10
0.0000000000002842
 20
-2332.895514999999
 30
0.0
 11
1800.0
 21
-2332.895514999999
 31
0.0
  0
TEXT
  5
36
330
394
100
AcDbEntity
  8
HIBINO-BASE
 62
     7
100
AcDbText
 10
967.9999999999996
 20
-2381.942981666667
 30
0.0
 40
32.57682291666667
  1
DRAWN
 41
0.7
 11
967.9999999999996
 21
-2349.36615875
 31
0.0
100
AcDbText
 73
     3
  0
TEXT
  5
37
330
394
100
AcDbEntity
  8
HIBINO-BASE
 62
     7
100
AcDbText
 10
467.9999999999998
 20
-2381.942981666667
 30
0.0
 40
32.57682291666667
  1
DATE
 41
0.7
 11
467.9999999999998
 21
-2349.36615875
 31
0.0
100
AcDbText
 73
     3
  0
TEXT
  5
38
330
394
100
AcDbEntity
  8
HIBINO-BASE
 62
     7
100
AcDbText
 10
267.9999999999998
 20
-2381.942981666667
 30
0.0
 40
32.57682291666667
  1
SCALE
 41
0.7
 11
267.9999999999998
 21
-2349.36615875
 31
0.0
100
AcDbText
 73
     3
  0
TEXT
  5
39
330
394
100
AcDbEntity
  8
HIBINO-BASE
 62
     7
100
AcDbText
 10
717.9999999999997
 20
-2381.942981666667
 30
0.0
 40
32.57682291666667
  1
DESIGN
 41
0.7
 11
717.9999999999997
 21
-2349.36615875
 31
0.0
100
AcDbText
 73
     3
  0
TEXT
  5
3A
330
394
100
AcDbEntity
  8
HIBINO-BASE
 62
     7
100
AcDbText
 10
1468.0
 20
-2381.942981666667
 30
0.0
 40
32.57682291666667
  1
DRAWING NO.
 41
0.7
 11
1468.0
 21
-2349.36615875
 31
0.0
100
AcDbText
 73
     3
  0
TEXT
  5
3B
330
394
100
AcDbEntity
  8
HIBINO-BASE
 62
     7
100
AcDbText
 10
1218.0
 20
-2381.942981666667
 30
0.0
 40
32.57682291666667
  1
CHECK
 41
0.7
 11
1218.0
 21
-2349.36615875
 31
0.0
100
AcDbText
 73
     3
  0
LINE
  5
3C
330
394
100
AcDbEntity
  8
HIBINO-BASE
  6
Continuous
 62
     7
100
AcDbLine
 10
287.5000000000003
 20
-2507.895514999999
 30
0.0
 11
362.5000000000002
 21
-2432.895514999999
 31
0.0
  0
TEXT
  5
3D
330
394
100
AcDbEntity
  8
HIBINO-BASE
 62
     7
100
AcDbText
 10
275.0000000000003
 20
-2455.074381666666
 30
0.0
 40
32.57682291666667
  1
1
 41
0.7
 11
275.0000000000003
 21
-2422.497558749999
 31
0.0
100
AcDbText
 73
     3
  0
LINE
  5
3E
330
394
100
AcDbEntity
  8
HIBINO-BASE
  6
Continuous
 62
     7
100
AcDbLine
 10
250.0000000000003
 20
-2532.895514999999
 30
0.0
 11
250.0000000000003
 21
-2332.895514999999
 31
0.0
  0
LINE
  5
3F
330
394
100
AcDbEntity
  8
HIBINO-BASE
  6
Continuous
 62
     7
100
AcDbLine
 10
449.9999999999997
 20
-2532.895514999999
 30
0.0
 11
449.9999999999997
 21
-2332.895514999999
 31
0.0
  0
LINE
  5
40
330
394
100
AcDbEntity
  8
HIBINO-BASE
  6
Continuous
 62
     7
100
AcDbLine
 10
949.9999999999996
 20
-2332.895514999999
 30
0.0
 11
949.9999999999996
 21
-2532.895514999999
 31
0.0
  0
LINE
  5
41
330
394
100
AcDbEntity
  8
HIBINO-BASE
  6
Continuous
 62
     7
100
AcDbLine
 10
1450.0
 20
-2332.895514999999
 30
0.0
 11
1450.0
 21
-2532.895514999999
 31
0.0
  0
LINE
  5
42
330
394
100
AcDbEntity
  8
HIBINO-BASE
  6
Continuous
 62
     7
100
AcDbLine
 10
1200.0
 20
-2532.895514999999
 30
0.0
 11
1200.0
 21
-2332.895514999999
 31
0.0
  0
TEXT
  5
43
330
394
100
AcDbEntity
  8
HIBINO-BASE
 62
     7
100
AcDbText
 10
467.1308000000001
 20
-2475.622581666666
 30
0.0
 40
32.57682291666667
  1
'18.12.
 41
0.7
 11
467.1308000000001
 21
-2443.045758749999
 31
0.0
100
AcDbText
 73
     3
  0
TEXT
  5
44
330
394
100
AcDbEntity
  8
HIBINO-BASE
 62
     7
100
AcDbText
 10
350.0000000000002
 20
-2492.574381666667
 30
0.0
 40
32.57682291666667
  1
20
 41
0.7
 11
350.0000000000002
 21
-2459.99755875
 31
0.0
100
AcDbText
 73
     3
  0
TEXT
  5
45
330
394
100
AcDbEntity
  8
HIBINO-BASE
 62
     7
100
AcDbText
 10
980.1162002206924
 20
-2475.622581666666
 30
0.0
 40
32.57682291666667
  1
N.Sasaki
 41
0.7
 11
980.1162002206924
 21
-2443.045758749999
 31
0.0
100
AcDbText
 73
     3
  0
TEXT
  5
46
330
394
100
AcDbEntity
  8
HIBINO-BASE
 62
     7
100
AcDbText
 10
77.66666666666735
 20
-2493.375514999999
 30
0.0
 40
65.15364583333333
  1
A4
 41
0.7
 11
77.66666666666735
 21
-2428.221869166666
 31
0.0
100
AcDbText
 73
     3
  0
TEXT
  5
47
330
394
100
AcDbEntity
  8
HIBINO-BASE
 62
     7
100
AcDbText
 10
19.16666666666656
 20
-2385.284615
 30
0.0
 40
32.57682291666667
  1
PAPER SIZE
 41
0.7
 11
19.16666666666657
 21
-2352.707792083333
 31
0.0
100
AcDbText
 73
     3
  0
TEXT
  5
48
330
394
100
AcDbEntity
  8
HIBINO-BASE
 62
     7
100
AcDbText
 10
-1656.319999999999
 20
-2661.069071
 30
0.0
 40
72.00088359374998
  1
Hibino Corporation
 41
0.7
 11
-1656.319999999999
 21
-2589.06818740625
 31
0.0
100
AcDbText
 73
     3
  0
TEXT
  5
49
330
394
100
AcDbEntity
  8
HIBINO-BASE
 62
     7
100
AcDbText
 10
1001.3678
 20
-2661.069071
 30
0.0
 40
72.00088359374998
  1
ヒビノ株式会社
 41
0.7
 11
1001.3678
 21
-2589.06818740625
 31
0.0
100
AcDbText
 73
     3
  0
LINE
  5
4A
330
394
100
AcDbEntity
  8
SPEC
  6
Continuous
 62
     7
100
AcDbLine
 10
-1649.999999999999
 20
2467.104485000001
 30
0.0
 11
1300.0
 21
2467.104485000001
 31
0.0
  0
LINE
  5
4B
330
394
100
AcDbEntity
  8
SPEC
  6
Continuous
 62
     7
100
AcDbLine
 10
-1649.999999999999
 20
2392.104485000001
 30
0.0
 11
1300.0
 21
2392.104485000001
 31
0.0
  0
LINE
  5
4C
330
394
100
AcDbEntity
  8
SPEC
  6
Continuous
 62
     7
100
AcDbLine
 10
-1649.999999999999
 20
2467.104485000001
 30
0.0
 11
-1649.999999999999
 21
2317.104485000001
 31
0.0
  0
TEXT
  5
4D
330
394
100
AcDbEntity
  8
SPEC
 62
     7
100
AcDbText
 10
-1624.999999999999
 20
2494.969885
 30
0.0
 40
48.86523437500001
  1
仕様
 41
0.7
 11
-1624.999999999999
 21
2543.835119375
 31
0.0
100
AcDbText
 73
     3
  0
LINE
  5
4E
330
394
100
AcDbEntity
  8
SPEC
  6
Continuous
 62
     7
100
AcDbLine
 10
-999.9999999999996
 20
2467.104485000001
 30
0.0
 11
-999.9999999999996
 21
2317.104485000001
 31
0.0
  0
LINE
  5
4F
330
394
100
AcDbEntity
  8
SPEC
  6
Continuous
 62
     7
100
AcDbLine
 10
1300.0
 20
2467.104485000001
 30
0.0
 11
1300.0
 21
2317.104485000001
 31
0.0
  0
TEXT
  5
50
330
394
100
AcDbEntity
  8
SPEC
 62
     7
100
AcDbText
 10
-1632.0
 20
2407.862840555557
 30
0.0
 40
38.00629340277778
  1
寸法(W×H×D)
 41
0.7
 11
-1632.0
 21
2445.869133958334
 31
0.0
100
AcDbText
 73
     3
  0
TEXT
  5
51
330
394
100
AcDbEntity
  8
SPEC
 62
     7
100
AcDbText
 10
-1632.0
 20
2332.862840555557
 30
0.0
 40
38.00629340277778
  1
質量
 41
0.7
 11
-1632.0
 21
2370.869133958334
 31
0.0
100
AcDbText
 73
     3
  0
TEXT
  5
52
330
394
100
AcDbEntity
  8
SPEC
 62
     7
100
AcDbText
 10
-981.9999999999996
 20
2407.862840555557
 30
0.0
 40
38.00629340277778
  1
58×138×734mm(除突起部)
 41
0.7
 11
-981.9999999999996
 21
2445.869133958334
 31
0.0
100
AcDbText
 73
     3
  0
TEXT
  5
53
330
394
100
AcDbEntity
  8
SPEC
 62
     7
100
AcDbText
 10
-981.9999999999996
 20
2332.862840555557
 30
0.0
 40
38.00629340277778
  1
8kg
 41
0.7
 11
-981.9999999999996
 21
2370.869133958334
 31
0.0
100
AcDbText
 73
     3
  0
LINE
  5
54
330
394
100
AcDbEntity
  8
SPEC
  6
Continuous
 62
     7
100
AcDbLine
 10
-1649.999999999999
 20
2317.104485000001
 30
0.0
 11
1300.0
 21
2317.104485000001
 31
0.0
  0
TEXT
  5
55
330
394
100
AcDbEntity
  8
DIMNSIONS
 62
     7
100
AcDbText
 10
-400.0
 20
-2287.505714999999
 30
0.0
 40
48.86523437500001
  1
(単位：mm)
 41
0.7
 11
-400.0
 21
-2238.640480624999
 31
0.0
100
AcDbText
 73
     3
  0
LINE
  5
56
330
394
100
AcDbEntity
  8
DIMNSIONS
  6
Continuous
 62
     7
100
AcDbLine
 10
-528.8289999999979
 20
-1524.450575026726
 30
0.0
 11
-528.8289999999979
 21
-1735.0
 31
0.0
  0
LINE
  5
57
330
394
100
AcDbEntity
  8
DIMNSIONS
  6
Continuous
 62
     7
100
AcDbLine
 10
-471.170999999998
 20
-1524.450575026726
 30
0.0
 11
-471.170999999998
 21
-1735.0
 31
0.0
  0
LINE
  5
58
330
394
100
AcDbEntity
  8
DIMNSIONS
  6
Continuous
 62
     7
100
AcDbLine
 10
-471.170999999998
 20
-1725.0
 30
0.0
 11
-528.8289999999979
 21
-1725.0
 31
0.0
  0
LINE
  5
59
330
394
100
AcDbEntity
  8
DIMNSIONS
  6
Continuous
 62
     7
100
AcDbLine
 10
-528.8289999999979
 20
-1725.0
 30
0.0
 11
-620.5555555555555
 21
-1725.0
 31
0.0
  0
LINE
  5
5A
330
394
100
AcDbEntity
  8
DIMNSIONS
  6
Continuous
 62
     7
100
AcDbLine
 10
-528.8289999999979
 20
-1725.0
 30
0.0
 11
-568.8265585937479
 21
-1735.717313524412
 31
0.0
  0
LINE
  5
5B
330
394
100
AcDbEntity
  8
DIMNSIONS
  6
Continuous
 62
     7
100
AcDbLine
 10
-528.8289999999979
 20
-1725.0
 30
0.0
 11
-568.8265585937479
 21
-1714.282686475588
 31
0.0
  0
LINE
  5
5C
330
394
100
AcDbEntity
  8
DIMNSIONS
  6
Continuous
 62
     7
100
AcDbLine
 10
-471.170999999998
 20
-1725.0
 30
0.0
 11
-411.1709999999979
 21
-1725.0
 31
0.0
  0
LINE
  5
5D
330
394
100
AcDbEntity
  8
DIMNSIONS
  6
Continuous
 62
     7
100
AcDbLine
 10
-471.170999999998
 20
-1725.0
 30
0.0
 11
-431.1734414062478
 21
-1714.282686475588
 31
0.0
  0
LINE
  5
5E
330
394
100
AcDbEntity
  8
DIMNSIONS
  6
Continuous
 62
     7
100
AcDbLine
 10
-471.170999999998
 20
-1725.0
 30
0.0
 11
-431.1734414062478
 21
-1735.717313524412
 31
0.0
  0
TEXT
  5
5F
330
394
100
AcDbEntity
  8
DIMNSIONS
 62
     7
100
AcDbText
 10
-620.5555555555556
 20
-1709.122222222222
 30
0.0
 40
54.2947048611111
  1
58
 41
0.7
 11
-620.5555555555556
 21
-1654.827517361111
 31
0.0
100
AcDbText
 73
     3
  0
LINE
  5
60
330
394
100
AcDbEntity
  8
DIMNSIONS
  6
Continuous
 62
     7
100
AcDbLine
 10
-526.9849999999974
 20
-1372.554693701561
 30
0.0
 11
-610.0
 21
-1372.554693701561
 31
0.0
  0
LINE
  5
61
330
394
100
AcDbEntity
  8
DIMNSIONS
  6
Continuous
 62
     7
100
AcDbLine
 10
-542.8289999999979
 20
-1510.450575026726
 30
0.0
 11
-610.0
 21
-1510.450575026726
 31
0.0
  0
LINE
  5
62
330
394
100
AcDbEntity
  8
DIMNSIONS
  6
Continuous
 62
     7
100
AcDbLine
 10
-600.0
 20
-1372.554693701561
 30
0.0
 11
-600.0
 21
-1510.450575026726
 31
0.0
  0
LINE
  5
63
330
394
100
AcDbEntity
  8
DIMNSIONS
  6
Continuous
 62
     7
100
AcDbLine
 10
-600.0
 20
-1372.554693701561
 30
0.0
 11
-589.2826864755881
 21
-1412.552252295311
 31
0.0
  0
LINE
  5
64
330
394
100
AcDbEntity
  8
DIMNSIONS
  6
Continuous
 62
     7
100
AcDbLine
 10
-600.0
 20
-1372.554693701561
 30
0.0
 11
-610.7173135244117
 21
-1412.552252295311
 31
0.0
  0
LINE
  5
65
330
394
100
AcDbEntity
  8
DIMNSIONS
  6
Continuous
 62
     7
100
AcDbLine
 10
-600.0
 20
-1510.450575026726
 30
0.0
 11
-610.7173135244117
 21
-1470.453016432976
 31
0.0
  0
LINE
  5
66
330
394
100
AcDbEntity
  8
DIMNSIONS
  6
Continuous
 62
     7
100
AcDbLine
 10
-600.0
 20
-1510.450575026726
 30
0.0
 11
-589.2826864755881
 21
-1470.453016432976
 31
0.0
  0
TEXT
  5
67
330
394
100
AcDbEntity
  8
DIMNSIONS
 62
     7
100
AcDbText
 10
-615.8777777777777
 20
-1494.41930103081
 30
0.0
 40
54.2947048611111
  1
138
 50
90.0
 41
0.7
 11
-670.1724826388888
 21
-1494.41930103081
 31
0.0
100
AcDbText
 73
     3
  0
LINE
  5
68
330
394
100
AcDbEntity
  8
DIMNSIONS
  6
Continuous
 62
     7
100
AcDbLine
 10
-526.9849999999977
 20
-1300.0
 30
0.0
 11
-610.0
 21
-1300.0
 31
0.0
  0
LINE
  5
69
330
394
100
AcDbEntity
  8
DIMNSIONS
  6
Continuous
 62
     7
100
AcDbLine
 10
-526.9849999999977
 20
-565.6860000000001
 30
0.0
 11
-610.0
 21
-565.6860000000001
 31
0.0
  0
LINE
  5
6A
330
394
100
AcDbEntity
  8
DIMNSIONS
  6
Continuous
 62
     7
100
AcDbLine
 10
-600.0
 20
-1300.0
 30
0.0
 11
-600.0
 21
-565.6860000000001
 31
0.0
  0
LINE
  5
6B
330
394
100
AcDbEntity
  8
DIMNSIONS
  6
Continuous
 62
     7
100
AcDbLine
 10
-600.0
 20
-1300.0
 30
0.0
 11
-610.7173135244117
 21
-1260.00244140625
 31
0.0
  0
LINE
  5
6C
330
394
100
AcDbEntity
  8
DIMNSIONS
  6
Continuous
 62
     7
100
AcDbLine
 10
-600.0
 20
-1300.0
 30
0.0
 11
-589.2826864755881
 21
-1260.00244140625
 31
0.0
  0
LINE
  5
6D
330
394
100
AcDbEntity
  8
DIMNSIONS
  6
Continuous
 62
     7
100
AcDbLine
 10
-600.0
 20
-565.6860000000001
 30
0.0
 11
-589.2826864755881
 21
-605.6835585937501
 31
0.0
  0
LINE
  5
6E
330
394
100
AcDbEntity
  8
DIMNSIONS
  6
Continuous
 62
     7
100
AcDbLine
 10
-600.0
 20
-565.6860000000001
 30
0.0
 11
-610.7173135244117
 21
-605.6835585937501
 31
0.0
  0
TEXT
  5
6F
330
394
100
AcDbEntity
  8
DIMNSIONS
 62
     7
100
AcDbText
 10
-615.8777777777777
 20
-985.7596666666667
 30
0.0
 40
54.2947048611111
  1
734
 50
90.0
 41
0.7
 11
-670.1724826388888
 21
-985.7596666666667
 31
0.0
100
AcDbText
 73
     3
  0
LINE
  5
70
330
394
100
AcDbEntity
  8
DIMNSIONS
  6
Continuous
 62
     7
100
AcDbLine
 10
-536.6312308598613
 20
-1504.667525057725
 30
0.0
 11
-536.6312308598613
 21
-1610.0
 31
0.0
  0
LINE
  5
71
330
394
100
AcDbEntity
  8
DIMNSIONS
  6
Continuous
 62
     7
100
AcDbLine
 10
-528.8289999999979
 20
-1524.450575026726
 30
0.0
 11
-528.8289999999979
 21
-1610.0
 31
0.0
  0
LINE
  5
72
330
394
100
AcDbEntity
  8
DIMNSIONS
  6
Continuous
 62
     7
100
AcDbLine
 10
-528.8289999999979
 20
-1600.0
 30
0.0
 11
-536.6312308598613
 21
-1600.0
 31
0.0
  0
LINE
  5
73
330
394
100
AcDbEntity
  8
DIMNSIONS
  6
Continuous
 62
     7
100
AcDbLine
 10
-536.6312308598613
 20
-1600.0
 30
0.0
 11
-670.6314774212759
 21
-1600.0
 31
0.0
  0
LINE
  5
74
330
394
100
AcDbEntity
  8
DIMNSIONS
  6
Continuous
 62
     7
100
AcDbLine
 10
-536.6312308598613
 20
-1600.0
 30
0.0
 11
-576.6287894536112
 21
-1610.717313524412
 31
0.0
  0
LINE
  5
75
330
394
100
AcDbEntity
  8
DIMNSIONS
  6
Continuous
 62
     7
100
AcDbLine
 10
-536.6312308598613
 20
-1600.0
 30
0.0
 11
-576.6287894536112
 21
-1589.282686475588
 31
0.0
  0
LINE
  5
76
330
394
100
AcDbEntity
  8
DIMNSIONS
  6
Continuous
 62
     7
100
AcDbLine
 10
-528.8289999999979
 20
-1600.0
 30
0.0
 11
-468.8289999999978
 21
-1600.0
 31
0.0
  0
LINE
  5
77
330
394
100
AcDbEntity
  8
DIMNSIONS
  6
Continuous
 62
     7
100
AcDbLine
 10
-528.8289999999979
 20
-1600.0
 30
0.0
 11
-488.8314414062477
 21
-1589.282686475588
 31
0.0
  0
LINE
  5
78
330
394
100
AcDbEntity
  8
DIMNSIONS
  6
Continuous
 62
     7
100
AcDbLine
 10
-528.8289999999979
 20
-1600.0
 30
0.0
 11
-488.8314414062477
 21
-1610.717313524412
 31
0.0
  0
TEXT
  5
79
330
394
100
AcDbEntity
  8
DIMNSIONS
 62
     7
100
AcDbText
 10
-670.6314774212757
 20
-1584.122222222222
 30
0.0
 40
54.2947048611111
  1
7.8
 41
0.7
 11
-670.6314774212757
 21
-1529.827517361111
 31
0.0
100
AcDbText
 73
     3
  0
LINE
  5
7A
330
394
100
AcDbEntity
  8
DIMNSIONS
  6
Continuous
 62
     7
100
AcDbLine
 10
-441.4890000309988
 20
-1503.170575057726
 30
0.0
 11
-441.4890000309988
 21
-1660.0
 31
0.0
  0
LINE
  5
7B
330
394
100
AcDbEntity
  8
DIMNSIONS
  6
Continuous
 62
     7
100
AcDbLine
 10
-471.170999999998
 20
-1524.450575026726
 30
0.0
 11
-471.170999999998
 21
-1660.0
 31
0.0
  0
LINE
  5
7C
330
394
100
AcDbEntity
  8
DIMNSIONS
  6
Continuous
 62
     7
100
AcDbLine
 10
-471.170999999998
 20
-1650.0
 30
0.0
 11
-441.4890000309988
 21
-1650.0
 31
0.0
  0
LINE
  5
7D
330
394
100
AcDbEntity
  8
DIMNSIONS
  6
Continuous
 62
     7
100
AcDbLine
 10
-441.4890000309988
 20
-1650.0
 30
0.0
 11
-272.2109756918073
 21
-1650.0
 31
0.0
  0
LINE
  5
7E
330
394
100
AcDbEntity
  8
DIMNSIONS
  6
Continuous
 62
     7
100
AcDbLine
 10
-441.4890000309988
 20
-1650.0
 30
0.0
 11
-401.4914414372488
 21
-1639.282686475588
 31
0.0
  0
LINE
  5
7F
330
394
100
AcDbEntity
  8
DIMNSIONS
  6
Continuous
 62
     7
100
AcDbLine
 10
-441.4890000309988
 20
-1650.0
 30
0.0
 11
-401.4914414372488
 21
-1660.717313524411
 31
0.0
  0
LINE
  5
80
330
394
100
AcDbEntity
  8
DIMNSIONS
  6
Continuous
 62
     7
100
AcDbLine
 10
-471.170999999998
 20
-1650.0
 30
0.0
 11
-531.170999999998
 21
-1650.0
 31
0.0
  0
LINE
  5
81
330
394
100
AcDbEntity
  8
DIMNSIONS
  6
Continuous
 62
     7
100
AcDbLine
 10
-471.170999999998
 20
-1650.0
 30
0.0
 11
-511.168558593748
 21
-1660.717313524411
 31
0.0
  0
LINE
  5
82
330
394
100
AcDbEntity
  8
DIMNSIONS
  6
Continuous
 62
     7
100
AcDbLine
 10
-471.170999999998
 20
-1650.0
 30
0.0
 11
-511.168558593748
 21
-1639.282686475588
 31
0.0
  0
TEXT
  5
83
330
394
100
AcDbEntity
  8
DIMNSIONS
 62
     7
100
AcDbText
 10
-413.3220868029184
 20
-1634.122222222222
 30
0.0
 40
54.2947048611111
  1
29.7
 41
0.7
 11
-413.3220868029184
 21
-1579.827517361111
 31
0.0
100
AcDbText
 73
     3
  0
LINE
  5
84
330
394
100
AcDbEntity
  8
DIMNSIONS
  6
Continuous
 62
     7
100
AcDbLine
 10
-350.0
 20
-1417.581294176299
 30
0.0
 11
-350.0
 21
-1340.0
 31
0.0
  0
LINE
  5
85
330
394
100
AcDbEntity
  8
DIMNSIONS
  6
Continuous
 62
     7
100
AcDbLine
 10
-320.6629999999996
 20
-1424.342168256873
 30
0.0
 11
-320.6629999999996
 21
-1340.0
 31
0.0
  0
LINE
  5
86
330
394
100
AcDbEntity
  8
DIMNSIONS
  6
Continuous
 62
     7
100
AcDbLine
 10
-320.6629999999996
 20
-1350.0
 30
0.0
 11
-350.0
 21
-1350.0
 31
0.0
  0
LINE
  5
87
330
394
100
AcDbEntity
  8
DIMNSIONS
  6
Continuous
 62
     7
100
AcDbLine
 10
-350.0
 20
-1350.0
 30
0.0
 11
-410.0
 21
-1350.0
 31
0.0
  0
LINE
  5
88
330
394
100
AcDbEntity
  8
DIMNSIONS
  6
Continuous
 62
     7
100
AcDbLine
 10
-350.0
 20
-1350.0
 30
0.0
 11
-389.99755859375
 21
-1360.717313524412
 31
0.0
  0
LINE
  5
89
330
394
100
AcDbEntity
  8
DIMNSIONS
  6
Continuous
 62
     7
100
AcDbLine
 10
-350.0
 20
-1350.0
 30
0.0
 11
-389.99755859375
 21
-1339.282686475588
 31
0.0
  0
LINE
  5
8A
330
394
100
AcDbEntity
  8
DIMNSIONS
  6
Continuous
 62
     7
100
AcDbLine
 10
-320.6629999999996
 20
-1350.0
 30
0.0
 11
-158.7618888888894
 21
-1350.0
 31
0.0
  0
LINE
  5
8B
330
394
100
AcDbEntity
  8
DIMNSIONS
  6
Continuous
 62
     7
100
AcDbLine
 10
-320.6629999999996
 20
-1350.0
 30
0.0
 11
-280.6654414062496
 21
-1339.282686475588
 31
0.0
  0
LINE
  5
8C
330
394
100
AcDbEntity
  8
DIMNSIONS
  6
Continuous
 62
     7
100
AcDbLine
 10
-320.6629999999996
 20
-1350.0
 30
0.0
 11
-280.6654414062496
 21
-1360.717313524412
 31
0.0
  0
TEXT
  5
8D
330
394
100
AcDbEntity
  8
DIMNSIONS
 62
     7
100
AcDbText
 10
-299.8730000000005
 20
-1334.122222222222
 30
0.0
 40
54.2947048611111
  1
29.3
 41
0.7
 11
-299.8730000000005
 21
-1279.827517361111
 31
0.0
100
AcDbText
 73
     3
  0
LINE
  5
8E
330
394
100
AcDbEntity
  8
DIMNSIONS
  6
Continuous
 62
     7
100
AcDbLine
 10
354.9769999999999
 20
-1424.977168256871
 30
0.0
 11
354.9769999999999
 21
-1240.0
 31
0.0
  0
LINE
  5
8F
330
394
100
AcDbEntity
  8
DIMNSIONS
  6
Continuous
 62
     7
100
AcDbLine
 10
-320.6629999999996
 20
-1424.342168256873
 30
0.0
 11
-320.6629999999996
 21
-1240.0
 31
0.0
  0
LINE
  5
90
330
394
100
AcDbEntity
  8
DIMNSIONS
  6
Continuous
 62
     7
100
AcDbLine
 10
354.9769999999999
 20
-1250.0
 30
0.0
 11
-320.6629999999996
 21
-1250.0
 31
0.0
  0
LINE
  5
91
330
394
100
AcDbEntity
  8
DIMNSIONS
  6
Continuous
 62
     7
100
AcDbLine
 10
354.9769999999999
 20
-1250.0
 30
0.0
 11
314.9794414062498
 21
-1260.717313524412
 31
0.0
  0
LINE
  5
92
330
394
100
AcDbEntity
  8
DIMNSIONS
  6
Continuous
 62
     7
100
AcDbLine
 10
354.9769999999999
 20
-1250.0
 30
0.0
 11
314.9794414062498
 21
-1239.282686475588
 31
0.0
  0
LINE
  5
93
330
394
100
AcDbEntity
  8
DIMNSIONS
  6
Continuous
 62
     7
100
AcDbLine
 10
-320.6629999999996
 20
-1250.0
 30
0.0
 11
-280.6654414062496
 21
-1239.282686475588
 31
0.0
  0
LINE
  5
94
330
394
100
AcDbEntity
  8
DIMNSIONS
  6
Continuous
 62
     7
100
AcDbLine
 10
-320.6629999999996
 20
-1250.0
 30
0.0
 11
-280.6654414062496
 21
-1260.717313524412
 31
0.0
  0
TEXT
  5
95
330
394
100
AcDbEntity
  8
DIMNSIONS
 62
     7
100
AcDbText
 10
-247.4263333333332
 20
-1234.122222222222
 30
0.0
 40
54.2947048611111
  1
676(≒48.3×14)
 41
0.7
 11
-247.4263333333332
 21
-1179.827517361111
 31
0.0
100
AcDbText
 73
     3
  0
LINE
  5
96
330
394
100
AcDbEntity
  8
DIMNSIONS
  6
Continuous
 62
     7
100
AcDbLine
 10
354.9769999999999
 20
-1424.977168256871
 30
0.0
 11
354.9769999999999
 21
-1340.0
 31
0.0
  0
LINE
  5
97
330
394
100
AcDbEntity
  8
DIMNSIONS
  6
Continuous
 62
     7
100
AcDbLine
 10
384.3140000000003
 20
-1418.385268552374
 30
0.0
 11
384.3140000000003
 21
-1340.0
 31
0.0
  0
LINE
  5
98
330
394
100
AcDbEntity
  8
DIMNSIONS
  6
Continuous
 62
     7
100
AcDbLine
 10
384.3140000000003
 20
-1350.0
 30
0.0
 11
354.9769999999999
 21
-1350.0
 31
0.0
  0
LINE
  5
99
330
394
100
AcDbEntity
  8
DIMNSIONS
  6
Continuous
 62
     7
100
AcDbLine
 10
354.9769999999999
 20
-1350.0
 30
0.0
 11
184.0158888888884
 21
-1350.0
 31
0.0
  0
LINE
  5
9A
330
394
100
AcDbEntity
  8
DIMNSIONS
  6
Continuous
 62
     7
100
AcDbLine
 10
354.9769999999999
 20
-1350.0
 30
0.0
 11
314.9794414062498
 21
-1360.717313524412
 31
0.0
  0
LINE
  5
9B
330
394
100
AcDbEntity
  8
DIMNSIONS
  6
Continuous
 62
     7
100
AcDbLine
 10
354.9769999999999
 20
-1350.0
 30
0.0
 11
314.9794414062498
 21
-1339.282686475588
 31
0.0
  0
LINE
  5
9C
330
394
100
AcDbEntity
  8
DIMNSIONS
  6
Continuous
 62
     7
100
AcDbLine
 10
384.3140000000003
 20
-1350.0
 30
0.0
 11
444.3140000000003
 21
-1350.0
 31
0.0
  0
LINE
  5
9D
330
394
100
AcDbEntity
  8
DIMNSIONS
  6
Continuous
 62
     7
100
AcDbLine
 10
384.3140000000003
 20
-1350.0
 30
0.0
 11
424.3115585937503
 21
-1339.282686475588
 31
0.0
  0
LINE
  5
9E
330
394
100
AcDbEntity
  8
DIMNSIONS
  6
Continuous
 62
     7
100
AcDbLine
 10
384.3140000000003
 20
-1350.0
 30
0.0
 11
424.3115585937503
 21
-1360.717313524412
 31
0.0
  0
TEXT
  5
9F
330
394
100
AcDbEntity
  8
DIMNSIONS
 62
     7
100
AcDbText
 10
184.0158888888884
 20
-1334.122222222222
 30
0.0
 40
54.2947048611111
  1
29.3
 41
0.7
 11
184.0158888888884
 21
-1279.827517361111
 31
0.0
100
AcDbText
 73
     3
  0
TEXT
  5
A0
330
394
100
AcDbEntity
  8
DATA
 62
     7
100
AcDbText
 10
-1750.0
 20
-2375.369959444444
 30
0.0
 40
38.00629340277778
  1
※仕様及び外観は予告なく変更されることがあります。
 41
0.7
 11
-1750.0
 21
-2337.363666041666
 31
0.0
100
AcDbText
 73
     3
  0
TEXT
  5
A1
330
394
100
AcDbEntity
  8
DATA
 62
     7
100
AcDbText
 10
-1750.0
 20
-2424.758848333333
 30
0.0
 40
38.00629340277778
  1
　また、同一商品でも若干の個体差があることがあります。ご了承ください。
 41
0.7
 11
-1750.0
 21
-2386.752554930555
 31
0.0
100
AcDbText
 73
     3
  0
TEXT
  5
A2
330
394
100
AcDbEntity
  8
DATA
 62
     7
100
AcDbText
 10
999.9999999999996
 20
-2165.277714999999
 30
0.0
 40
48.86523437500001
  1
JBL PROFESSIONAL
 41
0.7
 11
999.9999999999996
 21
-2116.412480624999
 31
0.0
100
AcDbText
 73
     3
  0
TEXT
  5
A3
330
394
100
AcDbEntity
  8
DATA
 62
     7
100
AcDbText
 10
999.9999999999996
 20
-2310.277714999999
 30
0.0
 40
48.86523437500001
  1
VTX-A8-AF-EB
 41
0.7
 11
999.9999999999996
 21
-2261.412480624999
 31
0.0
100
AcDbText
 73
     3
  0
LINE
  5
A4
330
394
100
AcDbEntity
  8
DATA
  6
Continuous
 62
     7
100
AcDbLine
 10
-512.9849999999974
 20
-1510.450575026726
 30
0.0
 11
-512.9849999999974
 21
-1372.554693701561
 31
0.0
  0
LINE
  5
A5
330
394
100
AcDbEntity
  8
DATA
  6
Continuous
 62
     7
100
AcDbLine
 10
-471.1709999999984
 20
-1225.07
 30
0.0
 11
-471.1709999999984
 21
-613.6919999999999
 31
0.0
  0
LINE
  5
A6
330
394
100
AcDbEntity
  8
DATA
  6
Continuous
 62
     7
100
AcDbLine
 10
-471.1709999999984
 20
-1225.07
 30
0.0
 11
-487.0149999999976
 21
-1225.07
 31
0.0
  0
LINE
  5
A7
330
394
100
AcDbEntity
  8
DATA
  6
Continuous
 62
     7
100
AcDbLine
 10
-493.0149999999976
 20
-1225.07
 30
0.0
 11
-506.9849999999978
 21
-1225.07
 31
0.0
  0
LINE
  5
A8
330
394
100
AcDbEntity
  8
DATA
  6
Continuous
 62
     7
100
AcDbLine
 10
-512.9849999999977
 20
-1225.07
 30
0.0
 11
-528.8289999999988
 21
-1225.07
 31
0.0
  0
LINE
  5
A9
330
394
100
AcDbEntity
  8
DATA
  6
Continuous
 62
     7
100
AcDbLine
 10
-471.1709999999984
 20
-1214.528658151802
 30
0.0
 11
-487.0149999999976
 21
-1214.528658151802
 31
0.0
  0
LINE
  5
AA
330
394
100
AcDbEntity
  8
DATA
  6
Continuous
 62
     7
100
AcDbLine
 10
-493.0149999999976
 20
-1214.528658151802
 30
0.0
 11
-506.9849999999978
 21
-1214.528658151802
 31
0.0
  0
LINE
  5
AB
330
394
100
AcDbEntity
  8
DATA
  6
Continuous
 62
     7
100
AcDbLine
 10
-512.9849999999977
 20
-1214.528658151802
 30
0.0
 11
-528.8289999999983
 21
-1214.528658151802
 31
0.0
  0
ARC
  5
AC
330
394
100
AcDbEntity
  8
DATA
  6
Continuous
 62
     7
100
AcDbCircle
 10
-495.8089999999991
 20
-1254.680998436
 30
0.0
 40
2.539999999999964
100
AcDbArc
 50
0.0000000000102579
 51
44.58541793619064
  0
ARC
  5
AD
330
394
100
AcDbEntity
  8
DATA
  6
Continuous
 62
     7
100
AcDbCircle
 10
-504.1909999999994
 20
-1254.680998436
 30
0.0
 40
2.539999999999888
100
AcDbArc
 50
135.4145820638094
 51
180.0
  0
LINE
  5
AE
330
394
100
AcDbEntity
  8
DATA
  6
Continuous
 62
     7
100
AcDbLine
 10
-493.2689999999992
 20
-1263.411238532
 30
0.0
 11
-493.9999999999991
 21
-1263.411238532
 31
0.0
  0
LINE
  5
AF
330
394
100
AcDbEntity
  8
DATA
  6
Continuous
 62
     7
100
AcDbLine
 10
-506.0
 20
-1263.411238532
 30
0.0
 11
-506.7309999999991
 21
-1263.411238532
 31
0.0
  0
LINE
  5
B0
330
394
100
AcDbEntity
  8
DATA
  6
Continuous
 62
     7
100
AcDbLine
 10
-506.7309999999991
 20
-1273.012438532
 30
0.0
 11
-506.0
 21
-1273.012438532
 31
0.0
  0
LINE
  5
B1
330
394
100
AcDbEntity
  8
DATA
  6
Continuous
 62
     7
100
AcDbLine
 10
-493.9999999999991
 20
-1273.012438532
 30
0.0
 11
-493.2689999999992
 21
-1273.012438532
 31
0.0
  0
LINE
  5
B2
330
394
100
AcDbEntity
  8
DATA
  6
Continuous
 62
     7
100
AcDbLine
 10
-500.0
 20
-1247.948
 30
0.0
 11
-506.0
 21
-1247.948
 31
0.0
  0
LINE
  5
B3
330
394
100
AcDbEntity
  8
DATA
  6
Continuous
 62
     7
100
AcDbLine
 10
-493.9999999999991
 20
-1247.948
 30
0.0
 11
-499.9999999999992
 21
-1247.948
 31
0.0
  0
LINE
  5
B4
330
394
100
AcDbEntity
  8
DATA
  6
Continuous
 62
     7
100
AcDbLine
 10
-493.0149999999976
 20
-1285.787747896851
 30
0.0
 11
-487.0149999999976
 21
-1285.787747896851
 31
0.0
  0
LINE
  5
B5
330
394
100
AcDbEntity
  8
DATA
  6
Continuous
 62
     7
100
AcDbLine
 10
-487.0149999999976
 20
-1300.0
 30
0.0
 11
-493.0149999999976
 21
-1300.0
 31
0.0
  0
LINE
  5
B6
330
394
100
AcDbEntity
  8
DATA
  6
Continuous
 62
     7
100
AcDbLine
 10
-512.9849999999977
 20
-1285.787747896851
 30
0.0
 11
-506.9849999999978
 21
-1285.787747896851
 31
0.0
  0
LINE
  5
B7
330
394
100
AcDbEntity
  8
DATA
  6
Continuous
 62
     7
100
AcDbLine
 10
-506.9849999999978
 20
-1300.0
 30
0.0
 11
-512.9849999999977
 21
-1300.0
 31
0.0
  0
LINE
  5
B8
330
394
100
AcDbEntity
  8
DATA
  6
Continuous
 62
     7
100
AcDbLine
 10
-506.0
 20
-1281.948
 30
0.0
 11
-500.0
 21
-1281.948
 31
0.0
  0
LINE
  5
B9
330
394
100
AcDbEntity
  8
DATA
  6
Continuous
 62
     7
100
AcDbLine
 10
-506.0
 20
-1281.948
 30
0.0
 11
-506.0
 21
-1247.948
 31
0.0
  0
LINE
  5
BA
330
394
100
AcDbEntity
  8
DATA
  6
Continuous
 62
     7
100
AcDbLine
 10
-500.0
 20
-1281.948
 30
0.0
 11
-500.0
 21
-1247.948
 31
0.0
  0
LINE
  5
BB
330
394
100
AcDbEntity
  8
DATA
  6
Continuous
 62
     7
100
AcDbLine
 10
-499.9999999999992
 20
-1281.948
 30
0.0
 11
-493.9999999999991
 21
-1281.948
 31
0.0
  0
LINE
  5
BC
330
394
100
AcDbEntity
  8
DATA
  6
Continuous
 62
     7
100
AcDbLine
 10
-493.9999999999991
 20
-1281.948
 30
0.0
 11
-493.9999999999991
 21
-1247.948
 31
0.0
  0
LINE
  5
BD
330
394
100
AcDbEntity
  8
DATA
  6
Continuous
 62
     7
100
AcDbLine
 10
-493.2689999999992
 20
-1282.620998436
 30
0.0
 11
-493.0149999999976
 21
-1282.620998436
 31
0.0
  0
LINE
  5
BE
330
394
100
AcDbEntity
  8
DATA
  6
Continuous
 62
     7
100
AcDbLine
 10
-493.2689999999992
 20
-1282.620998436
 30
0.0
 11
-493.2689999999992
 21
-1254.680998436
 31
0.0
  0
LINE
  5
BF
330
394
100
AcDbEntity
  8
DATA
  6
Continuous
 62
     7
100
AcDbLine
 10
-506.7309999999991
 20
-1254.680998436
 30
0.0
 11
-506.7309999999991
 21
-1282.620998436
 31
0.0
  0
LINE
  5
C0
330
394
100
AcDbEntity
  8
DATA
  6
Continuous
 62
     7
100
AcDbLine
 10
-506.9849999999978
 20
-1282.620998436
 30
0.0
 11
-506.7309999999991
 21
-1282.620998436
 31
0.0
  0
LINE
  5
C1
330
394
100
AcDbEntity
  8
DATA
  6
Continuous
 62
     7
100
AcDbLine
 10
-493.014999999997
 20
-979.1855989206393
 30
0.0
 11
-487.0149999999971
 21
-979.1855989206393
 31
0.0
  0
LINE
  5
C2
330
394
100
AcDbEntity
  8
DATA
  6
Continuous
 62
     7
100
AcDbLine
 10
-512.9849999999974
 20
-979.1855989206393
 30
0.0
 11
-506.9849999999973
 21
-979.1855989206393
 31
0.0
  0
LINE
  5
C3
330
394
100
AcDbEntity
  8
DATA
  6
Continuous
 62
     7
100
AcDbLine
 10
-486.7411999999981
 20
-1003.237519298565
 30
0.0
 11
-487.0149999999971
 21
-1003.237519298565
 31
0.0
  0
LINE
  5
C4
330
394
100
AcDbEntity
  8
DATA
  6
Continuous
 62
     7
100
AcDbLine
 10
-486.7411999999981
 20
-995.1999999999996
 30
0.0
 11
-486.7411999999981
 21
-1003.237519298565
 31
0.0
  0
LINE
  5
C5
330
394
100
AcDbEntity
  8
DATA
  6
Continuous
 62
     7
100
AcDbLine
 10
-487.0149999999981
 20
-995.1999999999996
 30
0.0
 11
-486.7411999999981
 21
-995.1999999999996
 31
0.0
  0
LINE
  5
C6
330
394
100
AcDbEntity
  8
DATA
  6
Continuous
 62
     7
100
AcDbLine
 10
-513.2587999999977
 20
-995.1999999999996
 30
0.0
 11
-513.2587999999977
 21
-1003.237519298566
 31
0.0
  0
LINE
  5
C7
330
394
100
AcDbEntity
  8
DATA
  6
Continuous
 62
     7
100
AcDbLine
 10
-513.2587999999977
 20
-1003.237519298566
 30
0.0
 11
-512.9849999999974
 21
-1003.237519298566
 31
0.0
  0
LINE
  5
C8
330
394
100
AcDbEntity
  8
DATA
  6
Continuous
 62
     7
100
AcDbLine
 10
-512.9849999999974
 20
-995.1999999999996
 30
0.0
 11
-513.2587999999977
 21
-995.1999999999996
 31
0.0
  0
LINE
  5
C9
330
394
100
AcDbEntity
  8
DATA
  6
Continuous
 62
     7
100
AcDbLine
 10
-513.2587999999977
 20
-1002.82
 30
0.0
 11
-512.9849999999974
 21
-1002.82
 31
0.0
  0
LINE
  5
CA
330
394
100
AcDbEntity
  8
DATA
  6
Continuous
 62
     7
100
AcDbLine
 10
-486.7411999999981
 20
-1002.82
 30
0.0
 11
-487.0149999999971
 21
-1002.82
 31
0.0
  0
LINE
  5
CB
330
394
100
AcDbEntity
  8
DATA
  6
Continuous
 62
     7
100
AcDbLine
 10
-471.170999999998
 20
-977.3942953844375
 30
0.0
 11
-487.0149999999971
 21
-977.3942953844375
 31
0.0
  0
LINE
  5
CC
330
394
100
AcDbEntity
  8
DATA
  6
Continuous
 62
     7
100
AcDbLine
 10
-493.014999999997
 20
-977.3942953844375
 30
0.0
 11
-506.9849999999973
 21
-977.3942953844375
 31
0.0
  0
LINE
  5
CD
330
394
100
AcDbEntity
  8
DATA
  6
Continuous
 62
     7
100
AcDbLine
 10
-512.9849999999974
 20
-977.3942953844375
 30
0.0
 11
-528.8289999999979
 21
-977.3942953844375
 31
0.0
  0
LINE
  5
CE
330
394
100
AcDbEntity
  8
DATA
  6
Continuous
 62
     7
100
AcDbLine
 10
-471.170999999998
 20
-980.4210704121253
 30
0.0
 11
-487.0149999999971
 21
-980.4210704121253
 31
0.0
  0
LINE
  5
CF
330
394
100
AcDbEntity
  8
DATA
  6
Continuous
 62
     7
100
AcDbLine
 10
-493.014999999997
 20
-980.4210704121253
 30
0.0
 11
-506.9849999999973
 21
-980.4210704121253
 31
0.0
  0
LINE
  5
D0
330
394
100
AcDbEntity
  8
DATA
  6
Continuous
 62
     7
100
AcDbLine
 10
-512.9849999999974
 20
-980.4210704121253
 30
0.0
 11
-528.8289999999979
 21
-980.4210704121253
 31
0.0
  0
LINE
  5
D1
330
394
100
AcDbEntity
  8
DATA
  6
Continuous
 62
     7
100
AcDbLine
 10
-487.0149999999971
 20
-983.2664161801965
 30
0.0
 11
-493.014999999997
 21
-983.2664161801965
 31
0.0
  0
LINE
  5
D2
330
394
100
AcDbEntity
  8
DATA
  6
Continuous
 62
     7
100
AcDbLine
 10
-487.0149999999976
 20
-565.6860000000001
 30
0.0
 11
-487.0149999999976
 21
-1300.0
 31
0.0
  0
LINE
  5
D3
330
394
100
AcDbEntity
  8
DATA
  6
Continuous
 62
     7
100
AcDbLine
 10
-493.0149999999976
 20
-565.6860000000001
 30
0.0
 11
-493.0149999999976
 21
-1300.0
 31
0.0
  0
LINE
  5
D4
330
394
100
AcDbEntity
  8
DATA
  6
Continuous
 62
     7
100
AcDbLine
 10
-506.9849999999973
 20
-983.2664161801965
 30
0.0
 11
-512.9849999999974
 21
-983.2664161801965
 31
0.0
  0
LINE
  5
D5
330
394
100
AcDbEntity
  8
DATA
  6
Continuous
 62
     7
100
AcDbLine
 10
-506.9849999999978
 20
-565.6860000000001
 30
0.0
 11
-506.9849999999978
 21
-1300.0
 31
0.0
  0
LINE
  5
D6
330
394
100
AcDbEntity
  8
DATA
  6
Continuous
 62
     7
100
AcDbLine
 10
-512.9849999999977
 20
-565.6860000000001
 30
0.0
 11
-512.9849999999977
 21
-1300.0
 31
0.0
  0
ARC
  5
D7
330
394
100
AcDbEntity
  8
DATA
  6
Continuous
 62
     7
100
AcDbCircle
 10
-530.6859999689982
 20
-851.4205000310001
 30
0.0
 40
0.6350000000002183
100
AcDbArc
 50
90.0
 51
180.0
  0
ARC
  5
D8
330
394
100
AcDbEntity
  8
DATA
  6
Continuous
 62
     7
100
AcDbCircle
 10
-530.6859999689982
 20
-862.8505000310006
 30
0.0
 40
0.6350000000002183
100
AcDbArc
 50
180.0
 51
270.0
  0
ARC
  5
D9
330
394
100
AcDbEntity
  8
DATA
  6
Continuous
 62
     7
100
AcDbCircle
 10
-458.4503756781974
 20
-794.4530000310001
 30
0.0
 40
0.4999999999998443
100
AcDbArc
 50
30.00000000001032
 51
90.0
  0
ARC
  5
DA
330
394
100
AcDbEntity
  8
DATA
  6
Continuous
 62
     7
100
AcDbCircle
 10
-458.4503756781974
 20
-829.013000031
 30
0.0
 40
0.5
100
AcDbArc
 50
270.0
 51
329.9999999999897
  0
ARC
  5
DB
330
394
100
AcDbEntity
  8
DATA
  6
Continuous
 62
     7
100
AcDbCircle
 10
-459.4972308598608
 20
-794.4530000310001
 30
0.0
 40
0.5
100
AcDbArc
 50
90.0
 51
180.0
  0
ARC
  5
DC
330
394
100
AcDbEntity
  8
DATA
  6
Continuous
 62
     7
100
AcDbCircle
 10
-459.4972308598608
 20
-829.013000031
 30
0.0
 40
0.5
100
AcDbArc
 50
180.0000000000521
 51
270.0
  0
ARC
  5
DD
330
394
100
AcDbEntity
  8
DATA
  6
Continuous
 62
     7
100
AcDbCircle
 10
-457.1952308598612
 20
-826.8390254347838
 30
0.0
 40
0.5000000000000715
100
AcDbArc
 50
329.9999999999446
 51
359.999999999948
  0
ARC
  5
DE
330
394
100
AcDbEntity
  8
DATA
  6
Continuous
 62
     7
100
AcDbCircle
 10
-457.1952308598612
 20
-796.626974627216
 30
0.0
 40
0.5
100
AcDbArc
 50
0.0000000000521102
 51
30.00000000005544
  0
ARC
  5
DF
330
394
100
AcDbEntity
  8
DATA
  6
Continuous
 62
     7
100
AcDbCircle
 10
-460.4972308598608
 20
-802.0255000310001
 30
0.0
 40
0.5
100
AcDbArc
 50
270.0
 51
0.0
  0
ARC
  5
E0
330
394
100
AcDbEntity
  8
DATA
  6
Continuous
 62
     7
100
AcDbCircle
 10
-460.4972308598608
 20
-821.4405000310001
 30
0.0
 40
0.5
100
AcDbArc
 50
359.9999999999479
 51
90.0
  0
ARC
  5
E1
330
394
100
AcDbEntity
  8
DATA
  6
Continuous
 62
     7
100
AcDbCircle
 10
-443.0972308598612
 20
-815.043000031
 30
0.0
 40
0.5
100
AcDbArc
 50
270.0
 51
0.0000000000521254
  0
ARC
  5
E2
330
394
100
AcDbEntity
  8
DATA
  6
Continuous
 62
     7
100
AcDbCircle
 10
-443.0972308598612
 20
-808.4230000310004
 30
0.0
 40
0.5
100
AcDbArc
 50
0.0
 51
90.0
  0
LINE
  5
E3
330
394
100
AcDbEntity
  8
DATA
  6
Continuous
 62
     7
100
AcDbLine
 10
-528.8289999999979
 20
-850.7855000310005
 30
0.0
 11
-530.6859999689982
 21
-850.7855000310005
 31
0.0
  0
LINE
  5
E4
330
394
100
AcDbEntity
  8
DATA
  6
Continuous
 62
     7
100
AcDbLine
 10
-530.6859999689982
 20
-863.4855000310004
 30
0.0
 11
-528.8289999999979
 21
-863.4855000310004
 31
0.0
  0
LINE
  5
E5
330
394
100
AcDbEntity
  8
DATA
  6
Continuous
 62
     7
100
AcDbLine
 10
-459.4972308598602
 20
-829.5130000310001
 30
0.0
 11
-458.4503756781968
 21
-829.5130000310001
 31
0.0
  0
LINE
  5
E6
330
394
100
AcDbEntity
  8
DATA
  6
Continuous
 62
     7
100
AcDbLine
 10
-458.4503756781968
 20
-793.9530000310001
 30
0.0
 11
-459.4972308598602
 21
-793.9530000310001
 31
0.0
  0
LINE
  5
E7
330
394
100
AcDbEntity
  8
DATA
  6
Continuous
 62
     7
100
AcDbLine
 10
-458.0173629763051
 20
-829.2630000309999
 30
0.0
 11
-456.762218157969
 21
-827.0890254347847
 31
0.0
  0
LINE
  5
E8
330
394
100
AcDbEntity
  8
DATA
  6
Continuous
 62
     7
100
AcDbLine
 10
-456.762218157969
 20
-796.3769746272158
 30
0.0
 11
-458.0173629763051
 21
-794.203000031
 31
0.0
  0
LINE
  5
E9
330
394
100
AcDbEntity
  8
DATA
  6
Continuous
 62
     7
100
AcDbLine
 10
-461.7752308598608
 20
-802.5255000310004
 30
0.0
 11
-471.1709999999984
 21
-803.2533655188602
 31
0.0
  0
LINE
  5
EA
330
394
100
AcDbEntity
  8
DATA
  6
Continuous
 62
     7
100
AcDbLine
 10
-471.170999999998
 20
-820.2126345431405
 30
0.0
 11
-461.7752308598608
 21
-820.9405000310004
 31
0.0
  0
LINE
  5
EB
330
394
100
AcDbEntity
  8
DATA
  6
Continuous
 62
     7
100
AcDbLine
 10
-461.7752308598605
 20
-820.9405000310004
 30
0.0
 11
-460.4972308598601
 21
-820.9405000310004
 31
0.0
  0
LINE
  5
EC
330
394
100
AcDbEntity
  8
DATA
  6
Continuous
 62
     7
100
AcDbLine
 10
-460.4972308598601
 20
-802.5255000309996
 30
0.0
 11
-461.7752308598605
 21
-802.5255000309996
 31
0.0
  0
LINE
  5
ED
330
394
100
AcDbEntity
  8
DATA
  6
Continuous
 62
     7
100
AcDbLine
 10
-535.1072308598612
 20
-805.402050031
 30
0.0
 11
-536.6312308598613
 21
-806.9260500310001
 31
0.0
  0
LINE
  5
EE
330
394
100
AcDbEntity
  8
DATA
  6
Continuous
 62
     7
100
AcDbLine
 10
-536.6312308598613
 20
-816.539950031
 30
0.0
 11
-535.1072308598612
 21
-818.063950031
 31
0.0
  0
LINE
  5
EF
330
394
100
AcDbEntity
  8
DATA
  6
Continuous
 62
     7
100
AcDbLine
 10
-535.1072308598612
 20
-818.063950031
 30
0.0
 11
-528.8289999999983
 21
-818.063950031
 31
0.0
  0
LINE
  5
F0
330
394
100
AcDbEntity
  8
DATA
  6
Continuous
 62
     7
100
AcDbLine
 10
-528.8289999999983
 20
-805.402050031
 30
0.0
 11
-535.1072308598612
 21
-805.402050031
 31
0.0
  0
LINE
  5
F1
330
394
100
AcDbEntity
  8
DATA
  6
Continuous
 62
     7
100
AcDbLine
 10
-456.6952308598601
 20
-815.5430000309999
 30
0.0
 11
-443.0972308598601
 21
-815.5430000309999
 31
0.0
  0
LINE
  5
F2
330
394
100
AcDbEntity
  8
DATA
  6
Continuous
 62
     7
100
AcDbLine
 10
-443.0972308598601
 20
-807.9230000309999
 30
0.0
 11
-456.6952308598601
 21
-807.9230000309999
 31
0.0
  0
LINE
  5
F3
330
394
100
AcDbEntity
  8
DATA
  6
Continuous
 62
     7
100
AcDbLine
 10
-531.3209999689984
 20
-851.4205007193911
 30
0.0
 11
-531.3209999689984
 21
-862.8505000310006
 31
0.0
  0
LINE
  5
F4
330
394
100
AcDbEntity
  8
DATA
  6
Continuous
 62
     7
100
AcDbLine
 10
-486.7411999999981
 20
-890.60900193623
 30
0.0
 11
-486.7411999999981
 21
-898.553
 31
0.0
  0
LINE
  5
F5
330
394
100
AcDbEntity
  8
DATA
  6
Continuous
 62
     7
100
AcDbLine
 10
-487.0149999999976
 20
-890.60900193623
 30
0.0
 11
-486.7411999999981
 21
-890.60900193623
 31
0.0
  0
LINE
  5
F6
330
394
100
AcDbEntity
  8
DATA
  6
Continuous
 62
     7
100
AcDbLine
 10
-486.7411999999981
 20
-898.553
 30
0.0
 11
-487.0149999999981
 21
-898.553
 31
0.0
  0
LINE
  5
F7
330
394
100
AcDbEntity
  8
DATA
  6
Continuous
 62
     7
100
AcDbLine
 10
-512.9849999999974
 20
-890.60900193623
 30
0.0
 11
-513.2587999999983
 21
-890.60900193623
 31
0.0
  0
LINE
  5
F8
330
394
100
AcDbEntity
  8
DATA
  6
Continuous
 62
     7
100
AcDbLine
 10
-513.2587999999983
 20
-890.60900193623
 30
0.0
 11
-513.2587999999977
 21
-898.553
 31
0.0
  0
LINE
  5
F9
330
394
100
AcDbEntity
  8
DATA
  6
Continuous
 62
     7
100
AcDbLine
 10
-513.2587999999977
 20
-898.553
 30
0.0
 11
-512.9849999999974
 21
-898.553
 31
0.0
  0
LINE
  5
FA
330
394
100
AcDbEntity
  8
DATA
  6
Continuous
 62
     7
100
AcDbLine
 10
-528.8289999999988
 20
-1225.07
 30
0.0
 11
-528.8289999999988
 21
-613.6919999999999
 31
0.0
  0
LINE
  5
FB
330
394
100
AcDbEntity
  8
DATA
  6
Continuous
 62
     7
100
AcDbLine
 10
-512.9849999999974
 20
-890.933
 30
0.0
 11
-513.2587999999983
 21
-890.933
 31
0.0
  0
LINE
  5
FC
330
394
100
AcDbEntity
  8
DATA
  6
Continuous
 62
     7
100
AcDbLine
 10
-487.0149999999976
 20
-890.933
 30
0.0
 11
-486.7411999999981
 21
-890.933
 31
0.0
  0
LINE
  5
FD
330
394
100
AcDbEntity
  8
DATA
  6
Continuous
 62
     7
100
AcDbLine
 10
-459.9972308598608
 20
-829.0130000310005
 30
0.0
 11
-459.9972308598608
 21
-794.4530000310005
 31
0.0
  0
LINE
  5
FE
330
394
100
AcDbEntity
  8
DATA
  6
Continuous
 62
     7
100
AcDbLine
 10
-456.6952308598612
 20
-796.6269746272155
 30
0.0
 11
-456.6952308598612
 21
-826.8390254347838
 31
0.0
  0
LINE
  5
FF
330
394
100
AcDbEntity
  8
DATA
  6
Continuous
 62
     7
100
AcDbLine
 10
-461.7752308598608
 20
-820.9405000310004
 30
0.0
 11
-461.7752308598608
 21
-802.5255000310004
 31
0.0
  0
LINE
  5
100
330
394
100
AcDbEntity
  8
DATA
  6
Continuous
 62
     7
100
AcDbLine
 10
-535.1072308598612
 20
-818.063950031
 30
0.0
 11
-535.1072308598612
 21
-805.402050031
 31
0.0
  0
LINE
  5
101
330
394
100
AcDbEntity
  8
DATA
  6
Continuous
 62
     7
100
AcDbLine
 10
-536.6312308598613
 20
-816.539950031
 30
0.0
 11
-536.6312308598613
 21
-806.9260500310001
 31
0.0
  0
LINE
  5
102
330
394
100
AcDbEntity
  8
DATA
  6
Continuous
 62
     7
100
AcDbLine
 10
-442.5972308598612
 20
-808.4230000310004
 30
0.0
 11
-442.5972308598612
 21
-815.043000031
 31
0.0
  0
LINE
  5
103
330
394
100
AcDbEntity
  8
DATA
  6
Continuous
 62
     7
100
AcDbLine
 10
-530.6859999689982
 20
-863.4855000310004
 30
0.0
 11
-530.6859999689982
 21
-850.7855000310005
 31
0.0
  0
LINE
  5
104
330
394
100
AcDbEntity
  8
DATA
  6
Continuous
 62
     7
100
AcDbLine
 10
-458.4503756781974
 20
-829.5130000310001
 30
0.0
 11
-458.4503756781974
 21
-793.9530000310001
 31
0.0
  0
LINE
  5
105
330
394
100
AcDbEntity
  8
DATA
  6
Continuous
 62
     7
100
AcDbLine
 10
-458.0173629763049
 20
-802.5863502062275
 30
0.0
 11
-458.0173629763051
 21
-829.2630000309999
 31
0.0
  0
LINE
  5
106
330
394
100
AcDbEntity
  8
DATA
  6
Continuous
 62
     7
100
AcDbLine
 10
-458.0173629763051
 20
-794.203000031
 30
0.0
 11
-458.0173629763049
 21
-802.5863502062275
 31
0.0
  0
LINE
  5
107
330
394
100
AcDbEntity
  8
DATA
  6
Continuous
 62
     7
100
AcDbLine
 10
-459.4972308598608
 20
-793.9530000310001
 30
0.0
 11
-459.4972308598608
 21
-829.5130000310001
 31
0.0
  0
LINE
  5
108
330
394
100
AcDbEntity
  8
DATA
  6
Continuous
 62
     7
100
AcDbLine
 10
-456.762218157969
 20
-827.0890254347847
 30
0.0
 11
-456.762218157969
 21
-796.3769746272162
 31
0.0
  0
LINE
  5
109
330
394
100
AcDbEntity
  8
DATA
  6
Continuous
 62
     7
100
AcDbLine
 10
-460.4972308598608
 20
-820.9405000310004
 30
0.0
 11
-460.4972308598608
 21
-802.5255000310004
 31
0.0
  0
LINE
  5
10A
330
394
100
AcDbEntity
  8
DATA
  6
Continuous
 62
     7
100
AcDbLine
 10
-443.0972308598612
 20
-815.5430000309999
 30
0.0
 11
-443.0972308598612
 21
-807.9230000310001
 31
0.0
  0
LINE
  5
10B
330
394
100
AcDbEntity
  8
DATA
  6
Continuous
 62
     7
100
AcDbLine
 10
-487.0149999999976
 20
-580.4129306372942
 30
0.0
 11
-493.0149999999976
 21
-580.4129306372942
 31
0.0
  0
LINE
  5
10C
330
394
100
AcDbEntity
  8
DATA
  6
Continuous
 62
     7
100
AcDbLine
 10
-493.0149999999976
 20
-565.6860000000001
 30
0.0
 11
-487.0149999999976
 21
-565.6860000000001
 31
0.0
  0
LINE
  5
10D
330
394
100
AcDbEntity
  8
DATA
  6
Continuous
 62
     7
100
AcDbLine
 10
-506.9849999999978
 20
-580.4129306372942
 30
0.0
 11
-512.9849999999977
 21
-580.4129306372942
 31
0.0
  0
LINE
  5
10E
330
394
100
AcDbEntity
  8
DATA
  6
Continuous
 62
     7
100
AcDbLine
 10
-512.9849999999977
 20
-565.6860000000001
 30
0.0
 11
-506.9849999999978
 21
-565.6860000000001
 31
0.0
  0
LINE
  5
10F
330
394
100
AcDbEntity
  8
DATA
  6
Continuous
 62
     7
100
AcDbLine
 10
-486.7411999999984
 20
-650.4520019362304
 30
0.0
 11
-486.7411999999984
 21
-658.3960000000006
 31
0.0
  0
LINE
  5
110
330
394
100
AcDbEntity
  8
DATA
  6
Continuous
 62
     7
100
AcDbLine
 10
-487.0149999999976
 20
-650.4520019362304
 30
0.0
 11
-486.7411999999984
 21
-650.4520019362304
 31
0.0
  0
LINE
  5
111
330
394
100
AcDbEntity
  8
DATA
  6
Continuous
 62
     7
100
AcDbLine
 10
-486.7411999999984
 20
-658.3960000000006
 30
0.0
 11
-487.0149999999983
 21
-658.3960000000006
 31
0.0
  0
LINE
  5
112
330
394
100
AcDbEntity
  8
DATA
  6
Continuous
 62
     7
100
AcDbLine
 10
-512.9849999999977
 20
-650.4520019362304
 30
0.0
 11
-513.2587999999985
 21
-650.4520019362304
 31
0.0
  0
LINE
  5
113
330
394
100
AcDbEntity
  8
DATA
  6
Continuous
 62
     7
100
AcDbLine
 10
-513.2587999999985
 20
-650.4520019362304
 30
0.0
 11
-513.2587999999983
 21
-658.3960000000006
 31
0.0
  0
LINE
  5
114
330
394
100
AcDbEntity
  8
DATA
  6
Continuous
 62
     7
100
AcDbLine
 10
-513.2587999999983
 20
-658.3960000000006
 30
0.0
 11
-512.9849999999977
 21
-658.3960000000006
 31
0.0
  0
LINE
  5
115
330
394
100
AcDbEntity
  8
DATA
  6
Continuous
 62
     7
100
AcDbLine
 10
-512.9849999999977
 20
-650.7760000000001
 30
0.0
 11
-513.2587999999985
 21
-650.7760000000001
 31
0.0
  0
LINE
  5
116
330
394
100
AcDbEntity
  8
DATA
  6
Continuous
 62
     7
100
AcDbLine
 10
-487.0149999999976
 20
-650.7760000000001
 30
0.0
 11
-486.7411999999984
 21
-650.7760000000001
 31
0.0
  0
LINE
  5
117
330
394
100
AcDbEntity
  8
DATA
  6
Continuous
 62
     7
100
AcDbLine
 10
-471.1709999999984
 20
-613.6919999999999
 30
0.0
 11
-487.0149999999976
 21
-613.6919999999999
 31
0.0
  0
LINE
  5
118
330
394
100
AcDbEntity
  8
DATA
  6
Continuous
 62
     7
100
AcDbLine
 10
-493.0149999999976
 20
-613.6920000000006
 30
0.0
 11
-506.9849999999978
 21
-613.6919999999999
 31
0.0
  0
LINE
  5
119
330
394
100
AcDbEntity
  8
DATA
  6
Continuous
 62
     7
100
AcDbLine
 10
-512.9849999999977
 20
-613.6919999999999
 30
0.0
 11
-528.8289999999988
 21
-613.6919999999999
 31
0.0
  0
LINE
  5
11A
330
394
100
AcDbEntity
  8
DATA
  6
Continuous
 62
     7
100
AcDbLine
 10
-471.1709999999984
 20
-624.6150830621145
 30
0.0
 11
-487.0149999999976
 21
-624.6150830621145
 31
0.0
  0
LINE
  5
11B
330
394
100
AcDbEntity
  8
DATA
  6
Continuous
 62
     7
100
AcDbLine
 10
-493.0149999999976
 20
-624.6150830621145
 30
0.0
 11
-506.9849999999978
 21
-624.6150830621145
 31
0.0
  0
LINE
  5
11C
330
394
100
AcDbEntity
  8
DATA
  6
Continuous
 62
     7
100
AcDbLine
 10
-512.9849999999977
 20
-624.6150830621145
 30
0.0
 11
-528.8289999999983
 21
-624.6150830621145
 31
0.0
  0
ARC
  5
11D
330
394
100
AcDbEntity
  8
DATA
  6
Continuous
 62
     7
100
AcDbCircle
 10
-530.6859999689982
 20
-1447.374366122491
 30
0.0
 40
0.6349999999999909
100
AcDbArc
 50
90.0
 51
180.0
  0
ARC
  5
11E
330
394
100
AcDbEntity
  8
DATA
  6
Continuous
 62
     7
100
AcDbCircle
 10
-530.6859999689987
 20
-1458.804366122491
 30
0.0
 40
0.6349999999997637
100
AcDbArc
 50
180.0
 51
270.0
  0
ARC
  5
11F
330
394
100
AcDbEntity
  8
DATA
  6
Continuous
 62
     7
100
AcDbCircle
 10
-459.4972308598608
 20
-1468.580575057727
 30
0.0
 40
0.5
100
AcDbArc
 50
90.0
 51
180.0
  0
ARC
  5
120
330
394
100
AcDbEntity
  8
DATA
  6
Continuous
 62
     7
100
AcDbCircle
 10
-459.4972308598612
 20
-1503.140575057727
 30
0.0
 40
0.5
100
AcDbArc
 50
180.0
 51
270.0
  0
ARC
  5
121
330
394
100
AcDbEntity
  8
DATA
  6
Continuous
 62
     7
100
AcDbCircle
 10
-460.4972308598608
 20
-1476.153075057727
 30
0.0
 40
0.5000000000002274
100
AcDbArc
 50
270.0
 51
0.0
  0
ARC
  5
122
330
394
100
AcDbEntity
  8
DATA
  6
Continuous
 62
     7
100
AcDbCircle
 10
-460.4972308598612
 20
-1495.568075057726
 30
0.0
 40
0.5000000000004548
100
AcDbArc
 50
0.0
 51
90.0
  0
ARC
  5
123
330
394
100
AcDbEntity
  8
DATA
  6
Continuous
 62
     7
100
AcDbCircle
 10
-458.3890000309984
 20
-1468.580575057727
 30
0.0
 40
0.5
100
AcDbArc
 50
90.0
 51
180.0
  0
ARC
  5
124
330
394
100
AcDbEntity
  8
DATA
  6
Continuous
 62
     7
100
AcDbCircle
 10
-458.3890000309994
 20
-1503.140575057727
 30
0.0
 40
0.5
100
AcDbArc
 50
180.0
 51
270.0
  0
ARC
  5
125
330
394
100
AcDbEntity
  8
DATA
  6
Continuous
 62
     7
100
AcDbCircle
 10
-457.3421448493348
 20
-1468.580575057727
 30
0.0
 40
0.4999999999997304
100
AcDbArc
 50
29.99999999998776
 51
90.0
  0
ARC
  5
126
330
394
100
AcDbEntity
  8
DATA
  6
Continuous
 62
     7
100
AcDbCircle
 10
-457.3421448493354
 20
-1503.140575057727
 30
0.0
 40
0.5
100
AcDbArc
 50
270.0
 51
329.9999999999897
  0
ARC
  5
127
330
394
100
AcDbEntity
  8
DATA
  6
Continuous
 62
     7
100
AcDbCircle
 10
-456.0870000309992
 20
-1500.966600461511
 30
0.0
 40
0.500000000000238
100
AcDbArc
 50
330.0000000000157
 51
359.9999999999739
  0
ARC
  5
128
330
394
100
AcDbEntity
  8
DATA
  6
Continuous
 62
     7
100
AcDbCircle
 10
-456.0870000309988
 20
-1470.754549653942
 30
0.0
 40
0.5
100
AcDbArc
 50
0.0
 51
30.00000000001029
  0
ARC
  5
129
330
394
100
AcDbEntity
  8
DATA
  6
Continuous
 62
     7
100
AcDbCircle
 10
-459.3890000309988
 20
-1476.153075057726
 30
0.0
 40
0.5
100
AcDbArc
 50
270.0
 51
0.0000000000260343
  0
ARC
  5
12A
330
394
100
AcDbEntity
  8
DATA
  6
Continuous
 62
     7
100
AcDbCircle
 10
-459.3890000309988
 20
-1495.568075057726
 30
0.0
 40
0.5
100
AcDbArc
 50
359.999999999974
 51
90.0
  0
ARC
  5
12B
330
394
100
AcDbEntity
  8
DATA
  6
Continuous
 62
     7
100
AcDbCircle
 10
-441.9890000309989
 20
-1489.170575057727
 30
0.0
 40
0.5
100
AcDbArc
 50
270.0
 51
0.0000000000260343
  0
ARC
  5
12C
330
394
100
AcDbEntity
  8
DATA
  6
Continuous
 62
     7
100
AcDbCircle
 10
-441.9890000309989
 20
-1482.550575057727
 30
0.0
 40
0.5
100
AcDbArc
 50
359.999999999974
 51
90.0
  0
LINE
  5
12D
330
394
100
AcDbEntity
  8
DATA
  6
Continuous
 62
     7
100
AcDbLine
 10
-528.8289999999983
 20
-1446.739366122491
 30
0.0
 11
-530.6859999689982
 21
-1446.739366122491
 31
0.0
  0
LINE
  5
12E
330
394
100
AcDbEntity
  8
DATA
  6
Continuous
 62
     7
100
AcDbLine
 10
-530.6859999689987
 20
-1459.439366122491
 30
0.0
 11
-528.8289999999983
 21
-1459.439366122491
 31
0.0
  0
LINE
  5
12F
330
394
100
AcDbEntity
  8
DATA
  6
Continuous
 62
     7
100
AcDbLine
 10
-487.0149999999971
 20
-1372.554693701562
 30
0.0
 11
-493.014999999997
 21
-1372.554693701562
 31
0.0
  0
LINE
  5
130
330
394
100
AcDbEntity
  8
DATA
  6
Continuous
 62
     7
100
AcDbLine
 10
-506.9849999999973
 20
-1372.554693701562
 30
0.0
 11
-512.9849999999974
 21
-1372.554693701561
 31
0.0
  0
LINE
  5
131
330
394
100
AcDbEntity
  8
DATA
  6
Continuous
 62
     7
100
AcDbLine
 10
-471.170999999998
 20
-1419.179236916284
 30
0.0
 11
-487.0149999999981
 21
-1419.179236916284
 31
0.0
  0
LINE
  5
132
330
394
100
AcDbEntity
  8
DATA
  6
Continuous
 62
     7
100
AcDbLine
 10
-493.0149999999976
 20
-1419.179236916283
 30
0.0
 11
-506.9849999999978
 21
-1419.179236916283
 31
0.0
  0
LINE
  5
133
330
394
100
AcDbEntity
  8
DATA
  6
Continuous
 62
     7
100
AcDbLine
 10
-512.9849999999977
 20
-1419.179236916283
 30
0.0
 11
-528.8289999999979
 21
-1419.179236916283
 31
0.0
  0
LINE
  5
134
330
394
100
AcDbEntity
  8
DATA
  6
Continuous
 62
     7
100
AcDbLine
 10
-459.4972308598608
 20
-1503.640575057726
 30
0.0
 11
-458.4503756781974
 21
-1503.640575057726
 31
0.0
  0
LINE
  5
135
330
394
100
AcDbEntity
  8
DATA
  6
Continuous
 62
     7
100
AcDbLine
 10
-458.4503756781968
 20
-1468.080575057727
 30
0.0
 11
-459.4972308598602
 21
-1468.080575057727
 31
0.0
  0
LINE
  5
136
330
394
100
AcDbEntity
  8
DATA
  6
Continuous
 62
     7
100
AcDbLine
 10
-458.4197020250758
 20
-1468.081516817634
 30
0.0
 11
-458.4503756781974
 21
-1468.080575057727
 31
0.0
  0
LINE
  5
137
330
394
100
AcDbEntity
  8
DATA
  6
Continuous
 62
     7
100
AcDbLine
 10
-458.4503756781977
 20
-1503.640575057726
 30
0.0
 11
-458.4196954165243
 21
-1503.639632891594
 31
0.0
  0
LINE
  5
138
330
394
100
AcDbEntity
  8
DATA
  6
Continuous
 62
     7
100
AcDbLine
 10
-461.7752308598605
 20
-1495.068075057726
 30
0.0
 11
-460.667000030996
 21
-1495.068075057726
 31
0.0
  0
LINE
  5
139
330
394
100
AcDbEntity
  8
DATA
  6
Continuous
 62
     7
100
AcDbLine
 10
-460.6670000310024
 20
-1476.653075057727
 30
0.0
 11
-461.7752308598601
 21
-1476.653075057727
 31
0.0
  0
LINE
  5
13A
330
394
100
AcDbEntity
  8
DATA
  6
Continuous
 62
     7
100
AcDbLine
 10
-461.7752308598608
 20
-1476.653075057727
 30
0.0
 11
-471.1709999999984
 21
-1477.380940545586
 31
0.0
  0
LINE
  5
13B
330
394
100
AcDbEntity
  8
DATA
  6
Continuous
 62
     7
100
AcDbLine
 10
-471.1709999999988
 20
-1494.340209569866
 30
0.0
 11
-461.7752308598608
 21
-1495.068075057726
 31
0.0
  0
LINE
  5
13C
330
394
100
AcDbEntity
  8
DATA
  6
Continuous
 62
     7
100
AcDbLine
 10
-535.1072308598612
 20
-1492.191525057726
 30
0.0
 11
-533.999000030999
 21
-1492.191525057726
 31
0.0
  0
LINE
  5
13D
330
394
100
AcDbEntity
  8
DATA
  6
Continuous
 62
     7
100
AcDbLine
 10
-533.999000030999
 20
-1479.529625057726
 30
0.0
 11
-535.1072308598612
 21
-1479.529625057725
 31
0.0
  0
LINE
  5
13E
330
394
100
AcDbEntity
  8
DATA
  6
Continuous
 62
     7
100
AcDbLine
 10
-535.1072308598612
 20
-1479.529625057725
 30
0.0
 11
-536.6312308598613
 21
-1481.053625057725
 31
0.0
  0
LINE
  5
13F
330
394
100
AcDbEntity
  8
DATA
  6
Continuous
 62
     7
100
AcDbLine
 10
-536.6312308598613
 20
-1490.667525057725
 30
0.0
 11
-535.1072308598612
 21
-1492.191525057726
 31
0.0
  0
LINE
  5
140
330
394
100
AcDbEntity
  8
DATA
  6
Continuous
 62
     7
100
AcDbLine
 10
-458.3890000309984
 20
-1503.640575057726
 30
0.0
 11
-457.3421448493348
 21
-1503.640575057726
 31
0.0
  0
LINE
  5
141
330
394
100
AcDbEntity
  8
DATA
  6
Continuous
 62
     7
100
AcDbLine
 10
-457.3421448493345
 20
-1468.080575057727
 30
0.0
 11
-458.3890000309978
 21
-1468.080575057727
 31
0.0
  0
LINE
  5
142
330
394
100
AcDbEntity
  8
DATA
  6
Continuous
 62
     7
100
AcDbLine
 10
-456.9091321474433
 20
-1503.390575057727
 30
0.0
 11
-455.6539873291066
 21
-1501.216600461511
 31
0.0
  0
LINE
  5
143
330
394
100
AcDbEntity
  8
DATA
  6
Continuous
 62
     7
100
AcDbLine
 10
-455.6539873291066
 20
-1470.504549653943
 30
0.0
 11
-456.9091321474428
 21
-1468.330575057726
 31
0.0
  0
LINE
  5
144
330
394
100
AcDbEntity
  8
DATA
  6
Continuous
 62
     7
100
AcDbLine
 10
-460.6670000309986
 20
-1495.068075057726
 30
0.0
 11
-459.3890000309984
 21
-1495.068075057726
 31
0.0
  0
LINE
  5
145
330
394
100
AcDbEntity
  8
DATA
  6
Continuous
 62
     7
100
AcDbLine
 10
-459.3890000309984
 20
-1476.653075057727
 30
0.0
 11
-460.6670000309981
 21
-1476.653075057727
 31
0.0
  0
LINE
  5
146
330
394
100
AcDbEntity
  8
DATA
  6
Continuous
 62
     7
100
AcDbLine
 10
-460.6670000309986
 20
-1476.653075057726
 30
0.0
 11
-471.1709999999988
 21
-1477.466792268939
 31
0.0
  0
LINE
  5
147
330
394
100
AcDbEntity
  8
DATA
  6
Continuous
 62
     7
100
AcDbLine
 10
-471.1709999999988
 20
-1494.254357846513
 30
0.0
 11
-460.6670000309991
 21
-1495.068075057726
 31
0.0
  0
LINE
  5
148
330
394
100
AcDbEntity
  8
DATA
  6
Continuous
 62
     7
100
AcDbLine
 10
-533.999000030999
 20
-1492.191525057726
 30
0.0
 11
-528.8289999999988
 21
-1492.191525057726
 31
0.0
  0
LINE
  5
149
330
394
100
AcDbEntity
  8
DATA
  6
Continuous
 62
     7
100
AcDbLine
 10
-528.8289999999988
 20
-1479.529625057726
 30
0.0
 11
-533.999000030999
 21
-1479.529625057726
 31
0.0
  0
LINE
  5
14A
330
394
100
AcDbEntity
  8
DATA
  6
Continuous
 62
     7
100
AcDbLine
 10
-533.999000030999
 20
-1479.529625057726
 30
0.0
 11
-535.5230000309988
 21
-1481.053625057725
 31
0.0
  0
LINE
  5
14B
330
394
100
AcDbEntity
  8
DATA
  6
Continuous
 62
     7
100
AcDbLine
 10
-535.5230000309992
 20
-1490.667525057725
 30
0.0
 11
-533.999000030999
 21
-1492.191525057726
 31
0.0
  0
LINE
  5
14C
330
394
100
AcDbEntity
  8
DATA
  6
Continuous
 62
     7
100
AcDbLine
 10
-455.5870000309981
 20
-1489.670575057727
 30
0.0
 11
-441.9890000309982
 21
-1489.670575057727
 31
0.0
  0
LINE
  5
14D
330
394
100
AcDbEntity
  8
DATA
  6
Continuous
 62
     7
100
AcDbLine
 10
-441.9890000309978
 20
-1482.050575057727
 30
0.0
 11
-455.5870000309981
 21
-1482.050575057727
 31
0.0
  0
LINE
  5
14E
330
394
100
AcDbEntity
  8
DATA
  6
Continuous
 62
     7
100
AcDbLine
 10
-531.3209999689984
 20
-1453.089366122491
 30
0.0
 11
-531.3209999689984
 21
-1458.804366122491
 31
0.0
  0
LINE
  5
14F
330
394
100
AcDbEntity
  8
DATA
  6
Continuous
 62
     7
100
AcDbLine
 10
-531.3209999689984
 20
-1447.374366122491
 30
0.0
 11
-531.3209999689984
 21
-1453.089366122491
 31
0.0
  0
LINE
  5
150
330
394
100
AcDbEntity
  8
DATA
  6
Continuous
 62
     7
100
AcDbLine
 10
-487.0149999999981
 20
-1431.5812941763
 30
0.0
 11
-493.0149999999981
 21
-1431.5812941763
 31
0.0
  0
LINE
  5
151
330
394
100
AcDbEntity
  8
DATA
  6
Continuous
 62
     7
100
AcDbLine
 10
-493.0149999999988
 20
-1493.968168256873
 30
0.0
 11
-487.0149999999988
 21
-1493.968168256873
 31
0.0
  0
LINE
  5
152
330
394
100
AcDbEntity
  8
DATA
  6
Continuous
 62
     7
100
AcDbLine
 10
-493.0149999999976
 20
-1415.231968361377
 30
0.0
 11
-487.0149999999976
 21
-1415.231968361377
 31
0.0
  0
LINE
  5
153
330
394
100
AcDbEntity
  8
DATA
  6
Continuous
 62
     7
100
AcDbLine
 10
-487.0149999999971
 20
-1372.715367886639
 30
0.0
 11
-493.014999999997
 21
-1372.715367886639
 31
0.0
  0
LINE
  5
154
330
394
100
AcDbEntity
  8
DATA
  6
Continuous
 62
     7
100
AcDbLine
 10
-487.0149999999971
 20
-1372.554693701562
 30
0.0
 11
-487.0149999999971
 21
-1510.450575026726
 31
0.0
  0
LINE
  5
155
330
394
100
AcDbEntity
  8
DATA
  6
Continuous
 62
     7
100
AcDbLine
 10
-493.014999999997
 20
-1510.450575026726
 30
0.0
 11
-493.014999999997
 21
-1372.554693701562
 31
0.0
  0
LINE
  5
156
330
394
100
AcDbEntity
  8
DATA
  6
Continuous
 62
     7
100
AcDbLine
 10
-506.9849999999978
 20
-1431.581294176299
 30
0.0
 11
-512.9849999999977
 21
-1431.581294176299
 31
0.0
  0
LINE
  5
157
330
394
100
AcDbEntity
  8
DATA
  6
Continuous
 62
     7
100
AcDbLine
 10
-512.9849999999986
 20
-1493.968168256873
 30
0.0
 11
-506.9849999999987
 21
-1493.968168256873
 31
0.0
  0
LINE
  5
158
330
394
100
AcDbEntity
  8
DATA
  6
Continuous
 62
     7
100
AcDbLine
 10
-512.9849999999977
 20
-1415.231968361376
 30
0.0
 11
-506.9849999999978
 21
-1415.231968361376
 31
0.0
  0
LINE
  5
159
330
394
100
AcDbEntity
  8
DATA
  6
Continuous
 62
     7
100
AcDbLine
 10
-506.9849999999973
 20
-1372.715367886639
 30
0.0
 11
-512.9849999999974
 21
-1372.715367886639
 31
0.0
  0
LINE
  5
15A
330
394
100
AcDbEntity
  8
DATA
  6
Continuous
 62
     7
100
AcDbLine
 10
-506.9849999999973
 20
-1372.554693701562
 30
0.0
 11
-506.9849999999973
 21
-1510.450575026726
 31
0.0
  0
LINE
  5
15B
330
394
100
AcDbEntity
  8
DATA
  6
Continuous
 62
     7
100
AcDbLine
 10
-471.170999999998
 20
-1510.450575026726
 30
0.0
 11
-528.8289999999979
 21
-1510.450575026726
 31
0.0
  0
LINE
  5
15C
330
394
100
AcDbEntity
  8
DATA
  6
Continuous
 62
     7
100
AcDbLine
 10
-486.7411999999984
 20
-1446.422292274497
 30
0.0
 11
-487.0149999999983
 21
-1446.422292274497
 31
0.0
  0
LINE
  5
15D
330
394
100
AcDbEntity
  8
DATA
  6
Continuous
 62
     7
100
AcDbLine
 10
-486.7411999999984
 20
-1445.29269260334
 30
0.0
 11
-486.7411999999984
 21
-1446.422292274497
 31
0.0
  0
LINE
  5
15E
330
394
100
AcDbEntity
  8
DATA
  6
Continuous
 62
     7
100
AcDbLine
 10
-487.0149999999983
 20
-1445.29269260334
 30
0.0
 11
-486.7411999999984
 21
-1445.29269260334
 31
0.0
  0
LINE
  5
15F
330
394
100
AcDbEntity
  8
DATA
  6
Continuous
 62
     7
100
AcDbLine
 10
-486.7411999999981
 20
-1422.505053024845
 30
0.0
 11
-487.0149999999981
 21
-1422.505053024845
 31
0.0
  0
LINE
  5
160
330
394
100
AcDbEntity
  8
DATA
  6
Continuous
 62
     7
100
AcDbLine
 10
-486.7411999999981
 20
-1421.375453353688
 30
0.0
 11
-486.7411999999981
 21
-1422.505053024845
 31
0.0
  0
LINE
  5
161
330
394
100
AcDbEntity
  8
DATA
  6
Continuous
 62
     7
100
AcDbLine
 10
-487.0149999999981
 20
-1421.375453353688
 30
0.0
 11
-486.7411999999981
 21
-1421.375453353688
 31
0.0
  0
LINE
  5
162
330
394
100
AcDbEntity
  8
DATA
  6
Continuous
 62
     7
100
AcDbLine
 10
-513.2587999999983
 20
-1445.29269260334
 30
0.0
 11
-513.2587999999983
 21
-1446.422292274497
 31
0.0
  0
LINE
  5
163
330
394
100
AcDbEntity
  8
DATA
  6
Continuous
 62
     7
100
AcDbLine
 10
-513.2587999999983
 20
-1446.422292274497
 30
0.0
 11
-512.9849999999983
 21
-1446.422292274497
 31
0.0
  0
LINE
  5
164
330
394
100
AcDbEntity
  8
DATA
  6
Continuous
 62
     7
100
AcDbLine
 10
-512.9849999999983
 20
-1445.29269260334
 30
0.0
 11
-513.2587999999983
 21
-1445.29269260334
 31
0.0
  0
LINE
  5
165
330
394
100
AcDbEntity
  8
DATA
  6
Continuous
 62
     7
100
AcDbLine
 10
-513.2587999999977
 20
-1421.375453353687
 30
0.0
 11
-513.2587999999977
 21
-1422.505053024844
 31
0.0
  0
LINE
  5
166
330
394
100
AcDbEntity
  8
DATA
  6
Continuous
 62
     7
100
AcDbLine
 10
-513.2587999999977
 20
-1422.505053024844
 30
0.0
 11
-512.9849999999977
 21
-1422.505053024844
 31
0.0
  0
LINE
  5
167
330
394
100
AcDbEntity
  8
DATA
  6
Continuous
 62
     7
100
AcDbLine
 10
-512.9849999999977
 20
-1421.375453353688
 30
0.0
 11
-513.2587999999977
 21
-1421.375453353687
 31
0.0
  0
LINE
  5
168
330
394
100
AcDbEntity
  8
DATA
  6
Continuous
 62
     7
100
AcDbLine
 10
-471.170999999998
 20
-1510.450575026726
 30
0.0
 11
-471.170999999998
 21
-1419.179236916284
 31
0.0
  0
LINE
  5
169
330
394
100
AcDbEntity
  8
DATA
  6
Continuous
 62
     7
100
AcDbLine
 10
-528.8289999999979
 20
-1510.450575026726
 30
0.0
 11
-528.8289999999979
 21
-1419.179236916283
 31
0.0
  0
LINE
  5
16A
330
394
100
AcDbEntity
  8
DATA
  6
Continuous
 62
     7
100
AcDbLine
 10
-459.9972308598612
 20
-1500.601891520769
 30
0.0
 11
-459.9972308598612
 21
-1495.068075057726
 31
0.0
  0
LINE
  5
16B
330
394
100
AcDbEntity
  8
DATA
  6
Continuous
 62
     7
100
AcDbLine
 10
-459.9972308598608
 20
-1476.653075057727
 30
0.0
 11
-459.9972308598608
 21
-1468.580575057727
 31
0.0
  0
LINE
  5
16C
330
394
100
AcDbEntity
  8
DATA
  6
Continuous
 62
     7
100
AcDbLine
 10
-459.9972308598612
 20
-1503.140575057727
 30
0.0
 11
-459.9972308598612
 21
-1500.601891520769
 31
0.0
  0
LINE
  5
16D
330
394
100
AcDbEntity
  8
DATA
  6
Continuous
 62
     7
100
AcDbLine
 10
-461.7752308598608
 20
-1495.068075057726
 30
0.0
 11
-461.7752308598608
 21
-1494.982223334373
 31
0.0
  0
LINE
  5
16E
330
394
100
AcDbEntity
  8
DATA
  6
Continuous
 62
     7
100
AcDbLine
 10
-461.7752308598608
 20
-1476.73892678108
 30
0.0
 11
-461.7752308598608
 21
-1476.653075057727
 31
0.0
  0
LINE
  5
16F
330
394
100
AcDbEntity
  8
DATA
  6
Continuous
 62
     7
100
AcDbLine
 10
-535.1072308598612
 20
-1492.191525057726
 30
0.0
 11
-535.1072308598612
 21
-1491.083294228863
 31
0.0
  0
LINE
  5
170
330
394
100
AcDbEntity
  8
DATA
  6
Continuous
 62
     7
100
AcDbLine
 10
-535.1072308598612
 20
-1480.637855886588
 30
0.0
 11
-535.1072308598612
 21
-1479.529625057725
 31
0.0
  0
LINE
  5
171
330
394
100
AcDbEntity
  8
DATA
  6
Continuous
 62
     7
100
AcDbLine
 10
-536.6312308598613
 20
-1490.667525057725
 30
0.0
 11
-536.6312308598613
 21
-1481.053625057725
 31
0.0
  0
LINE
  5
172
330
394
100
AcDbEntity
  8
DATA
  6
Continuous
 62
     7
100
AcDbLine
 10
-458.8890000309988
 20
-1471.883258702012
 30
0.0
 11
-458.8890000309984
 21
-1468.580575057726
 31
0.0
  0
LINE
  5
173
330
394
100
AcDbEntity
  8
DATA
  6
Continuous
 62
     7
100
AcDbLine
 10
-458.8890000309993
 20
-1503.140575057727
 30
0.0
 11
-458.8890000309988
 21
-1471.883258702012
 31
0.0
  0
LINE
  5
174
330
394
100
AcDbEntity
  8
DATA
  6
Continuous
 62
     7
100
AcDbLine
 10
-455.5870000309989
 20
-1470.754549653942
 30
0.0
 11
-455.5870000309992
 21
-1500.966600461511
 31
0.0
  0
LINE
  5
175
330
394
100
AcDbEntity
  8
DATA
  6
Continuous
 62
     7
100
AcDbLine
 10
-460.6670000309991
 20
-1495.068075057726
 30
0.0
 11
-460.6670000309986
 21
-1476.653075057726
 31
0.0
  0
LINE
  5
176
330
394
100
AcDbEntity
  8
DATA
  6
Continuous
 62
     7
100
AcDbLine
 10
-533.999000030999
 20
-1492.191525057726
 30
0.0
 11
-533.999000030999
 21
-1479.529625057726
 31
0.0
  0
LINE
  5
177
330
394
100
AcDbEntity
  8
DATA
  6
Continuous
 62
     7
100
AcDbLine
 10
-535.5230000309992
 20
-1490.667525057725
 30
0.0
 11
-535.5230000309988
 21
-1481.053625057725
 31
0.0
  0
LINE
  5
178
330
394
100
AcDbEntity
  8
DATA
  6
Continuous
 62
     7
100
AcDbLine
 10
-441.4890000309988
 20
-1482.550575057727
 30
0.0
 11
-441.4890000309988
 21
-1489.170575057727
 31
0.0
  0
LINE
  5
179
330
394
100
AcDbEntity
  8
DATA
  6
Continuous
 62
     7
100
AcDbLine
 10
-530.6859999689987
 20
-1453.089366122491
 30
0.0
 11
-530.6859999689982
 21
-1446.739366122491
 31
0.0
  0
LINE
  5
17A
330
394
100
AcDbEntity
  8
DATA
  6
Continuous
 62
     7
100
AcDbLine
 10
-530.6859999689987
 20
-1459.439366122491
 30
0.0
 11
-530.6859999689987
 21
-1453.089366122491
 31
0.0
  0
LINE
  5
17B
330
394
100
AcDbEntity
  8
DATA
  6
Continuous
 62
     7
100
AcDbLine
 10
-471.1709999999984
 20
-1464.326512676381
 30
0.0
 11
-487.0149999999983
 21
-1464.32651267638
 31
0.0
  0
LINE
  5
17C
330
394
100
AcDbEntity
  8
DATA
  6
Continuous
 62
     7
100
AcDbLine
 10
-493.0149999999984
 20
-1464.32651267638
 30
0.0
 11
-506.9849999999987
 21
-1464.32651267638
 31
0.0
  0
LINE
  5
17D
330
394
100
AcDbEntity
  8
DATA
  6
Continuous
 62
     7
100
AcDbLine
 10
-512.9849999999986
 20
-1464.32651267638
 30
0.0
 11
-528.8289999999988
 21
-1464.32651267638
 31
0.0
  0
LINE
  5
17E
330
394
100
AcDbEntity
  8
DATA
  6
Continuous
 62
     7
100
AcDbLine
 10
-471.1709999999984
 20
-1452.200086044498
 30
0.0
 11
-487.0149999999983
 21
-1452.200086044497
 31
0.0
  0
LINE
  5
17F
330
394
100
AcDbEntity
  8
DATA
  6
Continuous
 62
     7
100
AcDbLine
 10
-493.0149999999984
 20
-1452.200086044497
 30
0.0
 11
-506.9849999999981
 21
-1452.200086044497
 31
0.0
  0
LINE
  5
180
330
394
100
AcDbEntity
  8
DATA
  6
Continuous
 62
     7
100
AcDbLine
 10
-512.9849999999983
 20
-1452.200086044497
 30
0.0
 11
-528.8289999999983
 21
-1452.200086044497
 31
0.0
  0
LINE
  5
181
330
394
100
AcDbEntity
  8
DATA
  6
Continuous
 62
     7
100
AcDbLine
 10
-471.170999999998
 20
-1419.2984102534
 30
0.0
 11
-487.0149999999981
 21
-1419.2984102534
 31
0.0
  0
LINE
  5
182
330
394
100
AcDbEntity
  8
DATA
  6
Continuous
 62
     7
100
AcDbLine
 10
-493.0149999999981
 20
-1419.2984102534
 30
0.0
 11
-506.9849999999978
 21
-1419.2984102534
 31
0.0
  0
LINE
  5
183
330
394
100
AcDbEntity
  8
DATA
  6
Continuous
 62
     7
100
AcDbLine
 10
-512.9849999999977
 20
-1419.2984102534
 30
0.0
 11
-528.8289999999979
 21
-1419.298410253399
 31
0.0
  0
LINE
  5
184
330
394
100
AcDbEntity
  8
DATA
  6
Continuous
 62
     7
100
AcDbLine
 10
-458.4503756781974
 20
-1468.084356325784
 30
0.0
 11
-458.4503756781974
 21
-1468.080575057727
 31
0.0
  0
LINE
  5
185
330
394
100
AcDbEntity
  8
DATA
  6
Continuous
 62
     7
100
AcDbLine
 10
-458.4503756781977
 20
-1503.640575057726
 30
0.0
 11
-458.4503756781977
 21
-1503.636793789669
 31
0.0
  0
LINE
  5
186
330
394
100
AcDbEntity
  8
DATA
  6
Continuous
 62
     7
100
AcDbLine
 10
-459.4972308598612
 20
-1501.028434242501
 30
0.0
 11
-459.4972308598612
 21
-1503.640575057726
 31
0.0
  0
LINE
  5
187
330
394
100
AcDbEntity
  8
DATA
  6
Continuous
 62
     7
100
AcDbLine
 10
-459.4972308598608
 20
-1468.080575057727
 30
0.0
 11
-459.4972308598608
 21
-1476.653075057727
 31
0.0
  0
LINE
  5
188
330
394
100
AcDbEntity
  8
DATA
  6
Continuous
 62
     7
100
AcDbLine
 10
-459.4972308598612
 20
-1495.068075057726
 30
0.0
 11
-459.4972308598612
 21
-1501.028434242501
 31
0.0
  0
LINE
  5
189
330
394
100
AcDbEntity
  8
DATA
  6
Continuous
 62
     7
100
AcDbLine
 10
-458.3890000309994
 20
-1468.080575057727
 30
0.0
 11
-458.3890000309994
 21
-1503.640575057726
 31
0.0
  0
LINE
  5
18A
330
394
100
AcDbEntity
  8
DATA
  6
Continuous
 62
     7
100
AcDbLine
 10
-457.3421448493354
 20
-1503.640575057726
 30
0.0
 11
-457.3421448493354
 21
-1468.080575057727
 31
0.0
  0
LINE
  5
18B
330
394
100
AcDbEntity
  8
DATA
  6
Continuous
 62
     7
100
AcDbLine
 10
-456.9091321474428
 20
-1468.330575057726
 30
0.0
 11
-456.9091321474433
 21
-1503.390575057727
 31
0.0
  0
LINE
  5
18C
330
394
100
AcDbEntity
  8
DATA
  6
Continuous
 62
     7
100
AcDbLine
 10
-455.6539873291066
 20
-1501.216600461511
 30
0.0
 11
-455.6539873291066
 21
-1470.504549653943
 31
0.0
  0
LINE
  5
18D
330
394
100
AcDbEntity
  8
DATA
  6
Continuous
 62
     7
100
AcDbLine
 10
-459.3890000309988
 20
-1495.068075057726
 30
0.0
 11
-459.3890000309984
 21
-1476.653075057727
 31
0.0
  0
LINE
  5
18E
330
394
100
AcDbEntity
  8
DATA
  6
Continuous
 62
     7
100
AcDbLine
 10
-441.9890000309989
 20
-1489.670575057727
 30
0.0
 11
-441.9890000309989
 21
-1482.050575057727
 31
0.0
  0
ARC
  5
18F
330
394
100
AcDbEntity
  8
DATA
  6
Continuous
 62
     7
100
AcDbCircle
 10
-445.1792852925105
 20
-815.6672139993911
 30
0.0
 40
1.961915763891406
100
AcDbArc
 50
50.65413071082917
 51
87.60519015107773
  0
ARC
  5
190
330
394
100
AcDbEntity
  8
DATA
  6
Continuous
 62
     7
100
AcDbCircle
 10
-445.5616086995842
 20
-816.3504229355028
 30
0.0
 40
2.736113512737456
100
AcDbArc
 50
39.23024470177271
 51
53.53449060978011
  0
ARC
  5
191
330
394
100
AcDbEntity
  8
DATA
  6
Continuous
 62
     7
100
AcDbCircle
 10
-444.015078982826
 20
-815.0684871730559
 30
0.0
 40
0.7275626399916547
100
AcDbArc
 50
13.79506492623657
 51
38.05547371194702
  0
ARC
  5
192
330
394
100
AcDbEntity
  8
DATA
  6
Continuous
 62
     7
100
AcDbCircle
 10
-443.6064875385125
 20
-814.9615515903022
 30
0.0
 40
0.305325874120218
100
AcDbArc
 50
311.4297125480409
 51
12.58977339866249
  0
ARC
  5
193
330
394
100
AcDbEntity
  8
DATA
  6
Continuous
 62
     7
100
AcDbCircle
 10
-444.1722886130033
 20
-814.3449599346347
 30
0.0
 40
1.142132773934684
100
AcDbArc
 50
284.6421900531656
 51
312.2434450672117
  0
ARC
  5
194
330
394
100
AcDbEntity
  8
DATA
  6
Continuous
 62
     7
100
AcDbCircle
 10
-444.4258084487429
 20
-813.4883091195604
 30
0.0
 40
2.035250549529481
100
AcDbArc
 50
273.8109256783823
 51
285.4513126348627
  0
ARC
  5
195
330
394
100
AcDbEntity
  8
DATA
  6
Continuous
 62
     7
100
AcDbCircle
 10
-445.0081910972166
 20
-797.5745357568629
 30
0.0
 40
17.95886839491452
100
AcDbArc
 50
269.7158069136242
 51
272.290204999942
  0
ARC
  5
196
330
394
100
AcDbEntity
  8
DATA
  6
Continuous
 62
     7
100
AcDbCircle
 10
-445.0152519197131
 20
-815.6672139993911
 30
0.0
 40
1.961915763891426
100
AcDbArc
 50
92.39480984892228
 51
129.3458692891708
  0
ARC
  5
197
330
394
100
AcDbEntity
  8
DATA
  6
Continuous
 62
     7
100
AcDbCircle
 10
-444.6329285126394
 20
-816.3504229355028
 30
0.0
 40
2.736113512737444
100
AcDbArc
 50
126.4655093902199
 51
140.7697552982273
  0
ARC
  5
198
330
394
100
AcDbEntity
  8
DATA
  6
Continuous
 62
     7
100
AcDbCircle
 10
-446.1794582293976
 20
-815.0684871730559
 30
0.0
 40
0.7275626399915947
100
AcDbArc
 50
141.944526288053
 51
166.2049350737634
  0
ARC
  5
199
330
394
100
AcDbEntity
  8
DATA
  6
Continuous
 62
     7
100
AcDbCircle
 10
-446.5880496737111
 20
-814.9615515903022
 30
0.0
 40
0.3053258741201685
100
AcDbArc
 50
167.4102266013375
 51
228.5702874519591
  0
ARC
  5
19A
330
394
100
AcDbEntity
  8
DATA
  6
Continuous
 62
     7
100
AcDbCircle
 10
-446.0222485992201
 20
-814.3449599346347
 30
0.0
 40
1.142132773934694
100
AcDbArc
 50
227.7565549327883
 51
255.3578099468344
  0
ARC
  5
19B
330
394
100
AcDbEntity
  8
DATA
  6
Continuous
 62
     7
100
AcDbCircle
 10
-445.7687287634803
 20
-813.4883091195604
 30
0.0
 40
2.035250549529493
100
AcDbArc
 50
254.5486873651372
 51
266.1890743216178
  0
ARC
  5
19C
330
394
100
AcDbEntity
  8
DATA
  6
Continuous
 62
     7
100
AcDbCircle
 10
-445.1863461150066
 20
-797.5745357568629
 30
0.0
 40
17.95886839491452
100
AcDbArc
 50
267.709795000058
 51
270.2841930863758
  0
ARC
  5
19D
330
394
100
AcDbEntity
  8
DATA
  6
Continuous
 62
     7
100
AcDbCircle
 10
-444.0439931538405
 20
-1486.600169890059
 30
0.0
 40
2.666429162135041
100
AcDbArc
 50
271.1874879885883
 51
302.0404870401317
  0
ARC
  5
19E
330
394
100
AcDbEntity
  8
DATA
  6
Continuous
 62
     7
100
AcDbCircle
 10
-443.0499925103176
 20
-1488.079936308994
 30
0.0
 40
0.8866042949243675
100
AcDbArc
 50
298.3191156111685
 51
332.7171497542226
  0
ARC
  5
19F
330
394
100
AcDbEntity
  8
DATA
  6
Continuous
 62
     7
100
AcDbCircle
 10
-443.0028938555876
 20
-1488.151116464726
 30
0.0
 40
0.8131858145047131
100
AcDbArc
 50
335.6546097985466
 51
20.87594633267668
  0
ARC
  5
1A0
330
394
100
AcDbEntity
  8
DATA
  6
Continuous
 62
     7
100
AcDbCircle
 10
-444.3728546789264
 20
-1488.539353891662
 30
0.0
 40
2.235083346029024
100
AcDbArc
 50
17.65892944996972
 51
49.24182734949259
  0
ARC
  5
1A1
330
394
100
AcDbEntity
  8
DATA
  6
Continuous
 62
     7
100
AcDbCircle
 10
-444.0417231953293
 20
-1488.184026837599
 30
0.0
 40
1.749849451663391
100
AcDbArc
 50
49.85876127880054
 51
88.26905019879808
  0
ARC
  5
1A2
330
394
100
AcDbEntity
  8
DATA
  6
Continuous
 62
     7
100
AcDbCircle
 10
-443.9337407091072
 20
-1486.600169890059
 30
0.0
 40
2.666429162135069
100
AcDbArc
 50
237.9595129598684
 51
268.8125120114117
  0
ARC
  5
1A3
330
394
100
AcDbEntity
  8
DATA
  6
Continuous
 62
     7
100
AcDbCircle
 10
-444.9277413526301
 20
-1488.079936308994
 30
0.0
 40
0.886604294924351
100
AcDbArc
 50
207.2828502457773
 51
241.6808843888316
  0
ARC
  5
1A4
330
394
100
AcDbEntity
  8
DATA
  6
Continuous
 62
     7
100
AcDbCircle
 10
-444.9748400073601
 20
-1488.151116464726
 30
0.0
 40
0.813185814504748
100
AcDbArc
 50
159.1240536673233
 51
204.3453902014534
  0
ARC
  5
1A5
330
394
100
AcDbEntity
  8
DATA
  6
Continuous
 62
     7
100
AcDbCircle
 10
-443.6048791840212
 20
-1488.539353891662
 30
0.0
 40
2.2350833460291
100
AcDbArc
 50
130.7581726505074
 51
162.3410705500303
  0
ARC
  5
1A6
330
394
100
AcDbEntity
  8
DATA
  6
Continuous
 62
     7
100
AcDbCircle
 10
-443.9360106676184
 20
-1488.184026837599
 30
0.0
 40
1.74984945166336
100
AcDbArc
 50
91.73094980120191
 51
130.1412387211995
  0
ARC
  5
1A7
330
394
100
AcDbEntity
  8
DATA
  6
Continuous
 62
     7
100
AcDbCircle
 10
-458.3890000309988
 20
-1034.483000031
 30
0.0
 40
0.5
100
AcDbArc
 50
90.0
 51
180.0
  0
ARC
  5
1A8
330
394
100
AcDbEntity
  8
DATA
  6
Continuous
 62
     7
100
AcDbCircle
 10
-458.3890000309988
 20
-1069.043000031
 30
0.0
 40
0.5
100
AcDbArc
 50
180.0
 51
270.0
  0
ARC
  5
1A9
330
394
100
AcDbEntity
  8
DATA
  6
Continuous
 62
     7
100
AcDbCircle
 10
-457.3421448493354
 20
-1034.483000031
 30
0.0
 40
0.4999999999998443
100
AcDbArc
 50
30.00000000001032
 51
90.0
  0
ARC
  5
1AA
330
394
100
AcDbEntity
  8
DATA
  6
Continuous
 62
     7
100
AcDbCircle
 10
-457.3421448493354
 20
-1069.043000031
 30
0.0
 40
0.5
100
AcDbArc
 50
270.0
 51
329.9999999999897
  0
ARC
  5
1AB
330
394
100
AcDbEntity
  8
DATA
  6
Continuous
 62
     7
100
AcDbCircle
 10
-456.0870000309988
 20
-1066.869025434784
 30
0.0
 40
0.4999999999999579
100
AcDbArc
 50
329.9999999999672
 51
359.9999999999739
  0
ARC
  5
1AC
330
394
100
AcDbEntity
  8
DATA
  6
Continuous
 62
     7
100
AcDbCircle
 10
-456.0870000309988
 20
-1036.656974627215
 30
0.0
 40
0.5
100
AcDbArc
 50
0.0
 51
30.00000000001029
  0
ARC
  5
1AD
330
394
100
AcDbEntity
  8
DATA
  6
Continuous
 62
     7
100
AcDbCircle
 10
-459.3890000309988
 20
-1042.055500031
 30
0.0
 40
0.5
100
AcDbArc
 50
270.0
 51
0.0
  0
ARC
  5
1AE
330
394
100
AcDbEntity
  8
DATA
  6
Continuous
 62
     7
100
AcDbCircle
 10
-459.3890000309988
 20
-1061.470500031
 30
0.0
 40
0.5
100
AcDbArc
 50
359.999999999974
 51
90.0
  0
ARC
  5
1AF
330
394
100
AcDbEntity
  8
DATA
  6
Continuous
 62
     7
100
AcDbCircle
 10
-441.9890000309989
 20
-1055.073000031
 30
0.0
 40
0.5
100
AcDbArc
 50
270.0
 51
0.0000000000521254
  0
ARC
  5
1B0
330
394
100
AcDbEntity
  8
DATA
  6
Continuous
 62
     7
100
AcDbCircle
 10
-441.9890000309989
 20
-1048.453000031
 30
0.0
 40
0.5
100
AcDbArc
 50
359.999999999974
 51
90.0
  0
LINE
  5
1B1
330
394
100
AcDbEntity
  8
DATA
  6
Continuous
 62
     7
100
AcDbLine
 10
-458.3890000309984
 20
-1069.543000031
 30
0.0
 11
-457.3421448493348
 21
-1069.543000031
 31
0.0
  0
LINE
  5
1B2
330
394
100
AcDbEntity
  8
DATA
  6
Continuous
 62
     7
100
AcDbLine
 10
-457.3421448493345
 20
-1033.983000031
 30
0.0
 11
-458.3890000309984
 21
-1033.983000031
 31
0.0
  0
LINE
  5
1B3
330
394
100
AcDbEntity
  8
DATA
  6
Continuous
 62
     7
100
AcDbLine
 10
-456.9091321474433
 20
-1069.293000031
 30
0.0
 11
-455.6539873291066
 21
-1067.119025434784
 31
0.0
  0
LINE
  5
1B4
330
394
100
AcDbEntity
  8
DATA
  6
Continuous
 62
     7
100
AcDbLine
 10
-455.6539873291066
 20
-1036.406974627215
 30
0.0
 11
-456.9091321474433
 21
-1034.233000031
 31
0.0
  0
LINE
  5
1B5
330
394
100
AcDbEntity
  8
DATA
  6
Continuous
 62
     7
100
AcDbLine
 10
-460.6670000309986
 20
-1042.555500031
 30
0.0
 11
-471.170999999998
 21
-1043.369217242213
 31
0.0
  0
LINE
  5
1B6
330
394
100
AcDbEntity
  8
DATA
  6
Continuous
 62
     7
100
AcDbLine
 10
-471.170999999998
 20
-1060.156782819786
 30
0.0
 11
-460.6670000309986
 21
-1060.970500031
 31
0.0
  0
LINE
  5
1B7
330
394
100
AcDbEntity
  8
DATA
  6
Continuous
 62
     7
100
AcDbLine
 10
-460.6670000309981
 20
-1060.970500031
 30
0.0
 11
-459.3890000309984
 21
-1060.970500031
 31
0.0
  0
LINE
  5
1B8
330
394
100
AcDbEntity
  8
DATA
  6
Continuous
 62
     7
100
AcDbLine
 10
-459.3890000309984
 20
-1042.555500031
 30
0.0
 11
-460.6670000309981
 21
-1042.555500031
 31
0.0
  0
LINE
  5
1B9
330
394
100
AcDbEntity
  8
DATA
  6
Continuous
 62
     7
100
AcDbLine
 10
-455.5870000309981
 20
-1055.573000031
 30
0.0
 11
-441.9890000309982
 21
-1055.573000031
 31
0.0
  0
LINE
  5
1BA
330
394
100
AcDbEntity
  8
DATA
  6
Continuous
 62
     7
100
AcDbLine
 10
-441.9890000309982
 20
-1047.953000031
 30
0.0
 11
-455.5870000309981
 21
-1047.953000031
 31
0.0
  0
LINE
  5
1BB
330
394
100
AcDbEntity
  8
DATA
  6
Continuous
 62
     7
100
AcDbLine
 10
-458.8890000309988
 20
-1061.923365550621
 30
0.0
 11
-458.8890000309988
 21
-1034.483000031
 31
0.0
  0
LINE
  5
1BC
330
394
100
AcDbEntity
  8
DATA
  6
Continuous
 62
     7
100
AcDbLine
 10
-458.8890000309988
 20
-1069.043000031
 30
0.0
 11
-458.8890000309988
 21
-1061.923365550621
 31
0.0
  0
LINE
  5
1BD
330
394
100
AcDbEntity
  8
DATA
  6
Continuous
 62
     7
100
AcDbLine
 10
-455.5870000309989
 20
-1036.656974627215
 30
0.0
 11
-455.5870000309989
 21
-1066.869025434784
 31
0.0
  0
LINE
  5
1BE
330
394
100
AcDbEntity
  8
DATA
  6
Continuous
 62
     7
100
AcDbLine
 10
-460.6670000309986
 20
-1060.970500031
 30
0.0
 11
-460.6670000309986
 21
-1042.555500031
 31
0.0
  0
LINE
  5
1BF
330
394
100
AcDbEntity
  8
DATA
  6
Continuous
 62
     7
100
AcDbLine
 10
-441.4890000309988
 20
-1048.453000031
 30
0.0
 11
-441.4890000309988
 21
-1055.073000031
 31
0.0
  0
LINE
  5
1C0
330
394
100
AcDbEntity
  8
DATA
  6
Continuous
 62
     7
100
AcDbLine
 10
-458.3890000309984
 20
-1062.217357608481
 30
0.0
 11
-458.3890000309988
 21
-1069.543000031
 31
0.0
  0
LINE
  5
1C1
330
394
100
AcDbEntity
  8
DATA
  6
Continuous
 62
     7
100
AcDbLine
 10
-458.3890000309988
 20
-1033.983000031
 30
0.0
 11
-458.3890000309984
 21
-1062.217357608481
 31
0.0
  0
LINE
  5
1C2
330
394
100
AcDbEntity
  8
DATA
  6
Continuous
 62
     7
100
AcDbLine
 10
-457.3421448493354
 20
-1062.217357608481
 30
0.0
 11
-457.3421448493354
 21
-1033.983000031
 31
0.0
  0
LINE
  5
1C3
330
394
100
AcDbEntity
  8
DATA
  6
Continuous
 62
     7
100
AcDbLine
 10
-457.3421448493354
 20
-1069.543000031
 30
0.0
 11
-457.3421448493354
 21
-1062.217357608481
 31
0.0
  0
LINE
  5
1C4
330
394
100
AcDbEntity
  8
DATA
  6
Continuous
 62
     7
100
AcDbLine
 10
-456.9091321474433
 20
-1034.233000031
 30
0.0
 11
-456.9091321474433
 21
-1069.293000031
 31
0.0
  0
LINE
  5
1C5
330
394
100
AcDbEntity
  8
DATA
  6
Continuous
 62
     7
100
AcDbLine
 10
-455.6539873291066
 20
-1067.119025434784
 30
0.0
 11
-455.6539873291066
 21
-1036.406974627215
 31
0.0
  0
LINE
  5
1C6
330
394
100
AcDbEntity
  8
DATA
  6
Continuous
 62
     7
100
AcDbLine
 10
-459.3890000309988
 20
-1060.970500031
 30
0.0
 11
-459.3890000309988
 21
-1042.555500031
 31
0.0
  0
LINE
  5
1C7
330
394
100
AcDbEntity
  8
DATA
  6
Continuous
 62
     7
100
AcDbLine
 10
-441.9890000309989
 20
-1055.573000031
 30
0.0
 11
-441.9890000309989
 21
-1047.953000031
 31
0.0
  0
ARC
  5
1C8
330
394
100
AcDbEntity
  8
DATA
  6
Continuous
 62
     7
100
AcDbCircle
 10
-443.9726970361329
 20
-1048.269659386949
 30
0.0
 40
1.784865006962449
100
AcDbArc
 50
237.9443921877018
 51
269.4809246480012
  0
ARC
  5
1C9
330
394
100
AcDbEntity
  8
DATA
  6
Continuous
 62
     7
100
AcDbCircle
 10
-443.8985627404253
 20
-1048.057295299326
 30
0.0
 40
2.004817438878254
100
AcDbArc
 50
202.1821604450048
 51
239.3700413829118
  0
ARC
  5
1CA
330
394
100
AcDbEntity
  8
DATA
  6
Continuous
 62
     7
100
AcDbCircle
 10
-445.3568780873957
 20
-1048.644200859793
 30
0.0
 40
0.4329056072569693
100
AcDbArc
 50
105.9993674817
 51
203.1249408650872
  0
ARC
  5
1CB
330
394
100
AcDbEntity
  8
DATA
  6
Continuous
 62
     7
100
AcDbCircle
 10
-444.017103285328
 20
-1052.708448830593
 30
0.0
 40
4.71198548921459
100
AcDbArc
 50
89.65827411528678
 51
108.0385081816499
  0
ARC
  5
1CC
330
394
100
AcDbEntity
  8
DATA
  6
Continuous
 62
     7
100
AcDbCircle
 10
-444.0050368268148
 20
-1048.269659386949
 30
0.0
 40
1.784865006962438
100
AcDbArc
 50
270.5190753519988
 51
302.0556078122982
  0
ARC
  5
1CD
330
394
100
AcDbEntity
  8
DATA
  6
Continuous
 62
     7
100
AcDbCircle
 10
-444.0791711225222
 20
-1048.057295299326
 30
0.0
 40
2.004817438878331
100
AcDbArc
 50
300.6299586170882
 51
337.8178395549951
  0
ARC
  5
1CE
330
394
100
AcDbEntity
  8
DATA
  6
Continuous
 62
     7
100
AcDbCircle
 10
-442.6208557755522
 20
-1048.644200859793
 30
0.0
 40
0.432905607256947
100
AcDbArc
 50
336.8750591349128
 51
74.00063251829994
  0
ARC
  5
1CF
330
394
100
AcDbEntity
  8
DATA
  6
Continuous
 62
     7
100
AcDbCircle
 10
-443.9606305776197
 20
-1052.708448830593
 30
0.0
 40
4.711985489214583
100
AcDbArc
 50
71.96149181835007
 51
90.34172588471321
  0
LINE
  5
1D0
330
394
100
AcDbEntity
  8
DATA
  6
Continuous
 62
     7
100
AcDbLine
 10
231.8659999690008
 20
-1506.429366122491
 30
0.0
 11
-262.1640000309999
 21
-1506.429366122491
 31
0.0
  0
LINE
  5
1D1
330
394
100
AcDbEntity
  8
DATA
  6
Continuous
 62
     7
100
AcDbLine
 10
333.084999969
 20
-1510.450575026725
 30
0.0
 11
-275.0699999999997
 21
-1510.450575026726
 31
0.0
  0
ARC
  5
1D2
330
394
100
AcDbEntity
  8
DATA
  6
Continuous
 62
     7
100
AcDbCircle
 10
-333.4899999999997
 20
-1493.968168256873
 30
0.0
 40
16.51000000000022
100
AcDbArc
 50
179.9999999999992
 51
270.0
  0
LINE
  5
1D3
330
394
100
AcDbEntity
  8
DATA
  6
Continuous
 62
     7
100
AcDbLine
 10
-333.4899999999997
 20
-1510.478168256873
 30
0.0
 11
-281.6739999999991
 21
-1510.478168256873
 31
0.0
  0
LINE
  5
1D4
330
394
100
AcDbEntity
  8
DATA
  6
Continuous
 62
     7
100
AcDbLine
 10
-275.3240000000005
 20
-1504.128168256873
 30
0.0
 11
-281.6739999999991
 21
-1510.478168256873
 31
0.0
  0
ARC
  5
1D5
330
394
100
AcDbEntity
  8
DATA
  6
Continuous
 62
     7
100
AcDbCircle
 10
-333.4899999999997
 20
-1431.581294176299
 30
0.0
 40
16.50999999999983
100
AcDbArc
 50
97.99999999999633
 51
179.9999999999992
  0
LINE
  5
1D6
330
394
100
AcDbEntity
  8
DATA
  6
Continuous
 62
     7
100
AcDbLine
 10
-33.26641618019494
 20
-1372.715367886639
 30
0.0
 11
-335.7877478968493
 21
-1415.231968361376
 31
0.0
  0
LINE
  5
1D7
330
394
100
AcDbEntity
  8
DATA
  6
Continuous
 62
     7
100
AcDbLine
 10
-350.0
 20
-1431.581294176299
 30
0.0
 11
-350.0
 21
-1493.968168256873
 31
0.0
  0
ARC
  5
1D8
330
394
100
AcDbEntity
  8
DATA
  6
Continuous
 62
     7
100
AcDbCircle
 10
-262.1640000309999
 20
-1497.539366122491
 30
0.0
 40
8.889999999999417
100
AcDbArc
 50
180.0
 51
270.0
  0
ARC
  5
1D9
330
394
100
AcDbEntity
  8
DATA
  6
Continuous
 62
     7
100
AcDbCircle
 10
-28.76946156435042
 20
-1432.105261970595
 30
0.0
 40
8.890000000000132
100
AcDbArc
 50
83.80000000000467
 51
98.00000000000338
  0
ARC
  5
1DA
330
394
100
AcDbEntity
  8
DATA
  6
Continuous
 62
     7
100
AcDbCircle
 10
-262.1640000309999
 20
-1464.906725221677
 30
0.0
 40
8.89000000000041
100
AcDbArc
 50
98.0000000000032
 51
180.0
  0
CIRCLE
  5
1DB
330
394
100
AcDbEntity
  8
DATA
  6
Continuous
 62
     7
100
AcDbCircle
 10
-101.763000031
 20
-1485.855366122491
 30
0.0
 40
9.0
  0
ARC
  5
1DC
330
394
100
AcDbEntity
  8
DATA
  6
Continuous
 62
     7
100
AcDbCircle
 10
-225.334000030999
 20
-1484.204366122491
 30
0.0
 40
2.540000000000872
100
AcDbArc
 50
180.0
 51
270.0
  0
ARC
  5
1DD
330
394
100
AcDbEntity
  8
DATA
  6
Continuous
 62
     7
100
AcDbCircle
 10
-202.4740000309985
 20
-1484.204366122491
 30
0.0
 40
2.540000000000189
100
AcDbArc
 50
270.0
 51
0.0
  0
ARC
  5
1DE
330
394
100
AcDbEntity
  8
DATA
  6
Continuous
 62
     7
100
AcDbCircle
 10
-202.4740000309985
 20
-1471.504366122491
 30
0.0
 40
2.539999999999054
100
AcDbArc
 50
0.0
 51
90.0
  0
ARC
  5
1DF
330
394
100
AcDbEntity
  8
DATA
  6
Continuous
 62
     7
100
AcDbCircle
 10
-225.334000030999
 20
-1471.504366122491
 30
0.0
 40
2.539999999999964
100
AcDbArc
 50
90.0
 51
180.0
  0
ARC
  5
1E0
330
394
100
AcDbEntity
  8
DATA
  6
Continuous
 62
     7
100
AcDbCircle
 10
-261.6869999689988
 20
-1465.134479340736
 30
0.0
 40
10.16000000000025
100
AcDbArc
 50
98.0000000000048
 51
180.0
  0
ARC
  5
1E1
330
394
100
AcDbEntity
  8
DATA
  6
Continuous
 62
     7
100
AcDbCircle
 10
-28.52402458134929
 20
-1432.365560158062
 30
0.0
 40
10.16000000000013
100
AcDbArc
 50
83.7999999999973
 51
98.0000000000048
  0
ARC
  5
1E2
330
394
100
AcDbEntity
  8
DATA
  6
Continuous
 62
     7
100
AcDbCircle
 10
-265.1639999999988
 20
-1462.541121513086
 30
0.0
 40
10.16000000000047
100
AcDbArc
 50
98.00000000000466
 51
180.0
  0
ARC
  5
1E3
330
394
100
AcDbEntity
  8
DATA
  6
Continuous
 62
     7
100
AcDbCircle
 10
-28.78234843048631
 20
-1429.319846893176
 30
0.0
 40
10.16000000000013
100
AcDbArc
 50
83.7999999999973
 51
97.99999999999469
  0
ARC
  5
1E4
330
394
100
AcDbEntity
  8
DATA
  6
Continuous
 62
     7
100
AcDbCircle
 10
-28.71681229132264
 20
-1431.424836885283
 30
0.0
 40
9.245600000000212
100
AcDbArc
 50
83.79999999999471
 51
98.00000000000162
  0
ARC
  5
1E5
330
394
100
AcDbEntity
  8
DATA
  6
Continuous
 62
     7
100
AcDbCircle
 10
-28.71681229132264
 20
-1431.424836885283
 30
0.0
 40
12.24559996899988
100
AcDbArc
 50
83.79999999999638
 51
98.00000000000135
  0
ARC
  5
1E6
330
394
100
AcDbEntity
  8
DATA
  6
Continuous
 62
     7
100
AcDbCircle
 10
-262.8244000309988
 20
-1464.32651267638
 30
0.0
 40
9.245600000000122
100
AcDbArc
 50
98.00000000000162
 51
179.9999999999986
  0
ARC
  5
1E7
330
394
100
AcDbEntity
  8
DATA
  6
Continuous
 62
     7
100
AcDbCircle
 10
-262.8244000309988
 20
-1464.32651267638
 30
0.0
 40
12.24559996900055
100
AcDbArc
 50
98.00000000000089
 51
179.9999999999989
  0
LINE
  5
1E8
330
394
100
AcDbEntity
  8
DATA
  6
Continuous
 62
     7
100
AcDbLine
 10
-263.4012488985354
 20
-1456.103242090565
 30
0.0
 11
-30.00671043188595
 21
-1423.301778839482
 31
0.0
  0
LINE
  5
1E9
330
394
100
AcDbEntity
  8
DATA
  6
Continuous
 62
     7
100
AcDbLine
 10
-271.0540000309993
 20
-1497.539366122491
 30
0.0
 11
-271.0540000309993
 21
-1464.906725221677
 31
0.0
  0
LINE
  5
1EA
330
394
100
AcDbEntity
  8
DATA
  6
Continuous
 62
     7
100
AcDbLine
 10
-202.4740000309985
 20
-1486.744366122491
 30
0.0
 11
-225.334000030999
 21
-1486.744366122491
 31
0.0
  0
LINE
  5
1EB
330
394
100
AcDbEntity
  8
DATA
  6
Continuous
 62
     7
100
AcDbLine
 10
-199.9340000309994
 20
-1471.504366122491
 30
0.0
 11
-199.9340000309994
 21
-1484.204366122491
 31
0.0
  0
LINE
  5
1EC
330
394
100
AcDbEntity
  8
DATA
  6
Continuous
 62
     7
100
AcDbLine
 10
-225.334000030999
 20
-1468.964366122491
 30
0.0
 11
-202.4740000309985
 21
-1468.964366122491
 31
0.0
  0
LINE
  5
1ED
330
394
100
AcDbEntity
  8
DATA
  6
Continuous
 62
     7
100
AcDbLine
 10
-227.8740000309981
 20
-1484.204366122491
 30
0.0
 11
-227.8740000309981
 21
-1471.504366122491
 31
0.0
  0
LINE
  5
1EE
330
394
100
AcDbEntity
  8
DATA
  6
Continuous
 62
     7
100
AcDbLine
 10
-190.9012807738672
 20
-1444.881915657105
 30
0.0
 11
-190.8951572851893
 21
-1444.925486543044
 31
0.0
  0
LINE
  5
1EF
330
394
100
AcDbEntity
  8
DATA
  6
Continuous
 62
     7
100
AcDbLine
 10
-198.4409999689997
 20
-1445.98598557236
 30
0.0
 11
-198.4471234576777
 21
-1445.942414686421
 31
0.0
  0
LINE
  5
1F0
330
394
100
AcDbEntity
  8
DATA
  6
Continuous
 62
     7
100
AcDbLine
 10
-198.4409999689997
 20
-1445.98598557236
 30
0.0
 11
-263.100998674754
 21
-1455.073355762322
 31
0.0
  0
LINE
  5
1F1
330
394
100
AcDbEntity
  8
DATA
  6
Continuous
 62
     7
100
AcDbLine
 10
-271.8469999689987
 20
-1465.134479340736
 30
0.0
 11
-271.8469999690005
 21
-1507.44349987394
 31
0.0
  0
LINE
  5
1F2
330
394
100
AcDbEntity
  8
DATA
  6
Continuous
 62
     7
100
AcDbLine
 10
-219.0149999690002
 20
-1507.450575057725
 30
0.0
 11
-219.0149999690002
 21
-1507.44349987394
 31
0.0
  0
LINE
  5
1F3
330
394
100
AcDbEntity
  8
DATA
  6
Continuous
 62
     7
100
AcDbLine
 10
-211.1409999690004
 20
-1507.44349987394
 30
0.0
 11
-211.1409999690004
 21
-1507.450575057725
 31
0.0
  0
LINE
  5
1F4
330
394
100
AcDbEntity
  8
DATA
  6
Continuous
 62
     7
100
AcDbLine
 10
-2.352999968999938
 20
-1507.450575057725
 30
0.0
 11
-2.352999968999938
 21
-1507.44349987394
 31
0.0
  0
LINE
  5
1F5
330
394
100
AcDbEntity
  8
DATA
  6
Continuous
 62
     7
100
AcDbLine
 10
-29.93802328710445
 20
-1422.304436579648
 30
0.0
 11
-190.8951572851893
 21
-1444.925486543044
 31
0.0
  0
LINE
  5
1F6
330
394
100
AcDbEntity
  8
DATA
  6
Continuous
 62
     7
100
AcDbLine
 10
-275.3240000000005
 20
-1504.128168256873
 30
0.0
 11
-275.3240000000005
 21
-1462.541121513086
 31
0.0
  0
LINE
  5
1F7
330
394
100
AcDbEntity
  8
DATA
  6
Continuous
 62
     7
100
AcDbLine
 10
-266.577998705754
 20
-1452.479997934672
 30
0.0
 11
-223.1270000000004
 21
-1446.373358307912
 31
0.0
  0
LINE
  5
1F8
330
394
100
AcDbEntity
  8
DATA
  6
Continuous
 62
     7
100
AcDbLine
 10
-223.1270000000004
 20
-1446.373358307912
 30
0.0
 11
-223.1258830978822
 21
-1446.381305479424
 31
0.0
  0
LINE
  5
1F9
330
394
100
AcDbEntity
  8
DATA
  6
Continuous
 62
     7
100
AcDbLine
 10
-215.5800404140718
 20
-1445.320806450108
 30
0.0
 11
-215.5811573161881
 21
-1445.312859278596
 31
0.0
  0
LINE
  5
1FA
330
394
100
AcDbEntity
  8
DATA
  6
Continuous
 62
     7
100
AcDbLine
 10
-215.5811573161881
 20
-1445.312859278596
 30
0.0
 11
-52.94700000000012
 21
-1422.456119058259
 31
0.0
  0
LINE
  5
1FB
330
394
100
AcDbEntity
  8
DATA
  6
Continuous
 62
     7
100
AcDbLine
 10
-52.94700000000012
 20
-1422.456119058259
 30
0.0
 11
-52.94588309788196
 21
-1422.464066229771
 31
0.0
  0
LINE
  5
1FC
330
394
100
AcDbEntity
  8
DATA
  6
Continuous
 62
     7
100
AcDbLine
 10
-45.40004041407156
 20
-1421.403567200455
 30
0.0
 11
-45.40115731618788
 21
-1421.395620028943
 31
0.0
  0
LINE
  5
1FD
330
394
100
AcDbEntity
  8
DATA
  6
Continuous
 62
     7
100
AcDbLine
 10
-45.40115731618788
 20
-1421.395620028943
 30
0.0
 11
-30.19634713623964
 21
-1419.258723314762
 31
0.0
  0
LINE
  5
1FE
330
394
100
AcDbEntity
  8
DATA
  6
Continuous
 62
     7
100
AcDbLine
 10
-27.68507497651262
 20
-1419.219273099218
 30
0.0
 11
-27.39429538443619
 21
-1419.250861871683
 31
0.0
  0
LINE
  5
1FF
330
394
100
AcDbEntity
  8
DATA
  6
Continuous
 62
     7
100
AcDbLine
 10
-27.71829344820617
 20
-1422.233314732781
 30
0.0
 11
-27.39429538443619
 21
-1419.250861871682
 31
0.0
  0
LINE
  5
200
330
394
100
AcDbEntity
  8
DATA
  6
Continuous
 62
     7
100
AcDbLine
 10
-264.1111388532353
 20
-1455.170890220023
 30
0.0
 11
-264.5286581518012
 21
-1452.200086044497
 31
0.0
  0
LINE
  5
201
330
394
100
AcDbEntity
  8
DATA
  6
Continuous
 62
     7
100
AcDbLine
 10
-264.1111388532353
 20
-1455.170890220023
 30
0.0
 11
-30.0035511135593
 21
-1422.269214428926
 31
0.0
  0
LINE
  5
202
330
394
100
AcDbEntity
  8
DATA
  6
Continuous
 62
     7
100
AcDbLine
 10
-30.42107041212512
 20
-1419.298410253399
 30
0.0
 11
-30.0035511135593
 21
-1422.269214428926
 31
0.0
  0
LINE
  5
203
330
394
100
AcDbEntity
  8
DATA
  6
Continuous
 62
     7
100
AcDbLine
 10
-264.5286581518012
 20
-1452.200086044497
 30
0.0
 11
-30.42107041212512
 21
-1419.298410253399
 31
0.0
  0
LINE
  5
204
330
394
100
AcDbEntity
  8
DATA
  6
Continuous
 62
     7
100
AcDbLine
 10
-275.0699999999997
 20
-1464.32651267638
 30
0.0
 11
-272.0700000309989
 21
-1464.32651267638
 31
0.0
  0
LINE
  5
205
330
394
100
AcDbEntity
  8
DATA
  6
Continuous
 62
     7
100
AcDbLine
 10
-275.0699999999997
 20
-1510.450575026726
 30
0.0
 11
-275.0699999999997
 21
-1464.32651267638
 31
0.0
  0
LINE
  5
206
330
394
100
AcDbEntity
  8
DATA
  6
Continuous
 62
     7
100
AcDbLine
 10
-272.0700000309989
 20
-1510.450575026726
 30
0.0
 11
-272.0700000309989
 21
-1464.32651267638
 31
0.0
  0
LINE
  5
207
330
394
100
AcDbEntity
  8
DATA
  6
Continuous
 62
     7
100
AcDbLine
 10
-271.816000031
 20
-1510.450575026726
 30
0.0
 11
-271.816000031
 21
-1507.450575057725
 31
0.0
  0
ARC
  5
208
330
394
100
AcDbEntity
  8
DATA
  6
Continuous
 62
     7
100
AcDbCircle
 10
-30.96866828334532
 20
-1389.064693701562
 30
0.0
 40
16.51000000000043
100
AcDbArc
 50
83.79999999999657
 51
97.99999999999613
  0
LINE
  5
209
330
394
100
AcDbEntity
  8
DATA
  6
Continuous
 62
     7
100
AcDbLine
 10
-27.80934729212459
 20
-1423.267259900881
 30
0.0
 11
323.8851142412277
 21
-1461.47350485508
 31
0.0
  0
LINE
  5
20A
330
394
100
AcDbEntity
  8
DATA
  6
Continuous
 62
     7
100
AcDbLine
 10
66.10000003099958
 20
-1507.443499873939
 30
0.0
 11
174.3294000309997
 21
-1507.443499873939
 31
0.0
  0
LINE
  5
20B
330
394
100
AcDbEntity
  8
DATA
  6
Continuous
 62
     7
100
AcDbLine
 10
174.3294000309997
 20
-1507.450575057724
 30
0.0
 11
174.3294000309997
 21
-1507.443499873939
 31
0.0
  0
LINE
  5
20C
330
394
100
AcDbEntity
  8
DATA
  6
Continuous
 62
     7
100
AcDbLine
 10
369.5870693627076
 20
-1415.971836137191
 30
0.0
 11
-29.18559892063786
 21
-1372.651261286379
 31
0.0
  0
LINE
  5
20D
330
394
100
AcDbEntity
  8
DATA
  6
Continuous
 62
     7
100
AcDbLine
 10
-27.71829344820617
 20
-1422.233314732781
 30
0.0
 11
325.0609188741163
 21
-1460.557401333322
 31
0.0
  0
LINE
  5
20E
330
394
100
AcDbEntity
  8
DATA
  6
Continuous
 62
     7
100
AcDbLine
 10
-27.39429538443619
 20
-1419.250861871682
 30
0.0
 11
325.3849169378864
 21
-1457.574948472224
 31
0.0
  0
LINE
  5
20F
330
394
100
AcDbEntity
  8
DATA
  6
Continuous
 62
     7
100
AcDbLine
 10
235.2640000310003
 20
-1507.450575057725
 30
0.0
 11
-271.816000031
 21
-1507.450575057725
 31
0.0
  0
ARC
  5
210
330
394
100
AcDbEntity
  8
DATA
  6
Continuous
 62
     7
100
AcDbCircle
 10
231.8659999690008
 20
-1502.619366122491
 30
0.0
 40
3.810000000000171
100
AcDbArc
 50
270.0
 51
0.0
  0
ARC
  5
211
330
394
100
AcDbEntity
  8
DATA
  6
Continuous
 62
     7
100
AcDbCircle
 10
259.0439999690007
 20
-1486.363366122491
 30
0.0
 40
23.3680000000004
100
AcDbArc
 50
0.0
 51
180.0
  0
ARC
  5
212
330
394
100
AcDbEntity
  8
DATA
  6
Continuous
 62
     7
100
AcDbCircle
 10
286.2219999690005
 20
-1502.619366122491
 30
0.0
 40
3.80999999999949
100
AcDbArc
 50
180.0
 51
270.0
  0
ARC
  5
213
330
394
100
AcDbEntity
  8
DATA
  6
Continuous
 62
     7
100
AcDbCircle
 10
322.9249999690001
 20
-1497.539366122491
 30
0.0
 40
8.8900000000001
100
AcDbArc
 50
270.0
 51
0.0
  0
ARC
  5
214
330
394
100
AcDbEntity
  8
DATA
  6
Continuous
 62
     7
100
AcDbCircle
 10
322.9249999690001
 20
-1470.311506924793
 30
0.0
 40
8.890000000001236
100
AcDbArc
 50
0.0
 51
83.79999999999302
  0
ARC
  5
215
330
394
100
AcDbEntity
  8
DATA
  6
Continuous
 62
     7
100
AcDbCircle
 10
322.8940000310013
 20
-1470.541774452486
 30
0.0
 40
10.15999999999985
100
AcDbArc
 50
0.0
 51
83.79999999999709
  0
CIRCLE
  5
216
330
394
100
AcDbEntity
  8
DATA
  6
Continuous
 62
     7
100
AcDbCircle
 10
259.0130000310001
 20
-1486.363366122489
 30
0.0
 40
10.15999999999985
  0
ARC
  5
217
330
394
100
AcDbEntity
  8
DATA
  6
Continuous
 62
     7
100
AcDbCircle
 10
367.8040000000001
 20
-1493.968168256871
 30
0.0
 40
16.50999999999999
100
AcDbArc
 50
270.0
 51
0.0000000000007958
  0
ARC
  5
218
330
394
100
AcDbEntity
  8
DATA
  6
Continuous
 62
     7
100
AcDbCircle
 10
367.8040000000001
 20
-1432.385268552375
 30
0.0
 40
16.51000000000022
100
AcDbArc
 50
0.0
 51
83.79999999999654
  0
ARC
  5
219
330
394
100
AcDbEntity
  8
DATA
  6
Continuous
 62
     7
100
AcDbCircle
 10
326.4020000000018
 20
-1467.905214888074
 30
0.0
 40
10.15999999999985
100
AcDbArc
 50
0.0000000000012506
 51
83.80000000000746
  0
ARC
  5
21A
330
394
100
AcDbEntity
  8
DATA
  6
Continuous
 62
     7
100
AcDbCircle
 10
324.0624000309999
 20
-1469.748923485825
 30
0.0
 40
9.245600000000193
100
AcDbArc
 50
0.0
 51
83.7999999999946
  0
ARC
  5
21B
330
394
100
AcDbEntity
  8
DATA
  6
Continuous
 62
     7
100
AcDbCircle
 10
324.0624000309999
 20
-1469.748923485825
 30
0.0
 40
12.24559996900097
100
AcDbArc
 50
0.0
 51
83.79999999999654
  0
LINE
  5
21C
330
394
100
AcDbEntity
  8
DATA
  6
Continuous
 62
     7
100
AcDbLine
 10
235.6759999690002
 20
-1486.363366122491
 30
0.0
 11
235.6759999690002
 21
-1502.619366122491
 31
0.0
  0
LINE
  5
21D
330
394
100
AcDbEntity
  8
DATA
  6
Continuous
 62
     7
100
AcDbLine
 10
282.411999969001
 20
-1502.619366122491
 30
0.0
 11
282.411999969001
 21
-1486.363366122491
 31
0.0
  0
LINE
  5
21E
330
394
100
AcDbEntity
  8
DATA
  6
Continuous
 62
     7
100
AcDbLine
 10
322.9249999690001
 20
-1506.429366122491
 30
0.0
 11
286.2219999690005
 21
-1506.429366122491
 31
0.0
  0
LINE
  5
21F
330
394
100
AcDbEntity
  8
DATA
  6
Continuous
 62
     7
100
AcDbLine
 10
331.8149999690013
 20
-1470.311506924793
 30
0.0
 11
331.8149999690013
 21
-1497.539366122491
 31
0.0
  0
LINE
  5
220
330
394
100
AcDbEntity
  8
DATA
  6
Continuous
 62
     7
100
AcDbLine
 10
182.2034000310013
 20
-1507.443499873939
 30
0.0
 11
182.2034000310013
 21
-1507.450575057724
 31
0.0
  0
LINE
  5
221
330
394
100
AcDbEntity
  8
DATA
  6
Continuous
 62
     7
100
AcDbLine
 10
182.2034000310013
 20
-1507.443499873939
 30
0.0
 11
235.2640000310003
 21
-1507.443499873938
 31
0.0
  0
LINE
  5
222
330
394
100
AcDbEntity
  8
DATA
  6
Continuous
 62
     7
100
AcDbLine
 10
235.2640000310003
 20
-1509.983499873938
 30
0.0
 11
235.2640000310003
 21
-1507.443499873938
 31
0.0
  0
LINE
  5
223
330
394
100
AcDbEntity
  8
DATA
  6
Continuous
 62
     7
100
AcDbLine
 10
282.7620000309998
 20
-1509.983499873938
 30
0.0
 11
235.2640000310003
 21
-1509.983499873938
 31
0.0
  0
LINE
  5
224
330
394
100
AcDbEntity
  8
DATA
  6
Continuous
 62
     7
100
AcDbLine
 10
282.7620000309998
 20
-1507.443499873938
 30
0.0
 11
282.7620000309998
 21
-1509.983499873938
 31
0.0
  0
LINE
  5
225
330
394
100
AcDbEntity
  8
DATA
  6
Continuous
 62
     7
100
AcDbLine
 10
282.7620000309998
 20
-1507.443499873938
 30
0.0
 11
333.0540000310011
 21
-1507.443499873938
 31
0.0
  0
LINE
  5
226
330
394
100
AcDbEntity
  8
DATA
  6
Continuous
 62
     7
100
AcDbLine
 10
333.0540000310011
 20
-1507.443499873938
 30
0.0
 11
333.0540000310011
 21
-1470.541774452486
 31
0.0
  0
LINE
  5
227
330
394
100
AcDbEntity
  8
DATA
  6
Continuous
 62
     7
100
AcDbLine
 10
384.3140000000003
 20
-1493.968168256871
 30
0.0
 11
384.3140000000003
 21
-1432.385268552375
 31
0.0
  0
LINE
  5
228
330
394
100
AcDbEntity
  8
DATA
  6
Continuous
 62
     7
100
AcDbLine
 10
325.3849169378864
 20
-1457.574948472224
 30
0.0
 11
327.4992734539737
 21
-1457.804641094115
 31
0.0
  0
LINE
  5
229
330
394
100
AcDbEntity
  8
DATA
  6
Continuous
 62
     7
100
AcDbLine
 10
336.5620000000017
 20
-1467.905214888073
 30
0.0
 11
336.5619999999999
 21
-1504.128168256871
 31
0.0
  0
LINE
  5
22A
330
394
100
AcDbEntity
  8
DATA
  6
Continuous
 62
     7
100
AcDbLine
 10
342.9120000000003
 20
-1510.478168256871
 30
0.0
 11
336.5619999999999
 21
-1504.128168256871
 31
0.0
  0
LINE
  5
22B
330
394
100
AcDbEntity
  8
DATA
  6
Continuous
 62
     7
100
AcDbLine
 10
342.9120000000003
 20
-1510.478168256871
 30
0.0
 11
367.8040000000001
 21
-1510.478168256871
 31
0.0
  0
LINE
  5
22C
330
394
100
AcDbEntity
  8
DATA
  6
Continuous
 62
     7
100
AcDbLine
 10
336.3080000000009
 20
-1469.748923485825
 30
0.0
 11
336.3080000000009
 21
-1510.450575026725
 31
0.0
  0
LINE
  5
22D
330
394
100
AcDbEntity
  8
DATA
  6
Continuous
 62
     7
100
AcDbLine
 10
333.3080000310001
 20
-1469.748923485825
 30
0.0
 11
336.3080000000009
 21
-1469.748923485825
 31
0.0
  0
LINE
  5
22E
330
394
100
AcDbEntity
  8
DATA
  6
Continuous
 62
     7
100
AcDbLine
 10
333.3080000310001
 20
-1469.748923485825
 30
0.0
 11
333.3080000310001
 21
-1510.450575026725
 31
0.0
  0
LINE
  5
22F
330
394
100
AcDbEntity
  8
DATA
  6
Continuous
 62
     7
100
AcDbLine
 10
336.3080000000009
 20
-1510.450575026725
 30
0.0
 11
333.3080000310001
 21
-1510.450575026725
 31
0.0
  0
LINE
  5
230
330
394
100
AcDbEntity
  8
DATA
  6
Continuous
 62
     7
100
AcDbLine
 10
325.3849169378864
 20
-1457.574948472224
 30
0.0
 11
325.0609188741163
 21
-1460.557401333322
 31
0.0
  0
LINE
  5
231
330
394
100
AcDbEntity
  8
DATA
  6
Continuous
 62
     7
100
AcDbLine
 10
333.084999969
 20
-1507.450575057724
 30
0.0
 11
282.7620000309998
 21
-1507.450575057725
 31
0.0
  0
LINE
  5
232
330
394
100
AcDbEntity
  8
DATA
  6
Continuous
 62
     7
100
AcDbLine
 10
285.0470000330006
 20
-1510.450575026725
 30
0.0
 11
285.0470000330006
 21
-1507.450575057724
 31
0.0
  0
LINE
  5
233
330
394
100
AcDbEntity
  8
DATA
  6
Continuous
 62
     7
100
AcDbLine
 10
333.084999969
 20
-1510.450575026725
 30
0.0
 11
333.084999969
 21
-1507.450575057724
 31
0.0
  0
LINE
  5
234
330
394
100
AcDbEntity
  8
DATA
  6
Continuous
 62
     7
100
AcDbLine
 10
283.0469999690013
 20
-1507.450575057724
 30
0.0
 11
283.0469999690013
 21
-1510.450575026725
 31
0.0
  0
LINE
  5
235
330
394
100
AcDbEntity
  8
DATA
  6
Continuous
 62
     7
100
AcDbLine
 10
235.040999969
 20
-1510.450575026725
 30
0.0
 11
235.040999969
 21
-1507.450575057724
 31
0.0
  0
LINE
  5
236
330
394
100
AcDbEntity
  8
DATA
  6
Continuous
 62
     7
100
AcDbLine
 10
233.0409999050007
 20
-1507.450575057724
 30
0.0
 11
233.0409999050007
 21
-1510.450575026725
 31
0.0
  0
ARC
  5
237
330
394
100
AcDbEntity
  8
DATA
  6
Continuous
 62
     7
100
AcDbCircle
 10
-220.7156107909987
 20
-1480.664449982491
 30
0.0
 40
2.986312266344183
100
AcDbArc
 50
264.6908562215347
 51
323.9911991542457
  0
ARC
  5
238
330
394
100
AcDbEntity
  8
DATA
  6
Continuous
 62
     7
100
AcDbCircle
 10
-221.2682431309986
 20
-1480.664449982491
 30
0.0
 40
2.986307416384186
100
AcDbArc
 50
216.0088008457565
 51
275.3091437784627
  0
ARC
  5
239
330
394
100
AcDbEntity
  8
DATA
  6
Continuous
 62
     7
100
AcDbCircle
 10
-213.1271557309987
 20
-1481.439638342491
 30
0.0
 40
2.203224014769606
100
AcDbArc
 50
273.8309816091137
 51
351.1351473098024
  0
ARC
  5
23A
330
394
100
AcDbEntity
  8
DATA
  6
Continuous
 62
     7
100
AcDbCircle
 10
-213.1051884709987
 20
-1474.252905062491
 30
0.0
 40
2.19988726231151
100
AcDbArc
 50
8.226923859016402
 51
86.15412669215393
  0
ARC
  5
23B
330
394
100
AcDbEntity
  8
DATA
  6
Continuous
 62
     7
100
AcDbCircle
 10
-213.3472552119809
 20
-1481.998681318142
 30
0.0
 40
0.3691508469596477
100
AcDbArc
 50
307.6419024975787
 51
354.2670192893835
  0
LINE
  5
23C
330
394
100
AcDbEntity
  8
DATA
  6
Continuous
 62
     7
100
AcDbLine
 10
-222.8293429309988
 20
-1476.181461422491
 30
0.0
 11
-221.0987582509988
 21
-1472.057962382491
 31
0.0
  0
LINE
  5
23D
330
394
100
AcDbEntity
  8
DATA
  6
Continuous
 62
     7
100
AcDbLine
 10
-222.8293429309988
 20
-1476.181461422491
 30
0.0
 11
-224.5385740909988
 21
-1472.057962382491
 31
0.0
  0
LINE
  5
23E
330
394
100
AcDbEntity
  8
DATA
  6
Continuous
 62
     7
100
AcDbLine
 10
-209.7110557309987
 20
-1483.637962382491
 30
0.0
 11
-209.7110557309987
 21
-1472.057962382491
 31
0.0
  0
LINE
  5
23F
330
394
100
AcDbEntity
  8
DATA
  6
Continuous
 62
     7
100
AcDbLine
 10
-207.4890621709987
 20
-1472.057962382491
 30
0.0
 11
-207.4890621709987
 21
-1481.864647502491
 31
0.0
  0
LINE
  5
240
330
394
100
AcDbEntity
  8
DATA
  6
Continuous
 62
     7
100
AcDbLine
 10
-220.2868728709987
 20
-1472.057962382491
 30
0.0
 11
-220.2868728709987
 21
-1481.864647502491
 31
0.0
  0
LINE
  5
241
330
394
100
AcDbEntity
  8
DATA
  6
Continuous
 62
     7
100
AcDbLine
 10
-218.1503397109987
 20
-1472.057962382491
 30
0.0
 11
-218.1503397109987
 21
-1481.864647502491
 31
0.0
  0
LINE
  5
242
330
394
100
AcDbEntity
  8
DATA
  6
Continuous
 62
     7
100
AcDbLine
 10
-217.0393429309988
 20
-1472.057962382491
 30
0.0
 11
-217.0393429309988
 21
-1483.637962382491
 31
0.0
  0
LINE
  5
243
330
394
100
AcDbEntity
  8
DATA
  6
Continuous
 62
     7
100
AcDbLine
 10
-215.0950956709986
 20
-1473.147582482491
 30
0.0
 11
-215.0950956709986
 21
-1476.865156202491
 31
0.0
  0
LINE
  5
244
330
394
100
AcDbEntity
  8
DATA
  6
Continuous
 62
     7
100
AcDbLine
 10
-210.9279400309988
 20
-1476.650046122491
 30
0.0
 11
-210.9279400309988
 21
-1473.938114342491
 31
0.0
  0
LINE
  5
245
330
394
100
AcDbEntity
  8
DATA
  6
Continuous
 62
     7
100
AcDbLine
 10
-212.9799507709988
 20
-1473.660356462491
 30
0.0
 11
-212.9799507709988
 21
-1476.352393802491
 31
0.0
  0
LINE
  5
246
330
394
100
AcDbEntity
  8
DATA
  6
Continuous
 62
     7
100
AcDbLine
 10
-221.9106320509988
 20
-1480.005849062491
 30
0.0
 11
-221.9106320509988
 21
-1481.864624342491
 31
0.0
  0
LINE
  5
247
330
394
100
AcDbEntity
  8
DATA
  6
Continuous
 62
     7
100
AcDbLine
 10
-221.9106320509988
 20
-1480.005849062491
 30
0.0
 11
-223.8335142109988
 21
-1480.005849062491
 31
0.0
  0
LINE
  5
248
330
394
100
AcDbEntity
  8
DATA
  6
Continuous
 62
     7
100
AcDbLine
 10
-223.8335142109988
 20
-1480.005849062491
 30
0.0
 11
-223.8335142109988
 21
-1481.864624342491
 31
0.0
  0
ARC
  5
249
330
394
100
AcDbEntity
  8
DATA
  6
Continuous
 62
     7
100
AcDbCircle
 10
-221.0946820909987
 20
-1481.889683462491
 30
0.0
 40
0.8082015807887586
100
AcDbArc
 50
269.7118487927444
 51
1.775987005686204
  0
ARC
  5
24A
330
394
100
AcDbEntity
  8
DATA
  6
Continuous
 62
     7
100
AcDbCircle
 10
-221.1028228309987
 20
-1481.889683462491
 30
0.0
 40
0.8081974481382021
100
AcDbArc
 50
178.2240129943095
 51
270.2881512072484
  0
ARC
  5
24B
330
394
100
AcDbEntity
  8
DATA
  6
Continuous
 62
     7
100
AcDbCircle
 10
-222.4839346909988
 20
-1481.799162602491
 30
0.0
 40
1.351154641068014
100
AcDbArc
 50
182.7769954499957
 51
207.3596066671495
  0
CIRCLE
  5
24C
330
394
100
AcDbEntity
  8
DATA
  6
Continuous
 62
     7
100
AcDbCircle
 10
-222.7118290909987
 20
-1477.783867082491
 30
0.0
 40
1.100308439999934
  0
LINE
  5
24D
330
394
100
AcDbEntity
  8
DATA
  6
Continuous
 62
     7
100
AcDbLine
 10
-203.9210557309987
 20
-1483.637950802491
 30
0.0
 11
-209.7110557309987
 21
-1483.637950802491
 31
0.0
  0
LINE
  5
24E
330
394
100
AcDbEntity
  8
DATA
  6
Continuous
 62
     7
100
AcDbLine
 10
-203.9210557309987
 20
-1483.637950802491
 30
0.0
 11
-203.9210557309987
 21
-1480.005837482491
 31
0.0
  0
LINE
  5
24F
330
394
100
AcDbEntity
  8
DATA
  6
Continuous
 62
     7
100
AcDbLine
 10
-203.9210557309987
 20
-1480.005849062491
 30
0.0
 11
-205.8652914109988
 21
-1480.005849062491
 31
0.0
  0
LINE
  5
250
330
394
100
AcDbEntity
  8
DATA
  6
Continuous
 62
     7
100
AcDbLine
 10
-205.8652914109988
 20
-1480.005849062491
 30
0.0
 11
-205.8652914109988
 21
-1481.864624342491
 31
0.0
  0
LINE
  5
251
330
394
100
AcDbEntity
  8
DATA
  6
Continuous
 62
     7
100
AcDbLine
 10
-217.0393429309988
 20
-1483.637950802491
 30
0.0
 11
-212.9799507709988
 21
-1483.637939222491
 31
0.0
  0
LINE
  5
252
330
394
100
AcDbEntity
  8
DATA
  6
Continuous
 62
     7
100
AcDbLine
 10
-215.0951072509987
 20
-1482.548319122491
 30
0.0
 11
-214.0482057709988
 21
-1482.548319122491
 31
0.0
  0
LINE
  5
253
330
394
100
AcDbEntity
  8
DATA
  6
Continuous
 62
     7
100
AcDbLine
 10
-215.0950956709986
 20
-1482.548319122491
 30
0.0
 11
-215.0950956709986
 21
-1477.976141402491
 31
0.0
  0
LINE
  5
254
330
394
100
AcDbEntity
  8
DATA
  6
Continuous
 62
     7
100
AcDbLine
 10
-215.0951072509987
 20
-1477.976141402491
 30
0.0
 11
-214.0482057709988
 21
-1477.976141402491
 31
0.0
  0
LINE
  5
255
330
394
100
AcDbEntity
  8
DATA
  6
Continuous
 62
     7
100
AcDbLine
 10
-212.9799507709988
 20
-1482.035556722491
 30
0.0
 11
-212.9799507709988
 21
-1478.488903802491
 31
0.0
  0
ARC
  5
256
330
394
100
AcDbEntity
  8
DATA
  6
Continuous
 62
     7
100
AcDbCircle
 10
-219.4999192309988
 20
-1481.799162602491
 30
0.0
 40
1.35115271842783
100
AcDbArc
 50
332.6403933328411
 51
357.2230045500063
  0
ARC
  5
257
330
394
100
AcDbEntity
  8
DATA
  6
Continuous
 62
     7
100
AcDbCircle
 10
-206.6731122109988
 20
-1481.889683462491
 30
0.0
 40
0.8082015807887575
100
AcDbArc
 50
269.7118487927605
 51
1.775987005686259
  0
ARC
  5
258
330
394
100
AcDbEntity
  8
DATA
  6
Continuous
 62
     7
100
AcDbCircle
 10
-206.6812413709988
 20
-1481.889683462491
 30
0.0
 40
0.8081974481381454
100
AcDbArc
 50
178.2240129943094
 51
270.2881512072484
  0
LINE
  5
259
330
394
100
AcDbEntity
  8
DATA
  6
Continuous
 62
     7
100
AcDbLine
 10
-210.9288780109987
 20
-1481.779163942491
 30
0.0
 11
-210.9288780109987
 21
-1478.702566382491
 31
0.0
  0
LINE
  5
25A
330
394
100
AcDbEntity
  8
DATA
  6
Continuous
 62
     7
100
AcDbLine
 10
-215.0951072509987
 20
-1476.865156202491
 30
0.0
 11
-214.0482057709988
 21
-1476.865156202491
 31
0.0
  0
LINE
  5
25B
330
394
100
AcDbEntity
  8
DATA
  6
Continuous
 62
     7
100
AcDbLine
 10
-220.2868728709987
 20
-1472.057962382491
 30
0.0
 11
-218.1503397109987
 21
-1472.057962382491
 31
0.0
  0
LINE
  5
25C
330
394
100
AcDbEntity
  8
DATA
  6
Continuous
 62
     7
100
AcDbLine
 10
-224.5385740909988
 20
-1472.057962382491
 30
0.0
 11
-221.0987582509988
 21
-1472.057962382491
 31
0.0
  0
LINE
  5
25D
330
394
100
AcDbEntity
  8
DATA
  6
Continuous
 62
     7
100
AcDbLine
 10
-209.7110557309987
 20
-1472.057962382491
 30
0.0
 11
-207.4890621709987
 21
-1472.057962382491
 31
0.0
  0
LINE
  5
25E
330
394
100
AcDbEntity
  8
DATA
  6
Continuous
 62
     7
100
AcDbLine
 10
-217.0393429309988
 20
-1472.057962382491
 30
0.0
 11
-212.9576359626049
 21
-1472.057971755042
 31
0.0
  0
LINE
  5
25F
330
394
100
AcDbEntity
  8
DATA
  6
Continuous
 62
     7
100
AcDbLine
 10
-215.0951072509987
 20
-1473.147594062491
 30
0.0
 11
-214.0482057709988
 21
-1473.147594062491
 31
0.0
  0
ARC
  5
260
330
394
100
AcDbEntity
  8
DATA
  6
Continuous
 62
     7
100
AcDbCircle
 10
-214.0358435853042
 20
-1480.517548464131
 30
0.0
 40
2.03080828501622
100
AcDbArc
 50
269.6512199376172
 51
282.8264828068725
  0
ARC
  5
261
330
394
100
AcDbEntity
  8
DATA
  6
Continuous
 62
     7
100
AcDbCircle
 10
-213.8077516711923
 20
-1481.376133982892
 30
0.0
 40
1.143453092476893
100
AcDbArc
 50
281.2331036226559
 51
306.8620088940652
  0
ARC
  5
262
330
394
100
AcDbEntity
  8
DATA
  6
Continuous
 62
     7
100
AcDbCircle
 10
-213.3472552119809
 20
-1478.525779206839
 30
0.0
 40
0.3691508469596478
100
AcDbArc
 50
5.732980710546294
 51
52.35809750242137
  0
ARC
  5
263
330
394
100
AcDbEntity
  8
DATA
  6
Continuous
 62
     7
100
AcDbCircle
 10
-214.0358435853042
 20
-1480.006912060851
 30
0.0
 40
2.030808285015996
100
AcDbArc
 50
77.17351719312597
 51
90.34878006238287
  0
ARC
  5
264
330
394
100
AcDbEntity
  8
DATA
  6
Continuous
 62
     7
100
AcDbCircle
 10
-213.8077516711923
 20
-1479.14832654209
 30
0.0
 40
1.143453092476802
100
AcDbArc
 50
53.1379911059394
 51
78.76689637734414
  0
ARC
  5
265
330
394
100
AcDbEntity
  8
DATA
  6
Continuous
 62
     7
100
AcDbCircle
 10
-212.0494514509987
 20
-1478.778311162491
 30
0.0
 40
1.123130493812072
100
AcDbArc
 50
3.867006359829849
 51
88.36163456790499
  0
ARC
  5
266
330
394
100
AcDbEntity
  8
DATA
  6
Continuous
 62
     7
100
AcDbCircle
 10
-212.0504820709987
 20
-1476.531883802491
 30
0.0
 40
1.124246546458985
100
AcDbArc
 50
271.6892821046471
 51
356.0782829826706
  0
ARC
  5
267
330
394
100
AcDbEntity
  8
DATA
  6
Continuous
 62
     7
100
AcDbCircle
 10
-213.3472552119809
 20
-1476.315518398143
 30
0.0
 40
0.3691508469596477
100
AcDbArc
 50
307.6419024975787
 51
354.2670192893835
  0
ARC
  5
268
330
394
100
AcDbEntity
  8
DATA
  6
Continuous
 62
     7
100
AcDbCircle
 10
-214.0358435853042
 20
-1474.834385544131
 30
0.0
 40
2.03080828501622
100
AcDbArc
 50
269.6512199376172
 51
282.8264828068725
  0
ARC
  5
269
330
394
100
AcDbEntity
  8
DATA
  6
Continuous
 62
     7
100
AcDbCircle
 10
-213.8077516711923
 20
-1475.692971062892
 30
0.0
 40
1.143453092476669
100
AcDbArc
 50
281.2331036226582
 51
306.862008894056
  0
ARC
  5
26A
330
394
100
AcDbEntity
  8
DATA
  6
Continuous
 62
     7
100
AcDbCircle
 10
-213.3472552119809
 20
-1473.697231866839
 30
0.0
 40
0.3691508469596933
100
AcDbArc
 50
5.732980710616523
 51
52.35809750244293
  0
ARC
  5
26B
330
394
100
AcDbEntity
  8
DATA
  6
Continuous
 62
     7
100
AcDbCircle
 10
-214.0358435853042
 20
-1475.178364720851
 30
0.0
 40
2.030808285016219
100
AcDbArc
 50
77.17351719312739
 51
90.34878006238285
  0
ARC
  5
26C
330
394
100
AcDbEntity
  8
DATA
  6
Continuous
 62
     7
100
AcDbCircle
 10
-213.8077516711923
 20
-1474.31977920209
 30
0.0
 40
1.143453092476802
100
AcDbArc
 50
53.1379911059394
 51
78.76689637734414
  0
ARC
  5
26D
330
394
100
AcDbEntity
  8
DATA
  6
Continuous
 62
     7
100
AcDbCircle
 10
-101.7939999689988
 20
-1485.903366122491
 30
0.0
 40
11.99999999999999
100
AcDbArc
 50
214.9999999999998
 51
325.0000000000003
  0
ARC
  5
26E
330
394
100
AcDbEntity
  8
DATA
  6
Continuous
 62
     7
100
AcDbCircle
 10
-101.7939999689988
 20
-1485.903366122491
 30
0.0
 40
35.00000000000011
100
AcDbArc
 50
38.66517721932283
 51
141.3348227806824
  0
LINE
  5
26F
330
394
100
AcDbEntity
  8
DATA
  6
Continuous
 62
     7
100
AcDbLine
 10
-111.6238245004665
 20
-1492.786283358703
 30
0.0
 11
-129.2373846863592
 21
-1467.631512487588
 31
0.0
  0
LINE
  5
270
330
394
100
AcDbEntity
  8
DATA
  6
Continuous
 62
     7
100
AcDbLine
 10
-91.96417543753121
 20
-1492.786283358703
 30
0.0
 11
-74.35061525163256
 21
-1467.631512487579
 31
0.0
  0
ARC
  5
271
330
394
100
AcDbEntity
  8
DATA
  6
Continuous
 62
     7
100
AcDbCircle
 10
-126.7799285534983
 20
-1465.910783178539
 30
0.0
 40
2.99999999999252
100
AcDbArc
 50
141.3348227805452
 51
215.0
  0
ARC
  5
272
330
394
100
AcDbEntity
  8
DATA
  6
Continuous
 62
     7
100
AcDbCircle
 10
-76.80807138448216
 20
-1465.910783178539
 30
0.0
 40
2.999999999978818
100
AcDbArc
 50
325.0000000000006
 51
38.66517721971451
  0
ARC
  5
273
330
394
100
AcDbEntity
  8
DATA
  6
Continuous
 62
     7
100
AcDbCircle
 10
138.236000031
 20
-1485.90336612249
 30
0.0
 40
11.99999999999999
100
AcDbArc
 50
214.9999999999998
 51
325.0000000000003
  0
ARC
  5
274
330
394
100
AcDbEntity
  8
DATA
  6
Continuous
 62
     7
100
AcDbCircle
 10
138.236000031
 20
-1485.90336612249
 30
0.0
 40
35.00000000000007
100
AcDbArc
 50
38.66517721932289
 51
141.3348227806824
  0
LINE
  5
275
330
394
100
AcDbEntity
  8
DATA
  6
Continuous
 62
     7
100
AcDbLine
 10
128.4061754995323
 20
-1492.786283358702
 30
0.0
 11
110.7926153136395
 21
-1467.631512487587
 31
0.0
  0
LINE
  5
276
330
394
100
AcDbEntity
  8
DATA
  6
Continuous
 62
     7
100
AcDbLine
 10
148.0658245624677
 20
-1492.786283358702
 30
0.0
 11
165.6793847483662
 21
-1467.631512487578
 31
0.0
  0
ARC
  5
277
330
394
100
AcDbEntity
  8
DATA
  6
Continuous
 62
     7
100
AcDbCircle
 10
113.2500714465005
 20
-1465.910783178538
 30
0.0
 40
2.99999999999252
100
AcDbArc
 50
141.3348227805452
 51
214.9999999999993
  0
ARC
  5
278
330
394
100
AcDbEntity
  8
DATA
  6
Continuous
 62
     7
100
AcDbCircle
 10
163.2219286155166
 20
-1465.910783178538
 30
0.0
 40
2.999999999978911
100
AcDbArc
 50
325.0000000000019
 51
38.66517721971451
  0
CIRCLE
  5
279
330
394
100
AcDbEntity
  8
DATA
  6
Continuous
 62
     7
100
AcDbCircle
 10
-101.763000031
 20
-1485.855366122491
 30
0.0
 40
5.5
  0
CIRCLE
  5
27A
330
394
100
AcDbEntity
  8
DATA
  6
Continuous
 62
     7
100
AcDbCircle
 10
138.236000031
 20
-1485.90336612249
 30
0.0
 40
9.0
  0
CIRCLE
  5
27B
330
394
100
AcDbEntity
  8
DATA
  6
Continuous
 62
     7
100
AcDbCircle
 10
138.236000031
 20
-1485.90336612249
 30
0.0
 40
5.5
  0
CIRCLE
  5
27C
330
394
100
AcDbEntity
  8
DATA
  6
Continuous
 62
     7
100
AcDbCircle
 10
-127.1617299992485
 20
-1482.934366122491
 30
0.0
 40
1.968499999999266
  0
CIRCLE
  5
27D
330
394
100
AcDbEntity
  8
DATA
  6
Continuous
 62
     7
100
AcDbCircle
 10
-127.1617299992485
 20
-1482.934366122491
 30
0.0
 40
5.068023934142071
  0
CIRCLE
  5
27E
330
394
100
AcDbEntity
  8
DATA
  6
Continuous
 62
     7
100
AcDbCircle
 10
-127.1617299992485
 20
-1482.934366122491
 30
0.0
 40
4.94102393414167
  0
ARC
  5
27F
330
394
100
AcDbEntity
  8
DATA
  6
Continuous
 62
     7
100
AcDbCircle
 10
-125.7712144824711
 20
-1485.342809646265
 30
0.0
 40
1.304465713660784
100
AcDbArc
 50
86.26364305132341
 51
153.7363569486271
  0
ARC
  5
280
330
394
100
AcDbEntity
  8
DATA
  6
Continuous
 62
     7
100
AcDbCircle
 10
-125.6700609992726
 20
-1483.795555255743
 30
0.0
 40
0.2460901209659492
100
AcDbArc
 50
266.2508817872456
 51
33.96400176884455
  0
ARC
  5
281
330
394
100
AcDbEntity
  8
DATA
  6
Continuous
 62
     7
100
AcDbCircle
 10
-124.3806989656925
 20
-1482.934366122492
 30
0.0
 40
1.304465713660698
100
AcDbArc
 50
146.2636430513176
 51
213.736356948638
  0
ARC
  5
282
330
394
100
AcDbEntity
  8
DATA
  6
Continuous
 62
     7
100
AcDbCircle
 10
-125.6700838324013
 20
-1482.073137441101
 30
0.0
 40
0.2460901209658117
100
AcDbArc
 50
326.2508817872436
 51
93.96400176881135
  0
ARC
  5
283
330
394
100
AcDbEntity
  8
DATA
  6
Continuous
 62
     7
100
AcDbCircle
 10
-125.7712144824695
 20
-1480.525922598719
 30
0.0
 40
1.304465713660831
100
AcDbArc
 50
206.2636430513194
 51
273.7363569486269
  0
ARC
  5
284
330
394
100
AcDbEntity
  8
DATA
  6
Continuous
 62
     7
100
AcDbCircle
 10
-127.1617528323768
 20
-1481.211948307849
 30
0.0
 40
0.2460901209656687
100
AcDbArc
 50
26.25088178729571
 51
153.9640017688112
  0
ARC
  5
285
330
394
100
AcDbEntity
  8
DATA
  6
Continuous
 62
     7
100
AcDbCircle
 10
-128.552245516026
 20
-1480.525922598718
 30
0.0
 40
1.304465713661238
100
AcDbArc
 50
266.2636430513249
 51
333.7363569486225
  0
ARC
  5
286
330
394
100
AcDbEntity
  8
DATA
  6
Continuous
 62
     7
100
AcDbCircle
 10
-128.6533989992238
 20
-1482.073176989239
 30
0.0
 40
0.2460901209656926
100
AcDbArc
 50
86.25088178734781
 51
213.9640017687853
  0
ARC
  5
287
330
394
100
AcDbEntity
  8
DATA
  6
Continuous
 62
     7
100
AcDbCircle
 10
-129.9427610328047
 20
-1482.934366122491
 30
0.0
 40
1.30446571366095
100
AcDbArc
 50
326.2636430513011
 51
33.73635694863253
  0
ARC
  5
288
330
394
100
AcDbEntity
  8
DATA
  6
Continuous
 62
     7
100
AcDbCircle
 10
-128.6533761660957
 20
-1483.795594803882
 30
0.0
 40
0.2460901209660008
100
AcDbArc
 50
146.2508817872729
 51
273.9640017689132
  0
ARC
  5
289
330
394
100
AcDbEntity
  8
DATA
  6
Continuous
 62
     7
100
AcDbCircle
 10
-128.5522455160276
 20
-1485.342809646264
 30
0.0
 40
1.304465713661139
100
AcDbArc
 50
26.26364305130159
 51
93.73635694862612
  0
ARC
  5
28A
330
394
100
AcDbEntity
  8
DATA
  6
Continuous
 62
     7
100
AcDbCircle
 10
-127.1617071661203
 20
-1484.656783937134
 30
0.0
 40
0.2460901209658726
100
AcDbArc
 50
206.2508817872723
 51
333.9640017688577
  0
CIRCLE
  5
28B
330
394
100
AcDbEntity
  8
DATA
  6
Continuous
 62
     7
100
AcDbCircle
 10
163.4129999690012
 20
-1482.934366122491
 30
0.0
 40
1.968499999999266
  0
CIRCLE
  5
28C
330
394
100
AcDbEntity
  8
DATA
  6
Continuous
 62
     7
100
AcDbCircle
 10
163.4129999690012
 20
-1482.934366122491
 30
0.0
 40
5.068023934142071
  0
CIRCLE
  5
28D
330
394
100
AcDbEntity
  8
DATA
  6
Continuous
 62
     7
100
AcDbCircle
 10
163.4129999690012
 20
-1482.934366122491
 30
0.0
 40
4.94102393414167
  0
ARC
  5
28E
330
394
100
AcDbEntity
  8
DATA
  6
Continuous
 62
     7
100
AcDbCircle
 10
164.8035154857787
 20
-1485.342809646265
 30
0.0
 40
1.304465713660784
100
AcDbArc
 50
86.26364305132341
 51
153.7363569486271
  0
ARC
  5
28F
330
394
100
AcDbEntity
  8
DATA
  6
Continuous
 62
     7
100
AcDbCircle
 10
164.9046689689772
 20
-1483.795555255743
 30
0.0
 40
0.2460901209659492
100
AcDbArc
 50
266.2508817872456
 51
33.96400176884455
  0
ARC
  5
290
330
394
100
AcDbEntity
  8
DATA
  6
Continuous
 62
     7
100
AcDbCircle
 10
166.1940310025572
 20
-1482.934366122492
 30
0.0
 40
1.304465713660698
100
AcDbArc
 50
146.2636430513176
 51
213.736356948638
  0
ARC
  5
291
330
394
100
AcDbEntity
  8
DATA
  6
Continuous
 62
     7
100
AcDbCircle
 10
164.9046461358484
 20
-1482.073137441101
 30
0.0
 40
0.2460901209658117
100
AcDbArc
 50
326.2508817872436
 51
93.96400176881135
  0
ARC
  5
292
330
394
100
AcDbEntity
  8
DATA
  6
Continuous
 62
     7
100
AcDbCircle
 10
164.8035154857803
 20
-1480.525922598719
 30
0.0
 40
1.304465713660831
100
AcDbArc
 50
206.2636430513194
 51
273.7363569486269
  0
ARC
  5
293
330
394
100
AcDbEntity
  8
DATA
  6
Continuous
 62
     7
100
AcDbCircle
 10
163.412977135873
 20
-1481.211948307849
 30
0.0
 40
0.2460901209656687
100
AcDbArc
 50
26.25088178729571
 51
153.9640017688112
  0
ARC
  5
294
330
394
100
AcDbEntity
  8
DATA
  6
Continuous
 62
     7
100
AcDbCircle
 10
162.0224844522238
 20
-1480.525922598718
 30
0.0
 40
1.304465713661238
100
AcDbArc
 50
266.2636430513249
 51
333.7363569486225
  0
ARC
  5
295
330
394
100
AcDbEntity
  8
DATA
  6
Continuous
 62
     7
100
AcDbCircle
 10
161.921330969026
 20
-1482.073176989239
 30
0.0
 40
0.2460901209656926
100
AcDbArc
 50
86.25088178734781
 51
213.9640017687853
  0
ARC
  5
296
330
394
100
AcDbEntity
  8
DATA
  6
Continuous
 62
     7
100
AcDbCircle
 10
160.631968935445
 20
-1482.934366122491
 30
0.0
 40
1.30446571366095
100
AcDbArc
 50
326.2636430513011
 51
33.73635694863253
  0
ARC
  5
297
330
394
100
AcDbEntity
  8
DATA
  6
Continuous
 62
     7
100
AcDbCircle
 10
161.921353802154
 20
-1483.795594803882
 30
0.0
 40
0.2460901209660008
100
AcDbArc
 50
146.2508817872729
 51
273.9640017689132
  0
ARC
  5
298
330
394
100
AcDbEntity
  8
DATA
  6
Continuous
 62
     7
100
AcDbCircle
 10
162.0224844522222
 20
-1485.342809646264
 30
0.0
 40
1.304465713661139
100
AcDbArc
 50
26.26364305130159
 51
93.73635694862612
  0
ARC
  5
299
330
394
100
AcDbEntity
  8
DATA
  6
Continuous
 62
     7
100
AcDbCircle
 10
163.4130228021294
 20
-1484.656783937134
 30
0.0
 40
0.2460901209658726
100
AcDbArc
 50
206.2508817872723
 51
333.9640017688577
  0
CIRCLE
  5
29A
330
394
100
AcDbEntity
  8
DATA
  6
Continuous
 62
     7
100
AcDbCircle
 10
315.0509999690003
 20
-1478.108366122491
 30
0.0
 40
1.968499999999266
  0
CIRCLE
  5
29B
330
394
100
AcDbEntity
  8
DATA
  6
Continuous
 62
     7
100
AcDbCircle
 10
315.0509999690003
 20
-1478.108366122491
 30
0.0
 40
5.068023934142071
  0
CIRCLE
  5
29C
330
394
100
AcDbEntity
  8
DATA
  6
Continuous
 62
     7
100
AcDbCircle
 10
315.0509999690003
 20
-1478.108366122491
 30
0.0
 40
4.94102393414167
  0
ARC
  5
29D
330
394
100
AcDbEntity
  8
DATA
  6
Continuous
 62
     7
100
AcDbCircle
 10
316.4415154857777
 20
-1480.516809646264
 30
0.0
 40
1.304465713660784
100
AcDbArc
 50
86.26364305132341
 51
153.7363569486271
  0
ARC
  5
29E
330
394
100
AcDbEntity
  8
DATA
  6
Continuous
 62
     7
100
AcDbCircle
 10
316.5426689689762
 20
-1478.969555255743
 30
0.0
 40
0.2460901209659492
100
AcDbArc
 50
266.2508817872456
 51
33.96400176884455
  0
ARC
  5
29F
330
394
100
AcDbEntity
  8
DATA
  6
Continuous
 62
     7
100
AcDbCircle
 10
317.8320310025563
 20
-1478.108366122492
 30
0.0
 40
1.304465713660698
100
AcDbArc
 50
146.2636430513176
 51
213.736356948638
  0
ARC
  5
2A0
330
394
100
AcDbEntity
  8
DATA
  6
Continuous
 62
     7
100
AcDbCircle
 10
316.5426461358475
 20
-1477.2471374411
 30
0.0
 40
0.2460901209658117
100
AcDbArc
 50
326.2508817872436
 51
93.96400176881135
  0
ARC
  5
2A1
330
394
100
AcDbEntity
  8
DATA
  6
Continuous
 62
     7
100
AcDbCircle
 10
316.4415154857793
 20
-1475.699922598719
 30
0.0
 40
1.304465713660831
100
AcDbArc
 50
206.2636430513194
 51
273.7363569486269
  0
ARC
  5
2A2
330
394
100
AcDbEntity
  8
DATA
  6
Continuous
 62
     7
100
AcDbCircle
 10
315.050977135872
 20
-1476.385948307848
 30
0.0
 40
0.2460901209656687
100
AcDbArc
 50
26.25088178729571
 51
153.9640017688112
  0
ARC
  5
2A3
330
394
100
AcDbEntity
  8
DATA
  6
Continuous
 62
     7
100
AcDbCircle
 10
313.6604844522228
 20
-1475.699922598717
 30
0.0
 40
1.304465713661238
100
AcDbArc
 50
266.2636430513249
 51
333.7363569486225
  0
ARC
  5
2A4
330
394
100
AcDbEntity
  8
DATA
  6
Continuous
 62
     7
100
AcDbCircle
 10
313.5593309690251
 20
-1477.247176989239
 30
0.0
 40
0.2460901209656926
100
AcDbArc
 50
86.25088178734781
 51
213.9640017687853
  0
ARC
  5
2A5
330
394
100
AcDbEntity
  8
DATA
  6
Continuous
 62
     7
100
AcDbCircle
 10
312.269968935444
 20
-1478.10836612249
 30
0.0
 40
1.30446571366095
100
AcDbArc
 50
326.2636430513011
 51
33.73635694863253
  0
ARC
  5
2A6
330
394
100
AcDbEntity
  8
DATA
  6
Continuous
 62
     7
100
AcDbCircle
 10
313.559353802153
 20
-1478.969594803881
 30
0.0
 40
0.2460901209660008
100
AcDbArc
 50
146.2508817872729
 51
273.9640017689132
  0
ARC
  5
2A7
330
394
100
AcDbEntity
  8
DATA
  6
Continuous
 62
     7
100
AcDbCircle
 10
313.6604844522213
 20
-1480.516809646263
 30
0.0
 40
1.304465713661139
100
AcDbArc
 50
26.26364305130159
 51
93.73635694862612
  0
ARC
  5
2A8
330
394
100
AcDbEntity
  8
DATA
  6
Continuous
 62
     7
100
AcDbCircle
 10
315.0510228021285
 20
-1479.830783937132
 30
0.0
 40
0.2460901209658726
100
AcDbArc
 50
206.2508817872723
 51
333.9640017688577
  0
CIRCLE
  5
2A9
330
394
100
AcDbEntity
  8
DATA
  6
Continuous
 62
     7
100
AcDbCircle
 10
-28.23000003099969
 20
-1443.183366122491
 30
0.0
 40
1.968499999999266
  0
CIRCLE
  5
2AA
330
394
100
AcDbEntity
  8
DATA
  6
Continuous
 62
     7
100
AcDbCircle
 10
-28.23000003099969
 20
-1443.183366122491
 30
0.0
 40
5.068023934142071
  0
CIRCLE
  5
2AB
330
394
100
AcDbEntity
  8
DATA
  6
Continuous
 62
     7
100
AcDbCircle
 10
-28.23000003099969
 20
-1443.183366122491
 30
0.0
 40
4.94102393414167
  0
ARC
  5
2AC
330
394
100
AcDbEntity
  8
DATA
  6
Continuous
 62
     7
100
AcDbCircle
 10
-26.83948451422225
 20
-1445.591809646264
 30
0.0
 40
1.304465713660784
100
AcDbArc
 50
86.26364305132341
 51
153.7363569486271
  0
ARC
  5
2AD
330
394
100
AcDbEntity
  8
DATA
  6
Continuous
 62
     7
100
AcDbCircle
 10
-26.73833103102379
 20
-1444.044555255743
 30
0.0
 40
0.2460901209659492
100
AcDbArc
 50
266.2508817872456
 51
33.96400176884455
  0
ARC
  5
2AE
330
394
100
AcDbEntity
  8
DATA
  6
Continuous
 62
     7
100
AcDbCircle
 10
-25.44896899744367
 20
-1443.183366122492
 30
0.0
 40
1.304465713660698
100
AcDbArc
 50
146.2636430513176
 51
213.736356948638
  0
ARC
  5
2AF
330
394
100
AcDbEntity
  8
DATA
  6
Continuous
 62
     7
100
AcDbCircle
 10
-26.73835386415249
 20
-1442.322137441101
 30
0.0
 40
0.2460901209658117
100
AcDbArc
 50
326.2508817872436
 51
93.96400176881135
  0
ARC
  5
2B0
330
394
100
AcDbEntity
  8
DATA
  6
Continuous
 62
     7
100
AcDbCircle
 10
-26.83948451422066
 20
-1440.774922598719
 30
0.0
 40
1.304465713660831
100
AcDbArc
 50
206.2636430513194
 51
273.7363569486269
  0
ARC
  5
2B1
330
394
100
AcDbEntity
  8
DATA
  6
Continuous
 62
     7
100
AcDbCircle
 10
-28.23002286412793
 20
-1441.460948307849
 30
0.0
 40
0.2460901209656687
100
AcDbArc
 50
26.25088178729571
 51
153.9640017688112
  0
ARC
  5
2B2
330
394
100
AcDbEntity
  8
DATA
  6
Continuous
 62
     7
100
AcDbCircle
 10
-29.62051554777713
 20
-1440.774922598718
 30
0.0
 40
1.304465713661238
100
AcDbArc
 50
266.2636430513249
 51
333.7363569486225
  0
ARC
  5
2B3
330
394
100
AcDbEntity
  8
DATA
  6
Continuous
 62
     7
100
AcDbCircle
 10
-29.72166903097491
 20
-1442.322176989239
 30
0.0
 40
0.2460901209656926
100
AcDbArc
 50
86.25088178734781
 51
213.9640017687853
  0
ARC
  5
2B4
330
394
100
AcDbEntity
  8
DATA
  6
Continuous
 62
     7
100
AcDbCircle
 10
-31.01103106455594
 20
-1443.183366122491
 30
0.0
 40
1.30446571366095
100
AcDbArc
 50
326.2636430513011
 51
33.73635694863253
  0
ARC
  5
2B5
330
394
100
AcDbEntity
  8
DATA
  6
Continuous
 62
     7
100
AcDbCircle
 10
-29.72164619784689
 20
-1444.044594803882
 30
0.0
 40
0.2460901209660008
100
AcDbArc
 50
146.2508817872729
 51
273.9640017689132
  0
ARC
  5
2B6
330
394
100
AcDbEntity
  8
DATA
  6
Continuous
 62
     7
100
AcDbCircle
 10
-29.62051554777873
 20
-1445.591809646264
 30
0.0
 40
1.304465713661139
100
AcDbArc
 50
26.26364305130159
 51
93.73635694862612
  0
ARC
  5
2B7
330
394
100
AcDbEntity
  8
DATA
  6
Continuous
 62
     7
100
AcDbCircle
 10
-28.22997719787145
 20
-1444.905783937134
 30
0.0
 40
0.2460901209658726
100
AcDbArc
 50
206.2508817872723
 51
333.9640017688577
  0
CIRCLE
  5
2B8
330
394
100
AcDbEntity
  8
DATA
  6
Continuous
 62
     7
100
AcDbCircle
 10
-253.1470000310001
 20
-1472.520366122491
 30
0.0
 40
1.968499999999266
  0
CIRCLE
  5
2B9
330
394
100
AcDbEntity
  8
DATA
  6
Continuous
 62
     7
100
AcDbCircle
 10
-253.1470000310001
 20
-1472.520366122491
 30
0.0
 40
5.068023934142071
  0
CIRCLE
  5
2BA
330
394
100
AcDbEntity
  8
DATA
  6
Continuous
 62
     7
100
AcDbCircle
 10
-253.1470000310001
 20
-1472.520366122491
 30
0.0
 40
4.94102393414167
  0
ARC
  5
2BB
330
394
100
AcDbEntity
  8
DATA
  6
Continuous
 62
     7
100
AcDbCircle
 10
-251.7564845142227
 20
-1474.928809646265
 30
0.0
 40
1.304465713660784
100
AcDbArc
 50
86.26364305132341
 51
153.7363569486271
  0
ARC
  5
2BC
330
394
100
AcDbEntity
  8
DATA
  6
Continuous
 62
     7
100
AcDbCircle
 10
-251.6553310310241
 20
-1473.381555255743
 30
0.0
 40
0.2460901209659492
100
AcDbArc
 50
266.2508817872456
 51
33.96400176884455
  0
ARC
  5
2BD
330
394
100
AcDbEntity
  8
DATA
  6
Continuous
 62
     7
100
AcDbCircle
 10
-250.365968997444
 20
-1472.520366122492
 30
0.0
 40
1.304465713660698
100
AcDbArc
 50
146.2636430513176
 51
213.736356948638
  0
ARC
  5
2BE
330
394
100
AcDbEntity
  8
DATA
  6
Continuous
 62
     7
100
AcDbCircle
 10
-251.6553538641529
 20
-1471.659137441101
 30
0.0
 40
0.2460901209658117
100
AcDbArc
 50
326.2508817872436
 51
93.96400176881135
  0
ARC
  5
2BF
330
394
100
AcDbEntity
  8
DATA
  6
Continuous
 62
     7
100
AcDbCircle
 10
-251.756484514221
 20
-1470.111922598719
 30
0.0
 40
1.304465713660831
100
AcDbArc
 50
206.2636430513194
 51
273.7363569486269
  0
ARC
  5
2C0
330
394
100
AcDbEntity
  8
DATA
  6
Continuous
 62
     7
100
AcDbCircle
 10
-253.1470228641283
 20
-1470.797948307849
 30
0.0
 40
0.2460901209656687
100
AcDbArc
 50
26.25088178729571
 51
153.9640017688112
  0
ARC
  5
2C1
330
394
100
AcDbEntity
  8
DATA
  6
Continuous
 62
     7
100
AcDbCircle
 10
-254.5375155477775
 20
-1470.111922598718
 30
0.0
 40
1.304465713661238
100
AcDbArc
 50
266.2636430513249
 51
333.7363569486225
  0
ARC
  5
2C2
330
394
100
AcDbEntity
  8
DATA
  6
Continuous
 62
     7
100
AcDbCircle
 10
-254.6386690309753
 20
-1471.659176989239
 30
0.0
 40
0.2460901209656926
100
AcDbArc
 50
86.25088178734781
 51
213.9640017687853
  0
ARC
  5
2C3
330
394
100
AcDbEntity
  8
DATA
  6
Continuous
 62
     7
100
AcDbCircle
 10
-255.9280310645563
 20
-1472.520366122491
 30
0.0
 40
1.30446571366095
100
AcDbArc
 50
326.2636430513011
 51
33.73635694863253
  0
ARC
  5
2C4
330
394
100
AcDbEntity
  8
DATA
  6
Continuous
 62
     7
100
AcDbCircle
 10
-254.6386461978473
 20
-1473.381594803882
 30
0.0
 40
0.2460901209660008
100
AcDbArc
 50
146.2508817872729
 51
273.9640017689132
  0
ARC
  5
2C5
330
394
100
AcDbEntity
  8
DATA
  6
Continuous
 62
     7
100
AcDbCircle
 10
-254.5375155477791
 20
-1474.928809646264
 30
0.0
 40
1.304465713661139
100
AcDbArc
 50
26.26364305130159
 51
93.73635694862612
  0
ARC
  5
2C6
330
394
100
AcDbEntity
  8
DATA
  6
Continuous
 62
     7
100
AcDbCircle
 10
-253.1469771978719
 20
-1474.242783937134
 30
0.0
 40
0.2460901209658726
100
AcDbArc
 50
206.2508817872723
 51
333.9640017688577
  0
LINE
  5
2C7
330
394
100
AcDbEntity
  8
DATA
  6
Continuous
 62
     7
100
AcDbLine
 10
-148.7789999689994
 20
-1486.950575026725
 30
0.0
 11
-168.7789999689994
 21
-1486.950575026725
 31
0.0
  0
LINE
  5
2C8
330
394
100
AcDbEntity
  8
DATA
  6
Continuous
 62
     7
100
AcDbLine
 10
-168.7789999689994
 20
-1474.950575026725
 30
0.0
 11
-148.7789999689994
 21
-1474.950575026725
 31
0.0
  0
ARC
  5
2C9
330
394
100
AcDbEntity
  8
DATA
  6
Continuous
 62
     7
100
AcDbCircle
 10
-168.7789999689994
 20
-1480.950575026725
 30
0.0
 40
6.0
100
AcDbArc
 50
90.0
 51
270.0
  0
ARC
  5
2CA
330
394
100
AcDbEntity
  8
DATA
  6
Continuous
 62
     7
100
AcDbCircle
 10
-148.7789999689994
 20
-1480.950575026725
 30
0.0
 40
6.0
100
AcDbArc
 50
270.0
 51
90.0
  0
LINE
  5
2CB
330
394
100
AcDbEntity
  8
DATA
  6
Continuous
 62
     7
100
AcDbLine
 10
185.2210000310005
 20
-1486.950575026725
 30
0.0
 11
205.2210000310005
 21
-1486.950575026725
 31
0.0
  0
LINE
  5
2CC
330
394
100
AcDbEntity
  8
DATA
  6
Continuous
 62
     7
100
AcDbLine
 10
205.2210000310005
 20
-1474.950575026725
 30
0.0
 11
185.2210000310005
 21
-1474.950575026725
 31
0.0
  0
ARC
  5
2CD
330
394
100
AcDbEntity
  8
DATA
  6
Continuous
 62
     7
100
AcDbCircle
 10
205.2210000310005
 20
-1480.950575026725
 30
0.0
 40
6.0
100
AcDbArc
 50
270.0
 51
90.0
  0
ARC
  5
2CE
330
394
100
AcDbEntity
  8
DATA
  6
Continuous
 62
     7
100
AcDbCircle
 10
185.2210000310005
 20
-1480.950575026725
 30
0.0
 40
6.0
100
AcDbArc
 50
90.0
 51
270.0
  0
CIRCLE
  5
2CF
330
394
100
AcDbEntity
  8
DATA
  6
Continuous
 62
     7
100
AcDbCircle
 10
-148.7789999689994
 20
-1480.950575026725
 30
0.0
 40
4.018304637153049
  0
CIRCLE
  5
2D0
330
394
100
AcDbEntity
  8
DATA
  6
Continuous
 62
     7
100
AcDbCircle
 10
-148.7789999689994
 20
-1480.950575026725
 30
0.0
 40
4.099999999998543
  0
ARC
  5
2D1
330
394
100
AcDbEntity
  8
DATA
  6
Continuous
 62
     7
100
AcDbCircle
 10
-149.8931244488701
 20
-1480.238700404991
 30
0.0
 40
0.2744797705387354
100
AcDbArc
 50
79.59486701133929
 51
135.5659040938331
  0
ARC
  5
2D2
330
394
100
AcDbEntity
  8
DATA
  6
Continuous
 62
     7
100
AcDbCircle
 10
-149.7635803413466
 20
-1479.245231797684
 30
0.0
 40
0.7279088877299273
100
AcDbArc
 50
263.692517352369
 51
336.3074826475825
  0
ARC
  5
2D3
330
394
100
AcDbEntity
  8
DATA
  6
Continuous
 62
     7
100
AcDbCircle
 10
-149.9525637156655
 20
-1481.559497818405
 30
0.0
 40
0.2744797705388676
100
AcDbArc
 50
139.5948670113199
 51
195.5659040937901
  0
ARC
  5
2D4
330
394
100
AcDbEntity
  8
DATA
  6
Continuous
 62
     7
100
AcDbCircle
 10
-150.748160713694
 20
-1480.950575026725
 30
0.0
 40
0.7279088877298661
100
AcDbArc
 50
323.6925173523779
 51
36.30748264758647
  0
ARC
  5
2D5
330
394
100
AcDbEntity
  8
DATA
  6
Continuous
 62
     7
100
AcDbCircle
 10
-149.9525637156655
 20
-1480.341652235045
 30
0.0
 40
0.2744797705387849
100
AcDbArc
 50
164.4340959062098
 51
220.4051329886801
  0
ARC
  5
2D6
330
394
100
AcDbEntity
  8
DATA
  6
Continuous
 62
     7
100
AcDbCircle
 10
-149.6733955765401
 20
-1480.434195481949
 30
0.0
 40
0.568420642300755
100
AcDbArc
 50
137.0009328559257
 51
162.999067144122
  0
ARC
  5
2D7
330
394
100
AcDbEntity
  8
DATA
  6
Continuous
 62
     7
100
AcDbCircle
 10
-149.7635803413466
 20
-1482.655918255766
 30
0.0
 40
0.7279088877297864
100
AcDbArc
 50
23.6925173523848
 51
96.30748264759347
  0
ARC
  5
2D8
330
394
100
AcDbEntity
  8
DATA
  6
Continuous
 62
     7
100
AcDbCircle
 10
-149.8931244488701
 20
-1481.662449648458
 30
0.0
 40
0.2744797705390281
100
AcDbArc
 50
224.434095906176
 51
280.4051329886405
  0
ARC
  5
2D9
330
394
100
AcDbEntity
  8
DATA
  6
Continuous
 62
     7
100
AcDbCircle
 10
-149.6733955765403
 20
-1481.466954571501
 30
0.0
 40
0.5684206423007432
100
AcDbArc
 50
197.0009328559067
 51
222.9990671440988
  0
ARC
  5
2DA
330
394
100
AcDbEntity
  8
DATA
  6
Continuous
 62
     7
100
AcDbCircle
 10
-149.7635803413466
 20
-1482.655918255766
 30
0.0
 40
0.7279088877297864
100
AcDbArc
 50
23.6925173523848
 51
96.30748264759347
  0
ARC
  5
2DB
330
394
100
AcDbEntity
  8
DATA
  6
Continuous
 62
     7
100
AcDbCircle
 10
-149.8931244488701
 20
-1481.662449648458
 30
0.0
 40
0.2744797705390281
100
AcDbArc
 50
224.434095906176
 51
280.4051329886405
  0
ARC
  5
2DC
330
394
100
AcDbEntity
  8
DATA
  6
Continuous
 62
     7
100
AcDbCircle
 10
-149.6733955765403
 20
-1481.466954571501
 30
0.0
 40
0.5684206423007432
100
AcDbArc
 50
197.0009328559067
 51
222.9990671440988
  0
ARC
  5
2DD
330
394
100
AcDbEntity
  8
DATA
  6
Continuous
 62
     7
100
AcDbCircle
 10
-148.8384392357945
 20
-1482.271372440138
 30
0.0
 40
0.274479770538958
100
AcDbArc
 50
199.5948670113384
 51
255.5659040937592
  0
ARC
  5
2DE
330
394
100
AcDbEntity
  8
DATA
  6
Continuous
 62
     7
100
AcDbCircle
 10
-147.794419596652
 20
-1482.655918255765
 30
0.0
 40
0.7279088877296763
100
AcDbArc
 50
83.69251735238481
 51
156.307482647606
  0
ARC
  5
2DF
330
394
100
AcDbEntity
  8
DATA
  6
Continuous
 62
     7
100
AcDbCircle
 10
-148.7195607022042
 20
-1482.271372440138
 30
0.0
 40
0.2744797705390428
100
AcDbArc
 50
284.4340959061831
 51
340.4051329886616
  0
ARC
  5
2E0
330
394
100
AcDbEntity
  8
DATA
  6
Continuous
 62
     7
100
AcDbCircle
 10
-148.7789999689996
 20
-1481.983334116276
 30
0.0
 40
0.5684206423006116
100
AcDbArc
 50
257.000932855906
 51
282.9990671441111
  0
ARC
  5
2E1
330
394
100
AcDbEntity
  8
DATA
  6
Continuous
 62
     7
100
AcDbCircle
 10
-147.6648754891284
 20
-1481.662449648458
 30
0.0
 40
0.2744797705389899
100
AcDbArc
 50
259.5948670113128
 51
315.5659040937577
  0
ARC
  5
2E2
330
394
100
AcDbEntity
  8
DATA
  6
Continuous
 62
     7
100
AcDbCircle
 10
-146.809839224305
 20
-1480.950575026725
 30
0.0
 40
0.7279088877295484
100
AcDbArc
 50
143.6925173523817
 51
216.3074826476115
  0
ARC
  5
2E3
330
394
100
AcDbEntity
  8
DATA
  6
Continuous
 62
     7
100
AcDbCircle
 10
-147.6054362223333
 20
-1481.559497818405
 30
0.0
 40
0.2744797705390649
100
AcDbArc
 50
344.4340959061768
 51
40.40513298868012
  0
ARC
  5
2E4
330
394
100
AcDbEntity
  8
DATA
  6
Continuous
 62
     7
100
AcDbCircle
 10
-147.8846043614585
 20
-1481.466954571501
 30
0.0
 40
0.5684206423003504
100
AcDbArc
 50
317.0009328559189
 51
342.999067144122
  0
ARC
  5
2E5
330
394
100
AcDbEntity
  8
DATA
  6
Continuous
 62
     7
100
AcDbCircle
 10
-147.6054362223335
 20
-1480.341652235045
 30
0.0
 40
0.2744797705390407
100
AcDbArc
 50
319.5948670113507
 51
15.56590409379026
  0
ARC
  5
2E6
330
394
100
AcDbEntity
  8
DATA
  6
Continuous
 62
     7
100
AcDbCircle
 10
-147.7944195966524
 20
-1479.245231797684
 30
0.0
 40
0.7279088877294866
100
AcDbArc
 50
203.6925173523756
 51
276.3074826476133
  0
ARC
  5
2E7
330
394
100
AcDbEntity
  8
DATA
  6
Continuous
 62
     7
100
AcDbCircle
 10
-147.6648754891284
 20
-1480.238700404991
 30
0.0
 40
0.2744797705390281
100
AcDbArc
 50
44.43409590617592
 51
100.4051329886871
  0
ARC
  5
2E8
330
394
100
AcDbEntity
  8
DATA
  6
Continuous
 62
     7
100
AcDbCircle
 10
-147.8846043614583
 20
-1480.434195481949
 30
0.0
 40
0.5684206423003083
100
AcDbArc
 50
17.00093285592007
 51
42.99906714409892
  0
ARC
  5
2E9
330
394
100
AcDbEntity
  8
DATA
  6
Continuous
 62
     7
100
AcDbCircle
 10
-148.7195607022042
 20
-1479.629777613312
 30
0.0
 40
0.274479770538958
100
AcDbArc
 50
19.59486701133845
 51
75.56590409380516
  0
ARC
  5
2EA
330
394
100
AcDbEntity
  8
DATA
  6
Continuous
 62
     7
100
AcDbCircle
 10
-148.8384392357945
 20
-1479.629777613312
 30
0.0
 40
0.274479770539263
100
AcDbArc
 50
104.4340959061712
 51
160.4051329886615
  0
ARC
  5
2EB
330
394
100
AcDbEntity
  8
DATA
  6
Continuous
 62
     7
100
AcDbCircle
 10
-148.7789999689992
 20
-1479.917815937173
 30
0.0
 40
0.5684206423003389
100
AcDbArc
 50
77.00093285592321
 51
102.9990671441111
  0
CIRCLE
  5
2EC
330
394
100
AcDbEntity
  8
DATA
  6
Continuous
 62
     7
100
AcDbCircle
 10
205.2210000310005
 20
-1480.950575026725
 30
0.0
 40
4.018304637153049
  0
CIRCLE
  5
2ED
330
394
100
AcDbEntity
  8
DATA
  6
Continuous
 62
     7
100
AcDbCircle
 10
205.2210000310005
 20
-1480.950575026725
 30
0.0
 40
4.099999999998543
  0
ARC
  5
2EE
330
394
100
AcDbEntity
  8
DATA
  6
Continuous
 62
     7
100
AcDbCircle
 10
204.1068755511298
 20
-1480.238700404991
 30
0.0
 40
0.2744797705387251
100
AcDbArc
 50
79.59486701135094
 51
135.5659040938413
  0
ARC
  5
2EF
330
394
100
AcDbEntity
  8
DATA
  6
Continuous
 62
     7
100
AcDbCircle
 10
204.2364196586534
 20
-1479.245231797684
 30
0.0
 40
0.7279088877299273
100
AcDbArc
 50
263.692517352369
 51
336.3074826475825
  0
ARC
  5
2F0
330
394
100
AcDbEntity
  8
DATA
  6
Continuous
 62
     7
100
AcDbCircle
 10
204.0474362843344
 20
-1481.559497818405
 30
0.0
 40
0.2744797705388676
100
AcDbArc
 50
139.5948670113199
 51
195.5659040937901
  0
ARC
  5
2F1
330
394
100
AcDbEntity
  8
DATA
  6
Continuous
 62
     7
100
AcDbCircle
 10
203.251839286306
 20
-1480.950575026725
 30
0.0
 40
0.7279088877298661
100
AcDbArc
 50
323.6925173523779
 51
36.30748264758647
  0
ARC
  5
2F2
330
394
100
AcDbEntity
  8
DATA
  6
Continuous
 62
     7
100
AcDbCircle
 10
204.0474362843344
 20
-1480.341652235045
 30
0.0
 40
0.2744797705387849
100
AcDbArc
 50
164.4340959062098
 51
220.4051329886801
  0
ARC
  5
2F3
330
394
100
AcDbEntity
  8
DATA
  6
Continuous
 62
     7
100
AcDbCircle
 10
204.3266044234599
 20
-1480.434195481949
 30
0.0
 40
0.568420642300755
100
AcDbArc
 50
137.0009328559257
 51
162.999067144122
  0
ARC
  5
2F4
330
394
100
AcDbEntity
  8
DATA
  6
Continuous
 62
     7
100
AcDbCircle
 10
204.2364196586534
 20
-1482.655918255766
 30
0.0
 40
0.7279088877297864
100
AcDbArc
 50
23.6925173523848
 51
96.30748264759347
  0
ARC
  5
2F5
330
394
100
AcDbEntity
  8
DATA
  6
Continuous
 62
     7
100
AcDbCircle
 10
204.1068755511298
 20
-1481.662449648458
 30
0.0
 40
0.2744797705390281
100
AcDbArc
 50
224.434095906176
 51
280.4051329886405
  0
ARC
  5
2F6
330
394
100
AcDbEntity
  8
DATA
  6
Continuous
 62
     7
100
AcDbCircle
 10
204.3266044234597
 20
-1481.466954571501
 30
0.0
 40
0.5684206423007432
100
AcDbArc
 50
197.0009328559067
 51
222.9990671440988
  0
ARC
  5
2F7
330
394
100
AcDbEntity
  8
DATA
  6
Continuous
 62
     7
100
AcDbCircle
 10
204.2364196586534
 20
-1482.655918255766
 30
0.0
 40
0.7279088877297864
100
AcDbArc
 50
23.6925173523848
 51
96.30748264759347
  0
ARC
  5
2F8
330
394
100
AcDbEntity
  8
DATA
  6
Continuous
 62
     7
100
AcDbCircle
 10
204.1068755511298
 20
-1481.662449648458
 30
0.0
 40
0.2744797705390281
100
AcDbArc
 50
224.434095906176
 51
280.4051329886405
  0
ARC
  5
2F9
330
394
100
AcDbEntity
  8
DATA
  6
Continuous
 62
     7
100
AcDbCircle
 10
204.3266044234597
 20
-1481.466954571501
 30
0.0
 40
0.5684206423007432
100
AcDbArc
 50
197.0009328559067
 51
222.9990671440988
  0
ARC
  5
2FA
330
394
100
AcDbEntity
  8
DATA
  6
Continuous
 62
     7
100
AcDbCircle
 10
205.1615607642054
 20
-1482.271372440138
 30
0.0
 40
0.274479770538958
100
AcDbArc
 50
199.5948670113384
 51
255.5659040937592
  0
ARC
  5
2FB
330
394
100
AcDbEntity
  8
DATA
  6
Continuous
 62
     7
100
AcDbCircle
 10
206.205580403348
 20
-1482.655918255765
 30
0.0
 40
0.7279088877296763
100
AcDbArc
 50
83.69251735238481
 51
156.307482647606
  0
ARC
  5
2FC
330
394
100
AcDbEntity
  8
DATA
  6
Continuous
 62
     7
100
AcDbCircle
 10
205.2804392977957
 20
-1482.271372440138
 30
0.0
 40
0.2744797705390428
100
AcDbArc
 50
284.4340959061831
 51
340.4051329886616
  0
ARC
  5
2FD
330
394
100
AcDbEntity
  8
DATA
  6
Continuous
 62
     7
100
AcDbCircle
 10
205.2210000310004
 20
-1481.983334116276
 30
0.0
 40
0.5684206423006116
100
AcDbArc
 50
257.000932855906
 51
282.9990671441111
  0
ARC
  5
2FE
330
394
100
AcDbEntity
  8
DATA
  6
Continuous
 62
     7
100
AcDbCircle
 10
206.3351245108715
 20
-1481.662449648458
 30
0.0
 40
0.2744797705389899
100
AcDbArc
 50
259.5948670113128
 51
315.5659040937577
  0
ARC
  5
2FF
330
394
100
AcDbEntity
  8
DATA
  6
Continuous
 62
     7
100
AcDbCircle
 10
207.1901607756949
 20
-1480.950575026725
 30
0.0
 40
0.7279088877295484
100
AcDbArc
 50
143.6925173523817
 51
216.3074826476115
  0
ARC
  5
300
330
394
100
AcDbEntity
  8
DATA
  6
Continuous
 62
     7
100
AcDbCircle
 10
206.3945637776667
 20
-1481.559497818405
 30
0.0
 40
0.2744797705390649
100
AcDbArc
 50
344.4340959061768
 51
40.40513298868012
  0
ARC
  5
301
330
394
100
AcDbEntity
  8
DATA
  6
Continuous
 62
     7
100
AcDbCircle
 10
206.1153956385414
 20
-1481.466954571501
 30
0.0
 40
0.5684206423003504
100
AcDbArc
 50
317.0009328559189
 51
342.999067144122
  0
ARC
  5
302
330
394
100
AcDbEntity
  8
DATA
  6
Continuous
 62
     7
100
AcDbCircle
 10
206.3945637776665
 20
-1480.341652235045
 30
0.0
 40
0.2744797705390407
100
AcDbArc
 50
319.5948670113507
 51
15.56590409379026
  0
ARC
  5
303
330
394
100
AcDbEntity
  8
DATA
  6
Continuous
 62
     7
100
AcDbCircle
 10
206.2055804033475
 20
-1479.245231797684
 30
0.0
 40
0.7279088877294866
100
AcDbArc
 50
203.6925173523756
 51
276.3074826476133
  0
ARC
  5
304
330
394
100
AcDbEntity
  8
DATA
  6
Continuous
 62
     7
100
AcDbCircle
 10
206.3351245108715
 20
-1480.238700404991
 30
0.0
 40
0.2744797705390281
100
AcDbArc
 50
44.43409590617592
 51
100.4051329886871
  0
ARC
  5
305
330
394
100
AcDbEntity
  8
DATA
  6
Continuous
 62
     7
100
AcDbCircle
 10
206.1153956385417
 20
-1480.434195481949
 30
0.0
 40
0.5684206423003083
100
AcDbArc
 50
17.00093285592007
 51
42.99906714409892
  0
ARC
  5
306
330
394
100
AcDbEntity
  8
DATA
  6
Continuous
 62
     7
100
AcDbCircle
 10
205.2804392977957
 20
-1479.629777613312
 30
0.0
 40
0.274479770538958
100
AcDbArc
 50
19.59486701133845
 51
75.56590409380516
  0
ARC
  5
307
330
394
100
AcDbEntity
  8
DATA
  6
Continuous
 62
     7
100
AcDbCircle
 10
205.1615607642054
 20
-1479.629777613312
 30
0.0
 40
0.274479770539263
100
AcDbArc
 50
104.4340959061712
 51
160.4051329886615
  0
ARC
  5
308
330
394
100
AcDbEntity
  8
DATA
  6
Continuous
 62
     7
100
AcDbCircle
 10
205.2210000310008
 20
-1479.917815937173
 30
0.0
 40
0.5684206423003389
100
AcDbArc
 50
77.00093285592321
 51
102.9990671441111
  0
CIRCLE
  5
309
330
394
100
AcDbEntity
  8
DATA
  6
Continuous
 62
     7
100
AcDbCircle
 10
-331.0769999999989
 20
-1493.460168256873
 30
0.0
 40
6.540500000001455
  0
CIRCLE
  5
30A
330
394
100
AcDbEntity
  8
DATA
  6
Continuous
 62
     7
100
AcDbCircle
 10
-314.9479999999989
 20
-1493.460168256873
 30
0.0
 40
6.540500000001455
  0
CIRCLE
  5
30B
330
394
100
AcDbEntity
  8
DATA
  6
Continuous
 62
     7
100
AcDbCircle
 10
-298.8189999999989
 20
-1493.460168256873
 30
0.0
 40
6.540500000001455
  0
CIRCLE
  5
30C
330
394
100
AcDbEntity
  8
DATA
  6
Continuous
 62
     7
100
AcDbCircle
 10
14.18799996900077
 20
-1493.475366122491
 30
0.0
 40
6.540500000001455
  0
CIRCLE
  5
30D
330
394
100
AcDbEntity
  8
DATA
  6
Continuous
 62
     7
100
AcDbCircle
 10
30.31699996900079
 20
-1493.475366122491
 30
0.0
 40
6.540500000001455
  0
CIRCLE
  5
30E
330
394
100
AcDbEntity
  8
DATA
  6
Continuous
 62
     7
100
AcDbCircle
 10
46.44599996900081
 20
-1493.475366122491
 30
0.0
 40
6.540500000001455
  0
ARC
  5
30F
330
394
100
AcDbEntity
  8
DATA
  6
Continuous
 62
     7
100
AcDbCircle
 10
14.18799996900077
 20
-1493.475366122491
 30
0.0
 40
8.128000000000156
100
AcDbArc
 50
89.9999999999992
 51
269.9999999999992
  0
LINE
  5
310
330
394
100
AcDbEntity
  8
DATA
  6
Continuous
 62
     7
100
AcDbLine
 10
14.18799996900077
 20
-1485.347366122491
 30
0.0
 11
46.4459999690007
 21
-1485.347366122491
 31
0.0
  0
LINE
  5
311
330
394
100
AcDbEntity
  8
DATA
  6
Continuous
 62
     7
100
AcDbLine
 10
46.4459999690007
 20
-1501.603366122491
 30
0.0
 11
14.18799996900077
 21
-1501.603366122491
 31
0.0
  0
ARC
  5
312
330
394
100
AcDbEntity
  8
DATA
  6
Continuous
 62
     7
100
AcDbCircle
 10
46.44599996900081
 20
-1493.475366122491
 30
0.0
 40
8.128000000000156
100
AcDbArc
 50
270.0000000000008
 51
90.00000000000078
  0
TEXT
  5
313
330
394
100
AcDbEntity
  8
DATA
 62
     7
100
AcDbText
 10
949.9999999999996
 20
-2237.356814999999
 30
0.0
 40
38.00629340277778
  1
エクステンションバー
 41
0.7
 11
949.9999999999996
 21
-2199.350521597221
 31
0.0
100
AcDbText
 73
     3
  0
CIRCLE
  5
314
330
394
100
AcDbEntity
  8
DATA
  6
Continuous
 62
     7
100
AcDbCircle
 10
-320.6629999999996
 20
-1438.342168256873
 30
0.0
 40
10.15999999999985
  0
CIRCLE
  5
315
330
394
100
AcDbEntity
  8
DATA
  6
Continuous
 62
     7
100
AcDbCircle
 10
-79.3630000000003
 20
-1403.671168256872
 30
0.0
 40
10.15999999999985
  0
CIRCLE
  5
316
330
394
100
AcDbEntity
  8
DATA
  6
Continuous
 62
     7
100
AcDbCircle
 10
-127.6230000000005
 20
-1410.529168256872
 30
0.0
 40
10.15999999999985
  0
CIRCLE
  5
317
330
394
100
AcDbEntity
  8
DATA
  6
Continuous
 62
     7
100
AcDbCircle
 10
-175.8829999999989
 20
-1417.514168256873
 30
0.0
 40
10.15999999999985
  0
CIRCLE
  5
318
330
394
100
AcDbEntity
  8
DATA
  6
Continuous
 62
     7
100
AcDbCircle
 10
-224.1430000000009
 20
-1424.499168256873
 30
0.0
 40
10.15999999999985
  0
CIRCLE
  5
319
330
394
100
AcDbEntity
  8
DATA
  6
Continuous
 62
     7
100
AcDbCircle
 10
-272.4029999999993
 20
-1431.357168256873
 30
0.0
 40
10.15999999999985
  0
CIRCLE
  5
31A
330
394
100
AcDbEntity
  8
DATA
  6
Continuous
 62
     7
100
AcDbCircle
 10
17.15700000000015
 20
-1401.893168256872
 30
0.0
 40
10.15999999999985
  0
CIRCLE
  5
31B
330
394
100
AcDbEntity
  8
DATA
  6
Continuous
 62
     7
100
AcDbCircle
 10
65.41700000000037
 20
-1407.227168256872
 30
0.0
 40
10.15999999999985
  0
CIRCLE
  5
31C
330
394
100
AcDbEntity
  8
DATA
  6
Continuous
 62
     7
100
AcDbCircle
 10
113.6770000000006
 20
-1412.561168256871
 30
0.0
 40
10.15999999999985
  0
CIRCLE
  5
31D
330
394
100
AcDbEntity
  8
DATA
  6
Continuous
 62
     7
100
AcDbCircle
 10
-31.10300000000008
 20
-1396.686168256872
 30
0.0
 40
10.15999999999985
  0
CIRCLE
  5
31E
330
394
100
AcDbEntity
  8
DATA
  6
Continuous
 62
     7
100
AcDbCircle
 10
161.9370000000008
 20
-1417.768168256871
 30
0.0
 40
10.15999999999985
  0
CIRCLE
  5
31F
330
394
100
AcDbEntity
  8
DATA
  6
Continuous
 62
     7
100
AcDbCircle
 10
210.197000000001
 20
-1423.102168256871
 30
0.0
 40
10.15999999999985
  0
CIRCLE
  5
320
330
394
100
AcDbEntity
  8
DATA
  6
Continuous
 62
     7
100
AcDbCircle
 10
258.4569999999994
 20
-1428.436168256871
 30
0.0
 40
10.15999999999985
  0
CIRCLE
  5
321
330
394
100
AcDbEntity
  8
DATA
  6
Continuous
 62
     7
100
AcDbCircle
 10
306.7169999999996
 20
-1433.643168256871
 30
0.0
 40
10.15999999999985
  0
CIRCLE
  5
322
330
394
100
AcDbEntity
  8
DATA
  6
Continuous
 62
     7
100
AcDbCircle
 10
354.9769999999999
 20
-1438.977168256871
 30
0.0
 40
10.15999999999985
  0
CIRCLE
  5
323
330
394
100
AcDbEntity
  8
DATA
  6
Continuous
 62
     7
100
AcDbCircle
 10
360.0569999999998
 20
-1486.475168256871
 30
0.0
 40
10.15999999999985
  0
ENDSEC
  0
SECTION
  2
OBJECTS
  0
DICTIONARY
  5
331
330
0
100
AcDbDictionary
281
     1
  3
ACAD_CIP_PREVIOUS_PRODUCT_INFO
350
3AC
  3
ACAD_COLOR
350
387
  3
ACAD_DETAILVIEWSTYLE
350
38E
  3
ACAD_GROUP
350
332
  3
ACAD_LAYOUT
350
386
  3
ACAD_MATERIAL
350
335
  3
ACAD_MLEADERSTYLE
350
38A
  3
ACAD_MLINESTYLE
350
383
  3
ACAD_PLOTSETTINGS
350
385
  3
ACAD_PLOTSTYLENAME
350
333
  3
ACAD_SCALELIST
350
367
  3
ACAD_SECTIONVIEWSTYLE
350
38C
  3
ACAD_TABLESTYLE
350
388
  3
ACAD_VISUALSTYLE
350
34E
  3
ACDB_RECOMPOSE_DATA
350
40A
  3
AcDbVariableDictionary
350
3B7
  3
DWGPROPS
350
40B
  0
DICTIONARY
  5
3AD
330
379
100
AcDbDictionary
280
     1
281
     1
  3
ADSK_XREC_LAYER_RECONCILED
360
3AE
  0
DICTIONARY
  5
3AF
330
398
100
AcDbDictionary
280
     1
281
     1
  3
ADSK_XREC_LAYER_RECONCILED
360
3B0
  0
DICTIONARY
  5
3B1
330
3A4
100
AcDbDictionary
280
     1
281
     1
  3
ADSK_XREC_LAYER_RECONCILED
360
3B2
  0
DICTIONARY
  5
3B3
330
3A5
100
AcDbDictionary
280
     1
281
     1
  3
ADSK_XREC_LAYER_RECONCILED
360
3B4
  0
DICTIONARY
  5
3B5
330
3A6
100
AcDbDictionary
280
     1
281
     1
  3
ADSK_XREC_LAYER_RECONCILED
360
3B6
  0
XRECORD
  5
3AC
102
{ACAD_REACTORS
330
331
102
}
330
331
100
AcDbXrecord
280
     1
300
ACDLT
300
2019
300
ACDLT_F_S
  0
DICTIONARY
  5
387
102
{ACAD_REACTORS
330
331
102
}
330
331
100
AcDbDictionary
281
     1
  0
DICTIONARY
  5
38E
102
{ACAD_REACTORS
330
331
102
}
330
331
100
AcDbDictionary
281
     1
  3
Imperial24
350
38F
  0
DICTIONARY
  5
332
102
{ACAD_REACTORS
330
331
102
}
330
331
100
AcDbDictionary
281
     1
  0
DICTIONARY
  5
386
102
{ACAD_REACTORS
330
331
102
}
330
331
100
AcDbDictionary
281
     1
  3
Model
350
397
  3
レイアウト1
350
393
  0
DICTIONARY
  5
335
102
{ACAD_REACTORS
330
331
102
}
330
331
100
AcDbDictionary
281
     1
  3
ByBlock
350
33E
  3
ByLayer
350
336
  3
Global
350
346
  0
DICTIONARY
  5
38A
102
{ACAD_REACTORS
330
331
102
}
330
331
100
AcDbDictionary
281
     1
  3
Standard
350
38B
  0
DICTIONARY
  5
383
102
{ACAD_REACTORS
330
331
102
}
330
331
100
AcDbDictionary
281
     1
  3
Standard
350
384
  0
DICTIONARY
  5
385
102
{ACAD_REACTORS
330
331
102
}
330
331
100
AcDbDictionary
281
     1
  0
ACDBDICTIONARYWDFLT
  5
333
102
{ACAD_REACTORS
330
331
102
}
330
331
100
AcDbDictionary
281
     1
  3
Normal
350
334
100
AcDbDictionaryWithDefault
340
334
  0
DICTIONARY
  5
367
102
{ACAD_REACTORS
330
331
102
}
330
331
100
AcDbDictionary
281
     1
  3
A0
350
368
  3
A1
350
369
  3
A2
350
36A
  3
A3
350
36B
  3
A4
350
36C
  3
A5
350
36D
  3
A6
350
36E
  3
A7
350
36F
  3
A8
350
370
  3
A9
350
371
  3
B0
350
372
  3
B1
350
373
  3
B2
350
374
  3
B3
350
375
  3
B4
350
376
  3
B5
350
377
  3
B6
350
378
  0
DICTIONARY
  5
38C
102
{ACAD_REACTORS
330
331
102
}
330
331
100
AcDbDictionary
281
     1
  3
Imperial24
350
38D
  0
DICTIONARY
  5
388
102
{ACAD_REACTORS
330
331
102
}
330
331
100
AcDbDictionary
281
     1
  3
Standard
350
389
  0
DICTIONARY
  5
34E
102
{ACAD_REACTORS
330
331
102
}
330
331
100
AcDbDictionary
281
     1
  3
2dWireframe
350
354
  3
Basic
350
353
  3
Brighten
350
35A
  3
ColorChange
350
35E
  3
Conceptual
350
357
  3
Dim
350
359
  3
EdgeColorOff
350
366
  3
Facepattern
350
35D
  3
Flat
350
34F
  3
FlatWithEdges
350
350
  3
Gouraud
350
351
  3
GouraudWithEdges
350
352
  3
Hidden
350
356
  3
JitterOff
350
364
  3
Linepattern
350
35C
  3
OverhangOff
350
365
  3
Realistic
350
358
  3
Shaded
350
363
  3
Shaded with edges
350
362
  3
Shades of Gray
350
35F
  3
Sketchy
350
360
  3
Thicken
350
35B
  3
Wireframe
350
355
  3
X-Ray
350
361
  0
XRECORD
  5
40A
102
{ACAD_REACTORS
330
331
102
}
330
331
100
AcDbXrecord
280
     1
 90
        1
330
389
  0
DICTIONARY
  5
3B7
102
{ACAD_REACTORS
330
331
102
}
330
331
100
AcDbDictionary
281
     1
  3
CANNOSCALE
350
3BC
  3
CMLEADERSTYLE
350
3B9
  3
CTABLESTYLE
350
3B8
  3
CVIEWDETAILSTYLE
350
3BA
  3
CVIEWSECTIONSTYLE
350
3BB
  3
DIMASSOC
350
3BF
  3
INDEXCTL
350
3BE
  3
SORTENTS
350
3BD
  3
XCLIPFRAME
350
408
  0
XRECORD
  5
40B
102
{ACAD_REACTORS
330
331
102
}
330
331
100
AcDbXrecord
280
     1
  1
DWGPROPS COOKIE
  2

  3

  4

  6

  7

  8
sasaki_n
  9

300
=
301
=
302
=
303
=
304
=
305
=
306
=
307
=
308
=
309
=
 40
0.0005787037037037
 41
2458463.492615741
 42
2458463.550856482
  1

 90
        0
  0
XRECORD
  5
3AE
102
{ACAD_REACTORS
330
3AD
102
}
330
3AD
100
AcDbXrecord
280
     1
290
     1
  0
XRECORD
  5
3B0
102
{ACAD_REACTORS
330
3AF
102
}
330
3AF
100
AcDbXrecord
280
     1
290
     1
  0
XRECORD
  5
3B2
102
{ACAD_REACTORS
330
3B1
102
}
330
3B1
100
AcDbXrecord
280
     1
290
     1
  0
XRECORD
  5
3B4
102
{ACAD_REACTORS
330
3B3
102
}
330
3B3
100
AcDbXrecord
280
     1
290
     1
  0
XRECORD
  5
3B6
102
{ACAD_REACTORS
330
3B5
102
}
330
3B5
100
AcDbXrecord
280
     1
290
     1
  0
ACDBDETAILVIEWSTYLE
  5
38F
102
{ACAD_XDICTIONARY
360
43F
102
}
102
{ACAD_REACTORS
330
38E
102
}
330
38E
100
AcDbModelDocViewStyle
 70
     0
  3
Imperial24
290
     0
100
AcDbDetailViewStyle
 70
     0
 71
     0
 90
        3
 71
     1
340
37A
 40
0.24
340
0
 40
0.24
300

 40
0.36
280
     3
 71
     2
340
381
 90
       25
 71
     3
340
37A
 40
0.24
 90
        1
 40
0.75
 90
        1
300
%<\AcVar ViewType \f "%tc1">% %<\AcVar ViewDetailId>%\PSCALE %<\AcVar ViewScale \f "%sn">%
 71
     4
340
381
 90
       25
340
381
 90
       25
280
     0
  0
LAYOUT
  5
397
102
{ACAD_XDICTIONARY
360
443
102
}
102
{ACAD_REACTORS
330
386
102
}
330
386
100
AcDbPlotSettings
  1

  2
DocuPrint 3000-3
  4

  6

 40
0.0
 41
0.0
 42
0.0
 43
0.0
 44
0.0
 45
0.0
 46
0.0
 47
0.0
 48
0.0
 49
0.0
140
0.0
141
0.0
142
1.0
143
1.0
 70
  1712
 72
     0
 73
     0
 74
     0
  7

 75
     0
147
1.0
148
0.0
149
0.0
100
AcDbLayout
  1
Model
 70
     1
 71
     0
 10
0.0
 20
0.0
 11
12.0
 21
9.0
 12
0.0
 22
0.0
 32
0.0
 14
0.0
 24
0.0
 34
0.0
 15
0.0
 25
0.0
 35
0.0
146
0.0
 13
0.0
 23
0.0
 33
0.0
 16
1.0
 26
0.0
 36
0.0
 17
0.0
 27
1.0
 37
0.0
 76
     0
330
394
331
399
  0
LAYOUT
  5
393
102
{ACAD_XDICTIONARY
360
441
102
}
102
{ACAD_REACTORS
330
386
102
}
330
386
100
AcDbPlotSettings
  1

  2
DocuPrint 3000-3
  4

  6

 40
0.0
 41
0.0
 42
0.0
 43
0.0
 44
0.0
 45
0.0
 46
0.0
 47
0.0
 48
0.0
 49
0.0
140
0.0
141
0.0
142
1.0
143
1.0
 70
   688
 72
     0
 73
     0
 74
     5
  7

 75
    16
147
1.0
148
0.0
149
0.0
100
AcDbLayout
  1
レイアウト1
 70
     0
 71
     1
 10
0.0
 20
0.0
 11
12.0
 21
9.0
 12
0.0
 22
0.0
 32
0.0
 14
1.000000000000000E+20
 24
1.000000000000000E+20
 34
1.000000000000000E+20
 15
-1.000000000000000E+20
 25
-1.000000000000000E+20
 35
-1.000000000000000E+20
146
0.0
 13
0.0
 23
0.0
 33
0.0
 16
1.0
 26
0.0
 36
0.0
 17
0.0
 27
1.0
 37
0.0
 76
     0
330
390
  0
MATERIAL
  5
33E
102
{ACAD_XDICTIONARY
360
33F
102
}
102
{ACAD_REACTORS
330
335
102
}
330
335
100
AcDbMaterial
  1
ByBlock
 72
     0
 43
0.0208333333333333
 43
0.0
 43
0.0
 43
0.0
 43
0.0
 43
0.0208333333333333
 43
0.0
 43
0.0
 43
0.0
 43
0.0
 43
1.0
 43
0.0
 43
0.0
 43
0.0
 43
0.0
 43
1.0
 77
     0
 47
0.0208333333333333
 47
0.0
 47
0.0
 47
0.0
 47
0.0
 47
0.0208333333333333
 47
0.0
 47
0.0
 47
0.0
 47
0.0
 47
1.0
 47
0.0
 47
0.0
 47
0.0
 47
0.0
 47
1.0
171
     0
 49
0.0208333333333333
 49
0.0
 49
0.0
 49
0.0
 49
0.0
 49
0.0208333333333333
 49
0.0
 49
0.0
 49
0.0
 49
0.0
 49
1.0
 49
0.0
 49
0.0
 49
0.0
 49
0.0
 49
1.0
175
     0
142
0.0208333333333333
142
0.0
142
0.0
142
0.0
142
0.0
142
0.0208333333333333
142
0.0
142
0.0
142
0.0
142
0.0
142
1.0
142
0.0
142
0.0
142
0.0
142
0.0
142
1.0
179
     0
144
0.0208333333333333
144
0.0
144
0.0
144
0.0
144
0.0
144
0.0208333333333333
144
0.0
144
0.0
144
0.0
144
0.0
144
1.0
144
0.0
144
0.0
144
0.0
144
0.0
144
1.0
147
0.0208333333333333
147
0.0
147
0.0
147
0.0
147
0.0
147
0.0208333333333333
147
0.0
147
0.0
147
0.0
147
0.0
147
1.0
147
0.0
147
0.0
147
0.0
147
0.0
147
1.0
  0
MATERIAL
  5
336
102
{ACAD_XDICTIONARY
360
337
102
}
102
{ACAD_REACTORS
330
335
102
}
330
335
100
AcDbMaterial
  1
ByLayer
 72
     0
 43
0.0208333333333333
 43
0.0
 43
0.0
 43
0.0
 43
0.0
 43
0.0208333333333333
 43
0.0
 43
0.0
 43
0.0
 43
0.0
 43
1.0
 43
0.0
 43
0.0
 43
0.0
 43
0.0
 43
1.0
 77
     0
 47
0.0208333333333333
 47
0.0
 47
0.0
 47
0.0
 47
0.0
 47
0.0208333333333333
 47
0.0
 47
0.0
 47
0.0
 47
0.0
 47
1.0
 47
0.0
 47
0.0
 47
0.0
 47
0.0
 47
1.0
171
     0
 49
0.0208333333333333
 49
0.0
 49
0.0
 49
0.0
 49
0.0
 49
0.0208333333333333
 49
0.0
 49
0.0
 49
0.0
 49
0.0
 49
1.0
 49
0.0
 49
0.0
 49
0.0
 49
0.0
 49
1.0
175
     0
142
0.0208333333333333
142
0.0
142
0.0
142
0.0
142
0.0
142
0.0208333333333333
142
0.0
142
0.0
142
0.0
142
0.0
142
1.0
142
0.0
142
0.0
142
0.0
142
0.0
142
1.0
179
     0
144
0.0208333333333333
144
0.0
144
0.0
144
0.0
144
0.0
144
0.0208333333333333
144
0.0
144
0.0
144
0.0
144
0.0
144
1.0
144
0.0
144
0.0
144
0.0
144
0.0
144
1.0
147
0.0208333333333333
147
0.0
147
0.0
147
0.0
147
0.0
147
0.0208333333333333
147
0.0
147
0.0
147
0.0
147
0.0
147
1.0
147
0.0
147
0.0
147
0.0
147
0.0
147
1.0
  0
MATERIAL
  5
346
102
{ACAD_XDICTIONARY
360
347
102
}
102
{ACAD_REACTORS
330
335
102
}
330
335
100
AcDbMaterial
  1
Global
 72
     0
 43
0.0208333333333333
 43
0.0
 43
0.0
 43
0.0
 43
0.0
 43
0.0208333333333333
 43
0.0
 43
0.0
 43
0.0
 43
0.0
 43
1.0
 43
0.0
 43
0.0
 43
0.0
 43
0.0
 43
1.0
 77
     0
 47
0.0208333333333333
 47
0.0
 47
0.0
 47
0.0
 47
0.0
 47
0.0208333333333333
 47
0.0
 47
0.0
 47
0.0
 47
0.0
 47
1.0
 47
0.0
 47
0.0
 47
0.0
 47
0.0
 47
1.0
171
     0
 49
0.0208333333333333
 49
0.0
 49
0.0
 49
0.0
 49
0.0
 49
0.0208333333333333
 49
0.0
 49
0.0
 49
0.0
 49
0.0
 49
1.0
 49
0.0
 49
0.0
 49
0.0
 49
0.0
 49
1.0
175
     0
142
0.0208333333333333
142
0.0
142
0.0
142
0.0
142
0.0
142
0.0208333333333333
142
0.0
142
0.0
142
0.0
142
0.0
142
1.0
142
0.0
142
0.0
142
0.0
142
0.0
142
1.0
179
     0
144
0.0208333333333333
144
0.0
144
0.0
144
0.0
144
0.0
144
0.0208333333333333
144
0.0
144
0.0
144
0.0
144
0.0
144
1.0
144
0.0
144
0.0
144
0.0
144
0.0
144
1.0
147
0.0208333333333333
147
0.0
147
0.0
147
0.0
147
0.0
147
0.0208333333333333
147
0.0
147
0.0
147
0.0
147
0.0
147
1.0
147
0.0
147
0.0
147
0.0
147
0.0
147
1.0
  0
MLEADERSTYLE
  5
38B
102
{ACAD_REACTORS
330
38A
102
}
330
38A
100
AcDbMLeaderStyle
170
     2
171
     1
172
     0
 90
        2
 40
0.0
 41
0.0
173
     1
 91
-1056964608
340
37F
 92
       -2
290
     1
 42
0.09
291
     1
 43
0.36
  3
Standard
 44
0.18
300

342
37A
174
     1
178
     6
175
     1
176
     0
 93
-1056964608
 45
0.18
292
     0
297
     0
 46
0.18
 94
-1056964608
 47
1.0
 49
1.0
140
1.0
293
     1
141
0.0
294
     1
177
     0
142
1.0
295
     0
296
     0
143
0.125
1001
ACAD_MLEADERVER
1070
     2
  0
MLINESTYLE
  5
384
102
{ACAD_REACTORS
330
383
102
}
330
383
100
AcDbMlineStyle
  2
STANDARD
 70
     0
  3

 62
   256
 51
90.0
 52
90.0
 71
     2
 49
0.5
 62
   256
  6
BYLAYER
 49
-0.5
 62
   256
  6
BYLAYER
  0
ACDBPLACEHOLDER
  5
334
102
{ACAD_REACTORS
330
333
102
}
330
333
  0
SCALE
  5
368
102
{ACAD_REACTORS
330
367
102
}
330
367
100
AcDbScale
 70
     0
300
1:1
140
1.0
141
1.0
290
     1
  0
SCALE
  5
369
102
{ACAD_REACTORS
330
367
102
}
330
367
100
AcDbScale
 70
     0
300
1/128" = 1'-0"
140
0.0078125
141
12.0
290
     0
  0
SCALE
  5
36A
102
{ACAD_REACTORS
330
367
102
}
330
367
100
AcDbScale
 70
     0
300
1/64" = 1'-0"
140
0.015625
141
12.0
290
     0
  0
SCALE
  5
36B
102
{ACAD_REACTORS
330
367
102
}
330
367
100
AcDbScale
 70
     0
300
1/32" = 1'-0"
140
0.03125
141
12.0
290
     0
  0
SCALE
  5
36C
102
{ACAD_REACTORS
330
367
102
}
330
367
100
AcDbScale
 70
     0
300
1/16" = 1'-0"
140
0.0625
141
12.0
290
     0
  0
SCALE
  5
36D
102
{ACAD_REACTORS
330
367
102
}
330
367
100
AcDbScale
 70
     0
300
3/32" = 1'-0"
140
0.09375
141
12.0
290
     0
  0
SCALE
  5
36E
102
{ACAD_REACTORS
330
367
102
}
330
367
100
AcDbScale
 70
     0
300
1/8" = 1'-0"
140
0.125
141
12.0
290
     0
  0
SCALE
  5
36F
102
{ACAD_REACTORS
330
367
102
}
330
367
100
AcDbScale
 70
     0
300
3/16" = 1'-0"
140
0.1875
141
12.0
290
     0
  0
SCALE
  5
370
102
{ACAD_REACTORS
330
367
102
}
330
367
100
AcDbScale
 70
     0
300
1/4" = 1'-0"
140
0.25
141
12.0
290
     0
  0
SCALE
  5
371
102
{ACAD_REACTORS
330
367
102
}
330
367
100
AcDbScale
 70
     0
300
3/8" = 1'-0"
140
0.375
141
12.0
290
     0
  0
SCALE
  5
372
102
{ACAD_REACTORS
330
367
102
}
330
367
100
AcDbScale
 70
     0
300
1/2" = 1'-0"
140
0.5
141
12.0
290
     0
  0
SCALE
  5
373
102
{ACAD_REACTORS
330
367
102
}
330
367
100
AcDbScale
 70
     0
300
3/4" = 1'-0"
140
0.75
141
12.0
290
     0
  0
SCALE
  5
374
102
{ACAD_REACTORS
330
367
102
}
330
367
100
AcDbScale
 70
     0
300
1" = 1'-0"
140
1.0
141
12.0
290
     0
  0
SCALE
  5
375
102
{ACAD_REACTORS
330
367
102
}
330
367
100
AcDbScale
 70
     0
300
1-1/2" = 1'-0"
140
1.5
141
12.0
290
     0
  0
SCALE
  5
376
102
{ACAD_REACTORS
330
367
102
}
330
367
100
AcDbScale
 70
     0
300
3" = 1'-0"
140
3.0
141
12.0
290
     0
  0
SCALE
  5
377
102
{ACAD_REACTORS
330
367
102
}
330
367
100
AcDbScale
 70
     0
300
6" = 1'-0"
140
6.0
141
12.0
290
     0
  0
SCALE
  5
378
102
{ACAD_REACTORS
330
367
102
}
330
367
100
AcDbScale
 70
     0
300
1'-0" = 1'-0"
140
12.0
141
12.0
290
     0
  0
ACDBSECTIONVIEWSTYLE
  5
38D
102
{ACAD_XDICTIONARY
360
43D
102
}
102
{ACAD_REACTORS
330
38C
102
}
330
38C
100
AcDbModelDocViewStyle
 70
     0
  3
Imperial24
290
     0
100
AcDbSectionViewStyle
 70
     0
 71
     0
 90
       78
 71
     1
340
37A
 40
0.24
340
0
340
0
 40
0.24
300
I, O, Q, S, X, Z
 40
0.48
 90
        3
 40
0.18
 90
        1
 71
     2
340
381
 90
       25
340
381
 90
       50
 40
0.24
 40
0.0
 40
0.24
 71
     3
340
37A
 40
0.24
 90
        1
 40
0.75
 90
        1
300
%<\AcVar ViewType \f "%tc1">% %<\AcVar ViewSectionStartId>%-%<\AcVar ViewSectionEndId>%\PSCALE %<\AcVar ViewScale \f "%sn">%
 71
     4
300
ANSI31
 40
1.0
 90
        0
290
     0
290
     0
 90
        6
 40
0.0
 40
1.570796326794896
 40
0.2617993877991494
 40
1.308996938995747
 40
-0.2617993877991494
 40
1.832595714594045
  0
TABLESTYLE
  5
389
102
{ACAD_XDICTIONARY
360
3C2
102
}
102
{ACAD_REACTORS
330
388
102
}
330
388
100
AcDbTableStyle
  3
Standard
 70
     0
 71
     0
 40
0.06
 41
0.06
280
     0
281
     0
  7
STANDARD
140
0.18
170
     2
 62
     0
 63
     7
283
     0
274
    -2
284
     1
 64
     0
275
    -2
285
     1
 65
     0
276
    -2
286
     1
 66
     0
277
    -2
287
     1
 67
     0
278
    -2
288
     1
 68
     0
279
    -2
289
     1
 69
     0
  7
STANDARD
140
0.25
170
     5
 62
     0
 63
     7
283
     0
274
    -2
284
     1
 64
     0
275
    -2
285
     1
 65
     0
276
    -2
286
     1
 66
     0
277
    -2
287
     1
 67
     0
278
    -2
288
     1
 68
     0
279
    -2
289
     1
 69
     0
  7
STANDARD
140
0.18
170
     5
 62
     0
 63
     7
283
     0
274
    -2
284
     1
 64
     0
275
    -2
285
     1
 65
     0
276
    -2
286
     1
 66
     0
277
    -2
287
     1
 67
     0
278
    -2
288
     1
 68
     0
279
    -2
289
     1
 69
     0
  0
VISUALSTYLE
  5
354
102
{ACAD_XDICTIONARY
360
416
102
}
102
{ACAD_REACTORS
330
34E
102
}
330
34E
100
AcDbVisualStyle
  2

 70
     4
 71
     0
 72
     2
 73
     0
 90
        0
 40
-0.6
 41
-30.0
 62
     5
 63
     7
 74
     1
 91
        4
 64
     7
 65
   257
 75
     1
175
     1
 42
1.0
 92
        0
 66
   257
 43
1.0
 76
     1
 77
     6
 78
     2
 67
     7
 79
     5
170
     0
171
     0
290
     0
174
     0
 93
        1
 44
0.0
173
     0
291
     0
 45
0.0
1001
ACAD
1000
AcDbSavedByObjectVersion
1070
     0
  0
VISUALSTYLE
  5
353
102
{ACAD_XDICTIONARY
360
414
102
}
102
{ACAD_REACTORS
330
34E
102
}
330
34E
100
AcDbVisualStyle
  2

 70
     7
 71
     1
 72
     0
 73
     1
 90
        0
 40
-0.6
 41
-30.0
 62
     5
 63
     7
 74
     0
 91
        4
 64
     7
 65
   257
 75
     1
175
     1
 42
1.0
 92
        8
 66
     7
 43
1.0
 76
     1
 77
     6
 78
     2
 67
     7
 79
     5
170
     0
171
     0
290
     0
174
     0
 93
        1
 44
0.0
173
     0
291
     1
 45
0.0
1001
ACAD
1000
AcDbSavedByObjectVersion
1070
     0
  0
VISUALSTYLE
  5
35A
102
{ACAD_XDICTIONARY
360
422
102
}
102
{ACAD_REACTORS
330
34E
102
}
330
34E
100
AcDbVisualStyle
  2

 70
    12
 71
     2
 72
     2
 73
     0
 90
        0
 40
-0.6
 41
-30.0
 62
     5
 63
     7
 74
     1
 91
        4
 64
     7
 65
   257
 75
     1
175
     1
 42
1.0
 92
        8
 66
     7
 43
1.0
 76
     1
 77
     6
 78
     2
 67
     7
 79
     5
170
     0
171
     0
290
     0
174
     0
 93
        1
 44
50.0
173
     0
291
     1
 45
0.0
1001
ACAD
1000
AcDbSavedByObjectVersion
1070
     0
  0
VISUALSTYLE
  5
35E
102
{ACAD_XDICTIONARY
360
42A
102
}
102
{ACAD_REACTORS
330
34E
102
}
330
34E
100
AcDbVisualStyle
  2

 70
    16
 71
     2
 72
     2
 73
     3
 90
        0
 40
-0.6
 41
-30.0
 62
     5
 63
     8
 74
     1
 91
        4
 64
     7
 65
   257
 75
     1
175
     1
 42
1.0
 92
        8
 66
     8
 43
1.0
 76
     1
 77
     6
 78
     2
 67
     7
 79
     5
170
     0
171
     0
290
     0
174
     0
 93
        1
 44
0.0
173
     0
291
     1
 45
0.0
1001
ACAD
1000
AcDbSavedByObjectVersion
1070
     0
  0
VISUALSTYLE
  5
357
102
{ACAD_XDICTIONARY
360
41C
102
}
102
{ACAD_REACTORS
330
34E
102
}
330
34E
100
AcDbVisualStyle
  2

 70
     9
 71
     3
 72
     2
 73
     0
 90
        0
 40
-0.6
 41
-30.0
 62
     5
 63
     7
 74
     2
 91
        2
 64
     7
 65
   257
 75
     1
175
     1
 42
179.0
 92
        8
 66
     7
 43
1.0
 76
     1
 77
     6
 78
     2
 67
     7
 79
     3
170
     0
171
     0
290
     0
174
     0
 93
        1
 44
0.0
173
     0
291
     0
 45
0.0
1001
ACAD
1000
AcDbSavedByObjectVersion
1070
     0
  0
VISUALSTYLE
  5
359
102
{ACAD_XDICTIONARY
360
420
102
}
102
{ACAD_REACTORS
330
34E
102
}
330
34E
100
AcDbVisualStyle
  2

 70
    11
 71
     2
 72
     2
 73
     0
 90
        0
 40
-0.6
 41
-30.0
 62
     5
 63
     7
 74
     1
 91
        4
 64
     7
 65
   257
 75
     1
175
     1
 42
1.0
 92
        8
 66
     7
 43
1.0
 76
     1
 77
     6
 78
     2
 67
     7
 79
     5
170
     0
171
     0
290
     0
174
     0
 93
        1
 44
-50.0
173
     0
291
     1
 45
0.0
1001
ACAD
1000
AcDbSavedByObjectVersion
1070
     0
  0
VISUALSTYLE
  5
366
102
{ACAD_XDICTIONARY
360
43A
102
}
102
{ACAD_REACTORS
330
34E
102
}
330
34E
100
AcDbVisualStyle
  2

 70
    22
 71
     2
 72
     2
 73
     0
 90
        0
 40
-0.6
 41
-30.0
 62
     5
 63
     7
 74
     1
 91
        4
 64
     7
 65
   257
 75
     1
175
     1
 42
1.0
 92
        8
 66
     7
 43
1.0
 76
     1
 77
     6
 78
     2
 67
     7
 79
     5
170
     0
171
     0
290
     0
174
     0
 93
        1
 44
0.0
173
     0
291
     1
 45
0.0
1001
ACAD
1000
AcDbSavedByObjectVersion
1070
     0
  0
VISUALSTYLE
  5
35D
102
{ACAD_XDICTIONARY
360
428
102
}
102
{ACAD_REACTORS
330
34E
102
}
330
34E
100
AcDbVisualStyle
  2

 70
    15
 71
     2
 72
     2
 73
     0
 90
        0
 40
-0.6
 41
-30.0
 62
     5
 63
     7
 74
     1
 91
        4
 64
     7
 65
   257
 75
     1
175
     1
 42
1.0
 92
        8
 66
     7
 43
1.0
 76
     1
 77
     6
 78
     2
 67
     7
 79
     5
170
     0
171
     0
290
     0
174
     0
 93
        1
 44
0.0
173
     0
291
     1
 45
0.0
1001
ACAD
1000
AcDbSavedByObjectVersion
1070
     0
  0
VISUALSTYLE
  5
34F
102
{ACAD_XDICTIONARY
360
40C
102
}
102
{ACAD_REACTORS
330
34E
102
}
330
34E
100
AcDbVisualStyle
  2

 70
     0
 71
     2
 72
     1
 73
     1
 90
        2
 40
-0.6
 41
30.0
 62
     5
 63
     7
 74
     0
 91
        0
 64
     7
 65
   257
 75
     1
175
     1
 42
1.0
 92
        8
 66
     7
 43
1.0
 76
     1
 77
     6
 78
     2
 67
     7
 79
     5
170
     0
171
     0
290
     0
174
     0
 93
       13
 44
0.0
173
     0
291
     1
 45
0.0
1001
ACAD
1000
AcDbSavedByObjectVersion
1070
     0
  0
VISUALSTYLE
  5
350
102
{ACAD_XDICTIONARY
360
40E
102
}
102
{ACAD_REACTORS
330
34E
102
}
330
34E
100
AcDbVisualStyle
  2

 70
     1
 71
     2
 72
     1
 73
     1
 90
        2
 40
-0.6
 41
30.0
 62
     5
 63
     7
 74
     1
 91
        0
 64
     7
 65
   257
 75
     1
175
     1
 42
1.0
 92
        0
 66
   257
 43
1.0
 76
     1
 77
     6
 78
     2
 67
     7
 79
     5
170
     0
171
     0
290
     0
174
     0
 93
       13
 44
0.0
173
     0
291
     1
 45
0.0
1001
ACAD
1000
AcDbSavedByObjectVersion
1070
     0
  0
VISUALSTYLE
  5
351
102
{ACAD_XDICTIONARY
360
410
102
}
102
{ACAD_REACTORS
330
34E
102
}
330
34E
100
AcDbVisualStyle
  2

 70
     2
 71
     2
 72
     2
 73
     1
 90
        2
 40
-0.6
 41
30.0
 62
     5
 63
     7
 74
     0
 91
        0
 64
     7
 65
   257
 75
     1
175
     1
 42
1.0
 92
        0
 66
     7
 43
1.0
 76
     1
 77
     6
 78
     2
 67
     7
 79
     5
170
     0
171
     0
290
     0
174
     0
 93
       13
 44
0.0
173
     0
291
     1
 45
0.0
1001
ACAD
1000
AcDbSavedByObjectVersion
1070
     0
  0
VISUALSTYLE
  5
352
102
{ACAD_XDICTIONARY
360
412
102
}
102
{ACAD_REACTORS
330
34E
102
}
330
34E
100
AcDbVisualStyle
  2

 70
     3
 71
     2
 72
     2
 73
     1
 90
        2
 40
-0.6
 41
30.0
 62
     5
 63
     7
 74
     1
 91
        0
 64
     7
 65
   257
 75
     1
175
     1
 42
1.0
 92
        0
 66
   257
 43
1.0
 76
     1
 77
     6
 78
     2
 67
     7
 79
     5
170
     0
171
     0
290
     0
174
     0
 93
       13
 44
0.0
173
     0
291
     1
 45
0.0
1001
ACAD
1000
AcDbSavedByObjectVersion
1070
     0
  0
VISUALSTYLE
  5
356
102
{ACAD_XDICTIONARY
360
41A
102
}
102
{ACAD_REACTORS
330
34E
102
}
330
34E
100
AcDbVisualStyle
  2

 70
     6
 71
     1
 72
     2
 73
     2
 90
        0
 40
-0.6
 41
-30.0
 62
     5
 63
     7
 74
     2
 91
        2
 64
     7
 65
   257
 75
     2
175
     1
 42
40.0
 92
        0
 66
   257
 43
1.0
 76
     1
 77
     6
 78
     2
 67
     7
 79
     3
170
     0
171
     0
290
     0
174
     0
 93
        1
 44
0.0
173
     0
291
     0
 45
0.0
1001
ACAD
1000
AcDbSavedByObjectVersion
1070
     0
  0
VISUALSTYLE
  5
364
102
{ACAD_XDICTIONARY
360
436
102
}
102
{ACAD_REACTORS
330
34E
102
}
330
34E
100
AcDbVisualStyle
  2

 70
    20
 71
     2
 72
     2
 73
     0
 90
        0
 40
-0.6
 41
-30.0
 62
     5
 63
     7
 74
     1
 91
        4
 64
     7
 65
   257
 75
     1
175
     1
 42
1.0
 92
       10
 66
     7
 43
1.0
 76
     1
 77
     6
 78
     2
 67
     7
 79
     5
170
     0
171
     0
290
     0
174
     0
 93
        1
 44
0.0
173
     0
291
     1
 45
0.0
1001
ACAD
1000
AcDbSavedByObjectVersion
1070
     0
  0
VISUALSTYLE
  5
35C
102
{ACAD_XDICTIONARY
360
426
102
}
102
{ACAD_REACTORS
330
34E
102
}
330
34E
100
AcDbVisualStyle
  2

 70
    14
 71
     2
 72
     2
 73
     0
 90
        0
 40
-0.6
 41
-30.0
 62
     5
 63
     7
 74
     1
 91
        4
 64
     7
 65
   257
 75
     7
175
     7
 42
1.0
 92
        8
 66
     7
 43
1.0
 76
     1
 77
     6
 78
     2
 67
     7
 79
     5
170
     0
171
     0
290
     0
174
     0
 93
        1
 44
0.0
173
     0
291
     1
 45
0.0
1001
ACAD
1000
AcDbSavedByObjectVersion
1070
     0
  0
VISUALSTYLE
  5
365
102
{ACAD_XDICTIONARY
360
438
102
}
102
{ACAD_REACTORS
330
34E
102
}
330
34E
100
AcDbVisualStyle
  2

 70
    21
 71
     2
 72
     2
 73
     0
 90
        0
 40
-0.6
 41
-30.0
 62
     5
 63
     7
 74
     1
 91
        4
 64
     7
 65
   257
 75
     1
175
     1
 42
1.0
 92
        9
 66
     7
 43
1.0
 76
     1
 77
     6
 78
     2
 67
     7
 79
     5
170
     0
171
     0
290
     0
174
     0
 93
        1
 44
0.0
173
     0
291
     1
 45
0.0
1001
ACAD
1000
AcDbSavedByObjectVersion
1070
     0
  0
VISUALSTYLE
  5
358
102
{ACAD_XDICTIONARY
360
41E
102
}
102
{ACAD_REACTORS
330
34E
102
}
330
34E
100
AcDbVisualStyle
  2

 70
     8
 71
     2
 72
     3
 73
     0
 90
        2
 40
-0.6
 41
30.0
 62
     5
 63
     7
 74
     0
 91
        0
 64
     7
 65
   257
 75
     1
175
     1
 42
1.0
 92
        8
 66
   257
 43
1.0
 76
     1
 77
     6
 78
     2
 67
     7
 79
     3
170
     0
171
     0
290
     0
174
     0
 93
       13
 44
0.0
173
     0
291
     0
 45
0.0
1001
ACAD
1000
AcDbSavedByObjectVersion
1070
     0
  0
VISUALSTYLE
  5
363
102
{ACAD_XDICTIONARY
360
434
102
}
102
{ACAD_REACTORS
330
34E
102
}
330
34E
100
AcDbVisualStyle
  2

 70
    27
 71
     2
 72
     2
 73
     1
 90
        2
 40
-0.6
 41
30.0
 62
     5
 63
     7
 74
     0
 91
        4
 64
     7
 65
   257
 75
     1
175
     1
 42
1.0
 92
        8
 66
   257
 43
1.0
 76
     1
 77
     6
 78
     2
 67
     8
 79
     3
170
     0
171
     0
290
     0
174
     0
 93
        5
 44
0.0
173
     0
291
     0
 45
0.0
1001
ACAD
1000
AcDbSavedByObjectVersion
1070
     0
  0
VISUALSTYLE
  5
362
102
{ACAD_XDICTIONARY
360
432
102
}
102
{ACAD_REACTORS
330
34E
102
}
330
34E
100
AcDbVisualStyle
  2

 70
    26
 71
     2
 72
     2
 73
     1
 90
        2
 40
-0.6
 41
30.0
 62
     5
 63
     7
 74
     1
 91
        2
 64
     7
 65
   257
 75
     2
175
     1
 42
1.0
 92
        8
 66
   257
 43
1.0
 76
     1
 77
     6
 78
     2
 67
     7
 79
     3
170
     0
171
     0
290
     0
174
     0
 93
        5
 44
0.0
173
     0
291
     0
 45
0.0
1001
ACAD
1000
AcDbSavedByObjectVersion
1070
     0
  0
VISUALSTYLE
  5
35F
102
{ACAD_XDICTIONARY
360
42C
102
}
102
{ACAD_REACTORS
330
34E
102
}
330
34E
100
AcDbVisualStyle
  2

 70
    23
 71
     2
 72
     2
 73
     3
 90
        0
 40
-0.6
 41
-30.0
 62
     5
 63
     7
 74
     2
 91
        2
 64
     7
 65
     7
 75
     1
175
     1
 42
40.0
 92
        8
 66
     7
 43
1.0
 76
     1
 77
     6
 78
     2
 67
     7
 79
     3
170
     0
171
     0
290
     0
174
     0
 93
        1
 44
0.0
173
     0
291
     0
 45
0.0
1001
ACAD
1000
AcDbSavedByObjectVersion
1070
     0
  0
VISUALSTYLE
  5
360
102
{ACAD_XDICTIONARY
360
42E
102
}
102
{ACAD_REACTORS
330
34E
102
}
330
34E
100
AcDbVisualStyle
  2

 70
    24
 71
     1
 72
     2
 73
     2
 90
        0
 40
-0.6
 41
-30.0
 62
     5
 63
     7
 74
     2
 91
        2
 64
     7
 65
     7
 75
     1
175
     1
 42
40.0
 92
       11
 66
     7
 43
1.0
 76
     1
 77
     6
 78
     2
 67
     7
 79
     6
170
     0
171
     0
290
     0
174
     0
 93
        1
 44
0.0
173
     0
291
     0
 45
0.0
1001
ACAD
1000
AcDbSavedByObjectVersion
1070
     0
  0
VISUALSTYLE
  5
35B
102
{ACAD_XDICTIONARY
360
424
102
}
102
{ACAD_REACTORS
330
34E
102
}
330
34E
100
AcDbVisualStyle
  2

 70
    13
 71
     2
 72
     2
 73
     0
 90
        0
 40
-0.6
 41
-30.0
 62
     5
 63
     7
 74
     1
 91
        4
 64
     7
 65
   257
 75
     1
175
     1
 42
1.0
 92
       12
 66
     7
 43
1.0
 76
     1
 77
     6
 78
     2
 67
     7
 79
     5
170
     0
171
     0
290
     0
174
     0
 93
        1
 44
0.0
173
     0
291
     1
 45
0.0
1001
ACAD
1000
AcDbSavedByObjectVersion
1070
     0
  0
VISUALSTYLE
  5
355
102
{ACAD_XDICTIONARY
360
418
102
}
102
{ACAD_REACTORS
330
34E
102
}
330
34E
100
AcDbVisualStyle
  2

 70
     5
 71
     0
 72
     2
 73
     0
 90
        0
 40
-0.6
 41
-30.0
 62
     5
 63
     7
 74
     1
 91
        4
 64
     7
 65
   257
 75
     1
175
     1
 42
1.0
 92
        0
 66
   257
 43
1.0
 76
     1
 77
     6
 78
     2
 67
     7
 79
     3
170
     0
171
     0
290
     0
174
     0
 93
        1
 44
0.0
173
     0
291
     0
 45
0.0
1001
ACAD
1000
AcDbSavedByObjectVersion
1070
     0
  0
VISUALSTYLE
  5
361
102
{ACAD_XDICTIONARY
360
430
102
}
102
{ACAD_REACTORS
330
34E
102
}
330
34E
100
AcDbVisualStyle
  2

 70
    25
 71
     2
 72
     2
 73
     1
 90
        1
 40
0.5
 41
-30.0
 62
     5
 63
     7
 74
     1
 91
        0
 64
     7
 65
   257
 75
     1
175
     1
 42
1.0
 92
        8
 66
     7
 43
1.0
 76
     1
 77
     6
 78
     2
 67
     7
 79
     3
170
     0
171
     0
290
     0
174
     0
 93
       13
 44
0.0
173
     0
291
     0
 45
0.0
1001
ACAD
1000
AcDbSavedByObjectVersion
1070
     0
  0
DICTIONARYVAR
  5
3BC
102
{ACAD_REACTORS
330
3B7
102
}
330
3B7
100
DictionaryVariables
280
     0
  1
1:1
  0
DICTIONARYVAR
  5
3B9
102
{ACAD_REACTORS
330
3B7
102
}
330
3B7
100
DictionaryVariables
280
     0
  1
STANDARD
  0
DICTIONARYVAR
  5
3B8
102
{ACAD_REACTORS
330
3B7
102
}
330
3B7
100
DictionaryVariables
280
     0
  1
STANDARD
  0
DICTIONARYVAR
  5
3BA
102
{ACAD_REACTORS
330
3B7
102
}
330
3B7
100
DictionaryVariables
280
     0
  1
Imperial24
  0
DICTIONARYVAR
  5
3BB
102
{ACAD_REACTORS
330
3B7
102
}
330
3B7
100
DictionaryVariables
280
     0
  1
Imperial24
  0
DICTIONARYVAR
  5
3BF
102
{ACAD_REACTORS
330
3B7
102
}
330
3B7
100
DictionaryVariables
280
     0
  1
1
  0
DICTIONARYVAR
  5
3BE
102
{ACAD_REACTORS
330
3B7
102
}
330
3B7
100
DictionaryVariables
280
     0
  1
0
  0
DICTIONARYVAR
  5
3BD
102
{ACAD_REACTORS
330
3B7
102
}
330
3B7
100
DictionaryVariables
280
     0
  1
127
  0
DICTIONARYVAR
  5
408
102
{ACAD_REACTORS
330
3B7
102
}
330
3B7
100
DictionaryVariables
280
     0
  1
2
  0
DICTIONARY
  5
43F
330
38F
100
AcDbDictionary
280
     1
281
     1
  3
ACAD_XREC_ROUNDTRIP
360
440
  0
DICTIONARY
  5
443
330
397
100
AcDbDictionary
280
     1
281
     1
  3
ACAD_XREC_ROUNDTRIP
360
444
  0
DICTIONARY
  5
441
330
393
100
AcDbDictionary
280
     1
281
     1
  3
ACAD_XREC_ROUNDTRIP
360
442
  0
DICTIONARY
  5
33F
330
33E
100
AcDbDictionary
280
     1
281
     1
  3
ACAD_XREC_ROUNDTRIP
360
3C7
  3
BUMPTILE
360
341
  3
DIFFUSETILE
360
340
  3
OPACITYTILE
360
344
  3
REFLECTIONTILE
360
343
  3
REFRACTIONTILE
360
345
  3
SPECULARTILE
360
342
  0
DICTIONARY
  5
337
330
336
100
AcDbDictionary
280
     1
281
     1
  3
ACAD_XREC_ROUNDTRIP
360
3C6
  3
BUMPTILE
360
339
  3
DIFFUSETILE
360
338
  3
OPACITYTILE
360
33C
  3
REFLECTIONTILE
360
33B
  3
REFRACTIONTILE
360
33D
  3
SPECULARTILE
360
33A
  0
DICTIONARY
  5
347
330
346
100
AcDbDictionary
280
     1
281
     1
  3
ACAD_XREC_ROUNDTRIP
360
3C8
  3
BUMPTILE
360
349
  3
DIFFUSETILE
360
348
  3
OPACITYTILE
360
34C
  3
REFLECTIONTILE
360
34B
  3
REFRACTIONTILE
360
34D
  3
SPECULARTILE
360
34A
  0
DICTIONARY
  5
43D
330
38D
100
AcDbDictionary
280
     1
281
     1
  3
ACAD_XREC_ROUNDTRIP
360
43E
  0
DICTIONARY
  5
3C2
330
389
100
AcDbDictionary
280
     1
281
     1
  3
ACAD_ROUNDTRIP_2008_TABLESTYLE_CELLSTYLEMAP
360
409
  3
ACAD_XREC_ROUNDTRIP
360
43C
  0
DICTIONARY
  5
416
330
354
100
AcDbDictionary
280
     1
281
     1
  3
ACAD_XREC_ROUNDTRIP
360
417
  0
DICTIONARY
  5
414
330
353
100
AcDbDictionary
280
     1
281
     1
  3
ACAD_XREC_ROUNDTRIP
360
415
  0
DICTIONARY
  5
422
330
35A
100
AcDbDictionary
280
     1
281
     1
  3
ACAD_XREC_ROUNDTRIP
360
423
  0
DICTIONARY
  5
42A
330
35E
100
AcDbDictionary
280
     1
281
     1
  3
ACAD_XREC_ROUNDTRIP
360
42B
  0
DICTIONARY
  5
41C
330
357
100
AcDbDictionary
280
     1
281
     1
  3
ACAD_XREC_ROUNDTRIP
360
41D
  0
DICTIONARY
  5
420
330
359
100
AcDbDictionary
280
     1
281
     1
  3
ACAD_XREC_ROUNDTRIP
360
421
  0
DICTIONARY
  5
43A
330
366
100
AcDbDictionary
280
     1
281
     1
  3
ACAD_XREC_ROUNDTRIP
360
43B
  0
DICTIONARY
  5
428
330
35D
100
AcDbDictionary
280
     1
281
     1
  3
ACAD_XREC_ROUNDTRIP
360
429
  0
DICTIONARY
  5
40C
330
34F
100
AcDbDictionary
280
     1
281
     1
  3
ACAD_XREC_ROUNDTRIP
360
40D
  0
DICTIONARY
  5
40E
330
350
100
AcDbDictionary
280
     1
281
     1
  3
ACAD_XREC_ROUNDTRIP
360
40F
  0
DICTIONARY
  5
410
330
351
100
AcDbDictionary
280
     1
281
     1
  3
ACAD_XREC_ROUNDTRIP
360
411
  0
DICTIONARY
  5
412
330
352
100
AcDbDictionary
280
     1
281
     1
  3
ACAD_XREC_ROUNDTRIP
360
413
  0
DICTIONARY
  5
41A
330
356
100
AcDbDictionary
280
     1
281
     1
  3
ACAD_XREC_ROUNDTRIP
360
41B
  0
DICTIONARY
  5
436
330
364
100
AcDbDictionary
280
     1
281
     1
  3
ACAD_XREC_ROUNDTRIP
360
437
  0
DICTIONARY
  5
426
330
35C
100
AcDbDictionary
280
     1
281
     1
  3
ACAD_XREC_ROUNDTRIP
360
427
  0
DICTIONARY
  5
438
330
365
100
AcDbDictionary
280
     1
281
     1
  3
ACAD_XREC_ROUNDTRIP
360
439
  0
DICTIONARY
  5
41E
330
358
100
AcDbDictionary
280
     1
281
     1
  3
ACAD_XREC_ROUNDTRIP
360
41F
  0
DICTIONARY
  5
434
330
363
100
AcDbDictionary
280
     1
281
     1
  3
ACAD_XREC_ROUNDTRIP
360
435
  0
DICTIONARY
  5
432
330
362
100
AcDbDictionary
280
     1
281
     1
  3
ACAD_XREC_ROUNDTRIP
360
433
  0
DICTIONARY
  5
42C
330
35F
100
AcDbDictionary
280
     1
281
     1
  3
ACAD_XREC_ROUNDTRIP
360
42D
  0
DICTIONARY
  5
42E
330
360
100
AcDbDictionary
280
     1
281
     1
  3
ACAD_XREC_ROUNDTRIP
360
42F
  0
DICTIONARY
  5
424
330
35B
100
AcDbDictionary
280
     1
281
     1
  3
ACAD_XREC_ROUNDTRIP
360
425
  0
DICTIONARY
  5
418
330
355
100
AcDbDictionary
280
     1
281
     1
  3
ACAD_XREC_ROUNDTRIP
360
419
  0
DICTIONARY
  5
430
330
361
100
AcDbDictionary
280
     1
281
     1
  3
ACAD_XREC_ROUNDTRIP
360
431
  0
XRECORD
  5
440
102
{ACAD_REACTORS
330
43F
102
}
330
43F
100
AcDbXrecord
280
     1
102
DISPLAYNAME
  1
Imperial24
102
FLAGS
 90
        0
  0
XRECORD
  5
444
102
{ACAD_REACTORS
330
443
102
}
330
443
100
AcDbXrecord
280
     1
102
SHADEPLOT
 70
     0
102
SHADEPLOTRESLEVEL
 70
     2
102
SHADEPLOTCUSTOMDPI
 70
   300
  0
XRECORD
  5
442
102
{ACAD_REACTORS
330
441
102
}
330
441
100
AcDbXrecord
280
     1
102
SHADEPLOT
 70
     0
102
SHADEPLOTRESLEVEL
 70
     2
102
SHADEPLOTCUSTOMDPI
 70
   300
  0
XRECORD
  5
3C7
102
{ACAD_REACTORS
330
33F
102
}
330
33F
100
AcDbXrecord
280
     1
102
MATERIAL
148
0.0
149
0.0
149
0.0
 93
        0
 94
      127
282
     0
 72
     0
 77
     0
171
     0
175
     0
179
     0
273
     0
  0
XRECORD
  5
341
102
{ACAD_REACTORS
330
33F
102
}
330
33F
100
AcDbXrecord
280
     1
270
     1
271
     1
  0
XRECORD
  5
340
102
{ACAD_REACTORS
330
33F
102
}
330
33F
100
AcDbXrecord
280
     1
270
     1
271
     1
  0
XRECORD
  5
344
102
{ACAD_REACTORS
330
33F
102
}
330
33F
100
AcDbXrecord
280
     1
270
     1
271
     1
  0
XRECORD
  5
343
102
{ACAD_REACTORS
330
33F
102
}
330
33F
100
AcDbXrecord
280
     1
270
     1
271
     1
  0
XRECORD
  5
345
102
{ACAD_REACTORS
330
33F
102
}
330
33F
100
AcDbXrecord
280
     1
270
     1
271
     1
  0
XRECORD
  5
342
102
{ACAD_REACTORS
330
33F
102
}
330
33F
100
AcDbXrecord
280
     1
270
     1
271
     1
  0
XRECORD
  5
3C6
102
{ACAD_REACTORS
330
337
102
}
330
337
100
AcDbXrecord
280
     1
102
MATERIAL
148
0.0
149
0.0
149
0.0
 93
        0
 94
      127
282
     0
 72
     0
 77
     0
171
     0
175
     0
179
     0
273
     0
  0
XRECORD
  5
339
102
{ACAD_REACTORS
330
337
102
}
330
337
100
AcDbXrecord
280
     1
270
     1
271
     1
  0
XRECORD
  5
338
102
{ACAD_REACTORS
330
337
102
}
330
337
100
AcDbXrecord
280
     1
270
     1
271
     1
  0
XRECORD
  5
33C
102
{ACAD_REACTORS
330
337
102
}
330
337
100
AcDbXrecord
280
     1
270
     1
271
     1
  0
XRECORD
  5
33B
102
{ACAD_REACTORS
330
337
102
}
330
337
100
AcDbXrecord
280
     1
270
     1
271
     1
  0
XRECORD
  5
33D
102
{ACAD_REACTORS
330
337
102
}
330
337
100
AcDbXrecord
280
     1
270
     1
271
     1
  0
XRECORD
  5
33A
102
{ACAD_REACTORS
330
337
102
}
330
337
100
AcDbXrecord
280
     1
270
     1
271
     1
  0
XRECORD
  5
3C8
102
{ACAD_REACTORS
330
347
102
}
330
347
100
AcDbXrecord
280
     1
102
MATERIAL
148
0.0
149
0.0
149
0.0
 93
        0
 94
      127
282
     0
 72
     0
 77
     0
171
     0
175
     0
179
     0
273
     0
  0
XRECORD
  5
349
102
{ACAD_REACTORS
330
347
102
}
330
347
100
AcDbXrecord
280
     1
270
     1
271
     1
  0
XRECORD
  5
348
102
{ACAD_REACTORS
330
347
102
}
330
347
100
AcDbXrecord
280
     1
270
     1
271
     1
  0
XRECORD
  5
34C
102
{ACAD_REACTORS
330
347
102
}
330
347
100
AcDbXrecord
280
     1
270
     1
271
     1
  0
XRECORD
  5
34B
102
{ACAD_REACTORS
330
347
102
}
330
347
100
AcDbXrecord
280
     1
270
     1
271
     1
  0
XRECORD
  5
34D
102
{ACAD_REACTORS
330
347
102
}
330
347
100
AcDbXrecord
280
     1
270
     1
271
     1
  0
XRECORD
  5
34A
102
{ACAD_REACTORS
330
347
102
}
330
347
100
AcDbXrecord
280
     1
270
     1
271
     1
  0
XRECORD
  5
43E
102
{ACAD_REACTORS
330
43D
102
}
330
43D
100
AcDbXrecord
280
     1
102
DISPLAYNAME
  1
Imperial24
102
FLAGS
 90
        0
  0
CELLSTYLEMAP
  5
409
102
{ACAD_REACTORS
330
3C2
102
}
330
3C2
100
AcDbCellStyleMap
 90
        3
300
CELLSTYLE
  1
TABLEFORMAT_BEGIN
 90
        5
170
     1
 91
        0
 92
    32768
 62
   257
 93
        1
300
CONTENTFORMAT
  1
CONTENTFORMAT_BEGIN
 90
        0
 91
        0
 92
      512
 93
        0
300

 40
0.0
140
1.0
 94
        5
 62
     0
340
37A
144
0.25
309
CONTENTFORMAT_END
171
     1
301
MARGIN
  1
CELLMARGIN_BEGIN
 40
0.06
 40
0.06
 40
0.06
 40
0.06
 40
0.18
 40
0.18
309
CELLMARGIN_END
 94
        6
 95
        1
302
GRIDFORMAT
  1
GRIDFORMAT_BEGIN
 90
        0
 91
        1
 62
     0
 92
       -2
340
0
 93
        0
 40
0.045
309
GRIDFORMAT_END
 95
        2
302
GRIDFORMAT
  1
GRIDFORMAT_BEGIN
 90
        0
 91
        1
 62
     0
 92
       -2
340
0
 93
        0
 40
0.045
309
GRIDFORMAT_END
 95
        4
302
GRIDFORMAT
  1
GRIDFORMAT_BEGIN
 90
        0
 91
        1
 62
     0
 92
       -2
340
0
 93
        0
 40
0.045
309
GRIDFORMAT_END
 95
        8
302
GRIDFORMAT
  1
GRIDFORMAT_BEGIN
 90
        0
 91
        1
 62
     0
 92
       -2
340
0
 93
        0
 40
0.045
309
GRIDFORMAT_END
 95
       16
302
GRIDFORMAT
  1
GRIDFORMAT_BEGIN
 90
        0
 91
        1
 62
     0
 92
       -2
340
0
 93
        0
 40
0.045
309
GRIDFORMAT_END
 95
       32
302
GRIDFORMAT
  1
GRIDFORMAT_BEGIN
 90
        0
 91
        1
 62
     0
 92
       -2
340
0
 93
        0
 40
0.045
309
GRIDFORMAT_END
309
TABLEFORMAT_END
  1
CELLSTYLE_BEGIN
 90
        1
 91
        1
300
_TITLE
309
CELLSTYLE_END
300
CELLSTYLE
  1
TABLEFORMAT_BEGIN
 90
        5
170
     1
 91
        0
 92
        0
 62
   257
 93
        1
300
CONTENTFORMAT
  1
CONTENTFORMAT_BEGIN
 90
        0
 91
        0
 92
      512
 93
        0
300

 40
0.0
140
1.0
 94
        5
 62
     0
340
37A
144
0.18
309
CONTENTFORMAT_END
171
     1
301
MARGIN
  1
CELLMARGIN_BEGIN
 40
0.06
 40
0.06
 40
0.06
 40
0.06
 40
0.18
 40
0.18
309
CELLMARGIN_END
 94
        6
 95
        1
302
GRIDFORMAT
  1
GRIDFORMAT_BEGIN
 90
        0
 91
        1
 62
     0
 92
       -2
340
0
 93
        0
 40
0.045
309
GRIDFORMAT_END
 95
        2
302
GRIDFORMAT
  1
GRIDFORMAT_BEGIN
 90
        0
 91
        1
 62
     0
 92
       -2
340
0
 93
        0
 40
0.045
309
GRIDFORMAT_END
 95
        4
302
GRIDFORMAT
  1
GRIDFORMAT_BEGIN
 90
        0
 91
        1
 62
     0
 92
       -2
340
0
 93
        0
 40
0.045
309
GRIDFORMAT_END
 95
        8
302
GRIDFORMAT
  1
GRIDFORMAT_BEGIN
 90
        0
 91
        1
 62
     0
 92
       -2
340
0
 93
        0
 40
0.045
309
GRIDFORMAT_END
 95
       16
302
GRIDFORMAT
  1
GRIDFORMAT_BEGIN
 90
        0
 91
        1
 62
     0
 92
       -2
340
0
 93
        0
 40
0.045
309
GRIDFORMAT_END
 95
       32
302
GRIDFORMAT
  1
GRIDFORMAT_BEGIN
 90
        0
 91
        1
 62
     0
 92
       -2
340
0
 93
        0
 40
0.045
309
GRIDFORMAT_END
309
TABLEFORMAT_END
  1
CELLSTYLE_BEGIN
 90
        2
 91
        1
300
_HEADER
309
CELLSTYLE_END
300
CELLSTYLE
  1
TABLEFORMAT_BEGIN
 90
        5
170
     1
 91
        0
 92
        0
 62
   257
 93
        1
300
CONTENTFORMAT
  1
CONTENTFORMAT_BEGIN
 90
        0
 91
        0
 92
      512
 93
        0
300

 40
0.0
140
1.0
 94
        2
 62
     0
340
37A
144
0.18
309
CONTENTFORMAT_END
171
     1
301
MARGIN
  1
CELLMARGIN_BEGIN
 40
0.06
 40
0.06
 40
0.06
 40
0.06
 40
0.18
 40
0.18
309
CELLMARGIN_END
 94
        6
 95
        1
302
GRIDFORMAT
  1
GRIDFORMAT_BEGIN
 90
        0
 91
        1
 62
     0
 92
       -2
340
0
 93
        0
 40
0.045
309
GRIDFORMAT_END
 95
        2
302
GRIDFORMAT
  1
GRIDFORMAT_BEGIN
 90
        0
 91
        1
 62
     0
 92
       -2
340
0
 93
        0
 40
0.045
309
GRIDFORMAT_END
 95
        4
302
GRIDFORMAT
  1
GRIDFORMAT_BEGIN
 90
        0
 91
        1
 62
     0
 92
       -2
340
0
 93
        0
 40
0.045
309
GRIDFORMAT_END
 95
        8
302
GRIDFORMAT
  1
GRIDFORMAT_BEGIN
 90
        0
 91
        1
 62
     0
 92
       -2
340
0
 93
        0
 40
0.045
309
GRIDFORMAT_END
 95
       16
302
GRIDFORMAT
  1
GRIDFORMAT_BEGIN
 90
        0
 91
        1
 62
     0
 92
       -2
340
0
 93
        0
 40
0.045
309
GRIDFORMAT_END
 95
       32
302
GRIDFORMAT
  1
GRIDFORMAT_BEGIN
 90
        0
 91
        1
 62
     0
 92
       -2
340
0
 93
        0
 40
0.045
309
GRIDFORMAT_END
309
TABLEFORMAT_END
  1
CELLSTYLE_BEGIN
 90
        3
 91
        2
300
_DATA
309
CELLSTYLE_END
  0
XRECORD
  5
43C
102
{ACAD_REACTORS
330
3C2
102
}
330
3C2
100
AcDbXrecord
280
     1
102
ACAD_ROUNDTRIP_PRE2007_TABLESTYLE
 90
      512
 91
        0
  1

 92
      512
 93
        0
  2

 94
      512
 95
        0
  3

  0
XRECORD
  5
417
102
{ACAD_REACTORS
330
416
102
}
330
416
100
AcDbXrecord
280
     1
102
RTVSPost2010Prop28
280
     1
102
RTVSPost2010PropOp28
 70
     1
102
RTVSPost2010Prop29
280
     1
102
RTVSPost2010PropOp29
 70
     1
102
RTVSPost2010Prop30
280
     0
102
RTVSPost2010PropOp30
 70
     1
102
RTVSPost2010Prop31
280
     0
102
RTVSPost2010PropOp31
 70
     1
102
RTVSPost2010Prop32
280
     0
102
RTVSPost2010PropOp32
 70
     1
102
RTVSPost2010Prop33
280
     0
102
RTVSPost2010PropOp33
 70
     1
102
RTVSPost2010Prop34
280
     0
102
RTVSPost2010PropOp34
 70
     1
102
RTVSPost2010Prop35
280
     0
102
RTVSPost2010PropOp35
 70
     1
102
RTVSPost2010Prop36
280
     0
102
RTVSPost2010PropOp36
 70
     1
102
RTVSPost2010Prop37
 90
       50
102
RTVSPost2010PropOp37
 70
     1
102
RTVSPost2010Prop38
140
0.0
102
RTVSPost2010PropOp38
 70
     1
102
RTVSPost2010Prop39
140
1.0
102
RTVSPost2010PropOp39
 70
     1
102
RTVSPost2010Prop40
 90
        0
102
RTVSPost2010PropOp40
 70
     1
102
RTVSPost2010Prop41ColorIndex
 90
       18
102
RTVSPost2010Prop41ColorRGB
 90
        0
102
RTVSPost2010PropOp41
 70
     1
102
RTVSPost2010Prop42
 90
       50
102
RTVSPost2010PropOp42
 70
     1
102
RTVSPost2010Prop43
 90
        3
102
RTVSPost2010PropOp43
 70
     1
102
RTVSPost2010Prop44ColorIndex
 90
        5
102
RTVSPost2010Prop44ColorRGB
 90
      255
102
RTVSPost2010PropOp44
 70
     1
102
RTVSPost2010Prop45
280
     0
102
RTVSPost2010PropOp45
 70
     1
102
RTVSPost2010Prop46
 90
       50
102
RTVSPost2010PropOp46
 70
     1
102
RTVSPost2010Prop47
 90
       50
102
RTVSPost2010PropOp47
 70
     1
102
RTVSPost2010Prop48
 90
       50
102
RTVSPost2010PropOp48
 70
     1
102
RTVSPost2010Prop49
280
     0
102
RTVSPost2010PropOp49
 70
     1
102
RTVSPost2010Prop50
 90
       50
102
RTVSPost2010PropOp50
 70
     1
102
RTVSPost2010Prop51ColorIndex
 90
      256
102
RTVSPost2010Prop51ColorRGB
 90
-16777216
102
RTVSPost2010PropOp51
 70
     0
102
RTVSPost2010Prop52
140
1.0
102
RTVSPost2010PropOp52
 70
     0
102
RTVSPost2010Prop53
 90
        2
102
RTVSPost2010PropOp53
 70
     1
102
RTVSPost2010Prop54
  1
strokes_ogs.tif
102
RTVSPost2010PropOp54
 70
     1
102
RTVSPost2010Prop55
280
     0
102
RTVSPost2010PropOp55
 70
     1
102
RTVSPost2010Prop56
140
1.0
102
RTVSPost2010PropOp56
 70
     1
102
RTVSPost2010Prop57
140
1.0
102
RTVSPost2010PropOp57
 70
     1
102
RTVSPropertyOp0
 70
     1
102
RTVSPropertyOp1
 70
     1
102
RTVSPropertyOp2
 70
     1
102
RTVSPropertyOp3
 70
     1
102
RTVSPropertyOp4
 70
     1
102
RTVSPropertyOp5
 70
     1
102
RTVSPropertyOp6
 70
     1
102
RTVSPropertyOp7
 70
     1
102
RTVSPropertyOp8
 70
     1
102
RTVSPropertyOp9
 70
     1
102
RTVSPropertyOp10
 70
     1
102
RTVSPropertyOp11
 70
     1
102
RTVSPropertyOp12
 70
     1
102
RTVSPropertyOp13
 70
     1
102
RTVSPropertyOp14
 70
     1
102
RTVSPropertyOp15
 70
     1
102
RTVSPropertyOp16
 70
     1
102
RTVSPropertyOp17
 70
     1
102
RTVSPropertyOp18
 70
     1
102
RTVSPropertyOp19
 70
     1
102
RTVSPropertyOp20
 70
     1
102
RTVSPropertyOp21
 70
     1
102
RTVSPropertyOp22
 70
     1
102
RTVSPropertyOp23
 70
     1
102
RTVSPropertyOp24
 70
     1
102
RTVSPropertyOp25
 70
     1
102
RTVSPropertyOp26
 70
     1
102
RTVSPropertyOp27
 70
     1
102
RTVSPropertyOp28
 70
     1
102
RTVSPropertyOp29
 70
     1
102
RTVSPropertyOp30
 70
     1
102
RTVSPropertyOp31
 70
     1
102
RTVSPropertyOp32
 70
     1
102
RTVSPropertyOp33
 70
     1
102
RTVSPropertyOp34
 70
     1
102
RTVSPropertyOp35
 70
     1
102
RTVSPropertyOp36
 70
     1
102
RTVSPropertyOp37
 70
     1
102
RTVSPropertyOp38
 70
     1
102
RTVSPropertyOp39
 70
     1
102
RTVSPropertyOp40
 70
     1
102
RTVSPropertyOp41
 70
     1
102
RTVSPropertyOp42
 70
     1
102
RTVSPropertyOp43
 70
     1
102
RTVSPropertyOp44
 70
     1
102
RTVSPropertyOp45
 70
     1
102
RTVSPropertyOp46
 70
     1
102
RTVSPropertyOp47
 70
     1
102
RTVSPropertyOp48
 70
     1
102
RTVSPropertyOp49
 70
     1
102
RTVSPropertyOp50
 70
     1
102
RTVSPropertyOp51
 70
     0
102
RTVSPropertyOp52
 70
     0
102
RTVSPropertyOp53
 70
     1
102
RTVSPropertyOp54
 70
     1
102
RTVSPropertyOp55
 70
     1
102
RTVSPropertyOp56
 70
     1
102
RTVSPropertyOp57
 70
     1
102
RTVSPropertyOp58
 70
     1
102
RTVSPropertyOp59
 70
     1
102
RTVSPropertyOp60
 70
     1
102
RTVSPropertyOp61
 70
     1
102
RTVSPropertyOp62
 70
     1
  0
XRECORD
  5
415
102
{ACAD_REACTORS
330
414
102
}
330
414
100
AcDbXrecord
280
     1
102
RTVSPost2010Prop28
280
     0
102
RTVSPost2010PropOp28
 70
     1
102
RTVSPost2010Prop29
280
     1
102
RTVSPost2010PropOp29
 70
     1
102
RTVSPost2010Prop30
280
     1
102
RTVSPost2010PropOp30
 70
     1
102
RTVSPost2010Prop31
280
     0
102
RTVSPost2010PropOp31
 70
     1
102
RTVSPost2010Prop32
280
     0
102
RTVSPost2010PropOp32
 70
     1
102
RTVSPost2010Prop33
280
     0
102
RTVSPost2010PropOp33
 70
     1
102
RTVSPost2010Prop34
280
     0
102
RTVSPost2010PropOp34
 70
     1
102
RTVSPost2010Prop35
280
     0
102
RTVSPost2010PropOp35
 70
     1
102
RTVSPost2010Prop36
280
     0
102
RTVSPost2010PropOp36
 70
     1
102
RTVSPost2010Prop37
 90
       50
102
RTVSPost2010PropOp37
 70
     1
102
RTVSPost2010Prop38
140
0.0
102
RTVSPost2010PropOp38
 70
     1
102
RTVSPost2010Prop39
140
1.0
102
RTVSPost2010PropOp39
 70
     1
102
RTVSPost2010Prop40
 90
        0
102
RTVSPost2010PropOp40
 70
     1
102
RTVSPost2010Prop41ColorIndex
 90
       18
102
RTVSPost2010Prop41ColorRGB
 90
        0
102
RTVSPost2010PropOp41
 70
     1
102
RTVSPost2010Prop42
 90
       50
102
RTVSPost2010PropOp42
 70
     1
102
RTVSPost2010Prop43
 90
        3
102
RTVSPost2010PropOp43
 70
     1
102
RTVSPost2010Prop44ColorIndex
 90
        5
102
RTVSPost2010Prop44ColorRGB
 90
      255
102
RTVSPost2010PropOp44
 70
     1
102
RTVSPost2010Prop45
280
     0
102
RTVSPost2010PropOp45
 70
     1
102
RTVSPost2010Prop46
 90
       50
102
RTVSPost2010PropOp46
 70
     1
102
RTVSPost2010Prop47
 90
       50
102
RTVSPost2010PropOp47
 70
     1
102
RTVSPost2010Prop48
 90
       50
102
RTVSPost2010PropOp48
 70
     1
102
RTVSPost2010Prop49
280
     0
102
RTVSPost2010PropOp49
 70
     1
102
RTVSPost2010Prop50
 90
       50
102
RTVSPost2010PropOp50
 70
     1
102
RTVSPost2010Prop51ColorIndex
 90
      256
102
RTVSPost2010Prop51ColorRGB
 90
-16777216
102
RTVSPost2010PropOp51
 70
     0
102
RTVSPost2010Prop52
140
1.0
102
RTVSPost2010PropOp52
 70
     0
102
RTVSPost2010Prop53
 90
        2
102
RTVSPost2010PropOp53
 70
     1
102
RTVSPost2010Prop54
  1
strokes_ogs.tif
102
RTVSPost2010PropOp54
 70
     1
102
RTVSPost2010Prop55
280
     0
102
RTVSPost2010PropOp55
 70
     1
102
RTVSPost2010Prop56
140
1.0
102
RTVSPost2010PropOp56
 70
     1
102
RTVSPost2010Prop57
140
1.0
102
RTVSPost2010PropOp57
 70
     1
102
RTVSPropertyOp0
 70
     1
102
RTVSPropertyOp1
 70
     1
102
RTVSPropertyOp2
 70
     1
102
RTVSPropertyOp3
 70
     1
102
RTVSPropertyOp4
 70
     1
102
RTVSPropertyOp5
 70
     1
102
RTVSPropertyOp6
 70
     1
102
RTVSPropertyOp7
 70
     1
102
RTVSPropertyOp8
 70
     1
102
RTVSPropertyOp9
 70
     1
102
RTVSPropertyOp10
 70
     1
102
RTVSPropertyOp11
 70
     1
102
RTVSPropertyOp12
 70
     1
102
RTVSPropertyOp13
 70
     1
102
RTVSPropertyOp14
 70
     1
102
RTVSPropertyOp15
 70
     1
102
RTVSPropertyOp16
 70
     1
102
RTVSPropertyOp17
 70
     1
102
RTVSPropertyOp18
 70
     1
102
RTVSPropertyOp19
 70
     1
102
RTVSPropertyOp20
 70
     1
102
RTVSPropertyOp21
 70
     1
102
RTVSPropertyOp22
 70
     1
102
RTVSPropertyOp23
 70
     1
102
RTVSPropertyOp24
 70
     1
102
RTVSPropertyOp25
 70
     1
102
RTVSPropertyOp26
 70
     1
102
RTVSPropertyOp27
 70
     1
102
RTVSPropertyOp28
 70
     1
102
RTVSPropertyOp29
 70
     1
102
RTVSPropertyOp30
 70
     1
102
RTVSPropertyOp31
 70
     1
102
RTVSPropertyOp32
 70
     1
102
RTVSPropertyOp33
 70
     1
102
RTVSPropertyOp34
 70
     1
102
RTVSPropertyOp35
 70
     1
102
RTVSPropertyOp36
 70
     1
102
RTVSPropertyOp37
 70
     1
102
RTVSPropertyOp38
 70
     1
102
RTVSPropertyOp39
 70
     1
102
RTVSPropertyOp40
 70
     1
102
RTVSPropertyOp41
 70
     1
102
RTVSPropertyOp42
 70
     1
102
RTVSPropertyOp43
 70
     1
102
RTVSPropertyOp44
 70
     1
102
RTVSPropertyOp45
 70
     1
102
RTVSPropertyOp46
 70
     1
102
RTVSPropertyOp47
 70
     1
102
RTVSPropertyOp48
 70
     1
102
RTVSPropertyOp49
 70
     1
102
RTVSPropertyOp50
 70
     1
102
RTVSPropertyOp51
 70
     0
102
RTVSPropertyOp52
 70
     0
102
RTVSPropertyOp53
 70
     1
102
RTVSPropertyOp54
 70
     1
102
RTVSPropertyOp55
 70
     1
102
RTVSPropertyOp56
 70
     1
102
RTVSPropertyOp57
 70
     1
102
RTVSPropertyOp58
 70
     1
102
RTVSPropertyOp59
 70
     1
102
RTVSPropertyOp60
 70
     1
102
RTVSPropertyOp61
 70
     1
102
RTVSPropertyOp62
 70
     1
  0
XRECORD
  5
423
102
{ACAD_REACTORS
330
422
102
}
330
422
100
AcDbXrecord
280
     1
102
RTVSPost2010Prop28
280
     0
102
RTVSPost2010PropOp28
 70
     1
102
RTVSPost2010Prop29
280
     1
102
RTVSPost2010PropOp29
 70
     1
102
RTVSPost2010Prop30
280
     1
102
RTVSPost2010PropOp30
 70
     1
102
RTVSPost2010Prop31
280
     0
102
RTVSPost2010PropOp31
 70
     1
102
RTVSPost2010Prop32
280
     0
102
RTVSPost2010PropOp32
 70
     1
102
RTVSPost2010Prop33
280
     0
102
RTVSPost2010PropOp33
 70
     1
102
RTVSPost2010Prop34
280
     0
102
RTVSPost2010PropOp34
 70
     1
102
RTVSPost2010Prop35
280
     0
102
RTVSPost2010PropOp35
 70
     1
102
RTVSPost2010Prop36
280
     0
102
RTVSPost2010PropOp36
 70
     1
102
RTVSPost2010Prop37
 90
       50
102
RTVSPost2010PropOp37
 70
     1
102
RTVSPost2010Prop38
140
0.0
102
RTVSPost2010PropOp38
 70
     1
102
RTVSPost2010Prop39
140
1.0
102
RTVSPost2010PropOp39
 70
     1
102
RTVSPost2010Prop40
 90
        0
102
RTVSPost2010PropOp40
 70
     1
102
RTVSPost2010Prop41ColorIndex
 90
       18
102
RTVSPost2010Prop41ColorRGB
 90
        0
102
RTVSPost2010PropOp41
 70
     1
102
RTVSPost2010Prop42
 90
       50
102
RTVSPost2010PropOp42
 70
     1
102
RTVSPost2010Prop43
 90
        3
102
RTVSPost2010PropOp43
 70
     1
102
RTVSPost2010Prop44ColorIndex
 90
        5
102
RTVSPost2010Prop44ColorRGB
 90
      255
102
RTVSPost2010PropOp44
 70
     1
102
RTVSPost2010Prop45
280
     0
102
RTVSPost2010PropOp45
 70
     1
102
RTVSPost2010Prop46
 90
       50
102
RTVSPost2010PropOp46
 70
     1
102
RTVSPost2010Prop47
 90
       50
102
RTVSPost2010PropOp47
 70
     1
102
RTVSPost2010Prop48
 90
       50
102
RTVSPost2010PropOp48
 70
     1
102
RTVSPost2010Prop49
280
     0
102
RTVSPost2010PropOp49
 70
     1
102
RTVSPost2010Prop50
 90
       50
102
RTVSPost2010PropOp50
 70
     1
102
RTVSPost2010Prop51ColorIndex
 90
      256
102
RTVSPost2010Prop51ColorRGB
 90
-16777216
102
RTVSPost2010PropOp51
 70
     0
102
RTVSPost2010Prop52
140
1.0
102
RTVSPost2010PropOp52
 70
     0
102
RTVSPost2010Prop53
 90
        2
102
RTVSPost2010PropOp53
 70
     1
102
RTVSPost2010Prop54
  1
strokes_ogs.tif
102
RTVSPost2010PropOp54
 70
     1
102
RTVSPost2010Prop55
280
     0
102
RTVSPost2010PropOp55
 70
     1
102
RTVSPost2010Prop56
140
1.0
102
RTVSPost2010PropOp56
 70
     1
102
RTVSPost2010Prop57
140
1.0
102
RTVSPost2010PropOp57
 70
     1
102
RTVSPropertyOp0
 70
     1
102
RTVSPropertyOp1
 70
     1
102
RTVSPropertyOp2
 70
     1
102
RTVSPropertyOp3
 70
     1
102
RTVSPropertyOp4
 70
     1
102
RTVSPropertyOp5
 70
     1
102
RTVSPropertyOp6
 70
     1
102
RTVSPropertyOp7
 70
     1
102
RTVSPropertyOp8
 70
     1
102
RTVSPropertyOp9
 70
     1
102
RTVSPropertyOp10
 70
     1
102
RTVSPropertyOp11
 70
     1
102
RTVSPropertyOp12
 70
     1
102
RTVSPropertyOp13
 70
     1
102
RTVSPropertyOp14
 70
     1
102
RTVSPropertyOp15
 70
     1
102
RTVSPropertyOp16
 70
     1
102
RTVSPropertyOp17
 70
     1
102
RTVSPropertyOp18
 70
     1
102
RTVSPropertyOp19
 70
     1
102
RTVSPropertyOp20
 70
     1
102
RTVSPropertyOp21
 70
     1
102
RTVSPropertyOp22
 70
     1
102
RTVSPropertyOp23
 70
     1
102
RTVSPropertyOp24
 70
     1
102
RTVSPropertyOp25
 70
     1
102
RTVSPropertyOp26
 70
     1
102
RTVSPropertyOp27
 70
     1
102
RTVSPropertyOp28
 70
     1
102
RTVSPropertyOp29
 70
     1
102
RTVSPropertyOp30
 70
     1
102
RTVSPropertyOp31
 70
     1
102
RTVSPropertyOp32
 70
     1
102
RTVSPropertyOp33
 70
     1
102
RTVSPropertyOp34
 70
     1
102
RTVSPropertyOp35
 70
     1
102
RTVSPropertyOp36
 70
     1
102
RTVSPropertyOp37
 70
     1
102
RTVSPropertyOp38
 70
     1
102
RTVSPropertyOp39
 70
     1
102
RTVSPropertyOp40
 70
     1
102
RTVSPropertyOp41
 70
     1
102
RTVSPropertyOp42
 70
     1
102
RTVSPropertyOp43
 70
     1
102
RTVSPropertyOp44
 70
     1
102
RTVSPropertyOp45
 70
     1
102
RTVSPropertyOp46
 70
     1
102
RTVSPropertyOp47
 70
     1
102
RTVSPropertyOp48
 70
     1
102
RTVSPropertyOp49
 70
     1
102
RTVSPropertyOp50
 70
     1
102
RTVSPropertyOp51
 70
     0
102
RTVSPropertyOp52
 70
     0
102
RTVSPropertyOp53
 70
     1
102
RTVSPropertyOp54
 70
     1
102
RTVSPropertyOp55
 70
     1
102
RTVSPropertyOp56
 70
     1
102
RTVSPropertyOp57
 70
     1
102
RTVSPropertyOp58
 70
     1
102
RTVSPropertyOp59
 70
     1
102
RTVSPropertyOp60
 70
     1
102
RTVSPropertyOp61
 70
     1
102
RTVSPropertyOp62
 70
     1
  0
XRECORD
  5
42B
102
{ACAD_REACTORS
330
42A
102
}
330
42A
100
AcDbXrecord
280
     1
102
RTVSPost2010Prop28
280
     0
102
RTVSPost2010PropOp28
 70
     1
102
RTVSPost2010Prop29
280
     1
102
RTVSPost2010PropOp29
 70
     1
102
RTVSPost2010Prop30
280
     1
102
RTVSPost2010PropOp30
 70
     1
102
RTVSPost2010Prop31
280
     0
102
RTVSPost2010PropOp31
 70
     1
102
RTVSPost2010Prop32
280
     0
102
RTVSPost2010PropOp32
 70
     1
102
RTVSPost2010Prop33
280
     0
102
RTVSPost2010PropOp33
 70
     1
102
RTVSPost2010Prop34
280
     0
102
RTVSPost2010PropOp34
 70
     1
102
RTVSPost2010Prop35
280
     0
102
RTVSPost2010PropOp35
 70
     1
102
RTVSPost2010Prop36
280
     0
102
RTVSPost2010PropOp36
 70
     1
102
RTVSPost2010Prop37
 90
       50
102
RTVSPost2010PropOp37
 70
     1
102
RTVSPost2010Prop38
140
0.0
102
RTVSPost2010PropOp38
 70
     1
102
RTVSPost2010Prop39
140
1.0
102
RTVSPost2010PropOp39
 70
     1
102
RTVSPost2010Prop40
 90
        0
102
RTVSPost2010PropOp40
 70
     1
102
RTVSPost2010Prop41ColorIndex
 90
       18
102
RTVSPost2010Prop41ColorRGB
 90
        0
102
RTVSPost2010PropOp41
 70
     1
102
RTVSPost2010Prop42
 90
       50
102
RTVSPost2010PropOp42
 70
     1
102
RTVSPost2010Prop43
 90
        3
102
RTVSPost2010PropOp43
 70
     1
102
RTVSPost2010Prop44ColorIndex
 90
        5
102
RTVSPost2010Prop44ColorRGB
 90
      255
102
RTVSPost2010PropOp44
 70
     1
102
RTVSPost2010Prop45
280
     0
102
RTVSPost2010PropOp45
 70
     1
102
RTVSPost2010Prop46
 90
       50
102
RTVSPost2010PropOp46
 70
     1
102
RTVSPost2010Prop47
 90
       50
102
RTVSPost2010PropOp47
 70
     1
102
RTVSPost2010Prop48
 90
       50
102
RTVSPost2010PropOp48
 70
     1
102
RTVSPost2010Prop49
280
     0
102
RTVSPost2010PropOp49
 70
     1
102
RTVSPost2010Prop50
 90
       50
102
RTVSPost2010PropOp50
 70
     1
102
RTVSPost2010Prop51ColorIndex
 90
      256
102
RTVSPost2010Prop51ColorRGB
 90
-16777216
102
RTVSPost2010PropOp51
 70
     0
102
RTVSPost2010Prop52
140
1.0
102
RTVSPost2010PropOp52
 70
     0
102
RTVSPost2010Prop53
 90
        2
102
RTVSPost2010PropOp53
 70
     1
102
RTVSPost2010Prop54
  1
strokes_ogs.tif
102
RTVSPost2010PropOp54
 70
     1
102
RTVSPost2010Prop55
280
     0
102
RTVSPost2010PropOp55
 70
     1
102
RTVSPost2010Prop56
140
1.0
102
RTVSPost2010PropOp56
 70
     1
102
RTVSPost2010Prop57
140
1.0
102
RTVSPost2010PropOp57
 70
     1
102
RTVSPropertyOp0
 70
     1
102
RTVSPropertyOp1
 70
     1
102
RTVSPropertyOp2
 70
     1
102
RTVSPropertyOp3
 70
     1
102
RTVSPropertyOp4
 70
     1
102
RTVSPropertyOp5
 70
     1
102
RTVSPropertyOp6
 70
     1
102
RTVSPropertyOp7
 70
     1
102
RTVSPropertyOp8
 70
     1
102
RTVSPropertyOp9
 70
     1
102
RTVSPropertyOp10
 70
     1
102
RTVSPropertyOp11
 70
     1
102
RTVSPropertyOp12
 70
     1
102
RTVSPropertyOp13
 70
     1
102
RTVSPropertyOp14
 70
     1
102
RTVSPropertyOp15
 70
     1
102
RTVSPropertyOp16
 70
     1
102
RTVSPropertyOp17
 70
     1
102
RTVSPropertyOp18
 70
     1
102
RTVSPropertyOp19
 70
     1
102
RTVSPropertyOp20
 70
     1
102
RTVSPropertyOp21
 70
     1
102
RTVSPropertyOp22
 70
     1
102
RTVSPropertyOp23
 70
     1
102
RTVSPropertyOp24
 70
     1
102
RTVSPropertyOp25
 70
     1
102
RTVSPropertyOp26
 70
     1
102
RTVSPropertyOp27
 70
     1
102
RTVSPropertyOp28
 70
     1
102
RTVSPropertyOp29
 70
     1
102
RTVSPropertyOp30
 70
     1
102
RTVSPropertyOp31
 70
     1
102
RTVSPropertyOp32
 70
     1
102
RTVSPropertyOp33
 70
     1
102
RTVSPropertyOp34
 70
     1
102
RTVSPropertyOp35
 70
     1
102
RTVSPropertyOp36
 70
     1
102
RTVSPropertyOp37
 70
     1
102
RTVSPropertyOp38
 70
     1
102
RTVSPropertyOp39
 70
     1
102
RTVSPropertyOp40
 70
     1
102
RTVSPropertyOp41
 70
     1
102
RTVSPropertyOp42
 70
     1
102
RTVSPropertyOp43
 70
     1
102
RTVSPropertyOp44
 70
     1
102
RTVSPropertyOp45
 70
     1
102
RTVSPropertyOp46
 70
     1
102
RTVSPropertyOp47
 70
     1
102
RTVSPropertyOp48
 70
     1
102
RTVSPropertyOp49
 70
     1
102
RTVSPropertyOp50
 70
     1
102
RTVSPropertyOp51
 70
     0
102
RTVSPropertyOp52
 70
     0
102
RTVSPropertyOp53
 70
     1
102
RTVSPropertyOp54
 70
     1
102
RTVSPropertyOp55
 70
     1
102
RTVSPropertyOp56
 70
     1
102
RTVSPropertyOp57
 70
     1
102
RTVSPropertyOp58
 70
     1
102
RTVSPropertyOp59
 70
     1
102
RTVSPropertyOp60
 70
     1
102
RTVSPropertyOp61
 70
     1
102
RTVSPropertyOp62
 70
     1
  0
XRECORD
  5
41D
102
{ACAD_REACTORS
330
41C
102
}
330
41C
100
AcDbXrecord
280
     1
102
RTVSPost2010Prop28
280
     0
102
RTVSPost2010PropOp28
 70
     1
102
RTVSPost2010Prop29
280
     1
102
RTVSPost2010PropOp29
 70
     1
102
RTVSPost2010Prop30
280
     1
102
RTVSPost2010PropOp30
 70
     1
102
RTVSPost2010Prop31
280
     0
102
RTVSPost2010PropOp31
 70
     1
102
RTVSPost2010Prop32
280
     0
102
RTVSPost2010PropOp32
 70
     1
102
RTVSPost2010Prop33
280
     0
102
RTVSPost2010PropOp33
 70
     1
102
RTVSPost2010Prop34
280
     0
102
RTVSPost2010PropOp34
 70
     1
102
RTVSPost2010Prop35
280
     0
102
RTVSPost2010PropOp35
 70
     1
102
RTVSPost2010Prop36
280
     0
102
RTVSPost2010PropOp36
 70
     1
102
RTVSPost2010Prop37
 90
       50
102
RTVSPost2010PropOp37
 70
     1
102
RTVSPost2010Prop38
140
0.0
102
RTVSPost2010PropOp38
 70
     1
102
RTVSPost2010Prop39
140
1.0
102
RTVSPost2010PropOp39
 70
     1
102
RTVSPost2010Prop40
 90
        0
102
RTVSPost2010PropOp40
 70
     1
102
RTVSPost2010Prop41ColorIndex
 90
       18
102
RTVSPost2010Prop41ColorRGB
 90
        0
102
RTVSPost2010PropOp41
 70
     1
102
RTVSPost2010Prop42
 90
       50
102
RTVSPost2010PropOp42
 70
     1
102
RTVSPost2010Prop43
 90
        3
102
RTVSPost2010PropOp43
 70
     1
102
RTVSPost2010Prop44ColorIndex
 90
        5
102
RTVSPost2010Prop44ColorRGB
 90
      255
102
RTVSPost2010PropOp44
 70
     1
102
RTVSPost2010Prop45
280
     0
102
RTVSPost2010PropOp45
 70
     1
102
RTVSPost2010Prop46
 90
       50
102
RTVSPost2010PropOp46
 70
     1
102
RTVSPost2010Prop47
 90
       50
102
RTVSPost2010PropOp47
 70
     1
102
RTVSPost2010Prop48
 90
       50
102
RTVSPost2010PropOp48
 70
     1
102
RTVSPost2010Prop49
280
     0
102
RTVSPost2010PropOp49
 70
     1
102
RTVSPost2010Prop50
 90
       50
102
RTVSPost2010PropOp50
 70
     1
102
RTVSPost2010Prop51ColorIndex
 90
      256
102
RTVSPost2010Prop51ColorRGB
 90
-16777216
102
RTVSPost2010PropOp51
 70
     0
102
RTVSPost2010Prop52
140
1.0
102
RTVSPost2010PropOp52
 70
     0
102
RTVSPost2010Prop53
 90
        2
102
RTVSPost2010PropOp53
 70
     1
102
RTVSPost2010Prop54
  1
strokes_ogs.tif
102
RTVSPost2010PropOp54
 70
     1
102
RTVSPost2010Prop55
280
     0
102
RTVSPost2010PropOp55
 70
     1
102
RTVSPost2010Prop56
140
1.0
102
RTVSPost2010PropOp56
 70
     1
102
RTVSPost2010Prop57
140
1.0
102
RTVSPost2010PropOp57
 70
     1
102
RTVSPropertyOp0
 70
     1
102
RTVSPropertyOp1
 70
     1
102
RTVSPropertyOp2
 70
     1
102
RTVSPropertyOp3
 70
     1
102
RTVSPropertyOp4
 70
     1
102
RTVSPropertyOp5
 70
     1
102
RTVSPropertyOp6
 70
     1
102
RTVSPropertyOp7
 70
     1
102
RTVSPropertyOp8
 70
     1
102
RTVSPropertyOp9
 70
     1
102
RTVSPropertyOp10
 70
     1
102
RTVSPropertyOp11
 70
     1
102
RTVSPropertyOp12
 70
     1
102
RTVSPropertyOp13
 70
     1
102
RTVSPropertyOp14
 70
     1
102
RTVSPropertyOp15
 70
     1
102
RTVSPropertyOp16
 70
     1
102
RTVSPropertyOp17
 70
     1
102
RTVSPropertyOp18
 70
     1
102
RTVSPropertyOp19
 70
     1
102
RTVSPropertyOp20
 70
     1
102
RTVSPropertyOp21
 70
     1
102
RTVSPropertyOp22
 70
     1
102
RTVSPropertyOp23
 70
     1
102
RTVSPropertyOp24
 70
     1
102
RTVSPropertyOp25
 70
     1
102
RTVSPropertyOp26
 70
     1
102
RTVSPropertyOp27
 70
     1
102
RTVSPropertyOp28
 70
     1
102
RTVSPropertyOp29
 70
     1
102
RTVSPropertyOp30
 70
     1
102
RTVSPropertyOp31
 70
     1
102
RTVSPropertyOp32
 70
     1
102
RTVSPropertyOp33
 70
     1
102
RTVSPropertyOp34
 70
     1
102
RTVSPropertyOp35
 70
     1
102
RTVSPropertyOp36
 70
     1
102
RTVSPropertyOp37
 70
     1
102
RTVSPropertyOp38
 70
     1
102
RTVSPropertyOp39
 70
     1
102
RTVSPropertyOp40
 70
     1
102
RTVSPropertyOp41
 70
     1
102
RTVSPropertyOp42
 70
     1
102
RTVSPropertyOp43
 70
     1
102
RTVSPropertyOp44
 70
     1
102
RTVSPropertyOp45
 70
     1
102
RTVSPropertyOp46
 70
     1
102
RTVSPropertyOp47
 70
     1
102
RTVSPropertyOp48
 70
     1
102
RTVSPropertyOp49
 70
     1
102
RTVSPropertyOp50
 70
     1
102
RTVSPropertyOp51
 70
     0
102
RTVSPropertyOp52
 70
     0
102
RTVSPropertyOp53
 70
     1
102
RTVSPropertyOp54
 70
     1
102
RTVSPropertyOp55
 70
     1
102
RTVSPropertyOp56
 70
     1
102
RTVSPropertyOp57
 70
     1
102
RTVSPropertyOp58
 70
     1
102
RTVSPropertyOp59
 70
     1
102
RTVSPropertyOp60
 70
     1
102
RTVSPropertyOp61
 70
     1
102
RTVSPropertyOp62
 70
     1
  0
XRECORD
  5
421
102
{ACAD_REACTORS
330
420
102
}
330
420
100
AcDbXrecord
280
     1
102
RTVSPost2010Prop28
280
     0
102
RTVSPost2010PropOp28
 70
     1
102
RTVSPost2010Prop29
280
     1
102
RTVSPost2010PropOp29
 70
     1
102
RTVSPost2010Prop30
280
     1
102
RTVSPost2010PropOp30
 70
     1
102
RTVSPost2010Prop31
280
     0
102
RTVSPost2010PropOp31
 70
     1
102
RTVSPost2010Prop32
280
     0
102
RTVSPost2010PropOp32
 70
     1
102
RTVSPost2010Prop33
280
     0
102
RTVSPost2010PropOp33
 70
     1
102
RTVSPost2010Prop34
280
     0
102
RTVSPost2010PropOp34
 70
     1
102
RTVSPost2010Prop35
280
     0
102
RTVSPost2010PropOp35
 70
     1
102
RTVSPost2010Prop36
280
     0
102
RTVSPost2010PropOp36
 70
     1
102
RTVSPost2010Prop37
 90
       50
102
RTVSPost2010PropOp37
 70
     1
102
RTVSPost2010Prop38
140
0.0
102
RTVSPost2010PropOp38
 70
     1
102
RTVSPost2010Prop39
140
1.0
102
RTVSPost2010PropOp39
 70
     1
102
RTVSPost2010Prop40
 90
        0
102
RTVSPost2010PropOp40
 70
     1
102
RTVSPost2010Prop41ColorIndex
 90
       18
102
RTVSPost2010Prop41ColorRGB
 90
        0
102
RTVSPost2010PropOp41
 70
     1
102
RTVSPost2010Prop42
 90
       50
102
RTVSPost2010PropOp42
 70
     1
102
RTVSPost2010Prop43
 90
        3
102
RTVSPost2010PropOp43
 70
     1
102
RTVSPost2010Prop44ColorIndex
 90
        5
102
RTVSPost2010Prop44ColorRGB
 90
      255
102
RTVSPost2010PropOp44
 70
     1
102
RTVSPost2010Prop45
280
     0
102
RTVSPost2010PropOp45
 70
     1
102
RTVSPost2010Prop46
 90
       50
102
RTVSPost2010PropOp46
 70
     1
102
RTVSPost2010Prop47
 90
       50
102
RTVSPost2010PropOp47
 70
     1
102
RTVSPost2010Prop48
 90
       50
102
RTVSPost2010PropOp48
 70
     1
102
RTVSPost2010Prop49
280
     0
102
RTVSPost2010PropOp49
 70
     1
102
RTVSPost2010Prop50
 90
       50
102
RTVSPost2010PropOp50
 70
     1
102
RTVSPost2010Prop51ColorIndex
 90
      256
102
RTVSPost2010Prop51ColorRGB
 90
-16777216
102
RTVSPost2010PropOp51
 70
     0
102
RTVSPost2010Prop52
140
1.0
102
RTVSPost2010PropOp52
 70
     0
102
RTVSPost2010Prop53
 90
        2
102
RTVSPost2010PropOp53
 70
     1
102
RTVSPost2010Prop54
  1
strokes_ogs.tif
102
RTVSPost2010PropOp54
 70
     1
102
RTVSPost2010Prop55
280
     0
102
RTVSPost2010PropOp55
 70
     1
102
RTVSPost2010Prop56
140
1.0
102
RTVSPost2010PropOp56
 70
     1
102
RTVSPost2010Prop57
140
1.0
102
RTVSPost2010PropOp57
 70
     1
102
RTVSPropertyOp0
 70
     1
102
RTVSPropertyOp1
 70
     1
102
RTVSPropertyOp2
 70
     1
102
RTVSPropertyOp3
 70
     1
102
RTVSPropertyOp4
 70
     1
102
RTVSPropertyOp5
 70
     1
102
RTVSPropertyOp6
 70
     1
102
RTVSPropertyOp7
 70
     1
102
RTVSPropertyOp8
 70
     1
102
RTVSPropertyOp9
 70
     1
102
RTVSPropertyOp10
 70
     1
102
RTVSPropertyOp11
 70
     1
102
RTVSPropertyOp12
 70
     1
102
RTVSPropertyOp13
 70
     1
102
RTVSPropertyOp14
 70
     1
102
RTVSPropertyOp15
 70
     1
102
RTVSPropertyOp16
 70
     1
102
RTVSPropertyOp17
 70
     1
102
RTVSPropertyOp18
 70
     1
102
RTVSPropertyOp19
 70
     1
102
RTVSPropertyOp20
 70
     1
102
RTVSPropertyOp21
 70
     1
102
RTVSPropertyOp22
 70
     1
102
RTVSPropertyOp23
 70
     1
102
RTVSPropertyOp24
 70
     1
102
RTVSPropertyOp25
 70
     1
102
RTVSPropertyOp26
 70
     1
102
RTVSPropertyOp27
 70
     1
102
RTVSPropertyOp28
 70
     1
102
RTVSPropertyOp29
 70
     1
102
RTVSPropertyOp30
 70
     1
102
RTVSPropertyOp31
 70
     1
102
RTVSPropertyOp32
 70
     1
102
RTVSPropertyOp33
 70
     1
102
RTVSPropertyOp34
 70
     1
102
RTVSPropertyOp35
 70
     1
102
RTVSPropertyOp36
 70
     1
102
RTVSPropertyOp37
 70
     1
102
RTVSPropertyOp38
 70
     1
102
RTVSPropertyOp39
 70
     1
102
RTVSPropertyOp40
 70
     1
102
RTVSPropertyOp41
 70
     1
102
RTVSPropertyOp42
 70
     1
102
RTVSPropertyOp43
 70
     1
102
RTVSPropertyOp44
 70
     1
102
RTVSPropertyOp45
 70
     1
102
RTVSPropertyOp46
 70
     1
102
RTVSPropertyOp47
 70
     1
102
RTVSPropertyOp48
 70
     1
102
RTVSPropertyOp49
 70
     1
102
RTVSPropertyOp50
 70
     1
102
RTVSPropertyOp51
 70
     0
102
RTVSPropertyOp52
 70
     0
102
RTVSPropertyOp53
 70
     1
102
RTVSPropertyOp54
 70
     1
102
RTVSPropertyOp55
 70
     1
102
RTVSPropertyOp56
 70
     1
102
RTVSPropertyOp57
 70
     1
102
RTVSPropertyOp58
 70
     1
102
RTVSPropertyOp59
 70
     1
102
RTVSPropertyOp60
 70
     1
102
RTVSPropertyOp61
 70
     1
102
RTVSPropertyOp62
 70
     1
  0
XRECORD
  5
43B
102
{ACAD_REACTORS
330
43A
102
}
330
43A
100
AcDbXrecord
280
     1
102
RTVSPost2010Prop28
280
     0
102
RTVSPost2010PropOp28
 70
     1
102
RTVSPost2010Prop29
280
     1
102
RTVSPost2010PropOp29
 70
     1
102
RTVSPost2010Prop30
280
     1
102
RTVSPost2010PropOp30
 70
     1
102
RTVSPost2010Prop31
280
     0
102
RTVSPost2010PropOp31
 70
     1
102
RTVSPost2010Prop32
280
     0
102
RTVSPost2010PropOp32
 70
     1
102
RTVSPost2010Prop33
280
     0
102
RTVSPost2010PropOp33
 70
     1
102
RTVSPost2010Prop34
280
     0
102
RTVSPost2010PropOp34
 70
     1
102
RTVSPost2010Prop35
280
     0
102
RTVSPost2010PropOp35
 70
     1
102
RTVSPost2010Prop36
280
     0
102
RTVSPost2010PropOp36
 70
     1
102
RTVSPost2010Prop37
 90
       50
102
RTVSPost2010PropOp37
 70
     0
102
RTVSPost2010Prop38
140
0.0
102
RTVSPost2010PropOp38
 70
     0
102
RTVSPost2010Prop39
140
1.0
102
RTVSPost2010PropOp39
 70
     0
102
RTVSPost2010Prop40
 90
        0
102
RTVSPost2010PropOp40
 70
     0
102
RTVSPost2010Prop41ColorIndex
 90
       18
102
RTVSPost2010Prop41ColorRGB
 90
        0
102
RTVSPost2010PropOp41
 70
     0
102
RTVSPost2010Prop42
 90
       50
102
RTVSPost2010PropOp42
 70
     0
102
RTVSPost2010Prop43
 90
        3
102
RTVSPost2010PropOp43
 70
     0
102
RTVSPost2010Prop44ColorIndex
 90
        5
102
RTVSPost2010Prop44ColorRGB
 90
      255
102
RTVSPost2010PropOp44
 70
     0
102
RTVSPost2010Prop45
280
     0
102
RTVSPost2010PropOp45
 70
     1
102
RTVSPost2010Prop46
 90
       50
102
RTVSPost2010PropOp46
 70
     0
102
RTVSPost2010Prop47
 90
       50
102
RTVSPost2010PropOp47
 70
     0
102
RTVSPost2010Prop48
 90
       50
102
RTVSPost2010PropOp48
 70
     0
102
RTVSPost2010Prop49
280
     0
102
RTVSPost2010PropOp49
 70
     1
102
RTVSPost2010Prop50
 90
       50
102
RTVSPost2010PropOp50
 70
     0
102
RTVSPost2010Prop51ColorIndex
 90
      256
102
RTVSPost2010Prop51ColorRGB
 90
-16777216
102
RTVSPost2010PropOp51
 70
     0
102
RTVSPost2010Prop52
140
1.0
102
RTVSPost2010PropOp52
 70
     0
102
RTVSPost2010Prop53
 90
        2
102
RTVSPost2010PropOp53
 70
     0
102
RTVSPost2010Prop54
  1
strokes_ogs.tif
102
RTVSPost2010PropOp54
 70
     0
102
RTVSPost2010Prop55
280
     0
102
RTVSPost2010PropOp55
 70
     1
102
RTVSPost2010Prop56
140
1.0
102
RTVSPost2010PropOp56
 70
     0
102
RTVSPost2010Prop57
140
1.0
102
RTVSPost2010PropOp57
 70
     0
102
RTVSPropertyOp0
 70
     0
102
RTVSPropertyOp1
 70
     0
102
RTVSPropertyOp2
 70
     0
102
RTVSPropertyOp3
 70
     0
102
RTVSPropertyOp4
 70
     0
102
RTVSPropertyOp5
 70
     0
102
RTVSPropertyOp6
 70
     0
102
RTVSPropertyOp7
 70
     0
102
RTVSPropertyOp8
 70
     0
102
RTVSPropertyOp9
 70
     0
102
RTVSPropertyOp10
 70
     0
102
RTVSPropertyOp11
 70
     0
102
RTVSPropertyOp12
 70
     0
102
RTVSPropertyOp13
 70
     0
102
RTVSPropertyOp14
 70
     2
102
RTVSPropertyOp15
 70
     0
102
RTVSPropertyOp16
 70
     0
102
RTVSPropertyOp17
 70
     0
102
RTVSPropertyOp18
 70
     0
102
RTVSPropertyOp19
 70
     0
102
RTVSPropertyOp20
 70
     0
102
RTVSPropertyOp21
 70
     0
102
RTVSPropertyOp22
 70
     0
102
RTVSPropertyOp23
 70
     0
102
RTVSPropertyOp24
 70
     0
102
RTVSPropertyOp25
 70
     0
102
RTVSPropertyOp26
 70
     0
102
RTVSPropertyOp27
 70
     0
102
RTVSPropertyOp28
 70
     1
102
RTVSPropertyOp29
 70
     1
102
RTVSPropertyOp30
 70
     1
102
RTVSPropertyOp31
 70
     1
102
RTVSPropertyOp32
 70
     1
102
RTVSPropertyOp33
 70
     1
102
RTVSPropertyOp34
 70
     1
102
RTVSPropertyOp35
 70
     1
102
RTVSPropertyOp36
 70
     1
102
RTVSPropertyOp37
 70
     0
102
RTVSPropertyOp38
 70
     0
102
RTVSPropertyOp39
 70
     0
102
RTVSPropertyOp40
 70
     0
102
RTVSPropertyOp41
 70
     0
102
RTVSPropertyOp42
 70
     0
102
RTVSPropertyOp43
 70
     0
102
RTVSPropertyOp44
 70
     0
102
RTVSPropertyOp45
 70
     1
102
RTVSPropertyOp46
 70
     0
102
RTVSPropertyOp47
 70
     0
102
RTVSPropertyOp48
 70
     0
102
RTVSPropertyOp49
 70
     1
102
RTVSPropertyOp50
 70
     0
102
RTVSPropertyOp51
 70
     0
102
RTVSPropertyOp52
 70
     0
102
RTVSPropertyOp53
 70
     0
102
RTVSPropertyOp54
 70
     0
102
RTVSPropertyOp55
 70
     1
102
RTVSPropertyOp56
 70
     0
102
RTVSPropertyOp57
 70
     0
102
RTVSPropertyOp58
 70
     0
102
RTVSPropertyOp59
 70
     0
102
RTVSPropertyOp60
 70
     0
102
RTVSPropertyOp61
 70
     0
102
RTVSPropertyOp62
 70
     0
  0
XRECORD
  5
429
102
{ACAD_REACTORS
330
428
102
}
330
428
100
AcDbXrecord
280
     1
102
RTVSPost2010Prop28
280
     0
102
RTVSPost2010PropOp28
 70
     1
102
RTVSPost2010Prop29
280
     1
102
RTVSPost2010PropOp29
 70
     1
102
RTVSPost2010Prop30
280
     1
102
RTVSPost2010PropOp30
 70
     1
102
RTVSPost2010Prop31
280
     0
102
RTVSPost2010PropOp31
 70
     1
102
RTVSPost2010Prop32
280
     0
102
RTVSPost2010PropOp32
 70
     1
102
RTVSPost2010Prop33
280
     0
102
RTVSPost2010PropOp33
 70
     1
102
RTVSPost2010Prop34
280
     0
102
RTVSPost2010PropOp34
 70
     1
102
RTVSPost2010Prop35
280
     0
102
RTVSPost2010PropOp35
 70
     1
102
RTVSPost2010Prop36
280
     0
102
RTVSPost2010PropOp36
 70
     1
102
RTVSPost2010Prop37
 90
       50
102
RTVSPost2010PropOp37
 70
     1
102
RTVSPost2010Prop38
140
0.0
102
RTVSPost2010PropOp38
 70
     1
102
RTVSPost2010Prop39
140
1.0
102
RTVSPost2010PropOp39
 70
     1
102
RTVSPost2010Prop40
 90
        0
102
RTVSPost2010PropOp40
 70
     1
102
RTVSPost2010Prop41ColorIndex
 90
       18
102
RTVSPost2010Prop41ColorRGB
 90
        0
102
RTVSPost2010PropOp41
 70
     1
102
RTVSPost2010Prop42
 90
       50
102
RTVSPost2010PropOp42
 70
     1
102
RTVSPost2010Prop43
 90
        3
102
RTVSPost2010PropOp43
 70
     1
102
RTVSPost2010Prop44ColorIndex
 90
        5
102
RTVSPost2010Prop44ColorRGB
 90
      255
102
RTVSPost2010PropOp44
 70
     1
102
RTVSPost2010Prop45
280
     0
102
RTVSPost2010PropOp45
 70
     1
102
RTVSPost2010Prop46
 90
       50
102
RTVSPost2010PropOp46
 70
     1
102
RTVSPost2010Prop47
 90
       50
102
RTVSPost2010PropOp47
 70
     1
102
RTVSPost2010Prop48
 90
       50
102
RTVSPost2010PropOp48
 70
     1
102
RTVSPost2010Prop49
280
     0
102
RTVSPost2010PropOp49
 70
     1
102
RTVSPost2010Prop50
 90
       50
102
RTVSPost2010PropOp50
 70
     1
102
RTVSPost2010Prop51ColorIndex
 90
      256
102
RTVSPost2010Prop51ColorRGB
 90
-16777216
102
RTVSPost2010PropOp51
 70
     0
102
RTVSPost2010Prop52
140
1.0
102
RTVSPost2010PropOp52
 70
     0
102
RTVSPost2010Prop53
 90
        2
102
RTVSPost2010PropOp53
 70
     1
102
RTVSPost2010Prop54
  1
strokes_ogs.tif
102
RTVSPost2010PropOp54
 70
     1
102
RTVSPost2010Prop55
280
     0
102
RTVSPost2010PropOp55
 70
     1
102
RTVSPost2010Prop56
140
1.0
102
RTVSPost2010PropOp56
 70
     1
102
RTVSPost2010Prop57
140
1.0
102
RTVSPost2010PropOp57
 70
     1
102
RTVSPropertyOp0
 70
     1
102
RTVSPropertyOp1
 70
     1
102
RTVSPropertyOp2
 70
     1
102
RTVSPropertyOp3
 70
     1
102
RTVSPropertyOp4
 70
     1
102
RTVSPropertyOp5
 70
     1
102
RTVSPropertyOp6
 70
     1
102
RTVSPropertyOp7
 70
     1
102
RTVSPropertyOp8
 70
     1
102
RTVSPropertyOp9
 70
     1
102
RTVSPropertyOp10
 70
     1
102
RTVSPropertyOp11
 70
     1
102
RTVSPropertyOp12
 70
     1
102
RTVSPropertyOp13
 70
     1
102
RTVSPropertyOp14
 70
     1
102
RTVSPropertyOp15
 70
     1
102
RTVSPropertyOp16
 70
     1
102
RTVSPropertyOp17
 70
     1
102
RTVSPropertyOp18
 70
     1
102
RTVSPropertyOp19
 70
     1
102
RTVSPropertyOp20
 70
     1
102
RTVSPropertyOp21
 70
     1
102
RTVSPropertyOp22
 70
     1
102
RTVSPropertyOp23
 70
     1
102
RTVSPropertyOp24
 70
     1
102
RTVSPropertyOp25
 70
     1
102
RTVSPropertyOp26
 70
     1
102
RTVSPropertyOp27
 70
     1
102
RTVSPropertyOp28
 70
     1
102
RTVSPropertyOp29
 70
     1
102
RTVSPropertyOp30
 70
     1
102
RTVSPropertyOp31
 70
     1
102
RTVSPropertyOp32
 70
     1
102
RTVSPropertyOp33
 70
     1
102
RTVSPropertyOp34
 70
     1
102
RTVSPropertyOp35
 70
     1
102
RTVSPropertyOp36
 70
     1
102
RTVSPropertyOp37
 70
     1
102
RTVSPropertyOp38
 70
     1
102
RTVSPropertyOp39
 70
     1
102
RTVSPropertyOp40
 70
     1
102
RTVSPropertyOp41
 70
     1
102
RTVSPropertyOp42
 70
     1
102
RTVSPropertyOp43
 70
     1
102
RTVSPropertyOp44
 70
     1
102
RTVSPropertyOp45
 70
     1
102
RTVSPropertyOp46
 70
     1
102
RTVSPropertyOp47
 70
     1
102
RTVSPropertyOp48
 70
     1
102
RTVSPropertyOp49
 70
     1
102
RTVSPropertyOp50
 70
     1
102
RTVSPropertyOp51
 70
     0
102
RTVSPropertyOp52
 70
     0
102
RTVSPropertyOp53
 70
     1
102
RTVSPropertyOp54
 70
     1
102
RTVSPropertyOp55
 70
     1
102
RTVSPropertyOp56
 70
     1
102
RTVSPropertyOp57
 70
     1
102
RTVSPropertyOp58
 70
     1
102
RTVSPropertyOp59
 70
     1
102
RTVSPropertyOp60
 70
     1
102
RTVSPropertyOp61
 70
     1
102
RTVSPropertyOp62
 70
     1
  0
XRECORD
  5
40D
102
{ACAD_REACTORS
330
40C
102
}
330
40C
100
AcDbXrecord
280
     1
102
RTVSPost2010Prop28
280
     0
102
RTVSPost2010PropOp28
 70
     1
102
RTVSPost2010Prop29
280
     1
102
RTVSPost2010PropOp29
 70
     1
102
RTVSPost2010Prop30
280
     1
102
RTVSPost2010PropOp30
 70
     1
102
RTVSPost2010Prop31
280
     0
102
RTVSPost2010PropOp31
 70
     1
102
RTVSPost2010Prop32
280
     0
102
RTVSPost2010PropOp32
 70
     1
102
RTVSPost2010Prop33
280
     0
102
RTVSPost2010PropOp33
 70
     1
102
RTVSPost2010Prop34
280
     0
102
RTVSPost2010PropOp34
 70
     1
102
RTVSPost2010Prop35
280
     0
102
RTVSPost2010PropOp35
 70
     1
102
RTVSPost2010Prop36
280
     0
102
RTVSPost2010PropOp36
 70
     1
102
RTVSPost2010Prop37
 90
       50
102
RTVSPost2010PropOp37
 70
     1
102
RTVSPost2010Prop38
140
0.0
102
RTVSPost2010PropOp38
 70
     1
102
RTVSPost2010Prop39
140
1.0
102
RTVSPost2010PropOp39
 70
     1
102
RTVSPost2010Prop40
 90
        0
102
RTVSPost2010PropOp40
 70
     1
102
RTVSPost2010Prop41ColorIndex
 90
       18
102
RTVSPost2010Prop41ColorRGB
 90
        0
102
RTVSPost2010PropOp41
 70
     1
102
RTVSPost2010Prop42
 90
       50
102
RTVSPost2010PropOp42
 70
     1
102
RTVSPost2010Prop43
 90
        3
102
RTVSPost2010PropOp43
 70
     1
102
RTVSPost2010Prop44ColorIndex
 90
        5
102
RTVSPost2010Prop44ColorRGB
 90
      255
102
RTVSPost2010PropOp44
 70
     1
102
RTVSPost2010Prop45
280
     0
102
RTVSPost2010PropOp45
 70
     1
102
RTVSPost2010Prop46
 90
       50
102
RTVSPost2010PropOp46
 70
     1
102
RTVSPost2010Prop47
 90
       50
102
RTVSPost2010PropOp47
 70
     1
102
RTVSPost2010Prop48
 90
       50
102
RTVSPost2010PropOp48
 70
     1
102
RTVSPost2010Prop49
280
     0
102
RTVSPost2010PropOp49
 70
     1
102
RTVSPost2010Prop50
 90
       50
102
RTVSPost2010PropOp50
 70
     1
102
RTVSPost2010Prop51ColorIndex
 90
      256
102
RTVSPost2010Prop51ColorRGB
 90
-16777216
102
RTVSPost2010PropOp51
 70
     0
102
RTVSPost2010Prop52
140
1.0
102
RTVSPost2010PropOp52
 70
     0
102
RTVSPost2010Prop53
 90
        2
102
RTVSPost2010PropOp53
 70
     1
102
RTVSPost2010Prop54
  1
strokes_ogs.tif
102
RTVSPost2010PropOp54
 70
     1
102
RTVSPost2010Prop55
280
     0
102
RTVSPost2010PropOp55
 70
     1
102
RTVSPost2010Prop56
140
1.0
102
RTVSPost2010PropOp56
 70
     1
102
RTVSPost2010Prop57
140
1.0
102
RTVSPost2010PropOp57
 70
     1
102
RTVSPropertyOp0
 70
     1
102
RTVSPropertyOp1
 70
     1
102
RTVSPropertyOp2
 70
     1
102
RTVSPropertyOp3
 70
     1
102
RTVSPropertyOp4
 70
     1
102
RTVSPropertyOp5
 70
     1
102
RTVSPropertyOp6
 70
     1
102
RTVSPropertyOp7
 70
     1
102
RTVSPropertyOp8
 70
     1
102
RTVSPropertyOp9
 70
     1
102
RTVSPropertyOp10
 70
     1
102
RTVSPropertyOp11
 70
     1
102
RTVSPropertyOp12
 70
     1
102
RTVSPropertyOp13
 70
     1
102
RTVSPropertyOp14
 70
     1
102
RTVSPropertyOp15
 70
     1
102
RTVSPropertyOp16
 70
     1
102
RTVSPropertyOp17
 70
     1
102
RTVSPropertyOp18
 70
     1
102
RTVSPropertyOp19
 70
     1
102
RTVSPropertyOp20
 70
     1
102
RTVSPropertyOp21
 70
     1
102
RTVSPropertyOp22
 70
     1
102
RTVSPropertyOp23
 70
     1
102
RTVSPropertyOp24
 70
     1
102
RTVSPropertyOp25
 70
     1
102
RTVSPropertyOp26
 70
     1
102
RTVSPropertyOp27
 70
     1
102
RTVSPropertyOp28
 70
     1
102
RTVSPropertyOp29
 70
     1
102
RTVSPropertyOp30
 70
     1
102
RTVSPropertyOp31
 70
     1
102
RTVSPropertyOp32
 70
     1
102
RTVSPropertyOp33
 70
     1
102
RTVSPropertyOp34
 70
     1
102
RTVSPropertyOp35
 70
     1
102
RTVSPropertyOp36
 70
     1
102
RTVSPropertyOp37
 70
     1
102
RTVSPropertyOp38
 70
     1
102
RTVSPropertyOp39
 70
     1
102
RTVSPropertyOp40
 70
     1
102
RTVSPropertyOp41
 70
     1
102
RTVSPropertyOp42
 70
     1
102
RTVSPropertyOp43
 70
     1
102
RTVSPropertyOp44
 70
     1
102
RTVSPropertyOp45
 70
     1
102
RTVSPropertyOp46
 70
     1
102
RTVSPropertyOp47
 70
     1
102
RTVSPropertyOp48
 70
     1
102
RTVSPropertyOp49
 70
     1
102
RTVSPropertyOp50
 70
     1
102
RTVSPropertyOp51
 70
     0
102
RTVSPropertyOp52
 70
     0
102
RTVSPropertyOp53
 70
     1
102
RTVSPropertyOp54
 70
     1
102
RTVSPropertyOp55
 70
     1
102
RTVSPropertyOp56
 70
     1
102
RTVSPropertyOp57
 70
     1
102
RTVSPropertyOp58
 70
     1
102
RTVSPropertyOp59
 70
     1
102
RTVSPropertyOp60
 70
     1
102
RTVSPropertyOp61
 70
     1
102
RTVSPropertyOp62
 70
     1
  0
XRECORD
  5
40F
102
{ACAD_REACTORS
330
40E
102
}
330
40E
100
AcDbXrecord
280
     1
102
RTVSPost2010Prop28
280
     0
102
RTVSPost2010PropOp28
 70
     1
102
RTVSPost2010Prop29
280
     1
102
RTVSPost2010PropOp29
 70
     1
102
RTVSPost2010Prop30
280
     1
102
RTVSPost2010PropOp30
 70
     1
102
RTVSPost2010Prop31
280
     0
102
RTVSPost2010PropOp31
 70
     1
102
RTVSPost2010Prop32
280
     0
102
RTVSPost2010PropOp32
 70
     1
102
RTVSPost2010Prop33
280
     0
102
RTVSPost2010PropOp33
 70
     1
102
RTVSPost2010Prop34
280
     0
102
RTVSPost2010PropOp34
 70
     1
102
RTVSPost2010Prop35
280
     0
102
RTVSPost2010PropOp35
 70
     1
102
RTVSPost2010Prop36
280
     0
102
RTVSPost2010PropOp36
 70
     1
102
RTVSPost2010Prop37
 90
       50
102
RTVSPost2010PropOp37
 70
     1
102
RTVSPost2010Prop38
140
0.0
102
RTVSPost2010PropOp38
 70
     1
102
RTVSPost2010Prop39
140
1.0
102
RTVSPost2010PropOp39
 70
     1
102
RTVSPost2010Prop40
 90
        0
102
RTVSPost2010PropOp40
 70
     1
102
RTVSPost2010Prop41ColorIndex
 90
       18
102
RTVSPost2010Prop41ColorRGB
 90
        0
102
RTVSPost2010PropOp41
 70
     1
102
RTVSPost2010Prop42
 90
       50
102
RTVSPost2010PropOp42
 70
     1
102
RTVSPost2010Prop43
 90
        3
102
RTVSPost2010PropOp43
 70
     1
102
RTVSPost2010Prop44ColorIndex
 90
        5
102
RTVSPost2010Prop44ColorRGB
 90
      255
102
RTVSPost2010PropOp44
 70
     1
102
RTVSPost2010Prop45
280
     0
102
RTVSPost2010PropOp45
 70
     1
102
RTVSPost2010Prop46
 90
       50
102
RTVSPost2010PropOp46
 70
     1
102
RTVSPost2010Prop47
 90
       50
102
RTVSPost2010PropOp47
 70
     1
102
RTVSPost2010Prop48
 90
       50
102
RTVSPost2010PropOp48
 70
     1
102
RTVSPost2010Prop49
280
     0
102
RTVSPost2010PropOp49
 70
     1
102
RTVSPost2010Prop50
 90
       50
102
RTVSPost2010PropOp50
 70
     1
102
RTVSPost2010Prop51ColorIndex
 90
      256
102
RTVSPost2010Prop51ColorRGB
 90
-16777216
102
RTVSPost2010PropOp51
 70
     0
102
RTVSPost2010Prop52
140
1.0
102
RTVSPost2010PropOp52
 70
     0
102
RTVSPost2010Prop53
 90
        2
102
RTVSPost2010PropOp53
 70
     1
102
RTVSPost2010Prop54
  1
strokes_ogs.tif
102
RTVSPost2010PropOp54
 70
     1
102
RTVSPost2010Prop55
280
     0
102
RTVSPost2010PropOp55
 70
     1
102
RTVSPost2010Prop56
140
1.0
102
RTVSPost2010PropOp56
 70
     1
102
RTVSPost2010Prop57
140
1.0
102
RTVSPost2010PropOp57
 70
     1
102
RTVSPropertyOp0
 70
     1
102
RTVSPropertyOp1
 70
     1
102
RTVSPropertyOp2
 70
     1
102
RTVSPropertyOp3
 70
     1
102
RTVSPropertyOp4
 70
     1
102
RTVSPropertyOp5
 70
     1
102
RTVSPropertyOp6
 70
     1
102
RTVSPropertyOp7
 70
     1
102
RTVSPropertyOp8
 70
     1
102
RTVSPropertyOp9
 70
     1
102
RTVSPropertyOp10
 70
     1
102
RTVSPropertyOp11
 70
     1
102
RTVSPropertyOp12
 70
     1
102
RTVSPropertyOp13
 70
     1
102
RTVSPropertyOp14
 70
     1
102
RTVSPropertyOp15
 70
     1
102
RTVSPropertyOp16
 70
     1
102
RTVSPropertyOp17
 70
     1
102
RTVSPropertyOp18
 70
     1
102
RTVSPropertyOp19
 70
     1
102
RTVSPropertyOp20
 70
     1
102
RTVSPropertyOp21
 70
     1
102
RTVSPropertyOp22
 70
     1
102
RTVSPropertyOp23
 70
     1
102
RTVSPropertyOp24
 70
     1
102
RTVSPropertyOp25
 70
     1
102
RTVSPropertyOp26
 70
     1
102
RTVSPropertyOp27
 70
     1
102
RTVSPropertyOp28
 70
     1
102
RTVSPropertyOp29
 70
     1
102
RTVSPropertyOp30
 70
     1
102
RTVSPropertyOp31
 70
     1
102
RTVSPropertyOp32
 70
     1
102
RTVSPropertyOp33
 70
     1
102
RTVSPropertyOp34
 70
     1
102
RTVSPropertyOp35
 70
     1
102
RTVSPropertyOp36
 70
     1
102
RTVSPropertyOp37
 70
     1
102
RTVSPropertyOp38
 70
     1
102
RTVSPropertyOp39
 70
     1
102
RTVSPropertyOp40
 70
     1
102
RTVSPropertyOp41
 70
     1
102
RTVSPropertyOp42
 70
     1
102
RTVSPropertyOp43
 70
     1
102
RTVSPropertyOp44
 70
     1
102
RTVSPropertyOp45
 70
     1
102
RTVSPropertyOp46
 70
     1
102
RTVSPropertyOp47
 70
     1
102
RTVSPropertyOp48
 70
     1
102
RTVSPropertyOp49
 70
     1
102
RTVSPropertyOp50
 70
     1
102
RTVSPropertyOp51
 70
     0
102
RTVSPropertyOp52
 70
     0
102
RTVSPropertyOp53
 70
     1
102
RTVSPropertyOp54
 70
     1
102
RTVSPropertyOp55
 70
     1
102
RTVSPropertyOp56
 70
     1
102
RTVSPropertyOp57
 70
     1
102
RTVSPropertyOp58
 70
     1
102
RTVSPropertyOp59
 70
     1
102
RTVSPropertyOp60
 70
     1
102
RTVSPropertyOp61
 70
     1
102
RTVSPropertyOp62
 70
     1
  0
XRECORD
  5
411
102
{ACAD_REACTORS
330
410
102
}
330
410
100
AcDbXrecord
280
     1
102
RTVSPost2010Prop28
280
     0
102
RTVSPost2010PropOp28
 70
     1
102
RTVSPost2010Prop29
280
     1
102
RTVSPost2010PropOp29
 70
     1
102
RTVSPost2010Prop30
280
     1
102
RTVSPost2010PropOp30
 70
     1
102
RTVSPost2010Prop31
280
     0
102
RTVSPost2010PropOp31
 70
     1
102
RTVSPost2010Prop32
280
     0
102
RTVSPost2010PropOp32
 70
     1
102
RTVSPost2010Prop33
280
     0
102
RTVSPost2010PropOp33
 70
     1
102
RTVSPost2010Prop34
280
     0
102
RTVSPost2010PropOp34
 70
     1
102
RTVSPost2010Prop35
280
     0
102
RTVSPost2010PropOp35
 70
     1
102
RTVSPost2010Prop36
280
     0
102
RTVSPost2010PropOp36
 70
     1
102
RTVSPost2010Prop37
 90
       50
102
RTVSPost2010PropOp37
 70
     1
102
RTVSPost2010Prop38
140
0.0
102
RTVSPost2010PropOp38
 70
     1
102
RTVSPost2010Prop39
140
1.0
102
RTVSPost2010PropOp39
 70
     1
102
RTVSPost2010Prop40
 90
        0
102
RTVSPost2010PropOp40
 70
     1
102
RTVSPost2010Prop41ColorIndex
 90
       18
102
RTVSPost2010Prop41ColorRGB
 90
        0
102
RTVSPost2010PropOp41
 70
     1
102
RTVSPost2010Prop42
 90
       50
102
RTVSPost2010PropOp42
 70
     1
102
RTVSPost2010Prop43
 90
        3
102
RTVSPost2010PropOp43
 70
     1
102
RTVSPost2010Prop44ColorIndex
 90
        5
102
RTVSPost2010Prop44ColorRGB
 90
      255
102
RTVSPost2010PropOp44
 70
     1
102
RTVSPost2010Prop45
280
     0
102
RTVSPost2010PropOp45
 70
     1
102
RTVSPost2010Prop46
 90
       50
102
RTVSPost2010PropOp46
 70
     1
102
RTVSPost2010Prop47
 90
       50
102
RTVSPost2010PropOp47
 70
     1
102
RTVSPost2010Prop48
 90
       50
102
RTVSPost2010PropOp48
 70
     1
102
RTVSPost2010Prop49
280
     0
102
RTVSPost2010PropOp49
 70
     1
102
RTVSPost2010Prop50
 90
       50
102
RTVSPost2010PropOp50
 70
     1
102
RTVSPost2010Prop51ColorIndex
 90
      256
102
RTVSPost2010Prop51ColorRGB
 90
-16777216
102
RTVSPost2010PropOp51
 70
     0
102
RTVSPost2010Prop52
140
1.0
102
RTVSPost2010PropOp52
 70
     0
102
RTVSPost2010Prop53
 90
        2
102
RTVSPost2010PropOp53
 70
     1
102
RTVSPost2010Prop54
  1
strokes_ogs.tif
102
RTVSPost2010PropOp54
 70
     1
102
RTVSPost2010Prop55
280
     0
102
RTVSPost2010PropOp55
 70
     1
102
RTVSPost2010Prop56
140
1.0
102
RTVSPost2010PropOp56
 70
     1
102
RTVSPost2010Prop57
140
1.0
102
RTVSPost2010PropOp57
 70
     1
102
RTVSPropertyOp0
 70
     1
102
RTVSPropertyOp1
 70
     1
102
RTVSPropertyOp2
 70
     1
102
RTVSPropertyOp3
 70
     1
102
RTVSPropertyOp4
 70
     1
102
RTVSPropertyOp5
 70
     1
102
RTVSPropertyOp6
 70
     1
102
RTVSPropertyOp7
 70
     1
102
RTVSPropertyOp8
 70
     1
102
RTVSPropertyOp9
 70
     1
102
RTVSPropertyOp10
 70
     1
102
RTVSPropertyOp11
 70
     1
102
RTVSPropertyOp12
 70
     1
102
RTVSPropertyOp13
 70
     1
102
RTVSPropertyOp14
 70
     1
102
RTVSPropertyOp15
 70
     1
102
RTVSPropertyOp16
 70
     1
102
RTVSPropertyOp17
 70
     1
102
RTVSPropertyOp18
 70
     1
102
RTVSPropertyOp19
 70
     1
102
RTVSPropertyOp20
 70
     1
102
RTVSPropertyOp21
 70
     1
102
RTVSPropertyOp22
 70
     1
102
RTVSPropertyOp23
 70
     1
102
RTVSPropertyOp24
 70
     1
102
RTVSPropertyOp25
 70
     1
102
RTVSPropertyOp26
 70
     1
102
RTVSPropertyOp27
 70
     1
102
RTVSPropertyOp28
 70
     1
102
RTVSPropertyOp29
 70
     1
102
RTVSPropertyOp30
 70
     1
102
RTVSPropertyOp31
 70
     1
102
RTVSPropertyOp32
 70
     1
102
RTVSPropertyOp33
 70
     1
102
RTVSPropertyOp34
 70
     1
102
RTVSPropertyOp35
 70
     1
102
RTVSPropertyOp36
 70
     1
102
RTVSPropertyOp37
 70
     1
102
RTVSPropertyOp38
 70
     1
102
RTVSPropertyOp39
 70
     1
102
RTVSPropertyOp40
 70
     1
102
RTVSPropertyOp41
 70
     1
102
RTVSPropertyOp42
 70
     1
102
RTVSPropertyOp43
 70
     1
102
RTVSPropertyOp44
 70
     1
102
RTVSPropertyOp45
 70
     1
102
RTVSPropertyOp46
 70
     1
102
RTVSPropertyOp47
 70
     1
102
RTVSPropertyOp48
 70
     1
102
RTVSPropertyOp49
 70
     1
102
RTVSPropertyOp50
 70
     1
102
RTVSPropertyOp51
 70
     0
102
RTVSPropertyOp52
 70
     0
102
RTVSPropertyOp53
 70
     1
102
RTVSPropertyOp54
 70
     1
102
RTVSPropertyOp55
 70
     1
102
RTVSPropertyOp56
 70
     1
102
RTVSPropertyOp57
 70
     1
102
RTVSPropertyOp58
 70
     1
102
RTVSPropertyOp59
 70
     1
102
RTVSPropertyOp60
 70
     1
102
RTVSPropertyOp61
 70
     1
102
RTVSPropertyOp62
 70
     1
  0
XRECORD
  5
413
102
{ACAD_REACTORS
330
412
102
}
330
412
100
AcDbXrecord
280
     1
102
RTVSPost2010Prop28
280
     0
102
RTVSPost2010PropOp28
 70
     1
102
RTVSPost2010Prop29
280
     1
102
RTVSPost2010PropOp29
 70
     1
102
RTVSPost2010Prop30
280
     1
102
RTVSPost2010PropOp30
 70
     1
102
RTVSPost2010Prop31
280
     0
102
RTVSPost2010PropOp31
 70
     1
102
RTVSPost2010Prop32
280
     0
102
RTVSPost2010PropOp32
 70
     1
102
RTVSPost2010Prop33
280
     0
102
RTVSPost2010PropOp33
 70
     1
102
RTVSPost2010Prop34
280
     0
102
RTVSPost2010PropOp34
 70
     1
102
RTVSPost2010Prop35
280
     0
102
RTVSPost2010PropOp35
 70
     1
102
RTVSPost2010Prop36
280
     0
102
RTVSPost2010PropOp36
 70
     1
102
RTVSPost2010Prop37
 90
       50
102
RTVSPost2010PropOp37
 70
     1
102
RTVSPost2010Prop38
140
0.0
102
RTVSPost2010PropOp38
 70
     1
102
RTVSPost2010Prop39
140
1.0
102
RTVSPost2010PropOp39
 70
     1
102
RTVSPost2010Prop40
 90
        0
102
RTVSPost2010PropOp40
 70
     1
102
RTVSPost2010Prop41ColorIndex
 90
       18
102
RTVSPost2010Prop41ColorRGB
 90
        0
102
RTVSPost2010PropOp41
 70
     1
102
RTVSPost2010Prop42
 90
       50
102
RTVSPost2010PropOp42
 70
     1
102
RTVSPost2010Prop43
 90
        3
102
RTVSPost2010PropOp43
 70
     1
102
RTVSPost2010Prop44ColorIndex
 90
        5
102
RTVSPost2010Prop44ColorRGB
 90
      255
102
RTVSPost2010PropOp44
 70
     1
102
RTVSPost2010Prop45
280
     0
102
RTVSPost2010PropOp45
 70
     1
102
RTVSPost2010Prop46
 90
       50
102
RTVSPost2010PropOp46
 70
     1
102
RTVSPost2010Prop47
 90
       50
102
RTVSPost2010PropOp47
 70
     1
102
RTVSPost2010Prop48
 90
       50
102
RTVSPost2010PropOp48
 70
     1
102
RTVSPost2010Prop49
280
     0
102
RTVSPost2010PropOp49
 70
     1
102
RTVSPost2010Prop50
 90
       50
102
RTVSPost2010PropOp50
 70
     1
102
RTVSPost2010Prop51ColorIndex
 90
      256
102
RTVSPost2010Prop51ColorRGB
 90
-16777216
102
RTVSPost2010PropOp51
 70
     0
102
RTVSPost2010Prop52
140
1.0
102
RTVSPost2010PropOp52
 70
     0
102
RTVSPost2010Prop53
 90
        2
102
RTVSPost2010PropOp53
 70
     1
102
RTVSPost2010Prop54
  1
strokes_ogs.tif
102
RTVSPost2010PropOp54
 70
     1
102
RTVSPost2010Prop55
280
     0
102
RTVSPost2010PropOp55
 70
     1
102
RTVSPost2010Prop56
140
1.0
102
RTVSPost2010PropOp56
 70
     1
102
RTVSPost2010Prop57
140
1.0
102
RTVSPost2010PropOp57
 70
     1
102
RTVSPropertyOp0
 70
     1
102
RTVSPropertyOp1
 70
     1
102
RTVSPropertyOp2
 70
     1
102
RTVSPropertyOp3
 70
     1
102
RTVSPropertyOp4
 70
     1
102
RTVSPropertyOp5
 70
     1
102
RTVSPropertyOp6
 70
     1
102
RTVSPropertyOp7
 70
     1
102
RTVSPropertyOp8
 70
     1
102
RTVSPropertyOp9
 70
     1
102
RTVSPropertyOp10
 70
     1
102
RTVSPropertyOp11
 70
     1
102
RTVSPropertyOp12
 70
     1
102
RTVSPropertyOp13
 70
     1
102
RTVSPropertyOp14
 70
     1
102
RTVSPropertyOp15
 70
     1
102
RTVSPropertyOp16
 70
     1
102
RTVSPropertyOp17
 70
     1
102
RTVSPropertyOp18
 70
     1
102
RTVSPropertyOp19
 70
     1
102
RTVSPropertyOp20
 70
     1
102
RTVSPropertyOp21
 70
     1
102
RTVSPropertyOp22
 70
     1
102
RTVSPropertyOp23
 70
     1
102
RTVSPropertyOp24
 70
     1
102
RTVSPropertyOp25
 70
     1
102
RTVSPropertyOp26
 70
     1
102
RTVSPropertyOp27
 70
     1
102
RTVSPropertyOp28
 70
     1
102
RTVSPropertyOp29
 70
     1
102
RTVSPropertyOp30
 70
     1
102
RTVSPropertyOp31
 70
     1
102
RTVSPropertyOp32
 70
     1
102
RTVSPropertyOp33
 70
     1
102
RTVSPropertyOp34
 70
     1
102
RTVSPropertyOp35
 70
     1
102
RTVSPropertyOp36
 70
     1
102
RTVSPropertyOp37
 70
     1
102
RTVSPropertyOp38
 70
     1
102
RTVSPropertyOp39
 70
     1
102
RTVSPropertyOp40
 70
     1
102
RTVSPropertyOp41
 70
     1
102
RTVSPropertyOp42
 70
     1
102
RTVSPropertyOp43
 70
     1
102
RTVSPropertyOp44
 70
     1
102
RTVSPropertyOp45
 70
     1
102
RTVSPropertyOp46
 70
     1
102
RTVSPropertyOp47
 70
     1
102
RTVSPropertyOp48
 70
     1
102
RTVSPropertyOp49
 70
     1
102
RTVSPropertyOp50
 70
     1
102
RTVSPropertyOp51
 70
     0
102
RTVSPropertyOp52
 70
     0
102
RTVSPropertyOp53
 70
     1
102
RTVSPropertyOp54
 70
     1
102
RTVSPropertyOp55
 70
     1
102
RTVSPropertyOp56
 70
     1
102
RTVSPropertyOp57
 70
     1
102
RTVSPropertyOp58
 70
     1
102
RTVSPropertyOp59
 70
     1
102
RTVSPropertyOp60
 70
     1
102
RTVSPropertyOp61
 70
     1
102
RTVSPropertyOp62
 70
     1
  0
XRECORD
  5
41B
102
{ACAD_REACTORS
330
41A
102
}
330
41A
100
AcDbXrecord
280
     1
102
RTVSPost2010Prop28
280
     0
102
RTVSPost2010PropOp28
 70
     1
102
RTVSPost2010Prop29
280
     1
102
RTVSPost2010PropOp29
 70
     1
102
RTVSPost2010Prop30
280
     1
102
RTVSPost2010PropOp30
 70
     1
102
RTVSPost2010Prop31
280
     0
102
RTVSPost2010PropOp31
 70
     1
102
RTVSPost2010Prop32
280
     0
102
RTVSPost2010PropOp32
 70
     1
102
RTVSPost2010Prop33
280
     0
102
RTVSPost2010PropOp33
 70
     1
102
RTVSPost2010Prop34
280
     0
102
RTVSPost2010PropOp34
 70
     1
102
RTVSPost2010Prop35
280
     0
102
RTVSPost2010PropOp35
 70
     1
102
RTVSPost2010Prop36
280
     0
102
RTVSPost2010PropOp36
 70
     1
102
RTVSPost2010Prop37
 90
       50
102
RTVSPost2010PropOp37
 70
     1
102
RTVSPost2010Prop38
140
0.0
102
RTVSPost2010PropOp38
 70
     1
102
RTVSPost2010Prop39
140
1.0
102
RTVSPost2010PropOp39
 70
     1
102
RTVSPost2010Prop40
 90
        0
102
RTVSPost2010PropOp40
 70
     1
102
RTVSPost2010Prop41ColorIndex
 90
       18
102
RTVSPost2010Prop41ColorRGB
 90
        0
102
RTVSPost2010PropOp41
 70
     1
102
RTVSPost2010Prop42
 90
       50
102
RTVSPost2010PropOp42
 70
     1
102
RTVSPost2010Prop43
 90
        3
102
RTVSPost2010PropOp43
 70
     1
102
RTVSPost2010Prop44ColorIndex
 90
        5
102
RTVSPost2010Prop44ColorRGB
 90
      255
102
RTVSPost2010PropOp44
 70
     1
102
RTVSPost2010Prop45
280
     0
102
RTVSPost2010PropOp45
 70
     1
102
RTVSPost2010Prop46
 90
       50
102
RTVSPost2010PropOp46
 70
     1
102
RTVSPost2010Prop47
 90
       50
102
RTVSPost2010PropOp47
 70
     1
102
RTVSPost2010Prop48
 90
       50
102
RTVSPost2010PropOp48
 70
     1
102
RTVSPost2010Prop49
280
     0
102
RTVSPost2010PropOp49
 70
     1
102
RTVSPost2010Prop50
 90
       50
102
RTVSPost2010PropOp50
 70
     1
102
RTVSPost2010Prop51ColorIndex
 90
      256
102
RTVSPost2010Prop51ColorRGB
 90
-16777216
102
RTVSPost2010PropOp51
 70
     0
102
RTVSPost2010Prop52
140
1.0
102
RTVSPost2010PropOp52
 70
     0
102
RTVSPost2010Prop53
 90
        2
102
RTVSPost2010PropOp53
 70
     1
102
RTVSPost2010Prop54
  1
strokes_ogs.tif
102
RTVSPost2010PropOp54
 70
     1
102
RTVSPost2010Prop55
280
     0
102
RTVSPost2010PropOp55
 70
     1
102
RTVSPost2010Prop56
140
1.0
102
RTVSPost2010PropOp56
 70
     1
102
RTVSPost2010Prop57
140
1.0
102
RTVSPost2010PropOp57
 70
     1
102
RTVSPropertyOp0
 70
     1
102
RTVSPropertyOp1
 70
     1
102
RTVSPropertyOp2
 70
     1
102
RTVSPropertyOp3
 70
     1
102
RTVSPropertyOp4
 70
     1
102
RTVSPropertyOp5
 70
     1
102
RTVSPropertyOp6
 70
     1
102
RTVSPropertyOp7
 70
     1
102
RTVSPropertyOp8
 70
     1
102
RTVSPropertyOp9
 70
     1
102
RTVSPropertyOp10
 70
     1
102
RTVSPropertyOp11
 70
     1
102
RTVSPropertyOp12
 70
     1
102
RTVSPropertyOp13
 70
     1
102
RTVSPropertyOp14
 70
     1
102
RTVSPropertyOp15
 70
     1
102
RTVSPropertyOp16
 70
     1
102
RTVSPropertyOp17
 70
     1
102
RTVSPropertyOp18
 70
     1
102
RTVSPropertyOp19
 70
     1
102
RTVSPropertyOp20
 70
     1
102
RTVSPropertyOp21
 70
     1
102
RTVSPropertyOp22
 70
     1
102
RTVSPropertyOp23
 70
     1
102
RTVSPropertyOp24
 70
     1
102
RTVSPropertyOp25
 70
     1
102
RTVSPropertyOp26
 70
     1
102
RTVSPropertyOp27
 70
     1
102
RTVSPropertyOp28
 70
     1
102
RTVSPropertyOp29
 70
     1
102
RTVSPropertyOp30
 70
     1
102
RTVSPropertyOp31
 70
     1
102
RTVSPropertyOp32
 70
     1
102
RTVSPropertyOp33
 70
     1
102
RTVSPropertyOp34
 70
     1
102
RTVSPropertyOp35
 70
     1
102
RTVSPropertyOp36
 70
     1
102
RTVSPropertyOp37
 70
     1
102
RTVSPropertyOp38
 70
     1
102
RTVSPropertyOp39
 70
     1
102
RTVSPropertyOp40
 70
     1
102
RTVSPropertyOp41
 70
     1
102
RTVSPropertyOp42
 70
     1
102
RTVSPropertyOp43
 70
     1
102
RTVSPropertyOp44
 70
     1
102
RTVSPropertyOp45
 70
     1
102
RTVSPropertyOp46
 70
     1
102
RTVSPropertyOp47
 70
     1
102
RTVSPropertyOp48
 70
     1
102
RTVSPropertyOp49
 70
     1
102
RTVSPropertyOp50
 70
     1
102
RTVSPropertyOp51
 70
     0
102
RTVSPropertyOp52
 70
     0
102
RTVSPropertyOp53
 70
     1
102
RTVSPropertyOp54
 70
     1
102
RTVSPropertyOp55
 70
     1
102
RTVSPropertyOp56
 70
     1
102
RTVSPropertyOp57
 70
     1
102
RTVSPropertyOp58
 70
     1
102
RTVSPropertyOp59
 70
     1
102
RTVSPropertyOp60
 70
     1
102
RTVSPropertyOp61
 70
     1
102
RTVSPropertyOp62
 70
     1
  0
XRECORD
  5
437
102
{ACAD_REACTORS
330
436
102
}
330
436
100
AcDbXrecord
280
     1
102
RTVSPost2010Prop28
280
     0
102
RTVSPost2010PropOp28
 70
     1
102
RTVSPost2010Prop29
280
     1
102
RTVSPost2010PropOp29
 70
     1
102
RTVSPost2010Prop30
280
     1
102
RTVSPost2010PropOp30
 70
     1
102
RTVSPost2010Prop31
280
     0
102
RTVSPost2010PropOp31
 70
     1
102
RTVSPost2010Prop32
280
     0
102
RTVSPost2010PropOp32
 70
     1
102
RTVSPost2010Prop33
280
     0
102
RTVSPost2010PropOp33
 70
     1
102
RTVSPost2010Prop34
280
     0
102
RTVSPost2010PropOp34
 70
     1
102
RTVSPost2010Prop35
280
     0
102
RTVSPost2010PropOp35
 70
     1
102
RTVSPost2010Prop36
280
     0
102
RTVSPost2010PropOp36
 70
     1
102
RTVSPost2010Prop37
 90
       50
102
RTVSPost2010PropOp37
 70
     0
102
RTVSPost2010Prop38
140
0.0
102
RTVSPost2010PropOp38
 70
     0
102
RTVSPost2010Prop39
140
1.0
102
RTVSPost2010PropOp39
 70
     0
102
RTVSPost2010Prop40
 90
        0
102
RTVSPost2010PropOp40
 70
     0
102
RTVSPost2010Prop41ColorIndex
 90
       18
102
RTVSPost2010Prop41ColorRGB
 90
        0
102
RTVSPost2010PropOp41
 70
     0
102
RTVSPost2010Prop42
 90
       50
102
RTVSPost2010PropOp42
 70
     0
102
RTVSPost2010Prop43
 90
        3
102
RTVSPost2010PropOp43
 70
     0
102
RTVSPost2010Prop44ColorIndex
 90
        5
102
RTVSPost2010Prop44ColorRGB
 90
      255
102
RTVSPost2010PropOp44
 70
     0
102
RTVSPost2010Prop45
280
     0
102
RTVSPost2010PropOp45
 70
     1
102
RTVSPost2010Prop46
 90
       50
102
RTVSPost2010PropOp46
 70
     0
102
RTVSPost2010Prop47
 90
       50
102
RTVSPost2010PropOp47
 70
     0
102
RTVSPost2010Prop48
 90
       50
102
RTVSPost2010PropOp48
 70
     0
102
RTVSPost2010Prop49
280
     0
102
RTVSPost2010PropOp49
 70
     1
102
RTVSPost2010Prop50
 90
       50
102
RTVSPost2010PropOp50
 70
     0
102
RTVSPost2010Prop51ColorIndex
 90
      256
102
RTVSPost2010Prop51ColorRGB
 90
-16777216
102
RTVSPost2010PropOp51
 70
     0
102
RTVSPost2010Prop52
140
1.0
102
RTVSPost2010PropOp52
 70
     0
102
RTVSPost2010Prop53
 90
        2
102
RTVSPost2010PropOp53
 70
     0
102
RTVSPost2010Prop54
  1
strokes_ogs.tif
102
RTVSPost2010PropOp54
 70
     0
102
RTVSPost2010Prop55
280
     0
102
RTVSPost2010PropOp55
 70
     1
102
RTVSPost2010Prop56
140
1.0
102
RTVSPost2010PropOp56
 70
     0
102
RTVSPost2010Prop57
140
1.0
102
RTVSPost2010PropOp57
 70
     0
102
RTVSPropertyOp0
 70
     0
102
RTVSPropertyOp1
 70
     0
102
RTVSPropertyOp2
 70
     0
102
RTVSPropertyOp3
 70
     0
102
RTVSPropertyOp4
 70
     0
102
RTVSPropertyOp5
 70
     0
102
RTVSPropertyOp6
 70
     0
102
RTVSPropertyOp7
 70
     0
102
RTVSPropertyOp8
 70
     0
102
RTVSPropertyOp9
 70
     0
102
RTVSPropertyOp10
 70
     0
102
RTVSPropertyOp11
 70
     0
102
RTVSPropertyOp12
 70
     0
102
RTVSPropertyOp13
 70
     0
102
RTVSPropertyOp14
 70
     2
102
RTVSPropertyOp15
 70
     0
102
RTVSPropertyOp16
 70
     0
102
RTVSPropertyOp17
 70
     0
102
RTVSPropertyOp18
 70
     0
102
RTVSPropertyOp19
 70
     0
102
RTVSPropertyOp20
 70
     0
102
RTVSPropertyOp21
 70
     0
102
RTVSPropertyOp22
 70
     0
102
RTVSPropertyOp23
 70
     0
102
RTVSPropertyOp24
 70
     0
102
RTVSPropertyOp25
 70
     0
102
RTVSPropertyOp26
 70
     0
102
RTVSPropertyOp27
 70
     0
102
RTVSPropertyOp28
 70
     1
102
RTVSPropertyOp29
 70
     1
102
RTVSPropertyOp30
 70
     1
102
RTVSPropertyOp31
 70
     1
102
RTVSPropertyOp32
 70
     1
102
RTVSPropertyOp33
 70
     1
102
RTVSPropertyOp34
 70
     1
102
RTVSPropertyOp35
 70
     1
102
RTVSPropertyOp36
 70
     1
102
RTVSPropertyOp37
 70
     0
102
RTVSPropertyOp38
 70
     0
102
RTVSPropertyOp39
 70
     0
102
RTVSPropertyOp40
 70
     0
102
RTVSPropertyOp41
 70
     0
102
RTVSPropertyOp42
 70
     0
102
RTVSPropertyOp43
 70
     0
102
RTVSPropertyOp44
 70
     0
102
RTVSPropertyOp45
 70
     1
102
RTVSPropertyOp46
 70
     0
102
RTVSPropertyOp47
 70
     0
102
RTVSPropertyOp48
 70
     0
102
RTVSPropertyOp49
 70
     1
102
RTVSPropertyOp50
 70
     0
102
RTVSPropertyOp51
 70
     0
102
RTVSPropertyOp52
 70
     0
102
RTVSPropertyOp53
 70
     0
102
RTVSPropertyOp54
 70
     0
102
RTVSPropertyOp55
 70
     1
102
RTVSPropertyOp56
 70
     0
102
RTVSPropertyOp57
 70
     0
102
RTVSPropertyOp58
 70
     0
102
RTVSPropertyOp59
 70
     0
102
RTVSPropertyOp60
 70
     0
102
RTVSPropertyOp61
 70
     0
102
RTVSPropertyOp62
 70
     0
  0
XRECORD
  5
427
102
{ACAD_REACTORS
330
426
102
}
330
426
100
AcDbXrecord
280
     1
102
RTVSPost2010Prop28
280
     0
102
RTVSPost2010PropOp28
 70
     1
102
RTVSPost2010Prop29
280
     1
102
RTVSPost2010PropOp29
 70
     1
102
RTVSPost2010Prop30
280
     1
102
RTVSPost2010PropOp30
 70
     1
102
RTVSPost2010Prop31
280
     0
102
RTVSPost2010PropOp31
 70
     1
102
RTVSPost2010Prop32
280
     0
102
RTVSPost2010PropOp32
 70
     1
102
RTVSPost2010Prop33
280
     0
102
RTVSPost2010PropOp33
 70
     1
102
RTVSPost2010Prop34
280
     0
102
RTVSPost2010PropOp34
 70
     1
102
RTVSPost2010Prop35
280
     0
102
RTVSPost2010PropOp35
 70
     1
102
RTVSPost2010Prop36
280
     0
102
RTVSPost2010PropOp36
 70
     1
102
RTVSPost2010Prop37
 90
       50
102
RTVSPost2010PropOp37
 70
     1
102
RTVSPost2010Prop38
140
0.0
102
RTVSPost2010PropOp38
 70
     1
102
RTVSPost2010Prop39
140
1.0
102
RTVSPost2010PropOp39
 70
     1
102
RTVSPost2010Prop40
 90
        0
102
RTVSPost2010PropOp40
 70
     1
102
RTVSPost2010Prop41ColorIndex
 90
       18
102
RTVSPost2010Prop41ColorRGB
 90
        0
102
RTVSPost2010PropOp41
 70
     1
102
RTVSPost2010Prop42
 90
       50
102
RTVSPost2010PropOp42
 70
     1
102
RTVSPost2010Prop43
 90
        3
102
RTVSPost2010PropOp43
 70
     1
102
RTVSPost2010Prop44ColorIndex
 90
        5
102
RTVSPost2010Prop44ColorRGB
 90
      255
102
RTVSPost2010PropOp44
 70
     1
102
RTVSPost2010Prop45
280
     0
102
RTVSPost2010PropOp45
 70
     1
102
RTVSPost2010Prop46
 90
       50
102
RTVSPost2010PropOp46
 70
     1
102
RTVSPost2010Prop47
 90
       50
102
RTVSPost2010PropOp47
 70
     1
102
RTVSPost2010Prop48
 90
       50
102
RTVSPost2010PropOp48
 70
     1
102
RTVSPost2010Prop49
280
     0
102
RTVSPost2010PropOp49
 70
     1
102
RTVSPost2010Prop50
 90
       50
102
RTVSPost2010PropOp50
 70
     1
102
RTVSPost2010Prop51ColorIndex
 90
      256
102
RTVSPost2010Prop51ColorRGB
 90
-16777216
102
RTVSPost2010PropOp51
 70
     0
102
RTVSPost2010Prop52
140
1.0
102
RTVSPost2010PropOp52
 70
     0
102
RTVSPost2010Prop53
 90
        2
102
RTVSPost2010PropOp53
 70
     1
102
RTVSPost2010Prop54
  1
strokes_ogs.tif
102
RTVSPost2010PropOp54
 70
     1
102
RTVSPost2010Prop55
280
     0
102
RTVSPost2010PropOp55
 70
     1
102
RTVSPost2010Prop56
140
1.0
102
RTVSPost2010PropOp56
 70
     1
102
RTVSPost2010Prop57
140
1.0
102
RTVSPost2010PropOp57
 70
     1
102
RTVSPropertyOp0
 70
     1
102
RTVSPropertyOp1
 70
     1
102
RTVSPropertyOp2
 70
     1
102
RTVSPropertyOp3
 70
     1
102
RTVSPropertyOp4
 70
     1
102
RTVSPropertyOp5
 70
     1
102
RTVSPropertyOp6
 70
     1
102
RTVSPropertyOp7
 70
     1
102
RTVSPropertyOp8
 70
     1
102
RTVSPropertyOp9
 70
     1
102
RTVSPropertyOp10
 70
     1
102
RTVSPropertyOp11
 70
     1
102
RTVSPropertyOp12
 70
     1
102
RTVSPropertyOp13
 70
     1
102
RTVSPropertyOp14
 70
     1
102
RTVSPropertyOp15
 70
     1
102
RTVSPropertyOp16
 70
     1
102
RTVSPropertyOp17
 70
     1
102
RTVSPropertyOp18
 70
     1
102
RTVSPropertyOp19
 70
     1
102
RTVSPropertyOp20
 70
     1
102
RTVSPropertyOp21
 70
     1
102
RTVSPropertyOp22
 70
     1
102
RTVSPropertyOp23
 70
     1
102
RTVSPropertyOp24
 70
     1
102
RTVSPropertyOp25
 70
     1
102
RTVSPropertyOp26
 70
     1
102
RTVSPropertyOp27
 70
     1
102
RTVSPropertyOp28
 70
     1
102
RTVSPropertyOp29
 70
     1
102
RTVSPropertyOp30
 70
     1
102
RTVSPropertyOp31
 70
     1
102
RTVSPropertyOp32
 70
     1
102
RTVSPropertyOp33
 70
     1
102
RTVSPropertyOp34
 70
     1
102
RTVSPropertyOp35
 70
     1
102
RTVSPropertyOp36
 70
     1
102
RTVSPropertyOp37
 70
     1
102
RTVSPropertyOp38
 70
     1
102
RTVSPropertyOp39
 70
     1
102
RTVSPropertyOp40
 70
     1
102
RTVSPropertyOp41
 70
     1
102
RTVSPropertyOp42
 70
     1
102
RTVSPropertyOp43
 70
     1
102
RTVSPropertyOp44
 70
     1
102
RTVSPropertyOp45
 70
     1
102
RTVSPropertyOp46
 70
     1
102
RTVSPropertyOp47
 70
     1
102
RTVSPropertyOp48
 70
     1
102
RTVSPropertyOp49
 70
     1
102
RTVSPropertyOp50
 70
     1
102
RTVSPropertyOp51
 70
     0
102
RTVSPropertyOp52
 70
     0
102
RTVSPropertyOp53
 70
     1
102
RTVSPropertyOp54
 70
     1
102
RTVSPropertyOp55
 70
     1
102
RTVSPropertyOp56
 70
     1
102
RTVSPropertyOp57
 70
     1
102
RTVSPropertyOp58
 70
     1
102
RTVSPropertyOp59
 70
     1
102
RTVSPropertyOp60
 70
     1
102
RTVSPropertyOp61
 70
     1
102
RTVSPropertyOp62
 70
     1
  0
XRECORD
  5
439
102
{ACAD_REACTORS
330
438
102
}
330
438
100
AcDbXrecord
280
     1
102
RTVSPost2010Prop28
280
     0
102
RTVSPost2010PropOp28
 70
     1
102
RTVSPost2010Prop29
280
     1
102
RTVSPost2010PropOp29
 70
     1
102
RTVSPost2010Prop30
280
     1
102
RTVSPost2010PropOp30
 70
     1
102
RTVSPost2010Prop31
280
     0
102
RTVSPost2010PropOp31
 70
     1
102
RTVSPost2010Prop32
280
     0
102
RTVSPost2010PropOp32
 70
     1
102
RTVSPost2010Prop33
280
     0
102
RTVSPost2010PropOp33
 70
     1
102
RTVSPost2010Prop34
280
     0
102
RTVSPost2010PropOp34
 70
     1
102
RTVSPost2010Prop35
280
     0
102
RTVSPost2010PropOp35
 70
     1
102
RTVSPost2010Prop36
280
     0
102
RTVSPost2010PropOp36
 70
     1
102
RTVSPost2010Prop37
 90
       50
102
RTVSPost2010PropOp37
 70
     0
102
RTVSPost2010Prop38
140
0.0
102
RTVSPost2010PropOp38
 70
     0
102
RTVSPost2010Prop39
140
1.0
102
RTVSPost2010PropOp39
 70
     0
102
RTVSPost2010Prop40
 90
        0
102
RTVSPost2010PropOp40
 70
     0
102
RTVSPost2010Prop41ColorIndex
 90
       18
102
RTVSPost2010Prop41ColorRGB
 90
        0
102
RTVSPost2010PropOp41
 70
     0
102
RTVSPost2010Prop42
 90
       50
102
RTVSPost2010PropOp42
 70
     0
102
RTVSPost2010Prop43
 90
        3
102
RTVSPost2010PropOp43
 70
     0
102
RTVSPost2010Prop44ColorIndex
 90
        5
102
RTVSPost2010Prop44ColorRGB
 90
      255
102
RTVSPost2010PropOp44
 70
     0
102
RTVSPost2010Prop45
280
     0
102
RTVSPost2010PropOp45
 70
     1
102
RTVSPost2010Prop46
 90
       50
102
RTVSPost2010PropOp46
 70
     0
102
RTVSPost2010Prop47
 90
       50
102
RTVSPost2010PropOp47
 70
     0
102
RTVSPost2010Prop48
 90
       50
102
RTVSPost2010PropOp48
 70
     0
102
RTVSPost2010Prop49
280
     0
102
RTVSPost2010PropOp49
 70
     1
102
RTVSPost2010Prop50
 90
       50
102
RTVSPost2010PropOp50
 70
     0
102
RTVSPost2010Prop51ColorIndex
 90
      256
102
RTVSPost2010Prop51ColorRGB
 90
-16777216
102
RTVSPost2010PropOp51
 70
     0
102
RTVSPost2010Prop52
140
1.0
102
RTVSPost2010PropOp52
 70
     0
102
RTVSPost2010Prop53
 90
        2
102
RTVSPost2010PropOp53
 70
     0
102
RTVSPost2010Prop54
  1
strokes_ogs.tif
102
RTVSPost2010PropOp54
 70
     0
102
RTVSPost2010Prop55
280
     0
102
RTVSPost2010PropOp55
 70
     1
102
RTVSPost2010Prop56
140
1.0
102
RTVSPost2010PropOp56
 70
     0
102
RTVSPost2010Prop57
140
1.0
102
RTVSPost2010PropOp57
 70
     0
102
RTVSPropertyOp0
 70
     0
102
RTVSPropertyOp1
 70
     0
102
RTVSPropertyOp2
 70
     0
102
RTVSPropertyOp3
 70
     0
102
RTVSPropertyOp4
 70
     0
102
RTVSPropertyOp5
 70
     0
102
RTVSPropertyOp6
 70
     0
102
RTVSPropertyOp7
 70
     0
102
RTVSPropertyOp8
 70
     0
102
RTVSPropertyOp9
 70
     0
102
RTVSPropertyOp10
 70
     0
102
RTVSPropertyOp11
 70
     0
102
RTVSPropertyOp12
 70
     0
102
RTVSPropertyOp13
 70
     0
102
RTVSPropertyOp14
 70
     2
102
RTVSPropertyOp15
 70
     0
102
RTVSPropertyOp16
 70
     0
102
RTVSPropertyOp17
 70
     0
102
RTVSPropertyOp18
 70
     0
102
RTVSPropertyOp19
 70
     0
102
RTVSPropertyOp20
 70
     0
102
RTVSPropertyOp21
 70
     0
102
RTVSPropertyOp22
 70
     0
102
RTVSPropertyOp23
 70
     0
102
RTVSPropertyOp24
 70
     0
102
RTVSPropertyOp25
 70
     0
102
RTVSPropertyOp26
 70
     0
102
RTVSPropertyOp27
 70
     0
102
RTVSPropertyOp28
 70
     1
102
RTVSPropertyOp29
 70
     1
102
RTVSPropertyOp30
 70
     1
102
RTVSPropertyOp31
 70
     1
102
RTVSPropertyOp32
 70
     1
102
RTVSPropertyOp33
 70
     1
102
RTVSPropertyOp34
 70
     1
102
RTVSPropertyOp35
 70
     1
102
RTVSPropertyOp36
 70
     1
102
RTVSPropertyOp37
 70
     0
102
RTVSPropertyOp38
 70
     0
102
RTVSPropertyOp39
 70
     0
102
RTVSPropertyOp40
 70
     0
102
RTVSPropertyOp41
 70
     0
102
RTVSPropertyOp42
 70
     0
102
RTVSPropertyOp43
 70
     0
102
RTVSPropertyOp44
 70
     0
102
RTVSPropertyOp45
 70
     1
102
RTVSPropertyOp46
 70
     0
102
RTVSPropertyOp47
 70
     0
102
RTVSPropertyOp48
 70
     0
102
RTVSPropertyOp49
 70
     1
102
RTVSPropertyOp50
 70
     0
102
RTVSPropertyOp51
 70
     0
102
RTVSPropertyOp52
 70
     0
102
RTVSPropertyOp53
 70
     0
102
RTVSPropertyOp54
 70
     0
102
RTVSPropertyOp55
 70
     1
102
RTVSPropertyOp56
 70
     0
102
RTVSPropertyOp57
 70
     0
102
RTVSPropertyOp58
 70
     0
102
RTVSPropertyOp59
 70
     0
102
RTVSPropertyOp60
 70
     0
102
RTVSPropertyOp61
 70
     0
102
RTVSPropertyOp62
 70
     0
  0
XRECORD
  5
41F
102
{ACAD_REACTORS
330
41E
102
}
330
41E
100
AcDbXrecord
280
     1
102
RTVSPost2010Prop28
280
     0
102
RTVSPost2010PropOp28
 70
     1
102
RTVSPost2010Prop29
280
     1
102
RTVSPost2010PropOp29
 70
     1
102
RTVSPost2010Prop30
280
     1
102
RTVSPost2010PropOp30
 70
     1
102
RTVSPost2010Prop31
280
     0
102
RTVSPost2010PropOp31
 70
     1
102
RTVSPost2010Prop32
280
     0
102
RTVSPost2010PropOp32
 70
     1
102
RTVSPost2010Prop33
280
     0
102
RTVSPost2010PropOp33
 70
     1
102
RTVSPost2010Prop34
280
     0
102
RTVSPost2010PropOp34
 70
     1
102
RTVSPost2010Prop35
280
     0
102
RTVSPost2010PropOp35
 70
     1
102
RTVSPost2010Prop36
280
     0
102
RTVSPost2010PropOp36
 70
     1
102
RTVSPost2010Prop37
 90
       50
102
RTVSPost2010PropOp37
 70
     1
102
RTVSPost2010Prop38
140
0.0
102
RTVSPost2010PropOp38
 70
     1
102
RTVSPost2010Prop39
140
1.0
102
RTVSPost2010PropOp39
 70
     1
102
RTVSPost2010Prop40
 90
        0
102
RTVSPost2010PropOp40
 70
     1
102
RTVSPost2010Prop41ColorIndex
 90
       18
102
RTVSPost2010Prop41ColorRGB
 90
        0
102
RTVSPost2010PropOp41
 70
     1
102
RTVSPost2010Prop42
 90
       50
102
RTVSPost2010PropOp42
 70
     1
102
RTVSPost2010Prop43
 90
        3
102
RTVSPost2010PropOp43
 70
     1
102
RTVSPost2010Prop44ColorIndex
 90
        5
102
RTVSPost2010Prop44ColorRGB
 90
      255
102
RTVSPost2010PropOp44
 70
     1
102
RTVSPost2010Prop45
280
     0
102
RTVSPost2010PropOp45
 70
     1
102
RTVSPost2010Prop46
 90
       50
102
RTVSPost2010PropOp46
 70
     1
102
RTVSPost2010Prop47
 90
       50
102
RTVSPost2010PropOp47
 70
     1
102
RTVSPost2010Prop48
 90
       50
102
RTVSPost2010PropOp48
 70
     1
102
RTVSPost2010Prop49
280
     0
102
RTVSPost2010PropOp49
 70
     1
102
RTVSPost2010Prop50
 90
       50
102
RTVSPost2010PropOp50
 70
     1
102
RTVSPost2010Prop51ColorIndex
 90
      256
102
RTVSPost2010Prop51ColorRGB
 90
-16777216
102
RTVSPost2010PropOp51
 70
     0
102
RTVSPost2010Prop52
140
1.0
102
RTVSPost2010PropOp52
 70
     0
102
RTVSPost2010Prop53
 90
        2
102
RTVSPost2010PropOp53
 70
     1
102
RTVSPost2010Prop54
  1
strokes_ogs.tif
102
RTVSPost2010PropOp54
 70
     1
102
RTVSPost2010Prop55
280
     0
102
RTVSPost2010PropOp55
 70
     1
102
RTVSPost2010Prop56
140
1.0
102
RTVSPost2010PropOp56
 70
     1
102
RTVSPost2010Prop57
140
1.0
102
RTVSPost2010PropOp57
 70
     1
102
RTVSPropertyOp0
 70
     1
102
RTVSPropertyOp1
 70
     1
102
RTVSPropertyOp2
 70
     1
102
RTVSPropertyOp3
 70
     1
102
RTVSPropertyOp4
 70
     1
102
RTVSPropertyOp5
 70
     1
102
RTVSPropertyOp6
 70
     1
102
RTVSPropertyOp7
 70
     1
102
RTVSPropertyOp8
 70
     1
102
RTVSPropertyOp9
 70
     1
102
RTVSPropertyOp10
 70
     1
102
RTVSPropertyOp11
 70
     1
102
RTVSPropertyOp12
 70
     1
102
RTVSPropertyOp13
 70
     1
102
RTVSPropertyOp14
 70
     1
102
RTVSPropertyOp15
 70
     1
102
RTVSPropertyOp16
 70
     1
102
RTVSPropertyOp17
 70
     1
102
RTVSPropertyOp18
 70
     1
102
RTVSPropertyOp19
 70
     1
102
RTVSPropertyOp20
 70
     1
102
RTVSPropertyOp21
 70
     1
102
RTVSPropertyOp22
 70
     1
102
RTVSPropertyOp23
 70
     1
102
RTVSPropertyOp24
 70
     1
102
RTVSPropertyOp25
 70
     1
102
RTVSPropertyOp26
 70
     1
102
RTVSPropertyOp27
 70
     1
102
RTVSPropertyOp28
 70
     1
102
RTVSPropertyOp29
 70
     1
102
RTVSPropertyOp30
 70
     1
102
RTVSPropertyOp31
 70
     1
102
RTVSPropertyOp32
 70
     1
102
RTVSPropertyOp33
 70
     1
102
RTVSPropertyOp34
 70
     1
102
RTVSPropertyOp35
 70
     1
102
RTVSPropertyOp36
 70
     1
102
RTVSPropertyOp37
 70
     1
102
RTVSPropertyOp38
 70
     1
102
RTVSPropertyOp39
 70
     1
102
RTVSPropertyOp40
 70
     1
102
RTVSPropertyOp41
 70
     1
102
RTVSPropertyOp42
 70
     1
102
RTVSPropertyOp43
 70
     1
102
RTVSPropertyOp44
 70
     1
102
RTVSPropertyOp45
 70
     1
102
RTVSPropertyOp46
 70
     1
102
RTVSPropertyOp47
 70
     1
102
RTVSPropertyOp48
 70
     1
102
RTVSPropertyOp49
 70
     1
102
RTVSPropertyOp50
 70
     1
102
RTVSPropertyOp51
 70
     0
102
RTVSPropertyOp52
 70
     0
102
RTVSPropertyOp53
 70
     1
102
RTVSPropertyOp54
 70
     1
102
RTVSPropertyOp55
 70
     1
102
RTVSPropertyOp56
 70
     1
102
RTVSPropertyOp57
 70
     1
102
RTVSPropertyOp58
 70
     1
102
RTVSPropertyOp59
 70
     1
102
RTVSPropertyOp60
 70
     1
102
RTVSPropertyOp61
 70
     1
102
RTVSPropertyOp62
 70
     1
  0
XRECORD
  5
435
102
{ACAD_REACTORS
330
434
102
}
330
434
100
AcDbXrecord
280
     1
102
RTVSPost2010Prop28
280
     0
102
RTVSPost2010PropOp28
 70
     1
102
RTVSPost2010Prop29
280
     1
102
RTVSPost2010PropOp29
 70
     1
102
RTVSPost2010Prop30
280
     1
102
RTVSPost2010PropOp30
 70
     1
102
RTVSPost2010Prop31
280
     0
102
RTVSPost2010PropOp31
 70
     1
102
RTVSPost2010Prop32
280
     0
102
RTVSPost2010PropOp32
 70
     1
102
RTVSPost2010Prop33
280
     0
102
RTVSPost2010PropOp33
 70
     1
102
RTVSPost2010Prop34
280
     0
102
RTVSPost2010PropOp34
 70
     1
102
RTVSPost2010Prop35
280
     0
102
RTVSPost2010PropOp35
 70
     1
102
RTVSPost2010Prop36
280
     0
102
RTVSPost2010PropOp36
 70
     1
102
RTVSPost2010Prop37
 90
       50
102
RTVSPost2010PropOp37
 70
     1
102
RTVSPost2010Prop38
140
0.0
102
RTVSPost2010PropOp38
 70
     1
102
RTVSPost2010Prop39
140
1.0
102
RTVSPost2010PropOp39
 70
     1
102
RTVSPost2010Prop40
 90
        0
102
RTVSPost2010PropOp40
 70
     1
102
RTVSPost2010Prop41ColorIndex
 90
       18
102
RTVSPost2010Prop41ColorRGB
 90
        0
102
RTVSPost2010PropOp41
 70
     1
102
RTVSPost2010Prop42
 90
       50
102
RTVSPost2010PropOp42
 70
     1
102
RTVSPost2010Prop43
 90
        3
102
RTVSPost2010PropOp43
 70
     1
102
RTVSPost2010Prop44ColorIndex
 90
        5
102
RTVSPost2010Prop44ColorRGB
 90
      255
102
RTVSPost2010PropOp44
 70
     1
102
RTVSPost2010Prop45
280
     0
102
RTVSPost2010PropOp45
 70
     1
102
RTVSPost2010Prop46
 90
       50
102
RTVSPost2010PropOp46
 70
     1
102
RTVSPost2010Prop47
 90
       50
102
RTVSPost2010PropOp47
 70
     1
102
RTVSPost2010Prop48
 90
       50
102
RTVSPost2010PropOp48
 70
     1
102
RTVSPost2010Prop49
280
     0
102
RTVSPost2010PropOp49
 70
     1
102
RTVSPost2010Prop50
 90
       50
102
RTVSPost2010PropOp50
 70
     1
102
RTVSPost2010Prop51ColorIndex
 90
      256
102
RTVSPost2010Prop51ColorRGB
 90
-16777216
102
RTVSPost2010PropOp51
 70
     0
102
RTVSPost2010Prop52
140
1.0
102
RTVSPost2010PropOp52
 70
     0
102
RTVSPost2010Prop53
 90
        2
102
RTVSPost2010PropOp53
 70
     1
102
RTVSPost2010Prop54
  1
strokes_ogs.tif
102
RTVSPost2010PropOp54
 70
     1
102
RTVSPost2010Prop55
280
     0
102
RTVSPost2010PropOp55
 70
     1
102
RTVSPost2010Prop56
140
1.0
102
RTVSPost2010PropOp56
 70
     1
102
RTVSPost2010Prop57
140
1.0
102
RTVSPost2010PropOp57
 70
     1
102
RTVSPropertyOp0
 70
     1
102
RTVSPropertyOp1
 70
     1
102
RTVSPropertyOp2
 70
     1
102
RTVSPropertyOp3
 70
     1
102
RTVSPropertyOp4
 70
     1
102
RTVSPropertyOp5
 70
     1
102
RTVSPropertyOp6
 70
     1
102
RTVSPropertyOp7
 70
     1
102
RTVSPropertyOp8
 70
     1
102
RTVSPropertyOp9
 70
     1
102
RTVSPropertyOp10
 70
     1
102
RTVSPropertyOp11
 70
     1
102
RTVSPropertyOp12
 70
     1
102
RTVSPropertyOp13
 70
     1
102
RTVSPropertyOp14
 70
     1
102
RTVSPropertyOp15
 70
     1
102
RTVSPropertyOp16
 70
     1
102
RTVSPropertyOp17
 70
     1
102
RTVSPropertyOp18
 70
     1
102
RTVSPropertyOp19
 70
     1
102
RTVSPropertyOp20
 70
     1
102
RTVSPropertyOp21
 70
     1
102
RTVSPropertyOp22
 70
     1
102
RTVSPropertyOp23
 70
     1
102
RTVSPropertyOp24
 70
     1
102
RTVSPropertyOp25
 70
     1
102
RTVSPropertyOp26
 70
     1
102
RTVSPropertyOp27
 70
     1
102
RTVSPropertyOp28
 70
     1
102
RTVSPropertyOp29
 70
     1
102
RTVSPropertyOp30
 70
     1
102
RTVSPropertyOp31
 70
     1
102
RTVSPropertyOp32
 70
     1
102
RTVSPropertyOp33
 70
     1
102
RTVSPropertyOp34
 70
     1
102
RTVSPropertyOp35
 70
     1
102
RTVSPropertyOp36
 70
     1
102
RTVSPropertyOp37
 70
     1
102
RTVSPropertyOp38
 70
     1
102
RTVSPropertyOp39
 70
     1
102
RTVSPropertyOp40
 70
     1
102
RTVSPropertyOp41
 70
     1
102
RTVSPropertyOp42
 70
     1
102
RTVSPropertyOp43
 70
     1
102
RTVSPropertyOp44
 70
     1
102
RTVSPropertyOp45
 70
     1
102
RTVSPropertyOp46
 70
     1
102
RTVSPropertyOp47
 70
     1
102
RTVSPropertyOp48
 70
     1
102
RTVSPropertyOp49
 70
     1
102
RTVSPropertyOp50
 70
     1
102
RTVSPropertyOp51
 70
     0
102
RTVSPropertyOp52
 70
     0
102
RTVSPropertyOp53
 70
     1
102
RTVSPropertyOp54
 70
     1
102
RTVSPropertyOp55
 70
     1
102
RTVSPropertyOp56
 70
     1
102
RTVSPropertyOp57
 70
     1
102
RTVSPropertyOp58
 70
     1
102
RTVSPropertyOp59
 70
     1
102
RTVSPropertyOp60
 70
     1
102
RTVSPropertyOp61
 70
     1
102
RTVSPropertyOp62
 70
     1
  0
XRECORD
  5
433
102
{ACAD_REACTORS
330
432
102
}
330
432
100
AcDbXrecord
280
     1
102
RTVSPost2010Prop28
280
     0
102
RTVSPost2010PropOp28
 70
     1
102
RTVSPost2010Prop29
280
     1
102
RTVSPost2010PropOp29
 70
     1
102
RTVSPost2010Prop30
280
     1
102
RTVSPost2010PropOp30
 70
     1
102
RTVSPost2010Prop31
280
     0
102
RTVSPost2010PropOp31
 70
     1
102
RTVSPost2010Prop32
280
     0
102
RTVSPost2010PropOp32
 70
     1
102
RTVSPost2010Prop33
280
     0
102
RTVSPost2010PropOp33
 70
     1
102
RTVSPost2010Prop34
280
     0
102
RTVSPost2010PropOp34
 70
     1
102
RTVSPost2010Prop35
280
     0
102
RTVSPost2010PropOp35
 70
     1
102
RTVSPost2010Prop36
280
     0
102
RTVSPost2010PropOp36
 70
     1
102
RTVSPost2010Prop37
 90
       50
102
RTVSPost2010PropOp37
 70
     1
102
RTVSPost2010Prop38
140
0.0
102
RTVSPost2010PropOp38
 70
     1
102
RTVSPost2010Prop39
140
1.0
102
RTVSPost2010PropOp39
 70
     1
102
RTVSPost2010Prop40
 90
        0
102
RTVSPost2010PropOp40
 70
     1
102
RTVSPost2010Prop41ColorIndex
 90
       18
102
RTVSPost2010Prop41ColorRGB
 90
        0
102
RTVSPost2010PropOp41
 70
     1
102
RTVSPost2010Prop42
 90
       50
102
RTVSPost2010PropOp42
 70
     1
102
RTVSPost2010Prop43
 90
        3
102
RTVSPost2010PropOp43
 70
     1
102
RTVSPost2010Prop44ColorIndex
 90
        5
102
RTVSPost2010Prop44ColorRGB
 90
      255
102
RTVSPost2010PropOp44
 70
     1
102
RTVSPost2010Prop45
280
     0
102
RTVSPost2010PropOp45
 70
     1
102
RTVSPost2010Prop46
 90
       50
102
RTVSPost2010PropOp46
 70
     1
102
RTVSPost2010Prop47
 90
       50
102
RTVSPost2010PropOp47
 70
     1
102
RTVSPost2010Prop48
 90
       50
102
RTVSPost2010PropOp48
 70
     1
102
RTVSPost2010Prop49
280
     0
102
RTVSPost2010PropOp49
 70
     1
102
RTVSPost2010Prop50
 90
       50
102
RTVSPost2010PropOp50
 70
     1
102
RTVSPost2010Prop51ColorIndex
 90
      256
102
RTVSPost2010Prop51ColorRGB
 90
-16777216
102
RTVSPost2010PropOp51
 70
     0
102
RTVSPost2010Prop52
140
1.0
102
RTVSPost2010PropOp52
 70
     0
102
RTVSPost2010Prop53
 90
        2
102
RTVSPost2010PropOp53
 70
     1
102
RTVSPost2010Prop54
  1
strokes_ogs.tif
102
RTVSPost2010PropOp54
 70
     1
102
RTVSPost2010Prop55
280
     0
102
RTVSPost2010PropOp55
 70
     1
102
RTVSPost2010Prop56
140
1.0
102
RTVSPost2010PropOp56
 70
     1
102
RTVSPost2010Prop57
140
1.0
102
RTVSPost2010PropOp57
 70
     1
102
RTVSPropertyOp0
 70
     1
102
RTVSPropertyOp1
 70
     1
102
RTVSPropertyOp2
 70
     1
102
RTVSPropertyOp3
 70
     1
102
RTVSPropertyOp4
 70
     1
102
RTVSPropertyOp5
 70
     1
102
RTVSPropertyOp6
 70
     1
102
RTVSPropertyOp7
 70
     1
102
RTVSPropertyOp8
 70
     1
102
RTVSPropertyOp9
 70
     1
102
RTVSPropertyOp10
 70
     1
102
RTVSPropertyOp11
 70
     1
102
RTVSPropertyOp12
 70
     1
102
RTVSPropertyOp13
 70
     1
102
RTVSPropertyOp14
 70
     1
102
RTVSPropertyOp15
 70
     1
102
RTVSPropertyOp16
 70
     1
102
RTVSPropertyOp17
 70
     1
102
RTVSPropertyOp18
 70
     1
102
RTVSPropertyOp19
 70
     1
102
RTVSPropertyOp20
 70
     1
102
RTVSPropertyOp21
 70
     1
102
RTVSPropertyOp22
 70
     1
102
RTVSPropertyOp23
 70
     1
102
RTVSPropertyOp24
 70
     1
102
RTVSPropertyOp25
 70
     1
102
RTVSPropertyOp26
 70
     1
102
RTVSPropertyOp27
 70
     1
102
RTVSPropertyOp28
 70
     1
102
RTVSPropertyOp29
 70
     1
102
RTVSPropertyOp30
 70
     1
102
RTVSPropertyOp31
 70
     1
102
RTVSPropertyOp32
 70
     1
102
RTVSPropertyOp33
 70
     1
102
RTVSPropertyOp34
 70
     1
102
RTVSPropertyOp35
 70
     1
102
RTVSPropertyOp36
 70
     1
102
RTVSPropertyOp37
 70
     1
102
RTVSPropertyOp38
 70
     1
102
RTVSPropertyOp39
 70
     1
102
RTVSPropertyOp40
 70
     1
102
RTVSPropertyOp41
 70
     1
102
RTVSPropertyOp42
 70
     1
102
RTVSPropertyOp43
 70
     1
102
RTVSPropertyOp44
 70
     1
102
RTVSPropertyOp45
 70
     1
102
RTVSPropertyOp46
 70
     1
102
RTVSPropertyOp47
 70
     1
102
RTVSPropertyOp48
 70
     1
102
RTVSPropertyOp49
 70
     1
102
RTVSPropertyOp50
 70
     1
102
RTVSPropertyOp51
 70
     0
102
RTVSPropertyOp52
 70
     0
102
RTVSPropertyOp53
 70
     1
102
RTVSPropertyOp54
 70
     1
102
RTVSPropertyOp55
 70
     1
102
RTVSPropertyOp56
 70
     1
102
RTVSPropertyOp57
 70
     1
102
RTVSPropertyOp58
 70
     1
102
RTVSPropertyOp59
 70
     1
102
RTVSPropertyOp60
 70
     1
102
RTVSPropertyOp61
 70
     1
102
RTVSPropertyOp62
 70
     1
  0
XRECORD
  5
42D
102
{ACAD_REACTORS
330
42C
102
}
330
42C
100
AcDbXrecord
280
     1
102
RTVSPost2010Prop28
280
     0
102
RTVSPost2010PropOp28
 70
     1
102
RTVSPost2010Prop29
280
     1
102
RTVSPost2010PropOp29
 70
     1
102
RTVSPost2010Prop30
280
     1
102
RTVSPost2010PropOp30
 70
     1
102
RTVSPost2010Prop31
280
     0
102
RTVSPost2010PropOp31
 70
     1
102
RTVSPost2010Prop32
280
     0
102
RTVSPost2010PropOp32
 70
     1
102
RTVSPost2010Prop33
280
     0
102
RTVSPost2010PropOp33
 70
     1
102
RTVSPost2010Prop34
280
     0
102
RTVSPost2010PropOp34
 70
     1
102
RTVSPost2010Prop35
280
     0
102
RTVSPost2010PropOp35
 70
     1
102
RTVSPost2010Prop36
280
     0
102
RTVSPost2010PropOp36
 70
     1
102
RTVSPost2010Prop37
 90
       50
102
RTVSPost2010PropOp37
 70
     1
102
RTVSPost2010Prop38
140
0.0
102
RTVSPost2010PropOp38
 70
     1
102
RTVSPost2010Prop39
140
1.0
102
RTVSPost2010PropOp39
 70
     1
102
RTVSPost2010Prop40
 90
        0
102
RTVSPost2010PropOp40
 70
     1
102
RTVSPost2010Prop41ColorIndex
 90
       18
102
RTVSPost2010Prop41ColorRGB
 90
        0
102
RTVSPost2010PropOp41
 70
     1
102
RTVSPost2010Prop42
 90
       50
102
RTVSPost2010PropOp42
 70
     1
102
RTVSPost2010Prop43
 90
        3
102
RTVSPost2010PropOp43
 70
     1
102
RTVSPost2010Prop44ColorIndex
 90
        5
102
RTVSPost2010Prop44ColorRGB
 90
      255
102
RTVSPost2010PropOp44
 70
     1
102
RTVSPost2010Prop45
280
     0
102
RTVSPost2010PropOp45
 70
     1
102
RTVSPost2010Prop46
 90
       50
102
RTVSPost2010PropOp46
 70
     1
102
RTVSPost2010Prop47
 90
       50
102
RTVSPost2010PropOp47
 70
     1
102
RTVSPost2010Prop48
 90
       50
102
RTVSPost2010PropOp48
 70
     1
102
RTVSPost2010Prop49
280
     0
102
RTVSPost2010PropOp49
 70
     1
102
RTVSPost2010Prop50
 90
       50
102
RTVSPost2010PropOp50
 70
     1
102
RTVSPost2010Prop51ColorIndex
 90
      256
102
RTVSPost2010Prop51ColorRGB
 90
-16777216
102
RTVSPost2010PropOp51
 70
     0
102
RTVSPost2010Prop52
140
1.0
102
RTVSPost2010PropOp52
 70
     0
102
RTVSPost2010Prop53
 90
        2
102
RTVSPost2010PropOp53
 70
     1
102
RTVSPost2010Prop54
  1
strokes_ogs.tif
102
RTVSPost2010PropOp54
 70
     1
102
RTVSPost2010Prop55
280
     0
102
RTVSPost2010PropOp55
 70
     1
102
RTVSPost2010Prop56
140
1.0
102
RTVSPost2010PropOp56
 70
     1
102
RTVSPost2010Prop57
140
1.0
102
RTVSPost2010PropOp57
 70
     1
102
RTVSPropertyOp0
 70
     1
102
RTVSPropertyOp1
 70
     1
102
RTVSPropertyOp2
 70
     1
102
RTVSPropertyOp3
 70
     1
102
RTVSPropertyOp4
 70
     1
102
RTVSPropertyOp5
 70
     1
102
RTVSPropertyOp6
 70
     1
102
RTVSPropertyOp7
 70
     1
102
RTVSPropertyOp8
 70
     1
102
RTVSPropertyOp9
 70
     1
102
RTVSPropertyOp10
 70
     1
102
RTVSPropertyOp11
 70
     1
102
RTVSPropertyOp12
 70
     1
102
RTVSPropertyOp13
 70
     1
102
RTVSPropertyOp14
 70
     1
102
RTVSPropertyOp15
 70
     1
102
RTVSPropertyOp16
 70
     1
102
RTVSPropertyOp17
 70
     1
102
RTVSPropertyOp18
 70
     1
102
RTVSPropertyOp19
 70
     1
102
RTVSPropertyOp20
 70
     1
102
RTVSPropertyOp21
 70
     1
102
RTVSPropertyOp22
 70
     1
102
RTVSPropertyOp23
 70
     1
102
RTVSPropertyOp24
 70
     1
102
RTVSPropertyOp25
 70
     1
102
RTVSPropertyOp26
 70
     1
102
RTVSPropertyOp27
 70
     1
102
RTVSPropertyOp28
 70
     1
102
RTVSPropertyOp29
 70
     1
102
RTVSPropertyOp30
 70
     1
102
RTVSPropertyOp31
 70
     1
102
RTVSPropertyOp32
 70
     1
102
RTVSPropertyOp33
 70
     1
102
RTVSPropertyOp34
 70
     1
102
RTVSPropertyOp35
 70
     1
102
RTVSPropertyOp36
 70
     1
102
RTVSPropertyOp37
 70
     1
102
RTVSPropertyOp38
 70
     1
102
RTVSPropertyOp39
 70
     1
102
RTVSPropertyOp40
 70
     1
102
RTVSPropertyOp41
 70
     1
102
RTVSPropertyOp42
 70
     1
102
RTVSPropertyOp43
 70
     1
102
RTVSPropertyOp44
 70
     1
102
RTVSPropertyOp45
 70
     1
102
RTVSPropertyOp46
 70
     1
102
RTVSPropertyOp47
 70
     1
102
RTVSPropertyOp48
 70
     1
102
RTVSPropertyOp49
 70
     1
102
RTVSPropertyOp50
 70
     1
102
RTVSPropertyOp51
 70
     0
102
RTVSPropertyOp52
 70
     0
102
RTVSPropertyOp53
 70
     1
102
RTVSPropertyOp54
 70
     1
102
RTVSPropertyOp55
 70
     1
102
RTVSPropertyOp56
 70
     1
102
RTVSPropertyOp57
 70
     1
102
RTVSPropertyOp58
 70
     1
102
RTVSPropertyOp59
 70
     1
102
RTVSPropertyOp60
 70
     1
102
RTVSPropertyOp61
 70
     1
102
RTVSPropertyOp62
 70
     1
  0
XRECORD
  5
42F
102
{ACAD_REACTORS
330
42E
102
}
330
42E
100
AcDbXrecord
280
     1
102
RTVSPost2010Prop28
280
     0
102
RTVSPost2010PropOp28
 70
     1
102
RTVSPost2010Prop29
280
     1
102
RTVSPost2010PropOp29
 70
     1
102
RTVSPost2010Prop30
280
     1
102
RTVSPost2010PropOp30
 70
     1
102
RTVSPost2010Prop31
280
     0
102
RTVSPost2010PropOp31
 70
     1
102
RTVSPost2010Prop32
280
     0
102
RTVSPost2010PropOp32
 70
     1
102
RTVSPost2010Prop33
280
     0
102
RTVSPost2010PropOp33
 70
     1
102
RTVSPost2010Prop34
280
     0
102
RTVSPost2010PropOp34
 70
     1
102
RTVSPost2010Prop35
280
     0
102
RTVSPost2010PropOp35
 70
     1
102
RTVSPost2010Prop36
280
     0
102
RTVSPost2010PropOp36
 70
     1
102
RTVSPost2010Prop37
 90
       50
102
RTVSPost2010PropOp37
 70
     1
102
RTVSPost2010Prop38
140
0.0
102
RTVSPost2010PropOp38
 70
     1
102
RTVSPost2010Prop39
140
1.0
102
RTVSPost2010PropOp39
 70
     1
102
RTVSPost2010Prop40
 90
        0
102
RTVSPost2010PropOp40
 70
     1
102
RTVSPost2010Prop41ColorIndex
 90
       18
102
RTVSPost2010Prop41ColorRGB
 90
        0
102
RTVSPost2010PropOp41
 70
     1
102
RTVSPost2010Prop42
 90
       50
102
RTVSPost2010PropOp42
 70
     1
102
RTVSPost2010Prop43
 90
        3
102
RTVSPost2010PropOp43
 70
     1
102
RTVSPost2010Prop44ColorIndex
 90
        5
102
RTVSPost2010Prop44ColorRGB
 90
      255
102
RTVSPost2010PropOp44
 70
     1
102
RTVSPost2010Prop45
280
     0
102
RTVSPost2010PropOp45
 70
     1
102
RTVSPost2010Prop46
 90
       50
102
RTVSPost2010PropOp46
 70
     1
102
RTVSPost2010Prop47
 90
       50
102
RTVSPost2010PropOp47
 70
     1
102
RTVSPost2010Prop48
 90
       50
102
RTVSPost2010PropOp48
 70
     1
102
RTVSPost2010Prop49
280
     0
102
RTVSPost2010PropOp49
 70
     1
102
RTVSPost2010Prop50
 90
       50
102
RTVSPost2010PropOp50
 70
     1
102
RTVSPost2010Prop51ColorIndex
 90
      256
102
RTVSPost2010Prop51ColorRGB
 90
-16777216
102
RTVSPost2010PropOp51
 70
     0
102
RTVSPost2010Prop52
140
1.0
102
RTVSPost2010PropOp52
 70
     0
102
RTVSPost2010Prop53
 90
        2
102
RTVSPost2010PropOp53
 70
     1
102
RTVSPost2010Prop54
  1
strokes_ogs.tif
102
RTVSPost2010PropOp54
 70
     1
102
RTVSPost2010Prop55
280
     0
102
RTVSPost2010PropOp55
 70
     1
102
RTVSPost2010Prop56
140
1.0
102
RTVSPost2010PropOp56
 70
     1
102
RTVSPost2010Prop57
140
1.0
102
RTVSPost2010PropOp57
 70
     1
102
RTVSPropertyOp0
 70
     1
102
RTVSPropertyOp1
 70
     1
102
RTVSPropertyOp2
 70
     1
102
RTVSPropertyOp3
 70
     1
102
RTVSPropertyOp4
 70
     1
102
RTVSPropertyOp5
 70
     1
102
RTVSPropertyOp6
 70
     1
102
RTVSPropertyOp7
 70
     1
102
RTVSPropertyOp8
 70
     1
102
RTVSPropertyOp9
 70
     1
102
RTVSPropertyOp10
 70
     1
102
RTVSPropertyOp11
 70
     1
102
RTVSPropertyOp12
 70
     1
102
RTVSPropertyOp13
 70
     1
102
RTVSPropertyOp14
 70
     1
102
RTVSPropertyOp15
 70
     1
102
RTVSPropertyOp16
 70
     1
102
RTVSPropertyOp17
 70
     1
102
RTVSPropertyOp18
 70
     1
102
RTVSPropertyOp19
 70
     1
102
RTVSPropertyOp20
 70
     1
102
RTVSPropertyOp21
 70
     1
102
RTVSPropertyOp22
 70
     1
102
RTVSPropertyOp23
 70
     1
102
RTVSPropertyOp24
 70
     1
102
RTVSPropertyOp25
 70
     1
102
RTVSPropertyOp26
 70
     1
102
RTVSPropertyOp27
 70
     1
102
RTVSPropertyOp28
 70
     1
102
RTVSPropertyOp29
 70
     1
102
RTVSPropertyOp30
 70
     1
102
RTVSPropertyOp31
 70
     1
102
RTVSPropertyOp32
 70
     1
102
RTVSPropertyOp33
 70
     1
102
RTVSPropertyOp34
 70
     1
102
RTVSPropertyOp35
 70
     1
102
RTVSPropertyOp36
 70
     1
102
RTVSPropertyOp37
 70
     1
102
RTVSPropertyOp38
 70
     1
102
RTVSPropertyOp39
 70
     1
102
RTVSPropertyOp40
 70
     1
102
RTVSPropertyOp41
 70
     1
102
RTVSPropertyOp42
 70
     1
102
RTVSPropertyOp43
 70
     1
102
RTVSPropertyOp44
 70
     1
102
RTVSPropertyOp45
 70
     1
102
RTVSPropertyOp46
 70
     1
102
RTVSPropertyOp47
 70
     1
102
RTVSPropertyOp48
 70
     1
102
RTVSPropertyOp49
 70
     1
102
RTVSPropertyOp50
 70
     1
102
RTVSPropertyOp51
 70
     0
102
RTVSPropertyOp52
 70
     0
102
RTVSPropertyOp53
 70
     1
102
RTVSPropertyOp54
 70
     1
102
RTVSPropertyOp55
 70
     1
102
RTVSPropertyOp56
 70
     1
102
RTVSPropertyOp57
 70
     1
102
RTVSPropertyOp58
 70
     1
102
RTVSPropertyOp59
 70
     1
102
RTVSPropertyOp60
 70
     1
102
RTVSPropertyOp61
 70
     1
102
RTVSPropertyOp62
 70
     1
  0
XRECORD
  5
425
102
{ACAD_REACTORS
330
424
102
}
330
424
100
AcDbXrecord
280
     1
102
RTVSPost2010Prop28
280
     0
102
RTVSPost2010PropOp28
 70
     1
102
RTVSPost2010Prop29
280
     1
102
RTVSPost2010PropOp29
 70
     1
102
RTVSPost2010Prop30
280
     1
102
RTVSPost2010PropOp30
 70
     1
102
RTVSPost2010Prop31
280
     0
102
RTVSPost2010PropOp31
 70
     1
102
RTVSPost2010Prop32
280
     0
102
RTVSPost2010PropOp32
 70
     1
102
RTVSPost2010Prop33
280
     0
102
RTVSPost2010PropOp33
 70
     1
102
RTVSPost2010Prop34
280
     0
102
RTVSPost2010PropOp34
 70
     1
102
RTVSPost2010Prop35
280
     0
102
RTVSPost2010PropOp35
 70
     1
102
RTVSPost2010Prop36
280
     0
102
RTVSPost2010PropOp36
 70
     1
102
RTVSPost2010Prop37
 90
       50
102
RTVSPost2010PropOp37
 70
     1
102
RTVSPost2010Prop38
140
0.0
102
RTVSPost2010PropOp38
 70
     1
102
RTVSPost2010Prop39
140
1.0
102
RTVSPost2010PropOp39
 70
     1
102
RTVSPost2010Prop40
 90
        0
102
RTVSPost2010PropOp40
 70
     1
102
RTVSPost2010Prop41ColorIndex
 90
       18
102
RTVSPost2010Prop41ColorRGB
 90
        0
102
RTVSPost2010PropOp41
 70
     1
102
RTVSPost2010Prop42
 90
       50
102
RTVSPost2010PropOp42
 70
     1
102
RTVSPost2010Prop43
 90
        3
102
RTVSPost2010PropOp43
 70
     1
102
RTVSPost2010Prop44ColorIndex
 90
        5
102
RTVSPost2010Prop44ColorRGB
 90
      255
102
RTVSPost2010PropOp44
 70
     1
102
RTVSPost2010Prop45
280
     0
102
RTVSPost2010PropOp45
 70
     1
102
RTVSPost2010Prop46
 90
       50
102
RTVSPost2010PropOp46
 70
     1
102
RTVSPost2010Prop47
 90
       50
102
RTVSPost2010PropOp47
 70
     1
102
RTVSPost2010Prop48
 90
       50
102
RTVSPost2010PropOp48
 70
     1
102
RTVSPost2010Prop49
280
     0
102
RTVSPost2010PropOp49
 70
     1
102
RTVSPost2010Prop50
 90
       50
102
RTVSPost2010PropOp50
 70
     1
102
RTVSPost2010Prop51ColorIndex
 90
      256
102
RTVSPost2010Prop51ColorRGB
 90
-16777216
102
RTVSPost2010PropOp51
 70
     0
102
RTVSPost2010Prop52
140
1.0
102
RTVSPost2010PropOp52
 70
     0
102
RTVSPost2010Prop53
 90
        2
102
RTVSPost2010PropOp53
 70
     1
102
RTVSPost2010Prop54
  1
strokes_ogs.tif
102
RTVSPost2010PropOp54
 70
     1
102
RTVSPost2010Prop55
280
     0
102
RTVSPost2010PropOp55
 70
     1
102
RTVSPost2010Prop56
140
1.0
102
RTVSPost2010PropOp56
 70
     1
102
RTVSPost2010Prop57
140
1.0
102
RTVSPost2010PropOp57
 70
     1
102
RTVSPropertyOp0
 70
     1
102
RTVSPropertyOp1
 70
     1
102
RTVSPropertyOp2
 70
     1
102
RTVSPropertyOp3
 70
     1
102
RTVSPropertyOp4
 70
     1
102
RTVSPropertyOp5
 70
     1
102
RTVSPropertyOp6
 70
     1
102
RTVSPropertyOp7
 70
     1
102
RTVSPropertyOp8
 70
     1
102
RTVSPropertyOp9
 70
     1
102
RTVSPropertyOp10
 70
     1
102
RTVSPropertyOp11
 70
     1
102
RTVSPropertyOp12
 70
     1
102
RTVSPropertyOp13
 70
     1
102
RTVSPropertyOp14
 70
     1
102
RTVSPropertyOp15
 70
     1
102
RTVSPropertyOp16
 70
     1
102
RTVSPropertyOp17
 70
     1
102
RTVSPropertyOp18
 70
     1
102
RTVSPropertyOp19
 70
     1
102
RTVSPropertyOp20
 70
     1
102
RTVSPropertyOp21
 70
     1
102
RTVSPropertyOp22
 70
     1
102
RTVSPropertyOp23
 70
     1
102
RTVSPropertyOp24
 70
     1
102
RTVSPropertyOp25
 70
     1
102
RTVSPropertyOp26
 70
     1
102
RTVSPropertyOp27
 70
     1
102
RTVSPropertyOp28
 70
     1
102
RTVSPropertyOp29
 70
     1
102
RTVSPropertyOp30
 70
     1
102
RTVSPropertyOp31
 70
     1
102
RTVSPropertyOp32
 70
     1
102
RTVSPropertyOp33
 70
     1
102
RTVSPropertyOp34
 70
     1
102
RTVSPropertyOp35
 70
     1
102
RTVSPropertyOp36
 70
     1
102
RTVSPropertyOp37
 70
     1
102
RTVSPropertyOp38
 70
     1
102
RTVSPropertyOp39
 70
     1
102
RTVSPropertyOp40
 70
     1
102
RTVSPropertyOp41
 70
     1
102
RTVSPropertyOp42
 70
     1
102
RTVSPropertyOp43
 70
     1
102
RTVSPropertyOp44
 70
     1
102
RTVSPropertyOp45
 70
     1
102
RTVSPropertyOp46
 70
     1
102
RTVSPropertyOp47
 70
     1
102
RTVSPropertyOp48
 70
     1
102
RTVSPropertyOp49
 70
     1
102
RTVSPropertyOp50
 70
     1
102
RTVSPropertyOp51
 70
     0
102
RTVSPropertyOp52
 70
     0
102
RTVSPropertyOp53
 70
     1
102
RTVSPropertyOp54
 70
     1
102
RTVSPropertyOp55
 70
     1
102
RTVSPropertyOp56
 70
     1
102
RTVSPropertyOp57
 70
     1
102
RTVSPropertyOp58
 70
     1
102
RTVSPropertyOp59
 70
     1
102
RTVSPropertyOp60
 70
     1
102
RTVSPropertyOp61
 70
     1
102
RTVSPropertyOp62
 70
     1
  0
XRECORD
  5
419
102
{ACAD_REACTORS
330
418
102
}
330
418
100
AcDbXrecord
280
     1
102
RTVSPost2010Prop28
280
     0
102
RTVSPost2010PropOp28
 70
     1
102
RTVSPost2010Prop29
280
     1
102
RTVSPost2010PropOp29
 70
     1
102
RTVSPost2010Prop30
280
     1
102
RTVSPost2010PropOp30
 70
     1
102
RTVSPost2010Prop31
280
     0
102
RTVSPost2010PropOp31
 70
     1
102
RTVSPost2010Prop32
280
     0
102
RTVSPost2010PropOp32
 70
     1
102
RTVSPost2010Prop33
280
     0
102
RTVSPost2010PropOp33
 70
     1
102
RTVSPost2010Prop34
280
     0
102
RTVSPost2010PropOp34
 70
     1
102
RTVSPost2010Prop35
280
     0
102
RTVSPost2010PropOp35
 70
     1
102
RTVSPost2010Prop36
280
     0
102
RTVSPost2010PropOp36
 70
     1
102
RTVSPost2010Prop37
 90
       50
102
RTVSPost2010PropOp37
 70
     1
102
RTVSPost2010Prop38
140
0.0
102
RTVSPost2010PropOp38
 70
     1
102
RTVSPost2010Prop39
140
1.0
102
RTVSPost2010PropOp39
 70
     1
102
RTVSPost2010Prop40
 90
        0
102
RTVSPost2010PropOp40
 70
     1
102
RTVSPost2010Prop41ColorIndex
 90
       18
102
RTVSPost2010Prop41ColorRGB
 90
        0
102
RTVSPost2010PropOp41
 70
     1
102
RTVSPost2010Prop42
 90
       50
102
RTVSPost2010PropOp42
 70
     1
102
RTVSPost2010Prop43
 90
        3
102
RTVSPost2010PropOp43
 70
     1
102
RTVSPost2010Prop44ColorIndex
 90
        5
102
RTVSPost2010Prop44ColorRGB
 90
      255
102
RTVSPost2010PropOp44
 70
     1
102
RTVSPost2010Prop45
280
     0
102
RTVSPost2010PropOp45
 70
     1
102
RTVSPost2010Prop46
 90
       50
102
RTVSPost2010PropOp46
 70
     1
102
RTVSPost2010Prop47
 90
       50
102
RTVSPost2010PropOp47
 70
     1
102
RTVSPost2010Prop48
 90
       50
102
RTVSPost2010PropOp48
 70
     1
102
RTVSPost2010Prop49
280
     0
102
RTVSPost2010PropOp49
 70
     1
102
RTVSPost2010Prop50
 90
       50
102
RTVSPost2010PropOp50
 70
     1
102
RTVSPost2010Prop51ColorIndex
 90
      256
102
RTVSPost2010Prop51ColorRGB
 90
-16777216
102
RTVSPost2010PropOp51
 70
     0
102
RTVSPost2010Prop52
140
1.0
102
RTVSPost2010PropOp52
 70
     0
102
RTVSPost2010Prop53
 90
        2
102
RTVSPost2010PropOp53
 70
     1
102
RTVSPost2010Prop54
  1
strokes_ogs.tif
102
RTVSPost2010PropOp54
 70
     1
102
RTVSPost2010Prop55
280
     0
102
RTVSPost2010PropOp55
 70
     1
102
RTVSPost2010Prop56
140
1.0
102
RTVSPost2010PropOp56
 70
     1
102
RTVSPost2010Prop57
140
1.0
102
RTVSPost2010PropOp57
 70
     1
102
RTVSPropertyOp0
 70
     1
102
RTVSPropertyOp1
 70
     1
102
RTVSPropertyOp2
 70
     1
102
RTVSPropertyOp3
 70
     1
102
RTVSPropertyOp4
 70
     1
102
RTVSPropertyOp5
 70
     1
102
RTVSPropertyOp6
 70
     1
102
RTVSPropertyOp7
 70
     1
102
RTVSPropertyOp8
 70
     1
102
RTVSPropertyOp9
 70
     1
102
RTVSPropertyOp10
 70
     1
102
RTVSPropertyOp11
 70
     1
102
RTVSPropertyOp12
 70
     1
102
RTVSPropertyOp13
 70
     1
102
RTVSPropertyOp14
 70
     1
102
RTVSPropertyOp15
 70
     1
102
RTVSPropertyOp16
 70
     1
102
RTVSPropertyOp17
 70
     1
102
RTVSPropertyOp18
 70
     1
102
RTVSPropertyOp19
 70
     1
102
RTVSPropertyOp20
 70
     1
102
RTVSPropertyOp21
 70
     1
102
RTVSPropertyOp22
 70
     1
102
RTVSPropertyOp23
 70
     1
102
RTVSPropertyOp24
 70
     1
102
RTVSPropertyOp25
 70
     1
102
RTVSPropertyOp26
 70
     1
102
RTVSPropertyOp27
 70
     1
102
RTVSPropertyOp28
 70
     1
102
RTVSPropertyOp29
 70
     1
102
RTVSPropertyOp30
 70
     1
102
RTVSPropertyOp31
 70
     1
102
RTVSPropertyOp32
 70
     1
102
RTVSPropertyOp33
 70
     1
102
RTVSPropertyOp34
 70
     1
102
RTVSPropertyOp35
 70
     1
102
RTVSPropertyOp36
 70
     1
102
RTVSPropertyOp37
 70
     1
102
RTVSPropertyOp38
 70
     1
102
RTVSPropertyOp39
 70
     1
102
RTVSPropertyOp40
 70
     1
102
RTVSPropertyOp41
 70
     1
102
RTVSPropertyOp42
 70
     1
102
RTVSPropertyOp43
 70
     1
102
RTVSPropertyOp44
 70
     1
102
RTVSPropertyOp45
 70
     1
102
RTVSPropertyOp46
 70
     1
102
RTVSPropertyOp47
 70
     1
102
RTVSPropertyOp48
 70
     1
102
RTVSPropertyOp49
 70
     1
102
RTVSPropertyOp50
 70
     1
102
RTVSPropertyOp51
 70
     0
102
RTVSPropertyOp52
 70
     0
102
RTVSPropertyOp53
 70
     1
102
RTVSPropertyOp54
 70
     1
102
RTVSPropertyOp55
 70
     1
102
RTVSPropertyOp56
 70
     1
102
RTVSPropertyOp57
 70
     1
102
RTVSPropertyOp58
 70
     1
102
RTVSPropertyOp59
 70
     1
102
RTVSPropertyOp60
 70
     1
102
RTVSPropertyOp61
 70
     1
102
RTVSPropertyOp62
 70
     1
  0
XRECORD
  5
431
102
{ACAD_REACTORS
330
430
102
}
330
430
100
AcDbXrecord
280
     1
102
RTVSPost2010Prop28
280
     0
102
RTVSPost2010PropOp28
 70
     1
102
RTVSPost2010Prop29
280
     1
102
RTVSPost2010PropOp29
 70
     1
102
RTVSPost2010Prop30
280
     1
102
RTVSPost2010PropOp30
 70
     1
102
RTVSPost2010Prop31
280
     0
102
RTVSPost2010PropOp31
 70
     1
102
RTVSPost2010Prop32
280
     0
102
RTVSPost2010PropOp32
 70
     1
102
RTVSPost2010Prop33
280
     0
102
RTVSPost2010PropOp33
 70
     1
102
RTVSPost2010Prop34
280
     0
102
RTVSPost2010PropOp34
 70
     1
102
RTVSPost2010Prop35
280
     0
102
RTVSPost2010PropOp35
 70
     1
102
RTVSPost2010Prop36
280
     0
102
RTVSPost2010PropOp36
 70
     1
102
RTVSPost2010Prop37
 90
       50
102
RTVSPost2010PropOp37
 70
     1
102
RTVSPost2010Prop38
140
0.0
102
RTVSPost2010PropOp38
 70
     1
102
RTVSPost2010Prop39
140
1.0
102
RTVSPost2010PropOp39
 70
     1
102
RTVSPost2010Prop40
 90
        0
102
RTVSPost2010PropOp40
 70
     1
102
RTVSPost2010Prop41ColorIndex
 90
       18
102
RTVSPost2010Prop41ColorRGB
 90
        0
102
RTVSPost2010PropOp41
 70
     1
102
RTVSPost2010Prop42
 90
       50
102
RTVSPost2010PropOp42
 70
     1
102
RTVSPost2010Prop43
 90
        3
102
RTVSPost2010PropOp43
 70
     1
102
RTVSPost2010Prop44ColorIndex
 90
        5
102
RTVSPost2010Prop44ColorRGB
 90
      255
102
RTVSPost2010PropOp44
 70
     1
102
RTVSPost2010Prop45
280
     0
102
RTVSPost2010PropOp45
 70
     1
102
RTVSPost2010Prop46
 90
       50
102
RTVSPost2010PropOp46
 70
     1
102
RTVSPost2010Prop47
 90
       50
102
RTVSPost2010PropOp47
 70
     1
102
RTVSPost2010Prop48
 90
       50
102
RTVSPost2010PropOp48
 70
     1
102
RTVSPost2010Prop49
280
     0
102
RTVSPost2010PropOp49
 70
     1
102
RTVSPost2010Prop50
 90
       50
102
RTVSPost2010PropOp50
 70
     1
102
RTVSPost2010Prop51ColorIndex
 90
      256
102
RTVSPost2010Prop51ColorRGB
 90
-16777216
102
RTVSPost2010PropOp51
 70
     0
102
RTVSPost2010Prop52
140
1.0
102
RTVSPost2010PropOp52
 70
     0
102
RTVSPost2010Prop53
 90
        2
102
RTVSPost2010PropOp53
 70
     1
102
RTVSPost2010Prop54
  1
strokes_ogs.tif
102
RTVSPost2010PropOp54
 70
     1
102
RTVSPost2010Prop55
280
     0
102
RTVSPost2010PropOp55
 70
     1
102
RTVSPost2010Prop56
140
1.0
102
RTVSPost2010PropOp56
 70
     1
102
RTVSPost2010Prop57
140
1.0
102
RTVSPost2010PropOp57
 70
     1
102
RTVSPropertyOp0
 70
     1
102
RTVSPropertyOp1
 70
     1
102
RTVSPropertyOp2
 70
     1
102
RTVSPropertyOp3
 70
     1
102
RTVSPropertyOp4
 70
     1
102
RTVSPropertyOp5
 70
     1
102
RTVSPropertyOp6
 70
     1
102
RTVSPropertyOp7
 70
     1
102
RTVSPropertyOp8
 70
     1
102
RTVSPropertyOp9
 70
     1
102
RTVSPropertyOp10
 70
     1
102
RTVSPropertyOp11
 70
     1
102
RTVSPropertyOp12
 70
     1
102
RTVSPropertyOp13
 70
     1
102
RTVSPropertyOp14
 70
     1
102
RTVSPropertyOp15
 70
     1
102
RTVSPropertyOp16
 70
     1
102
RTVSPropertyOp17
 70
     1
102
RTVSPropertyOp18
 70
     1
102
RTVSPropertyOp19
 70
     1
102
RTVSPropertyOp20
 70
     1
102
RTVSPropertyOp21
 70
     1
102
RTVSPropertyOp22
 70
     1
102
RTVSPropertyOp23
 70
     1
102
RTVSPropertyOp24
 70
     1
102
RTVSPropertyOp25
 70
     1
102
RTVSPropertyOp26
 70
     1
102
RTVSPropertyOp27
 70
     1
102
RTVSPropertyOp28
 70
     1
102
RTVSPropertyOp29
 70
     1
102
RTVSPropertyOp30
 70
     1
102
RTVSPropertyOp31
 70
     1
102
RTVSPropertyOp32
 70
     1
102
RTVSPropertyOp33
 70
     1
102
RTVSPropertyOp34
 70
     1
102
RTVSPropertyOp35
 70
     1
102
RTVSPropertyOp36
 70
     1
102
RTVSPropertyOp37
 70
     1
102
RTVSPropertyOp38
 70
     1
102
RTVSPropertyOp39
 70
     1
102
RTVSPropertyOp40
 70
     1
102
RTVSPropertyOp41
 70
     1
102
RTVSPropertyOp42
 70
     1
102
RTVSPropertyOp43
 70
     1
102
RTVSPropertyOp44
 70
     1
102
RTVSPropertyOp45
 70
     1
102
RTVSPropertyOp46
 70
     1
102
RTVSPropertyOp47
 70
     1
102
RTVSPropertyOp48
 70
     1
102
RTVSPropertyOp49
 70
     1
102
RTVSPropertyOp50
 70
     1
102
RTVSPropertyOp51
 70
     0
102
RTVSPropertyOp52
 70
     0
102
RTVSPropertyOp53
 70
     1
102
RTVSPropertyOp54
 70
     1
102
RTVSPropertyOp55
 70
     1
102
RTVSPropertyOp56
 70
     1
102
RTVSPropertyOp57
 70
     1
102
RTVSPropertyOp58
 70
     1
102
RTVSPropertyOp59
 70
     1
102
RTVSPropertyOp60
 70
     1
102
RTVSPropertyOp61
 70
     1
102
RTVSPropertyOp62
 70
     1
  0
ENDSEC
  0
EOF
