  0
SECTION
  2
HEADER
  9
$ACADVER
  1
AC1009
  9
$DWGCODEPAGE
  3
ansi_932
  9
$INSBASE
 10
0.0
 20
0.0
 30
0.0
  9
$EXTMIN
 10
-1799.99999955
 20
-2698.168408857591
 30
0.0
  9
$EXTMAX
 10
1799.99999955
 20
2667.104484332341
 30
0.0
  9
$LIMMIN
 10
0.0
 20
0.0
  9
$LIMMAX
 10
0.0
 20
0.0
  9
$ORTHOMODE
 70
     0
  9
$REGENMODE
 70
     1
  9
$FILLMODE
 70
     1
  9
$QTEXTMODE
 70
     0
  9
$MIRRTEXT
 70
     1
  9
$DRAGMODE
 70
     2
  9
$LTSCALE
 40
101.6
  9
$OSMODE
 70
    37
  9
$ATTMODE
 70
     1
  9
$TEXTSIZE
 40
0.0
  9
$TRACEWID
 40
1.0
  9
$TEXTSTYLE
  7
STANDARD
  9
$CLAYER
  8
DATA
  9
$CELTYPE
  6
BYLAYER
  9
$CECOLOR
 62
   256
  9
$DIMSCALE
 40
1.0
  9
$DIMASZ
 40
0.18
  9
$DIMEXO
 40
0.0625
  9
$DIMDLI
 40
0.38
  9
$DIMRND
 40
0.0
  9
$DIMDLE
 40
0.0
  9
$DIMEXE
 40
0.18
  9
$DIMTP
 40
0.0
  9
$DIMTM
 40
0.0
  9
$DIMTXT
 40
0.18
  9
$DIMCEN
 40
0.09
  9
$DIMTSZ
 40
0.0
  9
$DIMTOL
 70
     0
  9
$DIMLIM
 70
     0
  9
$DIMTIH
 70
     1
  9
$DIMTOH
 70
     1
  9
$DIMSE1
 70
     0
  9
$DIMSE2
 70
     0
  9
$DIMTAD
 70
     0
  9
$DIMZIN
 70
     0
  9
$DIMBLK
  1

  9
$DIMASO
 70
     1
  9
$DIMSHO
 70
     1
  9
$DIMPOST
  1

  9
$DIMAPOST
  1

  9
$DIMALT
 70
     0
  9
$DIMALTD
 70
     2
  9
$DIMALTF
 40
25.4
  9
$DIMLFAC
 40
1.0
  9
$DIMTOFL
 70
     0
  9
$DIMTVP
 40
0.0
  9
$DIMTIX
 70
     0
  9
$DIMSOXD
 70
     0
  9
$DIMSAH
 70
     0
  9
$DIMBLK1
  1

  9
$DIMBLK2
  1

  9
$DIMSTYLE
  2
STANDARD
  9
$DIMCLRD
 70
     0
  9
$DIMCLRE
 70
     0
  9
$DIMCLRT
 70
     0
  9
$DIMTFAC
 40
1.0
  9
$DIMGAP
 40
0.09
  9
$LUNITS
 70
     2
  9
$LUPREC
 70
     2
  9
$SKETCHINC
 40
0.1
  9
$FILLETRAD
 40
0.0
  9
$AUNITS
 70
     0
  9
$AUPREC
 70
     0
  9
$MENU
  1
acad
  9
$ELEVATION
 40
0.0
  9
$PELEVATION
 40
0.0
  9
$THICKNESS
 40
0.0
  9
$LIMCHECK
 70
     0
  9
$CHAMFERA
 40
0.0
  9
$CHAMFERB
 40
0.0
  9
$SKPOLY
 70
     0
  9
$TDCREATE
 40
2459408.56597184
  9
$TDUPDATE
 40
2459408.566460174
  9
$TDINDWG
 40
2459408.191461342
  9
$TDUSRTIMER
 40
0.0004895023
  9
$USRTIMER
 70
     1
  9
$ANGBASE
 50
0.0
  9
$ANGDIR
 70
     0
  9
$PDMODE
 70
     1
  9
$PDSIZE
 40
-2.0
  9
$PLINEWID
 40
0.0
  9
$COORDS
 70
     1
  9
$SPLFRAME
 70
     0
  9
$SPLINETYPE
 70
     6
  9
$SPLINESEGS
 70
     8
  9
$ATTDIA
 70
     1
  9
$ATTREQ
 70
     1
  9
$HANDLING
 70
     1
  9
$HANDSEED
  5
997
  9
$SURFTAB1
 70
     6
  9
$SURFTAB2
 70
     6
  9
$SURFTYPE
 70
     6
  9
$SURFU
 70
     6
  9
$SURFV
 70
     6
  9
$UCSNAME
  2

  9
$UCSORG
 10
0.0
 20
0.0
 30
0.0
  9
$UCSXDIR
 10
1.0
 20
0.0
 30
0.0
  9
$UCSYDIR
 10
0.0
 20
1.0
 30
0.0
  9
$PUCSNAME
  2

  9
$PUCSORG
 10
0.0
 20
0.0
 30
0.0
  9
$PUCSXDIR
 10
1.0
 20
0.0
 30
0.0
  9
$PUCSYDIR
 10
0.0
 20
1.0
 30
0.0
  9
$USERI1
 70
     0
  9
$USERI2
 70
     0
  9
$USERI3
 70
     0
  9
$USERI4
 70
     0
  9
$USERI5
 70
     0
  9
$USERR1
 40
0.0
  9
$USERR2
 40
0.0
  9
$USERR3
 40
0.0
  9
$USERR4
 40
0.0
  9
$USERR5
 40
0.0
  9
$WORLDVIEW
 70
     1
  9
$SHADEDGE
 70
     3
  9
$SHADEDIF
 70
    70
  9
$TILEMODE
 70
     1
  9
$MAXACTVP
 70
    64
  9
$PLIMCHECK
 70
     0
  9
$PEXTMIN
 10
1.000000000000000E+20
 20
1.000000000000000E+20
 30
1.000000000000000E+20
  9
$PEXTMAX
 10
-1.000000000000000E+20
 20
-1.000000000000000E+20
 30
-1.000000000000000E+20
  9
$PLIMMIN
 10
0.0
 20
0.0
  9
$PLIMMAX
 10
12.0
 20
9.0
  9
$UNITMODE
 70
     0
  9
$VISRETAIN
 70
     0
  9
$PLINEGEN
 70
     1
  9
$PSLTSCALE
 70
     0
  0
ENDSEC
  0
SECTION
  2
TABLES
  0
TABLE
  2
VPORT
 70
     1
  0
VPORT
  2
*ACTIVE
 70
     0
 10
0.0
 20
0.0
 11
1.0
 21
1.0
 12
0.0
 22
-3.531815000000279
 13
0.0
 23
0.0
 14
1.0
 24
1.0
 15
0.0
 25
0.0
 16
0.0
 26
0.0
 36
1.0
 17
0.0
 27
0.0
 37
0.0
 40
5341.272598664683
 41
2.44337811900192
 42
50.0
 43
0.0
 44
0.0
 50
0.0
 51
0.0
 71
     0
 72
  2000
 73
     1
 74
     1
 75
     0
 76
     0
 77
     0
 78
     0
  0
ENDTAB
  0
TABLE
  2
LTYPE
 70
    12
  0
LTYPE
  2
CONTINUOUS
 70
     0
  3
Solid line
 72
    65
 73
     0
 40
0.0
  0
LTYPE
  2
STYLE_07
 70
     0
  3

 72
    65
 73
     6
 40
1.875
 49
0.625
 49
-0.208282470703125
 49
0.625
 49
-0.2083587646484375
 49
0.069427490234375
 49
-0.1389312744140625
  0
ENDTAB
  0
TABLE
  2
LAYER
 70
     6
  0
LAYER
  2
0
 70
     0
 62
     7
  6
CONTINUOUS
  0
LAYER
  2
HIBINO-BASE
 70
     0
 62
     7
  6
CONTINUOUS
  0
LAYER
  2
SPEC
 70
     0
 62
     7
  6
CONTINUOUS
  0
LAYER
  2
DIMNSIONS
 70
     0
 62
     7
  6
CONTINUOUS
  0
LAYER
  2
DATA
 70
     0
 62
     7
  6
CONTINUOUS
  0
ENDTAB
  0
TABLE
  2
STYLE
 70
     2
  0
STYLE
  2
STANDARD
 70
     0
 40
0.0
 41
1.0
 50
0.0
 71
     0
 42
0.0
  3
txt
  4
BIGFONT.SHX
  0
ENDTAB
  0
TABLE
  2
VIEW
 70
     0
  0
ENDTAB
  0
TABLE
  2
UCS
 70
     0
  0
ENDTAB
  0
TABLE
  2
APPID
 70
     3
  0
APPID
  2
ACAD
 70
     0
  0
APPID
  2
ACAD_MLEADERVER
 70
     0
  0
APPID
  2
ACADANNOPO
 70
     0
  0
ENDTAB
  0
TABLE
  2
DIMSTYLE
 70
     1
  0
DIMSTYLE
  2
STANDARD
 70
     0
  3

  4

  5

  6

  7

 40
1.0
 41
0.18
 42
0.0625
 43
0.38
 44
0.18
 45
0.0
 46
0.0
 47
0.0
 48
0.0
140
0.18
141
0.09
142
0.0
143
25.4
144
1.0
145
0.0
146
1.0
147
0.09
 71
     0
 72
     0
 73
     1
 74
     1
 75
     0
 76
     0
 77
     0
 78
     0
170
     0
171
     2
172
     0
173
     0
174
     0
175
     0
176
     0
177
     0
178
     0
  0
ENDTAB
  0
ENDSEC
  0
SECTION
  2
BLOCKS
  0
BLOCK
  8
DATA
  2
$MODEL_SPACE
 70
     0
 10
0.0
 20
0.0
 30
0.0
  3
$MODEL_SPACE
  1

  0
ENDBLK
  5
8D5
  8
DATA
  0
BLOCK
 67
     1
  8
DATA
  2
$PAPER_SPACE
 70
     0
 10
0.0
 20
0.0
 30
0.0
  3
$PAPER_SPACE
  1

  0
ENDBLK
  5
8D3
 67
     1
  8
DATA
  0
ENDSEC
  0
SECTION
  2
ENTITIES
  0
LINE
  5
2E
  8
HIBINO-BASE
  6
CONTINUOUS
 62
     7
 10
-1799.99999955
 20
2667.104484332341
 30
0.0
 11
1799.99999955
 21
2667.104484332341
 31
0.0
  0
LINE
  5
2F
  8
HIBINO-BASE
  6
CONTINUOUS
 62
     7
 10
1799.99999955
 20
-2532.895514367659
 30
0.0
 11
-1799.99999955
 21
-2532.895514367659
 31
0.0
  0
LINE
  5
30
  8
HIBINO-BASE
  6
CONTINUOUS
 62
     7
 10
-1799.99999955
 20
-2532.895514367659
 30
0.0
 11
-1799.99999955
 21
2667.104484332341
 31
0.0
  0
LINE
  5
31
  8
HIBINO-BASE
  6
CONTINUOUS
 62
     7
 10
1799.99999955
 20
2667.104484332341
 30
0.0
 11
1799.99999955
 21
-2532.895514367659
 31
0.0
  0
LINE
  5
32
  8
HIBINO-BASE
  6
CONTINUOUS
 62
     7
 10
0.0000000000002842
 20
-2082.895514480159
 30
0.0
 11
1799.99999955
 21
-2082.895514480159
 31
0.0
  0
LINE
  5
33
  8
HIBINO-BASE
  6
CONTINUOUS
 62
     7
 10
0.0000000000002842
 20
-2532.895514367659
 30
0.0
 11
0.0000000000002842
 21
-2082.895514480159
 31
0.0
  0
TEXT
  5
34
  8
HIBINO-BASE
 62
     7
 10
17.9999999955004
 20
-2133.069381134282
 30
0.0
 40
32.57682290852246
  1
NOTE
 41
0.7
 11
17.9999999955004
 21
-2100.49255822576
 31
0.0
 73
     3
  0
LINE
  5
35
  8
HIBINO-BASE
  6
CONTINUOUS
 62
     7
 10
699.9999998250004
 20
-2532.895514367659
 30
0.0
 11
699.9999998250004
 21
-2082.895514480159
 31
0.0
  0
TEXT
  5
36
  8
HIBINO-BASE
 62
     7
 10
717.9999998205
 20
-2133.069381134282
 30
0.0
 40
32.57682290852246
  1
TITLE
 41
0.7
 11
717.9999998205
 21
-2100.49255822576
 31
0.0
 73
     3
  0
LINE
  5
37
  8
HIBINO-BASE
  6
CONTINUOUS
 62
     7
 10
0.0000000000002842
 20
-2332.895514417659
 30
0.0
 11
1799.99999955
 21
-2332.895514417659
 31
0.0
  0
TEXT
  5
38
  8
HIBINO-BASE
 62
     7
 10
967.999999758
 20
-2381.942981072065
 30
0.0
 40
32.57682290852246
  1
DRAWN
 41
0.7
 11
967.999999758
 21
-2349.366158163542
 31
0.0
 73
     3
  0
TEXT
  5
39
  8
HIBINO-BASE
 62
     7
 10
467.9999998829999
 20
-2381.942981072065
 30
0.0
 40
32.57682290852246
  1
DATE
 41
0.7
 11
467.9999998829999
 21
-2349.366158163542
 31
0.0
 73
     3
  0
TEXT
  5
3A
  8
HIBINO-BASE
 62
     7
 10
267.9999999329999
 20
-2381.942981072065
 30
0.0
 40
32.57682290852246
  1
SCALE
 41
0.7
 11
267.9999999329999
 21
-2349.366158163542
 31
0.0
 73
     3
  0
TEXT
  5
3B
  8
HIBINO-BASE
 62
     7
 10
717.9999998205
 20
-2381.942981072065
 30
0.0
 40
32.57682290852246
  1
DESIGN
 41
0.7
 11
717.9999998205
 21
-2349.366158163542
 31
0.0
 73
     3
  0
TEXT
  5
3C
  8
HIBINO-BASE
 62
     7
 10
1467.999999633
 20
-2381.942981072065
 30
0.0
 40
32.57682290852246
  1
DRAWING NO.
 41
0.7
 11
1467.999999633
 21
-2349.366158163542
 31
0.0
 73
     3
  0
TEXT
  5
3D
  8
HIBINO-BASE
 62
     7
 10
1217.9999996955
 20
-2381.942981072065
 30
0.0
 40
32.57682290852246
  1
CHECK
 41
0.7
 11
1217.9999996955
 21
-2349.366158163542
 31
0.0
 73
     3
  0
LINE
  5
3E
  8
HIBINO-BASE
  6
CONTINUOUS
 62
     7
 10
287.4999999281253
 20
-2507.895514373909
 30
0.0
 11
362.4999999093753
 21
-2432.89551439266
 31
0.0
  0
TEXT
  5
3F
  8
HIBINO-BASE
 62
     7
 10
274.9999999312503
 20
-2455.074381053782
 30
0.0
 40
32.57682290852246
  1
1
 41
0.7
 11
274.9999999312503
 21
-2422.497558145259
 31
0.0
 73
     3
  0
LINE
  5
40
  8
HIBINO-BASE
  6
CONTINUOUS
 62
     7
 10
249.9999999375003
 20
-2532.895514367659
 30
0.0
 11
249.9999999375003
 21
-2332.895514417659
 31
0.0
  0
LINE
  5
41
  8
HIBINO-BASE
  6
CONTINUOUS
 62
     7
 10
449.9999998874997
 20
-2532.895514367659
 30
0.0
 11
449.9999998874997
 21
-2332.895514417659
 31
0.0
  0
LINE
  5
42
  8
HIBINO-BASE
  6
CONTINUOUS
 62
     7
 10
949.9999997624998
 20
-2332.895514417659
 30
0.0
 11
949.9999997624998
 21
-2532.895514367659
 31
0.0
  0
LINE
  5
43
  8
HIBINO-BASE
  6
CONTINUOUS
 62
     7
 10
1449.9999996375
 20
-2332.895514417659
 30
0.0
 11
1449.9999996375
 21
-2532.895514367659
 31
0.0
  0
LINE
  5
44
  8
HIBINO-BASE
  6
CONTINUOUS
 62
     7
 10
1199.9999997
 20
-2532.895514367659
 30
0.0
 11
1199.9999997
 21
-2332.895514417659
 31
0.0
  0
TEXT
  5
45
  8
HIBINO-BASE
 62
     7
 10
467.1307998832175
 20
-2475.622581048643
 30
0.0
 40
32.57682290852246
  1
'20.07.
 41
0.7
 11
467.1307998832175
 21
-2443.045758140121
 31
0.0
 73
     3
  0
TEXT
  5
46
  8
HIBINO-BASE
 62
     7
 10
349.9999999125004
 20
-2492.574381044406
 30
0.0
 40
32.57682290852246
  1
20
 41
0.7
 11
349.9999999125004
 21
-2459.997558135884
 31
0.0
 73
     3
  0
TEXT
  5
47
  8
HIBINO-BASE
 62
     7
 10
980.1161999756634
 20
-2475.622581048643
 30
0.0
 40
32.57682290852246
  1
N.Sasaki
 41
0.7
 11
980.1161999756634
 21
-2443.045758140121
 31
0.0
 73
     3
  0
TEXT
  5
48
  8
HIBINO-BASE
 62
     7
 10
77.66666664725071
 20
-2493.375514377539
 30
0.0
 40
65.15364581704492
  1
A4
 41
0.7
 11
77.66666664725071
 21
-2428.221868560494
 31
0.0
 73
     3
  0
TEXT
  5
49
  8
HIBINO-BASE
 62
     7
 10
19.16666666187491
 20
-2385.284614404562
 30
0.0
 40
32.57682290852246
  1
PAPER SIZE
 41
0.7
 11
19.16666666187491
 21
-2352.70779149604
 31
0.0
 73
     3
  0
TEXT
  5
4A
  8
HIBINO-BASE
 62
     7
 10
-1656.31999958592
 20
-2661.069070335616
 30
0.0
 40
72.00088357574978
  1
Hibino Corporation
 41
0.7
 11
-1656.31999958592
 21
-2589.068186759866
 31
0.0
 73
     3
  0
TEXT
  5
4B
  8
HIBINO-BASE
 62
     7
 10
1001.367799749658
 20
-2661.069070335616
 30
0.0
 40
72.00088357574978
  1
ヒビノ株式会社
 41
0.7
 11
1001.367799749658
 21
-2589.068186759866
 31
0.0
 73
     3
  0
LINE
  5
4C
  8
SPEC
  6
CONTINUOUS
 62
     7
 10
-1649.9999995875
 20
2467.104484382341
 30
0.0
 11
1299.999999675
 21
2467.104484382341
 31
0.0
  0
LINE
  5
4D
  8
SPEC
  6
CONTINUOUS
 62
     7
 10
-1649.9999995875
 20
2392.104484401091
 30
0.0
 11
1299.999999675
 21
2392.104484401091
 31
0.0
  0
LINE
  5
4E
  8
SPEC
  6
CONTINUOUS
 62
     7
 10
-1649.9999995875
 20
2467.104484382341
 30
0.0
 11
-1649.9999995875
 21
1792.104484551091
 31
0.0
  0
TEXT
  5
4F
  8
SPEC
 62
     7
 10
-1624.99999959375
 20
2494.969884375375
 30
0.0
 40
48.8652343627837
  1
仕様
 41
0.7
 11
-1624.99999959375
 21
2543.835118738159
 31
0.0
 73
     3
  0
LINE
  5
50
  8
SPEC
  6
CONTINUOUS
 62
     7
 10
-999.9999997499998
 20
2467.104484382341
 30
0.0
 11
-999.9999997499998
 21
1792.104484551091
 31
0.0
  0
LINE
  5
51
  8
SPEC
  6
CONTINUOUS
 62
     7
 10
1299.999999675
 20
2467.104484382341
 30
0.0
 11
1299.999999675
 21
1792.104484551091
 31
0.0
  0
TEXT
  5
52
  8
SPEC
 62
     7
 10
-1631.999999592
 20
1882.862840083957
 30
0.0
 40
38.00629339327622
  1
寸法(W×H×D)
 41
0.7
 11
-1631.999999592
 21
1920.869133477233
 31
0.0
 73
     3
  0
TEXT
  5
53
  8
SPEC
 62
     7
 10
-1631.999999592
 20
1807.862840102707
 30
0.0
 40
38.00629339327622
  1
質量
 41
0.7
 11
-1631.999999592
 21
1845.869133495983
 31
0.0
 73
     3
  0
TEXT
  5
54
  8
SPEC
 62
     7
 10
-981.9999997544998
 20
1882.862840083957
 30
0.0
 40
38.00629339327622
  1
1320×509×753mm(除突起部)
 41
0.7
 11
-981.9999997544998
 21
1920.869133477233
 31
0.0
 73
     3
  0
TEXT
  5
55
  8
SPEC
 62
     7
 10
-981.9999997544998
 20
1807.862840102707
 30
0.0
 40
38.00629339327622
  1
88kg
 41
0.7
 11
-981.9999997544998
 21
1845.869133495983
 31
0.0
 73
     3
  0
LINE
  5
56
  8
SPEC
  6
CONTINUOUS
 62
     7
 10
-1649.9999995875
 20
2317.104484419841
 30
0.0
 11
1299.999999675
 21
2317.104484419841
 31
0.0
  0
LINE
  5
57
  8
SPEC
  6
CONTINUOUS
 62
     7
 10
-1649.9999995875
 20
2242.104484438591
 30
0.0
 11
1299.999999675
 21
2242.104484438591
 31
0.0
  0
LINE
  5
58
  8
SPEC
  6
CONTINUOUS
 62
     7
 10
-1649.9999995875
 20
2167.104484457341
 30
0.0
 11
1299.999999675
 21
2167.104484457341
 31
0.0
  0
LINE
  5
59
  8
SPEC
  6
CONTINUOUS
 62
     7
 10
-1649.9999995875
 20
2092.104484476091
 30
0.0
 11
1299.999999675
 21
2092.104484476091
 31
0.0
  0
LINE
  5
5A
  8
SPEC
  6
CONTINUOUS
 62
     7
 10
-1649.9999995875
 20
2017.104484494841
 30
0.0
 11
1299.999999675
 21
2017.104484494841
 31
0.0
  0
LINE
  5
5B
  8
SPEC
  6
CONTINUOUS
 62
     7
 10
-1649.9999995875
 20
1942.104484513591
 30
0.0
 11
1299.999999675
 21
1942.104484513591
 31
0.0
  0
LINE
  5
5C
  8
SPEC
  6
CONTINUOUS
 62
     7
 10
-1649.9999995875
 20
1867.104484532341
 30
0.0
 11
1299.999999675
 21
1867.104484532341
 31
0.0
  0
LINE
  5
5D
  8
SPEC
  6
CONTINUOUS
 62
     7
 10
-1649.9999995875
 20
1792.104484551091
 30
0.0
 11
1299.999999675
 21
1792.104484551091
 31
0.0
  0
TEXT
  5
5E
  8
SPEC
 62
     7
 10
-1631.999999592
 20
2407.862839952707
 30
0.0
 40
38.00629339327622
  1
周波数レンジ(-10dB)
 41
0.7
 11
-1631.999999592
 21
2445.869133345983
 31
0.0
 73
     3
  0
TEXT
  5
5F
  8
SPEC
 62
     7
 10
-1631.999999592
 20
2332.862839971457
 30
0.0
 40
38.00629339327622
  1
最大音圧レベル
 41
0.7
 11
-1631.999999592
 21
2370.869133364733
 31
0.0
 73
     3
  0
TEXT
  5
60
  8
SPEC
 62
     7
 10
-1631.999999592
 20
2257.862839990207
 30
0.0
 40
38.00629339327622
  1
公称インピーダンス
 41
0.7
 11
-1631.999999592
 21
2295.869133383483
 31
0.0
 73
     3
  0
TEXT
  5
61
  8
SPEC
 62
     7
 10
-1631.999999592
 20
2182.862840008957
 30
0.0
 40
38.00629339327622
  1
許容入力※
 41
0.7
 11
-1631.999999592
 21
2220.869133402233
 31
0.0
 73
     3
  0
TEXT
  5
62
  8
SPEC
 62
     7
 10
-1631.999999592
 20
2107.862840027706
 30
0.0
 40
38.00629339327622
  1
ドライバー構成
 41
0.7
 11
-1631.999999592
 21
2145.869133420983
 31
0.0
 73
     3
  0
TEXT
  5
63
  8
SPEC
 62
     7
 10
-1631.999999592
 20
2032.862840046457
 30
0.0
 40
38.00629339327622
  1
端子
 41
0.7
 11
-1631.999999592
 21
2070.869133439733
 31
0.0
 73
     3
  0
TEXT
  5
64
  8
SPEC
 62
     7
 10
-1631.999999592
 20
1957.862840065207
 30
0.0
 40
38.00629339327622
  1
エンクロージャー
 41
0.7
 11
-1631.999999592
 21
1995.869133458483
 31
0.0
 73
     3
  0
TEXT
  5
65
  8
SPEC
 62
     7
 10
-981.9999997544996
 20
2407.862839952707
 30
0.0
 40
38.00629339327622
  1
25～80Hz
 41
0.7
 11
-981.9999997544996
 21
2445.869133345983
 31
0.0
 73
     3
  0
TEXT
  5
66
  8
SPEC
 62
     7
 10
-981.9999997544996
 20
2332.862839971457
 30
0.0
 40
38.00629339327622
  1
141dB
 41
0.7
 11
-981.9999997544996
 21
2370.869133364733
 31
0.0
 73
     3
  0
TEXT
  5
67
  8
SPEC
 62
     7
 10
-981.9999997544996
 20
2257.862839990207
 30
0.0
 40
38.00629339327622
  1
4Ω
 41
0.7
 11
-981.9999997544996
 21
2295.869133383483
 31
0.0
 73
     3
  0
TEXT
  5
68
  8
SPEC
 62
     7
 10
-981.9999997545
 20
2182.862840008957
 30
0.0
 40
38.00629339327622
  1
2,600W
 41
0.7
 11
-981.9999997545
 21
2220.869133402233
 31
0.0
 73
     3
  0
TEXT
  5
69
  8
SPEC
 62
     7
 10
-981.9999997544996
 20
2107.862840027706
 30
0.0
 40
38.00629339327622
  1
2288H-M(18インチ(457mm))×2
 41
0.7
 11
-981.9999997544996
 21
2145.869133420983
 31
0.0
 73
     3
  0
TEXT
  5
6A
  8
SPEC
 62
     7
 10
-981.9999997544996
 20
2032.862840046457
 30
0.0
 40
38.00629339327622
  1
4Pスピコン(前面×2、背面×2)
 41
0.7
 11
-981.9999997544996
 21
2070.869133439733
 31
0.0
 73
     3
  0
TEXT
  5
6B
  8
SPEC
 62
     7
 10
-981.9999997544996
 20
1957.862840065207
 30
0.0
 40
38.00629339327622
  1
12/18mm合板、Duraflex仕上げ
 41
0.7
 11
-981.9999997544996
 21
1995.869133458483
 31
0.0
 73
     3
  0
TEXT
  5
6C
  8
SPEC
 62
     7
 10
-1600.0
 20
1707.22
 30
0.0
 40
38.00629340277779
  1
※ IEC シェイプドノイズ、クレストファクター6dB、100 時間
 41
0.7
 11
-1600.0
 21
1745.226293402778
 31
0.0
 73
     3
  0
TEXT
  5
6D
  8
DIMNSIONS
 62
     7
 10
-399.9999998999999
 20
-2287.505714429006
 30
0.0
 40
48.8652343627837
  1
(単位：mm)
 41
0.7
 11
-399.9999998999999
 21
-2238.640480066222
 31
0.0
 73
     3
  0
LINE
  5
6E
  8
DIMNSIONS
  6
CONTINUOUS
 62
     7
 10
-1460.0
 20
-968.5
 30
0.0
 11
-1460.0
 21
-1170.0
 31
0.0
  0
LINE
  5
6F
  8
DIMNSIONS
  6
CONTINUOUS
 62
     7
 10
-139.9999999999999
 20
-968.5
 30
0.0
 11
-139.9999999999999
 21
-1170.0
 31
0.0
  0
LINE
  5
70
  8
DIMNSIONS
  6
CONTINUOUS
 62
     7
 10
-1460.0
 20
-1150.0
 30
0.0
 11
-139.9999999999999
 21
-1150.0
 31
0.0
  0
LINE
  5
71
  8
DIMNSIONS
  6
CONTINUOUS
 62
     7
 10
-1460.0
 20
-1150.0
 30
0.0
 11
-1420.00244140625
 21
-1139.282686475588
 31
0.0
  0
LINE
  5
72
  8
DIMNSIONS
  6
CONTINUOUS
 62
     7
 10
-1460.0
 20
-1150.0
 30
0.0
 11
-1420.00244140625
 21
-1160.717313524412
 31
0.0
  0
LINE
  5
73
  8
DIMNSIONS
  6
CONTINUOUS
 62
     7
 10
-139.9999999999999
 20
-1150.0
 30
0.0
 11
-179.9975585937499
 21
-1160.717313524412
 31
0.0
  0
LINE
  5
74
  8
DIMNSIONS
  6
CONTINUOUS
 62
     7
 10
-139.9999999999999
 20
-1150.0
 30
0.0
 11
-179.9975585937499
 21
-1139.282686475588
 31
0.0
  0
TEXT
  5
75
  8
DIMNSIONS
 62
     7
 10
-870.5555555555558
 20
-1130.122222222222
 30
0.0
 40
54.29470486111111
  1
1320
 41
0.7
 11
-870.5555555555558
 21
-1075.827517361111
 31
0.0
 73
     3
  0
LINE
  5
76
  8
DIMNSIONS
  6
CONTINUOUS
 62
     7
 10
-1474.0
 20
-954.5
 30
0.0
 11
-1570.0
 21
-954.5
 31
0.0
  0
LINE
  5
77
  8
DIMNSIONS
  6
CONTINUOUS
 62
     7
 10
-1474.0
 20
-445.5000000000001
 30
0.0
 11
-1570.0
 21
-445.5000000000001
 31
0.0
  0
LINE
  5
78
  8
DIMNSIONS
  6
CONTINUOUS
 62
     7
 10
-1550.0
 20
-954.5
 30
0.0
 11
-1550.0
 21
-445.5000000000001
 31
0.0
  0
LINE
  5
79
  8
DIMNSIONS
  6
CONTINUOUS
 62
     7
 10
-1550.0
 20
-954.5
 30
0.0
 11
-1560.717313524412
 21
-914.50244140625
 31
0.0
  0
LINE
  5
7A
  8
DIMNSIONS
  6
CONTINUOUS
 62
     7
 10
-1550.0
 20
-954.5
 30
0.0
 11
-1539.282686475588
 21
-914.50244140625
 31
0.0
  0
LINE
  5
7B
  8
DIMNSIONS
  6
CONTINUOUS
 62
     7
 10
-1550.0
 20
-445.5000000000001
 30
0.0
 11
-1539.282686475588
 21
-485.4975585937501
 31
0.0
  0
LINE
  5
7C
  8
DIMNSIONS
  6
CONTINUOUS
 62
     7
 10
-1550.0
 20
-445.5000000000001
 30
0.0
 11
-1560.717313524412
 21
-485.4975585937501
 31
0.0
  0
TEXT
  5
7D
  8
DIMNSIONS
 62
     7
 10
-1569.877777777778
 20
-752.9166666666667
 30
0.0
 40
54.29470486111111
  1
509
 50
90.0
 41
0.7
 11
-1624.172482638889
 21
-752.9166666666667
 31
0.0
 73
     3
  0
LINE
  5
7E
  8
DIMNSIONS
  6
CONTINUOUS
 62
     7
 10
-1474.0
 20
-376.25
 30
0.0
 11
-1570.0
 21
-376.25
 31
0.0
  0
LINE
  5
7F
  8
DIMNSIONS
  6
CONTINUOUS
 62
     7
 10
-1474.0
 20
376.25
 30
0.0
 11
-1570.0
 21
376.25
 31
0.0
  0
LINE
  5
80
  8
DIMNSIONS
  6
CONTINUOUS
 62
     7
 10
-1550.0
 20
-376.25
 30
0.0
 11
-1550.0
 21
376.25
 31
0.0
  0
LINE
  5
81
  8
DIMNSIONS
  6
CONTINUOUS
 62
     7
 10
-1550.0
 20
-376.25
 30
0.0
 11
-1560.717313524412
 21
-336.25244140625
 31
0.0
  0
LINE
  5
82
  8
DIMNSIONS
  6
CONTINUOUS
 62
     7
 10
-1550.0
 20
-376.25
 30
0.0
 11
-1539.282686475588
 21
-336.25244140625
 31
0.0
  0
LINE
  5
83
  8
DIMNSIONS
  6
CONTINUOUS
 62
     7
 10
-1550.0
 20
376.25
 30
0.0
 11
-1539.282686475588
 21
336.25244140625
 31
0.0
  0
LINE
  5
84
  8
DIMNSIONS
  6
CONTINUOUS
 62
     7
 10
-1550.0
 20
376.25
 30
0.0
 11
-1560.717313524412
 21
336.25244140625
 31
0.0
  0
TEXT
  5
85
  8
DIMNSIONS
 62
     7
 10
-1569.877777777778
 20
-52.91666666666667
 30
0.0
 40
54.29470486111111
  1
753
 50
90.0
 41
0.7
 11
-1624.172482638889
 21
-52.91666666666667
 31
0.0
 73
     3
  0
LINE
  5
86
  8
DIMNSIONS
  6
CONTINUOUS
 62
     7
 10
-1220.5
 20
-962.5
 30
0.0
 11
-1570.0
 21
-962.5
 31
0.0
  0
LINE
  5
87
  8
DIMNSIONS
  6
CONTINUOUS
 62
     7
 10
-1474.0
 20
-954.5
 30
0.0
 11
-1570.0
 21
-954.5
 31
0.0
  0
LINE
  5
88
  8
DIMNSIONS
  6
CONTINUOUS
 62
     7
 10
-1550.0
 20
-954.5
 30
0.0
 11
-1550.0
 21
-962.5
 31
0.0
  0
LINE
  5
89
  8
DIMNSIONS
  6
CONTINUOUS
 62
     7
 10
-1550.0
 20
-962.5
 30
0.0
 11
-1550.0
 21
-1032.5
 31
0.0
  0
LINE
  5
8A
  8
DIMNSIONS
  6
CONTINUOUS
 62
     7
 10
-1550.0
 20
-962.5
 30
0.0
 11
-1539.282686475588
 21
-1002.49755859375
 31
0.0
  0
LINE
  5
8B
  8
DIMNSIONS
  6
CONTINUOUS
 62
     7
 10
-1550.0
 20
-962.5
 30
0.0
 11
-1560.717313524412
 21
-1002.49755859375
 31
0.0
  0
LINE
  5
8C
  8
DIMNSIONS
  6
CONTINUOUS
 62
     7
 10
-1550.0
 20
-954.5
 30
0.0
 11
-1550.0
 21
-884.5
 31
0.0
  0
LINE
  5
8D
  8
DIMNSIONS
  6
CONTINUOUS
 62
     7
 10
-1550.0
 20
-954.5
 30
0.0
 11
-1560.717313524412
 21
-914.50244140625
 31
0.0
  0
LINE
  5
8E
  8
DIMNSIONS
  6
CONTINUOUS
 62
     7
 10
-1550.0
 20
-954.5
 30
0.0
 11
-1539.282686475588
 21
-914.50244140625
 31
0.0
  0
TEXT
  5
8F
  8
DIMNSIONS
 62
     7
 10
-1569.877777777778
 20
-1011.416666666667
 30
0.0
 40
54.29470486111111
  1
8.0
 50
90.0
 41
0.7
 11
-1624.172482638889
 21
-1011.416666666667
 31
0.0
 73
     3
  0
LINE
  5
90
  8
DIMNSIONS
  6
CONTINUOUS
 62
     7
 10
-1460.0
 20
-968.5
 30
0.0
 11
-1460.0
 21
-1170.0
 31
0.0
  0
LINE
  5
91
  8
DIMNSIONS
  6
CONTINUOUS
 62
     7
 10
-1462.75
 20
-933.559107458301
 30
0.0
 11
-1462.75
 21
-1170.0
 31
0.0
  0
LINE
  5
92
  8
DIMNSIONS
  6
CONTINUOUS
 62
     7
 10
-1462.75
 20
-1150.0
 30
0.0
 11
-1460.0
 21
-1150.0
 31
0.0
  0
LINE
  5
93
  8
DIMNSIONS
  6
CONTINUOUS
 62
     7
 10
-1460.0
 20
-1150.0
 30
0.0
 11
-1390.0
 21
-1150.0
 31
0.0
  0
LINE
  5
94
  8
DIMNSIONS
  6
CONTINUOUS
 62
     7
 10
-1460.0
 20
-1150.0
 30
0.0
 11
-1420.00244140625
 21
-1139.282686475588
 31
0.0
  0
LINE
  5
95
  8
DIMNSIONS
  6
CONTINUOUS
 62
     7
 10
-1460.0
 20
-1150.0
 30
0.0
 11
-1420.00244140625
 21
-1160.717313524412
 31
0.0
  0
LINE
  5
96
  8
DIMNSIONS
  6
CONTINUOUS
 62
     7
 10
-1462.75
 20
-1150.0
 30
0.0
 11
-1603.583333333333
 21
-1150.0
 31
0.0
  0
LINE
  5
97
  8
DIMNSIONS
  6
CONTINUOUS
 62
     7
 10
-1462.75
 20
-1150.0
 30
0.0
 11
-1502.74755859375
 21
-1160.717313524412
 31
0.0
  0
LINE
  5
98
  8
DIMNSIONS
  6
CONTINUOUS
 62
     7
 10
-1462.75
 20
-1150.0
 30
0.0
 11
-1502.74755859375
 21
-1139.282686475588
 31
0.0
  0
TEXT
  5
99
  8
DIMNSIONS
 62
     7
 10
-1603.583333333334
 20
-1130.122222222222
 30
0.0
 40
54.29470486111111
  1
2.8
 41
0.7
 11
-1603.583333333334
 21
-1075.827517361111
 31
0.0
 73
     3
  0
LINE
  5
9A
  8
DIMNSIONS
  6
CONTINUOUS
 62
     7
 10
-139.9999999999999
 20
-968.5
 30
0.0
 11
-139.9999999999999
 21
-1170.0
 31
0.0
  0
LINE
  5
9B
  8
DIMNSIONS
  6
CONTINUOUS
 62
     7
 10
-137.2499999999999
 20
-933.559107458301
 30
0.0
 11
-137.2499999999999
 21
-1170.0
 31
0.0
  0
LINE
  5
9C
  8
DIMNSIONS
  6
CONTINUOUS
 62
     7
 10
-137.2499999999999
 20
-1150.0
 30
0.0
 11
-139.9999999999999
 21
-1150.0
 31
0.0
  0
LINE
  5
9D
  8
DIMNSIONS
  6
CONTINUOUS
 62
     7
 10
-139.9999999999999
 20
-1150.0
 30
0.0
 11
-209.9999999999999
 21
-1150.0
 31
0.0
  0
LINE
  5
9E
  8
DIMNSIONS
  6
CONTINUOUS
 62
     7
 10
-139.9999999999999
 20
-1150.0
 30
0.0
 11
-179.9975585937499
 21
-1160.717313524412
 31
0.0
  0
LINE
  5
9F
  8
DIMNSIONS
  6
CONTINUOUS
 62
     7
 10
-139.9999999999999
 20
-1150.0
 30
0.0
 11
-179.9975585937499
 21
-1139.282686475588
 31
0.0
  0
LINE
  5
A0
  8
DIMNSIONS
  6
CONTINUOUS
 62
     7
 10
-137.2499999999999
 20
-1150.0
 30
0.0
 11
-6.416666666566613
 21
-1150.0
 31
0.0
  0
LINE
  5
A1
  8
DIMNSIONS
  6
CONTINUOUS
 62
     7
 10
-137.2499999999999
 20
-1150.0
 30
0.0
 11
-97.25244140624994
 21
-1139.282686475588
 31
0.0
  0
LINE
  5
A2
  8
DIMNSIONS
  6
CONTINUOUS
 62
     7
 10
-137.2499999999999
 20
-1150.0
 30
0.0
 11
-97.25244140624994
 21
-1160.717313524412
 31
0.0
  0
TEXT
  5
A3
  8
DIMNSIONS
 62
     7
 10
-112.2499999999
 20
-1130.122222222222
 30
0.0
 40
54.29470486111111
  1
2.8
 41
0.7
 11
-112.2499999999
 21
-1075.827517361111
 31
0.0
 73
     3
  0
LINE
  5
A4
  8
DIMNSIONS
  6
CONTINUOUS
 62
     7
 10
-1263.0
 20
77.0
 30
0.0
 11
-1263.0
 21
470.0
 31
0.0
  0
LINE
  5
A5
  8
DIMNSIONS
  6
CONTINUOUS
 62
     7
 10
-800.0
 20
424.0000000000001
 30
0.0
 11
-800.0
 21
470.0
 31
0.0
  0
LINE
  5
A6
  8
DIMNSIONS
  6
CONTINUOUS
 62
     7
 10
-1263.0
 20
450.0
 30
0.0
 11
-800.0
 21
450.0
 31
0.0
  0
LINE
  5
A7
  8
DIMNSIONS
  6
CONTINUOUS
 62
     7
 10
-1263.0
 20
450.0
 30
0.0
 11
-1223.00244140625
 21
460.7173135244118
 31
0.0
  0
LINE
  5
A8
  8
DIMNSIONS
  6
CONTINUOUS
 62
     7
 10
-1263.0
 20
450.0
 30
0.0
 11
-1223.00244140625
 21
439.2826864755882
 31
0.0
  0
LINE
  5
A9
  8
DIMNSIONS
  6
CONTINUOUS
 62
     7
 10
-800.0
 20
450.0
 30
0.0
 11
-839.99755859375
 21
439.2826864755882
 31
0.0
  0
LINE
  5
AA
  8
DIMNSIONS
  6
CONTINUOUS
 62
     7
 10
-800.0
 20
450.0
 30
0.0
 11
-839.99755859375
 21
460.7173135244118
 31
0.0
  0
TEXT
  5
AB
  8
DIMNSIONS
 62
     7
 10
-1084.416666666667
 20
469.8777777777777
 30
0.0
 40
54.29470486111111
  1
463
 41
0.7
 11
-1084.416666666667
 21
524.1724826388888
 31
0.0
 73
     3
  0
LINE
  5
AC
  8
DIMNSIONS
  6
CONTINUOUS
 62
     7
 10
-337.0
 20
77.00000000000003
 30
0.0
 11
-337.0
 21
470.0
 31
0.0
  0
LINE
  5
AD
  8
DIMNSIONS
  6
CONTINUOUS
 62
     7
 10
-800.0
 20
424.0000000000001
 30
0.0
 11
-800.0
 21
470.0
 31
0.0
  0
LINE
  5
AE
  8
DIMNSIONS
  6
CONTINUOUS
 62
     7
 10
-337.0
 20
450.0
 30
0.0
 11
-800.0
 21
450.0
 31
0.0
  0
LINE
  5
AF
  8
DIMNSIONS
  6
CONTINUOUS
 62
     7
 10
-337.0
 20
450.0
 30
0.0
 11
-376.99755859375
 21
439.2826864755882
 31
0.0
  0
LINE
  5
B0
  8
DIMNSIONS
  6
CONTINUOUS
 62
     7
 10
-337.0
 20
450.0
 30
0.0
 11
-376.99755859375
 21
460.7173135244118
 31
0.0
  0
LINE
  5
B1
  8
DIMNSIONS
  6
CONTINUOUS
 62
     7
 10
-800.0
 20
450.0
 30
0.0
 11
-760.00244140625
 21
460.7173135244118
 31
0.0
  0
LINE
  5
B2
  8
DIMNSIONS
  6
CONTINUOUS
 62
     7
 10
-800.0
 20
450.0
 30
0.0
 11
-760.00244140625
 21
439.2826864755882
 31
0.0
  0
TEXT
  5
B3
  8
DIMNSIONS
 62
     7
 10
-621.4166666666666
 20
469.8777777777777
 30
0.0
 40
54.29470486111111
  1
463
 41
0.7
 11
-621.4166666666666
 21
524.1724826388888
 31
0.0
 73
     3
  0
LINE
  5
B4
  8
DIMNSIONS
  6
CONTINUOUS
 62
     7
 10
-327.7132012309229
 20
-3.708823077962919
 30
0.0
 11
-86.60254037844481
 21
-100.0
 31
0.0
  0
LINE
  5
B5
  8
DIMNSIONS
  6
CONTINUOUS
 62
     7
 10
-327.7132012309229
 20
-3.708823077962919
 30
0.0
 11
-286.5315217477454
 21
-8.03719200699849
 31
0.0
  0
LINE
  5
B6
  8
DIMNSIONS
  6
CONTINUOUS
 62
     7
 10
-327.7132012309229
 20
-3.708823077962919
 30
0.0
 11
-294.2130050925005
 21
-28.04814026904773
 31
0.0
  0
LINE
  5
B7
  8
DIMNSIONS
  6
CONTINUOUS
 62
     7
 10
-86.60254037844481
 20
-100.0
 30
0.0
 11
-46.60254037844481
 21
-100.0
 31
0.0
  0
TEXT
  5
B8
  8
DIMNSIONS
 62
     7
 10
-46.60254037844481
 20
-125.4
 30
0.0
 40
54.29470486111111
  1
M20ねじ込み式ポールソケット
 41
0.7
 11
-46.60254037844481
 21
-71.10529513888888
 31
0.0
 73
     3
  0
TEXT
  5
B9
  8
DIMNSIONS
 62
     7
 10
-46.60254037844481
 20
-195.9555555555556
 30
0.0
 40
54.29470486111116
  1
(3ヵ所)
 41
0.7
 11
-46.60254037844481
 21
-141.6608506944445
 31
0.0
 73
     3
  0
LINE
  5
BA
  8
DATA
  6
CONTINUOUS
 62
     7
 10
700.0
 20
247.9293843610646
 30
0.0
 11
1100.0
 21
247.9293843610646
 31
0.0
  0
TEXT
  5
BB
  8
DATA
 62
     7
 10
-1759.99999956
 20
-2375.369958851485
 30
0.0
 40
38.00629339327622
  1
※仕様及び外観は予告なく変更されることがあります。
 41
0.7
 11
-1759.99999956
 21
-2337.363665458209
 31
0.0
 73
     3
  0
TEXT
  5
BC
  8
DATA
 62
     7
 10
-1759.99999956
 20
-2424.758847728027
 30
0.0
 40
38.00629339327622
  1
　また、同一商品でも若干の個体差があることがあります。ご了承ください。
 41
0.7
 11
-1759.99999956
 21
-2386.752554334751
 31
0.0
 73
     3
  0
TEXT
  5
BD
  8
DATA
 62
     7
 10
999.9999997499998
 20
-2165.277714459563
 30
0.0
 40
48.8652343627837
  1
JBL PROFESSIONAL
 41
0.7
 11
999.9999997499998
 21
-2116.412480096779
 31
0.0
 73
     3
  0
TEXT
  5
BE
  8
DATA
 62
     7
 10
999.9999997499998
 20
-2310.277714423313
 30
0.0
 40
48.8652343627837
  1
VTX-B28
 41
0.7
 11
999.9999997499998
 21
-2261.41248006053
 31
0.0
 73
     3
  0
TEXT
  5
BF
  8
DATA
 62
     7
 10
949.9999997624998
 20
-2237.356814441544
 30
0.0
 40
38.00629339327622
  1
サブウーファー
 41
0.7
 11
949.9999997624998
 21
-2199.350521048268
 31
0.0
 73
     3
  0
ARC
  5
C0
  8
DATA
  6
CONTINUOUS
 62
     7
 10
-1450.0
 20
366.2499999999998
 30
0.0
 40
10.00000000000023
 50
90.0
 51
179.9999999999987
  0
LINE
  5
C1
  8
DATA
  6
CONTINUOUS
 62
     7
 10
-1460.0
 20
-366.2500000000001
 30
0.0
 11
-1460.0
 21
366.25
 31
0.0
  0
ARC
  5
C2
  8
DATA
  6
CONTINUOUS
 62
     7
 10
-1450.0
 20
-366.2500000000002
 30
0.0
 40
10.0
 50
179.999999999999
 51
270.0
  0
LINE
  5
C3
  8
DATA
  6
CONTINUOUS
 62
     7
 10
-150.0
 20
-376.2499999999999
 30
0.0
 11
-1450.0
 21
-376.25
 31
0.0
  0
ARC
  5
C4
  8
DATA
  6
CONTINUOUS
 62
     7
 10
-150.0
 20
-366.2499999999999
 30
0.0
 40
10.0
 50
270.0000000000002
 51
0.0
  0
LINE
  5
C5
  8
DATA
  6
CONTINUOUS
 62
     7
 10
-139.9999999999999
 20
366.25
 30
0.0
 11
-139.9999999999999
 21
-366.2499999999999
 31
0.0
  0
ARC
  5
C6
  8
DATA
  6
CONTINUOUS
 62
     7
 10
-150.0000000000001
 20
366.2499999999998
 30
0.0
 40
10.00000000000017
 50
0.0000000000013074
 51
89.99999999999933
  0
LINE
  5
C7
  8
DATA
  6
CONTINUOUS
 62
     7
 10
-1450.0
 20
376.25
 30
0.0
 11
-149.9999999999999
 21
376.25
 31
0.0
  0
ARC
  5
C8
  8
DATA
  6
CONTINUOUS
 62
     7
 10
-66.25000000000011
 20
-455.4999999999998
 30
0.0
 40
9.999999999999773
 50
89.9999999999987
 51
180.000000000001
  0
LINE
  5
C9
  8
DATA
  6
CONTINUOUS
 62
     7
 10
-76.24999999999989
 20
-944.5
 30
0.0
 11
-76.24999999999989
 21
-455.5
 31
0.0
  0
ARC
  5
CA
  8
DATA
  6
CONTINUOUS
 62
     7
 10
-66.25000000000006
 20
-944.5
 30
0.0
 40
9.99999999999983
 50
180.0
 51
270.0000000000013
  0
LINE
  5
CB
  8
DATA
  6
CONTINUOUS
 62
     7
 10
666.25
 20
-954.5
 30
0.0
 11
-66.24999999999983
 21
-954.4999999999999
 31
0.0
  0
ARC
  5
CC
  8
DATA
  6
CONTINUOUS
 62
     7
 10
666.2500000000005
 20
-944.5000000000001
 30
0.0
 40
9.999999999999886
 50
269.9999999999974
 51
0.0000000000006253
  0
LINE
  5
CD
  8
DATA
  6
CONTINUOUS
 62
     7
 10
676.25
 20
-455.5
 30
0.0
 11
676.25
 21
-944.5
 31
0.0
  0
ARC
  5
CE
  8
DATA
  6
CONTINUOUS
 62
     7
 10
666.25
 20
-455.4999999999998
 30
0.0
 40
10.0
 50
359.999999999999
 51
90.0
  0
LINE
  5
CF
  8
DATA
  6
CONTINUOUS
 62
     7
 10
-66.24999999999989
 20
-445.5000000000001
 30
0.0
 11
666.25
 21
-445.5000000000001
 31
0.0
  0
ARC
  5
D0
  8
DATA
  6
CONTINUOUS
 62
     7
 10
-1450.0
 20
-455.5000000000002
 30
0.0
 40
10.00000000000017
 50
90.00000000000132
 51
179.9999999999987
  0
LINE
  5
D1
  8
DATA
  6
CONTINUOUS
 62
     7
 10
-1460.0
 20
-944.5
 30
0.0
 11
-1460.0
 21
-455.5
 31
0.0
  0
ARC
  5
D2
  8
DATA
  6
CONTINUOUS
 62
     7
 10
-1450.0
 20
-944.4999999999998
 30
0.0
 40
10.00000000000023
 50
180.0000000000013
 51
269.9999999999987
  0
LINE
  5
D3
  8
DATA
  6
CONTINUOUS
 62
     7
 10
-150.0000000000001
 20
-954.5
 30
0.0
 11
-1450.0
 21
-954.5
 31
0.0
  0
ARC
  5
D4
  8
DATA
  6
CONTINUOUS
 62
     7
 10
-149.9999999999999
 20
-944.5
 30
0.0
 40
10.0
 50
269.9999999999993
 51
0.0
  0
LINE
  5
D5
  8
DATA
  6
CONTINUOUS
 62
     7
 10
-139.9999999999999
 20
-455.5000000000001
 30
0.0
 11
-139.9999999999999
 21
-944.5
 31
0.0
  0
ARC
  5
D6
  8
DATA
  6
CONTINUOUS
 62
     7
 10
-149.9999999999999
 20
-455.5000000000001
 30
0.0
 40
10.0
 50
0.0
 51
90.00000000000028
  0
LINE
  5
D7
  8
DATA
  6
CONTINUOUS
 62
     7
 10
-1450.0
 20
-445.5000000000001
 30
0.0
 11
-149.9999999999999
 21
-445.5000000000001
 31
0.0
  0
TEXT
  5
D8
  8
DATA
 62
     7
 10
792.3155020254629
 20
272.8526475694445
 30
0.0
 40
54.29470486111111
  1
端子拡大図
 41
0.7
 72
     1
 11
900.0
 21
300.0
 31
0.0
 73
     2
  0
LINE
  5
D9
  8
DATA
  6
CONTINUOUS
 62
     7
 10
-1443.0
 20
-954.5
 30
0.0
 11
-1443.0
 21
-445.5000000000001
 31
0.0
  0
LINE
  5
DA
  8
DATA
  6
CONTINUOUS
 62
     7
 10
-157.0
 20
-445.5000000000001
 30
0.0
 11
-157.0
 21
-954.5
 31
0.0
  0
LINE
  5
DB
  8
DATA
  6
CONTINUOUS
 62
     7
 10
-1443.0
 20
-306.25
 30
0.0
 11
-157.0000000000002
 21
-306.25
 31
0.0
  0
LINE
  5
DC
  8
DATA
  6
CONTINUOUS
 62
     7
 10
-1443.0
 20
-309.25
 30
0.0
 11
-157.0000000000002
 21
-309.25
 31
0.0
  0
LINE
  5
DD
  8
DATA
  6
CONTINUOUS
 62
     7
 10
-1443.0
 20
-376.25
 30
0.0
 11
-1443.0
 21
376.25
 31
0.0
  0
LINE
  5
DE
  8
DATA
  6
CONTINUOUS
 62
     7
 10
-157.0
 20
376.25
 30
0.0
 11
-157.0
 21
-376.25
 31
0.0
  0
LINE
  5
DF
  8
DATA
  6
CONTINUOUS
 62
     7
 10
-1449.0
 20
-739.0
 30
0.0
 11
-1449.0
 21
-661.0
 31
0.0
  0
LINE
  5
E0
  8
DATA
  6
CONTINUOUS
 62
     7
 10
-1443.0
 20
-739.0
 30
0.0
 11
-1449.0
 21
-739.0
 31
0.0
  0
LINE
  5
E1
  8
DATA
  6
CONTINUOUS
 62
     7
 10
-1449.0
 20
-661.0
 30
0.0
 11
-1443.0
 21
-661.0
 31
0.0
  0
LINE
  5
E2
  8
DATA
  6
CONTINUOUS
 62
     7
 10
-151.0
 20
-739.0
 30
0.0
 11
-157.0
 21
-739.0
 31
0.0
  0
LINE
  5
E3
  8
DATA
  6
CONTINUOUS
 62
     7
 10
-151.0
 20
-661.0
 30
0.0
 11
-151.0
 21
-739.0
 31
0.0
  0
LINE
  5
E4
  8
DATA
  6
CONTINUOUS
 62
     7
 10
-157.0
 20
-661.0
 30
0.0
 11
-151.0
 21
-661.0
 31
0.0
  0
ARC
  5
E5
  8
DATA
  6
CONTINUOUS
 62
     7
 10
-1450.0
 20
-1233.75
 30
0.0
 40
9.999999999999773
 50
89.9999999999987
 51
180.0000000000026
  0
LINE
  5
E6
  8
DATA
  6
CONTINUOUS
 62
     7
 10
-1460.0
 20
-1966.25
 30
0.0
 11
-1460.0
 21
-1233.75
 31
0.0
  0
ARC
  5
E7
  8
DATA
  6
CONTINUOUS
 62
     7
 10
-1450.0
 20
-1966.249999999999
 30
0.0
 40
10.00000000000045
 50
180.0000000000052
 51
269.9999999999961
  0
LINE
  5
E8
  8
DATA
  6
CONTINUOUS
 62
     7
 10
-150.0
 20
-1976.25
 30
0.0
 11
-1450.0
 21
-1976.25
 31
0.0
  0
ARC
  5
E9
  8
DATA
  6
CONTINUOUS
 62
     7
 10
-150.0000000000006
 20
-1966.249999999999
 30
0.0
 40
10.00000000000068
 50
270.0000000000038
 51
359.9999999999974
  0
LINE
  5
EA
  8
DATA
  6
CONTINUOUS
 62
     7
 10
-139.9999999999999
 20
-1233.75
 30
0.0
 11
-139.9999999999999
 21
-1966.25
 31
0.0
  0
ARC
  5
EB
  8
DATA
  6
CONTINUOUS
 62
     7
 10
-149.9999999999999
 20
-1233.75
 30
0.0
 40
10.00000000000003
 50
359.9999999999987
 51
90.00000000000018
  0
LINE
  5
EC
  8
DATA
  6
CONTINUOUS
 62
     7
 10
-1450.0
 20
-1223.75
 30
0.0
 11
-149.9999999999999
 21
-1223.75
 31
0.0
  0
LINE
  5
ED
  8
DATA
  6
CONTINUOUS
 62
     7
 10
-1443.0
 20
-1293.75
 30
0.0
 11
-157.0000000000002
 21
-1293.75
 31
0.0
  0
LINE
  5
EE
  8
DATA
  6
CONTINUOUS
 62
     7
 10
-1443.0
 20
-1290.75
 30
0.0
 11
-157.0000000000002
 21
-1290.75
 31
0.0
  0
LINE
  5
EF
  8
DATA
  6
CONTINUOUS
 62
     7
 10
-1443.0
 20
-1223.75
 30
0.0
 11
-1443.0
 21
-1976.25
 31
0.0
  0
LINE
  5
F0
  8
DATA
  6
CONTINUOUS
 62
     7
 10
-157.0
 20
-1976.25
 30
0.0
 11
-157.0
 21
-1223.75
 31
0.0
  0
LINE
  5
F1
  8
DATA
  6
CONTINUOUS
 62
     7
 10
-1198.0
 20
-1873.25
 30
0.0
 11
-1198.0
 21
-1323.75
 31
0.0
  0
LINE
  5
F2
  8
DATA
  6
CONTINUOUS
 62
     7
 10
-1134.0
 20
-1873.25
 30
0.0
 11
-1134.0
 21
-1323.75
 31
0.0
  0
LINE
  5
F3
  8
DATA
  6
CONTINUOUS
 62
     7
 10
-1154.0
 20
-1303.75
 30
0.0
 11
-1178.0
 21
-1303.75
 31
0.0
  0
LINE
  5
F4
  8
DATA
  6
CONTINUOUS
 62
     7
 10
-1154.0
 20
-1893.25
 30
0.0
 11
-1178.0
 21
-1893.25
 31
0.0
  0
ARC
  5
F5
  8
DATA
  6
CONTINUOUS
 62
     7
 10
-1178.0
 20
-1323.75
 30
0.0
 40
20.0
 50
90.0
 51
180.0
  0
ARC
  5
F6
  8
DATA
  6
CONTINUOUS
 62
     7
 10
-1154.0
 20
-1323.75
 30
0.0
 40
20.0
 50
0.0
 51
90.0
  0
ARC
  5
F7
  8
DATA
  6
CONTINUOUS
 62
     7
 10
-1154.0
 20
-1873.25
 30
0.0
 40
20.0
 50
270.0
 51
0.0
  0
ARC
  5
F8
  8
DATA
  6
CONTINUOUS
 62
     7
 10
-1178.0
 20
-1873.25
 30
0.0
 40
20.0
 50
180.0
 51
270.0
  0
LINE
  5
F9
  8
DATA
  6
CONTINUOUS
 62
     7
 10
-1198.0
 20
-961.0
 30
0.0
 11
-1198.0
 21
-954.5
 31
0.0
  0
LINE
  5
FA
  8
DATA
  6
CONTINUOUS
 62
     7
 10
-1196.5
 20
-962.5
 30
0.0
 11
-1135.5
 21
-962.5
 31
0.0
  0
LINE
  5
FB
  8
DATA
  6
CONTINUOUS
 62
     7
 10
-1135.5
 20
-962.5
 30
0.0
 11
-1134.0
 21
-961.0
 31
0.0
  0
LINE
  5
FC
  8
DATA
  6
CONTINUOUS
 62
     7
 10
-1196.5
 20
-962.5
 30
0.0
 11
-1198.0
 21
-961.0
 31
0.0
  0
LINE
  5
FD
  8
DATA
  6
CONTINUOUS
 62
     7
 10
-1134.0
 20
-961.0
 30
0.0
 11
-1134.0
 21
-954.5
 31
0.0
  0
ARC
  5
FE
  8
DATA
  6
CONTINUOUS
 62
     7
 10
-1154.0
 20
-1323.75
 30
0.0
 40
18.5
 50
0.0
 51
90.0
  0
ARC
  5
FF
  8
DATA
  6
CONTINUOUS
 62
     7
 10
-1178.0
 20
-1323.75
 30
0.0
 40
18.5
 50
90.0
 51
180.0
  0
LINE
  5
100
  8
DATA
  6
CONTINUOUS
 62
     7
 10
-1178.0
 20
-1305.25
 30
0.0
 11
-1154.0
 21
-1305.25
 31
0.0
  0
ARC
  5
101
  8
DATA
  6
CONTINUOUS
 62
     7
 10
-1154.0
 20
-1873.25
 30
0.0
 40
18.5
 50
270.0
 51
0.0
  0
ARC
  5
102
  8
DATA
  6
CONTINUOUS
 62
     7
 10
-1178.0
 20
-1873.25
 30
0.0
 40
18.5
 50
180.0
 51
270.0
  0
LINE
  5
103
  8
DATA
  6
CONTINUOUS
 62
     7
 10
-1178.0
 20
-1891.75
 30
0.0
 11
-1154.0
 21
-1891.75
 31
0.0
  0
LINE
  5
104
  8
DATA
  6
CONTINUOUS
 62
     7
 10
-1196.5
 20
-1873.25
 30
0.0
 11
-1196.5
 21
-1323.75
 31
0.0
  0
LINE
  5
105
  8
DATA
  6
CONTINUOUS
 62
     7
 10
-1135.5
 20
-1873.25
 30
0.0
 11
-1135.5
 21
-1323.75
 31
0.0
  0
LINE
  5
106
  8
DATA
  6
CONTINUOUS
 62
     7
 10
-402.0
 20
-1873.25
 30
0.0
 11
-402.0
 21
-1323.75
 31
0.0
  0
LINE
  5
107
  8
DATA
  6
CONTINUOUS
 62
     7
 10
-466.0
 20
-1873.25
 30
0.0
 11
-466.0
 21
-1323.75
 31
0.0
  0
LINE
  5
108
  8
DATA
  6
CONTINUOUS
 62
     7
 10
-446.0
 20
-1303.75
 30
0.0
 11
-422.0
 21
-1303.75
 31
0.0
  0
LINE
  5
109
  8
DATA
  6
CONTINUOUS
 62
     7
 10
-446.0
 20
-1893.25
 30
0.0
 11
-422.0
 21
-1893.25
 31
0.0
  0
ARC
  5
10A
  8
DATA
  6
CONTINUOUS
 62
     7
 10
-422.0
 20
-1323.75
 30
0.0
 40
20.0
 50
0.0
 51
90.0
  0
ARC
  5
10B
  8
DATA
  6
CONTINUOUS
 62
     7
 10
-446.0
 20
-1323.75
 30
0.0
 40
20.0
 50
90.0
 51
180.0
  0
ARC
  5
10C
  8
DATA
  6
CONTINUOUS
 62
     7
 10
-446.0
 20
-1873.25
 30
0.0
 40
20.0
 50
180.0
 51
270.0
  0
ARC
  5
10D
  8
DATA
  6
CONTINUOUS
 62
     7
 10
-422.0
 20
-1873.25
 30
0.0
 40
20.0
 50
270.0
 51
0.0
  0
LINE
  5
10E
  8
DATA
  6
CONTINUOUS
 62
     7
 10
-402.0
 20
-961.0
 30
0.0
 11
-402.0
 21
-954.5
 31
0.0
  0
LINE
  5
10F
  8
DATA
  6
CONTINUOUS
 62
     7
 10
-403.5
 20
-962.5
 30
0.0
 11
-464.5
 21
-962.5
 31
0.0
  0
LINE
  5
110
  8
DATA
  6
CONTINUOUS
 62
     7
 10
-464.5
 20
-962.5
 30
0.0
 11
-466.0
 21
-961.0
 31
0.0
  0
LINE
  5
111
  8
DATA
  6
CONTINUOUS
 62
     7
 10
-403.5
 20
-962.5
 30
0.0
 11
-402.0
 21
-961.0
 31
0.0
  0
LINE
  5
112
  8
DATA
  6
CONTINUOUS
 62
     7
 10
-466.0
 20
-961.0
 30
0.0
 11
-466.0
 21
-954.5
 31
0.0
  0
ARC
  5
113
  8
DATA
  6
CONTINUOUS
 62
     7
 10
-446.0
 20
-1323.75
 30
0.0
 40
18.5
 50
90.0
 51
180.0
  0
ARC
  5
114
  8
DATA
  6
CONTINUOUS
 62
     7
 10
-422.0
 20
-1323.75
 30
0.0
 40
18.5
 50
0.0
 51
90.0
  0
LINE
  5
115
  8
DATA
  6
CONTINUOUS
 62
     7
 10
-422.0
 20
-1305.25
 30
0.0
 11
-446.0
 21
-1305.25
 31
0.0
  0
ARC
  5
116
  8
DATA
  6
CONTINUOUS
 62
     7
 10
-446.0
 20
-1873.25
 30
0.0
 40
18.5
 50
180.0
 51
270.0
  0
ARC
  5
117
  8
DATA
  6
CONTINUOUS
 62
     7
 10
-422.0
 20
-1873.25
 30
0.0
 40
18.5
 50
270.0
 51
0.0
  0
LINE
  5
118
  8
DATA
  6
CONTINUOUS
 62
     7
 10
-422.0
 20
-1891.75
 30
0.0
 11
-446.0
 21
-1891.75
 31
0.0
  0
LINE
  5
119
  8
DATA
  6
CONTINUOUS
 62
     7
 10
-403.5
 20
-1873.25
 30
0.0
 11
-403.5
 21
-1323.75
 31
0.0
  0
LINE
  5
11A
  8
DATA
  6
CONTINUOUS
 62
     7
 10
-464.5
 20
-1873.25
 30
0.0
 11
-464.5
 21
-1323.75
 31
0.0
  0
LINE
  5
11B
  8
DATA
  6
CONTINUOUS
 62
     7
 10
3.750000000000114
 20
-961.0
 30
0.0
 11
3.750000000000114
 21
-954.5
 31
0.0
  0
LINE
  5
11C
  8
DATA
  6
CONTINUOUS
 62
     7
 10
5.250000000000114
 20
-962.5
 30
0.0
 11
591.75
 21
-962.5
 31
0.0
  0
LINE
  5
11D
  8
DATA
  6
CONTINUOUS
 62
     7
 10
5.250000000000114
 20
-962.5
 30
0.0
 11
3.750000000000114
 21
-961.0
 31
0.0
  0
LINE
  5
11E
  8
DATA
  6
CONTINUOUS
 62
     7
 10
591.75
 20
-962.5
 30
0.0
 11
593.25
 21
-961.0
 31
0.0
  0
LINE
  5
11F
  8
DATA
  6
CONTINUOUS
 62
     7
 10
593.25
 20
-961.0
 30
0.0
 11
593.25
 21
-954.5
 31
0.0
  0
ARC
  5
120
  8
DATA
  6
CONTINUOUS
 62
     7
 10
-261.0
 20
-1326.75
 30
0.0
 40
13.0
 50
90.0
 51
270.0
  0
ARC
  5
121
  8
DATA
  6
CONTINUOUS
 62
     7
 10
-198.0000000000001
 20
-1326.75
 30
0.0
 40
13.0
 50
270.0000000000002
 51
89.99999999999972
  0
LINE
  5
122
  8
DATA
  6
CONTINUOUS
 62
     7
 10
-261.0
 20
-1313.75
 30
0.0
 11
-198.0
 21
-1313.75
 31
0.0
  0
LINE
  5
123
  8
DATA
  6
CONTINUOUS
 62
     7
 10
-261.0
 20
-1339.75
 30
0.0
 11
-198.0
 21
-1339.75
 31
0.0
  0
LINE
  5
124
  8
DATA
  6
CONTINUOUS
 62
     7
 10
-274.0
 20
-957.0000000000001
 30
0.0
 11
-274.0
 21
-954.5
 31
0.0
  0
LINE
  5
125
  8
DATA
  6
CONTINUOUS
 62
     7
 10
-185.0000000000001
 20
-957.0000000000001
 30
0.0
 11
-185.0000000000001
 21
-954.5
 31
0.0
  0
LINE
  5
126
  8
DATA
  6
CONTINUOUS
 62
     7
 10
-185.0000000000001
 20
-957.0000000000001
 30
0.0
 11
-186.5000000000001
 21
-958.5000000000001
 31
0.0
  0
LINE
  5
127
  8
DATA
  6
CONTINUOUS
 62
     7
 10
-272.5
 20
-958.5000000000001
 30
0.0
 11
-186.5000000000001
 21
-958.5000000000001
 31
0.0
  0
LINE
  5
128
  8
DATA
  6
CONTINUOUS
 62
     7
 10
-272.5
 20
-958.5000000000001
 30
0.0
 11
-274.0
 21
-957.0000000000001
 31
0.0
  0
ARC
  5
129
  8
DATA
  6
CONTINUOUS
 62
     7
 10
-198.0000000000001
 20
-1326.75
 30
0.0
 40
11.5
 50
270.0000000000003
 51
89.99999999999969
  0
ARC
  5
12A
  8
DATA
  6
CONTINUOUS
 62
     7
 10
-260.9999999999999
 20
-1326.75
 30
0.0
 40
11.5
 50
90.0000000000003
 51
269.9999999999997
  0
LINE
  5
12B
  8
DATA
  6
CONTINUOUS
 62
     7
 10
-261.0
 20
-1315.25
 30
0.0
 11
-198.0
 21
-1315.25
 31
0.0
  0
LINE
  5
12C
  8
DATA
  6
CONTINUOUS
 62
     7
 10
-198.0
 20
-1338.25
 30
0.0
 11
-261.0
 21
-1338.25
 31
0.0
  0
ARC
  5
12D
  8
DATA
  6
CONTINUOUS
 62
     7
 10
-1339.0
 20
-1326.75
 30
0.0
 40
13.0
 50
270.0
 51
90.0
  0
ARC
  5
12E
  8
DATA
  6
CONTINUOUS
 62
     7
 10
-1402.0
 20
-1326.75
 30
0.0
 40
13.0
 50
90.0
 51
270.0
  0
LINE
  5
12F
  8
DATA
  6
CONTINUOUS
 62
     7
 10
-1339.0
 20
-1313.75
 30
0.0
 11
-1402.0
 21
-1313.75
 31
0.0
  0
LINE
  5
130
  8
DATA
  6
CONTINUOUS
 62
     7
 10
-1339.0
 20
-1339.75
 30
0.0
 11
-1402.0
 21
-1339.75
 31
0.0
  0
ARC
  5
131
  8
DATA
  6
CONTINUOUS
 62
     7
 10
-1402.0
 20
-1326.75
 30
0.0
 40
11.5
 50
90.0
 51
270.0
  0
ARC
  5
132
  8
DATA
  6
CONTINUOUS
 62
     7
 10
-1339.0
 20
-1326.75
 30
0.0
 40
11.5
 50
270.0000000000011
 51
89.99999999999889
  0
LINE
  5
133
  8
DATA
  6
CONTINUOUS
 62
     7
 10
-1339.0
 20
-1315.25
 30
0.0
 11
-1402.0
 21
-1315.25
 31
0.0
  0
LINE
  5
134
  8
DATA
  6
CONTINUOUS
 62
     7
 10
-1402.0
 20
-1338.25
 30
0.0
 11
-1339.0
 21
-1338.25
 31
0.0
  0
ARC
  5
135
  8
DATA
  6
CONTINUOUS
 62
     7
 10
-261.0
 20
-1870.25
 30
0.0
 40
13.0
 50
90.0
 51
270.0
  0
ARC
  5
136
  8
DATA
  6
CONTINUOUS
 62
     7
 10
-198.0000000000001
 20
-1870.25
 30
0.0
 40
13.0
 50
270.0000000000002
 51
89.99999999999972
  0
LINE
  5
137
  8
DATA
  6
CONTINUOUS
 62
     7
 10
-261.0
 20
-1857.25
 30
0.0
 11
-198.0
 21
-1857.25
 31
0.0
  0
LINE
  5
138
  8
DATA
  6
CONTINUOUS
 62
     7
 10
-261.0
 20
-1883.25
 30
0.0
 11
-198.0
 21
-1883.25
 31
0.0
  0
ARC
  5
139
  8
DATA
  6
CONTINUOUS
 62
     7
 10
-198.0000000000001
 20
-1870.25
 30
0.0
 40
11.5
 50
270.0000000000003
 51
89.99999999999969
  0
ARC
  5
13A
  8
DATA
  6
CONTINUOUS
 62
     7
 10
-260.9999999999999
 20
-1870.25
 30
0.0
 40
11.5
 50
90.0000000000003
 51
269.9999999999997
  0
LINE
  5
13B
  8
DATA
  6
CONTINUOUS
 62
     7
 10
-261.0
 20
-1858.75
 30
0.0
 11
-198.0
 21
-1858.75
 31
0.0
  0
LINE
  5
13C
  8
DATA
  6
CONTINUOUS
 62
     7
 10
-198.0
 20
-1881.75
 30
0.0
 11
-261.0
 21
-1881.75
 31
0.0
  0
ARC
  5
13D
  8
DATA
  6
CONTINUOUS
 62
     7
 10
-1339.0
 20
-1870.25
 30
0.0
 40
13.0
 50
270.0
 51
90.0
  0
ARC
  5
13E
  8
DATA
  6
CONTINUOUS
 62
     7
 10
-1402.0
 20
-1870.25
 30
0.0
 40
13.0
 50
90.0
 51
270.0
  0
LINE
  5
13F
  8
DATA
  6
CONTINUOUS
 62
     7
 10
-1339.0
 20
-1857.25
 30
0.0
 11
-1402.0
 21
-1857.25
 31
0.0
  0
LINE
  5
140
  8
DATA
  6
CONTINUOUS
 62
     7
 10
-1339.0
 20
-1883.25
 30
0.0
 11
-1402.0
 21
-1883.25
 31
0.0
  0
ARC
  5
141
  8
DATA
  6
CONTINUOUS
 62
     7
 10
-1402.0
 20
-1870.25
 30
0.0
 40
11.5
 50
90.0
 51
270.0
  0
ARC
  5
142
  8
DATA
  6
CONTINUOUS
 62
     7
 10
-1339.0
 20
-1870.25
 30
0.0
 40
11.5
 50
270.0000000000011
 51
89.99999999999889
  0
LINE
  5
143
  8
DATA
  6
CONTINUOUS
 62
     7
 10
-1339.0
 20
-1858.75
 30
0.0
 11
-1402.0
 21
-1858.75
 31
0.0
  0
LINE
  5
144
  8
DATA
  6
CONTINUOUS
 62
     7
 10
-1402.0
 20
-1881.75
 30
0.0
 11
-1339.0
 21
-1881.75
 31
0.0
  0
LINE
  5
145
  8
DATA
  6
CONTINUOUS
 62
     7
 10
13.75000000000011
 20
-954.5
 30
0.0
 11
13.75000000000011
 21
-957.0
 31
0.0
  0
LINE
  5
146
  8
DATA
  6
CONTINUOUS
 62
     7
 10
39.75000000000011
 20
-957.0
 30
0.0
 11
39.75000000000011
 21
-954.5
 31
0.0
  0
LINE
  5
147
  8
DATA
  6
CONTINUOUS
 62
     7
 10
38.25000000000011
 20
-958.5
 30
0.0
 11
15.25000000000011
 21
-958.5
 31
0.0
  0
LINE
  5
148
  8
DATA
  6
CONTINUOUS
 62
     7
 10
38.25000000000011
 20
-958.5
 30
0.0
 11
39.75000000000011
 21
-957.0
 31
0.0
  0
LINE
  5
149
  8
DATA
  6
CONTINUOUS
 62
     7
 10
15.25000000000011
 20
-958.5
 30
0.0
 11
13.75000000000011
 21
-957.0
 31
0.0
  0
LINE
  5
14A
  8
DATA
  6
CONTINUOUS
 62
     7
 10
557.2500000000001
 20
-957.0
 30
0.0
 11
557.2500000000001
 21
-954.5
 31
0.0
  0
LINE
  5
14B
  8
DATA
  6
CONTINUOUS
 62
     7
 10
583.25
 20
-957.0
 30
0.0
 11
583.25
 21
-954.5
 31
0.0
  0
LINE
  5
14C
  8
DATA
  6
CONTINUOUS
 62
     7
 10
583.25
 20
-957.0
 30
0.0
 11
581.75
 21
-958.5
 31
0.0
  0
LINE
  5
14D
  8
DATA
  6
CONTINUOUS
 62
     7
 10
581.75
 20
-958.5
 30
0.0
 11
558.7500000000001
 21
-958.5
 31
0.0
  0
LINE
  5
14E
  8
DATA
  6
CONTINUOUS
 62
     7
 10
558.7500000000001
 20
-958.5
 30
0.0
 11
557.2500000000001
 21
-957.0
 31
0.0
  0
LINE
  5
14F
  8
DATA
  6
CONTINUOUS
 62
     7
 10
-1326.0
 20
-957.0000000000001
 30
0.0
 11
-1326.0
 21
-954.5
 31
0.0
  0
LINE
  5
150
  8
DATA
  6
CONTINUOUS
 62
     7
 10
-1415.0
 20
-957.0000000000001
 30
0.0
 11
-1415.0
 21
-954.5
 31
0.0
  0
LINE
  5
151
  8
DATA
  6
CONTINUOUS
 62
     7
 10
-1415.0
 20
-957.0000000000001
 30
0.0
 11
-1413.5
 21
-958.5000000000001
 31
0.0
  0
LINE
  5
152
  8
DATA
  6
CONTINUOUS
 62
     7
 10
-1327.5
 20
-958.5000000000001
 30
0.0
 11
-1413.5
 21
-958.5000000000001
 31
0.0
  0
LINE
  5
153
  8
DATA
  6
CONTINUOUS
 62
     7
 10
-1327.5
 20
-958.5000000000001
 30
0.0
 11
-1326.0
 21
-957.0000000000001
 31
0.0
  0
ARC
  5
154
  8
DATA
  6
CONTINUOUS
 62
     7
 10
194.5154559457987
 20
-779.7687000000008
 30
0.0
 40
21.53867275718221
 50
270.0
 51
350.1233474470973
  0
ARC
  5
155
  8
DATA
  6
CONTINUOUS
 62
     7
 10
-263.640800000001
 20
-700.0000000000003
 30
0.0
 40
485.2452819394993
 50
350.1233474470973
 51
9.876652552902726
  0
ARC
  5
156
  8
DATA
  6
CONTINUOUS
 62
     7
 10
194.5154559457987
 20
-779.7687000000008
 30
0.0
 40
20.19668193949838
 50
270.0
 51
350.123347447098
  0
ARC
  5
157
  8
DATA
  6
CONTINUOUS
 62
     7
 10
-263.640800000001
 20
-700.0000000000003
 30
0.0
 40
486.5872727571833
 50
350.1233474470972
 51
9.87665255290267
  0
ARC
  5
158
  8
DATA
  6
CONTINUOUS
 62
     7
 10
194.5154559457987
 20
-620.2313000000007
 30
0.0
 40
21.53867275718394
 50
9.876652552902666
 51
90.0
  0
ARC
  5
159
  8
DATA
  6
CONTINUOUS
 62
     7
 10
194.5154559457987
 20
-620.2313000000007
 30
0.0
 40
20.19668193949816
 50
9.876652552901964
 51
89.99999999999999
  0
ARC
  5
15A
  8
DATA
  6
CONTINUOUS
 62
     7
 10
75.05174405420621
 20
-620.2313000000007
 30
0.0
 40
20.19668193949838
 50
90.0
 51
170.123347447098
  0
ARC
  5
15B
  8
DATA
  6
CONTINUOUS
 62
     7
 10
533.2080000000025
 20
-700.0000000000003
 30
0.0
 40
485.2452819394976
 50
170.1233474470972
 51
189.8766525529026
  0
ARC
  5
15C
  8
DATA
  6
CONTINUOUS
 62
     7
 10
75.05174405420621
 20
-779.7687000000008
 30
0.0
 40
20.19668193949816
 50
189.876652552902
 51
270.0
  0
ARC
  5
15D
  8
DATA
  6
CONTINUOUS
 62
     7
 10
75.05174405420621
 20
-779.7687000000008
 30
0.0
 40
21.53867275718394
 50
189.8766525529027
 51
270.0
  0
ARC
  5
15E
  8
DATA
  6
CONTINUOUS
 62
     7
 10
75.05174405420621
 20
-620.2313000000007
 30
0.0
 40
21.53867275718221
 50
90.0
 51
170.1233474470965
  0
ARC
  5
15F
  8
DATA
  6
CONTINUOUS
 62
     7
 10
533.2080000000025
 20
-700.0000000000003
 30
0.0
 40
486.5872727571833
 50
170.1233474470974
 51
189.8766525529027
  0
LINE
  5
160
  8
DATA
  6
CONTINUOUS
 62
     7
 10
194.5154605060634
 20
-801.3073697686198
 30
0.0
 11
75.05174852905839
 21
-801.3073697686198
 31
0.0
  0
LINE
  5
161
  8
DATA
  6
CONTINUOUS
 62
     7
 10
75.05174852905839
 20
-600.0346213579181
 30
0.0
 11
194.5154605060634
 21
-600.0346213579181
 31
0.0
  0
LINE
  5
162
  8
DATA
  6
CONTINUOUS
 62
     7
 10
194.5154605060634
 20
-799.9653786420824
 30
0.0
 11
75.05174852905839
 21
-799.9653786420824
 31
0.0
  0
LINE
  5
163
  8
DATA
  6
CONTINUOUS
 62
     7
 10
75.05174852905839
 20
-598.6926302313808
 30
0.0
 11
194.5154605060634
 21
-598.6926302313808
 31
0.0
  0
ARC
  5
164
  8
DATA
  6
CONTINUOUS
 62
     7
 10
588.9547279613057
 20
-692.5176467071644
 30
0.0
 40
539.7094508441738
 50
185.6436230689411
 51
189.6455291444132
  0
LINE
  5
165
  8
DATA
  6
CONTINUOUS
 62
     7
 10
69.9601184306739
 20
-760.7099659981725
 30
0.0
 11
68.7948517453624
 21
-745.5930000283904
 31
0.0
  0
ARC
  5
166
  8
DATA
  6
CONTINUOUS
 62
     7
 10
174.7783784183043
 20
-743.2090185439404
 30
0.0
 40
25.88860131824323
 50
357.8151163703995
 51
89.85472448275516
  0
ARC
  5
167
  8
DATA
  6
CONTINUOUS
 62
     7
 10
176.0024001326669
 20
-677.0919534890666
 30
0.0
 40
25.92850722283323
 50
267.4394052019447
 51
2.119311671480659
  0
ARC
  5
168
  8
DATA
  6
CONTINUOUS
 62
     7
 10
-324.0938419165582
 20
-698.7259206771994
 30
0.0
 40
543.9317926115366
 50
355.2047525702559
 51
2.380529313001318
  0
ARC
  5
169
  8
DATA
  6
CONTINUOUS
 62
     7
 10
94.78882158169722
 20
-743.2090185439404
 30
0.0
 40
25.88860131824333
 50
90.14527551724483
 51
182.1848836296005
  0
ARC
  5
16A
  8
DATA
  6
CONTINUOUS
 62
     7
 10
93.56479986733439
 20
-677.0919534890666
 30
0.0
 40
25.92850722283293
 50
177.8806883285193
 51
272.5605947980558
  0
ARC
  5
16B
  8
DATA
  6
CONTINUOUS
 62
     7
 10
593.6610419165595
 20
-698.7259206771994
 30
0.0
 40
543.9317926115364
 50
177.6194706869987
 51
184.7952474297441
  0
ARC
  5
16C
  8
DATA
  6
CONTINUOUS
 62
     7
 10
-963.8391086737529
 20
-729.5624728639198
 30
0.0
 40
1166.943064345941
 50
2.693360688370301
 51
4.436783100338477
  0
ARC
  5
16D
  8
DATA
  6
CONTINUOUS
 62
     7
 10
173.6516414943501
 20
-637.9224179397678
 30
0.0
 40
24.95805891091593
 50
23.18747601276717
 51
79.98070512783751
  0
ARC
  5
16E
  8
DATA
  6
CONTINUOUS
 62
     7
 10
194.5139236365478
 20
-620.2168942506927
 30
0.0
 40
18.45154516608749
 50
9.873803261286755
 51
90.00445412948628
  0
ARC
  5
16F
  8
DATA
  6
CONTINUOUS
 62
     7
 10
-324.9589062368718
 20
-706.9183117495006
 30
0.0
 40
545.1095964741877
 50
3.385557800014803
 51
9.48896270631052
  0
LINE
  5
170
  8
DATA
  6
CONTINUOUS
 62
     7
 10
175.4130802003983
 20
-613.1817570330057
 30
0.0
 11
175.8696075626685
 21
-613.1840932486183
 31
0.0
  0
ARC
  5
171
  8
DATA
  6
CONTINUOUS
 62
     7
 10
176.9136883740036
 20
-613.5026534466518
 30
0.0
 40
1.091597609176655
 50
8.304543616857215
 51
163.0324929230455
  0
ARC
  5
172
  8
DATA
  6
CONTINUOUS
 62
     7
 10
167.3388206703942
 20
-641.9733272566563
 30
0.0
 40
32.37962611548419
 50
4.755732121317752
 51
25.3787697085711
  0
ARC
  5
173
  8
DATA
  6
CONTINUOUS
 62
     7
 10
1233.406308673853
 20
-729.5624728639198
 30
0.0
 40
1166.94306434594
 50
175.5632168996615
 51
177.3066393116297
  0
ARC
  5
174
  8
DATA
  6
CONTINUOUS
 62
     7
 10
95.91555850575105
 20
-637.9224179397678
 30
0.0
 40
24.95805891091578
 50
100.0192948721625
 51
156.8125239872329
  0
ARC
  5
175
  8
DATA
  6
CONTINUOUS
 62
     7
 10
75.05327636355332
 20
-620.2168942506927
 30
0.0
 40
18.45154516608789
 50
89.99554587051371
 51
170.1261967387131
  0
ARC
  5
176
  8
DATA
  6
CONTINUOUS
 62
     7
 10
594.5261062369727
 20
-706.9183117495006
 30
0.0
 40
545.1095964741871
 50
170.5110372936895
 51
176.6144421999852
  0
LINE
  5
177
  8
DATA
  6
CONTINUOUS
 62
     7
 10
68.79485174532783
 20
-745.5930000278775
 30
0.0
 11
51.86134855656655
 21
-745.5930000278775
 31
0.0
  0
LINE
  5
178
  8
DATA
  6
CONTINUOUS
 62
     7
 10
94.72318016885038
 20
-717.3205004438275
 30
0.0
 11
94.72318016885038
 21
-702.9945719258496
 31
0.0
  0
LINE
  5
179
  8
DATA
  6
CONTINUOUS
 62
     7
 10
174.8440198311455
 20
-702.9945719258492
 30
0.0
 11
174.8440198311455
 21
-717.3205004438275
 31
0.0
  0
LINE
  5
17A
  8
DATA
  6
CONTINUOUS
 62
     7
 10
50.36786489729366
 20
-674.7270000278761
 30
0.0
 11
67.75233499901333
 21
-674.7270000278766
 31
0.0
  0
LINE
  5
17B
  8
DATA
  6
CONTINUOUS
 62
     7
 10
75.05471077150833
 20
-601.7653491403584
 30
0.0
 11
194.5124892284894
 21
-601.7653491403574
 31
0.0
  0
LINE
  5
17C
  8
DATA
  6
CONTINUOUS
 62
     7
 10
174.5346000000027
 20
-717.3205004438275
 30
0.0
 11
95.03259999999864
 21
-717.3205004438275
 31
0.0
  0
LINE
  5
17D
  8
DATA
  6
CONTINUOUS
 62
     7
 10
95.03259999999864
 20
-702.9994996119246
 30
0.0
 11
174.5346000000009
 21
-702.9994996119246
 31
0.0
  0
LINE
  5
17E
  8
DATA
  6
CONTINUOUS
 62
     7
 10
50.19866085883314
 20
-676.1331034849388
 30
0.0
 11
67.6540281020225
 21
-676.1331034849388
 31
0.0
  0
LINE
  5
17F
  8
DATA
  6
CONTINUOUS
 62
     7
 10
174.5346000000009
 20
-702.9994996119242
 30
0.0
 11
174.5346000000009
 21
-717.3205004438275
 31
0.0
  0
LINE
  5
180
  8
DATA
  6
CONTINUOUS
 62
     7
 10
175.4130802003983
 20
-613.1795621209056
 30
0.0
 11
94.15411979970304
 21
-613.1817570330057
 31
0.0
  0
LINE
  5
181
  8
DATA
  6
CONTINUOUS
 62
     7
 10
194.5124892284894
 20
-798.2346509153952
 30
0.0
 11
75.05471077150833
 21
-798.2346509153952
 31
0.0
  0
LINE
  5
182
  8
DATA
  6
CONTINUOUS
 62
     7
 10
94.15379458225107
 20
-786.8204377111076
 30
0.0
 11
175.4134054177466
 21
-786.8204377111076
 31
0.0
  0
LINE
  5
183
  8
DATA
  6
CONTINUOUS
 62
     7
 10
68.91904103053457
 20
-744.1960000278762
 30
0.0
 11
51.63312114360815
 21
-744.1960000278762
 31
0.0
  0
LINE
  5
184
  8
DATA
  6
CONTINUOUS
 62
     7
 10
200.7723482546699
 20
-745.5930000278775
 30
0.0
 11
217.7058514434302
 21
-745.5930000278775
 31
0.0
  0
LINE
  5
185
  8
DATA
  6
CONTINUOUS
 62
     7
 10
219.1993351027031
 20
-674.7270000278761
 30
0.0
 11
201.8148650009825
 21
-674.7270000278761
 31
0.0
  0
LINE
  5
186
  8
DATA
  6
CONTINUOUS
 62
     7
 10
95.03260000000046
 20
-702.9994996119246
 30
0.0
 11
95.03260000000046
 21
-717.3205004438275
 31
0.0
  0
LINE
  5
187
  8
DATA
  6
CONTINUOUS
 62
     7
 10
94.15411979970304
 20
-613.1817570330057
 30
0.0
 11
93.69759243743283
 21
-613.1840932486183
 31
0.0
  0
ARC
  5
188
  8
DATA
  6
CONTINUOUS
 62
     7
 10
92.6535116260975
 20
-613.5026534466518
 30
0.0
 40
1.091597609176704
 50
16.96750707695444
 51
171.6954563831428
  0
ARC
  5
189
  8
DATA
  6
CONTINUOUS
 62
     7
 10
102.228379329707
 20
-641.9733272566563
 30
0.0
 40
32.37962611548417
 50
154.6212302914289
 51
175.2442678786822
  0
LINE
  5
18A
  8
DATA
  6
CONTINUOUS
 62
     7
 10
94.15379458326606
 20
-786.8204375046287
 30
0.0
 11
94.00126587994419
 21
-786.8196870854288
 31
0.0
  0
LINE
  5
18B
  8
DATA
  6
CONTINUOUS
 62
     7
 10
94.00126587994419
 20
-786.8200623466485
 30
0.0
 11
94.15379458275675
 21
-786.8204376078681
 31
0.0
  0
CIRCLE
  5
18C
  8
DATA
  6
CONTINUOUS
 62
     7
 10
58.58359999972527
 20
-687.300000027876
 30
0.0
 40
4.5
  0
LINE
  5
18D
  8
DATA
  6
CONTINUOUS
 62
     7
 10
217.9349142293395
 20
-744.1868965708129
 30
0.0
 11
200.6481589694631
 21
-744.1868965708134
 31
0.0
  0
LINE
  5
18E
  8
DATA
  6
CONTINUOUS
 62
     7
 10
201.9131718979734
 20
-676.1240000278747
 30
0.0
 11
219.3680892268403
 21
-676.1240000278747
 31
0.0
  0
ARC
  5
18F
  8
DATA
  6
CONTINUOUS
 62
     7
 10
92.89945086966304
 20
-786.5450751579453
 30
0.0
 40
1.049908630883108
 50
187.937146570698
 51
298.2533860674835
  0
ARC
  5
190
  8
DATA
  6
CONTINUOUS
 62
     7
 10
92.69852531916194
 20
-786.2142581916194
 30
0.0
 40
1.436550421728076
 50
299.0908596461682
 51
335.0740663390299
  0
ARC
  5
191
  8
DATA
  6
CONTINUOUS
 62
     7
 10
95.56985498383051
 20
-762.5091321064062
 30
0.0
 40
24.46391124298196
 50
204.429306749262
 51
261.2767243312147
  0
ARC
  5
192
  8
DATA
  6
CONTINUOUS
 62
     7
 10
104.666278436991
 20
-757.4194542713906
 30
0.0
 40
34.86179871733776
 50
185.4160573399967
 51
205.862599887676
  0
ARC
  5
193
  8
DATA
  6
CONTINUOUS
 62
     7
 10
75.09582638687311
 20
-779.7325059330362
 30
0.0
 40
18.50219066602806
 50
190.0055803204865
 51
269.8726770676042
  0
ARC
  5
194
  8
DATA
  6
CONTINUOUS
 62
     7
 10
-319.3875279613085
 20
-692.517646707164
 30
0.0
 40
539.7094508441743
 50
350.3544708555868
 51
354.3563769310589
  0
LINE
  5
195
  8
DATA
  6
CONTINUOUS
 62
     7
 10
199.6070815693238
 20
-760.709965998172
 30
0.0
 11
200.7723482546353
 21
-745.59300002839
 31
0.0
  0
LINE
  5
196
  8
DATA
  6
CONTINUOUS
 62
     7
 10
175.4134054167316
 20
-786.8204375046282
 30
0.0
 11
175.5659341200535
 21
-786.8196870854283
 31
0.0
  0
LINE
  5
197
  8
DATA
  6
CONTINUOUS
 62
     7
 10
175.5659341200535
 20
-786.820062346648
 30
0.0
 11
175.4134054172409
 21
-786.8204376078677
 31
0.0
  0
ARC
  5
198
  8
DATA
  6
CONTINUOUS
 62
     7
 10
176.6677491303344
 20
-786.5450751579449
 30
0.0
 40
1.049908630882979
 50
241.7466139325275
 51
352.0628534293036
  0
ARC
  5
199
  8
DATA
  6
CONTINUOUS
 62
     7
 10
176.8686746808357
 20
-786.2142581916189
 30
0.0
 40
1.436550421727864
 50
204.9259336609701
 51
240.9091403538319
  0
ARC
  5
19A
  8
DATA
  6
CONTINUOUS
 62
     7
 10
173.9973450161669
 20
-762.5091321064058
 30
0.0
 40
24.46391124298182
 50
278.7232756687858
 51
335.5706932507383
  0
ARC
  5
19B
  8
DATA
  6
CONTINUOUS
 62
     7
 10
164.9009215630067
 20
-757.4194542713901
 30
0.0
 40
34.8617987173378
 50
334.137400112324
 51
354.5839426600032
  0
ARC
  5
19C
  8
DATA
  6
CONTINUOUS
 62
     7
 10
194.4713736131243
 20
-779.7325059330358
 30
0.0
 40
18.50219066602806
 50
270.1273229323965
 51
349.9944196795136
  0
TEXT
  5
19D
  8
DATA
 62
     7
 10
105.1386911458335
 20
-715.0465234653761
 30
0.0
 40
9.773046875000002
  1
VTXSERIES
 41
0.7
 72
     1
 11
134.7836000000002
 21
-710.1600000278761
 31
0.0
 73
     2
  0
ARC
  5
19E
  8
DATA
  6
CONTINUOUS
 62
     7
 10
58.58359999997879
 20
-685.8592886329037
 30
0.0
 40
0.1892886329077032
 50
359.0566788815885
 51
180.9433209280187
  0
ARC
  5
19F
  8
DATA
  6
CONTINUOUS
 62
     7
 10
57.72041580689495
 20
-685.8049211212817
 30
0.0
 40
0.6763683861878549
 50
244.8753886700303
 51
355.1246113518736
  0
ARC
  5
1A0
  8
DATA
  6
CONTINUOUS
 62
     7
 10
57.33590735657401
 20
-686.5796443164812
 30
0.0
 40
0.1892886329077201
 50
59.05667888161861
 51
240.9433209280057
  0
ARC
  5
1A1
  8
DATA
  6
CONTINUOUS
 62
     7
 10
56.8572316138268
 20
-687.3000000000259
 30
0.0
 40
0.6763683861880335
 50
304.8753886700316
 51
55.1246113518647
  0
ARC
  5
1A2
  8
DATA
  6
CONTINUOUS
 62
     7
 10
58.58359999997879
 20
-688.7407113670881
 30
0.0
 40
0.1892886329078051
 50
179.0566790720157
 51
0.9433211183770994
  0
ARC
  5
1A3
  8
DATA
  6
CONTINUOUS
 62
     7
 10
57.72041580689495
 20
-688.7950788787102
 30
0.0
 40
0.6763683861878202
 50
4.87538864812643
 51
115.1246113299656
  0
ARC
  5
1A4
  8
DATA
  6
CONTINUOUS
 62
     7
 10
57.33590735657401
 20
-688.0203556835106
 30
0.0
 40
0.1892886329075887
 50
119.056679072011
 51
300.9433211183637
  0
ARC
  5
1A5
  8
DATA
  6
CONTINUOUS
 62
     7
 10
59.44678419306251
 20
-685.8049211212817
 30
0.0
 40
0.6763683861879335
 50
184.8753886481256
 51
295.1246113299698
  0
ARC
  5
1A6
  8
DATA
  6
CONTINUOUS
 62
     7
 10
59.83129264338345
 20
-686.5796443164812
 30
0.0
 40
0.1892886329076881
 50
299.0566790719943
 51
120.9433211183814
  0
ARC
  5
1A7
  8
DATA
  6
CONTINUOUS
 62
     7
 10
60.30996838613055
 20
-687.3000000000259
 30
0.0
 40
0.6763683861878241
 50
124.8753886481274
 51
235.1246113299765
  0
ARC
  5
1A8
  8
DATA
  6
CONTINUOUS
 62
     7
 10
59.44678419306251
 20
-688.7950788787102
 30
0.0
 40
0.6763683861879578
 50
64.8753886700344
 51
175.1246113518744
  0
ARC
  5
1A9
  8
DATA
  6
CONTINUOUS
 62
     7
 10
59.83129264338345
 20
-688.0203556835106
 30
0.0
 40
0.1892886329078176
 50
239.0566788816363
 51
60.94332092798906
  0
CIRCLE
  5
1AA
  8
DATA
  6
CONTINUOUS
 62
     7
 10
72.55359999972643
 20
-611.1000000278807
 30
0.0
 40
4.5
  0
ARC
  5
1AB
  8
DATA
  6
CONTINUOUS
 62
     7
 10
72.55359999997995
 20
-609.6592886329084
 30
0.0
 40
0.1892886329077032
 50
359.0566788815885
 51
180.9433209280187
  0
ARC
  5
1AC
  8
DATA
  6
CONTINUOUS
 62
     7
 10
71.69041580689611
 20
-609.6049211212865
 30
0.0
 40
0.6763683861878549
 50
244.8753886700303
 51
355.1246113518736
  0
ARC
  5
1AD
  8
DATA
  6
CONTINUOUS
 62
     7
 10
71.30590735657518
 20
-610.379644316486
 30
0.0
 40
0.1892886329077201
 50
59.05667888161861
 51
240.9433209280057
  0
ARC
  5
1AE
  8
DATA
  6
CONTINUOUS
 62
     7
 10
70.82723161382796
 20
-611.1000000000306
 30
0.0
 40
0.6763683861880335
 50
304.8753886700316
 51
55.1246113518647
  0
ARC
  5
1AF
  8
DATA
  6
CONTINUOUS
 62
     7
 10
72.55359999997995
 20
-612.5407113670929
 30
0.0
 40
0.1892886329078051
 50
179.0566790720157
 51
0.9433211183770994
  0
ARC
  5
1B0
  8
DATA
  6
CONTINUOUS
 62
     7
 10
71.69041580689611
 20
-612.595078878715
 30
0.0
 40
0.6763683861878202
 50
4.87538864812643
 51
115.1246113299656
  0
ARC
  5
1B1
  8
DATA
  6
CONTINUOUS
 62
     7
 10
71.30590735657518
 20
-611.8203556835153
 30
0.0
 40
0.1892886329075887
 50
119.056679072011
 51
300.9433211183637
  0
ARC
  5
1B2
  8
DATA
  6
CONTINUOUS
 62
     7
 10
73.41678419306368
 20
-609.6049211212865
 30
0.0
 40
0.6763683861879335
 50
184.8753886481256
 51
295.1246113299698
  0
ARC
  5
1B3
  8
DATA
  6
CONTINUOUS
 62
     7
 10
73.80129264338461
 20
-610.379644316486
 30
0.0
 40
0.1892886329076881
 50
299.0566790719943
 51
120.9433211183814
  0
ARC
  5
1B4
  8
DATA
  6
CONTINUOUS
 62
     7
 10
74.27996838613171
 20
-611.1000000000306
 30
0.0
 40
0.6763683861878241
 50
124.8753886481274
 51
235.1246113299765
  0
ARC
  5
1B5
  8
DATA
  6
CONTINUOUS
 62
     7
 10
73.41678419306368
 20
-612.595078878715
 30
0.0
 40
0.6763683861879578
 50
64.8753886700344
 51
175.1246113518744
  0
ARC
  5
1B6
  8
DATA
  6
CONTINUOUS
 62
     7
 10
73.80129264338461
 20
-611.8203556835153
 30
0.0
 40
0.1892886329078176
 50
239.0566788816363
 51
60.94332092798906
  0
CIRCLE
  5
1B7
  8
DATA
  6
CONTINUOUS
 62
     7
 10
197.013600000002
 20
-611.1000000000007
 30
0.0
 40
4.5
  0
ARC
  5
1B8
  8
DATA
  6
CONTINUOUS
 62
     7
 10
197.0136000002556
 20
-609.6592886050285
 30
0.0
 40
0.1892886329077032
 50
359.0566788815885
 51
180.9433209280187
  0
ARC
  5
1B9
  8
DATA
  6
CONTINUOUS
 62
     7
 10
196.1504158071717
 20
-609.6049210934065
 30
0.0
 40
0.6763683861878549
 50
244.8753886700303
 51
355.1246113518736
  0
ARC
  5
1BA
  8
DATA
  6
CONTINUOUS
 62
     7
 10
195.7659073568508
 20
-610.379644288606
 30
0.0
 40
0.1892886329077201
 50
59.05667888161861
 51
240.9433209280057
  0
ARC
  5
1BB
  8
DATA
  6
CONTINUOUS
 62
     7
 10
195.2872316141036
 20
-611.0999999721506
 30
0.0
 40
0.6763683861880335
 50
304.8753886700316
 51
55.1246113518647
  0
ARC
  5
1BC
  8
DATA
  6
CONTINUOUS
 62
     7
 10
197.0136000002556
 20
-612.5407113392129
 30
0.0
 40
0.1892886329078051
 50
179.0566790720157
 51
0.9433211183770994
  0
ARC
  5
1BD
  8
DATA
  6
CONTINUOUS
 62
     7
 10
196.1504158071717
 20
-612.595078850835
 30
0.0
 40
0.6763683861878202
 50
4.87538864812643
 51
115.1246113299656
  0
ARC
  5
1BE
  8
DATA
  6
CONTINUOUS
 62
     7
 10
195.7659073568508
 20
-611.8203556556354
 30
0.0
 40
0.1892886329075887
 50
119.056679072011
 51
300.9433211183637
  0
ARC
  5
1BF
  8
DATA
  6
CONTINUOUS
 62
     7
 10
197.8767841933393
 20
-609.6049210934065
 30
0.0
 40
0.6763683861879335
 50
184.8753886481256
 51
295.1246113299698
  0
ARC
  5
1C0
  8
DATA
  6
CONTINUOUS
 62
     7
 10
198.2612926436602
 20
-610.379644288606
 30
0.0
 40
0.1892886329076881
 50
299.0566790719943
 51
120.9433211183814
  0
ARC
  5
1C1
  8
DATA
  6
CONTINUOUS
 62
     7
 10
198.7399683864073
 20
-611.0999999721506
 30
0.0
 40
0.6763683861878241
 50
124.8753886481274
 51
235.1246113299765
  0
ARC
  5
1C2
  8
DATA
  6
CONTINUOUS
 62
     7
 10
197.8767841933393
 20
-612.595078850835
 30
0.0
 40
0.6763683861879578
 50
64.8753886700344
 51
175.1246113518744
  0
ARC
  5
1C3
  8
DATA
  6
CONTINUOUS
 62
     7
 10
198.2612926436602
 20
-611.8203556556354
 30
0.0
 40
0.1892886329078176
 50
239.0566788816363
 51
60.94332092798906
  0
CIRCLE
  5
1C4
  8
DATA
  6
CONTINUOUS
 62
     7
 10
210.9836000000032
 20
-687.2999999999951
 30
0.0
 40
4.5
  0
ARC
  5
1C5
  8
DATA
  6
CONTINUOUS
 62
     7
 10
210.9836000002567
 20
-685.8592886050228
 30
0.0
 40
0.1892886329077032
 50
359.0566788815885
 51
180.9433209280187
  0
ARC
  5
1C6
  8
DATA
  6
CONTINUOUS
 62
     7
 10
210.1204158071729
 20
-685.8049210934008
 30
0.0
 40
0.6763683861878549
 50
244.8753886700303
 51
355.1246113518736
  0
ARC
  5
1C7
  8
DATA
  6
CONTINUOUS
 62
     7
 10
209.735907356852
 20
-686.5796442886003
 30
0.0
 40
0.1892886329077201
 50
59.05667888161861
 51
240.9433209280057
  0
ARC
  5
1C8
  8
DATA
  6
CONTINUOUS
 62
     7
 10
209.2572316141047
 20
-687.299999972145
 30
0.0
 40
0.6763683861880335
 50
304.8753886700316
 51
55.1246113518647
  0
ARC
  5
1C9
  8
DATA
  6
CONTINUOUS
 62
     7
 10
210.9836000002567
 20
-688.7407113392072
 30
0.0
 40
0.1892886329078051
 50
179.0566790720157
 51
0.9433211183770994
  0
ARC
  5
1CA
  8
DATA
  6
CONTINUOUS
 62
     7
 10
210.1204158071729
 20
-688.7950788508293
 30
0.0
 40
0.6763683861878202
 50
4.87538864812643
 51
115.1246113299656
  0
ARC
  5
1CB
  8
DATA
  6
CONTINUOUS
 62
     7
 10
209.735907356852
 20
-688.0203556556297
 30
0.0
 40
0.1892886329075887
 50
119.056679072011
 51
300.9433211183637
  0
ARC
  5
1CC
  8
DATA
  6
CONTINUOUS
 62
     7
 10
211.8467841933405
 20
-685.8049210934008
 30
0.0
 40
0.6763683861879335
 50
184.8753886481256
 51
295.1246113299698
  0
ARC
  5
1CD
  8
DATA
  6
CONTINUOUS
 62
     7
 10
212.2312926436614
 20
-686.5796442886003
 30
0.0
 40
0.1892886329076881
 50
299.0566790719943
 51
120.9433211183814
  0
ARC
  5
1CE
  8
DATA
  6
CONTINUOUS
 62
     7
 10
212.7099683864085
 20
-687.299999972145
 30
0.0
 40
0.6763683861878241
 50
124.8753886481274
 51
235.1246113299765
  0
ARC
  5
1CF
  8
DATA
  6
CONTINUOUS
 62
     7
 10
211.8467841933405
 20
-688.7950788508293
 30
0.0
 40
0.6763683861879578
 50
64.8753886700344
 51
175.1246113518744
  0
ARC
  5
1D0
  8
DATA
  6
CONTINUOUS
 62
     7
 10
212.2312926436614
 20
-688.0203556556297
 30
0.0
 40
0.1892886329078176
 50
239.0566788816363
 51
60.94332092798906
  0
CIRCLE
  5
1D1
  8
DATA
  6
CONTINUOUS
 62
     7
 10
210.9836000002763
 20
-733.0200000278521
 30
0.0
 40
4.5
  0
ARC
  5
1D2
  8
DATA
  6
CONTINUOUS
 62
     7
 10
210.9836000005298
 20
-731.5792886328799
 30
0.0
 40
0.1892886329077032
 50
359.0566788815885
 51
180.9433209280187
  0
ARC
  5
1D3
  8
DATA
  6
CONTINUOUS
 62
     7
 10
210.120415807446
 20
-731.5249211212579
 30
0.0
 40
0.6763683861878549
 50
244.8753886700303
 51
355.1246113518736
  0
ARC
  5
1D4
  8
DATA
  6
CONTINUOUS
 62
     7
 10
209.735907357125
 20
-732.2996443164574
 30
0.0
 40
0.1892886329077201
 50
59.05667888161861
 51
240.9433209280057
  0
ARC
  5
1D5
  8
DATA
  6
CONTINUOUS
 62
     7
 10
209.2572316143778
 20
-733.020000000002
 30
0.0
 40
0.6763683861880335
 50
304.8753886700316
 51
55.1246113518647
  0
ARC
  5
1D6
  8
DATA
  6
CONTINUOUS
 62
     7
 10
210.9836000005298
 20
-734.4607113670643
 30
0.0
 40
0.1892886329078051
 50
179.0566790720157
 51
0.9433211183770994
  0
ARC
  5
1D7
  8
DATA
  6
CONTINUOUS
 62
     7
 10
210.120415807446
 20
-734.5150788786864
 30
0.0
 40
0.6763683861878202
 50
4.87538864812643
 51
115.1246113299656
  0
ARC
  5
1D8
  8
DATA
  6
CONTINUOUS
 62
     7
 10
209.735907357125
 20
-733.7403556834868
 30
0.0
 40
0.1892886329075887
 50
119.056679072011
 51
300.9433211183637
  0
ARC
  5
1D9
  8
DATA
  6
CONTINUOUS
 62
     7
 10
211.8467841936135
 20
-731.5249211212579
 30
0.0
 40
0.6763683861879335
 50
184.8753886481256
 51
295.1246113299698
  0
ARC
  5
1DA
  8
DATA
  6
CONTINUOUS
 62
     7
 10
212.2312926439345
 20
-732.2996443164574
 30
0.0
 40
0.1892886329076881
 50
299.0566790719943
 51
120.9433211183814
  0
ARC
  5
1DB
  8
DATA
  6
CONTINUOUS
 62
     7
 10
212.7099683866816
 20
-733.020000000002
 30
0.0
 40
0.6763683861878241
 50
124.8753886481274
 51
235.1246113299765
  0
ARC
  5
1DC
  8
DATA
  6
CONTINUOUS
 62
     7
 10
211.8467841936135
 20
-734.5150788786864
 30
0.0
 40
0.6763683861879578
 50
64.8753886700344
 51
175.1246113518744
  0
ARC
  5
1DD
  8
DATA
  6
CONTINUOUS
 62
     7
 10
212.2312926439345
 20
-733.7403556834868
 30
0.0
 40
0.1892886329078176
 50
239.0566788816363
 51
60.94332092798906
  0
CIRCLE
  5
1DE
  8
DATA
  6
CONTINUOUS
 62
     7
 10
197.013600000002
 20
-788.9000000000017
 30
0.0
 40
4.5
  0
ARC
  5
1DF
  8
DATA
  6
CONTINUOUS
 62
     7
 10
197.0136000002556
 20
-787.4592886050295
 30
0.0
 40
0.1892886329077032
 50
359.0566788815885
 51
180.9433209280187
  0
ARC
  5
1E0
  8
DATA
  6
CONTINUOUS
 62
     7
 10
196.1504158071717
 20
-787.4049210934074
 30
0.0
 40
0.6763683861879578
 50
244.8753886700344
 51
355.124611351864
  0
ARC
  5
1E1
  8
DATA
  6
CONTINUOUS
 62
     7
 10
195.7659073568508
 20
-788.179644288607
 30
0.0
 40
0.1892886329078176
 50
59.0566788816363
 51
240.943320927989
  0
ARC
  5
1E2
  8
DATA
  6
CONTINUOUS
 62
     7
 10
195.2872316141036
 20
-788.8999999721517
 30
0.0
 40
0.6763683861880335
 50
304.8753886700316
 51
55.12461135187021
  0
ARC
  5
1E3
  8
DATA
  6
CONTINUOUS
 62
     7
 10
197.0136000002556
 20
-790.340711339214
 30
0.0
 40
0.1892886329078051
 50
179.0566790720157
 51
0.9433211183770994
  0
ARC
  5
1E4
  8
DATA
  6
CONTINUOUS
 62
     7
 10
196.1504158071717
 20
-790.395078850836
 30
0.0
 40
0.6763683861878106
 50
4.875388648116833
 51
115.1246113299697
  0
ARC
  5
1E5
  8
DATA
  6
CONTINUOUS
 62
     7
 10
195.7659073568508
 20
-789.6203556556364
 30
0.0
 40
0.1892886329076881
 50
119.0566790719942
 51
300.9433211183814
  0
ARC
  5
1E6
  8
DATA
  6
CONTINUOUS
 62
     7
 10
197.8767841933393
 20
-787.4049210934074
 30
0.0
 40
0.6763683861879431
 50
184.8753886481352
 51
295.1246113299656
  0
ARC
  5
1E7
  8
DATA
  6
CONTINUOUS
 62
     7
 10
198.2612926436602
 20
-788.179644288607
 30
0.0
 40
0.1892886329075887
 50
299.056679072011
 51
120.9433211183637
  0
ARC
  5
1E8
  8
DATA
  6
CONTINUOUS
 62
     7
 10
198.7399683864073
 20
-788.8999999721517
 30
0.0
 40
0.6763683861879174
 50
124.8753886481219
 51
235.1246113299765
  0
ARC
  5
1E9
  8
DATA
  6
CONTINUOUS
 62
     7
 10
197.8767841933393
 20
-790.395078850836
 30
0.0
 40
0.6763683861878549
 50
64.8753886700303
 51
175.124611351884
  0
ARC
  5
1EA
  8
DATA
  6
CONTINUOUS
 62
     7
 10
198.2612926436602
 20
-789.6203556556364
 30
0.0
 40
0.1892886329077201
 50
239.0566788816186
 51
60.94332092800577
  0
CIRCLE
  5
1EB
  8
DATA
  6
CONTINUOUS
 62
     7
 10
72.55360000000292
 20
-788.9000000000017
 30
0.0
 40
4.5
  0
ARC
  5
1EC
  8
DATA
  6
CONTINUOUS
 62
     7
 10
72.55360000025644
 20
-787.4592886050295
 30
0.0
 40
0.1892886329077032
 50
359.0566788815885
 51
180.9433209280187
  0
ARC
  5
1ED
  8
DATA
  6
CONTINUOUS
 62
     7
 10
71.6904158071726
 20
-787.4049210934074
 30
0.0
 40
0.6763683861879578
 50
244.8753886700344
 51
355.124611351864
  0
ARC
  5
1EE
  8
DATA
  6
CONTINUOUS
 62
     7
 10
71.30590735685166
 20
-788.179644288607
 30
0.0
 40
0.1892886329078176
 50
59.0566788816363
 51
240.943320927989
  0
ARC
  5
1EF
  8
DATA
  6
CONTINUOUS
 62
     7
 10
70.82723161410445
 20
-788.8999999721517
 30
0.0
 40
0.6763683861880335
 50
304.8753886700316
 51
55.12461135187021
  0
ARC
  5
1F0
  8
DATA
  6
CONTINUOUS
 62
     7
 10
72.55360000025644
 20
-790.340711339214
 30
0.0
 40
0.1892886329078051
 50
179.0566790720157
 51
0.9433211183770994
  0
ARC
  5
1F1
  8
DATA
  6
CONTINUOUS
 62
     7
 10
71.6904158071726
 20
-790.395078850836
 30
0.0
 40
0.6763683861878106
 50
4.875388648116833
 51
115.1246113299697
  0
ARC
  5
1F2
  8
DATA
  6
CONTINUOUS
 62
     7
 10
71.30590735685166
 20
-789.6203556556364
 30
0.0
 40
0.1892886329076881
 50
119.0566790719942
 51
300.9433211183814
  0
ARC
  5
1F3
  8
DATA
  6
CONTINUOUS
 62
     7
 10
73.41678419334016
 20
-787.4049210934074
 30
0.0
 40
0.6763683861879431
 50
184.8753886481352
 51
295.1246113299656
  0
ARC
  5
1F4
  8
DATA
  6
CONTINUOUS
 62
     7
 10
73.8012926436611
 20
-788.179644288607
 30
0.0
 40
0.1892886329075887
 50
299.056679072011
 51
120.9433211183637
  0
ARC
  5
1F5
  8
DATA
  6
CONTINUOUS
 62
     7
 10
74.2799683864082
 20
-788.8999999721517
 30
0.0
 40
0.6763683861879174
 50
124.8753886481219
 51
235.1246113299765
  0
ARC
  5
1F6
  8
DATA
  6
CONTINUOUS
 62
     7
 10
73.41678419334016
 20
-790.395078850836
 30
0.0
 40
0.6763683861878549
 50
64.8753886700303
 51
175.124611351884
  0
ARC
  5
1F7
  8
DATA
  6
CONTINUOUS
 62
     7
 10
73.8012926436611
 20
-789.6203556556364
 30
0.0
 40
0.1892886329077201
 50
239.0566788816186
 51
60.94332092800577
  0
CIRCLE
  5
1F8
  8
DATA
  6
CONTINUOUS
 62
     7
 10
58.58360000000175
 20
-733.0199999999971
 30
0.0
 40
4.5
  0
ARC
  5
1F9
  8
DATA
  6
CONTINUOUS
 62
     7
 10
58.58360000025527
 20
-731.5792886050249
 30
0.0
 40
0.1892886329077032
 50
359.0566788815885
 51
180.9433209280187
  0
ARC
  5
1FA
  8
DATA
  6
CONTINUOUS
 62
     7
 10
57.72041580717143
 20
-731.5249210934029
 30
0.0
 40
0.6763683861878549
 50
244.8753886700303
 51
355.1246113518736
  0
ARC
  5
1FB
  8
DATA
  6
CONTINUOUS
 62
     7
 10
57.3359073568505
 20
-732.2996442886024
 30
0.0
 40
0.1892886329077201
 50
59.05667888161861
 51
240.9433209280057
  0
ARC
  5
1FC
  8
DATA
  6
CONTINUOUS
 62
     7
 10
56.85723161410328
 20
-733.019999972147
 30
0.0
 40
0.6763683861880335
 50
304.8753886700316
 51
55.1246113518647
  0
ARC
  5
1FD
  8
DATA
  6
CONTINUOUS
 62
     7
 10
58.58360000025527
 20
-734.4607113392093
 30
0.0
 40
0.1892886329078051
 50
179.0566790720157
 51
0.9433211183770994
  0
ARC
  5
1FE
  8
DATA
  6
CONTINUOUS
 62
     7
 10
57.72041580717143
 20
-734.5150788508314
 30
0.0
 40
0.6763683861878202
 50
4.87538864812643
 51
115.1246113299656
  0
ARC
  5
1FF
  8
DATA
  6
CONTINUOUS
 62
     7
 10
57.3359073568505
 20
-733.7403556556318
 30
0.0
 40
0.1892886329075887
 50
119.056679072011
 51
300.9433211183637
  0
ARC
  5
200
  8
DATA
  6
CONTINUOUS
 62
     7
 10
59.446784193339
 20
-731.5249210934029
 30
0.0
 40
0.6763683861879335
 50
184.8753886481256
 51
295.1246113299698
  0
ARC
  5
201
  8
DATA
  6
CONTINUOUS
 62
     7
 10
59.83129264365994
 20
-732.2996442886024
 30
0.0
 40
0.1892886329076881
 50
299.0566790719943
 51
120.9433211183814
  0
ARC
  5
202
  8
DATA
  6
CONTINUOUS
 62
     7
 10
60.30996838640704
 20
-733.019999972147
 30
0.0
 40
0.6763683861878241
 50
124.8753886481274
 51
235.1246113299765
  0
ARC
  5
203
  8
DATA
  6
CONTINUOUS
 62
     7
 10
59.446784193339
 20
-734.5150788508314
 30
0.0
 40
0.6763683861879578
 50
64.8753886700344
 51
175.1246113518744
  0
ARC
  5
204
  8
DATA
  6
CONTINUOUS
 62
     7
 10
59.83129264365994
 20
-733.7403556556318
 30
0.0
 40
0.1892886329078176
 50
239.0566788816363
 51
60.94332092798906
  0
ARC
  5
205
  8
DATA
  6
CONTINUOUS
 62
     7
 10
-61.25000000010129
 20
-666.3022356198218
 30
0.0
 40
0.222235619821771
 50
356.8251528744042
 51
183.1748471255959
  0
ARC
  5
206
  8
DATA
  6
CONTINUOUS
 62
     7
 10
-62.28518391597993
 20
-666.2070088624197
 30
0.0
 40
0.8203678318442034
 50
247.5320803524626
 51
352.4679196225455
  0
ARC
  5
207
  8
DATA
  6
CONTINUOUS
 62
     7
 10
-62.72030708297598
 20
-667.1511178099108
 30
0.0
 40
0.2222356198218802
 50
56.8251528744028
 51
243.1748471255947
  0
ARC
  5
208
  8
DATA
  6
CONTINUOUS
 62
     7
 10
-63.32036783194553
 20
-667.9999999999498
 30
0.0
 40
0.8203678318442412
 50
307.5320803524727
 51
52.46791962254449
  0
ARC
  5
209
  8
DATA
  6
CONTINUOUS
 62
     7
 10
-61.25000000010129
 20
-669.6977643801782
 30
0.0
 40
0.222235619821771
 50
176.8251528744042
 51
3.174847125595846
  0
ARC
  5
20A
  8
DATA
  6
CONTINUOUS
 62
     7
 10
-62.28518391597993
 20
-669.7929911375803
 30
0.0
 40
0.8203678318442955
 50
7.532080377454527
 51
112.4679196475374
  0
ARC
  5
20B
  8
DATA
  6
CONTINUOUS
 62
     7
 10
-62.72030708297598
 20
-668.8488821900892
 30
0.0
 40
0.2222356198218723
 50
116.8251528744053
 51
303.1748471255972
  0
ARC
  5
20C
  8
DATA
  6
CONTINUOUS
 62
     7
 10
-60.21481608422278
 20
-666.2070088624197
 30
0.0
 40
0.8203678318441828
 50
187.5320803774555
 51
292.46791964753
  0
ARC
  5
20D
  8
DATA
  6
CONTINUOUS
 62
     7
 10
-59.77969291722673
 20
-667.1511178099108
 30
0.0
 40
0.2222356198218723
 50
296.8251528744053
 51
123.1748471255972
  0
ARC
  5
20E
  8
DATA
  6
CONTINUOUS
 62
     7
 10
-59.17963216825717
 20
-667.9999999999498
 30
0.0
 40
0.8203678318442142
 50
127.5320803774555
 51
232.4679196475335
  0
ARC
  5
20F
  8
DATA
  6
CONTINUOUS
 62
     7
 10
-60.21481608422278
 20
-669.7929911375803
 30
0.0
 40
0.8203678318441598
 50
67.53208035246996
 51
172.4679196225445
  0
ARC
  5
210
  8
DATA
  6
CONTINUOUS
 62
     7
 10
-59.77969291722673
 20
-668.8488821900892
 30
0.0
 40
0.2222356198218802
 50
236.8251528744028
 51
63.17484712559477
  0
CIRCLE
  5
211
  8
DATA
  6
CONTINUOUS
 62
     7
 10
-61.24999999999989
 20
-668.0
 30
0.0
 40
4.0
  0
CIRCLE
  5
212
  8
DATA
  6
CONTINUOUS
 62
     7
 10
-61.24999999999989
 20
-668.0
 30
0.0
 40
6.5
  0
CIRCLE
  5
213
  8
DATA
  6
CONTINUOUS
 62
     7
 10
-53.24999999999989
 20
-640.0
 30
0.0
 40
4.5
  0
ARC
  5
214
  8
DATA
  6
CONTINUOUS
 62
     7
 10
-53.24999999999989
 20
-638.0546449810458
 30
0.0
 40
0.2546449810458838
 50
356.8251528744232
 51
183.1748471255755
  0
ARC
  5
215
  8
DATA
  6
CONTINUOUS
 62
     7
 10
-54.43614823694418
 20
-637.9455309881893
 30
0.0
 40
0.9400048073214472
 50
247.5320803524683
 51
352.4679196225484
  0
ARC
  5
216
  8
DATA
  6
CONTINUOUS
 62
     7
 10
-54.93472686579378
 20
-639.0273224905229
 30
0.0
 40
0.2546449810459151
 50
56.82515287440883
 51
243.1748471255673
  0
ARC
  5
217
  8
DATA
  6
CONTINUOUS
 62
     7
 10
-55.62229647398806
 20
-639.9999999999425
 30
0.0
 40
0.9400048073214778
 50
307.5320803524742
 51
52.46791962254474
  0
ARC
  5
218
  8
DATA
  6
CONTINUOUS
 62
     7
 10
-53.24999999999989
 20
-641.9453550189542
 30
0.0
 40
0.2546449810458838
 50
176.8251528744231
 51
3.17484712557976
  0
ARC
  5
219
  8
DATA
  6
CONTINUOUS
 62
     7
 10
-54.43614823694418
 20
-642.0544690118109
 30
0.0
 40
0.9400048073215113
 50
7.532080377458499
 51
112.4679196475291
  0
ARC
  5
21A
  8
DATA
  6
CONTINUOUS
 62
     7
 10
-54.93472686579378
 20
-640.9726775094771
 30
0.0
 40
0.2546449810458447
 50
116.8251528744099
 51
303.1748471255697
  0
ARC
  5
21B
  8
DATA
  6
CONTINUOUS
 62
     7
 10
-52.06385176305582
 20
-637.9455309881893
 30
0.0
 40
0.9400048073214964
 50
187.5320803774516
 51
292.4679196475381
  0
ARC
  5
21C
  8
DATA
  6
CONTINUOUS
 62
     7
 10
-51.56527313420611
 20
-639.0273224905229
 30
0.0
 40
0.2546449810458447
 50
296.8251528744098
 51
123.1748471255912
  0
ARC
  5
21D
  8
DATA
  6
CONTINUOUS
 62
     7
 10
-50.87770352601183
 20
-639.9999999999425
 30
0.0
 40
0.9400048073215078
 50
127.5320803774553
 51
232.4679196475314
  0
ARC
  5
21E
  8
DATA
  6
CONTINUOUS
 62
     7
 10
-52.06385176305582
 20
-642.0544690118109
 30
0.0
 40
0.9400048073215956
 50
67.53208035246453
 51
172.4679196225415
  0
ARC
  5
21F
  8
DATA
  6
CONTINUOUS
 62
     7
 10
-51.56527313420611
 20
-640.9726775094771
 30
0.0
 40
0.2546449810459151
 50
236.8251528744088
 51
63.17484712559016
  0
CIRCLE
  5
220
  8
DATA
  6
CONTINUOUS
 62
     7
 10
-53.24999999999989
 20
-640.0
 30
0.0
 40
9.5
  0
ARC
  5
221
  8
DATA
  6
CONTINUOUS
 62
     7
 10
-69.04999999999995
 20
-698.5
 30
0.0
 40
3.000000000000057
 50
0.0
 51
180.0
  0
ARC
  5
222
  8
DATA
  6
CONTINUOUS
 62
     7
 10
-69.04999999999995
 20
-701.5
 30
0.0
 40
2.999999999999943
 50
180.0
 51
0.0
  0
LINE
  5
223
  8
DATA
  6
CONTINUOUS
 62
     7
 10
-72.0499999999999
 20
-698.5
 30
0.0
 11
-72.0499999999999
 21
-701.5
 31
0.0
  0
LINE
  5
224
  8
DATA
  6
CONTINUOUS
 62
     7
 10
-66.0499999999999
 20
-701.5
 30
0.0
 11
-66.0499999999999
 21
-698.5
 31
0.0
  0
ARC
  5
225
  8
DATA
  6
CONTINUOUS
 62
     7
 10
-79.65909090909082
 20
-700.0
 30
0.0
 40
14.40909090909085
 50
295.6743258165735
 51
64.32567418342649
  0
ARC
  5
226
  8
DATA
  6
CONTINUOUS
 62
     7
 10
-71.24999999999994
 20
-682.5071443154641
 30
0.0
 40
4.999999999999943
 50
180.0
 51
244.3256741834274
  0
ARC
  5
227
  8
DATA
  6
CONTINUOUS
 62
     7
 10
-71.24999999999994
 20
-717.4928556845359
 30
0.0
 40
4.999999999999959
 50
115.6743258165726
 51
180.0
  0
ARC
  5
228
  8
DATA
  6
CONTINUOUS
 62
     7
 10
-61.25000000010129
 20
-730.3022356198218
 30
0.0
 40
0.222235619821771
 50
356.8251528744042
 51
183.1748471255959
  0
ARC
  5
229
  8
DATA
  6
CONTINUOUS
 62
     7
 10
-62.28518391597993
 20
-730.2070088624197
 30
0.0
 40
0.8203678318442034
 50
247.5320803524626
 51
352.4679196225455
  0
ARC
  5
22A
  8
DATA
  6
CONTINUOUS
 62
     7
 10
-62.72030708297598
 20
-731.1511178099108
 30
0.0
 40
0.2222356198218802
 50
56.8251528744028
 51
243.1748471255947
  0
ARC
  5
22B
  8
DATA
  6
CONTINUOUS
 62
     7
 10
-63.32036783194553
 20
-731.9999999999498
 30
0.0
 40
0.8203678318442412
 50
307.5320803524727
 51
52.46791962254449
  0
ARC
  5
22C
  8
DATA
  6
CONTINUOUS
 62
     7
 10
-61.25000000010129
 20
-733.6977643801782
 30
0.0
 40
0.222235619821771
 50
176.8251528744042
 51
3.174847125595846
  0
ARC
  5
22D
  8
DATA
  6
CONTINUOUS
 62
     7
 10
-62.28518391597993
 20
-733.7929911375803
 30
0.0
 40
0.8203678318442955
 50
7.532080377454527
 51
112.4679196475374
  0
ARC
  5
22E
  8
DATA
  6
CONTINUOUS
 62
     7
 10
-62.72030708297598
 20
-732.8488821900892
 30
0.0
 40
0.2222356198218723
 50
116.8251528744053
 51
303.1748471255972
  0
ARC
  5
22F
  8
DATA
  6
CONTINUOUS
 62
     7
 10
-60.21481608422278
 20
-730.2070088624197
 30
0.0
 40
0.8203678318441828
 50
187.5320803774555
 51
292.46791964753
  0
ARC
  5
230
  8
DATA
  6
CONTINUOUS
 62
     7
 10
-59.77969291722673
 20
-731.1511178099108
 30
0.0
 40
0.2222356198218723
 50
296.8251528744053
 51
123.1748471255972
  0
ARC
  5
231
  8
DATA
  6
CONTINUOUS
 62
     7
 10
-59.17963216825717
 20
-731.9999999999498
 30
0.0
 40
0.8203678318442142
 50
127.5320803774555
 51
232.4679196475335
  0
ARC
  5
232
  8
DATA
  6
CONTINUOUS
 62
     7
 10
-60.21481608422278
 20
-733.7929911375803
 30
0.0
 40
0.8203678318441598
 50
67.53208035246996
 51
172.4679196225445
  0
ARC
  5
233
  8
DATA
  6
CONTINUOUS
 62
     7
 10
-59.77969291722673
 20
-732.8488821900892
 30
0.0
 40
0.2222356198218802
 50
236.8251528744028
 51
63.17484712559477
  0
CIRCLE
  5
234
  8
DATA
  6
CONTINUOUS
 62
     7
 10
-61.24999999999989
 20
-732.0
 30
0.0
 40
4.0
  0
CIRCLE
  5
235
  8
DATA
  6
CONTINUOUS
 62
     7
 10
-61.24999999999989
 20
-732.0
 30
0.0
 40
6.5
  0
ARC
  5
236
  8
DATA
  6
CONTINUOUS
 62
     7
 10
-36.25000000010129
 20
-666.3022356198218
 30
0.0
 40
0.222235619821771
 50
356.8251528744042
 51
183.1748471255959
  0
ARC
  5
237
  8
DATA
  6
CONTINUOUS
 62
     7
 10
-37.28518391597993
 20
-666.2070088624197
 30
0.0
 40
0.8203678318442034
 50
247.5320803524626
 51
352.4679196225455
  0
ARC
  5
238
  8
DATA
  6
CONTINUOUS
 62
     7
 10
-37.72030708297598
 20
-667.1511178099108
 30
0.0
 40
0.2222356198218802
 50
56.8251528744028
 51
243.1748471255947
  0
ARC
  5
239
  8
DATA
  6
CONTINUOUS
 62
     7
 10
-38.32036783194553
 20
-667.9999999999498
 30
0.0
 40
0.8203678318442412
 50
307.5320803524727
 51
52.46791962254449
  0
ARC
  5
23A
  8
DATA
  6
CONTINUOUS
 62
     7
 10
-36.25000000010129
 20
-669.6977643801782
 30
0.0
 40
0.222235619821771
 50
176.8251528744042
 51
3.174847125595846
  0
ARC
  5
23B
  8
DATA
  6
CONTINUOUS
 62
     7
 10
-37.28518391597993
 20
-669.7929911375803
 30
0.0
 40
0.8203678318442955
 50
7.532080377454527
 51
112.4679196475374
  0
ARC
  5
23C
  8
DATA
  6
CONTINUOUS
 62
     7
 10
-37.72030708297598
 20
-668.8488821900892
 30
0.0
 40
0.2222356198218723
 50
116.8251528744053
 51
303.1748471255972
  0
ARC
  5
23D
  8
DATA
  6
CONTINUOUS
 62
     7
 10
-35.21481608422278
 20
-666.2070088624197
 30
0.0
 40
0.8203678318441828
 50
187.5320803774555
 51
292.46791964753
  0
ARC
  5
23E
  8
DATA
  6
CONTINUOUS
 62
     7
 10
-34.77969291722673
 20
-667.1511178099108
 30
0.0
 40
0.2222356198218723
 50
296.8251528744053
 51
123.1748471255972
  0
ARC
  5
23F
  8
DATA
  6
CONTINUOUS
 62
     7
 10
-34.17963216825717
 20
-667.9999999999498
 30
0.0
 40
0.8203678318442142
 50
127.5320803774555
 51
232.4679196475335
  0
ARC
  5
240
  8
DATA
  6
CONTINUOUS
 62
     7
 10
-35.21481608422278
 20
-669.7929911375803
 30
0.0
 40
0.8203678318441598
 50
67.53208035246996
 51
172.4679196225445
  0
ARC
  5
241
  8
DATA
  6
CONTINUOUS
 62
     7
 10
-34.77969291722673
 20
-668.8488821900892
 30
0.0
 40
0.2222356198218802
 50
236.8251528744028
 51
63.17484712559477
  0
CIRCLE
  5
242
  8
DATA
  6
CONTINUOUS
 62
     7
 10
-36.24999999999989
 20
-668.0
 30
0.0
 40
4.0
  0
CIRCLE
  5
243
  8
DATA
  6
CONTINUOUS
 62
     7
 10
-36.24999999999989
 20
-668.0
 30
0.0
 40
6.5
  0
ARC
  5
244
  8
DATA
  6
CONTINUOUS
 62
     7
 10
-36.25000000010129
 20
-730.3022356198218
 30
0.0
 40
0.222235619821771
 50
356.8251528744042
 51
183.1748471255959
  0
ARC
  5
245
  8
DATA
  6
CONTINUOUS
 62
     7
 10
-37.28518391597993
 20
-730.2070088624197
 30
0.0
 40
0.8203678318442034
 50
247.5320803524626
 51
352.4679196225455
  0
ARC
  5
246
  8
DATA
  6
CONTINUOUS
 62
     7
 10
-37.72030708297598
 20
-731.1511178099108
 30
0.0
 40
0.2222356198218802
 50
56.8251528744028
 51
243.1748471255947
  0
ARC
  5
247
  8
DATA
  6
CONTINUOUS
 62
     7
 10
-38.32036783194553
 20
-731.9999999999498
 30
0.0
 40
0.8203678318442412
 50
307.5320803524727
 51
52.46791962254449
  0
ARC
  5
248
  8
DATA
  6
CONTINUOUS
 62
     7
 10
-36.25000000010129
 20
-733.6977643801782
 30
0.0
 40
0.222235619821771
 50
176.8251528744042
 51
3.174847125595846
  0
ARC
  5
249
  8
DATA
  6
CONTINUOUS
 62
     7
 10
-37.28518391597993
 20
-733.7929911375803
 30
0.0
 40
0.8203678318442955
 50
7.532080377454527
 51
112.4679196475374
  0
ARC
  5
24A
  8
DATA
  6
CONTINUOUS
 62
     7
 10
-37.72030708297598
 20
-732.8488821900892
 30
0.0
 40
0.2222356198218723
 50
116.8251528744053
 51
303.1748471255972
  0
ARC
  5
24B
  8
DATA
  6
CONTINUOUS
 62
     7
 10
-35.21481608422278
 20
-730.2070088624197
 30
0.0
 40
0.8203678318441828
 50
187.5320803774555
 51
292.46791964753
  0
ARC
  5
24C
  8
DATA
  6
CONTINUOUS
 62
     7
 10
-34.77969291722673
 20
-731.1511178099108
 30
0.0
 40
0.2222356198218723
 50
296.8251528744053
 51
123.1748471255972
  0
ARC
  5
24D
  8
DATA
  6
CONTINUOUS
 62
     7
 10
-34.17963216825717
 20
-731.9999999999498
 30
0.0
 40
0.8203678318442142
 50
127.5320803774555
 51
232.4679196475335
  0
ARC
  5
24E
  8
DATA
  6
CONTINUOUS
 62
     7
 10
-35.21481608422278
 20
-733.7929911375803
 30
0.0
 40
0.8203678318441598
 50
67.53208035246996
 51
172.4679196225445
  0
ARC
  5
24F
  8
DATA
  6
CONTINUOUS
 62
     7
 10
-34.77969291722673
 20
-732.8488821900892
 30
0.0
 40
0.2222356198218802
 50
236.8251528744028
 51
63.17484712559477
  0
CIRCLE
  5
250
  8
DATA
  6
CONTINUOUS
 62
     7
 10
-36.24999999999989
 20
-732.0
 30
0.0
 40
4.0
  0
CIRCLE
  5
251
  8
DATA
  6
CONTINUOUS
 62
     7
 10
-36.24999999999989
 20
-732.0
 30
0.0
 40
6.5
  0
CIRCLE
  5
252
  8
DATA
  6
CONTINUOUS
 62
     7
 10
-53.24999999999989
 20
-520.0
 30
0.0
 40
4.5
  0
ARC
  5
253
  8
DATA
  6
CONTINUOUS
 62
     7
 10
-53.24999999999989
 20
-518.0546449810458
 30
0.0
 40
0.2546449810458838
 50
356.8251528744232
 51
183.1748471255755
  0
ARC
  5
254
  8
DATA
  6
CONTINUOUS
 62
     7
 10
-54.43614823694418
 20
-517.9455309881893
 30
0.0
 40
0.9400048073214472
 50
247.5320803524683
 51
352.4679196225484
  0
ARC
  5
255
  8
DATA
  6
CONTINUOUS
 62
     7
 10
-54.93472686579378
 20
-519.0273224905229
 30
0.0
 40
0.2546449810459151
 50
56.82515287440883
 51
243.1748471255673
  0
ARC
  5
256
  8
DATA
  6
CONTINUOUS
 62
     7
 10
-55.62229647398806
 20
-519.9999999999425
 30
0.0
 40
0.9400048073214778
 50
307.5320803524742
 51
52.46791962254474
  0
ARC
  5
257
  8
DATA
  6
CONTINUOUS
 62
     7
 10
-53.24999999999989
 20
-521.9453550189542
 30
0.0
 40
0.2546449810458838
 50
176.8251528744231
 51
3.17484712557976
  0
ARC
  5
258
  8
DATA
  6
CONTINUOUS
 62
     7
 10
-54.43614823694418
 20
-522.0544690118109
 30
0.0
 40
0.9400048073215113
 50
7.532080377458499
 51
112.4679196475291
  0
ARC
  5
259
  8
DATA
  6
CONTINUOUS
 62
     7
 10
-54.93472686579378
 20
-520.9726775094771
 30
0.0
 40
0.2546449810458447
 50
116.8251528744099
 51
303.1748471255697
  0
ARC
  5
25A
  8
DATA
  6
CONTINUOUS
 62
     7
 10
-52.06385176305582
 20
-517.9455309881893
 30
0.0
 40
0.9400048073214964
 50
187.5320803774516
 51
292.4679196475381
  0
ARC
  5
25B
  8
DATA
  6
CONTINUOUS
 62
     7
 10
-51.56527313420611
 20
-519.0273224905229
 30
0.0
 40
0.2546449810458447
 50
296.8251528744098
 51
123.1748471255912
  0
ARC
  5
25C
  8
DATA
  6
CONTINUOUS
 62
     7
 10
-50.87770352601183
 20
-519.9999999999425
 30
0.0
 40
0.9400048073215078
 50
127.5320803774553
 51
232.4679196475314
  0
ARC
  5
25D
  8
DATA
  6
CONTINUOUS
 62
     7
 10
-52.06385176305582
 20
-522.0544690118109
 30
0.0
 40
0.9400048073215956
 50
67.53208035246453
 51
172.4679196225415
  0
ARC
  5
25E
  8
DATA
  6
CONTINUOUS
 62
     7
 10
-51.56527313420611
 20
-520.9726775094771
 30
0.0
 40
0.2546449810459151
 50
236.8251528744088
 51
63.17484712559016
  0
CIRCLE
  5
25F
  8
DATA
  6
CONTINUOUS
 62
     7
 10
-53.24999999999989
 20
-520.0
 30
0.0
 40
9.5
  0
CIRCLE
  5
260
  8
DATA
  6
CONTINUOUS
 62
     7
 10
-53.24999999999989
 20
-880.0
 30
0.0
 40
4.5
  0
ARC
  5
261
  8
DATA
  6
CONTINUOUS
 62
     7
 10
-53.24999999999989
 20
-878.0546449810458
 30
0.0
 40
0.2546449810458838
 50
356.8251528744232
 51
183.1748471255755
  0
ARC
  5
262
  8
DATA
  6
CONTINUOUS
 62
     7
 10
-54.43614823694418
 20
-877.9455309881893
 30
0.0
 40
0.9400048073214472
 50
247.5320803524683
 51
352.4679196225484
  0
ARC
  5
263
  8
DATA
  6
CONTINUOUS
 62
     7
 10
-54.93472686579378
 20
-879.0273224905229
 30
0.0
 40
0.2546449810459151
 50
56.82515287440883
 51
243.1748471255673
  0
ARC
  5
264
  8
DATA
  6
CONTINUOUS
 62
     7
 10
-55.62229647398806
 20
-879.9999999999425
 30
0.0
 40
0.9400048073214778
 50
307.5320803524742
 51
52.46791962254474
  0
ARC
  5
265
  8
DATA
  6
CONTINUOUS
 62
     7
 10
-53.24999999999989
 20
-881.9453550189542
 30
0.0
 40
0.2546449810458838
 50
176.8251528744231
 51
3.17484712557976
  0
ARC
  5
266
  8
DATA
  6
CONTINUOUS
 62
     7
 10
-54.43614823694418
 20
-882.0544690118109
 30
0.0
 40
0.9400048073215113
 50
7.532080377458499
 51
112.4679196475291
  0
ARC
  5
267
  8
DATA
  6
CONTINUOUS
 62
     7
 10
-54.93472686579378
 20
-880.9726775094771
 30
0.0
 40
0.2546449810458447
 50
116.8251528744099
 51
303.1748471255697
  0
ARC
  5
268
  8
DATA
  6
CONTINUOUS
 62
     7
 10
-52.06385176305582
 20
-877.9455309881893
 30
0.0
 40
0.9400048073214964
 50
187.5320803774516
 51
292.4679196475381
  0
ARC
  5
269
  8
DATA
  6
CONTINUOUS
 62
     7
 10
-51.56527313420611
 20
-879.0273224905229
 30
0.0
 40
0.2546449810458447
 50
296.8251528744098
 51
123.1748471255912
  0
ARC
  5
26A
  8
DATA
  6
CONTINUOUS
 62
     7
 10
-50.87770352601183
 20
-879.9999999999425
 30
0.0
 40
0.9400048073215078
 50
127.5320803774553
 51
232.4679196475314
  0
ARC
  5
26B
  8
DATA
  6
CONTINUOUS
 62
     7
 10
-52.06385176305582
 20
-882.0544690118109
 30
0.0
 40
0.9400048073215956
 50
67.53208035246453
 51
172.4679196225415
  0
ARC
  5
26C
  8
DATA
  6
CONTINUOUS
 62
     7
 10
-51.56527313420611
 20
-880.9726775094771
 30
0.0
 40
0.2546449810459151
 50
236.8251528744088
 51
63.17484712559016
  0
CIRCLE
  5
26D
  8
DATA
  6
CONTINUOUS
 62
     7
 10
-53.24999999999989
 20
-880.0
 30
0.0
 40
9.5
  0
CIRCLE
  5
26E
  8
DATA
  6
CONTINUOUS
 62
     7
 10
-53.24999999999989
 20
-760.0
 30
0.0
 40
4.5
  0
ARC
  5
26F
  8
DATA
  6
CONTINUOUS
 62
     7
 10
-53.24999999999989
 20
-758.0546449810458
 30
0.0
 40
0.2546449810458838
 50
356.8251528744232
 51
183.1748471255755
  0
ARC
  5
270
  8
DATA
  6
CONTINUOUS
 62
     7
 10
-54.43614823694418
 20
-757.9455309881893
 30
0.0
 40
0.9400048073214472
 50
247.5320803524683
 51
352.4679196225484
  0
ARC
  5
271
  8
DATA
  6
CONTINUOUS
 62
     7
 10
-54.93472686579378
 20
-759.0273224905229
 30
0.0
 40
0.2546449810459151
 50
56.82515287440883
 51
243.1748471255673
  0
ARC
  5
272
  8
DATA
  6
CONTINUOUS
 62
     7
 10
-55.62229647398806
 20
-759.9999999999425
 30
0.0
 40
0.9400048073214778
 50
307.5320803524742
 51
52.46791962254474
  0
ARC
  5
273
  8
DATA
  6
CONTINUOUS
 62
     7
 10
-53.24999999999989
 20
-761.9453550189542
 30
0.0
 40
0.2546449810458838
 50
176.8251528744231
 51
3.17484712557976
  0
ARC
  5
274
  8
DATA
  6
CONTINUOUS
 62
     7
 10
-54.43614823694418
 20
-762.0544690118109
 30
0.0
 40
0.9400048073215113
 50
7.532080377458499
 51
112.4679196475291
  0
ARC
  5
275
  8
DATA
  6
CONTINUOUS
 62
     7
 10
-54.93472686579378
 20
-760.9726775094771
 30
0.0
 40
0.2546449810458447
 50
116.8251528744099
 51
303.1748471255697
  0
ARC
  5
276
  8
DATA
  6
CONTINUOUS
 62
     7
 10
-52.06385176305582
 20
-757.9455309881893
 30
0.0
 40
0.9400048073214964
 50
187.5320803774516
 51
292.4679196475381
  0
ARC
  5
277
  8
DATA
  6
CONTINUOUS
 62
     7
 10
-51.56527313420611
 20
-759.0273224905229
 30
0.0
 40
0.2546449810458447
 50
296.8251528744098
 51
123.1748471255912
  0
ARC
  5
278
  8
DATA
  6
CONTINUOUS
 62
     7
 10
-50.87770352601183
 20
-759.9999999999425
 30
0.0
 40
0.9400048073215078
 50
127.5320803774553
 51
232.4679196475314
  0
ARC
  5
279
  8
DATA
  6
CONTINUOUS
 62
     7
 10
-52.06385176305582
 20
-762.0544690118109
 30
0.0
 40
0.9400048073215956
 50
67.53208035246453
 51
172.4679196225415
  0
ARC
  5
27A
  8
DATA
  6
CONTINUOUS
 62
     7
 10
-51.56527313420611
 20
-760.9726775094771
 30
0.0
 40
0.2546449810459151
 50
236.8251528744088
 51
63.17484712559016
  0
CIRCLE
  5
27B
  8
DATA
  6
CONTINUOUS
 62
     7
 10
-53.24999999999989
 20
-760.0
 30
0.0
 40
9.5
  0
LINE
  5
27C
  8
DATA
  6
CONTINUOUS
 62
     7
 10
34.12992962455439
 20
-509.3684505832281
 30
0.0
 11
7.118450583228082
 21
-536.3799296245544
 31
0.0
  0
LINE
  5
27D
  8
DATA
  6
CONTINUOUS
 62
     7
 10
-10.62992962455417
 20
-518.6315494167719
 30
0.0
 11
16.38154941677215
 21
-491.6200703754457
 31
0.0
  0
ARC
  5
27E
  8
DATA
  6
CONTINUOUS
 62
     7
 10
-1.755739520663042
 20
-527.5057395206632
 30
0.0
 40
12.55000000000003
 50
90.54503455809656
 51
359.4549654419041
  0
ARC
  5
27F
  8
DATA
  6
CONTINUOUS
 62
     7
 10
8.391242789364014
 20
-517.358757210636
 30
0.0
 40
2.500000000000098
 50
359.4549654419041
 51
90.54503455809862
  0
LINE
  5
280
  8
DATA
  6
CONTINUOUS
 62
     7
 10
-1.875121447234278
 20
-514.9563073440422
 30
0.0
 11
8.36746152909086
 21
-514.8588703228629
 31
0.0
  0
LINE
  5
281
  8
DATA
  6
CONTINUOUS
 62
     7
 10
10.7936926559579
 20
-527.6251214472344
 30
0.0
 11
10.89112967713709
 21
-517.3825384709093
 31
0.0
  0
ARC
  5
282
  8
DATA
  6
CONTINUOUS
 62
     7
 10
-2.95624022681568
 20
-526.3052388146539
 30
0.0
 40
0.2222356198217956
 50
41.82515287441255
 51
228.1748471255898
  0
ARC
  5
283
  8
DATA
  6
CONTINUOUS
 62
     7
 10
-3.755561279418203
 20
-526.9698888954374
 30
0.0
 40
0.8203678318442786
 50
292.5320803524669
 51
37.46791962254176
  0
ARC
  5
284
  8
DATA
  6
CONTINUOUS
 62
     7
 10
-3.395653982502495
 20
-527.9451532764216
 30
0.0
 40
0.222235619821794
 50
101.8251528743962
 51
288.1748471255862
  0
ARC
  5
285
  8
DATA
  6
CONTINUOUS
 62
     7
 10
-3.219710654217693
 20
-528.9697106541469
 30
0.0
 40
0.8203678318442346
 50
352.5320803524729
 51
97.46791962255001
  0
ARC
  5
286
  8
DATA
  6
CONTINUOUS
 62
     7
 10
-0.5552388146536487
 20
-528.7062402268158
 30
0.0
 40
0.2222356198218045
 50
221.8251528743712
 51
48.17484712560929
  0
ARC
  5
287
  8
DATA
  6
CONTINUOUS
 62
     7
 10
-1.219888895437293
 20
-529.5055612794183
 30
0.0
 40
0.8203678318443698
 50
52.53208037746459
 51
157.467919647533
  0
ARC
  5
288
  8
DATA
  6
CONTINUOUS
 62
     7
 10
-2.195153276421479
 20
-529.1456539825026
 30
0.0
 40
0.2222356198218479
 50
161.8251528744138
 51
348.1748471256038
  0
ARC
  5
289
  8
DATA
  6
CONTINUOUS
 62
     7
 10
-2.291590146032263
 20
-525.5059177620515
 30
0.0
 40
0.8203678318441202
 50
232.5320803774612
 51
337.4679196475331
  0
ARC
  5
28A
  8
DATA
  6
CONTINUOUS
 62
     7
 10
-1.316325765047964
 20
-525.8658250589671
 30
0.0
 40
0.2222356198217398
 50
341.8251528744047
 51
168.1748471256098
  0
ARC
  5
28B
  8
DATA
  6
CONTINUOUS
 62
     7
 10
-0.2917683873228043
 20
-526.0417683872518
 30
0.0
 40
0.820367831844237
 50
172.5320803774579
 51
277.4679196475428
  0
ARC
  5
28C
  8
DATA
  6
CONTINUOUS
 62
     7
 10
0.2440822379486463
 20
-528.0415901460323
 30
0.0
 40
0.8203678318441737
 50
112.53208035247
 51
217.4679196225451
  0
ARC
  5
28D
  8
DATA
  6
CONTINUOUS
 62
     7
 10
-0.1158250589669478
 20
-527.0663257650481
 30
0.0
 40
0.2222356198219053
 50
281.8251528743901
 51
108.1748471255953
  0
CIRCLE
  5
28E
  8
DATA
  6
CONTINUOUS
 62
     7
 10
-1.755739520663042
 20
-527.5057395206632
 30
0.0
 40
5.000000000000121
  0
CIRCLE
  5
28F
  8
DATA
  6
CONTINUOUS
 62
     7
 10
-1.755739520663042
 20
-527.5057395206632
 30
0.0
 40
4.000000000000032
  0
ARC
  5
290
  8
DATA
  6
CONTINUOUS
 62
     7
 10
25.25573952066316
 20
-500.494260479337
 30
0.0
 40
12.54999999999992
 50
270.5450345580965
 51
179.4549654419035
  0
ARC
  5
291
  8
DATA
  6
CONTINUOUS
 62
     7
 10
15.1087572106361
 20
-510.641242789364
 30
0.0
 40
2.500000000000098
 50
179.4549654419027
 51
270.5450345580961
  0
LINE
  5
292
  8
DATA
  6
CONTINUOUS
 62
     7
 10
12.70630734404233
 20
-500.3748785527657
 30
0.0
 11
12.60887032286303
 21
-510.6174615290907
 31
0.0
  0
LINE
  5
293
  8
DATA
  6
CONTINUOUS
 62
     7
 10
25.37512144723439
 20
-513.0436926559578
 30
0.0
 11
15.13253847090925
 21
-513.1411296771371
 31
0.0
  0
ARC
  5
294
  8
DATA
  6
CONTINUOUS
 62
     7
 10
24.05523881465388
 20
-499.2937597731843
 30
0.0
 40
0.2222356198217956
 50
41.82515287441255
 51
228.1748471255996
  0
ARC
  5
295
  8
DATA
  6
CONTINUOUS
 62
     7
 10
24.71988889543752
 20
-498.4944387205818
 30
0.0
 40
0.8203678318443035
 50
232.5320803774511
 51
337.4679196475336
  0
ARC
  5
296
  8
DATA
  6
CONTINUOUS
 62
     7
 10
25.69515327642159
 20
-498.8543460174974
 30
0.0
 40
0.2222356198219559
 50
341.825152874423
 51
168.1748471255895
  0
ARC
  5
297
  8
DATA
  6
CONTINUOUS
 62
     7
 10
26.71971065414698
 20
-499.0302893457822
 30
0.0
 40
0.8203678318442444
 50
172.532080377454
 51
277.4679196475271
  0
ARC
  5
298
  8
DATA
  6
CONTINUOUS
 62
     7
 10
26.45624022681591
 20
-501.6947611853462
 30
0.0
 40
0.2222356198218424
 50
221.8251528743821
 51
48.17484712560929
  0
ARC
  5
299
  8
DATA
  6
CONTINUOUS
 62
     7
 10
27.25556127941832
 20
-501.0301111045626
 30
0.0
 40
0.8203678318442786
 50
112.532080352467
 51
217.4679196225434
  0
ARC
  5
29A
  8
DATA
  6
CONTINUOUS
 62
     7
 10
26.89565398250272
 20
-500.0548467235785
 30
0.0
 40
0.2222356198218497
 50
281.8251528743932
 51
108.174847125614
  0
ARC
  5
29B
  8
DATA
  6
CONTINUOUS
 62
     7
 10
23.25591776205147
 20
-499.9584098539677
 30
0.0
 40
0.8203678318442261
 50
292.5320803524686
 51
37.46791962254028
  0
ARC
  5
29C
  8
DATA
  6
CONTINUOUS
 62
     7
 10
23.61582505896706
 20
-500.933674234952
 30
0.0
 40
0.2222356198219053
 50
101.8251528743902
 51
288.174847125614
  0
ARC
  5
29D
  8
DATA
  6
CONTINUOUS
 62
     7
 10
23.79176838725186
 20
-501.9582316126772
 30
0.0
 40
0.820367831844242
 50
352.532080352469
 51
97.46791962254261
  0
ARC
  5
29E
  8
DATA
  6
CONTINUOUS
 62
     7
 10
25.79159014603226
 20
-502.4940822379486
 30
0.0
 40
0.8203678318441894
 50
52.53208037745492
 51
157.46791964753
  0
ARC
  5
29F
  8
DATA
  6
CONTINUOUS
 62
     7
 10
24.81632576504819
 20
-502.134174941033
 30
0.0
 40
0.2222356198218479
 50
161.8251528744138
 51
348.1748471256099
  0
CIRCLE
  5
2A0
  8
DATA
  6
CONTINUOUS
 62
     7
 10
25.25573952066316
 20
-500.494260479337
 30
0.0
 40
5.000000000000041
  0
CIRCLE
  5
2A1
  8
DATA
  6
CONTINUOUS
 62
     7
 10
25.25573952066316
 20
-500.494260479337
 30
0.0
 40
3.999999999999952
  0
LINE
  5
2A2
  8
DATA
  6
CONTINUOUS
 62
     7
 10
34.12992962455439
 20
-890.631549416772
 30
0.0
 11
7.118450583228082
 21
-863.6200703754457
 31
0.0
  0
LINE
  5
2A3
  8
DATA
  6
CONTINUOUS
 62
     7
 10
-10.62992962455417
 20
-881.3684505832282
 30
0.0
 11
16.38154941677215
 21
-908.3799296245544
 31
0.0
  0
ARC
  5
2A4
  8
DATA
  6
CONTINUOUS
 62
     7
 10
-1.755739520663042
 20
-872.4942604793371
 30
0.0
 40
12.55000000000003
 50
0.5450345580965505
 51
269.4549654419035
  0
ARC
  5
2A5
  8
DATA
  6
CONTINUOUS
 62
     7
 10
8.391242789364014
 20
-882.6412427893641
 30
0.0
 40
2.500000000000099
 50
269.4549654419014
 51
0.5450345580986209
  0
LINE
  5
2A6
  8
DATA
  6
CONTINUOUS
 62
     7
 10
-1.875121447234278
 20
-885.0436926559579
 30
0.0
 11
8.36746152909086
 21
-885.1411296771371
 31
0.0
  0
LINE
  5
2A7
  8
DATA
  6
CONTINUOUS
 62
     7
 10
10.7936926559579
 20
-872.3748785527657
 30
0.0
 11
10.89112967713709
 21
-882.6174615290909
 31
0.0
  0
ARC
  5
2A8
  8
DATA
  6
CONTINUOUS
 62
     7
 10
-2.95624022681568
 20
-873.6947611853464
 30
0.0
 40
0.2222356198217197
 50
131.8251528743907
 51
318.1748471255875
  0
ARC
  5
2A9
  8
DATA
  6
CONTINUOUS
 62
     7
 10
-3.755561279418203
 20
-873.0301111045627
 30
0.0
 40
0.820367831844439
 50
322.5320803774583
 51
67.46791964753302
  0
ARC
  5
2AA
  8
DATA
  6
CONTINUOUS
 62
     7
 10
-3.395653982502495
 20
-872.0548467235785
 30
0.0
 40
0.2222356198218479
 50
71.82515287441385
 51
258.1748471256099
  0
ARC
  5
2AB
  8
DATA
  6
CONTINUOUS
 62
     7
 10
-3.219710654217693
 20
-871.0302893458534
 30
0.0
 40
0.8203678318441391
 50
262.532080377449
 51
7.46791964752711
  0
ARC
  5
2AC
  8
DATA
  6
CONTINUOUS
 62
     7
 10
-0.5552388146536487
 20
-871.2937597731843
 30
0.0
 40
0.2222356198217197
 50
311.8251528743907
 51
138.174847125607
  0
ARC
  5
2AD
  8
DATA
  6
CONTINUOUS
 62
     7
 10
-1.219888895437293
 20
-870.4944387205819
 30
0.0
 40
0.8203678318442351
 50
202.5320803524596
 51
307.4679196225451
  0
ARC
  5
2AE
  8
DATA
  6
CONTINUOUS
 62
     7
 10
-2.195153276421479
 20
-870.8543460174975
 30
0.0
 40
0.2222356198218173
 50
11.82515287442487
 51
198.1748471255862
  0
ARC
  5
2AF
  8
DATA
  6
CONTINUOUS
 62
     7
 10
-2.291590146032263
 20
-874.4940822379488
 30
0.0
 40
0.8203678318443223
 50
22.53208035247433
 51
127.4679196225388
  0
ARC
  5
2B0
  8
DATA
  6
CONTINUOUS
 62
     7
 10
-1.316325765047964
 20
-874.134174941033
 30
0.0
 40
0.2222356198219053
 50
191.8251528743902
 51
18.17484712562316
  0
ARC
  5
2B1
  8
DATA
  6
CONTINUOUS
 62
     7
 10
-0.2917683873228043
 20
-873.9582316127482
 30
0.0
 40
0.8203678318441514
 50
82.53208035245616
 51
187.4679196225422
  0
ARC
  5
2B2
  8
DATA
  6
CONTINUOUS
 62
     7
 10
0.2440822379486463
 20
-871.9584098539679
 30
0.0
 40
0.8203678318441894
 50
142.5320803774549
 51
247.46791964753
  0
ARC
  5
2B3
  8
DATA
  6
CONTINUOUS
 62
     7
 10
-0.1158250589669478
 20
-872.933674234952
 30
0.0
 40
0.2222356198218479
 50
251.8251528744138
 51
78.17484712560983
  0
CIRCLE
  5
2B4
  8
DATA
  6
CONTINUOUS
 62
     7
 10
-1.755739520663042
 20
-872.4942604793371
 30
0.0
 40
5.000000000000041
  0
CIRCLE
  5
2B5
  8
DATA
  6
CONTINUOUS
 62
     7
 10
-1.755739520663042
 20
-872.4942604793371
 30
0.0
 40
3.999999999999952
  0
ARC
  5
2B6
  8
DATA
  6
CONTINUOUS
 62
     7
 10
25.25573952066316
 20
-899.5057395206632
 30
0.0
 40
12.55000000000003
 50
180.5450345580965
 51
89.45496544190347
  0
ARC
  5
2B7
  8
DATA
  6
CONTINUOUS
 62
     7
 10
15.1087572106361
 20
-889.3587572106362
 30
0.0
 40
2.500000000000098
 50
89.45496544190401
 51
180.5450345580959
  0
LINE
  5
2B8
  8
DATA
  6
CONTINUOUS
 62
     7
 10
12.70630734404233
 20
-899.6251214472345
 30
0.0
 11
12.60887032286303
 21
-889.3825384709094
 31
0.0
  0
LINE
  5
2B9
  8
DATA
  6
CONTINUOUS
 62
     7
 10
25.37512144723439
 20
-886.9563073440422
 30
0.0
 11
15.13253847090925
 21
-886.8588703228631
 31
0.0
  0
ARC
  5
2BA
  8
DATA
  6
CONTINUOUS
 62
     7
 10
24.05523881465388
 20
-900.7062402268159
 30
0.0
 40
0.2222356198217197
 50
131.8251528743907
 51
318.1748471255875
  0
ARC
  5
2BB
  8
DATA
  6
CONTINUOUS
 62
     7
 10
24.71988889543752
 20
-901.5055612794183
 30
0.0
 40
0.8203678318441301
 50
22.53208035246271
 51
127.4679196225514
  0
ARC
  5
2BC
  8
DATA
  6
CONTINUOUS
 62
     7
 10
25.69515327642159
 20
-901.1456539825026
 30
0.0
 40
0.2222356198218173
 50
191.8251528744248
 51
18.17484712554915
  0
ARC
  5
2BD
  8
DATA
  6
CONTINUOUS
 62
     7
 10
26.71971065414698
 20
-900.9697106542179
 30
0.0
 40
0.8203678318442346
 50
82.53208035247292
 51
187.46791962255
  0
ARC
  5
2BE
  8
DATA
  6
CONTINUOUS
 62
     7
 10
26.45624022681591
 20
-898.3052388146539
 30
0.0
 40
0.2222356198217197
 50
311.8251528743907
 51
138.174847125607
  0
ARC
  5
2BF
  8
DATA
  6
CONTINUOUS
 62
     7
 10
27.25556127941832
 20
-898.9698888954374
 30
0.0
 40
0.8203678318442795
 50
142.5320803774597
 51
247.4679196475361
  0
ARC
  5
2C0
  8
DATA
  6
CONTINUOUS
 62
     7
 10
26.89565398250272
 20
-899.9451532764217
 30
0.0
 40
0.2222356198217753
 50
251.8251528743768
 51
78.17484712560983
  0
ARC
  5
2C1
  8
DATA
  6
CONTINUOUS
 62
     7
 10
23.25591776205147
 20
-900.0415901460324
 30
0.0
 40
0.8203678318442795
 50
322.5320803774597
 51
67.46791964752997
  0
ARC
  5
2C2
  8
DATA
  6
CONTINUOUS
 62
     7
 10
23.61582505896706
 20
-899.0663257650481
 30
0.0
 40
0.2222356198217753
 50
71.82515287437687
 51
258.1748471256099
  0
ARC
  5
2C3
  8
DATA
  6
CONTINUOUS
 62
     7
 10
23.79176838725186
 20
-898.0417683873229
 30
0.0
 40
0.820367831844237
 50
262.5320803774579
 51
7.467919647527054
  0
ARC
  5
2C4
  8
DATA
  6
CONTINUOUS
 62
     7
 10
25.79159014603226
 20
-897.5059177620515
 30
0.0
 40
0.8203678318442172
 50
202.5320803524774
 51
307.4679196225451
  0
ARC
  5
2C5
  8
DATA
  6
CONTINUOUS
 62
     7
 10
24.81632576504819
 20
-897.8658250589672
 30
0.0
 40
0.2222356198219053
 50
11.82515287439017
 51
198.1748471255583
  0
CIRCLE
  5
2C6
  8
DATA
  6
CONTINUOUS
 62
     7
 10
25.25573952066316
 20
-899.5057395206632
 30
0.0
 40
5.000000000000041
  0
CIRCLE
  5
2C7
  8
DATA
  6
CONTINUOUS
 62
     7
 10
25.25573952066316
 20
-899.5057395206632
 30
0.0
 40
3.999999999999952
  0
ARC
  5
2C8
  8
DATA
  6
CONTINUOUS
 62
     7
 10
524.9482469106771
 20
-779.7687000000008
 30
0.0
 40
21.53867275718221
 50
270.0
 51
350.1233474470973
  0
ARC
  5
2C9
  8
DATA
  6
CONTINUOUS
 62
     7
 10
66.79199096487719
 20
-700.0000000000003
 30
0.0
 40
485.2452819394994
 50
350.1233474470973
 51
9.876652552902726
  0
ARC
  5
2CA
  8
DATA
  6
CONTINUOUS
 62
     7
 10
524.9482469106771
 20
-779.7687000000008
 30
0.0
 40
20.19668193949838
 50
270.0
 51
350.123347447098
  0
ARC
  5
2CB
  8
DATA
  6
CONTINUOUS
 62
     7
 10
66.79199096487719
 20
-700.0000000000003
 30
0.0
 40
486.5872727571834
 50
350.1233474470972
 51
9.87665255290267
  0
ARC
  5
2CC
  8
DATA
  6
CONTINUOUS
 62
     7
 10
524.9482469106771
 20
-620.2313000000007
 30
0.0
 40
21.53867275718394
 50
9.876652552902666
 51
90.0
  0
ARC
  5
2CD
  8
DATA
  6
CONTINUOUS
 62
     7
 10
524.9482469106771
 20
-620.2313000000007
 30
0.0
 40
20.19668193949816
 50
9.876652552901964
 51
89.99999999999999
  0
ARC
  5
2CE
  8
DATA
  6
CONTINUOUS
 62
     7
 10
405.4845350190844
 20
-620.2313000000007
 30
0.0
 40
20.19668193949838
 50
90.0
 51
170.123347447098
  0
ARC
  5
2CF
  8
DATA
  6
CONTINUOUS
 62
     7
 10
863.6407909648806
 20
-700.0000000000003
 30
0.0
 40
485.2452819394975
 50
170.1233474470972
 51
189.8766525529026
  0
ARC
  5
2D0
  8
DATA
  6
CONTINUOUS
 62
     7
 10
405.4845350190844
 20
-779.7687000000008
 30
0.0
 40
20.19668193949816
 50
189.876652552902
 51
270.0
  0
ARC
  5
2D1
  8
DATA
  6
CONTINUOUS
 62
     7
 10
405.4845350190844
 20
-779.7687000000008
 30
0.0
 40
21.53867275718394
 50
189.8766525529027
 51
270.0
  0
ARC
  5
2D2
  8
DATA
  6
CONTINUOUS
 62
     7
 10
405.4845350190844
 20
-620.2313000000007
 30
0.0
 40
21.53867275718221
 50
90.0
 51
170.1233474470965
  0
ARC
  5
2D3
  8
DATA
  6
CONTINUOUS
 62
     7
 10
863.6407909648806
 20
-700.0000000000003
 30
0.0
 40
486.5872727571831
 50
170.1233474470974
 51
189.8766525529027
  0
LINE
  5
2D4
  8
DATA
  6
CONTINUOUS
 62
     7
 10
524.9482514709417
 20
-801.3073697686198
 30
0.0
 11
405.4845394939366
 21
-801.3073697686198
 31
0.0
  0
LINE
  5
2D5
  8
DATA
  6
CONTINUOUS
 62
     7
 10
405.4845394939366
 20
-600.0346213579181
 30
0.0
 11
524.9482514709417
 21
-600.0346213579181
 31
0.0
  0
LINE
  5
2D6
  8
DATA
  6
CONTINUOUS
 62
     7
 10
524.9482514709417
 20
-799.9653786420824
 30
0.0
 11
405.4845394939366
 21
-799.9653786420824
 31
0.0
  0
LINE
  5
2D7
  8
DATA
  6
CONTINUOUS
 62
     7
 10
405.4845394939366
 20
-598.6926302313808
 30
0.0
 11
524.9482514709417
 21
-598.6926302313808
 31
0.0
  0
ARC
  5
2D8
  8
DATA
  6
CONTINUOUS
 62
     7
 10
919.3875189261839
 20
-692.5176467071644
 30
0.0
 40
539.7094508441738
 50
185.6436230689411
 51
189.6455291444132
  0
LINE
  5
2D9
  8
DATA
  6
CONTINUOUS
 62
     7
 10
400.3929093955521
 20
-760.7099659981725
 30
0.0
 11
399.2276427102406
 21
-745.5930000283904
 31
0.0
  0
ARC
  5
2DA
  8
DATA
  6
CONTINUOUS
 62
     7
 10
505.2111693831826
 20
-743.2090185439404
 30
0.0
 40
25.88860131824312
 50
357.8151163703995
 51
89.85472448275516
  0
ARC
  5
2DB
  8
DATA
  6
CONTINUOUS
 62
     7
 10
506.4351910975452
 20
-677.0919534890666
 30
0.0
 40
25.92850722283323
 50
267.4394052019447
 51
2.119311671480659
  0
ARC
  5
2DC
  8
DATA
  6
CONTINUOUS
 62
     7
 10
6.338949048320046
 20
-698.7259206771994
 30
0.0
 40
543.9317926115365
 50
355.2047525702559
 51
2.380529313001318
  0
ARC
  5
2DD
  8
DATA
  6
CONTINUOUS
 62
     7
 10
425.2216125465754
 20
-743.2090185439404
 30
0.0
 40
25.88860131824333
 50
90.14527551724483
 51
182.1848836296005
  0
ARC
  5
2DE
  8
DATA
  6
CONTINUOUS
 62
     7
 10
423.9975908322126
 20
-677.0919534890666
 30
0.0
 40
25.92850722283293
 50
177.8806883285193
 51
272.5605947980558
  0
ARC
  5
2DF
  8
DATA
  6
CONTINUOUS
 62
     7
 10
924.0938328814377
 20
-698.7259206771994
 30
0.0
 40
543.9317926115364
 50
177.6194706869987
 51
184.7952474297441
  0
ARC
  5
2E0
  8
DATA
  6
CONTINUOUS
 62
     7
 10
-633.4063177088747
 20
-729.5624728639198
 30
0.0
 40
1166.943064345941
 50
2.693360688370301
 51
4.436783100338477
  0
ARC
  5
2E1
  8
DATA
  6
CONTINUOUS
 62
     7
 10
504.0844324592283
 20
-637.9224179397678
 30
0.0
 40
24.95805891091603
 50
23.18747601276706
 51
79.98070512783751
  0
ARC
  5
2E2
  8
DATA
  6
CONTINUOUS
 62
     7
 10
524.9467146014259
 20
-620.2168942506927
 30
0.0
 40
18.45154516608772
 50
9.873803261286632
 51
90.00445412948561
  0
ARC
  5
2E3
  8
DATA
  6
CONTINUOUS
 62
     7
 10
5.473884728006396
 20
-706.9183117495006
 30
0.0
 40
545.1095964741878
 50
3.385557800014802
 51
9.488962706310518
  0
LINE
  5
2E4
  8
DATA
  6
CONTINUOUS
 62
     7
 10
505.8458711652765
 20
-613.1817570330057
 30
0.0
 11
506.3023985275468
 21
-613.1840932486183
 31
0.0
  0
ARC
  5
2E5
  8
DATA
  6
CONTINUOUS
 62
     7
 10
507.3464793388819
 20
-613.5026534466518
 30
0.0
 40
1.091597609176655
 50
8.304543616857215
 51
163.0324929230455
  0
ARC
  5
2E6
  8
DATA
  6
CONTINUOUS
 62
     7
 10
497.7716116352724
 20
-641.9733272566563
 30
0.0
 40
32.3796261154843
 50
4.755732121317735
 51
25.37876970857101
  0
ARC
  5
2E7
  8
DATA
  6
CONTINUOUS
 62
     7
 10
1563.839099638732
 20
-729.5624728639198
 30
0.0
 40
1166.94306434594
 50
175.5632168996615
 51
177.3066393116297
  0
ARC
  5
2E8
  8
DATA
  6
CONTINUOUS
 62
     7
 10
426.3483494706293
 20
-637.9224179397678
 30
0.0
 40
24.95805891091578
 50
100.0192948721625
 51
156.8125239872329
  0
ARC
  5
2E9
  8
DATA
  6
CONTINUOUS
 62
     7
 10
405.4860673284315
 20
-620.2168942506927
 30
0.0
 40
18.45154516608789
 50
89.99554587051371
 51
170.1261967387131
  0
ARC
  5
2EA
  8
DATA
  6
CONTINUOUS
 62
     7
 10
924.958897201851
 20
-706.9183117495006
 30
0.0
 40
545.1095964741871
 50
170.5110372936895
 51
176.6144421999852
  0
LINE
  5
2EB
  8
DATA
  6
CONTINUOUS
 62
     7
 10
399.2276427102061
 20
-745.5930000278775
 30
0.0
 11
382.2941395214448
 21
-745.5930000278775
 31
0.0
  0
LINE
  5
2EC
  8
DATA
  6
CONTINUOUS
 62
     7
 10
425.1559711337286
 20
-717.3205004438275
 30
0.0
 11
425.1559711337286
 21
-702.9945719258496
 31
0.0
  0
LINE
  5
2ED
  8
DATA
  6
CONTINUOUS
 62
     7
 10
505.2768107960237
 20
-702.9945719258492
 30
0.0
 11
505.2768107960237
 21
-717.3205004438275
 31
0.0
  0
LINE
  5
2EE
  8
DATA
  6
CONTINUOUS
 62
     7
 10
380.8006558621719
 20
-674.7270000278761
 30
0.0
 11
398.1851259638916
 21
-674.7270000278766
 31
0.0
  0
LINE
  5
2EF
  8
DATA
  6
CONTINUOUS
 62
     7
 10
405.4875017363865
 20
-601.7653491403584
 30
0.0
 11
524.9452801933677
 21
-601.7653491403574
 31
0.0
  0
LINE
  5
2F0
  8
DATA
  6
CONTINUOUS
 62
     7
 10
504.9673909648809
 20
-717.3205004438275
 30
0.0
 11
425.4653909648769
 21
-717.3205004438275
 31
0.0
  0
LINE
  5
2F1
  8
DATA
  6
CONTINUOUS
 62
     7
 10
425.4653909648769
 20
-702.9994996119246
 30
0.0
 11
504.9673909648791
 21
-702.9994996119246
 31
0.0
  0
LINE
  5
2F2
  8
DATA
  6
CONTINUOUS
 62
     7
 10
380.6314518237114
 20
-676.1331034849388
 30
0.0
 11
398.0868190669007
 21
-676.1331034849388
 31
0.0
  0
LINE
  5
2F3
  8
DATA
  6
CONTINUOUS
 62
     7
 10
504.9673909648791
 20
-702.9994996119242
 30
0.0
 11
504.9673909648791
 21
-717.3205004438275
 31
0.0
  0
LINE
  5
2F4
  8
DATA
  6
CONTINUOUS
 62
     7
 10
505.8458711652765
 20
-613.1795621209056
 30
0.0
 11
424.5869107645813
 21
-613.1817570330057
 31
0.0
  0
LINE
  5
2F5
  8
DATA
  6
CONTINUOUS
 62
     7
 10
524.9452801933677
 20
-798.2346509153952
 30
0.0
 11
405.4875017363865
 21
-798.2346509153952
 31
0.0
  0
LINE
  5
2F6
  8
DATA
  6
CONTINUOUS
 62
     7
 10
424.5865855471293
 20
-786.8204377111076
 30
0.0
 11
505.8461963826248
 21
-786.8204377111076
 31
0.0
  0
LINE
  5
2F7
  8
DATA
  6
CONTINUOUS
 62
     7
 10
399.3518319954128
 20
-744.1960000278762
 30
0.0
 11
382.0659121084864
 21
-744.1960000278762
 31
0.0
  0
LINE
  5
2F8
  8
DATA
  6
CONTINUOUS
 62
     7
 10
531.2051392195482
 20
-745.5930000278775
 30
0.0
 11
548.1386424083086
 21
-745.5930000278775
 31
0.0
  0
LINE
  5
2F9
  8
DATA
  6
CONTINUOUS
 62
     7
 10
549.6321260675815
 20
-674.7270000278761
 30
0.0
 11
532.2476559658609
 21
-674.7270000278761
 31
0.0
  0
LINE
  5
2FA
  8
DATA
  6
CONTINUOUS
 62
     7
 10
425.4653909648787
 20
-702.9994996119246
 30
0.0
 11
425.4653909648787
 21
-717.3205004438275
 31
0.0
  0
LINE
  5
2FB
  8
DATA
  6
CONTINUOUS
 62
     7
 10
424.5869107645813
 20
-613.1817570330057
 30
0.0
 11
424.1303834023111
 21
-613.1840932486183
 31
0.0
  0
ARC
  5
2FC
  8
DATA
  6
CONTINUOUS
 62
     7
 10
423.0863025909757
 20
-613.5026534466518
 30
0.0
 40
1.091597609176704
 50
16.96750707695444
 51
171.6954563831428
  0
ARC
  5
2FD
  8
DATA
  6
CONTINUOUS
 62
     7
 10
432.6611702945852
 20
-641.9733272566563
 30
0.0
 40
32.37962611548417
 50
154.6212302914289
 51
175.2442678786822
  0
LINE
  5
2FE
  8
DATA
  6
CONTINUOUS
 62
     7
 10
424.5865855481443
 20
-786.8204375046287
 30
0.0
 11
424.4340568448224
 21
-786.8196870854288
 31
0.0
  0
LINE
  5
2FF
  8
DATA
  6
CONTINUOUS
 62
     7
 10
424.4340568448224
 20
-786.8200623466485
 30
0.0
 11
424.586585547635
 21
-786.8204376078681
 31
0.0
  0
CIRCLE
  5
300
  8
DATA
  6
CONTINUOUS
 62
     7
 10
389.0163909646035
 20
-687.300000027876
 30
0.0
 40
4.5
  0
LINE
  5
301
  8
DATA
  6
CONTINUOUS
 62
     7
 10
548.3677051942178
 20
-744.1868965708129
 30
0.0
 11
531.0809499343414
 21
-744.1868965708134
 31
0.0
  0
LINE
  5
302
  8
DATA
  6
CONTINUOUS
 62
     7
 10
532.3459628628517
 20
-676.1240000278747
 30
0.0
 11
549.8008801917186
 21
-676.1240000278747
 31
0.0
  0
ARC
  5
303
  8
DATA
  6
CONTINUOUS
 62
     7
 10
423.3322418345413
 20
-786.5450751579453
 30
0.0
 40
1.049908630883108
 50
187.937146570698
 51
298.2533860674835
  0
ARC
  5
304
  8
DATA
  6
CONTINUOUS
 62
     7
 10
423.1313162840402
 20
-786.2142581916194
 30
0.0
 40
1.436550421728076
 50
299.0908596461682
 51
335.0740663390299
  0
ARC
  5
305
  8
DATA
  6
CONTINUOUS
 62
     7
 10
426.0026459487087
 20
-762.5091321064062
 30
0.0
 40
24.46391124298196
 50
204.429306749262
 51
261.2767243312147
  0
ARC
  5
306
  8
DATA
  6
CONTINUOUS
 62
     7
 10
435.0990694018692
 20
-757.4194542713906
 30
0.0
 40
34.86179871733776
 50
185.4160573399967
 51
205.862599887676
  0
ARC
  5
307
  8
DATA
  6
CONTINUOUS
 62
     7
 10
405.5286173517513
 20
-779.7325059330362
 30
0.0
 40
18.50219066602806
 50
190.0055803204865
 51
269.8726770676042
  0
ARC
  5
308
  8
DATA
  6
CONTINUOUS
 62
     7
 10
11.04526300356974
 20
-692.517646707164
 30
0.0
 40
539.7094508441743
 50
350.3544708555868
 51
354.3563769310589
  0
LINE
  5
309
  8
DATA
  6
CONTINUOUS
 62
     7
 10
530.0398725342021
 20
-760.709965998172
 30
0.0
 11
531.2051392195136
 21
-745.59300002839
 31
0.0
  0
LINE
  5
30A
  8
DATA
  6
CONTINUOUS
 62
     7
 10
505.8461963816098
 20
-786.8204375046282
 30
0.0
 11
505.9987250849317
 21
-786.8196870854283
 31
0.0
  0
LINE
  5
30B
  8
DATA
  6
CONTINUOUS
 62
     7
 10
505.9987250849317
 20
-786.820062346648
 30
0.0
 11
505.8461963821192
 21
-786.8204376078677
 31
0.0
  0
ARC
  5
30C
  8
DATA
  6
CONTINUOUS
 62
     7
 10
507.1005400952126
 20
-786.5450751579449
 30
0.0
 40
1.049908630882979
 50
241.7466139325275
 51
352.0628534293036
  0
ARC
  5
30D
  8
DATA
  6
CONTINUOUS
 62
     7
 10
507.301465645714
 20
-786.2142581916189
 30
0.0
 40
1.436550421727864
 50
204.9259336609701
 51
240.9091403538319
  0
ARC
  5
30E
  8
DATA
  6
CONTINUOUS
 62
     7
 10
504.4301359810452
 20
-762.5091321064058
 30
0.0
 40
24.46391124298182
 50
278.7232756687858
 51
335.5706932507384
  0
ARC
  5
30F
  8
DATA
  6
CONTINUOUS
 62
     7
 10
495.3337125278849
 20
-757.4194542713901
 30
0.0
 40
34.8617987173379
 50
334.1374001123241
 51
354.5839426600032
  0
ARC
  5
310
  8
DATA
  6
CONTINUOUS
 62
     7
 10
524.9041645780027
 20
-779.7325059330358
 30
0.0
 40
18.50219066602806
 50
270.1273229323965
 51
349.9944196795136
  0
TEXT
  5
311
  8
DATA
 62
     7
 10
435.5714821107118
 20
-715.0465234653761
 30
0.0
 40
9.773046875000002
  1
VTXSERIES
 41
0.7
 72
     1
 11
465.2163909648784
 21
-710.1600000278761
 31
0.0
 73
     2
  0
ARC
  5
312
  8
DATA
  6
CONTINUOUS
 62
     7
 10
389.016390964857
 20
-685.8592886329037
 30
0.0
 40
0.1892886329077032
 50
359.0566788815885
 51
180.9433209280187
  0
ARC
  5
313
  8
DATA
  6
CONTINUOUS
 62
     7
 10
388.1532067717732
 20
-685.8049211212817
 30
0.0
 40
0.6763683861878549
 50
244.8753886700303
 51
355.1246113518736
  0
ARC
  5
314
  8
DATA
  6
CONTINUOUS
 62
     7
 10
387.7686983214522
 20
-686.5796443164812
 30
0.0
 40
0.1892886329077201
 50
59.05667888161861
 51
240.9433209280057
  0
ARC
  5
315
  8
DATA
  6
CONTINUOUS
 62
     7
 10
387.290022578705
 20
-687.3000000000259
 30
0.0
 40
0.6763683861880335
 50
304.8753886700316
 51
55.1246113518647
  0
ARC
  5
316
  8
DATA
  6
CONTINUOUS
 62
     7
 10
389.016390964857
 20
-688.7407113670881
 30
0.0
 40
0.1892886329078051
 50
179.0566790720157
 51
0.9433211183770994
  0
ARC
  5
317
  8
DATA
  6
CONTINUOUS
 62
     7
 10
388.1532067717732
 20
-688.7950788787102
 30
0.0
 40
0.6763683861878202
 50
4.87538864812643
 51
115.1246113299656
  0
ARC
  5
318
  8
DATA
  6
CONTINUOUS
 62
     7
 10
387.7686983214522
 20
-688.0203556835106
 30
0.0
 40
0.1892886329075887
 50
119.056679072011
 51
300.9433211183637
  0
ARC
  5
319
  8
DATA
  6
CONTINUOUS
 62
     7
 10
389.8795751579407
 20
-685.8049211212817
 30
0.0
 40
0.6763683861879335
 50
184.8753886481256
 51
295.1246113299698
  0
ARC
  5
31A
  8
DATA
  6
CONTINUOUS
 62
     7
 10
390.2640836082617
 20
-686.5796443164812
 30
0.0
 40
0.1892886329076881
 50
299.0566790719943
 51
120.9433211183814
  0
ARC
  5
31B
  8
DATA
  6
CONTINUOUS
 62
     7
 10
390.7427593510088
 20
-687.3000000000259
 30
0.0
 40
0.6763683861878241
 50
124.8753886481274
 51
235.1246113299765
  0
ARC
  5
31C
  8
DATA
  6
CONTINUOUS
 62
     7
 10
389.8795751579407
 20
-688.7950788787102
 30
0.0
 40
0.6763683861879578
 50
64.8753886700344
 51
175.1246113518744
  0
ARC
  5
31D
  8
DATA
  6
CONTINUOUS
 62
     7
 10
390.2640836082617
 20
-688.0203556835106
 30
0.0
 40
0.1892886329078176
 50
239.0566788816363
 51
60.94332092798906
  0
CIRCLE
  5
31E
  8
DATA
  6
CONTINUOUS
 62
     7
 10
402.9863909646047
 20
-611.1000000278807
 30
0.0
 40
4.5
  0
ARC
  5
31F
  8
DATA
  6
CONTINUOUS
 62
     7
 10
402.9863909648582
 20
-609.6592886329084
 30
0.0
 40
0.1892886329077032
 50
359.0566788815885
 51
180.9433209280187
  0
ARC
  5
320
  8
DATA
  6
CONTINUOUS
 62
     7
 10
402.1232067717743
 20
-609.6049211212865
 30
0.0
 40
0.6763683861878549
 50
244.8753886700303
 51
355.1246113518736
  0
ARC
  5
321
  8
DATA
  6
CONTINUOUS
 62
     7
 10
401.7386983214534
 20
-610.379644316486
 30
0.0
 40
0.1892886329077201
 50
59.05667888161861
 51
240.9433209280057
  0
ARC
  5
322
  8
DATA
  6
CONTINUOUS
 62
     7
 10
401.2600225787062
 20
-611.1000000000306
 30
0.0
 40
0.6763683861880335
 50
304.8753886700316
 51
55.1246113518647
  0
ARC
  5
323
  8
DATA
  6
CONTINUOUS
 62
     7
 10
402.9863909648582
 20
-612.5407113670929
 30
0.0
 40
0.1892886329078051
 50
179.0566790720157
 51
0.9433211183770994
  0
ARC
  5
324
  8
DATA
  6
CONTINUOUS
 62
     7
 10
402.1232067717743
 20
-612.595078878715
 30
0.0
 40
0.6763683861878202
 50
4.87538864812643
 51
115.1246113299656
  0
ARC
  5
325
  8
DATA
  6
CONTINUOUS
 62
     7
 10
401.7386983214534
 20
-611.8203556835153
 30
0.0
 40
0.1892886329075887
 50
119.056679072011
 51
300.9433211183637
  0
ARC
  5
326
  8
DATA
  6
CONTINUOUS
 62
     7
 10
403.8495751579419
 20
-609.6049211212865
 30
0.0
 40
0.6763683861879335
 50
184.8753886481256
 51
295.1246113299698
  0
ARC
  5
327
  8
DATA
  6
CONTINUOUS
 62
     7
 10
404.2340836082628
 20
-610.379644316486
 30
0.0
 40
0.1892886329076881
 50
299.0566790719943
 51
120.9433211183814
  0
ARC
  5
328
  8
DATA
  6
CONTINUOUS
 62
     7
 10
404.7127593510099
 20
-611.1000000000306
 30
0.0
 40
0.6763683861878241
 50
124.8753886481274
 51
235.1246113299765
  0
ARC
  5
329
  8
DATA
  6
CONTINUOUS
 62
     7
 10
403.8495751579419
 20
-612.595078878715
 30
0.0
 40
0.6763683861879578
 50
64.8753886700344
 51
175.1246113518744
  0
ARC
  5
32A
  8
DATA
  6
CONTINUOUS
 62
     7
 10
404.2340836082628
 20
-611.8203556835153
 30
0.0
 40
0.1892886329078176
 50
239.0566788816363
 51
60.94332092798906
  0
CIRCLE
  5
32B
  8
DATA
  6
CONTINUOUS
 62
     7
 10
527.4463909648804
 20
-611.1000000000007
 30
0.0
 40
4.5
  0
ARC
  5
32C
  8
DATA
  6
CONTINUOUS
 62
     7
 10
527.4463909651337
 20
-609.6592886050285
 30
0.0
 40
0.1892886329077032
 50
359.0566788815885
 51
180.9433209280187
  0
ARC
  5
32D
  8
DATA
  6
CONTINUOUS
 62
     7
 10
526.58320677205
 20
-609.6049210934065
 30
0.0
 40
0.6763683861878066
 50
244.875388670039
 51
355.1246113518728
  0
ARC
  5
32E
  8
DATA
  6
CONTINUOUS
 62
     7
 10
526.198698321729
 20
-610.379644288606
 30
0.0
 40
0.1892886329077785
 50
59.05667888158909
 51
240.9433209280359
  0
ARC
  5
32F
  8
DATA
  6
CONTINUOUS
 62
     7
 10
525.7200225789817
 20
-611.0999999721506
 30
0.0
 40
0.6763683861880335
 50
304.8753886700316
 51
55.12461135184892
  0
ARC
  5
330
  8
DATA
  6
CONTINUOUS
 62
     7
 10
527.4463909651337
 20
-612.5407113392129
 30
0.0
 40
0.1892886329078051
 50
179.0566790720157
 51
0.9433211183770994
  0
ARC
  5
331
  8
DATA
  6
CONTINUOUS
 62
     7
 10
526.58320677205
 20
-612.595078850835
 30
0.0
 40
0.676368386187707
 50
4.875388648127248
 51
115.1246113299569
  0
ARC
  5
332
  8
DATA
  6
CONTINUOUS
 62
     7
 10
526.198698321729
 20
-611.8203556556354
 30
0.0
 40
0.1892886329075335
 50
119.0566790719809
 51
300.9433211183932
  0
ARC
  5
333
  8
DATA
  6
CONTINUOUS
 62
     7
 10
528.3095751582174
 20
-609.6049210934065
 30
0.0
 40
0.676368386187707
 50
184.8753886481273
 51
295.1246113299783
  0
ARC
  5
334
  8
DATA
  6
CONTINUOUS
 62
     7
 10
528.6940836085383
 20
-610.379644288606
 30
0.0
 40
0.1892886329077433
 50
299.0566790720243
 51
120.9433211183519
  0
ARC
  5
335
  8
DATA
  6
CONTINUOUS
 62
     7
 10
529.1727593512857
 20
-611.0999999721506
 30
0.0
 40
0.6763683861878891
 50
124.8753886481353
 51
235.1246113299685
  0
ARC
  5
336
  8
DATA
  6
CONTINUOUS
 62
     7
 10
528.3095751582174
 20
-612.595078850835
 30
0.0
 40
0.6763683861880061
 50
64.87538867002566
 51
175.1246113518727
  0
ARC
  5
337
  8
DATA
  6
CONTINUOUS
 62
     7
 10
528.6940836085383
 20
-611.8203556556354
 30
0.0
 40
0.1892886329077591
 50
239.0566788816658
 51
60.94332092795895
  0
CIRCLE
  5
338
  8
DATA
  6
CONTINUOUS
 62
     7
 10
541.4163909648815
 20
-687.2999999999951
 30
0.0
 40
4.5
  0
ARC
  5
339
  8
DATA
  6
CONTINUOUS
 62
     7
 10
541.4163909651348
 20
-685.8592886050228
 30
0.0
 40
0.1892886329077032
 50
359.0566788815885
 51
180.9433209280187
  0
ARC
  5
33A
  8
DATA
  6
CONTINUOUS
 62
     7
 10
540.5532067720511
 20
-685.8049210934008
 30
0.0
 40
0.6763683861878066
 50
244.875388670039
 51
355.1246113518728
  0
ARC
  5
33B
  8
DATA
  6
CONTINUOUS
 62
     7
 10
540.1686983217302
 20
-686.5796442886003
 30
0.0
 40
0.1892886329077785
 50
59.05667888158909
 51
240.9433209280359
  0
ARC
  5
33C
  8
DATA
  6
CONTINUOUS
 62
     7
 10
539.6900225789828
 20
-687.299999972145
 30
0.0
 40
0.6763683861880335
 50
304.8753886700316
 51
55.12461135184892
  0
ARC
  5
33D
  8
DATA
  6
CONTINUOUS
 62
     7
 10
541.4163909651348
 20
-688.7407113392072
 30
0.0
 40
0.1892886329078051
 50
179.0566790720157
 51
0.9433211183770994
  0
ARC
  5
33E
  8
DATA
  6
CONTINUOUS
 62
     7
 10
540.5532067720511
 20
-688.7950788508293
 30
0.0
 40
0.676368386187707
 50
4.875388648127248
 51
115.1246113299569
  0
ARC
  5
33F
  8
DATA
  6
CONTINUOUS
 62
     7
 10
540.1686983217302
 20
-688.0203556556297
 30
0.0
 40
0.1892886329075335
 50
119.0566790719809
 51
300.9433211183932
  0
ARC
  5
340
  8
DATA
  6
CONTINUOUS
 62
     7
 10
542.2795751582186
 20
-685.8049210934008
 30
0.0
 40
0.676368386187707
 50
184.8753886481273
 51
295.1246113299783
  0
ARC
  5
341
  8
DATA
  6
CONTINUOUS
 62
     7
 10
542.6640836085395
 20
-686.5796442886003
 30
0.0
 40
0.1892886329077433
 50
299.0566790720243
 51
120.9433211183519
  0
ARC
  5
342
  8
DATA
  6
CONTINUOUS
 62
     7
 10
543.1427593512868
 20
-687.299999972145
 30
0.0
 40
0.6763683861878891
 50
124.8753886481353
 51
235.1246113299685
  0
ARC
  5
343
  8
DATA
  6
CONTINUOUS
 62
     7
 10
542.2795751582186
 20
-688.7950788508293
 30
0.0
 40
0.6763683861880061
 50
64.87538867002566
 51
175.1246113518727
  0
ARC
  5
344
  8
DATA
  6
CONTINUOUS
 62
     7
 10
542.6640836085395
 20
-688.0203556556297
 30
0.0
 40
0.1892886329077591
 50
239.0566788816658
 51
60.94332092795895
  0
CIRCLE
  5
345
  8
DATA
  6
CONTINUOUS
 62
     7
 10
541.4163909651544
 20
-733.0200000278521
 30
0.0
 40
4.5
  0
ARC
  5
346
  8
DATA
  6
CONTINUOUS
 62
     7
 10
541.4163909654081
 20
-731.5792886328799
 30
0.0
 40
0.1892886329077032
 50
359.0566788815885
 51
180.9433209280187
  0
ARC
  5
347
  8
DATA
  6
CONTINUOUS
 62
     7
 10
540.5532067723242
 20
-731.5249211212579
 30
0.0
 40
0.6763683861879032
 50
244.8753886700216
 51
355.1246113518744
  0
ARC
  5
348
  8
DATA
  6
CONTINUOUS
 62
     7
 10
540.1686983220033
 20
-732.2996443164574
 30
0.0
 40
0.1892886329076616
 50
59.05667888164812
 51
240.9433209279756
  0
ARC
  5
349
  8
DATA
  6
CONTINUOUS
 62
     7
 10
539.6900225792562
 20
-733.020000000002
 30
0.0
 40
0.6763683861880335
 50
304.8753886700316
 51
55.12461135188054
  0
ARC
  5
34A
  8
DATA
  6
CONTINUOUS
 62
     7
 10
541.4163909654081
 20
-734.4607113670643
 30
0.0
 40
0.1892886329078051
 50
179.0566790720157
 51
0.9433211183770994
  0
ARC
  5
34B
  8
DATA
  6
CONTINUOUS
 62
     7
 10
540.5532067723242
 20
-734.5150788786864
 30
0.0
 40
0.6763683861879335
 50
4.87538864812561
 51
115.1246113299743
  0
ARC
  5
34C
  8
DATA
  6
CONTINUOUS
 62
     7
 10
540.1686983220033
 20
-733.7403556834868
 30
0.0
 40
0.1892886329076439
 50
119.056679072041
 51
300.9433211183342
  0
ARC
  5
34D
  8
DATA
  6
CONTINUOUS
 62
     7
 10
542.2795751584919
 20
-731.5249211212579
 30
0.0
 40
0.6763683861881601
 50
184.875388648124
 51
295.124611329961
  0
ARC
  5
34E
  8
DATA
  6
CONTINUOUS
 62
     7
 10
542.6640836088128
 20
-732.2996443164574
 30
0.0
 40
0.1892886329076329
 50
299.0566790719641
 51
120.9433211184109
  0
ARC
  5
34F
  8
DATA
  6
CONTINUOUS
 62
     7
 10
543.1427593515597
 20
-733.020000000002
 30
0.0
 40
0.6763683861877591
 50
124.8753886481195
 51
235.1246113299843
  0
ARC
  5
350
  8
DATA
  6
CONTINUOUS
 62
     7
 10
542.2795751584919
 20
-734.5150788786864
 30
0.0
 40
0.6763683861879095
 50
64.87538867004311
 51
175.124611351876
  0
ARC
  5
351
  8
DATA
  6
CONTINUOUS
 62
     7
 10
542.6640836088128
 20
-733.7403556834868
 30
0.0
 40
0.189288632907876
 50
239.0566788816068
 51
60.94332092801913
  0
CIRCLE
  5
352
  8
DATA
  6
CONTINUOUS
 62
     7
 10
527.4463909648804
 20
-788.9000000000017
 30
0.0
 40
4.5
  0
ARC
  5
353
  8
DATA
  6
CONTINUOUS
 62
     7
 10
527.4463909651337
 20
-787.4592886050295
 30
0.0
 40
0.1892886329077032
 50
359.0566788815885
 51
180.9433209280187
  0
ARC
  5
354
  8
DATA
  6
CONTINUOUS
 62
     7
 10
526.58320677205
 20
-787.4049210934074
 30
0.0
 40
0.6763683861879095
 50
244.8753886700431
 51
355.1246113518632
  0
ARC
  5
355
  8
DATA
  6
CONTINUOUS
 62
     7
 10
526.198698321729
 20
-788.179644288607
 30
0.0
 40
0.189288632907876
 50
59.05667888160679
 51
240.9433209280191
  0
ARC
  5
356
  8
DATA
  6
CONTINUOUS
 62
     7
 10
525.7200225789817
 20
-788.8999999721517
 30
0.0
 40
0.6763683861880335
 50
304.8753886700316
 51
55.12461135185442
  0
ARC
  5
357
  8
DATA
  6
CONTINUOUS
 62
     7
 10
527.4463909651337
 20
-790.340711339214
 30
0.0
 40
0.1892886329078051
 50
179.0566790720157
 51
0.9433211183770994
  0
ARC
  5
358
  8
DATA
  6
CONTINUOUS
 62
     7
 10
526.58320677205
 20
-790.395078850836
 30
0.0
 40
0.6763683861876972
 50
4.875388648117652
 51
115.124611329961
  0
ARC
  5
359
  8
DATA
  6
CONTINUOUS
 62
     7
 10
526.198698321729
 20
-789.6203556556364
 30
0.0
 40
0.1892886329076329
 50
119.0566790719642
 51
300.9433211184109
  0
ARC
  5
35A
  8
DATA
  6
CONTINUOUS
 62
     7
 10
528.3095751582174
 20
-787.4049210934074
 30
0.0
 40
0.6763683861877166
 50
184.8753886481368
 51
295.1246113299744
  0
ARC
  5
35B
  8
DATA
  6
CONTINUOUS
 62
     7
 10
528.6940836085383
 20
-788.179644288607
 30
0.0
 40
0.1892886329076439
 50
299.056679072041
 51
120.9433211183342
  0
ARC
  5
35C
  8
DATA
  6
CONTINUOUS
 62
     7
 10
529.1727593512857
 20
-788.8999999721517
 30
0.0
 40
0.6763683861879823
 50
124.8753886481298
 51
235.1246113299685
  0
ARC
  5
35D
  8
DATA
  6
CONTINUOUS
 62
     7
 10
528.3095751582174
 20
-790.395078850836
 30
0.0
 40
0.6763683861879032
 50
64.8753886700216
 51
175.1246113518824
  0
ARC
  5
35E
  8
DATA
  6
CONTINUOUS
 62
     7
 10
528.6940836085383
 20
-789.6203556556364
 30
0.0
 40
0.1892886329076616
 50
239.0566788816481
 51
60.94332092797566
  0
CIRCLE
  5
35F
  8
DATA
  6
CONTINUOUS
 62
     7
 10
402.9863909648811
 20
-788.9000000000017
 30
0.0
 40
4.5
  0
ARC
  5
360
  8
DATA
  6
CONTINUOUS
 62
     7
 10
402.9863909651347
 20
-787.4592886050295
 30
0.0
 40
0.1892886329077032
 50
359.0566788815885
 51
180.9433209280187
  0
ARC
  5
361
  8
DATA
  6
CONTINUOUS
 62
     7
 10
402.1232067720508
 20
-787.4049210934074
 30
0.0
 40
0.6763683861879578
 50
244.8753886700344
 51
355.124611351864
  0
ARC
  5
362
  8
DATA
  6
CONTINUOUS
 62
     7
 10
401.7386983217299
 20
-788.179644288607
 30
0.0
 40
0.1892886329078176
 50
59.0566788816363
 51
240.943320927989
  0
ARC
  5
363
  8
DATA
  6
CONTINUOUS
 62
     7
 10
401.2600225789827
 20
-788.8999999721517
 30
0.0
 40
0.6763683861880335
 50
304.8753886700316
 51
55.12461135187021
  0
ARC
  5
364
  8
DATA
  6
CONTINUOUS
 62
     7
 10
402.9863909651347
 20
-790.340711339214
 30
0.0
 40
0.1892886329078051
 50
179.0566790720157
 51
0.9433211183770994
  0
ARC
  5
365
  8
DATA
  6
CONTINUOUS
 62
     7
 10
402.1232067720508
 20
-790.395078850836
 30
0.0
 40
0.6763683861878106
 50
4.875388648116833
 51
115.1246113299697
  0
ARC
  5
366
  8
DATA
  6
CONTINUOUS
 62
     7
 10
401.7386983217299
 20
-789.6203556556364
 30
0.0
 40
0.1892886329076881
 50
119.0566790719942
 51
300.9433211183814
  0
ARC
  5
367
  8
DATA
  6
CONTINUOUS
 62
     7
 10
403.8495751582184
 20
-787.4049210934074
 30
0.0
 40
0.6763683861879431
 50
184.8753886481352
 51
295.1246113299656
  0
ARC
  5
368
  8
DATA
  6
CONTINUOUS
 62
     7
 10
404.2340836085393
 20
-788.179644288607
 30
0.0
 40
0.1892886329075887
 50
299.056679072011
 51
120.9433211183637
  0
ARC
  5
369
  8
DATA
  6
CONTINUOUS
 62
     7
 10
404.7127593512864
 20
-788.8999999721517
 30
0.0
 40
0.6763683861879174
 50
124.8753886481219
 51
235.1246113299765
  0
ARC
  5
36A
  8
DATA
  6
CONTINUOUS
 62
     7
 10
403.8495751582184
 20
-790.395078850836
 30
0.0
 40
0.6763683861878549
 50
64.8753886700303
 51
175.124611351884
  0
ARC
  5
36B
  8
DATA
  6
CONTINUOUS
 62
     7
 10
404.2340836085393
 20
-789.6203556556364
 30
0.0
 40
0.1892886329077201
 50
239.0566788816186
 51
60.94332092800577
  0
CIRCLE
  5
36C
  8
DATA
  6
CONTINUOUS
 62
     7
 10
389.01639096488
 20
-733.0199999999971
 30
0.0
 40
4.5
  0
ARC
  5
36D
  8
DATA
  6
CONTINUOUS
 62
     7
 10
389.0163909651335
 20
-731.5792886050249
 30
0.0
 40
0.1892886329077032
 50
359.0566788815885
 51
180.9433209280187
  0
ARC
  5
36E
  8
DATA
  6
CONTINUOUS
 62
     7
 10
388.1532067720497
 20
-731.5249210934029
 30
0.0
 40
0.6763683861878549
 50
244.8753886700303
 51
355.1246113518736
  0
ARC
  5
36F
  8
DATA
  6
CONTINUOUS
 62
     7
 10
387.7686983217287
 20
-732.2996442886024
 30
0.0
 40
0.1892886329077201
 50
59.05667888161861
 51
240.9433209280057
  0
ARC
  5
370
  8
DATA
  6
CONTINUOUS
 62
     7
 10
387.2900225789815
 20
-733.019999972147
 30
0.0
 40
0.6763683861880335
 50
304.8753886700316
 51
55.1246113518647
  0
ARC
  5
371
  8
DATA
  6
CONTINUOUS
 62
     7
 10
389.0163909651335
 20
-734.4607113392093
 30
0.0
 40
0.1892886329078051
 50
179.0566790720157
 51
0.9433211183770994
  0
ARC
  5
372
  8
DATA
  6
CONTINUOUS
 62
     7
 10
388.1532067720497
 20
-734.5150788508314
 30
0.0
 40
0.6763683861878202
 50
4.87538864812643
 51
115.1246113299656
  0
ARC
  5
373
  8
DATA
  6
CONTINUOUS
 62
     7
 10
387.7686983217287
 20
-733.7403556556318
 30
0.0
 40
0.1892886329075887
 50
119.056679072011
 51
300.9433211183637
  0
ARC
  5
374
  8
DATA
  6
CONTINUOUS
 62
     7
 10
389.8795751582172
 20
-731.5249210934029
 30
0.0
 40
0.6763683861879335
 50
184.8753886481256
 51
295.1246113299698
  0
ARC
  5
375
  8
DATA
  6
CONTINUOUS
 62
     7
 10
390.2640836085382
 20
-732.2996442886024
 30
0.0
 40
0.1892886329076881
 50
299.0566790719943
 51
120.9433211183814
  0
ARC
  5
376
  8
DATA
  6
CONTINUOUS
 62
     7
 10
390.7427593512853
 20
-733.019999972147
 30
0.0
 40
0.6763683861878241
 50
124.8753886481274
 51
235.1246113299765
  0
ARC
  5
377
  8
DATA
  6
CONTINUOUS
 62
     7
 10
389.8795751582172
 20
-734.5150788508314
 30
0.0
 40
0.6763683861879578
 50
64.8753886700344
 51
175.1246113518744
  0
ARC
  5
378
  8
DATA
  6
CONTINUOUS
 62
     7
 10
390.2640836085382
 20
-733.7403556556318
 30
0.0
 40
0.1892886329078176
 50
239.0566788816363
 51
60.94332092798906
  0
CIRCLE
  5
379
  8
DATA
  6
CONTINUOUS
 62
     7
 10
653.25
 20
-640.0
 30
0.0
 40
4.5
  0
ARC
  5
37A
  8
DATA
  6
CONTINUOUS
 62
     7
 10
653.25
 20
-638.0546449810458
 30
0.0
 40
0.2546449810461108
 50
356.8251528744259
 51
183.1748471255741
  0
ARC
  5
37B
  8
DATA
  6
CONTINUOUS
 62
     7
 10
654.4361482369441
 20
-637.9455309881893
 30
0.0
 40
0.9400048073214964
 50
187.5320803774516
 51
292.467919647551
  0
ARC
  5
37C
  8
DATA
  6
CONTINUOUS
 62
     7
 10
654.9347268657939
 20
-639.0273224905229
 30
0.0
 40
0.2546449810457934
 50
296.825152874387
 51
123.1748471255698
  0
ARC
  5
37D
  8
DATA
  6
CONTINUOUS
 62
     7
 10
655.6222964739882
 20
-639.9999999999425
 30
0.0
 40
0.9400048073215771
 50
127.5320803774608
 51
232.4679196475259
  0
ARC
  5
37E
  8
DATA
  6
CONTINUOUS
 62
     7
 10
653.25
 20
-641.9453550189542
 30
0.0
 40
0.2546449810456567
 50
176.8251528744202
 51
3.17484712557976
  0
ARC
  5
37F
  8
DATA
  6
CONTINUOUS
 62
     7
 10
654.4361482369441
 20
-642.0544690118109
 30
0.0
 40
0.9400048073216826
 50
67.53208035245173
 51
172.4679196225415
  0
ARC
  5
380
  8
DATA
  6
CONTINUOUS
 62
     7
 10
654.9347268657939
 20
-640.9726775094771
 30
0.0
 40
0.2546449810458529
 50
236.8251528744302
 51
63.17484712561298
  0
ARC
  5
381
  8
DATA
  6
CONTINUOUS
 62
     7
 10
652.0638517630559
 20
-637.9455309881893
 30
0.0
 40
0.9400048073215775
 50
247.5320803524491
 51
352.4679196225484
  0
ARC
  5
382
  8
DATA
  6
CONTINUOUS
 62
     7
 10
651.5652731342061
 20
-639.0273224905229
 30
0.0
 40
0.2546449810458529
 50
56.82515287443024
 51
243.174847125613
  0
ARC
  5
383
  8
DATA
  6
CONTINUOUS
 62
     7
 10
650.8777035260118
 20
-639.9999999999425
 30
0.0
 40
0.9400048073214778
 50
307.5320803524742
 51
52.46791962253923
  0
ARC
  5
384
  8
DATA
  6
CONTINUOUS
 62
     7
 10
652.0638517630559
 20
-642.0544690118109
 30
0.0
 40
0.9400048073215113
 50
7.532080377458499
 51
112.4679196475483
  0
ARC
  5
385
  8
DATA
  6
CONTINUOUS
 62
     7
 10
651.5652731342061
 20
-640.9726775094771
 30
0.0
 40
0.2546449810457934
 50
116.825152874387
 51
303.1748471255698
  0
CIRCLE
  5
386
  8
DATA
  6
CONTINUOUS
 62
     7
 10
653.25
 20
-640.0
 30
0.0
 40
9.5
  0
CIRCLE
  5
387
  8
DATA
  6
CONTINUOUS
 62
     7
 10
653.25
 20
-520.0
 30
0.0
 40
4.5
  0
ARC
  5
388
  8
DATA
  6
CONTINUOUS
 62
     7
 10
653.25
 20
-518.0546449810458
 30
0.0
 40
0.2546449810461108
 50
356.8251528744259
 51
183.1748471255741
  0
ARC
  5
389
  8
DATA
  6
CONTINUOUS
 62
     7
 10
654.4361482369441
 20
-517.9455309881893
 30
0.0
 40
0.9400048073214964
 50
187.5320803774516
 51
292.467919647551
  0
ARC
  5
38A
  8
DATA
  6
CONTINUOUS
 62
     7
 10
654.9347268657939
 20
-519.0273224905229
 30
0.0
 40
0.2546449810457934
 50
296.825152874387
 51
123.1748471255698
  0
ARC
  5
38B
  8
DATA
  6
CONTINUOUS
 62
     7
 10
655.6222964739882
 20
-519.9999999999425
 30
0.0
 40
0.9400048073215771
 50
127.5320803774608
 51
232.4679196475259
  0
ARC
  5
38C
  8
DATA
  6
CONTINUOUS
 62
     7
 10
653.25
 20
-521.9453550189542
 30
0.0
 40
0.2546449810456567
 50
176.8251528744202
 51
3.17484712557976
  0
ARC
  5
38D
  8
DATA
  6
CONTINUOUS
 62
     7
 10
654.4361482369441
 20
-522.0544690118109
 30
0.0
 40
0.9400048073216826
 50
67.53208035245173
 51
172.4679196225415
  0
ARC
  5
38E
  8
DATA
  6
CONTINUOUS
 62
     7
 10
654.9347268657939
 20
-520.9726775094771
 30
0.0
 40
0.2546449810458529
 50
236.8251528744302
 51
63.17484712561298
  0
ARC
  5
38F
  8
DATA
  6
CONTINUOUS
 62
     7
 10
652.0638517630559
 20
-517.9455309881893
 30
0.0
 40
0.9400048073215775
 50
247.5320803524491
 51
352.4679196225484
  0
ARC
  5
390
  8
DATA
  6
CONTINUOUS
 62
     7
 10
651.5652731342061
 20
-519.0273224905229
 30
0.0
 40
0.2546449810458529
 50
56.82515287443024
 51
243.174847125613
  0
ARC
  5
391
  8
DATA
  6
CONTINUOUS
 62
     7
 10
650.8777035260118
 20
-519.9999999999425
 30
0.0
 40
0.9400048073214778
 50
307.5320803524742
 51
52.46791962253923
  0
ARC
  5
392
  8
DATA
  6
CONTINUOUS
 62
     7
 10
652.0638517630559
 20
-522.0544690118109
 30
0.0
 40
0.9400048073215113
 50
7.532080377458499
 51
112.4679196475483
  0
ARC
  5
393
  8
DATA
  6
CONTINUOUS
 62
     7
 10
651.5652731342061
 20
-520.9726775094771
 30
0.0
 40
0.2546449810457934
 50
116.825152874387
 51
303.1748471255698
  0
CIRCLE
  5
394
  8
DATA
  6
CONTINUOUS
 62
     7
 10
653.25
 20
-520.0
 30
0.0
 40
9.5
  0
CIRCLE
  5
395
  8
DATA
  6
CONTINUOUS
 62
     7
 10
653.25
 20
-880.0
 30
0.0
 40
4.5
  0
ARC
  5
396
  8
DATA
  6
CONTINUOUS
 62
     7
 10
653.25
 20
-878.0546449810458
 30
0.0
 40
0.2546449810461108
 50
356.8251528744259
 51
183.1748471255741
  0
ARC
  5
397
  8
DATA
  6
CONTINUOUS
 62
     7
 10
654.4361482369441
 20
-877.9455309881893
 30
0.0
 40
0.9400048073214964
 50
187.5320803774516
 51
292.467919647551
  0
ARC
  5
398
  8
DATA
  6
CONTINUOUS
 62
     7
 10
654.9347268657939
 20
-879.0273224905229
 30
0.0
 40
0.2546449810457934
 50
296.825152874387
 51
123.1748471255698
  0
ARC
  5
399
  8
DATA
  6
CONTINUOUS
 62
     7
 10
655.6222964739882
 20
-879.9999999999425
 30
0.0
 40
0.9400048073215771
 50
127.5320803774608
 51
232.4679196475259
  0
ARC
  5
39A
  8
DATA
  6
CONTINUOUS
 62
     7
 10
653.25
 20
-881.9453550189542
 30
0.0
 40
0.2546449810456567
 50
176.8251528744202
 51
3.17484712557976
  0
ARC
  5
39B
  8
DATA
  6
CONTINUOUS
 62
     7
 10
654.4361482369441
 20
-882.0544690118109
 30
0.0
 40
0.9400048073216826
 50
67.53208035245173
 51
172.4679196225415
  0
ARC
  5
39C
  8
DATA
  6
CONTINUOUS
 62
     7
 10
654.9347268657939
 20
-880.9726775094771
 30
0.0
 40
0.2546449810458529
 50
236.8251528744302
 51
63.17484712561298
  0
ARC
  5
39D
  8
DATA
  6
CONTINUOUS
 62
     7
 10
652.0638517630559
 20
-877.9455309881893
 30
0.0
 40
0.9400048073215775
 50
247.5320803524491
 51
352.4679196225484
  0
ARC
  5
39E
  8
DATA
  6
CONTINUOUS
 62
     7
 10
651.5652731342061
 20
-879.0273224905229
 30
0.0
 40
0.2546449810458529
 50
56.82515287443024
 51
243.174847125613
  0
ARC
  5
39F
  8
DATA
  6
CONTINUOUS
 62
     7
 10
650.8777035260118
 20
-879.9999999999425
 30
0.0
 40
0.9400048073214778
 50
307.5320803524742
 51
52.46791962253923
  0
ARC
  5
3A0
  8
DATA
  6
CONTINUOUS
 62
     7
 10
652.0638517630559
 20
-882.0544690118109
 30
0.0
 40
0.9400048073215113
 50
7.532080377458499
 51
112.4679196475483
  0
ARC
  5
3A1
  8
DATA
  6
CONTINUOUS
 62
     7
 10
651.5652731342061
 20
-880.9726775094771
 30
0.0
 40
0.2546449810457934
 50
116.825152874387
 51
303.1748471255698
  0
CIRCLE
  5
3A2
  8
DATA
  6
CONTINUOUS
 62
     7
 10
653.25
 20
-880.0
 30
0.0
 40
9.5
  0
CIRCLE
  5
3A3
  8
DATA
  6
CONTINUOUS
 62
     7
 10
653.25
 20
-760.0
 30
0.0
 40
4.5
  0
ARC
  5
3A4
  8
DATA
  6
CONTINUOUS
 62
     7
 10
653.25
 20
-758.0546449810458
 30
0.0
 40
0.2546449810461108
 50
356.8251528744259
 51
183.1748471255741
  0
ARC
  5
3A5
  8
DATA
  6
CONTINUOUS
 62
     7
 10
654.4361482369441
 20
-757.9455309881893
 30
0.0
 40
0.9400048073214964
 50
187.5320803774516
 51
292.467919647551
  0
ARC
  5
3A6
  8
DATA
  6
CONTINUOUS
 62
     7
 10
654.9347268657939
 20
-759.0273224905229
 30
0.0
 40
0.2546449810457934
 50
296.825152874387
 51
123.1748471255698
  0
ARC
  5
3A7
  8
DATA
  6
CONTINUOUS
 62
     7
 10
655.6222964739882
 20
-759.9999999999425
 30
0.0
 40
0.9400048073215771
 50
127.5320803774608
 51
232.4679196475259
  0
ARC
  5
3A8
  8
DATA
  6
CONTINUOUS
 62
     7
 10
653.25
 20
-761.9453550189542
 30
0.0
 40
0.2546449810456567
 50
176.8251528744202
 51
3.17484712557976
  0
ARC
  5
3A9
  8
DATA
  6
CONTINUOUS
 62
     7
 10
654.4361482369441
 20
-762.0544690118109
 30
0.0
 40
0.9400048073216826
 50
67.53208035245173
 51
172.4679196225415
  0
ARC
  5
3AA
  8
DATA
  6
CONTINUOUS
 62
     7
 10
654.9347268657939
 20
-760.9726775094771
 30
0.0
 40
0.2546449810458529
 50
236.8251528744302
 51
63.17484712561298
  0
ARC
  5
3AB
  8
DATA
  6
CONTINUOUS
 62
     7
 10
652.0638517630559
 20
-757.9455309881893
 30
0.0
 40
0.9400048073215775
 50
247.5320803524491
 51
352.4679196225484
  0
ARC
  5
3AC
  8
DATA
  6
CONTINUOUS
 62
     7
 10
651.5652731342061
 20
-759.0273224905229
 30
0.0
 40
0.2546449810458529
 50
56.82515287443024
 51
243.174847125613
  0
ARC
  5
3AD
  8
DATA
  6
CONTINUOUS
 62
     7
 10
650.8777035260118
 20
-759.9999999999425
 30
0.0
 40
0.9400048073214778
 50
307.5320803524742
 51
52.46791962253923
  0
ARC
  5
3AE
  8
DATA
  6
CONTINUOUS
 62
     7
 10
652.0638517630559
 20
-762.0544690118109
 30
0.0
 40
0.9400048073215113
 50
7.532080377458499
 51
112.4679196475483
  0
ARC
  5
3AF
  8
DATA
  6
CONTINUOUS
 62
     7
 10
651.5652731342061
 20
-760.9726775094771
 30
0.0
 40
0.2546449810457934
 50
116.825152874387
 51
303.1748471255698
  0
CIRCLE
  5
3B0
  8
DATA
  6
CONTINUOUS
 62
     7
 10
653.25
 20
-760.0
 30
0.0
 40
9.5
  0
LINE
  5
3B1
  8
DATA
  6
CONTINUOUS
 62
     7
 10
565.8700703754458
 20
-509.3684505832281
 30
0.0
 11
592.881549416772
 21
-536.3799296245544
 31
0.0
  0
LINE
  5
3B2
  8
DATA
  6
CONTINUOUS
 62
     7
 10
610.6299296245543
 20
-518.6315494167719
 30
0.0
 11
583.618450583228
 21
-491.6200703754457
 31
0.0
  0
ARC
  5
3B3
  8
DATA
  6
CONTINUOUS
 62
     7
 10
601.7557395206632
 20
-527.5057395206632
 30
0.0
 40
12.55000000000003
 50
180.545034558096
 51
89.45496544190347
  0
ARC
  5
3B4
  8
DATA
  6
CONTINUOUS
 62
     7
 10
591.6087572106362
 20
-517.358757210636
 30
0.0
 40
2.499999999999984
 50
89.45496544190401
 51
180.5450345580959
  0
LINE
  5
3B5
  8
DATA
  6
CONTINUOUS
 62
     7
 10
601.8751214472345
 20
-514.9563073440422
 30
0.0
 11
591.6325384709094
 21
-514.8588703228629
 31
0.0
  0
LINE
  5
3B6
  8
DATA
  6
CONTINUOUS
 62
     7
 10
589.2063073440422
 20
-527.6251214472344
 30
0.0
 11
589.1088703228629
 21
-517.3825384709093
 31
0.0
  0
ARC
  5
3B7
  8
DATA
  6
CONTINUOUS
 62
     7
 10
602.9562402268157
 20
-526.3052388146539
 30
0.0
 40
0.2222356198215592
 50
311.8251528743884
 51
138.1748471255484
  0
ARC
  5
3B8
  8
DATA
  6
CONTINUOUS
 62
     7
 10
603.7555612794181
 20
-526.9698888954374
 30
0.0
 40
0.820367831844439
 50
142.5320803774583
 51
247.4679196475404
  0
ARC
  5
3B9
  8
DATA
  6
CONTINUOUS
 62
     7
 10
603.3956539825026
 20
-527.9451532764216
 30
0.0
 40
0.2222356198218833
 50
251.825152874386
 51
78.17484712566122
  0
ARC
  5
3BA
  8
DATA
  6
CONTINUOUS
 62
     7
 10
603.2197106542176
 20
-528.9697106541469
 30
0.0
 40
0.8203678318442666
 50
82.53208037744214
 51
187.4679196475302
  0
ARC
  5
3BB
  8
DATA
  6
CONTINUOUS
 62
     7
 10
600.5552388146539
 20
-528.7062402268158
 30
0.0
 40
0.2222356198219472
 50
131.8251528744562
 51
318.1748471255702
  0
ARC
  5
3BC
  8
DATA
  6
CONTINUOUS
 62
     7
 10
601.2198888954372
 20
-529.5055612794183
 30
0.0
 40
0.8203678318443837
 50
22.53208035246395
 51
127.4679196225354
  0
ARC
  5
3BD
  8
DATA
  6
CONTINUOUS
 62
     7
 10
602.1951532764215
 20
-529.1456539825026
 30
0.0
 40
0.2222356198216828
 50
191.8251528744022
 51
18.17484712559531
  0
ARC
  5
3BE
  8
DATA
  6
CONTINUOUS
 62
     7
 10
602.2915901460324
 20
-525.5059177620515
 30
0.0
 40
0.8203678318443837
 50
202.5320803524639
 51
307.4679196225451
  0
ARC
  5
3BF
  8
DATA
  6
CONTINUOUS
 62
     7
 10
601.3163257650481
 20
-525.8658250589671
 30
0.0
 40
0.2222356198216828
 50
11.82515287440219
 51
198.1748471255953
  0
ARC
  5
3C0
  8
DATA
  6
CONTINUOUS
 62
     7
 10
600.2917683873229
 20
-526.0417683872518
 30
0.0
 40
0.8203678318442642
 50
262.5320803524572
 51
7.467919622542126
  0
ARC
  5
3C1
  8
DATA
  6
CONTINUOUS
 62
     7
 10
599.7559177620515
 20
-528.0415901460323
 30
0.0
 40
0.8203678318440089
 50
322.5320803774453
 51
67.46791964753729
  0
ARC
  5
3C2
  8
DATA
  6
CONTINUOUS
 62
     7
 10
600.115825058967
 20
-527.0663257650481
 30
0.0
 40
0.2222356198217753
 50
71.82515287437687
 51
258.1748471256672
  0
CIRCLE
  5
3C3
  8
DATA
  6
CONTINUOUS
 62
     7
 10
601.7557395206632
 20
-527.5057395206632
 30
0.0
 40
5.000000000000121
  0
CIRCLE
  5
3C4
  8
DATA
  6
CONTINUOUS
 62
     7
 10
601.7557395206632
 20
-527.5057395206632
 30
0.0
 40
4.000000000000032
  0
ARC
  5
3C5
  8
DATA
  6
CONTINUOUS
 62
     7
 10
574.7442604793368
 20
-500.494260479337
 30
0.0
 40
12.55000000000003
 50
0.5450345580965505
 51
269.4549654419035
  0
ARC
  5
3C6
  8
DATA
  6
CONTINUOUS
 62
     7
 10
584.8912427893638
 20
-510.641242789364
 30
0.0
 40
2.500000000000041
 50
269.4549654419039
 51
0.5450345580972566
  0
LINE
  5
3C7
  8
DATA
  6
CONTINUOUS
 62
     7
 10
587.2936926559578
 20
-500.3748785527657
 30
0.0
 11
587.3911296771371
 21
-510.6174615290907
 31
0.0
  0
LINE
  5
3C8
  8
DATA
  6
CONTINUOUS
 62
     7
 10
574.6248785527655
 20
-513.0436926559578
 30
0.0
 11
584.8674615290906
 21
-513.1411296771371
 31
0.0
  0
ARC
  5
3C9
  8
DATA
  6
CONTINUOUS
 62
     7
 10
575.9447611853461
 20
-499.2937597731843
 30
0.0
 40
0.2222356198216016
 50
311.8251528743786
 51
138.1748471255484
  0
ARC
  5
3CA
  8
DATA
  6
CONTINUOUS
 62
     7
 10
575.2801111045624
 20
-498.4944387205818
 30
0.0
 40
0.8203678318439419
 50
202.5320803524724
 51
307.4679196225679
  0
ARC
  5
3CB
  8
DATA
  6
CONTINUOUS
 62
     7
 10
574.3048467235785
 20
-498.8543460174974
 30
0.0
 40
0.2222356198216944
 50
11.82515287441653
 51
198.1748471255587
  0
ARC
  5
3CC
  8
DATA
  6
CONTINUOUS
 62
     7
 10
573.280289345853
 20
-499.0302893457822
 30
0.0
 40
0.8203678318442051
 50
262.5320803524887
 51
7.46791962254713
  0
ARC
  5
3CD
  8
DATA
  6
CONTINUOUS
 62
     7
 10
573.5437597731842
 20
-501.6947611853462
 30
0.0
 40
0.2222356198217956
 50
131.8251528744126
 51
318.1748471255984
  0
ARC
  5
3CE
  8
DATA
  6
CONTINUOUS
 62
     7
 10
572.7444387205818
 20
-501.0301111045626
 30
0.0
 40
0.8203678318442239
 50
322.5320803774517
 51
67.46791964752566
  0
ARC
  5
3CF
  8
DATA
  6
CONTINUOUS
 62
     7
 10
573.1043460174975
 20
-500.0548467235785
 30
0.0
 40
0.2222356198218833
 50
71.82515287438599
 51
258.1748471255494
  0
ARC
  5
3D0
  8
DATA
  6
CONTINUOUS
 62
     7
 10
576.7440822379485
 20
-499.9584098539677
 30
0.0
 40
0.8203678318443698
 50
142.5320803774646
 51
247.4679196475388
  0
ARC
  5
3D1
  8
DATA
  6
CONTINUOUS
 62
     7
 10
576.384174941033
 20
-500.933674234952
 30
0.0
 40
0.2222356198218833
 50
251.825152874386
 51
78.17484712566721
  0
ARC
  5
3D2
  8
DATA
  6
CONTINUOUS
 62
     7
 10
576.208231612748
 20
-501.9582316126772
 30
0.0
 40
0.8203678318442102
 50
82.53208037744163
 51
187.4679196475341
  0
ARC
  5
3D3
  8
DATA
  6
CONTINUOUS
 62
     7
 10
574.2084098539676
 20
-502.4940822379486
 30
0.0
 40
0.8203678318443837
 50
22.53208035246395
 51
127.4679196225388
  0
ARC
  5
3D4
  8
DATA
  6
CONTINUOUS
 62
     7
 10
575.1836742349519
 20
-502.134174941033
 30
0.0
 40
0.2222356198221279
 50
191.8251528743782
 51
18.17484712559528
  0
CIRCLE
  5
3D5
  8
DATA
  6
CONTINUOUS
 62
     7
 10
574.7442604793368
 20
-500.494260479337
 30
0.0
 40
5.000000000000121
  0
CIRCLE
  5
3D6
  8
DATA
  6
CONTINUOUS
 62
     7
 10
574.7442604793368
 20
-500.494260479337
 30
0.0
 40
4.000000000000032
  0
LINE
  5
3D7
  8
DATA
  6
CONTINUOUS
 62
     7
 10
565.8700703754458
 20
-890.631549416772
 30
0.0
 11
592.881549416772
 21
-863.6200703754457
 31
0.0
  0
LINE
  5
3D8
  8
DATA
  6
CONTINUOUS
 62
     7
 10
610.6299296245543
 20
-881.3684505832282
 30
0.0
 11
583.618450583228
 21
-908.3799296245544
 31
0.0
  0
ARC
  5
3D9
  8
DATA
  6
CONTINUOUS
 62
     7
 10
601.7557395206632
 20
-872.4942604793371
 30
0.0
 40
12.55000000000003
 50
270.5450345580965
 51
179.4549654419035
  0
ARC
  5
3DA
  8
DATA
  6
CONTINUOUS
 62
     7
 10
591.6087572106362
 20
-882.6412427893641
 30
0.0
 40
2.500000000000212
 50
179.4549654419014
 51
270.5450345580959
  0
LINE
  5
3DB
  8
DATA
  6
CONTINUOUS
 62
     7
 10
601.8751214472345
 20
-885.0436926559579
 30
0.0
 11
591.6325384709094
 21
-885.1411296771371
 31
0.0
  0
LINE
  5
3DC
  8
DATA
  6
CONTINUOUS
 62
     7
 10
589.2063073440422
 20
-872.3748785527657
 30
0.0
 11
589.1088703228629
 21
-882.6174615290909
 31
0.0
  0
ARC
  5
3DD
  8
DATA
  6
CONTINUOUS
 62
     7
 10
602.9562402268157
 20
-873.6947611853464
 30
0.0
 40
0.2222356198216261
 50
221.8251528744517
 51
48.17484712563117
  0
ARC
  5
3DE
  8
DATA
  6
CONTINUOUS
 62
     7
 10
603.7555612794181
 20
-873.0301111045627
 30
0.0
 40
0.8203678318442351
 50
112.5320803524597
 51
217.4679196225417
  0
ARC
  5
3DF
  8
DATA
  6
CONTINUOUS
 62
     7
 10
603.3956539825026
 20
-872.0548467235785
 30
0.0
 40
0.2222356198218587
 50
281.8251528743328
 51
108.174847125614
  0
ARC
  5
3E0
  8
DATA
  6
CONTINUOUS
 62
     7
 10
603.2197106542176
 20
-871.0302893458534
 30
0.0
 40
0.8203678318438964
 50
172.5320803524698
 51
277.4679196225588
  0
ARC
  5
3E1
  8
DATA
  6
CONTINUOUS
 62
     7
 10
600.5552388146539
 20
-871.2937597731843
 30
0.0
 40
0.2222356198216261
 50
41.82515287445163
 51
228.1748471255437
  0
ARC
  5
3E2
  8
DATA
  6
CONTINUOUS
 62
     7
 10
601.2198888954372
 20
-870.4944387205819
 30
0.0
 40
0.8203678318441894
 50
232.5320803774549
 51
337.4679196475434
  0
ARC
  5
3E3
  8
DATA
  6
CONTINUOUS
 62
     7
 10
602.1951532764215
 20
-870.8543460174975
 30
0.0
 40
0.2222356198217398
 50
341.8251528744047
 51
168.1748471255692
  0
ARC
  5
3E4
  8
DATA
  6
CONTINUOUS
 62
     7
 10
602.2915901460324
 20
-874.4940822379488
 30
0.0
 40
0.8203678318441894
 50
52.53208037745492
 51
157.4679196475287
  0
ARC
  5
3E5
  8
DATA
  6
CONTINUOUS
 62
     7
 10
601.3163257650481
 20
-874.134174941033
 30
0.0
 40
0.2222356198217753
 50
161.8251528743768
 51
348.1748471255978
  0
ARC
  5
3E6
  8
DATA
  6
CONTINUOUS
 62
     7
 10
600.2917683873229
 20
-873.9582316127482
 30
0.0
 40
0.820367831844237
 50
352.5320803774579
 51
97.46791964754385
  0
ARC
  5
3E7
  8
DATA
  6
CONTINUOUS
 62
     7
 10
599.7559177620515
 20
-871.9584098539679
 30
0.0
 40
0.8203678318441301
 50
292.5320803524627
 51
37.46791962255472
  0
ARC
  5
3E8
  8
DATA
  6
CONTINUOUS
 62
     7
 10
600.115825058967
 20
-872.933674234952
 30
0.0
 40
0.2222356198218587
 50
101.8251528743328
 51
288.174847125614
  0
CIRCLE
  5
3E9
  8
DATA
  6
CONTINUOUS
 62
     7
 10
601.7557395206632
 20
-872.4942604793371
 30
0.0
 40
5.000000000000041
  0
CIRCLE
  5
3EA
  8
DATA
  6
CONTINUOUS
 62
     7
 10
601.7557395206632
 20
-872.4942604793371
 30
0.0
 40
3.999999999999952
  0
ARC
  5
3EB
  8
DATA
  6
CONTINUOUS
 62
     7
 10
574.7442604793368
 20
-899.5057395206632
 30
0.0
 40
12.55000000000003
 50
90.54503455809656
 51
359.4549654419035
  0
ARC
  5
3EC
  8
DATA
  6
CONTINUOUS
 62
     7
 10
584.8912427893638
 20
-889.3587572106362
 30
0.0
 40
2.500000000000211
 50
359.4549654419041
 51
90.54503455809602
  0
LINE
  5
3ED
  8
DATA
  6
CONTINUOUS
 62
     7
 10
587.2936926559578
 20
-899.6251214472345
 30
0.0
 11
587.3911296771371
 21
-889.3825384709094
 31
0.0
  0
LINE
  5
3EE
  8
DATA
  6
CONTINUOUS
 62
     7
 10
574.6248785527655
 20
-886.9563073440422
 30
0.0
 11
584.8674615290906
 21
-886.8588703228631
 31
0.0
  0
ARC
  5
3EF
  8
DATA
  6
CONTINUOUS
 62
     7
 10
575.9447611853461
 20
-900.7062402268159
 30
0.0
 40
0.2222356198216261
 50
221.8251528744517
 51
48.17484712563117
  0
ARC
  5
3F0
  8
DATA
  6
CONTINUOUS
 62
     7
 10
575.2801111045624
 20
-901.5055612794183
 30
0.0
 40
0.8203678318444659
 50
52.53208037742971
 51
157.4679196475312
  0
ARC
  5
3F1
  8
DATA
  6
CONTINUOUS
 62
     7
 10
574.3048467235785
 20
-901.1456539825026
 30
0.0
 40
0.2222356198221364
 50
161.8251528744691
 51
348.1748471255692
  0
ARC
  5
3F2
  8
DATA
  6
CONTINUOUS
 62
     7
 10
573.280289345853
 20
-900.9697106542179
 30
0.0
 40
0.8203678318441391
 50
352.532080377449
 51
97.46791964751134
  0
ARC
  5
3F3
  8
DATA
  6
CONTINUOUS
 62
     7
 10
573.5437597731842
 20
-898.3052388146539
 30
0.0
 40
0.2222356198217956
 50
41.82515287441255
 51
228.1748471255875
  0
ARC
  5
3F4
  8
DATA
  6
CONTINUOUS
 62
     7
 10
572.7444387205818
 20
-898.9698888954374
 30
0.0
 40
0.8203678318444273
 50
292.5320803524713
 51
37.46791962254508
  0
ARC
  5
3F5
  8
DATA
  6
CONTINUOUS
 62
     7
 10
573.1043460174975
 20
-899.9451532764217
 30
0.0
 40
0.2222356198219519
 50
101.8251528744476
 51
288.1748471256232
  0
ARC
  5
3F6
  8
DATA
  6
CONTINUOUS
 62
     7
 10
576.7440822379485
 20
-900.0415901460324
 30
0.0
 40
0.8203678318441301
 50
112.5320803524627
 51
217.4679196225354
  0
ARC
  5
3F7
  8
DATA
  6
CONTINUOUS
 62
     7
 10
576.384174941033
 20
-899.0663257650481
 30
0.0
 40
0.2222356198218587
 50
281.8251528743328
 51
108.1748471256231
  0
ARC
  5
3F8
  8
DATA
  6
CONTINUOUS
 62
     7
 10
576.208231612748
 20
-898.0417683873229
 30
0.0
 40
0.8203678318438964
 50
172.5320803524698
 51
277.4679196225578
  0
ARC
  5
3F9
  8
DATA
  6
CONTINUOUS
 62
     7
 10
574.2084098539676
 20
-897.5059177620515
 30
0.0
 40
0.8203678318441202
 50
232.5320803774612
 51
337.4679196475287
  0
ARC
  5
3FA
  8
DATA
  6
CONTINUOUS
 62
     7
 10
575.1836742349519
 20
-897.8658250589672
 30
0.0
 40
0.2222356198217044
 50
341.8251528744326
 51
168.1748471256219
  0
CIRCLE
  5
3FB
  8
DATA
  6
CONTINUOUS
 62
     7
 10
574.7442604793368
 20
-899.5057395206632
 30
0.0
 40
5.000000000000121
  0
CIRCLE
  5
3FC
  8
DATA
  6
CONTINUOUS
 62
     7
 10
574.7442604793368
 20
-899.5057395206632
 30
0.0
 40
4.000000000000032
  0
LINE
  5
3FD
  8
DATA
  6
CONTINUOUS
 62
     7
 10
292.2500000000001
 20
-954.4999999999999
 30
0.0
 11
292.2500000000001
 21
-918.4999999999999
 31
0.0
  0
LINE
  5
3FE
  8
DATA
  6
CONTINUOUS
 62
     7
 10
307.7500000000001
 20
-918.4999999999999
 30
0.0
 11
307.7500000000001
 21
-954.4999999999999
 31
0.0
  0
LINE
  5
3FF
  8
DATA
  6
CONTINUOUS
 62
     7
 10
292.2500000000001
 20
-918.4999999999999
 30
0.0
 11
307.7500000000001
 21
-918.4999999999999
 31
0.0
  0
LINE
  5
400
  8
DATA
  6
CONTINUOUS
 62
     7
 10
296.0500000000001
 20
-953.5
 30
0.0
 11
296.0500000000001
 21
-918.4999999999999
 31
0.0
  0
LINE
  5
401
  8
DATA
  6
CONTINUOUS
 62
     7
 10
307.7500000000001
 20
-953.5
 30
0.0
 11
292.2500000000001
 21
-953.5
 31
0.0
  0
LINE
  5
402
  8
DATA
  6
CONTINUOUS
 62
     7
 10
303.95
 20
-918.4999999999999
 30
0.0
 11
303.95
 21
-953.5
 31
0.0
  0
LINE
  5
403
  8
DATA
  6
CONTINUOUS
 62
     7
 10
292.2500000000001
 20
-599.5
 30
0.0
 11
307.7500000000001
 21
-599.5
 31
0.0
  0
LINE
  5
404
  8
DATA
  6
CONTINUOUS
 62
     7
 10
292.2500000000001
 20
-599.5
 30
0.0
 11
292.2500000000001
 21
-445.5000000000001
 31
0.0
  0
LINE
  5
405
  8
DATA
  6
CONTINUOUS
 62
     7
 10
307.7500000000001
 20
-445.5000000000001
 30
0.0
 11
307.7500000000001
 21
-599.5
 31
0.0
  0
LINE
  5
406
  8
DATA
  6
CONTINUOUS
 62
     7
 10
296.0500000000001
 20
-599.5
 30
0.0
 11
296.0500000000001
 21
-446.5000000000001
 31
0.0
  0
LINE
  5
407
  8
DATA
  6
CONTINUOUS
 62
     7
 10
303.95
 20
-446.5000000000001
 30
0.0
 11
303.95
 21
-599.5
 31
0.0
  0
LINE
  5
408
  8
DATA
  6
CONTINUOUS
 62
     7
 10
292.2500000000001
 20
-446.5000000000001
 30
0.0
 11
307.7500000000001
 21
-446.5000000000001
 31
0.0
  0
ARC
  5
409
  8
DATA
  6
CONTINUOUS
 62
     7
 10
345.0000000000003
 20
-468.5000000000005
 30
0.0
 40
5.000000000000455
 50
90.0000000000039
 51
179.9999999999948
  0
ARC
  5
40A
  8
DATA
  6
CONTINUOUS
 62
     7
 10
344.9999999999998
 20
-526.4999999999998
 30
0.0
 40
5.000000000000341
 50
180.0000000000026
 51
269.9999999999974
  0
ARC
  5
40B
  8
DATA
  6
CONTINUOUS
 62
     7
 10
384.9999999999998
 20
-526.4999999999998
 30
0.0
 40
5.000000000000227
 50
270.0000000000026
 51
359.9999999999961
  0
ARC
  5
40C
  8
DATA
  6
CONTINUOUS
 62
     7
 10
384.9999999999999
 20
-468.5000000000003
 30
0.0
 40
5.000000000000341
 50
0.0000000000032401
 51
89.99999999999608
  0
CIRCLE
  5
40D
  8
DATA
  6
CONTINUOUS
 62
     7
 10
369.0
 20
-503.5000000000001
 30
0.0
 40
8.0
  0
ARC
  5
40E
  8
DATA
  6
CONTINUOUS
 62
     7
 10
352.0
 20
-475.5000000000001
 30
0.0
 40
3.500000000000018
 50
78.0497139343428
 51
258.0497139343428
  0
ARC
  5
40F
  8
DATA
  6
CONTINUOUS
 62
     7
 10
347.3466777927254
 20
-497.4859456258455
 30
0.0
 40
25.97298851126278
 50
1.601700954948123
 51
78.04971393434423
  0
ARC
  5
410
  8
DATA
  6
CONTINUOUS
 62
     7
 10
347.3466777927254
 20
-497.4859456258455
 30
0.0
 40
18.97298851126199
 50
4.540970146804216
 51
78.04971393434424
  0
ARC
  5
411
  8
DATA
  6
CONTINUOUS
 62
     7
 10
347.3466777927254
 20
-497.4859456258455
 30
0.0
 40
32.97298851129996
 50
1.601700954948088
 51
36.52355965426714
  0
LINE
  5
412
  8
DATA
  6
CONTINUOUS
 62
     7
 10
372.6698090614474
 20
-476.3682517623245
 30
0.0
 11
374.6906117631428
 21
-477.3255168462071
 31
0.0
  0
LINE
  5
413
  8
DATA
  6
CONTINUOUS
 62
     7
 10
372.6698090614474
 20
-476.3682517623245
 30
0.0
 11
373.1164786153586
 21
-478.5592529740103
 31
0.0
  0
ARC
  5
414
  8
DATA
  6
CONTINUOUS
 62
     7
 10
376.9570421055631
 20
-481.8383644508737
 30
0.0
 40
5.049999999998877
 50
116.6665966144889
 51
139.5089691644924
  0
TEXT
  5
415
  8
DATA
 62
     7
 10
355.5934423828123
 20
-524.5360514322916
 30
0.0
 40
4.072102864583333
  1
VTX B28
 41
0.7
 72
     1
 11
364.9999999999998
 21
-522.5
 31
0.0
 73
     2
  0
ARC
  5
416
  8
DATA
  6
CONTINUOUS
 62
     7
 10
345.0
 20
-873.5000000000005
 30
0.0
 40
5.000000000000455
 50
90.0000000000039
 51
179.9999999999948
  0
ARC
  5
417
  8
DATA
  6
CONTINUOUS
 62
     7
 10
344.9999999999994
 20
-931.4999999999997
 30
0.0
 40
5.000000000000341
 50
180.0000000000039
 51
269.9999999999974
  0
ARC
  5
418
  8
DATA
  6
CONTINUOUS
 62
     7
 10
384.9999999999994
 20
-931.4999999999998
 30
0.0
 40
5.000000000000227
 50
270.0000000000026
 51
359.9999999999974
  0
ARC
  5
419
  8
DATA
  6
CONTINUOUS
 62
     7
 10
384.9999999999995
 20
-873.5000000000002
 30
0.0
 40
5.000000000000341
 50
0.0000000000026148
 51
89.99999999999608
  0
ARC
  5
41A
  8
DATA
  6
CONTINUOUS
 62
     7
 10
347.346677792725
 20
-902.4859456258455
 30
0.0
 40
25.97298851126271
 50
344.4777494544117
 51
60.925762433807
  0
ARC
  5
41B
  8
DATA
  6
CONTINUOUS
 62
     7
 10
347.346677792725
 20
-902.4859456258455
 30
0.0
 40
18.97298851126193
 50
344.4777494544113
 51
57.98649324195151
  0
ARC
  5
41C
  8
DATA
  6
CONTINUOUS
 62
     7
 10
368.9999999999997
 20
-908.5
 30
0.0
 40
3.500000000000044
 50
164.4777494544118
 51
344.4777494544137
  0
CIRCLE
  5
41D
  8
DATA
  6
CONTINUOUS
 62
     7
 10
351.9999999999997
 20
-880.5
 30
0.0
 40
8.0
  0
LINE
  5
41E
  8
DATA
  6
CONTINUOUS
 62
     7
 10
371.2499999999995
 20
-929.5
 30
0.0
 11
371.2499999999995
 21
-925.0
 31
0.0
  0
LINE
  5
41F
  8
DATA
  6
CONTINUOUS
 62
     7
 10
373.7499999999995
 20
-925.0
 30
0.0
 11
373.7499999999995
 21
-929.5
 31
0.0
  0
LINE
  5
420
  8
DATA
  6
CONTINUOUS
 62
     7
 10
371.2499999999995
 20
-925.0
 30
0.0
 11
373.7499999999995
 21
-925.0
 31
0.0
  0
LINE
  5
421
  8
DATA
  6
CONTINUOUS
 62
     7
 10
369.7499999999995
 20
-929.5
 30
0.0
 11
371.2499999999995
 21
-929.5
 31
0.0
  0
LINE
  5
422
  8
DATA
  6
CONTINUOUS
 62
     7
 10
373.7499999999995
 20
-929.5
 30
0.0
 11
375.2499999999995
 21
-929.5
 31
0.0
  0
LINE
  5
423
  8
DATA
  6
CONTINUOUS
 62
     7
 10
372.4999999999995
 20
-932.5
 30
0.0
 11
369.7499999999995
 21
-929.5
 31
0.0
  0
LINE
  5
424
  8
DATA
  6
CONTINUOUS
 62
     7
 10
372.4999999999995
 20
-932.5
 30
0.0
 11
375.2499999999995
 21
-929.5
 31
0.0
  0
POLYLINE
  5
425
  8
DATA
  6
CONTINUOUS
 62
     7
 66
     1
 10
0.0
 20
0.0
 30
0.0
 70
     1
  0
VERTEX
  5
912
  8
DATA
  6
CONTINUOUS
 62
     7
 10
371.2499999999995
 20
-923.5
 30
0.0
  0
VERTEX
  5
913
  8
DATA
  6
CONTINUOUS
 62
     7
 10
373.7499999999995
 20
-923.5
 30
0.0
  0
VERTEX
  5
914
  8
DATA
  6
CONTINUOUS
 62
     7
 10
373.7499999999995
 20
-924.5
 30
0.0
  0
VERTEX
  5
915
  8
DATA
  6
CONTINUOUS
 62
     7
 10
371.2499999999995
 20
-924.5
 30
0.0
  0
SEQEND
  5
986
  8
DATA
  6
CONTINUOUS
 62
     7
  0
ARC
  5
42C
  8
DATA
  6
CONTINUOUS
 62
     7
 10
364.9999999999998
 20
-468.7499999999932
 30
0.0
 40
400.2500000000068
 50
267.1358076316707
 51
272.8641923683293
  0
ARC
  5
42D
  8
DATA
  6
CONTINUOUS
 62
     7
 10
364.9999999999992
 20
-1336.250000000007
 30
0.0
 40
400.2500000000068
 50
87.13580763167073
 51
92.86419236832927
  0
ARC
  5
42E
  8
DATA
  6
CONTINUOUS
 62
     7
 10
365.0
 20
-63.74999999999324
 30
0.0
 40
400.2500000000068
 50
267.1358076316707
 51
272.8641923683293
  0
ARC
  5
42F
  8
DATA
  6
CONTINUOUS
 62
     7
 10
364.9999999999994
 20
-931.2500000000074
 30
0.0
 40
400.2500000000068
 50
87.13580763167073
 51
92.86419236832927
  0
TEXT
  5
430
  8
DATA
 62
     7
 10
349.6839050335968
 20
-906.9252360026042
 30
0.0
 40
2.850472005208334
  1
LOCKED
 41
0.7
 72
     1
 11
355.33734117726
 21
-905.5
 31
0.0
 73
     2
  0
ARC
  5
431
  8
DATA
  6
CONTINUOUS
 62
     7
 10
351.4786971507416
 20
-905.5
 30
0.0
 40
3.5
 50
90.0
 51
270.0
  0
LINE
  5
432
  8
DATA
  6
CONTINUOUS
 62
     7
 10
351.4786971507416
 20
-902.0
 30
0.0
 11
366.3134421424289
 21
-902.0
 31
0.0
  0
LINE
  5
433
  8
DATA
  6
CONTINUOUS
 62
     7
 10
351.4786971507416
 20
-909.0
 30
0.0
 11
365.5358983848619
 21
-909.0
 31
0.0
  0
ARC
  5
434
  8
DATA
  6
CONTINUOUS
 62
     7
 10
-79.99999999999989
 20
-902.4999999999967
 30
0.0
 40
420.9999999999992
 50
356.0501319782356
 51
3.94986802176345
  0
ARC
  5
435
  8
DATA
  6
CONTINUOUS
 62
     7
 10
810.0
 20
-902.4999999999967
 30
0.0
 40
420.9999999999993
 50
176.0501319782365
 51
183.9498680217644
  0
ARC
  5
436
  8
DATA
  6
CONTINUOUS
 62
     7
 10
-79.99999999999966
 20
-497.4999999999968
 30
0.0
 40
420.9999999999991
 50
356.0501319782356
 51
3.94986802176345
  0
ARC
  5
437
  8
DATA
  6
CONTINUOUS
 62
     7
 10
810.0
 20
-497.4999999999968
 30
0.0
 40
420.9999999999991
 50
176.0501319782365
 51
183.9498680217644
  0
CIRCLE
  5
438
  8
DATA
  6
CONTINUOUS
 62
     7
 10
357.5000000000003
 20
-928.0702747515
 30
0.0
 40
6.49999999999998
  0
ARC
  5
439
  8
DATA
  6
CONTINUOUS
 62
     7
 10
357.5000000000003
 20
-922.5702747515
 30
0.0
 40
4.5
 50
0.0
 51
180.0
  0
LINE
  5
43A
  8
DATA
  6
CONTINUOUS
 62
     7
 10
353.0000000000003
 20
-922.5702747515
 30
0.0
 11
353.0000000000003
 21
-923.3798589916767
 31
0.0
  0
LINE
  5
43B
  8
DATA
  6
CONTINUOUS
 62
     7
 10
353.0000000000003
 20
-932.7606905113234
 30
0.0
 11
353.0000000000003
 21
-936.1799280126047
 31
0.0
  0
LINE
  5
43C
  8
DATA
  6
CONTINUOUS
 62
     7
 10
362.0000000000003
 20
-922.5702747515
 30
0.0
 11
362.0059122815343
 21
-923.3855384183553
 31
0.0
  0
LINE
  5
43D
  8
DATA
  6
CONTINUOUS
 62
     7
 10
362.0733820837039
 20
-932.6891681597044
 30
0.0
 11
362.0974685162232
 21
-936.0105244219594
 31
0.0
  0
LINE
  5
43E
  8
DATA
  6
CONTINUOUS
 62
     7
 10
-137.25
 20
-540.0557395206631
 30
0.0
 11
-139.9999999999999
 21
-540.0557395206631
 31
0.0
  0
LINE
  5
43F
  8
DATA
  6
CONTINUOUS
 62
     7
 10
-137.2499999999999
 20
-490.4408925416991
 30
0.0
 11
-139.9999999999999
 21
-490.4670531116316
 31
0.0
  0
LINE
  5
440
  8
DATA
  6
CONTINUOUS
 62
     7
 10
-137.2499999999999
 20
-490.4408925416991
 30
0.0
 11
-137.25
 21
-540.0557395206631
 31
0.0
  0
LINE
  5
441
  8
DATA
  6
CONTINUOUS
 62
     7
 10
-137.25
 20
-859.944260479337
 30
0.0
 11
-139.9999999999999
 21
-859.944260479337
 31
0.0
  0
LINE
  5
442
  8
DATA
  6
CONTINUOUS
 62
     7
 10
-137.2499999999999
 20
-909.559107458301
 30
0.0
 11
-139.9999999999999
 21
-909.5329468883685
 31
0.0
  0
LINE
  5
443
  8
DATA
  6
CONTINUOUS
 62
     7
 10
-137.2499999999999
 20
-909.559107458301
 30
0.0
 11
-137.25
 21
-859.944260479337
 31
0.0
  0
LINE
  5
444
  8
DATA
  6
CONTINUOUS
 62
     7
 10
-1462.75
 20
-540.0557395206631
 30
0.0
 11
-1460.0
 21
-540.0557395206631
 31
0.0
  0
LINE
  5
445
  8
DATA
  6
CONTINUOUS
 62
     7
 10
-1462.75
 20
-490.4408925416991
 30
0.0
 11
-1460.0
 21
-490.4670531116316
 31
0.0
  0
LINE
  5
446
  8
DATA
  6
CONTINUOUS
 62
     7
 10
-1462.75
 20
-490.4408925416991
 30
0.0
 11
-1462.75
 21
-540.0557395206631
 31
0.0
  0
LINE
  5
447
  8
DATA
  6
CONTINUOUS
 62
     7
 10
-1462.75
 20
-859.944260479337
 30
0.0
 11
-1460.0
 21
-859.944260479337
 31
0.0
  0
LINE
  5
448
  8
DATA
  6
CONTINUOUS
 62
     7
 10
-1462.75
 20
-909.559107458301
 30
0.0
 11
-1460.0
 21
-909.5329468883685
 31
0.0
  0
LINE
  5
449
  8
DATA
  6
CONTINUOUS
 62
     7
 10
-1462.75
 20
-909.559107458301
 30
0.0
 11
-1462.75
 21
-859.944260479337
 31
0.0
  0
LINE
  5
44A
  8
DATA
  6
CONTINUOUS
 62
     7
 10
-137.2499999999999
 20
-1281.744260479337
 30
0.0
 11
-139.9999999999999
 21
-1281.744260479337
 31
0.0
  0
LINE
  5
44B
  8
DATA
  6
CONTINUOUS
 62
     7
 10
-137.2499999999999
 20
-1332.750483331357
 30
0.0
 11
-139.9999999999999
 21
-1332.724322761425
 31
0.0
  0
LINE
  5
44C
  8
DATA
  6
CONTINUOUS
 62
     7
 10
-137.2499999999999
 20
-1281.744260479337
 30
0.0
 11
-137.2499999999999
 21
-1332.750483331357
 31
0.0
  0
LINE
  5
44D
  8
DATA
  6
CONTINUOUS
 62
     7
 10
-137.2499999999999
 20
-1918.255739520663
 30
0.0
 11
-139.9999999999999
 21
-1918.255739520663
 31
0.0
  0
LINE
  5
44E
  8
DATA
  6
CONTINUOUS
 62
     7
 10
-137.2499999999999
 20
-1867.249516668642
 30
0.0
 11
-139.9999999999999
 21
-1867.275677238575
 31
0.0
  0
LINE
  5
44F
  8
DATA
  6
CONTINUOUS
 62
     7
 10
-137.2499999999999
 20
-1918.255739520663
 30
0.0
 11
-137.2499999999999
 21
-1867.249516668642
 31
0.0
  0
LINE
  5
450
  8
DATA
  6
CONTINUOUS
 62
     7
 10
-1462.75
 20
-1281.744260479337
 30
0.0
 11
-1460.0
 21
-1281.744260479337
 31
0.0
  0
LINE
  5
451
  8
DATA
  6
CONTINUOUS
 62
     7
 10
-1462.75
 20
-1332.750483331357
 30
0.0
 11
-1460.0
 21
-1332.724322761425
 31
0.0
  0
LINE
  5
452
  8
DATA
  6
CONTINUOUS
 62
     7
 10
-1462.75
 20
-1281.744260479337
 30
0.0
 11
-1462.75
 21
-1332.750483331357
 31
0.0
  0
LINE
  5
453
  8
DATA
  6
CONTINUOUS
 62
     7
 10
-1462.75
 20
-1918.255739520663
 30
0.0
 11
-1460.0
 21
-1918.255739520663
 31
0.0
  0
LINE
  5
454
  8
DATA
  6
CONTINUOUS
 62
     7
 10
-1462.75
 20
-1867.249516668642
 30
0.0
 11
-1460.0
 21
-1867.275677238575
 31
0.0
  0
LINE
  5
455
  8
DATA
  6
CONTINUOUS
 62
     7
 10
-1462.75
 20
-1918.255739520663
 30
0.0
 11
-1462.75
 21
-1867.249516668642
 31
0.0
  0
ARC
  5
456
  8
DATA
  6
CONTINUOUS
 62
     7
 10
-1450.0
 20
555.5000000000002
 30
0.0
 40
10.00000000000023
 50
180.0000000000013
 51
269.9999999999987
  0
LINE
  5
457
  8
DATA
  6
CONTINUOUS
 62
     7
 10
-1460.000000000001
 20
1044.5
 30
0.0
 11
-1460.0
 21
555.5
 31
0.0
  0
ARC
  5
458
  8
DATA
  6
CONTINUOUS
 62
     7
 10
-1450.0
 20
1044.5
 30
0.0
 40
10.00000000000023
 50
90.00000000000132
 51
179.9999999999987
  0
LINE
  5
459
  8
DATA
  6
CONTINUOUS
 62
     7
 10
-150.0000000000003
 20
1054.5
 30
0.0
 11
-1450.000000000001
 21
1054.5
 31
0.0
  0
ARC
  5
45A
  8
DATA
  6
CONTINUOUS
 62
     7
 10
-150.0000000000002
 20
1044.5
 30
0.0
 40
10.0
 50
0.0
 51
90.00000000000068
  0
LINE
  5
45B
  8
DATA
  6
CONTINUOUS
 62
     7
 10
-140.0000000000001
 20
555.5
 30
0.0
 11
-140.0000000000002
 21
1044.5
 31
0.0
  0
ARC
  5
45C
  8
DATA
  6
CONTINUOUS
 62
     7
 10
-150.0000000000001
 20
555.5
 30
0.0
 40
10.0
 50
269.9999999999998
 51
0.0
  0
LINE
  5
45D
  8
DATA
  6
CONTINUOUS
 62
     7
 10
-1450.0
 20
545.5
 30
0.0
 11
-150.0000000000002
 21
545.5
 31
0.0
  0
LINE
  5
45E
  8
DATA
  6
CONTINUOUS
 62
     7
 10
-1443.0
 20
1054.5
 30
0.0
 11
-1443.0
 21
545.5
 31
0.0
  0
LINE
  5
45F
  8
DATA
  6
CONTINUOUS
 62
     7
 10
-157.0000000000002
 20
545.5
 30
0.0
 11
-157.0000000000002
 21
1054.5
 31
0.0
  0
LINE
  5
460
  8
DATA
  6
CONTINUOUS
 62
     7
 10
-1449.0
 20
839.0
 30
0.0
 11
-1449.0
 21
761.0
 31
0.0
  0
LINE
  5
461
  8
DATA
  6
CONTINUOUS
 62
     7
 10
-1443.0
 20
839.0
 30
0.0
 11
-1449.0
 21
839.0
 31
0.0
  0
LINE
  5
462
  8
DATA
  6
CONTINUOUS
 62
     7
 10
-1449.0
 20
761.0
 30
0.0
 11
-1443.0
 21
761.0
 31
0.0
  0
LINE
  5
463
  8
DATA
  6
CONTINUOUS
 62
     7
 10
-151.0000000000002
 20
839.0
 30
0.0
 11
-157.0000000000002
 21
839.0
 31
0.0
  0
LINE
  5
464
  8
DATA
  6
CONTINUOUS
 62
     7
 10
-151.0000000000002
 20
761.0
 30
0.0
 11
-151.0000000000002
 21
839.0
 31
0.0
  0
LINE
  5
465
  8
DATA
  6
CONTINUOUS
 62
     7
 10
-157.0000000000002
 20
761.0
 30
0.0
 11
-151.0000000000002
 21
761.0
 31
0.0
  0
LINE
  5
466
  8
DATA
  6
CONTINUOUS
 62
     7
 10
-1198.0
 20
1061.0
 30
0.0
 11
-1198.0
 21
1054.5
 31
0.0
  0
LINE
  5
467
  8
DATA
  6
CONTINUOUS
 62
     7
 10
-1196.5
 20
1062.5
 30
0.0
 11
-1135.5
 21
1062.5
 31
0.0
  0
LINE
  5
468
  8
DATA
  6
CONTINUOUS
 62
     7
 10
-1135.5
 20
1062.5
 30
0.0
 11
-1134.0
 21
1061.0
 31
0.0
  0
LINE
  5
469
  8
DATA
  6
CONTINUOUS
 62
     7
 10
-1196.5
 20
1062.5
 30
0.0
 11
-1198.0
 21
1061.0
 31
0.0
  0
LINE
  5
46A
  8
DATA
  6
CONTINUOUS
 62
     7
 10
-1134.0
 20
1061.0
 30
0.0
 11
-1134.0
 21
1054.5
 31
0.0
  0
LINE
  5
46B
  8
DATA
  6
CONTINUOUS
 62
     7
 10
-402.0000000000002
 20
1061.0
 30
0.0
 11
-402.0000000000002
 21
1054.5
 31
0.0
  0
LINE
  5
46C
  8
DATA
  6
CONTINUOUS
 62
     7
 10
-403.5000000000002
 20
1062.5
 30
0.0
 11
-464.5000000000002
 21
1062.5
 31
0.0
  0
LINE
  5
46D
  8
DATA
  6
CONTINUOUS
 62
     7
 10
-464.5000000000002
 20
1062.5
 30
0.0
 11
-466.0000000000002
 21
1061.0
 31
0.0
  0
LINE
  5
46E
  8
DATA
  6
CONTINUOUS
 62
     7
 10
-403.5000000000002
 20
1062.5
 30
0.0
 11
-402.0000000000002
 21
1061.0
 31
0.0
  0
LINE
  5
46F
  8
DATA
  6
CONTINUOUS
 62
     7
 10
-466.0000000000002
 20
1061.0
 30
0.0
 11
-466.0000000000002
 21
1054.5
 31
0.0
  0
LINE
  5
470
  8
DATA
  6
CONTINUOUS
 62
     7
 10
-274.0000000000002
 20
1057.0
 30
0.0
 11
-274.0000000000002
 21
1054.5
 31
0.0
  0
LINE
  5
471
  8
DATA
  6
CONTINUOUS
 62
     7
 10
-185.0000000000003
 20
1057.0
 30
0.0
 11
-185.0000000000003
 21
1054.5
 31
0.0
  0
LINE
  5
472
  8
DATA
  6
CONTINUOUS
 62
     7
 10
-185.0000000000003
 20
1057.0
 30
0.0
 11
-186.5000000000003
 21
1058.5
 31
0.0
  0
LINE
  5
473
  8
DATA
  6
CONTINUOUS
 62
     7
 10
-272.5000000000002
 20
1058.5
 30
0.0
 11
-186.5000000000003
 21
1058.5
 31
0.0
  0
LINE
  5
474
  8
DATA
  6
CONTINUOUS
 62
     7
 10
-272.5000000000002
 20
1058.5
 30
0.0
 11
-274.0000000000002
 21
1057.0
 31
0.0
  0
LINE
  5
475
  8
DATA
  6
CONTINUOUS
 62
     7
 10
-1326.0
 20
1057.0
 30
0.0
 11
-1326.0
 21
1054.5
 31
0.0
  0
LINE
  5
476
  8
DATA
  6
CONTINUOUS
 62
     7
 10
-1415.0
 20
1057.0
 30
0.0
 11
-1415.0
 21
1054.5
 31
0.0
  0
LINE
  5
477
  8
DATA
  6
CONTINUOUS
 62
     7
 10
-1415.0
 20
1057.0
 30
0.0
 11
-1413.5
 21
1058.5
 31
0.0
  0
LINE
  5
478
  8
DATA
  6
CONTINUOUS
 62
     7
 10
-1327.5
 20
1058.5
 30
0.0
 11
-1413.5
 21
1058.5
 31
0.0
  0
LINE
  5
479
  8
DATA
  6
CONTINUOUS
 62
     7
 10
-1327.5
 20
1058.5
 30
0.0
 11
-1326.0
 21
1057.0
 31
0.0
  0
LINE
  5
47A
  8
DATA
  6
CONTINUOUS
 62
     7
 10
-137.2500000000002
 20
640.0557395206631
 30
0.0
 11
-140.0000000000001
 21
640.0557395206631
 31
0.0
  0
LINE
  5
47B
  8
DATA
  6
CONTINUOUS
 62
     7
 10
-137.2500000000002
 20
590.4408925416991
 30
0.0
 11
-140.0000000000001
 21
590.4670531116317
 31
0.0
  0
LINE
  5
47C
  8
DATA
  6
CONTINUOUS
 62
     7
 10
-137.2500000000002
 20
590.4408925416991
 30
0.0
 11
-137.2500000000002
 21
640.0557395206631
 31
0.0
  0
LINE
  5
47D
  8
DATA
  6
CONTINUOUS
 62
     7
 10
-137.2500000000002
 20
959.9442604793371
 30
0.0
 11
-140.0000000000001
 21
959.9442604793371
 31
0.0
  0
LINE
  5
47E
  8
DATA
  6
CONTINUOUS
 62
     7
 10
-137.2500000000002
 20
1009.559107458301
 30
0.0
 11
-140.0000000000001
 21
1009.532946888369
 31
0.0
  0
LINE
  5
47F
  8
DATA
  6
CONTINUOUS
 62
     7
 10
-137.2500000000002
 20
1009.559107458301
 30
0.0
 11
-137.2500000000002
 21
959.9442604793371
 31
0.0
  0
LINE
  5
480
  8
DATA
  6
CONTINUOUS
 62
     7
 10
-1462.75
 20
640.0557395206631
 30
0.0
 11
-1460.0
 21
640.0557395206631
 31
0.0
  0
LINE
  5
481
  8
DATA
  6
CONTINUOUS
 62
     7
 10
-1462.75
 20
590.4408925416991
 30
0.0
 11
-1460.0
 21
590.4670531116317
 31
0.0
  0
LINE
  5
482
  8
DATA
  6
CONTINUOUS
 62
     7
 10
-1462.75
 20
590.4408925416991
 30
0.0
 11
-1462.75
 21
640.0557395206631
 31
0.0
  0
LINE
  5
483
  8
DATA
  6
CONTINUOUS
 62
     7
 10
-1462.75
 20
959.9442604793371
 30
0.0
 11
-1460.0
 21
959.9442604793371
 31
0.0
  0
LINE
  5
484
  8
DATA
  6
CONTINUOUS
 62
     7
 10
-1462.75
 20
1009.559107458301
 30
0.0
 11
-1460.0
 21
1009.532946888369
 31
0.0
  0
LINE
  5
485
  8
DATA
  6
CONTINUOUS
 62
     7
 10
-1462.75
 20
1009.559107458301
 30
0.0
 11
-1462.75
 21
959.9442604793371
 31
0.0
  0
LINE
  5
486
  8
DATA
  6
CONTINUOUS
 62
     7
 10
-720.0000000000003
 20
845.0
 30
0.0
 11
-720.0000000000003
 21
833.1666666666665
 31
0.0
  0
LINE
  5
487
  8
DATA
  6
CONTINUOUS
 62
     7
 10
-875.0000000000003
 20
850.0
 30
0.0
 11
-725.0000000000003
 21
850.0
 31
0.0
  0
LINE
  5
488
  8
DATA
  6
CONTINUOUS
 62
     7
 10
-880.0000000000003
 20
833.1666666666665
 30
0.0
 11
-880.0000000000003
 21
845.0
 31
0.0
  0
LINE
  5
489
  8
DATA
  6
CONTINUOUS
 62
     7
 10
-880.0000000000003
 20
755.0
 30
0.0
 11
-880.0000000000003
 21
766.8333333333334
 31
0.0
  0
LINE
  5
48A
  8
DATA
  6
CONTINUOUS
 62
     7
 10
-725.0000000000003
 20
750.0
 30
0.0
 11
-875.0000000000003
 21
750.0
 31
0.0
  0
LINE
  5
48B
  8
DATA
  6
CONTINUOUS
 62
     7
 10
-720.0000000000003
 20
766.8333333333334
 30
0.0
 11
-720.0000000000003
 21
755.0
 31
0.0
  0
LINE
  5
48C
  8
DATA
  6
CONTINUOUS
 62
     7
 10
-875.0000000000003
 20
824.8333333333335
 30
0.0
 11
-879.0000000000003
 21
830.1666666666665
 31
0.0
  0
LINE
  5
48D
  8
DATA
  6
CONTINUOUS
 62
     7
 10
-879.0000000000003
 20
769.8333333333334
 30
0.0
 11
-875.0000000000003
 21
775.1666666666666
 31
0.0
  0
LINE
  5
48E
  8
DATA
  6
CONTINUOUS
 62
     7
 10
-874.0000000000003
 20
821.8333333333334
 30
0.0
 11
-874.0000000000003
 21
778.1666666666666
 31
0.0
  0
LINE
  5
48F
  8
DATA
  6
CONTINUOUS
 62
     7
 10
-725.0000000000003
 20
824.8333333333335
 30
0.0
 11
-721.0000000000003
 21
830.1666666666665
 31
0.0
  0
LINE
  5
490
  8
DATA
  6
CONTINUOUS
 62
     7
 10
-721.0000000000003
 20
769.8333333333334
 30
0.0
 11
-725.0000000000003
 21
775.1666666666666
 31
0.0
  0
LINE
  5
491
  8
DATA
  6
CONTINUOUS
 62
     7
 10
-726.0000000000003
 20
821.8333333333334
 30
0.0
 11
-726.0000000000003
 21
778.1666666666666
 31
0.0
  0
ARC
  5
492
  8
DATA
  6
CONTINUOUS
 62
     7
 10
-871.5000000000234
 20
843.6907113670923
 30
0.0
 40
0.1892886329078169
 50
359.0566788815891
 51
180.9433209280199
  0
ARC
  5
493
  8
DATA
  6
CONTINUOUS
 62
     7
 10
-872.3631841931071
 20
843.7450788787141
 30
0.0
 40
0.676368386187752
 50
244.8753886700262
 51
355.124611351884
  0
ARC
  5
494
  8
DATA
  6
CONTINUOUS
 62
     7
 10
-872.7476926434281
 20
842.9703556835148
 30
0.0
 40
0.1892886329076225
 50
59.05667888160091
 51
240.943320927989
  0
ARC
  5
495
  8
DATA
  6
CONTINUOUS
 62
     7
 10
-873.2263683861752
 20
842.24999999997
 30
0.0
 40
0.6763683861878752
 50
304.8753886700291
 51
55.12461135188364
  0
ARC
  5
496
  8
DATA
  6
CONTINUOUS
 62
     7
 10
-871.5000000000234
 20
840.8092886329077
 30
0.0
 40
0.1892886329075796
 50
179.0566790719802
 51
0.9433211184109497
  0
ARC
  5
497
  8
DATA
  6
CONTINUOUS
 62
     7
 10
-872.3631841931071
 20
840.7549211212859
 30
0.0
 40
0.6763683861879238
 50
4.875388648116016
 51
115.1246113299738
  0
ARC
  5
498
  8
DATA
  6
CONTINUOUS
 62
     7
 10
-872.7476926434281
 20
841.5296443164852
 30
0.0
 40
0.1892886329075887
 50
119.056679072011
 51
300.9433211183991
  0
ARC
  5
499
  8
DATA
  6
CONTINUOUS
 62
     7
 10
-870.6368158069396
 20
843.7450788787141
 30
0.0
 40
0.6763683861878106
 50
184.8753886481168
 51
295.1246113299738
  0
ARC
  5
49A
  8
DATA
  6
CONTINUOUS
 62
     7
 10
-870.2523073566186
 20
842.9703556835148
 30
0.0
 40
0.1892886329075887
 50
299.056679072011
 51
120.9433211183991
  0
ARC
  5
49B
  8
DATA
  6
CONTINUOUS
 62
     7
 10
-869.7736316138714
 20
842.24999999997
 30
0.0
 40
0.6763683861880757
 50
124.8753886481243
 51
235.124611329963
  0
ARC
  5
49C
  8
DATA
  6
CONTINUOUS
 62
     7
 10
-870.6368158069396
 20
840.7549211212859
 30
0.0
 40
0.676368386187752
 50
64.87538867002621
 51
175.1246113518832
  0
ARC
  5
49D
  8
DATA
  6
CONTINUOUS
 62
     7
 10
-870.2523073566186
 20
841.5296443164852
 30
0.0
 40
0.1892886329076225
 50
239.0566788816009
 51
60.94332092798902
  0
CIRCLE
  5
49E
  8
DATA
  6
CONTINUOUS
 62
     7
 10
-871.5000000000003
 20
842.25
 30
0.0
 40
4.5
  0
ARC
  5
49F
  8
DATA
  6
CONTINUOUS
 62
     7
 10
-871.5000000000234
 20
756.3092886329077
 30
0.0
 40
0.1892886329075796
 50
179.0566790719802
 51
0.9433211184109497
  0
ARC
  5
4A0
  8
DATA
  6
CONTINUOUS
 62
     7
 10
-872.3631841931071
 20
756.2549211212857
 30
0.0
 40
0.6763683861879335
 50
4.87538864812561
 51
115.1246113299697
  0
ARC
  5
4A1
  8
DATA
  6
CONTINUOUS
 62
     7
 10
-872.7476926434281
 20
757.0296443164852
 30
0.0
 40
0.1892886329076881
 50
119.0566790719942
 51
300.9433211183814
  0
ARC
  5
4A2
  8
DATA
  6
CONTINUOUS
 62
     7
 10
-873.2263683861752
 20
757.75000000003
 30
0.0
 40
0.6763683861879174
 50
304.8753886481219
 51
55.12461132997098
  0
ARC
  5
4A3
  8
DATA
  6
CONTINUOUS
 62
     7
 10
-871.5000000000234
 20
759.1907113670923
 30
0.0
 40
0.1892886329078169
 50
359.0566788815891
 51
180.9433209280199
  0
ARC
  5
4A4
  8
DATA
  6
CONTINUOUS
 62
     7
 10
-872.3631841931071
 20
759.2450788787143
 30
0.0
 40
0.6763683861878549
 50
244.8753886700303
 51
355.1246113518744
  0
ARC
  5
4A5
  8
DATA
  6
CONTINUOUS
 62
     7
 10
-872.7476926434281
 20
758.4703556835148
 30
0.0
 40
0.1892886329077201
 50
59.05667888161861
 51
240.9433209280057
  0
ARC
  5
4A6
  8
DATA
  6
CONTINUOUS
 62
     7
 10
-870.6368158069396
 20
756.2549211212857
 30
0.0
 40
0.6763683861878549
 50
64.8753886700303
 51
175.1246113518736
  0
ARC
  5
4A7
  8
DATA
  6
CONTINUOUS
 62
     7
 10
-870.2523073566186
 20
757.0296443164852
 30
0.0
 40
0.1892886329077201
 50
239.0566788816186
 51
60.94332092800577
  0
ARC
  5
4A8
  8
DATA
  6
CONTINUOUS
 62
     7
 10
-869.7736316138714
 20
757.75000000003
 30
0.0
 40
0.6763683861879403
 50
124.875388670037
 51
235.1246113518702
  0
ARC
  5
4A9
  8
DATA
  6
CONTINUOUS
 62
     7
 10
-870.6368158069396
 20
759.2450788787143
 30
0.0
 40
0.6763683861878202
 50
184.8753886481264
 51
295.1246113299698
  0
ARC
  5
4AA
  8
DATA
  6
CONTINUOUS
 62
     7
 10
-870.2523073566186
 20
758.4703556835148
 30
0.0
 40
0.1892886329076881
 50
299.0566790719943
 51
120.9433211183814
  0
CIRCLE
  5
4AB
  8
DATA
  6
CONTINUOUS
 62
     7
 10
-871.5000000000003
 20
757.75
 30
0.0
 40
4.5
  0
ARC
  5
4AC
  8
DATA
  6
CONTINUOUS
 62
     7
 10
-728.4999999999773
 20
843.6907113670923
 30
0.0
 40
0.1892886329075796
 50
359.0566790719801
 51
180.943321118411
  0
ARC
  5
4AD
  8
DATA
  6
CONTINUOUS
 62
     7
 10
-727.6368158068935
 20
843.7450788787141
 30
0.0
 40
0.6763683861879238
 50
184.875388648116
 51
295.1246113299738
  0
ARC
  5
4AE
  8
DATA
  6
CONTINUOUS
 62
     7
 10
-727.2523073565726
 20
842.9703556835148
 30
0.0
 40
0.1892886329075887
 50
299.056679072011
 51
120.9433211183991
  0
ARC
  5
4AF
  8
DATA
  6
CONTINUOUS
 62
     7
 10
-726.7736316138255
 20
842.24999999997
 30
0.0
 40
0.6763683861880107
 50
124.8753886481164
 51
235.124611329971
  0
ARC
  5
4B0
  8
DATA
  6
CONTINUOUS
 62
     7
 10
-728.4999999999773
 20
840.8092886329077
 30
0.0
 40
0.1892886329078169
 50
179.0566788815891
 51
0.9433209280198583
  0
ARC
  5
4B1
  8
DATA
  6
CONTINUOUS
 62
     7
 10
-727.6368158068935
 20
840.7549211212859
 30
0.0
 40
0.676368386187752
 50
64.87538867002621
 51
175.124611351884
  0
ARC
  5
4B2
  8
DATA
  6
CONTINUOUS
 62
     7
 10
-727.2523073565726
 20
841.5296443164852
 30
0.0
 40
0.1892886329076225
 50
239.0566788816009
 51
60.94332092798902
  0
ARC
  5
4B3
  8
DATA
  6
CONTINUOUS
 62
     7
 10
-729.3631841930611
 20
843.7450788787141
 30
0.0
 40
0.676368386187752
 50
244.8753886700262
 51
355.1246113518832
  0
ARC
  5
4B4
  8
DATA
  6
CONTINUOUS
 62
     7
 10
-729.747692643382
 20
842.9703556835148
 30
0.0
 40
0.1892886329076225
 50
59.05667888160091
 51
240.943320927989
  0
ARC
  5
4B5
  8
DATA
  6
CONTINUOUS
 62
     7
 10
-730.2263683861293
 20
842.24999999997
 30
0.0
 40
0.6763683861879403
 50
304.875388670037
 51
55.1246113518757
  0
ARC
  5
4B6
  8
DATA
  6
CONTINUOUS
 62
     7
 10
-729.3631841930611
 20
840.7549211212859
 30
0.0
 40
0.6763683861878106
 50
4.875388648116833
 51
115.1246113299738
  0
ARC
  5
4B7
  8
DATA
  6
CONTINUOUS
 62
     7
 10
-729.747692643382
 20
841.5296443164852
 30
0.0
 40
0.1892886329075887
 50
119.056679072011
 51
300.9433211183991
  0
CIRCLE
  5
4B8
  8
DATA
  6
CONTINUOUS
 62
     7
 10
-728.5000000000003
 20
842.25
 30
0.0
 40
4.5
  0
ARC
  5
4B9
  8
DATA
  6
CONTINUOUS
 62
     7
 10
-728.4999999999773
 20
756.3092886329077
 30
0.0
 40
0.1892886329078169
 50
179.0566788815891
 51
0.9433209280198583
  0
ARC
  5
4BA
  8
DATA
  6
CONTINUOUS
 62
     7
 10
-727.6368158068935
 20
756.2549211212857
 30
0.0
 40
0.6763683861878549
 50
64.8753886700303
 51
175.1246113518744
  0
ARC
  5
4BB
  8
DATA
  6
CONTINUOUS
 62
     7
 10
-727.2523073565726
 20
757.0296443164852
 30
0.0
 40
0.1892886329077201
 50
239.0566788816186
 51
60.94332092800577
  0
ARC
  5
4BC
  8
DATA
  6
CONTINUOUS
 62
     7
 10
-726.7736316138255
 20
757.75000000003
 30
0.0
 40
0.6763683861878752
 50
124.8753886700291
 51
235.1246113518781
  0
ARC
  5
4BD
  8
DATA
  6
CONTINUOUS
 62
     7
 10
-728.4999999999773
 20
759.1907113670923
 30
0.0
 40
0.1892886329075796
 50
359.0566790719801
 51
180.943321118411
  0
ARC
  5
4BE
  8
DATA
  6
CONTINUOUS
 62
     7
 10
-727.6368158068935
 20
759.2450788787143
 30
0.0
 40
0.6763683861879335
 50
184.8753886481256
 51
295.1246113299698
  0
ARC
  5
4BF
  8
DATA
  6
CONTINUOUS
 62
     7
 10
-727.2523073565726
 20
758.4703556835148
 30
0.0
 40
0.1892886329076881
 50
299.0566790719943
 51
120.9433211183814
  0
ARC
  5
4C0
  8
DATA
  6
CONTINUOUS
 62
     7
 10
-729.3631841930611
 20
756.2549211212857
 30
0.0
 40
0.6763683861878202
 50
4.87538864812643
 51
115.1246113299697
  0
ARC
  5
4C1
  8
DATA
  6
CONTINUOUS
 62
     7
 10
-729.747692643382
 20
757.0296443164852
 30
0.0
 40
0.1892886329076881
 50
119.0566790719942
 51
300.9433211183814
  0
ARC
  5
4C2
  8
DATA
  6
CONTINUOUS
 62
     7
 10
-730.2263683861293
 20
757.75000000003
 30
0.0
 40
0.6763683861879823
 50
304.8753886481298
 51
55.12461132996305
  0
ARC
  5
4C3
  8
DATA
  6
CONTINUOUS
 62
     7
 10
-729.3631841930611
 20
759.2450788787143
 30
0.0
 40
0.6763683861878549
 50
244.8753886700303
 51
355.1246113518736
  0
ARC
  5
4C4
  8
DATA
  6
CONTINUOUS
 62
     7
 10
-729.747692643382
 20
758.4703556835148
 30
0.0
 40
0.1892886329077201
 50
59.05667888161861
 51
240.9433209280057
  0
CIRCLE
  5
4C5
  8
DATA
  6
CONTINUOUS
 62
     7
 10
-728.5000000000003
 20
757.75
 30
0.0
 40
4.5
  0
ARC
  5
4C6
  8
DATA
  6
CONTINUOUS
 62
     7
 10
-799.9999999999773
 20
843.6907113670923
 30
0.0
 40
0.1892886329075796
 50
359.0566790719801
 51
180.943321118411
  0
ARC
  5
4C7
  8
DATA
  6
CONTINUOUS
 62
     7
 10
-799.1368158068935
 20
843.7450788787141
 30
0.0
 40
0.6763683861879238
 50
184.875388648116
 51
295.1246113299738
  0
ARC
  5
4C8
  8
DATA
  6
CONTINUOUS
 62
     7
 10
-798.7523073565726
 20
842.9703556835148
 30
0.0
 40
0.1892886329075887
 50
299.056679072011
 51
120.9433211183991
  0
ARC
  5
4C9
  8
DATA
  6
CONTINUOUS
 62
     7
 10
-798.2736316138255
 20
842.24999999997
 30
0.0
 40
0.6763683861880107
 50
124.8753886481164
 51
235.124611329971
  0
ARC
  5
4CA
  8
DATA
  6
CONTINUOUS
 62
     7
 10
-799.9999999999773
 20
840.8092886329077
 30
0.0
 40
0.1892886329078169
 50
179.0566788815891
 51
0.9433209280198583
  0
ARC
  5
4CB
  8
DATA
  6
CONTINUOUS
 62
     7
 10
-799.1368158068935
 20
840.7549211212859
 30
0.0
 40
0.676368386187752
 50
64.87538867002621
 51
175.124611351884
  0
ARC
  5
4CC
  8
DATA
  6
CONTINUOUS
 62
     7
 10
-798.7523073565726
 20
841.5296443164852
 30
0.0
 40
0.1892886329076225
 50
239.0566788816009
 51
60.94332092798902
  0
ARC
  5
4CD
  8
DATA
  6
CONTINUOUS
 62
     7
 10
-800.8631841930611
 20
843.7450788787141
 30
0.0
 40
0.676368386187752
 50
244.8753886700262
 51
355.1246113518832
  0
ARC
  5
4CE
  8
DATA
  6
CONTINUOUS
 62
     7
 10
-801.247692643382
 20
842.9703556835148
 30
0.0
 40
0.1892886329076225
 50
59.05667888160091
 51
240.943320927989
  0
ARC
  5
4CF
  8
DATA
  6
CONTINUOUS
 62
     7
 10
-801.7263683861293
 20
842.24999999997
 30
0.0
 40
0.6763683861879403
 50
304.875388670037
 51
55.1246113518757
  0
ARC
  5
4D0
  8
DATA
  6
CONTINUOUS
 62
     7
 10
-800.8631841930611
 20
840.7549211212859
 30
0.0
 40
0.6763683861878106
 50
4.875388648116833
 51
115.1246113299738
  0
ARC
  5
4D1
  8
DATA
  6
CONTINUOUS
 62
     7
 10
-801.247692643382
 20
841.5296443164852
 30
0.0
 40
0.1892886329075887
 50
119.056679072011
 51
300.9433211183991
  0
CIRCLE
  5
4D2
  8
DATA
  6
CONTINUOUS
 62
     7
 10
-800.0000000000003
 20
842.25
 30
0.0
 40
4.5
  0
ARC
  5
4D3
  8
DATA
  6
CONTINUOUS
 62
     7
 10
-799.9999999999773
 20
756.3092886329077
 30
0.0
 40
0.1892886329078169
 50
179.0566788815891
 51
0.9433209280198583
  0
ARC
  5
4D4
  8
DATA
  6
CONTINUOUS
 62
     7
 10
-799.1368158068935
 20
756.2549211212857
 30
0.0
 40
0.6763683861878549
 50
64.8753886700303
 51
175.1246113518744
  0
ARC
  5
4D5
  8
DATA
  6
CONTINUOUS
 62
     7
 10
-798.7523073565726
 20
757.0296443164852
 30
0.0
 40
0.1892886329077201
 50
239.0566788816186
 51
60.94332092800577
  0
ARC
  5
4D6
  8
DATA
  6
CONTINUOUS
 62
     7
 10
-798.2736316138255
 20
757.75000000003
 30
0.0
 40
0.6763683861878752
 50
124.8753886700291
 51
235.1246113518781
  0
ARC
  5
4D7
  8
DATA
  6
CONTINUOUS
 62
     7
 10
-799.9999999999773
 20
759.1907113670923
 30
0.0
 40
0.1892886329075796
 50
359.0566790719801
 51
180.943321118411
  0
ARC
  5
4D8
  8
DATA
  6
CONTINUOUS
 62
     7
 10
-799.1368158068935
 20
759.2450788787143
 30
0.0
 40
0.6763683861879335
 50
184.8753886481256
 51
295.1246113299698
  0
ARC
  5
4D9
  8
DATA
  6
CONTINUOUS
 62
     7
 10
-798.7523073565726
 20
758.4703556835148
 30
0.0
 40
0.1892886329076881
 50
299.0566790719943
 51
120.9433211183814
  0
ARC
  5
4DA
  8
DATA
  6
CONTINUOUS
 62
     7
 10
-800.8631841930611
 20
756.2549211212857
 30
0.0
 40
0.6763683861878202
 50
4.87538864812643
 51
115.1246113299697
  0
ARC
  5
4DB
  8
DATA
  6
CONTINUOUS
 62
     7
 10
-801.247692643382
 20
757.0296443164852
 30
0.0
 40
0.1892886329076881
 50
119.0566790719942
 51
300.9433211183814
  0
ARC
  5
4DC
  8
DATA
  6
CONTINUOUS
 62
     7
 10
-801.7263683861293
 20
757.75000000003
 30
0.0
 40
0.6763683861879823
 50
304.8753886481298
 51
55.12461132996305
  0
ARC
  5
4DD
  8
DATA
  6
CONTINUOUS
 62
     7
 10
-800.8631841930611
 20
759.2450788787143
 30
0.0
 40
0.6763683861878549
 50
244.8753886700303
 51
355.1246113518736
  0
ARC
  5
4DE
  8
DATA
  6
CONTINUOUS
 62
     7
 10
-801.247692643382
 20
758.4703556835148
 30
0.0
 40
0.1892886329077201
 50
59.05667888161861
 51
240.9433209280057
  0
CIRCLE
  5
4DF
  8
DATA
  6
CONTINUOUS
 62
     7
 10
-800.0000000000003
 20
757.75
 30
0.0
 40
4.5
  0
TEXT
  5
4E0
  8
DATA
 62
     7
 10
-794.2357121672457
 20
821.0406706207782
 30
0.0
 40
3.800629340277778
  1
INPUT
 50
180.0
 41
0.7
 72
     1
 11
-800.0000000000002
 21
819.1403559506393
 31
0.0
 73
     2
  0
CIRCLE
  5
4E1
  8
DATA
  6
CONTINUOUS
 62
     7
 10
-800.0000000000002
 20
800.0
 30
0.0
 40
1.5
  0
CIRCLE
  5
4E2
  8
DATA
  6
CONTINUOUS
 62
     7
 10
-800.0000000000002
 20
800.0
 30
0.0
 40
15.0
  0
CIRCLE
  5
4E3
  8
DATA
  6
CONTINUOUS
 62
     7
 10
-800.0000000000002
 20
800.0
 30
0.0
 40
6.200002162064266
  0
ARC
  5
4E4
  8
DATA
  6
CONTINUOUS
 62
     7
 10
-800.0000000000002
 20
800.0
 30
0.0
 40
9.999999999999837
 50
80.50276553150076
 51
99.49723446850052
  0
ARC
  5
4E5
  8
DATA
  6
CONTINUOUS
 62
     7
 10
-800.0000000000002
 20
800.0
 30
0.0
 40
10.00000000000014
 50
254.9299378551106
 51
285.0700621448894
  0
ARC
  5
4E6
  8
DATA
  6
CONTINUOUS
 62
     7
 10
-800.0000000000005
 20
800.0
 30
0.0
 40
9.250725574850133
 50
286.3234213684935
 51
79.72549552733959
  0
ARC
  5
4E7
  8
DATA
  6
CONTINUOUS
 62
     7
 10
-800.0000000000005
 20
800.0
 30
0.0
 40
9.25072557484994
 50
100.2745044726574
 51
253.6765786315092
  0
LINE
  5
4E8
  8
DATA
  6
CONTINUOUS
 62
     7
 10
-797.4000000000003
 20
791.1221667248574
 30
0.0
 11
-797.4000000000003
 21
790.3439138363417
 31
0.0
  0
LINE
  5
4E9
  8
DATA
  6
CONTINUOUS
 62
     7
 10
-802.6000000000001
 20
791.1221667248574
 30
0.0
 11
-802.6000000000001
 21
790.3439138363417
 31
0.0
  0
LINE
  5
4EA
  8
DATA
  6
CONTINUOUS
 62
     7
 10
-798.3500000000001
 20
809.8629356684498
 30
0.0
 11
-798.3500000000001
 21
809.1023856027527
 31
0.0
  0
LINE
  5
4EB
  8
DATA
  6
CONTINUOUS
 62
     7
 10
-801.6500000000003
 20
809.1023856027527
 30
0.0
 11
-801.6500000000003
 21
809.8629356684498
 31
0.0
  0
LINE
  5
4EC
  8
DATA
  6
CONTINUOUS
 62
     7
 10
-744.0000000000003
 20
809.0
 30
0.0
 11
-744.0000000000003
 21
802.0
 31
0.0
  0
LINE
  5
4ED
  8
DATA
  6
CONTINUOUS
 62
     7
 10
-762.0000000000003
 20
811.0
 30
0.0
 11
-746.0000000000003
 21
811.0
 31
0.0
  0
LINE
  5
4EE
  8
DATA
  6
CONTINUOUS
 62
     7
 10
-764.0000000000003
 20
802.0
 30
0.0
 11
-764.0000000000003
 21
809.0
 31
0.0
  0
LINE
  5
4EF
  8
DATA
  6
CONTINUOUS
 62
     7
 10
-746.0000000000003
 20
800.0
 30
0.0
 11
-762.0000000000003
 21
800.0
 31
0.0
  0
LINE
  5
4F0
  8
DATA
  6
CONTINUOUS
 62
     7
 10
-754.0000000000003
 20
803.6666666666666
 30
0.0
 11
-754.0000000000003
 21
811.0
 31
0.0
  0
LINE
  5
4F1
  8
DATA
  6
CONTINUOUS
 62
     7
 10
-744.0000000000003
 20
803.6666666666666
 30
0.0
 11
-764.0000000000003
 21
803.6666666666666
 31
0.0
  0
LINE
  5
4F2
  8
DATA
  6
CONTINUOUS
 62
     7
 10
-744.0000000000003
 20
807.3333333333334
 30
0.0
 11
-764.0000000000003
 21
807.3333333333334
 31
0.0
  0
TEXT
  5
4F3
  8
DATA
 62
     7
 10
-749.9459953703707
 20
802.9192274305555
 30
0.0
 40
2.171788194444445
  1
PINOUT
 50
180.0
 41
0.7
 72
     1
 11
-754.0000000000003
 21
801.8333333333333
 31
0.0
 73
     2
  0
TEXT
  5
4F4
  8
DATA
 62
     7
 10
-746.5169221643522
 20
806.5858940972222
 30
0.0
 40
2.171788194444445
  1
Pin 1
 50
180.0
 41
0.7
 72
     1
 11
-749.0000000000003
 21
805.5
 31
0.0
 73
     2
  0
TEXT
  5
4F5
  8
DATA
 62
     7
 10
-746.2635468750003
 20
810.2525607638889
 30
0.0
 40
2.171788194444445
  1
Pin 2
 50
180.0
 41
0.7
 72
     1
 11
-749.0000000000003
 21
809.1666666666667
 31
0.0
 73
     2
  0
TEXT
  5
4F6
  8
DATA
 62
     7
 10
-756.9729976851855
 20
806.5858940972222
 30
0.0
 40
2.171788194444445
  1
SUB
 50
180.0
 41
0.7
 72
     1
 11
-759.0000000000003
 21
805.5
 31
0.0
 73
     2
  0
TEXT
  5
4F7
  8
DATA
 62
     7
 10
-756.21287181713
 20
810.2525607638889
 30
0.0
 40
2.171788194444445
  1
open
 50
180.0
 41
0.7
 72
     1
 11
-759.0000000000003
 21
809.1666666666667
 31
0.0
 73
     2
  0
ARC
  5
4F8
  8
DATA
  6
CONTINUOUS
 62
     7
 10
-746.0000000000003
 20
802.0
 30
0.0
 40
2.0
 50
270.0
 51
0.0
  0
ARC
  5
4F9
  8
DATA
  6
CONTINUOUS
 62
     7
 10
-746.0000000000003
 20
809.0
 30
0.0
 40
2.0
 50
0.0
 51
90.0
  0
ARC
  5
4FA
  8
DATA
  6
CONTINUOUS
 62
     7
 10
-762.0000000000003
 20
809.0
 30
0.0
 40
2.0
 50
90.0
 51
180.0
  0
ARC
  5
4FB
  8
DATA
  6
CONTINUOUS
 62
     7
 10
-762.0000000000003
 20
802.0
 30
0.0
 40
2.0
 50
180.0
 51
270.0
  0
TEXT
  5
4FC
  8
DATA
 62
     7
 10
-774.7432176646907
 20
773.3776584201389
 30
0.0
 40
8.144205729166666
  1
VTX SERIES B28
 50
180.0
 41
0.7
 72
     1
 11
-811.4192907983713
 21
769.3055555555555
 31
0.0
 73
     2
  0
TEXT
  5
4FD
  8
DATA
 62
     7
 10
-781.522268174487
 20
779.831610909076
 30
0.0
 40
3.800629340277778
  1
Dual 18"Subwoofer
 50
180.0
 41
0.7
 72
     1
 11
-801.608594237855
 21
777.9312962389371
 31
0.0
 73
     2
  0
ARC
  5
4FE
  8
DATA
  6
CONTINUOUS
 62
     7
 10
-574.7318559457983
 20
879.7687000000001
 30
0.0
 40
21.53867275718221
 50
90.0
 51
170.1233474470974
  0
ARC
  5
4FF
  8
DATA
  6
CONTINUOUS
 62
     7
 10
-116.5755999999985
 20
799.9999999999997
 30
0.0
 40
485.2452819394993
 50
170.1233474470973
 51
189.8766525529028
  0
ARC
  5
500
  8
DATA
  6
CONTINUOUS
 62
     7
 10
-574.7318559457983
 20
879.7687000000001
 30
0.0
 40
20.19668193949838
 50
90.0
 51
170.123347447098
  0
ARC
  5
501
  8
DATA
  6
CONTINUOUS
 62
     7
 10
-116.5755999999985
 20
799.9999999999997
 30
0.0
 40
486.5872727571833
 50
170.1233474470972
 51
189.8766525529027
  0
ARC
  5
502
  8
DATA
  6
CONTINUOUS
 62
     7
 10
-574.7318559457983
 20
720.2313
 30
0.0
 40
21.53867275718394
 50
189.8766525529027
 51
270.0
  0
ARC
  5
503
  8
DATA
  6
CONTINUOUS
 62
     7
 10
-574.7318559457983
 20
720.2313
 30
0.0
 40
20.19668193949816
 50
189.876652552902
 51
270.0
  0
ARC
  5
504
  8
DATA
  6
CONTINUOUS
 62
     7
 10
-455.2681440542058
 20
720.2313
 30
0.0
 40
20.19668193949838
 50
270.0
 51
350.123347447098
  0
ARC
  5
505
  8
DATA
  6
CONTINUOUS
 62
     7
 10
-913.424400000002
 20
799.9999999999997
 30
0.0
 40
485.2452819394976
 50
350.1233474470973
 51
9.876652552902613
  0
ARC
  5
506
  8
DATA
  6
CONTINUOUS
 62
     7
 10
-455.2681440542058
 20
879.7687000000001
 30
0.0
 40
20.19668193949816
 50
9.876652552901964
 51
89.99999999999999
  0
ARC
  5
507
  8
DATA
  6
CONTINUOUS
 62
     7
 10
-455.2681440542058
 20
879.7687000000001
 30
0.0
 40
21.53867275718394
 50
9.876652552902666
 51
90.0
  0
ARC
  5
508
  8
DATA
  6
CONTINUOUS
 62
     7
 10
-455.2681440542058
 20
720.2313
 30
0.0
 40
21.53867275718221
 50
270.0
 51
350.1233474470966
  0
ARC
  5
509
  8
DATA
  6
CONTINUOUS
 62
     7
 10
-913.424400000002
 20
799.9999999999997
 30
0.0
 40
486.5872727571833
 50
350.1233474470973
 51
9.87665255290267
  0
LINE
  5
50A
  8
DATA
  6
CONTINUOUS
 62
     7
 10
-574.731860506063
 20
901.3073697686191
 30
0.0
 11
-455.268148529058
 21
901.3073697686191
 31
0.0
  0
LINE
  5
50B
  8
DATA
  6
CONTINUOUS
 62
     7
 10
-455.268148529058
 20
700.0346213579174
 30
0.0
 11
-574.731860506063
 21
700.0346213579174
 31
0.0
  0
LINE
  5
50C
  8
DATA
  6
CONTINUOUS
 62
     7
 10
-574.731860506063
 20
899.9653786420818
 30
0.0
 11
-455.268148529058
 21
899.9653786420818
 31
0.0
  0
LINE
  5
50D
  8
DATA
  6
CONTINUOUS
 62
     7
 10
-455.268148529058
 20
698.6926302313801
 30
0.0
 11
-574.731860506063
 21
698.6926302313801
 31
0.0
  0
ARC
  5
50E
  8
DATA
  6
CONTINUOUS
 62
     7
 10
-969.1711279613054
 20
792.5176467071637
 30
0.0
 40
539.709450844174
 50
5.64362306894103
 51
9.64552914441326
  0
LINE
  5
50F
  8
DATA
  6
CONTINUOUS
 62
     7
 10
-450.1765184306735
 20
860.7099659981718
 30
0.0
 11
-449.011251745362
 21
845.5930000283897
 31
0.0
  0
ARC
  5
510
  8
DATA
  6
CONTINUOUS
 62
     7
 10
-554.9947784183039
 20
843.2090185439397
 30
0.0
 40
25.88860131824323
 50
177.8151163703995
 51
269.8547244827552
  0
ARC
  5
511
  8
DATA
  6
CONTINUOUS
 62
     7
 10
-556.2188001326665
 20
777.0919534890659
 30
0.0
 40
25.92850722283323
 50
87.43940520194465
 51
182.1193116714807
  0
ARC
  5
512
  8
DATA
  6
CONTINUOUS
 62
     7
 10
-56.12255808344139
 20
798.7259206771987
 30
0.0
 40
543.9317926115366
 50
175.2047525702559
 51
182.3805293130013
  0
ARC
  5
513
  8
DATA
  6
CONTINUOUS
 62
     7
 10
-475.0052215816968
 20
843.2090185439397
 30
0.0
 40
25.88860131824333
 50
270.1452755172448
 51
2.184883629600563
  0
ARC
  5
514
  8
DATA
  6
CONTINUOUS
 62
     7
 10
-473.781199867334
 20
777.0919534890659
 30
0.0
 40
25.92850722283293
 50
357.8806883285193
 51
92.56059479805589
  0
ARC
  5
515
  8
DATA
  6
CONTINUOUS
 62
     7
 10
-973.8774419165592
 20
798.7259206771987
 30
0.0
 40
543.9317926115365
 50
357.6194706869987
 51
4.795247429744109
  0
ARC
  5
516
  8
DATA
  6
CONTINUOUS
 62
     7
 10
583.6227086737533
 20
829.5624728639191
 30
0.0
 40
1166.943064345941
 50
182.6933606883703
 51
184.4367831003385
  0
ARC
  5
517
  8
DATA
  6
CONTINUOUS
 62
     7
 10
-553.8680414943497
 20
737.9224179397671
 30
0.0
 40
24.95805891091593
 50
203.1874760127671
 51
259.9807051278375
  0
ARC
  5
518
  8
DATA
  6
CONTINUOUS
 62
     7
 10
-574.7303236365474
 20
720.216894250692
 30
0.0
 40
18.45154516608749
 50
189.8738032612867
 51
270.0044541294862
  0
ARC
  5
519
  8
DATA
  6
CONTINUOUS
 62
     7
 10
-55.25749376312774
 20
806.9183117494999
 30
0.0
 40
545.1095964741877
 50
183.3855578000148
 51
189.4889627063105
  0
LINE
  5
51A
  8
DATA
  6
CONTINUOUS
 62
     7
 10
-555.6294802003979
 20
713.181757033005
 30
0.0
 11
-556.0860075626681
 21
713.1840932486176
 31
0.0
  0
ARC
  5
51B
  8
DATA
  6
CONTINUOUS
 62
     7
 10
-557.1300883740032
 20
713.5026534466512
 30
0.0
 40
1.091597609176655
 50
188.3045436168572
 51
343.0324929230455
  0
ARC
  5
51C
  8
DATA
  6
CONTINUOUS
 62
     7
 10
-547.5552206703937
 20
741.9733272566556
 30
0.0
 40
32.37962611548419
 50
184.7557321213177
 51
205.3787697085711
  0
ARC
  5
51D
  8
DATA
  6
CONTINUOUS
 62
     7
 10
-1613.622708673853
 20
829.5624728639191
 30
0.0
 40
1166.94306434594
 50
355.5632168996615
 51
357.3066393116298
  0
ARC
  5
51E
  8
DATA
  6
CONTINUOUS
 62
     7
 10
-476.1319585057506
 20
737.9224179397671
 30
0.0
 40
24.95805891091578
 50
280.0192948721625
 51
336.8125239872329
  0
ARC
  5
51F
  8
DATA
  6
CONTINUOUS
 62
     7
 10
-455.2696763635529
 20
720.216894250692
 30
0.0
 40
18.45154516608789
 50
269.9955458705137
 51
350.1261967387131
  0
ARC
  5
520
  8
DATA
  6
CONTINUOUS
 62
     7
 10
-974.7425062369724
 20
806.9183117494999
 30
0.0
 40
545.1095964741872
 50
350.5110372936895
 51
356.6144421999852
  0
LINE
  5
521
  8
DATA
  6
CONTINUOUS
 62
     7
 10
-449.0112517453274
 20
845.5930000278768
 30
0.0
 11
-432.0777485565661
 21
845.5930000278768
 31
0.0
  0
LINE
  5
522
  8
DATA
  6
CONTINUOUS
 62
     7
 10
-474.9395801688499
 20
817.3205004438269
 30
0.0
 11
-474.9395801688499
 21
802.994571925849
 31
0.0
  0
LINE
  5
523
  8
DATA
  6
CONTINUOUS
 62
     7
 10
-555.060419831145
 20
802.9945719258485
 30
0.0
 11
-555.060419831145
 21
817.3205004438269
 31
0.0
  0
LINE
  5
524
  8
DATA
  6
CONTINUOUS
 62
     7
 10
-430.5842648972932
 20
774.7270000278754
 30
0.0
 11
-447.9687349990129
 21
774.7270000278759
 31
0.0
  0
LINE
  5
525
  8
DATA
  6
CONTINUOUS
 62
     7
 10
-455.2711107715079
 20
701.7653491403577
 30
0.0
 11
-574.7288892284889
 21
701.7653491403568
 31
0.0
  0
LINE
  5
526
  8
DATA
  6
CONTINUOUS
 62
     7
 10
-554.7510000000023
 20
817.3205004438269
 30
0.0
 11
-475.2489999999982
 21
817.3205004438269
 31
0.0
  0
LINE
  5
527
  8
DATA
  6
CONTINUOUS
 62
     7
 10
-475.2489999999982
 20
802.999499611924
 30
0.0
 11
-554.7510000000004
 21
802.999499611924
 31
0.0
  0
LINE
  5
528
  8
DATA
  6
CONTINUOUS
 62
     7
 10
-430.4150608588327
 20
776.1331034849381
 30
0.0
 11
-447.8704281020221
 21
776.1331034849381
 31
0.0
  0
LINE
  5
529
  8
DATA
  6
CONTINUOUS
 62
     7
 10
-554.7510000000004
 20
802.9994996119235
 30
0.0
 11
-554.7510000000004
 21
817.3205004438269
 31
0.0
  0
LINE
  5
52A
  8
DATA
  6
CONTINUOUS
 62
     7
 10
-555.6294802003979
 20
713.179562120905
 30
0.0
 11
-474.3705197997026
 21
713.181757033005
 31
0.0
  0
LINE
  5
52B
  8
DATA
  6
CONTINUOUS
 62
     7
 10
-574.7288892284889
 20
898.2346509153945
 30
0.0
 11
-455.2711107715079
 21
898.2346509153945
 31
0.0
  0
LINE
  5
52C
  8
DATA
  6
CONTINUOUS
 62
     7
 10
-474.3701945822506
 20
886.8204377111069
 30
0.0
 11
-555.6298054177462
 21
886.8204377111069
 31
0.0
  0
LINE
  5
52D
  8
DATA
  6
CONTINUOUS
 62
     7
 10
-449.1354410305341
 20
844.1960000278755
 30
0.0
 11
-431.8495211436077
 21
844.1960000278755
 31
0.0
  0
LINE
  5
52E
  8
DATA
  6
CONTINUOUS
 62
     7
 10
-580.9887482546694
 20
845.5930000278768
 30
0.0
 11
-597.9222514434298
 21
845.5930000278768
 31
0.0
  0
LINE
  5
52F
  8
DATA
  6
CONTINUOUS
 62
     7
 10
-599.4157351027027
 20
774.7270000278754
 30
0.0
 11
-582.0312650009821
 21
774.7270000278754
 31
0.0
  0
LINE
  5
530
  8
DATA
  6
CONTINUOUS
 62
     7
 10
-475.249
 20
802.999499611924
 30
0.0
 11
-475.249
 21
817.3205004438269
 31
0.0
  0
LINE
  5
531
  8
DATA
  6
CONTINUOUS
 62
     7
 10
-474.3705197997026
 20
713.181757033005
 30
0.0
 11
-473.9139924374324
 21
713.1840932486176
 31
0.0
  0
ARC
  5
532
  8
DATA
  6
CONTINUOUS
 62
     7
 10
-472.8699116260971
 20
713.5026534466512
 30
0.0
 40
1.091597609176704
 50
196.9675070769544
 51
351.6954563831428
  0
ARC
  5
533
  8
DATA
  6
CONTINUOUS
 62
     7
 10
-482.4447793297065
 20
741.9733272566556
 30
0.0
 40
32.37962611548417
 50
334.621230291429
 51
355.2442678786822
  0
LINE
  5
534
  8
DATA
  6
CONTINUOUS
 62
     7
 10
-474.3701945832656
 20
886.820437504628
 30
0.0
 11
-474.2176658799438
 21
886.8196870854281
 31
0.0
  0
LINE
  5
535
  8
DATA
  6
CONTINUOUS
 62
     7
 10
-474.2176658799438
 20
886.8200623466478
 30
0.0
 11
-474.3701945827563
 21
886.8204376078675
 31
0.0
  0
CIRCLE
  5
536
  8
DATA
  6
CONTINUOUS
 62
     7
 10
-438.7999999997248
 20
787.3000000278753
 30
0.0
 40
4.5
  0
LINE
  5
537
  8
DATA
  6
CONTINUOUS
 62
     7
 10
-598.151314229339
 20
844.1868965708122
 30
0.0
 11
-580.8645589694627
 21
844.1868965708127
 31
0.0
  0
LINE
  5
538
  8
DATA
  6
CONTINUOUS
 62
     7
 10
-582.1295718979729
 20
776.124000027874
 30
0.0
 11
-599.5844892268399
 21
776.124000027874
 31
0.0
  0
ARC
  5
539
  8
DATA
  6
CONTINUOUS
 62
     7
 10
-473.1158508696626
 20
886.5450751579447
 30
0.0
 40
1.049908630883108
 50
7.937146570698091
 51
118.2533860674835
  0
ARC
  5
53A
  8
DATA
  6
CONTINUOUS
 62
     7
 10
-472.9149253191615
 20
886.2142581916187
 30
0.0
 40
1.436550421728076
 50
119.0908596461681
 51
155.0740663390299
  0
ARC
  5
53B
  8
DATA
  6
CONTINUOUS
 62
     7
 10
-475.7862549838301
 20
862.5091321064056
 30
0.0
 40
24.46391124298196
 50
24.42930674926193
 51
81.27672433121472
  0
ARC
  5
53C
  8
DATA
  6
CONTINUOUS
 62
     7
 10
-484.8826784369905
 20
857.4194542713899
 30
0.0
 40
34.86179871733776
 50
5.416057339996744
 51
25.86259988767597
  0
ARC
  5
53D
  8
DATA
  6
CONTINUOUS
 62
     7
 10
-455.3122263868727
 20
879.7325059330356
 30
0.0
 40
18.50219066602806
 50
10.00558032048647
 51
89.87267706760417
  0
ARC
  5
53E
  8
DATA
  6
CONTINUOUS
 62
     7
 10
-60.82887203869109
 20
792.5176467071633
 30
0.0
 40
539.7094508441743
 50
170.3544708555867
 51
174.356376931059
  0
LINE
  5
53F
  8
DATA
  6
CONTINUOUS
 62
     7
 10
-579.8234815693233
 20
860.7099659981714
 30
0.0
 11
-580.9887482546349
 21
845.5930000283893
 31
0.0
  0
LINE
  5
540
  8
DATA
  6
CONTINUOUS
 62
     7
 10
-555.6298054167312
 20
886.8204375046275
 30
0.0
 11
-555.7823341200531
 21
886.8196870854276
 31
0.0
  0
LINE
  5
541
  8
DATA
  6
CONTINUOUS
 62
     7
 10
-555.7823341200531
 20
886.8200623466473
 30
0.0
 11
-555.6298054172405
 21
886.820437607867
 31
0.0
  0
ARC
  5
542
  8
DATA
  6
CONTINUOUS
 62
     7
 10
-556.884149130334
 20
886.5450751579442
 30
0.0
 40
1.049908630882979
 50
61.74661393252743
 51
172.0628534293036
  0
ARC
  5
543
  8
DATA
  6
CONTINUOUS
 62
     7
 10
-557.0850746808353
 20
886.2142581916182
 30
0.0
 40
1.436550421727864
 50
24.92593366097018
 51
60.90914035383188
  0
ARC
  5
544
  8
DATA
  6
CONTINUOUS
 62
     7
 10
-554.2137450161665
 20
862.5091321064051
 30
0.0
 40
24.46391124298182
 50
98.72327566878583
 51
155.5706932507383
  0
ARC
  5
545
  8
DATA
  6
CONTINUOUS
 62
     7
 10
-545.1173215630063
 20
857.4194542713894
 30
0.0
 40
34.8617987173378
 50
154.137400112324
 51
174.5839426600033
  0
ARC
  5
546
  8
DATA
  6
CONTINUOUS
 62
     7
 10
-574.6877736131239
 20
879.7325059330351
 30
0.0
 40
18.50219066602806
 50
90.12732293239654
 51
169.9944196795137
  0
TEXT
  5
547
  8
DATA
 62
     7
 10
-485.3550911458331
 20
815.0465234653755
 30
0.0
 40
9.773046875000002
  1
VTXSERIES
 50
180.0
 41
0.7
 72
     1
 11
-514.9999999999998
 21
810.1600000278754
 31
0.0
 73
     2
  0
ARC
  5
548
  8
DATA
  6
CONTINUOUS
 62
     7
 10
-438.7999999999784
 20
785.859288632903
 30
0.0
 40
0.1892886329077032
 50
179.0566788815885
 51
0.9433209280187499
  0
ARC
  5
549
  8
DATA
  6
CONTINUOUS
 62
     7
 10
-437.9368158068945
 20
785.804921121281
 30
0.0
 40
0.6763683861878549
 50
64.8753886700303
 51
175.1246113518736
  0
ARC
  5
54A
  8
DATA
  6
CONTINUOUS
 62
     7
 10
-437.5523073565736
 20
786.5796443164805
 30
0.0
 40
0.1892886329077201
 50
239.0566788816186
 51
60.94332092800577
  0
ARC
  5
54B
  8
DATA
  6
CONTINUOUS
 62
     7
 10
-437.0736316138264
 20
787.3000000000252
 30
0.0
 40
0.6763683861880335
 50
124.8753886700315
 51
235.1246113518647
  0
ARC
  5
54C
  8
DATA
  6
CONTINUOUS
 62
     7
 10
-438.7999999999784
 20
788.7407113670874
 30
0.0
 40
0.1892886329078051
 50
359.0566790720157
 51
180.9433211183772
  0
ARC
  5
54D
  8
DATA
  6
CONTINUOUS
 62
     7
 10
-437.9368158068945
 20
788.7950788787095
 30
0.0
 40
0.6763683861878202
 50
184.8753886481264
 51
295.1246113299656
  0
ARC
  5
54E
  8
DATA
  6
CONTINUOUS
 62
     7
 10
-437.5523073565736
 20
788.0203556835099
 30
0.0
 40
0.1892886329075887
 50
299.056679072011
 51
120.9433211183637
  0
ARC
  5
54F
  8
DATA
  6
CONTINUOUS
 62
     7
 10
-439.6631841930621
 20
785.804921121281
 30
0.0
 40
0.6763683861879335
 50
4.87538864812561
 51
115.1246113299697
  0
ARC
  5
550
  8
DATA
  6
CONTINUOUS
 62
     7
 10
-440.047692643383
 20
786.5796443164805
 30
0.0
 40
0.1892886329076881
 50
119.0566790719942
 51
300.9433211183814
  0
ARC
  5
551
  8
DATA
  6
CONTINUOUS
 62
     7
 10
-440.5263683861301
 20
787.3000000000252
 30
0.0
 40
0.6763683861878241
 50
304.8753886481274
 51
55.12461132997649
  0
ARC
  5
552
  8
DATA
  6
CONTINUOUS
 62
     7
 10
-439.6631841930621
 20
788.7950788787095
 30
0.0
 40
0.6763683861879578
 50
244.8753886700344
 51
355.1246113518744
  0
ARC
  5
553
  8
DATA
  6
CONTINUOUS
 62
     7
 10
-440.047692643383
 20
788.0203556835099
 30
0.0
 40
0.1892886329078176
 50
59.0566788816363
 51
240.943320927989
  0
CIRCLE
  5
554
  8
DATA
  6
CONTINUOUS
 62
     7
 10
-452.769999999726
 20
711.10000002788
 30
0.0
 40
4.5
  0
ARC
  5
555
  8
DATA
  6
CONTINUOUS
 62
     7
 10
-452.7699999999795
 20
709.6592886329078
 30
0.0
 40
0.1892886329077032
 50
179.0566788815885
 51
0.9433209280187499
  0
ARC
  5
556
  8
DATA
  6
CONTINUOUS
 62
     7
 10
-451.9068158068957
 20
709.6049211212858
 30
0.0
 40
0.6763683861878549
 50
64.8753886700303
 51
175.1246113518736
  0
ARC
  5
557
  8
DATA
  6
CONTINUOUS
 62
     7
 10
-451.5223073565747
 20
710.3796443164853
 30
0.0
 40
0.1892886329077201
 50
239.0566788816186
 51
60.94332092800577
  0
ARC
  5
558
  8
DATA
  6
CONTINUOUS
 62
     7
 10
-451.0436316138275
 20
711.1000000000299
 30
0.0
 40
0.6763683861880335
 50
124.8753886700315
 51
235.1246113518647
  0
ARC
  5
559
  8
DATA
  6
CONTINUOUS
 62
     7
 10
-452.7699999999795
 20
712.5407113670922
 30
0.0
 40
0.1892886329078051
 50
359.0566790720157
 51
180.9433211183772
  0
ARC
  5
55A
  8
DATA
  6
CONTINUOUS
 62
     7
 10
-451.9068158068957
 20
712.5950788787143
 30
0.0
 40
0.6763683861878202
 50
184.8753886481264
 51
295.1246113299656
  0
ARC
  5
55B
  8
DATA
  6
CONTINUOUS
 62
     7
 10
-451.5223073565747
 20
711.8203556835147
 30
0.0
 40
0.1892886329075887
 50
299.056679072011
 51
120.9433211183637
  0
ARC
  5
55C
  8
DATA
  6
CONTINUOUS
 62
     7
 10
-453.6331841930632
 20
709.6049211212858
 30
0.0
 40
0.6763683861879335
 50
4.87538864812561
 51
115.1246113299697
  0
ARC
  5
55D
  8
DATA
  6
CONTINUOUS
 62
     7
 10
-454.0176926433842
 20
710.3796443164853
 30
0.0
 40
0.1892886329076881
 50
119.0566790719942
 51
300.9433211183814
  0
ARC
  5
55E
  8
DATA
  6
CONTINUOUS
 62
     7
 10
-454.4963683861313
 20
711.1000000000299
 30
0.0
 40
0.6763683861878241
 50
304.8753886481274
 51
55.12461132997649
  0
ARC
  5
55F
  8
DATA
  6
CONTINUOUS
 62
     7
 10
-453.6331841930632
 20
712.5950788787143
 30
0.0
 40
0.6763683861879578
 50
244.8753886700344
 51
355.1246113518744
  0
ARC
  5
560
  8
DATA
  6
CONTINUOUS
 62
     7
 10
-454.0176926433842
 20
711.8203556835147
 30
0.0
 40
0.1892886329078176
 50
59.0566788816363
 51
240.943320927989
  0
CIRCLE
  5
561
  8
DATA
  6
CONTINUOUS
 62
     7
 10
-577.2300000000016
 20
711.1
 30
0.0
 40
4.5
  0
ARC
  5
562
  8
DATA
  6
CONTINUOUS
 62
     7
 10
-577.2300000002551
 20
709.6592886050278
 30
0.0
 40
0.1892886329077032
 50
179.0566788815885
 51
0.9433209280187499
  0
ARC
  5
563
  8
DATA
  6
CONTINUOUS
 62
     7
 10
-576.3668158071713
 20
709.6049210934058
 30
0.0
 40
0.6763683861878549
 50
64.8753886700303
 51
175.1246113518736
  0
ARC
  5
564
  8
DATA
  6
CONTINUOUS
 62
     7
 10
-575.9823073568504
 20
710.3796442886053
 30
0.0
 40
0.1892886329077201
 50
239.0566788816186
 51
60.94332092800577
  0
ARC
  5
565
  8
DATA
  6
CONTINUOUS
 62
     7
 10
-575.5036316141031
 20
711.0999999721499
 30
0.0
 40
0.6763683861880335
 50
124.8753886700315
 51
235.1246113518647
  0
ARC
  5
566
  8
DATA
  6
CONTINUOUS
 62
     7
 10
-577.2300000002551
 20
712.5407113392122
 30
0.0
 40
0.1892886329078051
 50
359.0566790720157
 51
180.9433211183772
  0
ARC
  5
567
  8
DATA
  6
CONTINUOUS
 62
     7
 10
-576.3668158071713
 20
712.5950788508343
 30
0.0
 40
0.6763683861878202
 50
184.8753886481264
 51
295.1246113299656
  0
ARC
  5
568
  8
DATA
  6
CONTINUOUS
 62
     7
 10
-575.9823073568504
 20
711.8203556556347
 30
0.0
 40
0.1892886329075887
 50
299.056679072011
 51
120.9433211183637
  0
ARC
  5
569
  8
DATA
  6
CONTINUOUS
 62
     7
 10
-578.0931841933389
 20
709.6049210934058
 30
0.0
 40
0.6763683861879335
 50
4.87538864812561
 51
115.1246113299697
  0
ARC
  5
56A
  8
DATA
  6
CONTINUOUS
 62
     7
 10
-578.4776926436598
 20
710.3796442886053
 30
0.0
 40
0.1892886329076881
 50
119.0566790719942
 51
300.9433211183814
  0
ARC
  5
56B
  8
DATA
  6
CONTINUOUS
 62
     7
 10
-578.9563683864069
 20
711.0999999721499
 30
0.0
 40
0.6763683861878241
 50
304.8753886481274
 51
55.12461132997649
  0
ARC
  5
56C
  8
DATA
  6
CONTINUOUS
 62
     7
 10
-578.0931841933389
 20
712.5950788508343
 30
0.0
 40
0.6763683861879578
 50
244.8753886700344
 51
355.1246113518744
  0
ARC
  5
56D
  8
DATA
  6
CONTINUOUS
 62
     7
 10
-578.4776926436598
 20
711.8203556556347
 30
0.0
 40
0.1892886329078176
 50
59.0566788816363
 51
240.943320927989
  0
CIRCLE
  5
56E
  8
DATA
  6
CONTINUOUS
 62
     7
 10
-591.2000000000028
 20
787.2999999999944
 30
0.0
 40
4.5
  0
ARC
  5
56F
  8
DATA
  6
CONTINUOUS
 62
     7
 10
-591.2000000002563
 20
785.8592886050221
 30
0.0
 40
0.1892886329077032
 50
179.0566788815885
 51
0.9433209280187499
  0
ARC
  5
570
  8
DATA
  6
CONTINUOUS
 62
     7
 10
-590.3368158071725
 20
785.8049210934001
 30
0.0
 40
0.6763683861878549
 50
64.8753886700303
 51
175.1246113518736
  0
ARC
  5
571
  8
DATA
  6
CONTINUOUS
 62
     7
 10
-589.9523073568515
 20
786.5796442885996
 30
0.0
 40
0.1892886329077201
 50
239.0566788816186
 51
60.94332092800577
  0
ARC
  5
572
  8
DATA
  6
CONTINUOUS
 62
     7
 10
-589.4736316141043
 20
787.2999999721443
 30
0.0
 40
0.6763683861880335
 50
124.8753886700315
 51
235.1246113518647
  0
ARC
  5
573
  8
DATA
  6
CONTINUOUS
 62
     7
 10
-591.2000000002563
 20
788.7407113392065
 30
0.0
 40
0.1892886329078051
 50
359.0566790720157
 51
180.9433211183772
  0
ARC
  5
574
  8
DATA
  6
CONTINUOUS
 62
     7
 10
-590.3368158071725
 20
788.7950788508286
 30
0.0
 40
0.6763683861878202
 50
184.8753886481264
 51
295.1246113299656
  0
ARC
  5
575
  8
DATA
  6
CONTINUOUS
 62
     7
 10
-589.9523073568515
 20
788.020355655629
 30
0.0
 40
0.1892886329075887
 50
299.056679072011
 51
120.9433211183637
  0
ARC
  5
576
  8
DATA
  6
CONTINUOUS
 62
     7
 10
-592.06318419334
 20
785.8049210934001
 30
0.0
 40
0.6763683861879335
 50
4.87538864812561
 51
115.1246113299697
  0
ARC
  5
577
  8
DATA
  6
CONTINUOUS
 62
     7
 10
-592.447692643661
 20
786.5796442885996
 30
0.0
 40
0.1892886329076881
 50
119.0566790719942
 51
300.9433211183814
  0
ARC
  5
578
  8
DATA
  6
CONTINUOUS
 62
     7
 10
-592.9263683864081
 20
787.2999999721443
 30
0.0
 40
0.6763683861878241
 50
304.8753886481274
 51
55.12461132997649
  0
ARC
  5
579
  8
DATA
  6
CONTINUOUS
 62
     7
 10
-592.06318419334
 20
788.7950788508286
 30
0.0
 40
0.6763683861879578
 50
244.8753886700344
 51
355.1246113518744
  0
ARC
  5
57A
  8
DATA
  6
CONTINUOUS
 62
     7
 10
-592.447692643661
 20
788.020355655629
 30
0.0
 40
0.1892886329078176
 50
59.0566788816363
 51
240.943320927989
  0
CIRCLE
  5
57B
  8
DATA
  6
CONTINUOUS
 62
     7
 10
-591.2000000002758
 20
833.0200000278514
 30
0.0
 40
4.5
  0
ARC
  5
57C
  8
DATA
  6
CONTINUOUS
 62
     7
 10
-591.2000000005294
 20
831.5792886328791
 30
0.0
 40
0.1892886329077032
 50
179.0566788815885
 51
0.9433209280187499
  0
ARC
  5
57D
  8
DATA
  6
CONTINUOUS
 62
     7
 10
-590.3368158074455
 20
831.5249211212572
 30
0.0
 40
0.676368386187752
 50
64.87538867002621
 51
175.1246113518832
  0
ARC
  5
57E
  8
DATA
  6
CONTINUOUS
 62
     7
 10
-589.9523073571246
 20
832.2996443164566
 30
0.0
 40
0.1892886329076225
 50
239.0566788816009
 51
60.94332092802247
  0
ARC
  5
57F
  8
DATA
  6
CONTINUOUS
 62
     7
 10
-589.4736316143774
 20
833.0200000000013
 30
0.0
 40
0.6763683861881268
 50
124.875388670026
 51
235.1246113518647
  0
ARC
  5
580
  8
DATA
  6
CONTINUOUS
 62
     7
 10
-591.2000000005294
 20
834.4607113670636
 30
0.0
 40
0.1892886329078069
 50
359.0566790719813
 51
180.9433211184115
  0
ARC
  5
581
  8
DATA
  6
CONTINUOUS
 62
     7
 10
-590.3368158074455
 20
834.5150788786857
 30
0.0
 40
0.6763683861878299
 50
184.875388648136
 51
295.1246113299656
  0
ARC
  5
582
  8
DATA
  6
CONTINUOUS
 62
     7
 10
-589.9523073571246
 20
833.7403556834861
 30
0.0
 40
0.1892886329075887
 50
299.056679072011
 51
120.9433211183637
  0
ARC
  5
583
  8
DATA
  6
CONTINUOUS
 62
     7
 10
-592.0631841936131
 20
831.5249211212572
 30
0.0
 40
0.6763683861879238
 50
4.875388648116016
 51
115.1246113299738
  0
ARC
  5
584
  8
DATA
  6
CONTINUOUS
 62
     7
 10
-592.447692643934
 20
832.2996443164566
 30
0.0
 40
0.1892886329077875
 50
119.0566790719776
 51
300.9433211183991
  0
ARC
  5
585
  8
DATA
  6
CONTINUOUS
 62
     7
 10
-592.9263683866811
 20
833.0200000000013
 30
0.0
 40
0.6763683861878241
 50
304.8753886481274
 51
55.12461132998197
  0
ARC
  5
586
  8
DATA
  6
CONTINUOUS
 62
     7
 10
-592.0631841936131
 20
834.5150788786857
 30
0.0
 40
0.6763683861879578
 50
244.8753886700344
 51
355.1246113518648
  0
ARC
  5
587
  8
DATA
  6
CONTINUOUS
 62
     7
 10
-592.447692643934
 20
833.7403556834861
 30
0.0
 40
0.1892886329078176
 50
59.0566788816363
 51
240.943320927989
  0
CIRCLE
  5
588
  8
DATA
  6
CONTINUOUS
 62
     7
 10
-577.2300000000016
 20
888.900000000001
 30
0.0
 40
4.5
  0
ARC
  5
589
  8
DATA
  6
CONTINUOUS
 62
     7
 10
-577.2300000002551
 20
887.4592886050289
 30
0.0
 40
0.1892886329077032
 50
179.0566788815885
 51
0.9433209280187499
  0
ARC
  5
58A
  8
DATA
  6
CONTINUOUS
 62
     7
 10
-576.3668158071713
 20
887.4049210934068
 30
0.0
 40
0.6763683861879578
 50
64.8753886700344
 51
175.124611351864
  0
ARC
  5
58B
  8
DATA
  6
CONTINUOUS
 62
     7
 10
-575.9823073568504
 20
888.1796442886064
 30
0.0
 40
0.1892886329078176
 50
239.0566788816363
 51
60.94332092798906
  0
ARC
  5
58C
  8
DATA
  6
CONTINUOUS
 62
     7
 10
-575.5036316141031
 20
888.8999999721509
 30
0.0
 40
0.6763683861881268
 50
124.875388670026
 51
235.1246113518647
  0
ARC
  5
58D
  8
DATA
  6
CONTINUOUS
 62
     7
 10
-577.2300000002551
 20
890.3407113392132
 30
0.0
 40
0.1892886329078032
 50
359.0566790720501
 51
180.9433211183427
  0
ARC
  5
58E
  8
DATA
  6
CONTINUOUS
 62
     7
 10
-576.3668158071713
 20
890.3950788508353
 30
0.0
 40
0.6763683861878106
 50
184.8753886481168
 51
295.1246113299656
  0
ARC
  5
58F
  8
DATA
  6
CONTINUOUS
 62
     7
 10
-575.9823073568504
 20
889.6203556556356
 30
0.0
 40
0.1892886329075887
 50
299.056679072011
 51
120.9433211183637
  0
ARC
  5
590
  8
DATA
  6
CONTINUOUS
 62
     7
 10
-578.0931841933389
 20
887.4049210934068
 30
0.0
 40
0.6763683861879431
 50
4.875388648135207
 51
115.1246113299656
  0
ARC
  5
591
  8
DATA
  6
CONTINUOUS
 62
     7
 10
-578.4776926436598
 20
888.1796442886064
 30
0.0
 40
0.1892886329075887
 50
119.056679072011
 51
300.9433211183637
  0
ARC
  5
592
  8
DATA
  6
CONTINUOUS
 62
     7
 10
-578.9563683864069
 20
888.8999999721509
 30
0.0
 40
0.6763683861878241
 50
304.8753886481274
 51
55.12461132998197
  0
ARC
  5
593
  8
DATA
  6
CONTINUOUS
 62
     7
 10
-578.0931841933389
 20
890.3950788508353
 30
0.0
 40
0.6763683861879578
 50
244.8753886700344
 51
355.124611351884
  0
ARC
  5
594
  8
DATA
  6
CONTINUOUS
 62
     7
 10
-578.4776926436598
 20
889.6203556556356
 30
0.0
 40
0.1892886329078176
 50
59.0566788816363
 51
240.943320927989
  0
CIRCLE
  5
595
  8
DATA
  6
CONTINUOUS
 62
     7
 10
-452.7700000000025
 20
888.900000000001
 30
0.0
 40
4.5
  0
ARC
  5
596
  8
DATA
  6
CONTINUOUS
 62
     7
 10
-452.770000000256
 20
887.4592886050289
 30
0.0
 40
0.1892886329077032
 50
179.0566788815885
 51
0.9433209280187499
  0
ARC
  5
597
  8
DATA
  6
CONTINUOUS
 62
     7
 10
-451.9068158071722
 20
887.4049210934068
 30
0.0
 40
0.6763683861879578
 50
64.8753886700344
 51
175.124611351864
  0
ARC
  5
598
  8
DATA
  6
CONTINUOUS
 62
     7
 10
-451.5223073568512
 20
888.1796442886064
 30
0.0
 40
0.1892886329078176
 50
239.0566788816363
 51
60.94332092798906
  0
ARC
  5
599
  8
DATA
  6
CONTINUOUS
 62
     7
 10
-451.043631614104
 20
888.8999999721509
 30
0.0
 40
0.6763683861881268
 50
124.875388670026
 51
235.1246113518647
  0
ARC
  5
59A
  8
DATA
  6
CONTINUOUS
 62
     7
 10
-452.770000000256
 20
890.3407113392132
 30
0.0
 40
0.1892886329078032
 50
359.0566790720501
 51
180.9433211183427
  0
ARC
  5
59B
  8
DATA
  6
CONTINUOUS
 62
     7
 10
-451.9068158071722
 20
890.3950788508353
 30
0.0
 40
0.6763683861878106
 50
184.8753886481168
 51
295.1246113299656
  0
ARC
  5
59C
  8
DATA
  6
CONTINUOUS
 62
     7
 10
-451.5223073568512
 20
889.6203556556356
 30
0.0
 40
0.1892886329075887
 50
299.056679072011
 51
120.9433211183637
  0
ARC
  5
59D
  8
DATA
  6
CONTINUOUS
 62
     7
 10
-453.6331841933397
 20
887.4049210934068
 30
0.0
 40
0.6763683861879431
 50
4.875388648135207
 51
115.1246113299656
  0
ARC
  5
59E
  8
DATA
  6
CONTINUOUS
 62
     7
 10
-454.0176926436607
 20
888.1796442886064
 30
0.0
 40
0.1892886329075887
 50
119.056679072011
 51
300.9433211183637
  0
ARC
  5
59F
  8
DATA
  6
CONTINUOUS
 62
     7
 10
-454.4963683864078
 20
888.8999999721509
 30
0.0
 40
0.6763683861878241
 50
304.8753886481274
 51
55.12461132998197
  0
ARC
  5
5A0
  8
DATA
  6
CONTINUOUS
 62
     7
 10
-453.6331841933397
 20
890.3950788508353
 30
0.0
 40
0.6763683861879578
 50
244.8753886700344
 51
355.124611351884
  0
ARC
  5
5A1
  8
DATA
  6
CONTINUOUS
 62
     7
 10
-454.0176926436607
 20
889.6203556556356
 30
0.0
 40
0.1892886329078176
 50
59.0566788816363
 51
240.943320927989
  0
CIRCLE
  5
5A2
  8
DATA
  6
CONTINUOUS
 62
     7
 10
-438.8000000000013
 20
833.0199999999963
 30
0.0
 40
4.5
  0
ARC
  5
5A3
  8
DATA
  6
CONTINUOUS
 62
     7
 10
-438.8000000002548
 20
831.5792886050242
 30
0.0
 40
0.1892886329077032
 50
179.0566788815885
 51
0.9433209280187499
  0
ARC
  5
5A4
  8
DATA
  6
CONTINUOUS
 62
     7
 10
-437.936815807171
 20
831.5249210934021
 30
0.0
 40
0.6763683861879578
 50
64.8753886700344
 51
175.124611351864
  0
ARC
  5
5A5
  8
DATA
  6
CONTINUOUS
 62
     7
 10
-437.5523073568501
 20
832.2996442886017
 30
0.0
 40
0.1892886329078176
 50
239.0566788816363
 51
60.94332092802247
  0
ARC
  5
5A6
  8
DATA
  6
CONTINUOUS
 62
     7
 10
-437.0736316141029
 20
833.0199999721463
 30
0.0
 40
0.6763683861881268
 50
124.875388670026
 51
235.1246113518537
  0
ARC
  5
5A7
  8
DATA
  6
CONTINUOUS
 62
     7
 10
-438.8000000002548
 20
834.4607113392085
 30
0.0
 40
0.1892886329078032
 50
359.0566790720501
 51
180.9433211183427
  0
ARC
  5
5A8
  8
DATA
  6
CONTINUOUS
 62
     7
 10
-437.936815807171
 20
834.5150788508308
 30
0.0
 40
0.6763683861878299
 50
184.875388648136
 51
295.1246113299575
  0
ARC
  5
5A9
  8
DATA
  6
CONTINUOUS
 62
     7
 10
-437.5523073568501
 20
833.740355655631
 30
0.0
 40
0.1892886329075887
 50
299.056679072011
 51
120.9433211183283
  0
ARC
  5
5AA
  8
DATA
  6
CONTINUOUS
 62
     7
 10
-439.6631841933386
 20
831.5249210934021
 30
0.0
 40
0.6763683861879431
 50
4.875388648135207
 51
115.1246113299656
  0
ARC
  5
5AB
  8
DATA
  6
CONTINUOUS
 62
     7
 10
-440.0476926436595
 20
832.2996442886017
 30
0.0
 40
0.1892886329077875
 50
119.0566790719776
 51
300.9433211183637
  0
ARC
  5
5AC
  8
DATA
  6
CONTINUOUS
 62
     7
 10
-440.5263683864066
 20
833.0199999721463
 30
0.0
 40
0.6763683861876376
 50
304.8753886481384
 51
55.12461132998197
  0
ARC
  5
5AD
  8
DATA
  6
CONTINUOUS
 62
     7
 10
-439.6631841933386
 20
834.5150788508308
 30
0.0
 40
0.6763683861881636
 50
244.8753886700425
 51
355.1246113518648
  0
ARC
  5
5AE
  8
DATA
  6
CONTINUOUS
 62
     7
 10
-440.0476926436595
 20
833.740355655631
 30
0.0
 40
0.1892886329080126
 50
59.05667888167169
 51
240.943320927989
  0
ARC
  5
5AF
  8
DATA
  6
CONTINUOUS
 62
     7
 10
-1144.731855945798
 20
879.7687000000001
 30
0.0
 40
21.53867275718221
 50
90.0
 51
170.1233474470974
  0
ARC
  5
5B0
  8
DATA
  6
CONTINUOUS
 62
     7
 10
-686.5755999999985
 20
799.9999999999997
 30
0.0
 40
485.2452819394993
 50
170.1233474470973
 51
189.8766525529028
  0
ARC
  5
5B1
  8
DATA
  6
CONTINUOUS
 62
     7
 10
-1144.731855945798
 20
879.7687000000001
 30
0.0
 40
20.19668193949838
 50
90.0
 51
170.123347447098
  0
ARC
  5
5B2
  8
DATA
  6
CONTINUOUS
 62
     7
 10
-686.5755999999985
 20
799.9999999999997
 30
0.0
 40
486.5872727571833
 50
170.1233474470972
 51
189.8766525529027
  0
ARC
  5
5B3
  8
DATA
  6
CONTINUOUS
 62
     7
 10
-1144.731855945798
 20
720.2313
 30
0.0
 40
21.53867275718394
 50
189.8766525529027
 51
270.0
  0
ARC
  5
5B4
  8
DATA
  6
CONTINUOUS
 62
     7
 10
-1144.731855945798
 20
720.2313
 30
0.0
 40
20.19668193949816
 50
189.876652552902
 51
270.0
  0
ARC
  5
5B5
  8
DATA
  6
CONTINUOUS
 62
     7
 10
-1025.268144054206
 20
720.2313
 30
0.0
 40
20.19668193949838
 50
270.0
 51
350.123347447098
  0
ARC
  5
5B6
  8
DATA
  6
CONTINUOUS
 62
     7
 10
-1483.424400000002
 20
799.9999999999997
 30
0.0
 40
485.2452819394975
 50
350.1233474470973
 51
9.876652552902613
  0
ARC
  5
5B7
  8
DATA
  6
CONTINUOUS
 62
     7
 10
-1025.268144054206
 20
879.7687000000001
 30
0.0
 40
20.19668193949816
 50
9.876652552901964
 51
89.99999999999999
  0
ARC
  5
5B8
  8
DATA
  6
CONTINUOUS
 62
     7
 10
-1025.268144054206
 20
879.7687000000001
 30
0.0
 40
21.53867275718394
 50
9.876652552902666
 51
90.0
  0
ARC
  5
5B9
  8
DATA
  6
CONTINUOUS
 62
     7
 10
-1025.268144054206
 20
720.2313
 30
0.0
 40
21.53867275718221
 50
270.0
 51
350.1233474470966
  0
ARC
  5
5BA
  8
DATA
  6
CONTINUOUS
 62
     7
 10
-1483.424400000002
 20
799.9999999999997
 30
0.0
 40
486.5872727571831
 50
350.1233474470973
 51
9.87665255290267
  0
LINE
  5
5BB
  8
DATA
  6
CONTINUOUS
 62
     7
 10
-1144.731860506063
 20
901.3073697686191
 30
0.0
 11
-1025.268148529058
 21
901.3073697686191
 31
0.0
  0
LINE
  5
5BC
  8
DATA
  6
CONTINUOUS
 62
     7
 10
-1025.268148529058
 20
700.0346213579174
 30
0.0
 11
-1144.731860506063
 21
700.0346213579174
 31
0.0
  0
LINE
  5
5BD
  8
DATA
  6
CONTINUOUS
 62
     7
 10
-1144.731860506063
 20
899.9653786420818
 30
0.0
 11
-1025.268148529058
 21
899.9653786420818
 31
0.0
  0
LINE
  5
5BE
  8
DATA
  6
CONTINUOUS
 62
     7
 10
-1025.268148529058
 20
698.6926302313801
 30
0.0
 11
-1144.731860506063
 21
698.6926302313801
 31
0.0
  0
ARC
  5
5BF
  8
DATA
  6
CONTINUOUS
 62
     7
 10
-1539.171127961305
 20
792.5176467071637
 30
0.0
 40
539.7094508441738
 50
5.643623068941032
 51
9.645529144413262
  0
LINE
  5
5C0
  8
DATA
  6
CONTINUOUS
 62
     7
 10
-1020.176518430673
 20
860.7099659981718
 30
0.0
 11
-1019.011251745362
 21
845.5930000283897
 31
0.0
  0
ARC
  5
5C1
  8
DATA
  6
CONTINUOUS
 62
     7
 10
-1124.994778418304
 20
843.2090185439397
 30
0.0
 40
25.88860131824323
 50
177.8151163703995
 51
269.8547244827552
  0
ARC
  5
5C2
  8
DATA
  6
CONTINUOUS
 62
     7
 10
-1126.218800132667
 20
777.0919534890659
 30
0.0
 40
25.92850722283323
 50
87.43940520194465
 51
182.1193116714807
  0
ARC
  5
5C3
  8
DATA
  6
CONTINUOUS
 62
     7
 10
-626.1225580834414
 20
798.7259206771987
 30
0.0
 40
543.9317926115366
 50
175.2047525702559
 51
182.3805293130013
  0
ARC
  5
5C4
  8
DATA
  6
CONTINUOUS
 62
     7
 10
-1045.005221581697
 20
843.2090185439397
 30
0.0
 40
25.88860131824333
 50
270.1452755172448
 51
2.184883629600563
  0
ARC
  5
5C5
  8
DATA
  6
CONTINUOUS
 62
     7
 10
-1043.781199867334
 20
777.0919534890659
 30
0.0
 40
25.92850722283293
 50
357.8806883285193
 51
92.56059479805589
  0
ARC
  5
5C6
  8
DATA
  6
CONTINUOUS
 62
     7
 10
-1543.877441916559
 20
798.7259206771987
 30
0.0
 40
543.9317926115364
 50
357.6194706869987
 51
4.795247429744109
  0
ARC
  5
5C7
  8
DATA
  6
CONTINUOUS
 62
     7
 10
13.62270867375332
 20
829.5624728639191
 30
0.0
 40
1166.943064345941
 50
182.6933606883703
 51
184.4367831003385
  0
ARC
  5
5C8
  8
DATA
  6
CONTINUOUS
 62
     7
 10
-1123.86804149435
 20
737.9224179397671
 30
0.0
 40
24.95805891091593
 50
203.1874760127671
 51
259.9807051278375
  0
ARC
  5
5C9
  8
DATA
  6
CONTINUOUS
 62
     7
 10
-1144.730323636547
 20
720.216894250692
 30
0.0
 40
18.45154516608749
 50
189.8738032612867
 51
270.0044541294862
  0
ARC
  5
5CA
  8
DATA
  6
CONTINUOUS
 62
     7
 10
-625.2574937631277
 20
806.9183117494999
 30
0.0
 40
545.1095964741877
 50
183.3855578000148
 51
189.4889627063105
  0
LINE
  5
5CB
  8
DATA
  6
CONTINUOUS
 62
     7
 10
-1125.629480200398
 20
713.181757033005
 30
0.0
 11
-1126.086007562668
 21
713.1840932486176
 31
0.0
  0
ARC
  5
5CC
  8
DATA
  6
CONTINUOUS
 62
     7
 10
-1127.130088374003
 20
713.5026534466512
 30
0.0
 40
1.091597609176655
 50
188.3045436168572
 51
343.0324929230455
  0
ARC
  5
5CD
  8
DATA
  6
CONTINUOUS
 62
     7
 10
-1117.555220670394
 20
741.9733272566556
 30
0.0
 40
32.37962611548419
 50
184.7557321213177
 51
205.3787697085711
  0
ARC
  5
5CE
  8
DATA
  6
CONTINUOUS
 62
     7
 10
-2183.622708673853
 20
829.5624728639191
 30
0.0
 40
1166.94306434594
 50
355.5632168996615
 51
357.3066393116298
  0
ARC
  5
5CF
  8
DATA
  6
CONTINUOUS
 62
     7
 10
-1046.131958505751
 20
737.9224179397671
 30
0.0
 40
24.95805891091578
 50
280.0192948721625
 51
336.8125239872329
  0
ARC
  5
5D0
  8
DATA
  6
CONTINUOUS
 62
     7
 10
-1025.269676363553
 20
720.216894250692
 30
0.0
 40
18.45154516608789
 50
269.9955458705137
 51
350.1261967387131
  0
ARC
  5
5D1
  8
DATA
  6
CONTINUOUS
 62
     7
 10
-1544.742506236972
 20
806.9183117494999
 30
0.0
 40
545.1095964741871
 50
350.5110372936895
 51
356.6144421999852
  0
LINE
  5
5D2
  8
DATA
  6
CONTINUOUS
 62
     7
 10
-1019.011251745327
 20
845.5930000278768
 30
0.0
 11
-1002.077748556566
 21
845.5930000278768
 31
0.0
  0
LINE
  5
5D3
  8
DATA
  6
CONTINUOUS
 62
     7
 10
-1044.93958016885
 20
817.3205004438269
 30
0.0
 11
-1044.93958016885
 21
802.994571925849
 31
0.0
  0
LINE
  5
5D4
  8
DATA
  6
CONTINUOUS
 62
     7
 10
-1125.060419831145
 20
802.9945719258485
 30
0.0
 11
-1125.060419831145
 21
817.3205004438269
 31
0.0
  0
LINE
  5
5D5
  8
DATA
  6
CONTINUOUS
 62
     7
 10
-1000.584264897293
 20
774.7270000278754
 30
0.0
 11
-1017.968734999013
 21
774.7270000278759
 31
0.0
  0
LINE
  5
5D6
  8
DATA
  6
CONTINUOUS
 62
     7
 10
-1025.271110771508
 20
701.7653491403577
 30
0.0
 11
-1144.728889228489
 21
701.7653491403568
 31
0.0
  0
LINE
  5
5D7
  8
DATA
  6
CONTINUOUS
 62
     7
 10
-1124.751000000002
 20
817.3205004438269
 30
0.0
 11
-1045.248999999998
 21
817.3205004438269
 31
0.0
  0
LINE
  5
5D8
  8
DATA
  6
CONTINUOUS
 62
     7
 10
-1045.248999999998
 20
802.999499611924
 30
0.0
 11
-1124.751
 21
802.999499611924
 31
0.0
  0
LINE
  5
5D9
  8
DATA
  6
CONTINUOUS
 62
     7
 10
-1000.415060858833
 20
776.1331034849381
 30
0.0
 11
-1017.870428102022
 21
776.1331034849381
 31
0.0
  0
LINE
  5
5DA
  8
DATA
  6
CONTINUOUS
 62
     7
 10
-1124.751
 20
802.9994996119235
 30
0.0
 11
-1124.751
 21
817.3205004438269
 31
0.0
  0
LINE
  5
5DB
  8
DATA
  6
CONTINUOUS
 62
     7
 10
-1125.629480200398
 20
713.179562120905
 30
0.0
 11
-1044.370519799703
 21
713.181757033005
 31
0.0
  0
LINE
  5
5DC
  8
DATA
  6
CONTINUOUS
 62
     7
 10
-1144.728889228489
 20
898.2346509153945
 30
0.0
 11
-1025.271110771508
 21
898.2346509153945
 31
0.0
  0
LINE
  5
5DD
  8
DATA
  6
CONTINUOUS
 62
     7
 10
-1044.370194582251
 20
886.8204377111069
 30
0.0
 11
-1125.629805417746
 21
886.8204377111069
 31
0.0
  0
LINE
  5
5DE
  8
DATA
  6
CONTINUOUS
 62
     7
 10
-1019.135441030534
 20
844.1960000278755
 30
0.0
 11
-1001.849521143608
 21
844.1960000278755
 31
0.0
  0
LINE
  5
5DF
  8
DATA
  6
CONTINUOUS
 62
     7
 10
-1150.988748254669
 20
845.5930000278768
 30
0.0
 11
-1167.92225144343
 21
845.5930000278768
 31
0.0
  0
LINE
  5
5E0
  8
DATA
  6
CONTINUOUS
 62
     7
 10
-1169.415735102703
 20
774.7270000278754
 30
0.0
 11
-1152.031265000982
 21
774.7270000278754
 31
0.0
  0
LINE
  5
5E1
  8
DATA
  6
CONTINUOUS
 62
     7
 10
-1045.249
 20
802.999499611924
 30
0.0
 11
-1045.249
 21
817.3205004438269
 31
0.0
  0
LINE
  5
5E2
  8
DATA
  6
CONTINUOUS
 62
     7
 10
-1044.370519799703
 20
713.181757033005
 30
0.0
 11
-1043.913992437432
 21
713.1840932486176
 31
0.0
  0
ARC
  5
5E3
  8
DATA
  6
CONTINUOUS
 62
     7
 10
-1042.869911626097
 20
713.5026534466512
 30
0.0
 40
1.091597609176704
 50
196.9675070769544
 51
351.6954563831428
  0
ARC
  5
5E4
  8
DATA
  6
CONTINUOUS
 62
     7
 10
-1052.444779329707
 20
741.9733272566556
 30
0.0
 40
32.37962611548417
 50
334.621230291429
 51
355.2442678786822
  0
LINE
  5
5E5
  8
DATA
  6
CONTINUOUS
 62
     7
 10
-1044.370194583266
 20
886.820437504628
 30
0.0
 11
-1044.217665879944
 21
886.8196870854281
 31
0.0
  0
LINE
  5
5E6
  8
DATA
  6
CONTINUOUS
 62
     7
 10
-1044.217665879944
 20
886.8200623466478
 30
0.0
 11
-1044.370194582756
 21
886.8204376078675
 31
0.0
  0
CIRCLE
  5
5E7
  8
DATA
  6
CONTINUOUS
 62
     7
 10
-1008.799999999725
 20
787.3000000278753
 30
0.0
 40
4.5
  0
LINE
  5
5E8
  8
DATA
  6
CONTINUOUS
 62
     7
 10
-1168.151314229339
 20
844.1868965708122
 30
0.0
 11
-1150.864558969463
 21
844.1868965708127
 31
0.0
  0
LINE
  5
5E9
  8
DATA
  6
CONTINUOUS
 62
     7
 10
-1152.129571897973
 20
776.124000027874
 30
0.0
 11
-1169.58448922684
 21
776.124000027874
 31
0.0
  0
ARC
  5
5EA
  8
DATA
  6
CONTINUOUS
 62
     7
 10
-1043.115850869663
 20
886.5450751579447
 30
0.0
 40
1.049908630883108
 50
7.937146570698091
 51
118.2533860674835
  0
ARC
  5
5EB
  8
DATA
  6
CONTINUOUS
 62
     7
 10
-1042.914925319162
 20
886.2142581916187
 30
0.0
 40
1.436550421728076
 50
119.0908596461681
 51
155.0740663390299
  0
ARC
  5
5EC
  8
DATA
  6
CONTINUOUS
 62
     7
 10
-1045.78625498383
 20
862.5091321064056
 30
0.0
 40
24.46391124298196
 50
24.42930674926193
 51
81.27672433121472
  0
ARC
  5
5ED
  8
DATA
  6
CONTINUOUS
 62
     7
 10
-1054.882678436991
 20
857.4194542713899
 30
0.0
 40
34.86179871733776
 50
5.416057339996744
 51
25.86259988767597
  0
ARC
  5
5EE
  8
DATA
  6
CONTINUOUS
 62
     7
 10
-1025.312226386873
 20
879.7325059330356
 30
0.0
 40
18.50219066602806
 50
10.00558032048647
 51
89.87267706760417
  0
ARC
  5
5EF
  8
DATA
  6
CONTINUOUS
 62
     7
 10
-630.8288720386911
 20
792.5176467071633
 30
0.0
 40
539.7094508441743
 50
170.3544708555867
 51
174.356376931059
  0
LINE
  5
5F0
  8
DATA
  6
CONTINUOUS
 62
     7
 10
-1149.823481569323
 20
860.7099659981714
 30
0.0
 11
-1150.988748254635
 21
845.5930000283893
 31
0.0
  0
LINE
  5
5F1
  8
DATA
  6
CONTINUOUS
 62
     7
 10
-1125.629805416731
 20
886.8204375046275
 30
0.0
 11
-1125.782334120053
 21
886.8196870854276
 31
0.0
  0
LINE
  5
5F2
  8
DATA
  6
CONTINUOUS
 62
     7
 10
-1125.782334120053
 20
886.8200623466473
 30
0.0
 11
-1125.629805417241
 21
886.820437607867
 31
0.0
  0
ARC
  5
5F3
  8
DATA
  6
CONTINUOUS
 62
     7
 10
-1126.884149130334
 20
886.5450751579442
 30
0.0
 40
1.049908630882979
 50
61.74661393252743
 51
172.0628534293036
  0
ARC
  5
5F4
  8
DATA
  6
CONTINUOUS
 62
     7
 10
-1127.085074680835
 20
886.2142581916182
 30
0.0
 40
1.436550421727864
 50
24.92593366097018
 51
60.90914035383188
  0
ARC
  5
5F5
  8
DATA
  6
CONTINUOUS
 62
     7
 10
-1124.213745016167
 20
862.5091321064051
 30
0.0
 40
24.46391124298182
 50
98.72327566878583
 51
155.5706932507383
  0
ARC
  5
5F6
  8
DATA
  6
CONTINUOUS
 62
     7
 10
-1115.117321563006
 20
857.4194542713894
 30
0.0
 40
34.8617987173378
 50
154.137400112324
 51
174.5839426600033
  0
ARC
  5
5F7
  8
DATA
  6
CONTINUOUS
 62
     7
 10
-1144.687773613124
 20
879.7325059330351
 30
0.0
 40
18.50219066602806
 50
90.12732293239654
 51
169.9944196795137
  0
TEXT
  5
5F8
  8
DATA
 62
     7
 10
-1055.355091145833
 20
815.0465234653755
 30
0.0
 40
9.773046875000002
  1
VTXSERIES
 50
180.0
 41
0.7
 72
     1
 11
-1085.0
 21
810.1600000278754
 31
0.0
 73
     2
  0
ARC
  5
5F9
  8
DATA
  6
CONTINUOUS
 62
     7
 10
-1008.799999999978
 20
785.859288632903
 30
0.0
 40
0.1892886329077032
 50
179.0566788815885
 51
0.9433209280187499
  0
ARC
  5
5FA
  8
DATA
  6
CONTINUOUS
 62
     7
 10
-1007.936815806895
 20
785.804921121281
 30
0.0
 40
0.6763683861878549
 50
64.8753886700303
 51
175.1246113518736
  0
ARC
  5
5FB
  8
DATA
  6
CONTINUOUS
 62
     7
 10
-1007.552307356574
 20
786.5796443164805
 30
0.0
 40
0.1892886329077201
 50
239.0566788816186
 51
60.94332092800577
  0
ARC
  5
5FC
  8
DATA
  6
CONTINUOUS
 62
     7
 10
-1007.073631613826
 20
787.3000000000252
 30
0.0
 40
0.6763683861880335
 50
124.8753886700315
 51
235.1246113518647
  0
ARC
  5
5FD
  8
DATA
  6
CONTINUOUS
 62
     7
 10
-1008.799999999978
 20
788.7407113670874
 30
0.0
 40
0.1892886329078051
 50
359.0566790720157
 51
180.9433211183772
  0
ARC
  5
5FE
  8
DATA
  6
CONTINUOUS
 62
     7
 10
-1007.936815806895
 20
788.7950788787095
 30
0.0
 40
0.6763683861878202
 50
184.8753886481264
 51
295.1246113299656
  0
ARC
  5
5FF
  8
DATA
  6
CONTINUOUS
 62
     7
 10
-1007.552307356574
 20
788.0203556835099
 30
0.0
 40
0.1892886329075887
 50
299.056679072011
 51
120.9433211183637
  0
ARC
  5
600
  8
DATA
  6
CONTINUOUS
 62
     7
 10
-1009.663184193062
 20
785.804921121281
 30
0.0
 40
0.6763683861879335
 50
4.87538864812561
 51
115.1246113299697
  0
ARC
  5
601
  8
DATA
  6
CONTINUOUS
 62
     7
 10
-1010.047692643383
 20
786.5796443164805
 30
0.0
 40
0.1892886329076881
 50
119.0566790719942
 51
300.9433211183814
  0
ARC
  5
602
  8
DATA
  6
CONTINUOUS
 62
     7
 10
-1010.52636838613
 20
787.3000000000252
 30
0.0
 40
0.6763683861878241
 50
304.8753886481274
 51
55.12461132997649
  0
ARC
  5
603
  8
DATA
  6
CONTINUOUS
 62
     7
 10
-1009.663184193062
 20
788.7950788787095
 30
0.0
 40
0.6763683861879578
 50
244.8753886700344
 51
355.1246113518744
  0
ARC
  5
604
  8
DATA
  6
CONTINUOUS
 62
     7
 10
-1010.047692643383
 20
788.0203556835099
 30
0.0
 40
0.1892886329078176
 50
59.0566788816363
 51
240.943320927989
  0
CIRCLE
  5
605
  8
DATA
  6
CONTINUOUS
 62
     7
 10
-1022.769999999726
 20
711.10000002788
 30
0.0
 40
4.5
  0
ARC
  5
606
  8
DATA
  6
CONTINUOUS
 62
     7
 10
-1022.76999999998
 20
709.6592886329078
 30
0.0
 40
0.1892886329077032
 50
179.0566788815885
 51
0.9433209280187499
  0
ARC
  5
607
  8
DATA
  6
CONTINUOUS
 62
     7
 10
-1021.906815806896
 20
709.6049211212858
 30
0.0
 40
0.6763683861878549
 50
64.8753886700303
 51
175.1246113518736
  0
ARC
  5
608
  8
DATA
  6
CONTINUOUS
 62
     7
 10
-1021.522307356575
 20
710.3796443164853
 30
0.0
 40
0.1892886329077201
 50
239.0566788816186
 51
60.94332092800577
  0
ARC
  5
609
  8
DATA
  6
CONTINUOUS
 62
     7
 10
-1021.043631613828
 20
711.1000000000299
 30
0.0
 40
0.6763683861880335
 50
124.8753886700315
 51
235.1246113518647
  0
ARC
  5
60A
  8
DATA
  6
CONTINUOUS
 62
     7
 10
-1022.76999999998
 20
712.5407113670922
 30
0.0
 40
0.1892886329078051
 50
359.0566790720157
 51
180.9433211183772
  0
ARC
  5
60B
  8
DATA
  6
CONTINUOUS
 62
     7
 10
-1021.906815806896
 20
712.5950788787143
 30
0.0
 40
0.6763683861878202
 50
184.8753886481264
 51
295.1246113299656
  0
ARC
  5
60C
  8
DATA
  6
CONTINUOUS
 62
     7
 10
-1021.522307356575
 20
711.8203556835147
 30
0.0
 40
0.1892886329075887
 50
299.056679072011
 51
120.9433211183637
  0
ARC
  5
60D
  8
DATA
  6
CONTINUOUS
 62
     7
 10
-1023.633184193063
 20
709.6049211212858
 30
0.0
 40
0.6763683861879335
 50
4.87538864812561
 51
115.1246113299697
  0
ARC
  5
60E
  8
DATA
  6
CONTINUOUS
 62
     7
 10
-1024.017692643384
 20
710.3796443164853
 30
0.0
 40
0.1892886329076329
 50
119.0566790719642
 51
300.9433211183814
  0
ARC
  5
60F
  8
DATA
  6
CONTINUOUS
 62
     7
 10
-1024.496368386131
 20
711.1000000000299
 30
0.0
 40
0.6763683861878891
 50
304.8753886481354
 51
55.12461132998433
  0
ARC
  5
610
  8
DATA
  6
CONTINUOUS
 62
     7
 10
-1023.633184193063
 20
712.5950788787143
 30
0.0
 40
0.6763683861879578
 50
244.8753886700344
 51
355.1246113518744
  0
ARC
  5
611
  8
DATA
  6
CONTINUOUS
 62
     7
 10
-1024.017692643384
 20
711.8203556835147
 30
0.0
 40
0.1892886329078176
 50
59.0566788816363
 51
240.9433209280191
  0
CIRCLE
  5
612
  8
DATA
  6
CONTINUOUS
 62
     7
 10
-1147.230000000002
 20
711.1
 30
0.0
 40
4.5
  0
ARC
  5
613
  8
DATA
  6
CONTINUOUS
 62
     7
 10
-1147.230000000255
 20
709.6592886050278
 30
0.0
 40
0.1892886329077032
 50
179.0566788815885
 51
0.9433209280187499
  0
ARC
  5
614
  8
DATA
  6
CONTINUOUS
 62
     7
 10
-1146.366815807171
 20
709.6049210934058
 30
0.0
 40
0.6763683861878066
 50
64.87538867003903
 51
175.1246113518744
  0
ARC
  5
615
  8
DATA
  6
CONTINUOUS
 62
     7
 10
-1145.98230735685
 20
710.3796442886053
 30
0.0
 40
0.1892886329077785
 50
239.0566788815891
 51
60.94332092803584
  0
ARC
  5
616
  8
DATA
  6
CONTINUOUS
 62
     7
 10
-1145.503631614103
 20
711.0999999721499
 30
0.0
 40
0.6763683861880335
 50
124.8753886700315
 51
235.1246113518647
  0
ARC
  5
617
  8
DATA
  6
CONTINUOUS
 62
     7
 10
-1147.230000000255
 20
712.5407113392122
 30
0.0
 40
0.1892886329078051
 50
359.0566790720157
 51
180.9433211183772
  0
ARC
  5
618
  8
DATA
  6
CONTINUOUS
 62
     7
 10
-1146.366815807171
 20
712.5950788508343
 30
0.0
 40
0.6763683861879335
 50
184.8753886481256
 51
295.1246113299569
  0
ARC
  5
619
  8
DATA
  6
CONTINUOUS
 62
     7
 10
-1145.98230735685
 20
711.8203556556347
 30
0.0
 40
0.1892886329075335
 50
299.056679071981
 51
120.9433211183932
  0
ARC
  5
61A
  8
DATA
  6
CONTINUOUS
 62
     7
 10
-1148.093184193339
 20
709.6049210934058
 30
0.0
 40
0.6763683861879335
 50
4.87538864812561
 51
115.1246113299784
  0
ARC
  5
61B
  8
DATA
  6
CONTINUOUS
 62
     7
 10
-1148.47769264366
 20
710.3796442886053
 30
0.0
 40
0.1892886329077433
 50
119.0566790720243
 51
300.9433211183519
  0
ARC
  5
61C
  8
DATA
  6
CONTINUOUS
 62
     7
 10
-1148.956368386407
 20
711.0999999721499
 30
0.0
 40
0.6763683861877591
 50
304.8753886481195
 51
55.12461132996859
  0
ARC
  5
61D
  8
DATA
  6
CONTINUOUS
 62
     7
 10
-1148.093184193339
 20
712.5950788508343
 30
0.0
 40
0.6763683861880061
 50
244.8753886700256
 51
355.1246113518744
  0
ARC
  5
61E
  8
DATA
  6
CONTINUOUS
 62
     7
 10
-1148.47769264366
 20
711.8203556556347
 30
0.0
 40
0.1892886329077591
 50
59.05667888166582
 51
240.943320927959
  0
CIRCLE
  5
61F
  8
DATA
  6
CONTINUOUS
 62
     7
 10
-1161.200000000003
 20
787.2999999999944
 30
0.0
 40
4.5
  0
ARC
  5
620
  8
DATA
  6
CONTINUOUS
 62
     7
 10
-1161.200000000256
 20
785.8592886050221
 30
0.0
 40
0.1892886329077032
 50
179.0566788815885
 51
0.9433209280187499
  0
ARC
  5
621
  8
DATA
  6
CONTINUOUS
 62
     7
 10
-1160.336815807172
 20
785.8049210934001
 30
0.0
 40
0.6763683861878066
 50
64.87538867003903
 51
175.1246113518744
  0
ARC
  5
622
  8
DATA
  6
CONTINUOUS
 62
     7
 10
-1159.952307356851
 20
786.5796442885996
 30
0.0
 40
0.1892886329077785
 50
239.0566788815891
 51
60.94332092803584
  0
ARC
  5
623
  8
DATA
  6
CONTINUOUS
 62
     7
 10
-1159.473631614104
 20
787.2999999721443
 30
0.0
 40
0.6763683861880335
 50
124.8753886700315
 51
235.1246113518647
  0
ARC
  5
624
  8
DATA
  6
CONTINUOUS
 62
     7
 10
-1161.200000000256
 20
788.7407113392065
 30
0.0
 40
0.1892886329078051
 50
359.0566790720157
 51
180.9433211183772
  0
ARC
  5
625
  8
DATA
  6
CONTINUOUS
 62
     7
 10
-1160.336815807172
 20
788.7950788508286
 30
0.0
 40
0.6763683861879335
 50
184.8753886481256
 51
295.1246113299569
  0
ARC
  5
626
  8
DATA
  6
CONTINUOUS
 62
     7
 10
-1159.952307356851
 20
788.020355655629
 30
0.0
 40
0.1892886329075335
 50
299.056679071981
 51
120.9433211183932
  0
ARC
  5
627
  8
DATA
  6
CONTINUOUS
 62
     7
 10
-1162.06318419334
 20
785.8049210934001
 30
0.0
 40
0.6763683861879335
 50
4.87538864812561
 51
115.1246113299784
  0
ARC
  5
628
  8
DATA
  6
CONTINUOUS
 62
     7
 10
-1162.447692643661
 20
786.5796442885996
 30
0.0
 40
0.1892886329077433
 50
119.0566790720243
 51
300.9433211183519
  0
ARC
  5
629
  8
DATA
  6
CONTINUOUS
 62
     7
 10
-1162.926368386408
 20
787.2999999721443
 30
0.0
 40
0.6763683861877591
 50
304.8753886481195
 51
55.12461132996859
  0
ARC
  5
62A
  8
DATA
  6
CONTINUOUS
 62
     7
 10
-1162.06318419334
 20
788.7950788508286
 30
0.0
 40
0.6763683861880061
 50
244.8753886700256
 51
355.1246113518744
  0
ARC
  5
62B
  8
DATA
  6
CONTINUOUS
 62
     7
 10
-1162.447692643661
 20
788.020355655629
 30
0.0
 40
0.1892886329077591
 50
59.05667888166582
 51
240.943320927959
  0
CIRCLE
  5
62C
  8
DATA
  6
CONTINUOUS
 62
     7
 10
-1161.200000000276
 20
833.0200000278514
 30
0.0
 40
4.5
  0
ARC
  5
62D
  8
DATA
  6
CONTINUOUS
 62
     7
 10
-1161.200000000529
 20
831.5792886328791
 30
0.0
 40
0.1892886329077032
 50
179.0566788815885
 51
0.9433209280187499
  0
ARC
  5
62E
  8
DATA
  6
CONTINUOUS
 62
     7
 10
-1160.336815807446
 20
831.5249211212572
 30
0.0
 40
0.6763683861878003
 50
64.8753886700175
 51
175.1246113518824
  0
ARC
  5
62F
  8
DATA
  6
CONTINUOUS
 62
     7
 10
-1159.952307357125
 20
832.2996443164566
 30
0.0
 40
0.1892886329075641
 50
239.0566788816305
 51
60.94332092799241
  0
ARC
  5
630
  8
DATA
  6
CONTINUOUS
 62
     7
 10
-1159.473631614377
 20
833.0200000000013
 30
0.0
 40
0.6763683861881268
 50
124.875388670026
 51
235.1246113518647
  0
ARC
  5
631
  8
DATA
  6
CONTINUOUS
 62
     7
 10
-1161.200000000529
 20
834.4607113670636
 30
0.0
 40
0.1892886329078069
 50
359.0566790719813
 51
180.9433211184115
  0
ARC
  5
632
  8
DATA
  6
CONTINUOUS
 62
     7
 10
-1160.336815807446
 20
834.5150788786857
 30
0.0
 40
0.6763683861877166
 50
184.8753886481368
 51
295.1246113299744
  0
ARC
  5
633
  8
DATA
  6
CONTINUOUS
 62
     7
 10
-1159.952307357125
 20
833.7403556834861
 30
0.0
 40
0.1892886329076439
 50
299.056679072041
 51
120.9433211183342
  0
ARC
  5
634
  8
DATA
  6
CONTINUOUS
 62
     7
 10
-1162.063184193613
 20
831.5249211212572
 30
0.0
 40
0.6763683861879238
 50
4.875388648116016
 51
115.1246113299651
  0
ARC
  5
635
  8
DATA
  6
CONTINUOUS
 62
     7
 10
-1162.447692643934
 20
832.2996443164566
 30
0.0
 40
0.1892886329077323
 50
119.0566790719475
 51
300.9433211184286
  0
ARC
  5
636
  8
DATA
  6
CONTINUOUS
 62
     7
 10
-1162.926368386681
 20
833.0200000000013
 30
0.0
 40
0.6763683861878891
 50
304.8753886481354
 51
55.12461132998982
  0
ARC
  5
637
  8
DATA
  6
CONTINUOUS
 62
     7
 10
-1162.063184193613
 20
834.5150788786857
 30
0.0
 40
0.6763683861879095
 50
244.8753886700431
 51
355.1246113518648
  0
ARC
  5
638
  8
DATA
  6
CONTINUOUS
 62
     7
 10
-1162.447692643934
 20
833.7403556834861
 30
0.0
 40
0.189288632907876
 50
59.05667888160679
 51
240.9433209280191
  0
CIRCLE
  5
639
  8
DATA
  6
CONTINUOUS
 62
     7
 10
-1147.230000000002
 20
888.900000000001
 30
0.0
 40
4.5
  0
ARC
  5
63A
  8
DATA
  6
CONTINUOUS
 62
     7
 10
-1147.230000000255
 20
887.4592886050289
 30
0.0
 40
0.1892886329077032
 50
179.0566788815885
 51
0.9433209280187499
  0
ARC
  5
63B
  8
DATA
  6
CONTINUOUS
 62
     7
 10
-1146.366815807171
 20
887.4049210934068
 30
0.0
 40
0.6763683861879095
 50
64.87538867004311
 51
175.1246113518648
  0
ARC
  5
63C
  8
DATA
  6
CONTINUOUS
 62
     7
 10
-1145.98230735685
 20
888.1796442886064
 30
0.0
 40
0.189288632907876
 50
239.0566788816068
 51
60.94332092801913
  0
ARC
  5
63D
  8
DATA
  6
CONTINUOUS
 62
     7
 10
-1145.503631614103
 20
888.8999999721509
 30
0.0
 40
0.6763683861881268
 50
124.875388670026
 51
235.1246113518647
  0
ARC
  5
63E
  8
DATA
  6
CONTINUOUS
 62
     7
 10
-1147.230000000255
 20
890.3407113392132
 30
0.0
 40
0.1892886329078032
 50
359.0566790720501
 51
180.9433211183427
  0
ARC
  5
63F
  8
DATA
  6
CONTINUOUS
 62
     7
 10
-1146.366815807171
 20
890.3950788508353
 30
0.0
 40
0.6763683861879238
 50
184.875388648116
 51
295.1246113299569
  0
ARC
  5
640
  8
DATA
  6
CONTINUOUS
 62
     7
 10
-1145.98230735685
 20
889.6203556556356
 30
0.0
 40
0.1892886329075335
 50
299.056679071981
 51
120.9433211183932
  0
ARC
  5
641
  8
DATA
  6
CONTINUOUS
 62
     7
 10
-1148.093184193339
 20
887.4049210934068
 30
0.0
 40
0.6763683861879431
 50
4.875388648135207
 51
115.1246113299743
  0
ARC
  5
642
  8
DATA
  6
CONTINUOUS
 62
     7
 10
-1148.47769264366
 20
888.1796442886064
 30
0.0
 40
0.1892886329076439
 50
119.056679072041
 51
300.9433211183342
  0
ARC
  5
643
  8
DATA
  6
CONTINUOUS
 62
     7
 10
-1148.956368386407
 20
888.8999999721509
 30
0.0
 40
0.6763683861877591
 50
304.8753886481195
 51
55.12461132997408
  0
ARC
  5
644
  8
DATA
  6
CONTINUOUS
 62
     7
 10
-1148.093184193339
 20
890.3950788508353
 30
0.0
 40
0.6763683861880061
 50
244.8753886700256
 51
355.124611351884
  0
ARC
  5
645
  8
DATA
  6
CONTINUOUS
 62
     7
 10
-1148.47769264366
 20
889.6203556556356
 30
0.0
 40
0.1892886329077591
 50
59.05667888166582
 51
240.943320927959
  0
CIRCLE
  5
646
  8
DATA
  6
CONTINUOUS
 62
     7
 10
-1022.770000000002
 20
888.900000000001
 30
0.0
 40
4.5
  0
ARC
  5
647
  8
DATA
  6
CONTINUOUS
 62
     7
 10
-1022.770000000256
 20
887.4592886050289
 30
0.0
 40
0.1892886329077032
 50
179.0566788815885
 51
0.9433209280187499
  0
ARC
  5
648
  8
DATA
  6
CONTINUOUS
 62
     7
 10
-1021.906815807172
 20
887.4049210934068
 30
0.0
 40
0.6763683861879578
 50
64.8753886700344
 51
175.124611351864
  0
ARC
  5
649
  8
DATA
  6
CONTINUOUS
 62
     7
 10
-1021.522307356851
 20
888.1796442886064
 30
0.0
 40
0.1892886329078176
 50
239.0566788816363
 51
60.94332092798906
  0
ARC
  5
64A
  8
DATA
  6
CONTINUOUS
 62
     7
 10
-1021.043631614104
 20
888.8999999721509
 30
0.0
 40
0.6763683861881268
 50
124.875388670026
 51
235.1246113518647
  0
ARC
  5
64B
  8
DATA
  6
CONTINUOUS
 62
     7
 10
-1022.770000000256
 20
890.3407113392132
 30
0.0
 40
0.1892886329078032
 50
359.0566790720501
 51
180.9433211183427
  0
ARC
  5
64C
  8
DATA
  6
CONTINUOUS
 62
     7
 10
-1021.906815807172
 20
890.3950788508353
 30
0.0
 40
0.6763683861878106
 50
184.8753886481168
 51
295.1246113299656
  0
ARC
  5
64D
  8
DATA
  6
CONTINUOUS
 62
     7
 10
-1021.522307356851
 20
889.6203556556356
 30
0.0
 40
0.1892886329075887
 50
299.056679072011
 51
120.9433211183637
  0
ARC
  5
64E
  8
DATA
  6
CONTINUOUS
 62
     7
 10
-1023.63318419334
 20
887.4049210934068
 30
0.0
 40
0.6763683861879431
 50
4.875388648135207
 51
115.1246113299656
  0
ARC
  5
64F
  8
DATA
  6
CONTINUOUS
 62
     7
 10
-1024.017692643661
 20
888.1796442886064
 30
0.0
 40
0.1892886329075335
 50
119.0566790719809
 51
300.9433211183637
  0
ARC
  5
650
  8
DATA
  6
CONTINUOUS
 62
     7
 10
-1024.496368386408
 20
888.8999999721509
 30
0.0
 40
0.6763683861878891
 50
304.8753886481354
 51
55.12461132998982
  0
ARC
  5
651
  8
DATA
  6
CONTINUOUS
 62
     7
 10
-1023.63318419334
 20
890.3950788508353
 30
0.0
 40
0.6763683861879578
 50
244.8753886700344
 51
355.124611351884
  0
ARC
  5
652
  8
DATA
  6
CONTINUOUS
 62
     7
 10
-1024.017692643661
 20
889.6203556556356
 30
0.0
 40
0.1892886329078176
 50
59.0566788816363
 51
240.9433209280191
  0
CIRCLE
  5
653
  8
DATA
  6
CONTINUOUS
 62
     7
 10
-1008.800000000001
 20
833.0199999999963
 30
0.0
 40
4.5
  0
ARC
  5
654
  8
DATA
  6
CONTINUOUS
 62
     7
 10
-1008.800000000255
 20
831.5792886050242
 30
0.0
 40
0.1892886329077032
 50
179.0566788815885
 51
0.9433209280187499
  0
ARC
  5
655
  8
DATA
  6
CONTINUOUS
 62
     7
 10
-1007.936815807171
 20
831.5249210934021
 30
0.0
 40
0.6763683861879578
 50
64.8753886700344
 51
175.124611351864
  0
ARC
  5
656
  8
DATA
  6
CONTINUOUS
 62
     7
 10
-1007.55230735685
 20
832.2996442886017
 30
0.0
 40
0.1892886329078176
 50
239.0566788816363
 51
60.94332092802247
  0
ARC
  5
657
  8
DATA
  6
CONTINUOUS
 62
     7
 10
-1007.073631614103
 20
833.0199999721463
 30
0.0
 40
0.6763683861881268
 50
124.875388670026
 51
235.1246113518537
  0
ARC
  5
658
  8
DATA
  6
CONTINUOUS
 62
     7
 10
-1008.800000000255
 20
834.4607113392085
 30
0.0
 40
0.1892886329078032
 50
359.0566790720501
 51
180.9433211183427
  0
ARC
  5
659
  8
DATA
  6
CONTINUOUS
 62
     7
 10
-1007.936815807171
 20
834.5150788508308
 30
0.0
 40
0.6763683861878299
 50
184.875388648136
 51
295.1246113299575
  0
ARC
  5
65A
  8
DATA
  6
CONTINUOUS
 62
     7
 10
-1007.55230735685
 20
833.740355655631
 30
0.0
 40
0.1892886329075887
 50
299.056679072011
 51
120.9433211183283
  0
ARC
  5
65B
  8
DATA
  6
CONTINUOUS
 62
     7
 10
-1009.663184193339
 20
831.5249210934021
 30
0.0
 40
0.6763683861879431
 50
4.875388648135207
 51
115.1246113299656
  0
ARC
  5
65C
  8
DATA
  6
CONTINUOUS
 62
     7
 10
-1010.04769264366
 20
832.2996442886017
 30
0.0
 40
0.1892886329077875
 50
119.0566790719776
 51
300.9433211183637
  0
ARC
  5
65D
  8
DATA
  6
CONTINUOUS
 62
     7
 10
-1010.526368386407
 20
833.0199999721463
 30
0.0
 40
0.6763683861876376
 50
304.8753886481384
 51
55.12461132998197
  0
ARC
  5
65E
  8
DATA
  6
CONTINUOUS
 62
     7
 10
-1009.663184193339
 20
834.5150788508308
 30
0.0
 40
0.6763683861881636
 50
244.8753886700425
 51
355.1246113518648
  0
ARC
  5
65F
  8
DATA
  6
CONTINUOUS
 62
     7
 10
-1010.04769264366
 20
833.740355655631
 30
0.0
 40
0.1892886329080126
 50
59.05667888167169
 51
240.943320927989
  0
ARC
  5
660
  8
DATA
  6
CONTINUOUS
 62
     7
 10
-875.0000000000003
 20
845.0
 30
0.0
 40
5.0
 50
90.0
 51
180.0
  0
ARC
  5
661
  8
DATA
  6
CONTINUOUS
 62
     7
 10
-875.0000000000003
 20
755.0
 30
0.0
 40
5.0
 50
180.0
 51
270.0
  0
ARC
  5
662
  8
DATA
  6
CONTINUOUS
 62
     7
 10
-725.0000000000003
 20
755.0
 30
0.0
 40
5.0
 50
270.0
 51
0.0
  0
ARC
  5
663
  8
DATA
  6
CONTINUOUS
 62
     7
 10
-725.0000000000003
 20
845.0
 30
0.0
 40
5.0
 50
0.0
 51
90.0
  0
ARC
  5
664
  8
DATA
  6
CONTINUOUS
 62
     7
 10
-725.0000000000003
 20
833.1666666666665
 30
0.0
 40
5.0
 50
323.1301023541561
 51
0.0
  0
ARC
  5
665
  8
DATA
  6
CONTINUOUS
 62
     7
 10
-721.0000000000003
 20
821.8333333333334
 30
0.0
 40
5.000000000000068
 50
143.1301023541549
 51
180.0
  0
ARC
  5
666
  8
DATA
  6
CONTINUOUS
 62
     7
 10
-721.0000000000003
 20
778.1666666666666
 30
0.0
 40
5.0
 50
180.0
 51
216.869897645844
  0
ARC
  5
667
  8
DATA
  6
CONTINUOUS
 62
     7
 10
-725.0000000000003
 20
766.8333333333334
 30
0.0
 40
5.0
 50
0.0
 51
36.86989764584399
  0
ARC
  5
668
  8
DATA
  6
CONTINUOUS
 62
     7
 10
-875.0000000000003
 20
766.8333333333334
 30
0.0
 40
5.0
 50
143.130102354156
 51
180.0
  0
ARC
  5
669
  8
DATA
  6
CONTINUOUS
 62
     7
 10
-879.0000000000003
 20
778.1666666666666
 30
0.0
 40
5.0
 50
323.1301023541561
 51
0.0
  0
ARC
  5
66A
  8
DATA
  6
CONTINUOUS
 62
     7
 10
-879.0000000000003
 20
821.8333333333334
 30
0.0
 40
5.0
 50
0.0
 51
36.86989764584507
  0
ARC
  5
66B
  8
DATA
  6
CONTINUOUS
 62
     7
 10
-875.0000000000003
 20
833.1666666666665
 30
0.0
 40
5.0
 50
180.0
 51
216.869897645844
  0
CIRCLE
  5
66C
  8
DATA
  6
CONTINUOUS
 62
     7
 10
-839.9999999999984
 20
0.0000000000019327
 30
0.0
 40
2.309401076759743
  0
CIRCLE
  5
66D
  8
DATA
  6
CONTINUOUS
 62
     7
 10
-800.0
 20
0.0
 30
0.0
 40
52.00000000000004
  0
CIRCLE
  5
66E
  8
DATA
  6
CONTINUOUS
 62
     7
 10
-800.0
 20
0.0
 30
0.0
 40
12.0000000000573
  0
CIRCLE
  5
66F
  8
DATA
  6
CONTINUOUS
 62
     7
 10
-799.9999999999981
 20
-39.99999999999841
 30
0.0
 40
6.530000000055194
  0
CIRCLE
  5
670
  8
DATA
  6
CONTINUOUS
 62
     7
 10
-759.9999999999984
 20
0.0
 30
0.0
 40
6.530000000111627
  0
CIRCLE
  5
671
  8
DATA
  6
CONTINUOUS
 62
     7
 10
-799.9999999999993
 20
40.00000000000097
 30
0.0
 40
6.530000000055114
  0
CIRCLE
  5
672
  8
DATA
  6
CONTINUOUS
 62
     7
 10
-839.9999999999984
 20
0.0000000000019327
 30
0.0
 40
6.530000000034294
  0
CIRCLE
  5
673
  8
DATA
  6
CONTINUOUS
 62
     7
 10
-800.0
 20
0.0
 30
0.0
 40
10.0000000000482
  0
CIRCLE
  5
674
  8
DATA
  6
CONTINUOUS
 62
     7
 10
-799.9999999999981
 20
-39.99999999999841
 30
0.0
 40
6.000000000000852
  0
CIRCLE
  5
675
  8
DATA
  6
CONTINUOUS
 62
     7
 10
-799.9999999999993
 20
40.00000000000097
 30
0.0
 40
6.000000000000852
  0
CIRCLE
  5
676
  8
DATA
  6
CONTINUOUS
 62
     7
 10
-759.9999999999997
 20
0.000000000001279
 30
0.0
 40
5.999999999999928
  0
CIRCLE
  5
677
  8
DATA
  6
CONTINUOUS
 62
     7
 10
-839.9999999999984
 20
0.0000000000019327
 30
0.0
 40
6.000000000000008
  0
CIRCLE
  5
678
  8
DATA
  6
CONTINUOUS
 62
     7
 10
-800.0
 20
0.0
 30
0.0
 40
52.99999999999999
  0
CIRCLE
  5
679
  8
DATA
  6
CONTINUOUS
 62
     7
 10
-799.9999999999993
 20
40.00000000000097
 30
0.0
 40
2.309401076759703
  0
CIRCLE
  5
67A
  8
DATA
  6
CONTINUOUS
 62
     7
 10
-799.9999999999981
 20
-39.99999999999841
 30
0.0
 40
2.309401076759829
  0
CIRCLE
  5
67B
  8
DATA
  6
CONTINUOUS
 62
     7
 10
-759.9999999999984
 20
0.0
 30
0.0
 40
2.309401076759764
  0
POLYLINE
  5
67C
  8
DATA
  6
CONTINUOUS
 62
     7
 66
     1
 10
0.0
 20
0.0
 30
0.0
 70
     1
  0
VERTEX
  5
916
  8
DATA
  6
CONTINUOUS
 62
     7
 10
-842.2542204428119
 20
0.5018717023359045
 30
0.0
  0
VERTEX
  5
917
  8
DATA
  6
CONTINUOUS
 62
     7
 10
-841.5617411363328
 20
-1.701263924429014
 30
0.0
  0
VERTEX
  5
918
  8
DATA
  6
CONTINUOUS
 62
     7
 10
-839.3075116753716
 20
-2.203143328140641
 30
0.0
  0
VERTEX
  5
919
  8
DATA
  6
CONTINUOUS
 62
     7
 10
-837.7457839114027
 20
-0.5018673487522278
 30
0.0
  0
VERTEX
  5
91A
  8
DATA
  6
CONTINUOUS
 62
     7
 10
-838.4382632178817
 20
1.701268278012719
 30
0.0
  0
VERTEX
  5
91B
  8
DATA
  6
CONTINUOUS
 62
     7
 10
-840.6924716054187
 20
2.203126608300096
 30
0.0
  0
SEQEND
  5
987
  8
DATA
  6
CONTINUOUS
 62
     7
  0
POLYLINE
  5
685
  8
DATA
  6
CONTINUOUS
 62
     7
 66
     1
 10
0.0
 20
0.0
 30
0.0
 70
     1
  0
VERTEX
  5
91C
  8
DATA
  6
CONTINUOUS
 62
     7
 10
-801.7012812719847
 20
41.56173846850129
 30
0.0
  0
VERTEX
  5
91D
  8
DATA
  6
CONTINUOUS
 62
     7
 10
-802.2031372638529
 20
39.30752580256924
 30
0.0
  0
VERTEX
  5
91E
  8
DATA
  6
CONTINUOUS
 62
     7
 10
-800.5018520325759
 20
37.74577615541895
 30
0.0
  0
VERTEX
  5
91F
  8
DATA
  6
CONTINUOUS
 62
     7
 10
-798.2987203221061
 20
38.43826747891535
 30
0.0
  0
VERTEX
  5
920
  8
DATA
  6
CONTINUOUS
 62
     7
 10
-797.7968643302379
 20
40.69248014484731
 30
0.0
  0
VERTEX
  5
921
  8
DATA
  6
CONTINUOUS
 62
     7
 10
-799.4981418480149
 20
42.25420100518917
 30
0.0
  0
SEQEND
  5
988
  8
DATA
  6
CONTINUOUS
 62
     7
  0
POLYLINE
  5
68E
  8
DATA
  6
CONTINUOUS
 62
     7
 66
     1
 10
0.0
 20
0.0
 30
0.0
 70
     1
  0
VERTEX
  5
922
  8
DATA
  6
CONTINUOUS
 62
     7
 10
-801.7012812719834
 20
-38.43826153149809
 30
0.0
  0
VERTEX
  5
923
  8
DATA
  6
CONTINUOUS
 62
     7
 10
-802.2031372638515
 20
-40.69247419742999
 30
0.0
  0
VERTEX
  5
924
  8
DATA
  6
CONTINUOUS
 62
     7
 10
-800.5018520325748
 20
-42.25422384458057
 30
0.0
  0
VERTEX
  5
925
  8
DATA
  6
CONTINUOUS
 62
     7
 10
-798.2987203221048
 20
-41.561732521084
 30
0.0
  0
VERTEX
  5
926
  8
DATA
  6
CONTINUOUS
 62
     7
 10
-797.7968643302366
 20
-39.30751985515209
 30
0.0
  0
VERTEX
  5
927
  8
DATA
  6
CONTINUOUS
 62
     7
 10
-799.4981418480137
 20
-37.7457989948102
 30
0.0
  0
SEQEND
  5
989
  8
DATA
  6
CONTINUOUS
 62
     7
  0
POLYLINE
  5
697
  8
DATA
  6
CONTINUOUS
 62
     7
 66
     1
 10
0.0
 20
0.0
 30
0.0
 70
     1
  0
VERTEX
  5
928
  8
DATA
  6
CONTINUOUS
 62
     7
 10
-762.2542204428119
 20
0.5018717023339718
 30
0.0
  0
VERTEX
  5
929
  8
DATA
  6
CONTINUOUS
 62
     7
 10
-761.5617411363328
 20
-1.701263924430947
 30
0.0
  0
VERTEX
  5
92A
  8
DATA
  6
CONTINUOUS
 62
     7
 10
-759.3075116753716
 20
-2.203143328142602
 30
0.0
  0
VERTEX
  5
92B
  8
DATA
  6
CONTINUOUS
 62
     7
 10
-757.7457839114027
 20
-0.5018673487541605
 30
0.0
  0
VERTEX
  5
92C
  8
DATA
  6
CONTINUOUS
 62
     7
 10
-758.4382632178817
 20
1.701268278010787
 30
0.0
  0
VERTEX
  5
92D
  8
DATA
  6
CONTINUOUS
 62
     7
 10
-760.6924716054187
 20
2.203126608298163
 30
0.0
  0
SEQEND
  5
98A
  8
DATA
  6
CONTINUOUS
 62
     7
  0
LINE
  5
6A0
  8
DATA
  6
CONTINUOUS
 62
     7
 10
-1153.5
 20
294.5
 30
0.0
 11
-1178.5
 21
294.5
 31
0.0
  0
LINE
  5
6A1
  8
DATA
  6
CONTINUOUS
 62
     7
 10
-1153.5
 20
-294.5
 30
0.0
 11
-1178.5
 21
-294.5
 31
0.0
  0
LINE
  5
6A2
  8
DATA
  6
CONTINUOUS
 62
     7
 10
-1198.5
 20
-274.5
 30
0.0
 11
-1198.5
 21
274.5
 31
0.0
  0
LINE
  5
6A3
  8
DATA
  6
CONTINUOUS
 62
     7
 10
-1133.5
 20
-274.5
 30
0.0
 11
-1133.5
 21
274.5
 31
0.0
  0
ARC
  5
6A4
  8
DATA
  6
CONTINUOUS
 62
     7
 10
-1178.5
 20
274.5
 30
0.0
 40
20.0
 50
90.0
 51
180.0
  0
ARC
  5
6A5
  8
DATA
  6
CONTINUOUS
 62
     7
 10
-1153.5
 20
274.5
 30
0.0
 40
20.0
 50
0.0
 51
90.0
  0
ARC
  5
6A6
  8
DATA
  6
CONTINUOUS
 62
     7
 10
-1178.5
 20
-274.5
 30
0.0
 40
20.0
 50
180.0
 51
270.0
  0
ARC
  5
6A7
  8
DATA
  6
CONTINUOUS
 62
     7
 10
-1153.5
 20
-274.5
 30
0.0
 40
20.0
 50
270.0
 51
0.0
  0
LINE
  5
6A8
  8
DATA
  6
CONTINUOUS
 62
     7
 10
-446.5
 20
294.5
 30
0.0
 11
-421.5
 21
294.5
 31
0.0
  0
LINE
  5
6A9
  8
DATA
  6
CONTINUOUS
 62
     7
 10
-446.5
 20
-294.5
 30
0.0
 11
-421.5
 21
-294.5
 31
0.0
  0
LINE
  5
6AA
  8
DATA
  6
CONTINUOUS
 62
     7
 10
-401.5
 20
-274.5
 30
0.0
 11
-401.5
 21
274.5
 31
0.0
  0
LINE
  5
6AB
  8
DATA
  6
CONTINUOUS
 62
     7
 10
-466.5
 20
-274.5
 30
0.0
 11
-466.5
 21
274.5
 31
0.0
  0
ARC
  5
6AC
  8
DATA
  6
CONTINUOUS
 62
     7
 10
-421.5
 20
274.5
 30
0.0
 40
20.0
 50
0.0
 51
90.0
  0
ARC
  5
6AD
  8
DATA
  6
CONTINUOUS
 62
     7
 10
-446.5
 20
274.5
 30
0.0
 40
20.0
 50
90.0
 51
180.0
  0
ARC
  5
6AE
  8
DATA
  6
CONTINUOUS
 62
     7
 10
-421.5
 20
-274.5
 30
0.0
 40
20.0
 50
270.0
 51
0.0
  0
ARC
  5
6AF
  8
DATA
  6
CONTINUOUS
 62
     7
 10
-446.5
 20
-274.5
 30
0.0
 40
20.0
 50
180.0
 51
270.0
  0
CIRCLE
  5
6B0
  8
DATA
  6
CONTINUOUS
 62
     7
 10
-376.9999999999984
 20
0.0000000000019327
 30
0.0
 40
2.309401076759743
  0
CIRCLE
  5
6B1
  8
DATA
  6
CONTINUOUS
 62
     7
 10
-337.0
 20
0.0
 30
0.0
 40
51.99999999999999
  0
CIRCLE
  5
6B2
  8
DATA
  6
CONTINUOUS
 62
     7
 10
-337.0
 20
0.0
 30
0.0
 40
12.00000000005724
  0
CIRCLE
  5
6B3
  8
DATA
  6
CONTINUOUS
 62
     7
 10
-336.9999999999981
 20
-39.99999999999841
 30
0.0
 40
6.530000000055194
  0
CIRCLE
  5
6B4
  8
DATA
  6
CONTINUOUS
 62
     7
 10
-296.9999999999984
 20
0.0
 30
0.0
 40
6.530000000111627
  0
CIRCLE
  5
6B5
  8
DATA
  6
CONTINUOUS
 62
     7
 10
-336.9999999999994
 20
40.00000000000097
 30
0.0
 40
6.530000000055194
  0
CIRCLE
  5
6B6
  8
DATA
  6
CONTINUOUS
 62
     7
 10
-376.9999999999984
 20
0.0000000000019327
 30
0.0
 40
6.530000000034294
  0
CIRCLE
  5
6B7
  8
DATA
  6
CONTINUOUS
 62
     7
 10
-337.0
 20
0.0
 30
0.0
 40
10.00000000004815
  0
CIRCLE
  5
6B8
  8
DATA
  6
CONTINUOUS
 62
     7
 10
-336.9999999999981
 20
-39.99999999999841
 30
0.0
 40
6.000000000000893
  0
CIRCLE
  5
6B9
  8
DATA
  6
CONTINUOUS
 62
     7
 10
-336.9999999999994
 20
40.00000000000097
 30
0.0
 40
6.000000000000893
  0
CIRCLE
  5
6BA
  8
DATA
  6
CONTINUOUS
 62
     7
 10
-296.9999999999997
 20
0.000000000001279
 30
0.0
 40
5.999999999999968
  0
CIRCLE
  5
6BB
  8
DATA
  6
CONTINUOUS
 62
     7
 10
-376.9999999999984
 20
0.0000000000019327
 30
0.0
 40
5.999999999999968
  0
CIRCLE
  5
6BC
  8
DATA
  6
CONTINUOUS
 62
     7
 10
-337.0
 20
0.0
 30
0.0
 40
53.00000000000003
  0
CIRCLE
  5
6BD
  8
DATA
  6
CONTINUOUS
 62
     7
 10
-336.9999999999994
 20
40.00000000000097
 30
0.0
 40
2.309401076759757
  0
CIRCLE
  5
6BE
  8
DATA
  6
CONTINUOUS
 62
     7
 10
-336.9999999999981
 20
-39.99999999999841
 30
0.0
 40
2.309401076759883
  0
CIRCLE
  5
6BF
  8
DATA
  6
CONTINUOUS
 62
     7
 10
-296.9999999999984
 20
0.0
 30
0.0
 40
2.309401076759764
  0
POLYLINE
  5
6C0
  8
DATA
  6
CONTINUOUS
 62
     7
 66
     1
 10
0.0
 20
0.0
 30
0.0
 70
     1
  0
VERTEX
  5
92E
  8
DATA
  6
CONTINUOUS
 62
     7
 10
-379.2542204428119
 20
0.5018717023359045
 30
0.0
  0
VERTEX
  5
92F
  8
DATA
  6
CONTINUOUS
 62
     7
 10
-378.5617411363328
 20
-1.701263924429014
 30
0.0
  0
VERTEX
  5
930
  8
DATA
  6
CONTINUOUS
 62
     7
 10
-376.3075116753716
 20
-2.203143328140641
 30
0.0
  0
VERTEX
  5
931
  8
DATA
  6
CONTINUOUS
 62
     7
 10
-374.7457839114027
 20
-0.5018673487522278
 30
0.0
  0
VERTEX
  5
932
  8
DATA
  6
CONTINUOUS
 62
     7
 10
-375.4382632178817
 20
1.701268278012719
 30
0.0
  0
VERTEX
  5
933
  8
DATA
  6
CONTINUOUS
 62
     7
 10
-377.6924716054187
 20
2.203126608300096
 30
0.0
  0
SEQEND
  5
98B
  8
DATA
  6
CONTINUOUS
 62
     7
  0
POLYLINE
  5
6C9
  8
DATA
  6
CONTINUOUS
 62
     7
 66
     1
 10
0.0
 20
0.0
 30
0.0
 70
     1
  0
VERTEX
  5
934
  8
DATA
  6
CONTINUOUS
 62
     7
 10
-338.7012812719847
 20
41.56173846850129
 30
0.0
  0
VERTEX
  5
935
  8
DATA
  6
CONTINUOUS
 62
     7
 10
-339.2031372638529
 20
39.30752580256924
 30
0.0
  0
VERTEX
  5
936
  8
DATA
  6
CONTINUOUS
 62
     7
 10
-337.5018520325759
 20
37.74577615541895
 30
0.0
  0
VERTEX
  5
937
  8
DATA
  6
CONTINUOUS
 62
     7
 10
-335.2987203221061
 20
38.43826747891535
 30
0.0
  0
VERTEX
  5
938
  8
DATA
  6
CONTINUOUS
 62
     7
 10
-334.7968643302379
 20
40.69248014484731
 30
0.0
  0
VERTEX
  5
939
  8
DATA
  6
CONTINUOUS
 62
     7
 10
-336.4981418480149
 20
42.25420100518917
 30
0.0
  0
SEQEND
  5
98C
  8
DATA
  6
CONTINUOUS
 62
     7
  0
POLYLINE
  5
6D2
  8
DATA
  6
CONTINUOUS
 62
     7
 66
     1
 10
0.0
 20
0.0
 30
0.0
 70
     1
  0
VERTEX
  5
93A
  8
DATA
  6
CONTINUOUS
 62
     7
 10
-338.7012812719834
 20
-38.43826153149809
 30
0.0
  0
VERTEX
  5
93B
  8
DATA
  6
CONTINUOUS
 62
     7
 10
-339.2031372638515
 20
-40.69247419742999
 30
0.0
  0
VERTEX
  5
93C
  8
DATA
  6
CONTINUOUS
 62
     7
 10
-337.5018520325748
 20
-42.25422384458057
 30
0.0
  0
VERTEX
  5
93D
  8
DATA
  6
CONTINUOUS
 62
     7
 10
-335.2987203221048
 20
-41.561732521084
 30
0.0
  0
VERTEX
  5
93E
  8
DATA
  6
CONTINUOUS
 62
     7
 10
-334.7968643302366
 20
-39.30751985515209
 30
0.0
  0
VERTEX
  5
93F
  8
DATA
  6
CONTINUOUS
 62
     7
 10
-336.4981418480137
 20
-37.7457989948102
 30
0.0
  0
SEQEND
  5
98D
  8
DATA
  6
CONTINUOUS
 62
     7
  0
POLYLINE
  5
6DB
  8
DATA
  6
CONTINUOUS
 62
     7
 66
     1
 10
0.0
 20
0.0
 30
0.0
 70
     1
  0
VERTEX
  5
940
  8
DATA
  6
CONTINUOUS
 62
     7
 10
-299.2542204428119
 20
0.5018717023339718
 30
0.0
  0
VERTEX
  5
941
  8
DATA
  6
CONTINUOUS
 62
     7
 10
-298.5617411363328
 20
-1.701263924430947
 30
0.0
  0
VERTEX
  5
942
  8
DATA
  6
CONTINUOUS
 62
     7
 10
-296.3075116753716
 20
-2.203143328142602
 30
0.0
  0
VERTEX
  5
943
  8
DATA
  6
CONTINUOUS
 62
     7
 10
-294.7457839114027
 20
-0.5018673487541605
 30
0.0
  0
VERTEX
  5
944
  8
DATA
  6
CONTINUOUS
 62
     7
 10
-295.4382632178818
 20
1.701268278010787
 30
0.0
  0
VERTEX
  5
945
  8
DATA
  6
CONTINUOUS
 62
     7
 10
-297.6924716054187
 20
2.203126608298163
 30
0.0
  0
SEQEND
  5
98E
  8
DATA
  6
CONTINUOUS
 62
     7
  0
CIRCLE
  5
6E4
  8
DATA
  6
CONTINUOUS
 62
     7
 10
-1302.999999999998
 20
0.0000000000019327
 30
0.0
 40
2.309401076759743
  0
CIRCLE
  5
6E5
  8
DATA
  6
CONTINUOUS
 62
     7
 10
-1263.0
 20
0.0
 30
0.0
 40
52.00000000000004
  0
CIRCLE
  5
6E6
  8
DATA
  6
CONTINUOUS
 62
     7
 10
-1263.0
 20
0.0
 30
0.0
 40
12.0000000000573
  0
CIRCLE
  5
6E7
  8
DATA
  6
CONTINUOUS
 62
     7
 10
-1262.999999999998
 20
-39.99999999999841
 30
0.0
 40
6.530000000055114
  0
CIRCLE
  5
6E8
  8
DATA
  6
CONTINUOUS
 62
     7
 10
-1222.999999999998
 20
0.0
 30
0.0
 40
6.530000000111627
  0
CIRCLE
  5
6E9
  8
DATA
  6
CONTINUOUS
 62
     7
 10
-1262.999999999999
 20
40.00000000000097
 30
0.0
 40
6.530000000055114
  0
CIRCLE
  5
6EA
  8
DATA
  6
CONTINUOUS
 62
     7
 10
-1302.999999999998
 20
0.0000000000019327
 30
0.0
 40
6.530000000034213
  0
CIRCLE
  5
6EB
  8
DATA
  6
CONTINUOUS
 62
     7
 10
-1263.0
 20
0.0
 30
0.0
 40
10.0000000000482
  0
CIRCLE
  5
6EC
  8
DATA
  6
CONTINUOUS
 62
     7
 10
-1262.999999999998
 20
-39.99999999999841
 30
0.0
 40
6.000000000000772
  0
CIRCLE
  5
6ED
  8
DATA
  6
CONTINUOUS
 62
     7
 10
-1262.999999999999
 20
40.00000000000097
 30
0.0
 40
6.000000000000933
  0
CIRCLE
  5
6EE
  8
DATA
  6
CONTINUOUS
 62
     7
 10
-1223.0
 20
0.000000000001279
 30
0.0
 40
6.000000000000008
  0
CIRCLE
  5
6EF
  8
DATA
  6
CONTINUOUS
 62
     7
 10
-1302.999999999998
 20
0.0000000000019327
 30
0.0
 40
6.000000000000008
  0
CIRCLE
  5
6F0
  8
DATA
  6
CONTINUOUS
 62
     7
 10
-1263.0
 20
0.0
 30
0.0
 40
52.99999999999999
  0
CIRCLE
  5
6F1
  8
DATA
  6
CONTINUOUS
 62
     7
 10
-1262.999999999999
 20
40.00000000000097
 30
0.0
 40
2.309401076759703
  0
CIRCLE
  5
6F2
  8
DATA
  6
CONTINUOUS
 62
     7
 10
-1262.999999999998
 20
-39.99999999999841
 30
0.0
 40
2.309401076759721
  0
CIRCLE
  5
6F3
  8
DATA
  6
CONTINUOUS
 62
     7
 10
-1222.999999999998
 20
0.0
 30
0.0
 40
2.309401076759764
  0
POLYLINE
  5
6F4
  8
DATA
  6
CONTINUOUS
 62
     7
 66
     1
 10
0.0
 20
0.0
 30
0.0
 70
     1
  0
VERTEX
  5
946
  8
DATA
  6
CONTINUOUS
 62
     7
 10
-1305.254220442812
 20
0.5018717023359045
 30
0.0
  0
VERTEX
  5
947
  8
DATA
  6
CONTINUOUS
 62
     7
 10
-1304.561741136333
 20
-1.701263924429014
 30
0.0
  0
VERTEX
  5
948
  8
DATA
  6
CONTINUOUS
 62
     7
 10
-1302.307511675372
 20
-2.203143328140641
 30
0.0
  0
VERTEX
  5
949
  8
DATA
  6
CONTINUOUS
 62
     7
 10
-1300.745783911403
 20
-0.5018673487522278
 30
0.0
  0
VERTEX
  5
94A
  8
DATA
  6
CONTINUOUS
 62
     7
 10
-1301.438263217882
 20
1.701268278012719
 30
0.0
  0
VERTEX
  5
94B
  8
DATA
  6
CONTINUOUS
 62
     7
 10
-1303.692471605419
 20
2.203126608300096
 30
0.0
  0
SEQEND
  5
98F
  8
DATA
  6
CONTINUOUS
 62
     7
  0
POLYLINE
  5
6FD
  8
DATA
  6
CONTINUOUS
 62
     7
 66
     1
 10
0.0
 20
0.0
 30
0.0
 70
     1
  0
VERTEX
  5
94C
  8
DATA
  6
CONTINUOUS
 62
     7
 10
-1264.701281271985
 20
41.56173846850129
 30
0.0
  0
VERTEX
  5
94D
  8
DATA
  6
CONTINUOUS
 62
     7
 10
-1265.203137263853
 20
39.30752580256924
 30
0.0
  0
VERTEX
  5
94E
  8
DATA
  6
CONTINUOUS
 62
     7
 10
-1263.501852032576
 20
37.74577615541895
 30
0.0
  0
VERTEX
  5
94F
  8
DATA
  6
CONTINUOUS
 62
     7
 10
-1261.298720322106
 20
38.43826747891535
 30
0.0
  0
VERTEX
  5
950
  8
DATA
  6
CONTINUOUS
 62
     7
 10
-1260.796864330238
 20
40.69248014484731
 30
0.0
  0
VERTEX
  5
951
  8
DATA
  6
CONTINUOUS
 62
     7
 10
-1262.498141848015
 20
42.25420100518917
 30
0.0
  0
SEQEND
  5
990
  8
DATA
  6
CONTINUOUS
 62
     7
  0
POLYLINE
  5
706
  8
DATA
  6
CONTINUOUS
 62
     7
 66
     1
 10
0.0
 20
0.0
 30
0.0
 70
     1
  0
VERTEX
  5
952
  8
DATA
  6
CONTINUOUS
 62
     7
 10
-1264.701281271983
 20
-38.43826153149809
 30
0.0
  0
VERTEX
  5
953
  8
DATA
  6
CONTINUOUS
 62
     7
 10
-1265.203137263851
 20
-40.69247419742999
 30
0.0
  0
VERTEX
  5
954
  8
DATA
  6
CONTINUOUS
 62
     7
 10
-1263.501852032575
 20
-42.25422384458057
 30
0.0
  0
VERTEX
  5
955
  8
DATA
  6
CONTINUOUS
 62
     7
 10
-1261.298720322105
 20
-41.561732521084
 30
0.0
  0
VERTEX
  5
956
  8
DATA
  6
CONTINUOUS
 62
     7
 10
-1260.796864330237
 20
-39.30751985515209
 30
0.0
  0
VERTEX
  5
957
  8
DATA
  6
CONTINUOUS
 62
     7
 10
-1262.498141848014
 20
-37.7457989948102
 30
0.0
  0
SEQEND
  5
991
  8
DATA
  6
CONTINUOUS
 62
     7
  0
POLYLINE
  5
70F
  8
DATA
  6
CONTINUOUS
 62
     7
 66
     1
 10
0.0
 20
0.0
 30
0.0
 70
     1
  0
VERTEX
  5
958
  8
DATA
  6
CONTINUOUS
 62
     7
 10
-1225.254220442812
 20
0.5018717023339718
 30
0.0
  0
VERTEX
  5
959
  8
DATA
  6
CONTINUOUS
 62
     7
 10
-1224.561741136333
 20
-1.701263924430947
 30
0.0
  0
VERTEX
  5
95A
  8
DATA
  6
CONTINUOUS
 62
     7
 10
-1222.307511675372
 20
-2.203143328142602
 30
0.0
  0
VERTEX
  5
95B
  8
DATA
  6
CONTINUOUS
 62
     7
 10
-1220.745783911403
 20
-0.5018673487541605
 30
0.0
  0
VERTEX
  5
95C
  8
DATA
  6
CONTINUOUS
 62
     7
 10
-1221.438263217882
 20
1.701268278010787
 30
0.0
  0
VERTEX
  5
95D
  8
DATA
  6
CONTINUOUS
 62
     7
 10
-1223.692471605419
 20
2.203126608298163
 30
0.0
  0
SEQEND
  5
992
  8
DATA
  6
CONTINUOUS
 62
     7
  0
LINE
  5
718
  8
DATA
  6
STYLE_07
 62
     7
 10
-800.0
 20
-400.0
 30
0.0
 11
-800.0
 21
400.0000000000001
 31
0.0
  0
LINE
  5
719
  8
DATA
  6
STYLE_07
 62
     7
 10
-100.0
 20
0.0
 30
0.0
 11
-1500.0
 21
0.0
 31
0.0
  0
LINE
  5
71A
  8
DATA
  6
CONTINUOUS
 62
     7
 10
100.0
 20
450.0
 30
0.0
 11
100.0
 21
568.3333333333348
 31
0.0
  0
LINE
  5
71B
  8
DATA
  6
CONTINUOUS
 62
     7
 10
1650.0
 20
400.0
 30
0.0
 11
150.0
 21
400.0
 31
0.0
  0
LINE
  5
71C
  8
DATA
  6
CONTINUOUS
 62
     7
 10
1700.0
 20
568.3333333333348
 30
0.0
 11
1700.0
 21
450.0
 31
0.0
  0
LINE
  5
71D
  8
DATA
  6
CONTINUOUS
 62
     7
 10
1700.0
 20
1350.0
 30
0.0
 11
1700.0
 21
1231.666666666665
 31
0.0
  0
LINE
  5
71E
  8
DATA
  6
CONTINUOUS
 62
     7
 10
150.0
 20
1400.0
 30
0.0
 11
1650.0
 21
1400.0
 31
0.0
  0
LINE
  5
71F
  8
DATA
  6
CONTINUOUS
 62
     7
 10
100.0
 20
1231.666666666665
 30
0.0
 11
100.0
 21
1350.0
 31
0.0
  0
LINE
  5
720
  8
DATA
  6
CONTINUOUS
 62
     7
 10
1650.0
 20
651.6666666666652
 30
0.0
 11
1690.0
 21
598.3333333333348
 31
0.0
  0
LINE
  5
721
  8
DATA
  6
CONTINUOUS
 62
     7
 10
1690.0
 20
1201.666666666665
 30
0.0
 11
1650.0
 21
1148.333333333335
 31
0.0
  0
LINE
  5
722
  8
DATA
  6
CONTINUOUS
 62
     7
 10
1640.0
 20
681.6666666666652
 30
0.0
 11
1640.0
 21
1118.333333333335
 31
0.0
  0
LINE
  5
723
  8
DATA
  6
CONTINUOUS
 62
     7
 10
150.0
 20
651.6666666666652
 30
0.0
 11
110.0
 21
598.3333333333348
 31
0.0
  0
LINE
  5
724
  8
DATA
  6
CONTINUOUS
 62
     7
 10
110.0
 20
1201.666666666665
 30
0.0
 11
150.0
 21
1148.333333333335
 31
0.0
  0
LINE
  5
725
  8
DATA
  6
CONTINUOUS
 62
     7
 10
160.0
 20
681.6666666666652
 30
0.0
 11
160.0
 21
1118.333333333335
 31
0.0
  0
ARC
  5
726
  8
DATA
  6
CONTINUOUS
 62
     7
 10
1615.000000000232
 20
463.0928863290774
 30
0.0
 40
1.892886329079305
 50
179.0566788815896
 51
0.9433209280215069
  0
ARC
  5
727
  8
DATA
  6
CONTINUOUS
 62
     7
 10
1623.631841931069
 20
462.5492112128586
 30
0.0
 40
6.763683861877037
 50
64.87538867003492
 51
175.1246113518857
  0
ARC
  5
728
  8
DATA
  6
CONTINUOUS
 62
     7
 10
1627.476926434279
 20
470.2964431648525
 30
0.0
 40
1.89288632907681
 50
239.0566788815714
 51
60.94332092802028
  0
ARC
  5
729
  8
DATA
  6
CONTINUOUS
 62
     7
 10
1632.263683861747
 20
477.5000000003001
 30
0.0
 40
6.763683861878103
 50
124.8753886700212
 51
235.1246113518923
  0
ARC
  5
72A
  8
DATA
  6
CONTINUOUS
 62
     7
 10
1615.000000000232
 20
491.9071136709226
 30
0.0
 40
1.892886329073523
 50
359.056679071979
 51
180.9433211184099
  0
ARC
  5
72B
  8
DATA
  6
CONTINUOUS
 62
     7
 10
1623.631841931069
 20
492.4507887871414
 30
0.0
 40
6.763683861881504
 50
184.8753886481144
 51
295.1246113299645
  0
ARC
  5
72C
  8
DATA
  6
CONTINUOUS
 62
     7
 10
1627.476926434279
 20
484.7035568351475
 30
0.0
 40
1.892886329075335
 50
299.056679071981
 51
120.9433211184245
  0
ARC
  5
72D
  8
DATA
  6
CONTINUOUS
 62
     7
 10
1606.368158069392
 20
462.5492112128586
 30
0.0
 40
6.763683861879239
 50
4.875388648116016
 51
115.1246113299819
  0
ARC
  5
72E
  8
DATA
  6
CONTINUOUS
 62
     7
 10
1602.523073566183
 20
470.2964431648525
 30
0.0
 40
1.892886329076439
 50
119.056679072041
 51
300.9433211183708
  0
ARC
  5
72F
  8
DATA
  6
CONTINUOUS
 62
     7
 10
1597.736316138712
 20
477.5000000003001
 30
0.0
 40
6.763683861879456
 50
304.8753886481085
 51
55.1246113299633
  0
ARC
  5
730
  8
DATA
  6
CONTINUOUS
 62
     7
 10
1606.368158069392
 20
492.4507887871414
 30
0.0
 40
6.763683861878002
 50
244.8753886700175
 51
355.124611351884
  0
ARC
  5
731
  8
DATA
  6
CONTINUOUS
 62
     7
 10
1602.523073566183
 20
484.7035568351475
 30
0.0
 40
1.892886329075641
 50
59.05667888163043
 51
240.9433209279609
  0
CIRCLE
  5
732
  8
DATA
  6
CONTINUOUS
 62
     7
 10
1615.0
 20
477.5
 30
0.0
 40
45.0
  0
ARC
  5
733
  8
DATA
  6
CONTINUOUS
 62
     7
 10
1615.000000000232
 20
1336.907113670923
 30
0.0
 40
1.892886329073523
 50
359.056679071979
 51
180.9433211184134
  0
ARC
  5
734
  8
DATA
  6
CONTINUOUS
 62
     7
 10
1623.631841931069
 20
1337.450788787141
 30
0.0
 40
6.763683861881504
 50
184.8753886481144
 51
295.1246113299643
  0
ARC
  5
735
  8
DATA
  6
CONTINUOUS
 62
     7
 10
1627.476926434279
 20
1329.703556835148
 30
0.0
 40
1.892886329075335
 50
299.056679071981
 51
120.9433211184263
  0
ARC
  5
736
  8
DATA
  6
CONTINUOUS
 62
     7
 10
1632.263683861747
 20
1322.4999999997
 30
0.0
 40
6.763683861879456
 50
124.8753886481085
 51
235.124611329978
  0
ARC
  5
737
  8
DATA
  6
CONTINUOUS
 62
     7
 10
1615.000000000232
 20
1308.092886329077
 30
0.0
 40
1.892886329079305
 50
179.0566788815896
 51
0.9433209280180676
  0
ARC
  5
738
  8
DATA
  6
CONTINUOUS
 62
     7
 10
1623.631841931069
 20
1307.549211212859
 30
0.0
 40
6.763683861877037
 50
64.87538867003492
 51
175.1246113518862
  0
ARC
  5
739
  8
DATA
  6
CONTINUOUS
 62
     7
 10
1627.476926434279
 20
1315.296443164852
 30
0.0
 40
1.89288632907681
 50
239.0566788815714
 51
60.94332092802114
  0
ARC
  5
73A
  8
DATA
  6
CONTINUOUS
 62
     7
 10
1606.368158069392
 20
1337.450788787141
 30
0.0
 40
6.763683861878002
 50
244.8753886700175
 51
355.124611351883
  0
ARC
  5
73B
  8
DATA
  6
CONTINUOUS
 62
     7
 10
1602.523073566183
 20
1329.703556835148
 30
0.0
 40
1.892886329075641
 50
59.05667888163043
 51
240.9433209279609
  0
ARC
  5
73C
  8
DATA
  6
CONTINUOUS
 62
     7
 10
1597.736316138712
 20
1322.4999999997
 30
0.0
 40
6.763683861879403
 50
304.875388670037
 51
55.12461135189148
  0
ARC
  5
73D
  8
DATA
  6
CONTINUOUS
 62
     7
 10
1606.368158069392
 20
1307.549211212859
 30
0.0
 40
6.763683861879239
 50
4.875388648116016
 51
115.1246113299819
  0
ARC
  5
73E
  8
DATA
  6
CONTINUOUS
 62
     7
 10
1602.523073566183
 20
1315.296443164852
 30
0.0
 40
1.892886329076439
 50
119.056679072041
 51
300.9433211183708
  0
CIRCLE
  5
73F
  8
DATA
  6
CONTINUOUS
 62
     7
 10
1615.0
 20
1322.5
 30
0.0
 40
45.0
  0
ARC
  5
740
  8
DATA
  6
CONTINUOUS
 62
     7
 10
184.9999999997681
 20
463.0928863290774
 30
0.0
 40
1.892886329073523
 50
179.056679071979
 51
0.9433211184098128
  0
ARC
  5
741
  8
DATA
  6
CONTINUOUS
 62
     7
 10
176.3681580689308
 20
462.5492112128586
 30
0.0
 40
6.763683861881504
 50
4.875388648114377
 51
115.1246113299654
  0
ARC
  5
742
  8
DATA
  6
CONTINUOUS
 62
     7
 10
172.5230735657215
 20
470.2964431648525
 30
0.0
 40
1.892886329075335
 50
119.0566790719809
 51
300.9433211184274
  0
ARC
  5
743
  8
DATA
  6
CONTINUOUS
 62
     7
 10
167.7363161382527
 20
477.5000000003001
 30
0.0
 40
6.763683861879456
 50
304.8753886481085
 51
55.12461132997877
  0
ARC
  5
744
  8
DATA
  6
CONTINUOUS
 62
     7
 10
184.9999999997681
 20
491.9071136709226
 30
0.0
 40
1.892886329079305
 50
359.0566788815896
 51
180.9433209280216
  0
ARC
  5
745
  8
DATA
  6
CONTINUOUS
 62
     7
 10
176.3681580689308
 20
492.4507887871414
 30
0.0
 40
6.763683861877037
 50
244.8753886700349
 51
355.1246113518858
  0
ARC
  5
746
  8
DATA
  6
CONTINUOUS
 62
     7
 10
172.5230735657215
 20
484.7035568351475
 30
0.0
 40
1.89288632907681
 50
59.05667888157139
 51
240.9433209280203
  0
ARC
  5
747
  8
DATA
  6
CONTINUOUS
 62
     7
 10
193.6318419306076
 20
462.5492112128586
 30
0.0
 40
6.763683861878002
 50
64.8753886700175
 51
175.1246113518841
  0
ARC
  5
748
  8
DATA
  6
CONTINUOUS
 62
     7
 10
197.476926433817
 20
470.2964431648525
 30
0.0
 40
1.892886329075641
 50
239.0566788816305
 51
60.94332092795796
  0
ARC
  5
749
  8
DATA
  6
CONTINUOUS
 62
     7
 10
202.263683861288
 20
477.5000000003001
 30
0.0
 40
6.763683861879403
 50
124.875388670037
 51
235.1246113518912
  0
ARC
  5
74A
  8
DATA
  6
CONTINUOUS
 62
     7
 10
193.6318419306076
 20
492.4507887871414
 30
0.0
 40
6.763683861879239
 50
184.875388648116
 51
295.1246113299828
  0
ARC
  5
74B
  8
DATA
  6
CONTINUOUS
 62
     7
 10
197.476926433817
 20
484.7035568351475
 30
0.0
 40
1.892886329076439
 50
299.056679072041
 51
120.9433211183708
  0
CIRCLE
  5
74C
  8
DATA
  6
CONTINUOUS
 62
     7
 10
185.0
 20
477.5
 30
0.0
 40
45.0
  0
ARC
  5
74D
  8
DATA
  6
CONTINUOUS
 62
     7
 10
184.9999999997681
 20
1336.907113670923
 30
0.0
 40
1.892886329079305
 50
359.0566788815896
 51
180.9433209280182
  0
ARC
  5
74E
  8
DATA
  6
CONTINUOUS
 62
     7
 10
176.3681580689308
 20
1337.450788787141
 30
0.0
 40
6.763683861877037
 50
244.8753886700349
 51
355.1246113518864
  0
ARC
  5
74F
  8
DATA
  6
CONTINUOUS
 62
     7
 10
172.5230735657215
 20
1329.703556835148
 30
0.0
 40
1.89288632907681
 50
59.05667888157139
 51
240.9433209280211
  0
ARC
  5
750
  8
DATA
  6
CONTINUOUS
 62
     7
 10
167.7363161382527
 20
1322.4999999997
 30
0.0
 40
6.763683861878103
 50
304.8753886700212
 51
55.12461135189156
  0
ARC
  5
751
  8
DATA
  6
CONTINUOUS
 62
     7
 10
184.9999999997681
 20
1308.092886329077
 30
0.0
 40
1.892886329073523
 50
179.056679071979
 51
0.9433211184132801
  0
ARC
  5
752
  8
DATA
  6
CONTINUOUS
 62
     7
 10
176.3681580689308
 20
1307.549211212859
 30
0.0
 40
6.763683861881504
 50
4.875388648114377
 51
115.1246113299652
  0
ARC
  5
753
  8
DATA
  6
CONTINUOUS
 62
     7
 10
172.5230735657215
 20
1315.296443164852
 30
0.0
 40
1.892886329075335
 50
119.0566790719809
 51
300.9433211184291
  0
ARC
  5
754
  8
DATA
  6
CONTINUOUS
 62
     7
 10
193.6318419306076
 20
1337.450788787141
 30
0.0
 40
6.763683861879239
 50
184.875388648116
 51
295.1246113299828
  0
ARC
  5
755
  8
DATA
  6
CONTINUOUS
 62
     7
 10
197.476926433817
 20
1329.703556835148
 30
0.0
 40
1.892886329076439
 50
299.056679072041
 51
120.9433211183708
  0
ARC
  5
756
  8
DATA
  6
CONTINUOUS
 62
     7
 10
202.263683861288
 20
1322.4999999997
 30
0.0
 40
6.763683861879456
 50
124.8753886481085
 51
235.124611329963
  0
ARC
  5
757
  8
DATA
  6
CONTINUOUS
 62
     7
 10
193.6318419306076
 20
1307.549211212859
 30
0.0
 40
6.763683861878002
 50
64.8753886700175
 51
175.1246113518831
  0
ARC
  5
758
  8
DATA
  6
CONTINUOUS
 62
     7
 10
197.476926433817
 20
1315.296443164852
 30
0.0
 40
1.892886329075641
 50
239.0566788816305
 51
60.94332092795796
  0
CIRCLE
  5
759
  8
DATA
  6
CONTINUOUS
 62
     7
 10
185.0
 20
1322.5
 30
0.0
 40
45.0
  0
ARC
  5
75A
  8
DATA
  6
CONTINUOUS
 62
     7
 10
899.9999999997681
 20
463.0928863290774
 30
0.0
 40
1.892886329073523
 50
179.056679071979
 51
0.9433211184097844
  0
ARC
  5
75B
  8
DATA
  6
CONTINUOUS
 62
     7
 10
891.3681580689308
 20
462.5492112128586
 30
0.0
 40
6.763683861881504
 50
4.875388648114377
 51
115.1246113299645
  0
ARC
  5
75C
  8
DATA
  6
CONTINUOUS
 62
     7
 10
887.5230735657215
 20
470.2964431648525
 30
0.0
 40
1.892886329075335
 50
119.0566790719809
 51
300.9433211184304
  0
ARC
  5
75D
  8
DATA
  6
CONTINUOUS
 62
     7
 10
882.7363161382527
 20
477.5000000003001
 30
0.0
 40
6.763683861879456
 50
304.8753886481085
 51
55.12461132997959
  0
ARC
  5
75E
  8
DATA
  6
CONTINUOUS
 62
     7
 10
899.9999999997681
 20
491.9071136709226
 30
0.0
 40
1.892886329079305
 50
359.0566788815896
 51
180.9433209280216
  0
ARC
  5
75F
  8
DATA
  6
CONTINUOUS
 62
     7
 10
891.3681580689308
 20
492.4507887871414
 30
0.0
 40
6.763683861877037
 50
244.8753886700349
 51
355.1246113518857
  0
ARC
  5
760
  8
DATA
  6
CONTINUOUS
 62
     7
 10
887.5230735657215
 20
484.7035568351475
 30
0.0
 40
1.89288632907681
 50
59.05667888157139
 51
240.9433209280203
  0
ARC
  5
761
  8
DATA
  6
CONTINUOUS
 62
     7
 10
908.6318419306076
 20
462.5492112128586
 30
0.0
 40
6.763683861878002
 50
64.8753886700175
 51
175.1246113518841
  0
ARC
  5
762
  8
DATA
  6
CONTINUOUS
 62
     7
 10
912.476926433817
 20
470.2964431648525
 30
0.0
 40
1.892886329075641
 50
239.0566788816305
 51
60.94332092796098
  0
ARC
  5
763
  8
DATA
  6
CONTINUOUS
 62
     7
 10
917.263683861288
 20
477.5000000003001
 30
0.0
 40
6.763683861879403
 50
124.875388670037
 51
235.1246113518912
  0
ARC
  5
764
  8
DATA
  6
CONTINUOUS
 62
     7
 10
908.6318419306076
 20
492.4507887871414
 30
0.0
 40
6.763683861879239
 50
184.875388648116
 51
295.1246113299819
  0
ARC
  5
765
  8
DATA
  6
CONTINUOUS
 62
     7
 10
912.476926433817
 20
484.7035568351475
 30
0.0
 40
1.892886329076439
 50
299.056679072041
 51
120.9433211183708
  0
CIRCLE
  5
766
  8
DATA
  6
CONTINUOUS
 62
     7
 10
900.0
 20
477.5
 30
0.0
 40
45.0
  0
ARC
  5
767
  8
DATA
  6
CONTINUOUS
 62
     7
 10
899.9999999997681
 20
1336.907113670923
 30
0.0
 40
1.892886329079305
 50
359.0566788815896
 51
180.9433209280182
  0
ARC
  5
768
  8
DATA
  6
CONTINUOUS
 62
     7
 10
891.3681580689308
 20
1337.450788787141
 30
0.0
 40
6.763683861877037
 50
244.8753886700349
 51
355.1246113518862
  0
ARC
  5
769
  8
DATA
  6
CONTINUOUS
 62
     7
 10
887.5230735657215
 20
1329.703556835148
 30
0.0
 40
1.89288632907681
 50
59.05667888157139
 51
240.9433209280211
  0
ARC
  5
76A
  8
DATA
  6
CONTINUOUS
 62
     7
 10
882.7363161382527
 20
1322.4999999997
 30
0.0
 40
6.763683861878103
 50
304.8753886700212
 51
55.12461135189074
  0
ARC
  5
76B
  8
DATA
  6
CONTINUOUS
 62
     7
 10
899.9999999997681
 20
1308.092886329077
 30
0.0
 40
1.892886329073523
 50
179.056679071979
 51
0.9433211184132233
  0
ARC
  5
76C
  8
DATA
  6
CONTINUOUS
 62
     7
 10
891.3681580689308
 20
1307.549211212859
 30
0.0
 40
6.763683861881504
 50
4.875388648114377
 51
115.1246113299643
  0
ARC
  5
76D
  8
DATA
  6
CONTINUOUS
 62
     7
 10
887.5230735657215
 20
1315.296443164852
 30
0.0
 40
1.892886329075335
 50
119.0566790719809
 51
300.9433211184321
  0
ARC
  5
76E
  8
DATA
  6
CONTINUOUS
 62
     7
 10
908.6318419306076
 20
1337.450788787141
 30
0.0
 40
6.763683861879239
 50
184.875388648116
 51
295.1246113299819
  0
ARC
  5
76F
  8
DATA
  6
CONTINUOUS
 62
     7
 10
912.476926433817
 20
1329.703556835148
 30
0.0
 40
1.892886329076439
 50
299.056679072041
 51
120.9433211183708
  0
ARC
  5
770
  8
DATA
  6
CONTINUOUS
 62
     7
 10
917.263683861288
 20
1322.4999999997
 30
0.0
 40
6.763683861879456
 50
124.8753886481085
 51
235.124611329963
  0
ARC
  5
771
  8
DATA
  6
CONTINUOUS
 62
     7
 10
908.6318419306076
 20
1307.549211212859
 30
0.0
 40
6.763683861878002
 50
64.8753886700175
 51
175.1246113518832
  0
ARC
  5
772
  8
DATA
  6
CONTINUOUS
 62
     7
 10
912.476926433817
 20
1315.296443164852
 30
0.0
 40
1.892886329075641
 50
239.0566788816305
 51
60.94332092796098
  0
CIRCLE
  5
773
  8
DATA
  6
CONTINUOUS
 62
     7
 10
900.0
 20
1322.5
 30
0.0
 40
45.0
  0
TEXT
  5
774
  8
DATA
 62
     7
 10
842.3571216724537
 20
689.5932937922178
 30
0.0
 40
38.00629340277779
  1
INPUT
 41
0.7
 72
     1
 11
900.0
 21
708.5964404936067
 31
0.0
 73
     2
  0
CIRCLE
  5
775
  8
DATA
  6
CONTINUOUS
 62
     7
 10
900.0
 20
900.0
 30
0.0
 40
15.0
  0
CIRCLE
  5
776
  8
DATA
  6
CONTINUOUS
 62
     7
 10
900.0
 20
900.0
 30
0.0
 40
150.0
  0
CIRCLE
  5
777
  8
DATA
  6
CONTINUOUS
 62
     7
 10
900.0
 20
900.0
 30
0.0
 40
62.00002162064266
  0
ARC
  5
778
  8
DATA
  6
CONTINUOUS
 62
     7
 10
900.0
 20
900.0
 30
0.0
 40
99.99999999999837
 50
260.5027655315008
 51
279.4972344684992
  0
ARC
  5
779
  8
DATA
  6
CONTINUOUS
 62
     7
 10
900.0
 20
900.0
 30
0.0
 40
100.0000000000008
 50
74.92993785511185
 51
105.0700621448907
  0
ARC
  5
77A
  8
DATA
  6
CONTINUOUS
 62
     7
 10
900.0
 20
900.0
 30
0.0
 40
92.50725574850135
 50
106.3234213684935
 51
259.7254955273395
  0
ARC
  5
77B
  8
DATA
  6
CONTINUOUS
 62
     7
 10
900.0
 20
900.0
 30
0.0
 40
92.50725574849939
 50
280.2745044726574
 51
73.67657863150924
  0
LINE
  5
77C
  8
DATA
  6
CONTINUOUS
 62
     7
 10
874.0000000000009
 20
988.7783327514262
 30
0.0
 11
874.0000000000009
 21
996.560861636583
 31
0.0
  0
LINE
  5
77D
  8
DATA
  6
CONTINUOUS
 62
     7
 10
925.9999999999991
 20
988.7783327514262
 30
0.0
 11
925.9999999999991
 21
996.560861636583
 31
0.0
  0
LINE
  5
77E
  8
DATA
  6
CONTINUOUS
 62
     7
 10
883.4999999999991
 20
801.3706433155016
 30
0.0
 11
883.4999999999991
 21
808.9761439724725
 31
0.0
  0
LINE
  5
77F
  8
DATA
  6
CONTINUOUS
 62
     7
 10
916.5000000000009
 20
808.9761439724725
 30
0.0
 11
916.5000000000009
 21
801.3706433155016
 31
0.0
  0
LINE
  5
780
  8
DATA
  6
CONTINUOUS
 62
     7
 10
340.0
 20
810.0
 30
0.0
 11
340.0
 21
880.0
 31
0.0
  0
LINE
  5
781
  8
DATA
  6
CONTINUOUS
 62
     7
 10
520.0
 20
790.0
 30
0.0
 11
360.0
 21
790.0
 31
0.0
  0
LINE
  5
782
  8
DATA
  6
CONTINUOUS
 62
     7
 10
540.0
 20
880.0
 30
0.0
 11
540.0
 21
810.0
 31
0.0
  0
LINE
  5
783
  8
DATA
  6
CONTINUOUS
 62
     7
 10
360.0
 20
900.0
 30
0.0
 11
520.0
 21
900.0
 31
0.0
  0
LINE
  5
784
  8
DATA
  6
CONTINUOUS
 62
     7
 10
440.0
 20
863.3333333333348
 30
0.0
 11
440.0
 21
790.0
 31
0.0
  0
LINE
  5
785
  8
DATA
  6
CONTINUOUS
 62
     7
 10
340.0
 20
863.3333333333348
 30
0.0
 11
540.0
 21
863.3333333333348
 31
0.0
  0
LINE
  5
786
  8
DATA
  6
CONTINUOUS
 62
     7
 10
340.0
 20
826.6666666666652
 30
0.0
 11
540.0
 21
826.6666666666652
 31
0.0
  0
TEXT
  5
787
  8
DATA
 62
     7
 10
399.4599537037037
 20
870.8077256944453
 30
0.0
 40
21.71788194444445
  1
PINOUT
 41
0.7
 72
     1
 11
440.0
 21
881.6666666666674
 31
0.0
 73
     2
  0
TEXT
  5
788
  8
DATA
 62
     7
 10
365.1692216435185
 20
834.1410590277778
 30
0.0
 40
21.71788194444445
  1
Pin 1
 41
0.7
 72
     1
 11
390.0
 21
845.0
 31
0.0
 73
     2
  0
TEXT
  5
789
  8
DATA
 62
     7
 10
362.63546875
 20
797.4743923611104
 30
0.0
 40
21.71788194444445
  1
Pin 2
 41
0.7
 72
     1
 11
390.0
 21
808.3333333333326
 31
0.0
 73
     2
  0
TEXT
  5
78A
  8
DATA
 62
     7
 10
469.7299768518519
 20
834.1410590277778
 30
0.0
 40
21.71788194444445
  1
SUB
 41
0.7
 72
     1
 11
490.0
 21
845.0
 31
0.0
 73
     2
  0
TEXT
  5
78B
  8
DATA
 62
     7
 10
462.1287181712963
 20
797.4743923611104
 30
0.0
 40
21.71788194444445
  1
open
 41
0.7
 72
     1
 11
490.0
 21
808.3333333333326
 31
0.0
 73
     2
  0
ARC
  5
78C
  8
DATA
  6
CONTINUOUS
 62
     7
 10
360.0
 20
880.0
 30
0.0
 40
20.0
 50
90.0
 51
180.0
  0
ARC
  5
78D
  8
DATA
  6
CONTINUOUS
 62
     7
 10
360.0
 20
810.0
 30
0.0
 40
20.0
 50
180.0
 51
270.0
  0
ARC
  5
78E
  8
DATA
  6
CONTINUOUS
 62
     7
 10
520.0
 20
810.0
 30
0.0
 40
20.0
 50
270.0
 51
0.0
  0
ARC
  5
78F
  8
DATA
  6
CONTINUOUS
 62
     7
 10
520.0
 20
880.0
 30
0.0
 40
20.0
 50
0.0
 51
90.0
  0
TEXT
  5
790
  8
DATA
 62
     7
 10
647.4321766469055
 20
1166.22341579861
 30
0.0
 40
81.44205729166666
  1
VTX SERIES B28
 41
0.7
 72
     1
 11
1014.192907983711
 21
1206.944444444443
 31
0.0
 73
     2
  0
TEXT
  5
791
  8
DATA
 62
     7
 10
715.2226817448645
 20
1101.683890909239
 30
0.0
 40
38.00629340277779
  1
Dual 18"Subwoofer
 41
0.7
 72
     1
 11
916.085942378545
 21
1120.687037610628
 31
0.0
 73
     2
  0
ARC
  5
792
  8
DATA
  6
CONTINUOUS
 62
     7
 10
1650.0
 20
450.0
 30
0.0
 40
50.0
 50
270.0
 51
0.0
  0
ARC
  5
793
  8
DATA
  6
CONTINUOUS
 62
     7
 10
1650.0
 20
1350.0
 30
0.0
 40
50.0
 50
0.0
 51
90.0
  0
ARC
  5
794
  8
DATA
  6
CONTINUOUS
 62
     7
 10
150.0
 20
1350.0
 30
0.0
 40
50.0
 50
90.0
 51
180.0
  0
ARC
  5
795
  8
DATA
  6
CONTINUOUS
 62
     7
 10
150.0
 20
450.0
 30
0.0
 40
50.0
 50
180.0
 51
270.0
  0
ARC
  5
796
  8
DATA
  6
CONTINUOUS
 62
     7
 10
150.0
 20
568.3333333333348
 30
0.0
 40
50.0
 50
143.130102354156
 51
180.0
  0
ARC
  5
797
  8
DATA
  6
CONTINUOUS
 62
     7
 10
110.0
 20
681.6666666666652
 30
0.0
 40
50.0
 50
323.1301023541561
 51
0.0
  0
ARC
  5
798
  8
DATA
  6
CONTINUOUS
 62
     7
 10
110.0
 20
1118.333333333335
 30
0.0
 40
50.0
 50
0.0
 51
36.86989764584399
  0
ARC
  5
799
  8
DATA
  6
CONTINUOUS
 62
     7
 10
150.0
 20
1231.666666666665
 30
0.0
 40
50.0
 50
180.0
 51
216.869897645844
  0
ARC
  5
79A
  8
DATA
  6
CONTINUOUS
 62
     7
 10
1650.0
 20
1231.666666666665
 30
0.0
 40
50.0
 50
323.1301023541561
 51
0.0
  0
ARC
  5
79B
  8
DATA
  6
CONTINUOUS
 62
     7
 10
1690.0
 20
1118.333333333335
 30
0.0
 40
50.0
 50
143.130102354156
 51
180.0
  0
ARC
  5
79C
  8
DATA
  6
CONTINUOUS
 62
     7
 10
1690.0
 20
681.6666666666652
 30
0.0
 40
50.0
 50
180.0
 51
216.869897645844
  0
ARC
  5
79D
  8
DATA
  6
CONTINUOUS
 62
     7
 10
1650.0
 20
568.3333333333348
 30
0.0
 40
50.0
 50
0.0
 51
36.86989764584399
  0
CIRCLE
  5
79E
  8
DATA
  6
CONTINUOUS
 62
     7
 10
-800.0000000000002
 20
-898.5
 30
0.0
 40
15.0
  0
LINE
  5
79F
  8
DATA
  6
CONTINUOUS
 62
     7
 10
-801.0718750000003
 20
-912.0
 30
0.0
 11
-800.0093750000003
 21
-910.56382980945
 31
0.0
  0
LINE
  5
7A0
  8
DATA
  6
CONTINUOUS
 62
     7
 10
-800.3192706644503
 20
-910.56382980945
 30
0.0
 11
-801.0718750000003
 21
-911.57446813585
 31
0.0
  0
LINE
  5
7A1
  8
DATA
  6
CONTINUOUS
 62
     7
 10
-793.9000000000003
 20
-912.0
 30
0.0
 11
-793.9000000000003
 21
-909.5
 31
0.0
  0
LINE
  5
7A2
  8
DATA
  6
CONTINUOUS
 62
     7
 10
-794.1656250000003
 20
-909.5
 30
0.0
 11
-794.1656250000003
 21
-911.68085110185
 31
0.0
  0
LINE
  5
7A3
  8
DATA
  6
CONTINUOUS
 62
     7
 10
-795.4052082911003
 20
-912.0
 30
0.0
 11
-795.4052082911003
 21
-909.8723404184
 31
0.0
  0
LINE
  5
7A4
  8
DATA
  6
CONTINUOUS
 62
     7
 10
-795.6708332911003
 20
-909.5
 30
0.0
 11
-795.6708332911003
 21
-912.0
 31
0.0
  0
LINE
  5
7A5
  8
DATA
  6
CONTINUOUS
 62
     7
 10
-796.0250000000003
 20
-912.0
 30
0.0
 11
-796.0250000000003
 21
-909.5
 31
0.0
  0
LINE
  5
7A6
  8
DATA
  6
CONTINUOUS
 62
     7
 10
-796.2906250000003
 20
-909.8191489354
 30
0.0
 11
-796.2906250000003
 21
-912.0
 31
0.0
  0
LINE
  5
7A7
  8
DATA
  6
CONTINUOUS
 62
     7
 10
-797.6187500000003
 20
-909.5
 30
0.0
 11
-797.6187500000003
 21
-909.8191489354
 31
0.0
  0
LINE
  5
7A8
  8
DATA
  6
CONTINUOUS
 62
     7
 10
-797.9729165822503
 20
-912.0
 30
0.0
 11
-797.9729165822503
 21
-911.7340425849
 31
0.0
  0
LINE
  5
7A9
  8
DATA
  6
CONTINUOUS
 62
     7
 10
-798.4000000000003
 20
-895.38712351675
 30
0.0
 11
-798.4000000000003
 21
-896.141504717
 31
0.0
  0
POLYLINE
  5
7AA
  8
DATA
  6
CONTINUOUS
 62
     7
 66
     1
 10
0.0
 20
0.0
 30
0.0
  0
VERTEX
  5
95E
  8
DATA
  6
CONTINUOUS
 62
     7
 10
-801.5956868680503
 20
-895.38545269125
 30
0.0
  0
VERTEX
  5
95F
  8
DATA
  6
CONTINUOUS
 62
     7
 10
-801.4186622741503
 20
-895.5028187833
 30
0.0
  0
VERTEX
  5
960
  8
DATA
  6
CONTINUOUS
 62
     7
 10
-801.1956164492503
 20
-895.6235573913
 30
0.0
  0
VERTEX
  5
961
  8
DATA
  6
CONTINUOUS
 62
     7
 10
-800.9653384717003
 20
-895.7226962635999
 30
0.0
  0
VERTEX
  5
962
  8
DATA
  6
CONTINUOUS
 62
     7
 10
-800.7292335942502
 20
-895.80009722455
 30
0.0
  0
VERTEX
  5
963
  8
DATA
  6
CONTINUOUS
 62
     7
 10
-800.4885927784503
 20
-895.8555126811
 30
0.0
  0
VERTEX
  5
964
  8
DATA
  6
CONTINUOUS
 62
     7
 10
-800.2449599248002
 20
-895.8888345273
 30
0.0
  0
VERTEX
  5
965
  8
DATA
  6
CONTINUOUS
 62
     7
 10
-800.0000004260503
 20
-895.8999787914499
 30
0.0
  0
VERTEX
  5
966
  8
DATA
  6
CONTINUOUS
 62
     7
 10
-799.7550410931003
 20
-895.8888346199
 30
0.0
  0
VERTEX
  5
967
  8
DATA
  6
CONTINUOUS
 62
     7
 10
-799.5114095649503
 20
-895.85551311005
 30
0.0
  0
VERTEX
  5
968
  8
DATA
  6
CONTINUOUS
 62
     7
 10
-799.2707687056003
 20
-895.8000978650999
 30
0.0
  0
VERTEX
  5
969
  8
DATA
  6
CONTINUOUS
 62
     7
 10
-799.0346585127003
 20
-895.72269512275
 30
0.0
  0
VERTEX
  5
96A
  8
DATA
  6
CONTINUOUS
 62
     7
 10
-798.8043758637502
 20
-895.62355366645
 30
0.0
  0
VERTEX
  5
96B
  8
DATA
  6
CONTINUOUS
 62
     7
 10
-798.5813312451003
 20
-895.5028148910999
 30
0.0
  0
VERTEX
  5
96C
  8
DATA
  6
CONTINUOUS
 62
     7
 10
-798.4020865594503
 20
-895.3839763500999
 30
0.0
  0
SEQEND
  5
993
  8
DATA
  6
CONTINUOUS
 62
     7
  0
LINE
  5
7BC
  8
DATA
  6
CONTINUOUS
 62
     7
 10
-798.6812500000003
 20
-911.7340425849
 30
0.0
 11
-798.6812500000003
 21
-909.5
 31
0.0
  0
LINE
  5
7BD
  8
DATA
  6
CONTINUOUS
 62
     7
 10
-798.9468750000003
 20
-909.5
 30
0.0
 11
-798.9468750000003
 21
-911.7340425849
 31
0.0
  0
LINE
  5
7BE
  8
DATA
  6
CONTINUOUS
 62
     7
 10
-799.6552081644503
 20
-911.7340425849
 30
0.0
 11
-799.6552081644503
 21
-912.0
 31
0.0
  0
LINE
  5
7BF
  8
DATA
  6
CONTINUOUS
 62
     7
 10
-800.0093750000003
 20
-910.56382980945
 30
0.0
 11
-800.0093750000003
 21
-910.2446808368
 31
0.0
  0
LINE
  5
7C0
  8
DATA
  6
CONTINUOUS
 62
     7
 10
-803.8609375000003
 20
-912.0
 30
0.0
 11
-803.1968750000003
 21
-909.76595745235
 31
0.0
  0
LINE
  5
7C1
  8
DATA
  6
CONTINUOUS
 62
     7
 10
-803.3739586711002
 20
-909.5
 30
0.0
 11
-803.9937500000003
 21
-911.4680851697999
 31
0.0
  0
LINE
  5
7C2
  8
DATA
  6
CONTINUOUS
 62
     7
 10
-797.5318275992003
 20
-899.925
 30
0.0
 11
-796.9689110867503
 21
-900.25
 31
0.0
  0
LINE
  5
7C3
  8
DATA
  6
CONTINUOUS
 62
     7
 10
-802.4681724008003
 20
-897.0749999999999
 30
0.0
 11
-803.0310889132503
 21
-896.75
 31
0.0
  0
LINE
  5
7C4
  8
DATA
  6
CONTINUOUS
 62
     7
 10
-801.0718750000003
 20
-911.57446813585
 30
0.0
 11
-801.0718750000003
 21
-910.56382980945
 31
0.0
  0
LINE
  5
7C5
  8
DATA
  6
CONTINUOUS
 62
     7
 10
-801.0718750000003
 20
-910.2446808368
 30
0.0
 11
-801.0718750000003
 21
-909.5
 31
0.0
  0
LINE
  5
7C6
  8
DATA
  6
CONTINUOUS
 62
     7
 10
-801.3375000000003
 20
-909.5
 30
0.0
 11
-801.3375000000003
 21
-910.2446808368
 31
0.0
  0
LINE
  5
7C7
  8
DATA
  6
CONTINUOUS
 62
     7
 10
-801.3375000000003
 20
-910.56382980945
 30
0.0
 11
-801.3375000000003
 21
-912.0
 31
0.0
  0
LINE
  5
7C8
  8
DATA
  6
CONTINUOUS
 62
     7
 10
-801.6000000000003
 20
-901.6128764832499
 30
0.0
 11
-801.6000000000003
 21
-900.8584952829999
 31
0.0
  0
LINE
  5
7C9
  8
DATA
  6
CONTINUOUS
 62
     7
 10
-801.7802081644503
 20
-910.2446808368
 30
0.0
 11
-801.7802081644503
 21
-910.56382980945
 31
0.0
  0
POLYLINE
  5
7CA
  8
DATA
  6
CONTINUOUS
 62
     7
 66
     1
 10
0.0
 20
0.0
 30
0.0
  0
VERTEX
  5
96D
  8
DATA
  6
CONTINUOUS
 62
     7
 10
-798.4043131319503
 20
-901.6145473087499
 30
0.0
  0
VERTEX
  5
96E
  8
DATA
  6
CONTINUOUS
 62
     7
 10
-798.5813377258503
 20
-901.4971812166999
 30
0.0
  0
VERTEX
  5
96F
  8
DATA
  6
CONTINUOUS
 62
     7
 10
-798.8043835507502
 20
-901.3764426086999
 30
0.0
  0
VERTEX
  5
970
  8
DATA
  6
CONTINUOUS
 62
     7
 10
-799.0346615283503
 20
-901.2773037364
 30
0.0
  0
VERTEX
  5
971
  8
DATA
  6
CONTINUOUS
 62
     7
 10
-799.2707664058003
 20
-901.1999027754499
 30
0.0
  0
VERTEX
  5
972
  8
DATA
  6
CONTINUOUS
 62
     7
 10
-799.5114072216003
 20
-901.1444873188999
 30
0.0
  0
VERTEX
  5
973
  8
DATA
  6
CONTINUOUS
 62
     7
 10
-799.7550400752002
 20
-901.1111654726999
 30
0.0
  0
VERTEX
  5
974
  8
DATA
  6
CONTINUOUS
 62
     7
 10
-799.9999995740003
 20
-901.10002120855
 30
0.0
  0
VERTEX
  5
975
  8
DATA
  6
CONTINUOUS
 62
     7
 10
-800.2449589069003
 20
-901.1111653800499
 30
0.0
  0
VERTEX
  5
976
  8
DATA
  6
CONTINUOUS
 62
     7
 10
-800.4885904351003
 20
-901.1444868899499
 30
0.0
  0
VERTEX
  5
977
  8
DATA
  6
CONTINUOUS
 62
     7
 10
-800.7292312944003
 20
-901.1999021349
 30
0.0
  0
VERTEX
  5
978
  8
DATA
  6
CONTINUOUS
 62
     7
 10
-800.9653414873003
 20
-901.2773048772499
 30
0.0
  0
VERTEX
  5
979
  8
DATA
  6
CONTINUOUS
 62
     7
 10
-801.1956241362502
 20
-901.3764463335499
 30
0.0
  0
VERTEX
  5
97A
  8
DATA
  6
CONTINUOUS
 62
     7
 10
-801.4186687549003
 20
-901.4971851089
 30
0.0
  0
VERTEX
  5
97B
  8
DATA
  6
CONTINUOUS
 62
     7
 10
-801.5979134405502
 20
-901.6160236499
 30
0.0
  0
SEQEND
  5
994
  8
DATA
  6
CONTINUOUS
 62
     7
  0
LINE
  5
7DC
  8
DATA
  6
CONTINUOUS
 62
     7
 10
-795.4052082911003
 20
-909.8723404184
 30
0.0
 11
-794.2984375000003
 21
-912.0
 31
0.0
  0
LINE
  5
7DD
  8
DATA
  6
CONTINUOUS
 62
     7
 10
-794.1656250000003
 20
-911.68085110185
 30
0.0
 11
-795.2723957911003
 21
-909.5
 31
0.0
  0
LINE
  5
7DE
  8
DATA
  6
CONTINUOUS
 62
     7
 10
-802.1343750000003
 20
-912.0
 30
0.0
 11
-802.1343750000003
 21
-909.5
 31
0.0
  0
LINE
  5
7DF
  8
DATA
  6
CONTINUOUS
 62
     7
 10
-802.4000000000003
 20
-909.5
 30
0.0
 11
-802.4000000000003
 21
-911.4680851697999
 31
0.0
  0
LINE
  5
7E0
  8
DATA
  6
CONTINUOUS
 62
     7
 10
-803.9937500000003
 20
-911.4680851697999
 30
0.0
 11
-803.9937500000003
 21
-909.5
 31
0.0
  0
LINE
  5
7E1
  8
DATA
  6
CONTINUOUS
 62
     7
 10
-804.2593750000003
 20
-909.5
 30
0.0
 11
-804.2593750000003
 21
-912.0
 31
0.0
  0
LINE
  5
7E2
  8
DATA
  6
CONTINUOUS
 62
     7
 10
-802.4000000000003
 20
-911.4680851697999
 30
0.0
 11
-803.0197913289003
 21
-909.5
 31
0.0
  0
LINE
  5
7E3
  8
DATA
  6
CONTINUOUS
 62
     7
 10
-803.1968750000003
 20
-909.76595745235
 30
0.0
 11
-802.5328125000003
 21
-912.0
 31
0.0
  0
LINE
  5
7E4
  8
DATA
  6
CONTINUOUS
 62
     7
 10
-793.9000000000003
 20
-909.5
 30
0.0
 11
-794.1656250000003
 21
-909.5
 31
0.0
  0
LINE
  5
7E5
  8
DATA
  6
CONTINUOUS
 62
     7
 10
-795.2723957911003
 20
-909.5
 30
0.0
 11
-795.6708332911003
 21
-909.5
 31
0.0
  0
LINE
  5
7E6
  8
DATA
  6
CONTINUOUS
 62
     7
 10
-796.0250000000003
 20
-909.5
 30
0.0
 11
-797.6187500000003
 21
-909.5
 31
0.0
  0
LINE
  5
7E7
  8
DATA
  6
CONTINUOUS
 62
     7
 10
-798.6812500000003
 20
-909.5
 30
0.0
 11
-798.9468750000003
 21
-909.5
 31
0.0
  0
LINE
  5
7E8
  8
DATA
  6
CONTINUOUS
 62
     7
 10
-801.0718750000003
 20
-909.5
 30
0.0
 11
-801.3375000000003
 21
-909.5
 31
0.0
  0
LINE
  5
7E9
  8
DATA
  6
CONTINUOUS
 62
     7
 10
-802.1343750000003
 20
-909.5
 30
0.0
 11
-802.4000000000003
 21
-909.5
 31
0.0
  0
LINE
  5
7EA
  8
DATA
  6
CONTINUOUS
 62
     7
 10
-803.0197913289003
 20
-909.5
 30
0.0
 11
-803.3739586711002
 21
-909.5
 31
0.0
  0
LINE
  5
7EB
  8
DATA
  6
CONTINUOUS
 62
     7
 10
-803.9937500000003
 20
-909.5
 30
0.0
 11
-804.2593750000003
 21
-909.5
 31
0.0
  0
LINE
  5
7EC
  8
DATA
  6
CONTINUOUS
 62
     7
 10
-797.6187500000003
 20
-909.8191489354
 30
0.0
 11
-796.2906250000003
 21
-909.8191489354
 31
0.0
  0
LINE
  5
7ED
  8
DATA
  6
CONTINUOUS
 62
     7
 10
-800.0093750000003
 20
-910.2446808368
 30
0.0
 11
-801.0718750000003
 21
-910.2446808368
 31
0.0
  0
LINE
  5
7EE
  8
DATA
  6
CONTINUOUS
 62
     7
 10
-801.3375000000003
 20
-910.2446808368
 30
0.0
 11
-801.7802081644503
 21
-910.2446808368
 31
0.0
  0
LINE
  5
7EF
  8
DATA
  6
CONTINUOUS
 62
     7
 10
-801.7802081644503
 20
-910.56382980945
 30
0.0
 11
-801.3375000000003
 21
-910.56382980945
 31
0.0
  0
LINE
  5
7F0
  8
DATA
  6
CONTINUOUS
 62
     7
 10
-801.0718750000003
 20
-910.56382980945
 30
0.0
 11
-800.3192706644503
 21
-910.56382980945
 31
0.0
  0
LINE
  5
7F1
  8
DATA
  6
CONTINUOUS
 62
     7
 10
-797.9729165822503
 20
-911.7340425849
 30
0.0
 11
-798.6812500000003
 21
-911.7340425849
 31
0.0
  0
LINE
  5
7F2
  8
DATA
  6
CONTINUOUS
 62
     7
 10
-798.9468750000003
 20
-911.7340425849
 30
0.0
 11
-799.6552081644503
 21
-911.7340425849
 31
0.0
  0
LINE
  5
7F3
  8
DATA
  6
CONTINUOUS
 62
     7
 10
-804.2593750000003
 20
-912.0
 30
0.0
 11
-803.8609375000003
 21
-912.0
 31
0.0
  0
LINE
  5
7F4
  8
DATA
  6
CONTINUOUS
 62
     7
 10
-802.5328125000003
 20
-912.0
 30
0.0
 11
-802.1343750000003
 21
-912.0
 31
0.0
  0
LINE
  5
7F5
  8
DATA
  6
CONTINUOUS
 62
     7
 10
-801.3375000000003
 20
-912.0
 30
0.0
 11
-801.0718750000003
 21
-912.0
 31
0.0
  0
LINE
  5
7F6
  8
DATA
  6
CONTINUOUS
 62
     7
 10
-799.6552081644503
 20
-912.0
 30
0.0
 11
-797.9729165822503
 21
-912.0
 31
0.0
  0
LINE
  5
7F7
  8
DATA
  6
CONTINUOUS
 62
     7
 10
-796.2906250000003
 20
-912.0
 30
0.0
 11
-796.0250000000003
 21
-912.0
 31
0.0
  0
LINE
  5
7F8
  8
DATA
  6
CONTINUOUS
 62
     7
 10
-795.6708332911003
 20
-912.0
 30
0.0
 11
-795.4052082911003
 21
-912.0
 31
0.0
  0
LINE
  5
7F9
  8
DATA
  6
CONTINUOUS
 62
     7
 10
-794.2984375000003
 20
-912.0
 30
0.0
 11
-793.9000000000003
 21
-912.0
 31
0.0
  0
ARC
  5
7FA
  8
DATA
  6
CONTINUOUS
 62
     7
 10
-800.0000000000002
 20
-898.5
 30
0.0
 40
3.499999999999967
 50
242.7971055877995
 51
329.9999999999989
  0
ARC
  5
7FB
  8
DATA
  6
CONTINUOUS
 62
     7
 10
-800.0000000000002
 20
-898.5
 30
0.0
 40
3.500000000000068
 50
62.79710558780038
 51
150.0000000000009
  0
ARC
  5
7FC
  8
DATA
  6
CONTINUOUS
 62
     7
 10
-800.0000000000002
 20
-898.5
 30
0.0
 40
3.499999999999893
 50
329.999999999999
 51
62.79710558780039
  0
ARC
  5
7FD
  8
DATA
  6
CONTINUOUS
 62
     7
 10
-800.0000000000002
 20
-898.5
 30
0.0
 40
3.50000000000009
 50
150.0000000000009
 51
242.7971055877995
  0
ARC
  5
7FE
  8
DATA
  6
CONTINUOUS
 62
     7
 10
-800.0000000000002
 20
-898.5
 30
0.0
 40
2.85000000000013
 50
150.0
 51
235.8470846010972
  0
ARC
  5
7FF
  8
DATA
  6
CONTINUOUS
 62
     7
 10
-800.0000000000002
 20
-898.5
 30
0.0
 40
2.849999999999876
 50
329.9999999999996
 51
55.84708460110227
  0
ARC
  5
800
  8
DATA
  6
CONTINUOUS
 62
     7
 10
-800.0000087761002
 20
-916.86050353075
 30
0.0
 40
15.00663205219998
 50
86.58465754509994
 51
93.41771195850022
  0
LINE
  5
801
  8
DATA
  6
CONTINUOUS
 62
     7
 10
-797.5315714516503
 20
-899.9245562472499
 30
0.0
 11
-797.5315714516503
 21
-899.9
 31
0.0
  0
LINE
  5
802
  8
DATA
  6
CONTINUOUS
 62
     7
 10
-797.5315714516503
 20
-897.07544375275
 30
0.0
 11
-797.5315714516503
 21
-897.0999999999999
 31
0.0
  0
LINE
  5
803
  8
DATA
  6
CONTINUOUS
 62
     7
 10
-797.7000000000003
 20
-900.18300326795
 30
0.0
 11
-797.7000000000003
 21
-901.1381811916499
 31
0.0
  0
LINE
  5
804
  8
DATA
  6
CONTINUOUS
 62
     7
 10
-797.5315714516503
 20
-897.0999999999999
 30
0.0
 11
-802.4684285483503
 21
-897.0999999999999
 31
0.0
  0
LINE
  5
805
  8
DATA
  6
CONTINUOUS
 62
     7
 10
-802.4684285483503
 20
-899.9
 30
0.0
 11
-797.5315714516503
 21
-899.9
 31
0.0
  0
LINE
  5
806
  8
DATA
  6
CONTINUOUS
 62
     7
 10
-802.3000000000003
 20
-896.8169967320499
 30
0.0
 11
-802.3000000000003
 21
-895.86181880835
 31
0.0
  0
LINE
  5
807
  8
DATA
  6
CONTINUOUS
 62
     7
 10
-802.4684285483503
 20
-899.9245562472499
 30
0.0
 11
-802.4684285483503
 21
-899.9
 31
0.0
  0
LINE
  5
808
  8
DATA
  6
CONTINUOUS
 62
     7
 10
-802.4684285483503
 20
-897.07544375275
 30
0.0
 11
-802.4684285483503
 21
-897.0999999999999
 31
0.0
  0
ARC
  5
809
  8
DATA
  6
CONTINUOUS
 62
     7
 10
-800.0000000000002
 20
-898.5
 30
0.0
 40
2.85000000000002
 50
143.8055525253
 51
150.0
  0
ARC
  5
80A
  8
DATA
  6
CONTINUOUS
 62
     7
 10
-800.0000000000002
 20
-898.5
 30
0.0
 40
2.849999999999928
 50
323.8055525252987
 51
329.9999999999996
  0
CIRCLE
  5
80B
  8
DATA
  6
CONTINUOUS
 62
     7
 10
-814.6000000000003
 20
-883.9
 30
0.0
 40
3.0
  0
CIRCLE
  5
80C
  8
DATA
  6
CONTINUOUS
 62
     7
 10
-800.0000000000002
 20
-898.5
 30
0.0
 40
8.0
  0
ARC
  5
80D
  8
DATA
  6
CONTINUOUS
 62
     7
 10
-800.0000000000002
 20
-898.5
 30
0.0
 40
2.849999999999876
 50
329.9999999999996
 51
55.84708460110227
  0
ARC
  5
80E
  8
DATA
  6
CONTINUOUS
 62
     7
 10
-800.0000000000002
 20
-898.5
 30
0.0
 40
2.85000000000013
 50
150.0
 51
235.8470846010972
  0
LINE
  5
80F
  8
DATA
  6
CONTINUOUS
 62
     7
 10
-797.3411961905502
 20
-907.0245660398999
 30
0.0
 11
-797.3411796668003
 21
-907.0244699602499
 31
0.0
  0
LINE
  5
810
  8
DATA
  6
CONTINUOUS
 62
     7
 10
-797.3411963035003
 20
-907.0254283703
 30
0.0
 11
-797.3411963035003
 21
-908.1455456563
 31
0.0
  0
LINE
  5
811
  8
DATA
  6
CONTINUOUS
 62
     7
 10
-798.3000000000003
 20
-888.64113151655
 30
0.0
 11
-798.3000000000003
 21
-889.7339557721
 31
0.0
  0
LINE
  5
812
  8
DATA
  6
CONTINUOUS
 62
     7
 10
-798.2999807149503
 20
-888.6410181174
 30
0.0
 11
-798.3000000000003
 21
-888.6411315194
 31
0.0
  0
LINE
  5
813
  8
DATA
  6
CONTINUOUS
 62
     7
 10
-801.7088036965002
 20
-889.7346110986999
 30
0.0
 11
-801.7088036965002
 21
-888.6415671712
 31
0.0
  0
LINE
  5
814
  8
DATA
  6
CONTINUOUS
 62
     7
 10
-802.6500189821503
 20
-908.1470956862499
 30
0.0
 11
-802.6500000000003
 21
-908.1470092628499
 31
0.0
  0
LINE
  5
815
  8
DATA
  6
CONTINUOUS
 62
     7
 10
-802.6500000000003
 20
-908.14700927025
 30
0.0
 11
-802.6500000000003
 21
-907.02707637575
 31
0.0
  0
ARC
  5
816
  8
DATA
  6
CONTINUOUS
 62
     7
 10
-800.0000000000002
 20
-898.5
 30
0.0
 40
10.00438247310004
 50
80.21344119720038
 51
99.83765315130056
  0
ARC
  5
817
  8
DATA
  6
CONTINUOUS
 62
     7
 10
-800.0000000000002
 20
-898.5
 30
0.0
 40
10.00438247309996
 50
254.6372478518994
 51
285.4149786562999
  0
ARC
  5
818
  8
DATA
  6
CONTINUOUS
 62
     7
 10
-800.0000000000002
 20
-898.5
 30
0.0
 40
8.92938247310002
 50
101.0359273184001
 51
252.7326708820995
  0
ARC
  5
819
  8
DATA
  6
CONTINUOUS
 62
     7
 10
-800.0000000000002
 20
-898.5
 30
0.0
 40
8.929382473099889
 50
287.3264231607996
 51
79.02155736569998
  0
POLYLINE
  5
81A
  8
DATA
  6
CONTINUOUS
 62
     7
 66
     1
 10
0.0
 20
0.0
 30
0.0
 70
     1
  0
VERTEX
  5
97C
  8
DATA
  6
CONTINUOUS
 62
     7
 10
-229.9999999999999
 20
-680.0
 30
0.0
  0
VERTEX
  5
97D
  8
DATA
  6
CONTINUOUS
 62
     7
 10
-181.9999999999999
 20
-680.0
 30
0.0
  0
VERTEX
  5
97E
  8
DATA
  6
CONTINUOUS
 62
     7
 10
-181.9999999999999
 20
-720.0
 30
0.0
  0
VERTEX
  5
97F
  8
DATA
  6
CONTINUOUS
 62
     7
 10
-229.9999999999999
 20
-720.0
 30
0.0
  0
SEQEND
  5
995
  8
DATA
  6
CONTINUOUS
 62
     7
  0
ARC
  5
821
  8
DATA
  6
CONTINUOUS
 62
     7
 10
-216.5879959999999
 20
-704.3680059999999
 30
0.0
 40
4.641936165302162
 50
264.6908562215353
 51
323.9911991542409
  0
ARC
  5
822
  8
DATA
  6
CONTINUOUS
 62
     7
 10
-217.4470099999999
 20
-704.3680059999999
 30
0.0
 40
4.641928626503891
 50
216.0088008457586
 51
275.3091437784644
  0
ARC
  5
823
  8
DATA
  6
CONTINUOUS
 62
     7
 10
-204.7924699999999
 20
-705.572962
 30
0.0
 40
3.42470054109263
 50
273.8309816091148
 51
351.1351473098023
  0
ARC
  5
824
  8
DATA
  6
CONTINUOUS
 62
     7
 10
-204.7583239999999
 20
-694.401874
 30
0.0
 40
3.419513879240714
 50
8.226923859014615
 51
86.15412669215303
  0
ARC
  5
825
  8
DATA
  6
CONTINUOUS
 62
     7
 10
-205.1345935455681
 20
-706.4419407186296
 30
0.0
 40
0.5738096066732162
 50
307.6419024975681
 51
354.2670192894021
  0
LINE
  5
826
  8
DATA
  6
CONTINUOUS
 62
     7
 10
-219.8735899999999
 20
-697.3996299999999
 30
0.0
 11
-217.1835619999999
 21
-690.9900459999999
 31
0.0
  0
LINE
  5
827
  8
DATA
  6
CONTINUOUS
 62
     7
 10
-219.8735899999999
 20
-697.3996299999999
 30
0.0
 11
-222.5304259999999
 21
-690.9900459999999
 31
0.0
  0
LINE
  5
828
  8
DATA
  6
CONTINUOUS
 62
     7
 10
-199.4824699999999
 20
-708.9900459999999
 30
0.0
 11
-199.4824699999999
 21
-690.9900459999999
 31
0.0
  0
LINE
  5
829
  8
DATA
  6
CONTINUOUS
 62
     7
 10
-196.0285939999999
 20
-690.9900459999999
 30
0.0
 11
-196.0285939999999
 21
-706.233598
 31
0.0
  0
LINE
  5
82A
  8
DATA
  6
CONTINUOUS
 62
     7
 10
-215.9215639999999
 20
-690.9900459999999
 30
0.0
 11
-215.9215639999999
 21
-706.233598
 31
0.0
  0
LINE
  5
82B
  8
DATA
  6
CONTINUOUS
 62
     7
 10
-212.6005279999999
 20
-690.9900459999999
 30
0.0
 11
-212.6005279999999
 21
-706.233598
 31
0.0
  0
LINE
  5
82C
  8
DATA
  6
CONTINUOUS
 62
     7
 10
-210.8735899999999
 20
-690.9900459999999
 30
0.0
 11
-210.8735899999999
 21
-708.9900459999999
 31
0.0
  0
LINE
  5
82D
  8
DATA
  6
CONTINUOUS
 62
     7
 10
-207.8514439999999
 20
-692.683756
 30
0.0
 11
-207.8514439999999
 21
-698.462368
 31
0.0
  0
LINE
  5
82E
  8
DATA
  6
CONTINUOUS
 62
     7
 10
-201.3739999999999
 20
-698.128
 30
0.0
 11
-201.3739999999999
 21
-693.9125620000001
 31
0.0
  0
LINE
  5
82F
  8
DATA
  6
CONTINUOUS
 62
     7
 10
-204.5636539999999
 20
-693.480814
 30
0.0
 11
-204.5636539999999
 21
-697.6653279999999
 31
0.0
  0
LINE
  5
830
  8
DATA
  6
CONTINUOUS
 62
     7
 10
-218.4455419999999
 20
-703.344274
 30
0.0
 11
-218.4455419999999
 21
-706.2335619999999
 31
0.0
  0
LINE
  5
831
  8
DATA
  6
CONTINUOUS
 62
     7
 10
-218.4455419999999
 20
-703.344274
 30
0.0
 11
-221.4344779999999
 21
-703.344274
 31
0.0
  0
LINE
  5
832
  8
DATA
  6
CONTINUOUS
 62
     7
 10
-221.4344779999999
 20
-703.344274
 30
0.0
 11
-221.4344779999999
 21
-706.2335619999999
 31
0.0
  0
ARC
  5
833
  8
DATA
  6
CONTINUOUS
 62
     7
 10
-217.1772259999999
 20
-706.272514
 30
0.0
 40
1.256271887236093
 50
269.7118487927498
 51
1.775987005693651
  0
ARC
  5
834
  8
DATA
  6
CONTINUOUS
 62
     7
 10
-217.1898799999999
 20
-706.272514
 30
0.0
 40
1.256265463427216
 50
178.224012994317
 51
270.2881512072495
  0
ARC
  5
835
  8
DATA
  6
CONTINUOUS
 62
     7
 10
-219.3366859999999
 20
-706.131808
 30
0.0
 40
2.100240374717153
 50
182.7769954499913
 51
207.3596066671465
  0
CIRCLE
  5
836
  8
DATA
  6
CONTINUOUS
 62
     7
 10
-219.6909259999999
 20
-699.890416
 30
0.0
 40
1.710323999999986
  0
LINE
  5
837
  8
DATA
  6
CONTINUOUS
 62
     7
 10
-190.4824699999999
 20
-708.9900279999999
 30
0.0
 11
-199.4824699999999
 21
-708.9900279999999
 31
0.0
  0
LINE
  5
838
  8
DATA
  6
CONTINUOUS
 62
     7
 10
-190.4824699999999
 20
-708.9900279999999
 30
0.0
 11
-190.4824699999999
 21
-703.3442560000001
 31
0.0
  0
LINE
  5
839
  8
DATA
  6
CONTINUOUS
 62
     7
 10
-190.4824699999999
 20
-703.344274
 30
0.0
 11
-193.5045979999999
 21
-703.344274
 31
0.0
  0
LINE
  5
83A
  8
DATA
  6
CONTINUOUS
 62
     7
 10
-193.5045979999999
 20
-703.344274
 30
0.0
 11
-193.5045979999999
 21
-706.2335619999999
 31
0.0
  0
LINE
  5
83B
  8
DATA
  6
CONTINUOUS
 62
     7
 10
-210.8735899999999
 20
-708.9900279999999
 30
0.0
 11
-204.5636539999999
 21
-708.99001
 31
0.0
  0
LINE
  5
83C
  8
DATA
  6
CONTINUOUS
 62
     7
 10
-207.8514619999999
 20
-707.2963
 30
0.0
 11
-206.2241539999999
 21
-707.2963
 31
0.0
  0
LINE
  5
83D
  8
DATA
  6
CONTINUOUS
 62
     7
 10
-207.8514439999999
 20
-707.2963
 30
0.0
 11
-207.8514439999999
 21
-700.1892879999999
 31
0.0
  0
LINE
  5
83E
  8
DATA
  6
CONTINUOUS
 62
     7
 10
-207.8514619999999
 20
-700.1892879999999
 30
0.0
 11
-206.2241539999999
 21
-700.1892879999999
 31
0.0
  0
LINE
  5
83F
  8
DATA
  6
CONTINUOUS
 62
     7
 10
-204.5636539999999
 20
-706.4992599999999
 30
0.0
 11
-204.5636539999999
 21
-700.986328
 31
0.0
  0
ARC
  5
840
  8
DATA
  6
CONTINUOUS
 62
     7
 10
-214.6983199999999
 20
-706.131808
 30
0.0
 40
2.100237386157081
 50
332.6403933328524
 51
357.2230045500036
  0
ARC
  5
841
  8
DATA
  6
CONTINUOUS
 62
     7
 10
-194.7602779999999
 20
-706.272514
 30
0.0
 40
1.256271887236093
 50
269.7118487927511
 51
1.775987005693708
  0
ARC
  5
842
  8
DATA
  6
CONTINUOUS
 62
     7
 10
-194.7729139999999
 20
-706.272514
 30
0.0
 40
1.256265463427187
 50
178.224012994317
 51
270.2881512072508
  0
LINE
  5
843
  8
DATA
  6
CONTINUOUS
 62
     7
 10
-201.3754579999999
 20
-706.1007219999999
 30
0.0
 11
-201.3754579999999
 21
-701.318446
 31
0.0
  0
LINE
  5
844
  8
DATA
  6
CONTINUOUS
 62
     7
 10
-207.8514619999999
 20
-698.462368
 30
0.0
 11
-206.2241539999999
 21
-698.462368
 31
0.0
  0
LINE
  5
845
  8
DATA
  6
CONTINUOUS
 62
     7
 10
-215.9215639999999
 20
-690.9900459999999
 30
0.0
 11
-212.6005279999999
 21
-690.9900459999999
 31
0.0
  0
LINE
  5
846
  8
DATA
  6
CONTINUOUS
 62
     7
 10
-222.5304259999999
 20
-690.9900459999999
 30
0.0
 11
-217.1835619999999
 21
-690.9900459999999
 31
0.0
  0
LINE
  5
847
  8
DATA
  6
CONTINUOUS
 62
     7
 10
-199.4824699999999
 20
-690.9900459999999
 30
0.0
 11
-196.0285939999999
 21
-690.9900459999999
 31
0.0
  0
LINE
  5
848
  8
DATA
  6
CONTINUOUS
 62
     7
 10
-210.8735899999999
 20
-690.9900459999999
 30
0.0
 11
-204.5289677693359
 21
-690.9900605687328
 31
0.0
  0
LINE
  5
849
  8
DATA
  6
CONTINUOUS
 62
     7
 10
-207.8514619999999
 20
-692.683774
 30
0.0
 11
-206.2241539999999
 21
-692.683774
 31
0.0
  0
ARC
  5
84A
  8
DATA
  6
CONTINUOUS
 62
     7
 10
-206.2049381673141
 20
-704.1396616709435
 30
0.0
 40
3.156696816087075
 50
269.6512199376174
 51
282.8264828068734
  0
ARC
  5
84B
  8
DATA
  6
CONTINUOUS
 62
     7
 10
-205.8503911505599
 20
-705.4742505602088
 30
0.0
 40
1.777388226647753
 50
281.2331036226607
 51
306.862008894063
  0
ARC
  5
84C
  8
DATA
  6
CONTINUOUS
 62
     7
 10
-205.1345935455681
 20
-701.0436472813705
 30
0.0
 40
0.5738096066731946
 50
5.732980710609235
 51
52.35809750242272
  0
ARC
  5
84D
  8
DATA
  6
CONTINUOUS
 62
     7
 10
-206.2049381673141
 20
-703.3459263290566
 30
0.0
 40
3.156696816087168
 50
77.17351719312654
 51
90.34878006238259
  0
ARC
  5
84E
  8
DATA
  6
CONTINUOUS
 62
     7
 10
-205.8503911505599
 20
-702.0113374397912
 30
0.0
 40
1.777388226647763
 50
53.13799110593696
 51
78.76689637733938
  0
ARC
  5
84F
  8
DATA
  6
CONTINUOUS
 62
     7
 10
-203.1172819999999
 20
-701.4361839999999
 30
0.0
 40
1.745798695044766
 50
3.867006359819253
 51
88.36163456789683
  0
ARC
  5
850
  8
DATA
  6
CONTINUOUS
 62
     7
 10
-203.1188839999999
 20
-697.944328
 30
0.0
 40
1.747533491905623
 50
271.6892821046491
 51
356.0782829826578
  0
ARC
  5
851
  8
DATA
  6
CONTINUOUS
 62
     7
 10
-205.1345935455681
 20
-697.6080087186294
 30
0.0
 40
0.5738096066733063
 50
307.6419024975613
 51
354.2670192893922
  0
ARC
  5
852
  8
DATA
  6
CONTINUOUS
 62
     7
 10
-206.2049381673141
 20
-695.3057296709435
 30
0.0
 40
3.156696816087075
 50
269.6512199376174
 51
282.8264828068734
  0
ARC
  5
853
  8
DATA
  6
CONTINUOUS
 62
     7
 10
-205.8503911505599
 20
-696.6403185602088
 30
0.0
 40
1.777388226647865
 50
281.2331036226599
 51
306.8620088940609
  0
ARC
  5
854
  8
DATA
  6
CONTINUOUS
 62
     7
 10
-205.1345935455681
 20
-693.5381332813705
 30
0.0
 40
0.5738096066731946
 50
5.732980710609235
 51
52.35809750243639
  0
ARC
  5
855
  8
DATA
  6
CONTINUOUS
 62
     7
 10
-206.2049381673141
 20
-695.8404123290564
 30
0.0
 40
3.156696816087168
 50
77.17351719312654
 51
90.34878006238259
  0
ARC
  5
856
  8
DATA
  6
CONTINUOUS
 62
     7
 10
-205.8503911505599
 20
-694.5058234397911
 30
0.0
 40
1.777388226647854
 50
53.13799110593915
 51
78.76689637734007
  0
POLYLINE
  5
857
  8
DATA
  6
CONTINUOUS
 62
     7
 66
     1
 10
0.0
 20
0.0
 30
0.0
 70
     1
  0
VERTEX
  5
980
  8
DATA
  6
CONTINUOUS
 62
     7
 10
-1418.000000000001
 20
-680.0
 30
0.0
  0
VERTEX
  5
981
  8
DATA
  6
CONTINUOUS
 62
     7
 10
-1370.000000000001
 20
-680.0
 30
0.0
  0
VERTEX
  5
982
  8
DATA
  6
CONTINUOUS
 62
     7
 10
-1370.000000000001
 20
-720.0
 30
0.0
  0
VERTEX
  5
983
  8
DATA
  6
CONTINUOUS
 62
     7
 10
-1418.000000000001
 20
-720.0
 30
0.0
  0
SEQEND
  5
996
  8
DATA
  6
CONTINUOUS
 62
     7
  0
ARC
  5
85E
  8
DATA
  6
CONTINUOUS
 62
     7
 10
-1404.587996000001
 20
-704.3680059999999
 30
0.0
 40
4.641936165302154
 50
264.6908562215364
 51
323.9911991542406
  0
ARC
  5
85F
  8
DATA
  6
CONTINUOUS
 62
     7
 10
-1405.447010000001
 20
-704.3680059999999
 30
0.0
 40
4.641928626504029
 50
216.0088008457574
 51
275.3091437784623
  0
ARC
  5
860
  8
DATA
  6
CONTINUOUS
 62
     7
 10
-1392.792470000001
 20
-705.572962
 30
0.0
 40
3.424700541092618
 50
273.830981609112
 51
351.1351473098021
  0
ARC
  5
861
  8
DATA
  6
CONTINUOUS
 62
     7
 10
-1392.758324000001
 20
-694.401874
 30
0.0
 40
3.419513879240602
 50
8.226923859014889
 51
86.15412669215209
  0
ARC
  5
862
  8
DATA
  6
CONTINUOUS
 62
     7
 10
-1393.134593545569
 20
-706.4419407186296
 30
0.0
 40
0.5738096066732162
 50
307.6419024975681
 51
354.2670192894009
  0
LINE
  5
863
  8
DATA
  6
CONTINUOUS
 62
     7
 10
-1407.873590000001
 20
-697.3996299999999
 30
0.0
 11
-1405.183562000001
 21
-690.9900459999999
 31
0.0
  0
LINE
  5
864
  8
DATA
  6
CONTINUOUS
 62
     7
 10
-1407.873590000001
 20
-697.3996299999999
 30
0.0
 11
-1410.530426
 21
-690.9900459999999
 31
0.0
  0
LINE
  5
865
  8
DATA
  6
CONTINUOUS
 62
     7
 10
-1387.482470000001
 20
-708.9900459999999
 30
0.0
 11
-1387.482470000001
 21
-690.9900459999999
 31
0.0
  0
LINE
  5
866
  8
DATA
  6
CONTINUOUS
 62
     7
 10
-1384.028594000001
 20
-690.9900459999999
 30
0.0
 11
-1384.028594000001
 21
-706.233598
 31
0.0
  0
LINE
  5
867
  8
DATA
  6
CONTINUOUS
 62
     7
 10
-1403.921564000001
 20
-690.9900459999999
 30
0.0
 11
-1403.921564000001
 21
-706.233598
 31
0.0
  0
LINE
  5
868
  8
DATA
  6
CONTINUOUS
 62
     7
 10
-1400.600528000001
 20
-690.9900459999999
 30
0.0
 11
-1400.600528000001
 21
-706.233598
 31
0.0
  0
LINE
  5
869
  8
DATA
  6
CONTINUOUS
 62
     7
 10
-1398.873590000001
 20
-690.9900459999999
 30
0.0
 11
-1398.873590000001
 21
-708.9900459999999
 31
0.0
  0
LINE
  5
86A
  8
DATA
  6
CONTINUOUS
 62
     7
 10
-1395.851444000001
 20
-692.683756
 30
0.0
 11
-1395.851444000001
 21
-698.462368
 31
0.0
  0
LINE
  5
86B
  8
DATA
  6
CONTINUOUS
 62
     7
 10
-1389.374000000001
 20
-698.128
 30
0.0
 11
-1389.374000000001
 21
-693.9125620000001
 31
0.0
  0
LINE
  5
86C
  8
DATA
  6
CONTINUOUS
 62
     7
 10
-1392.563654000001
 20
-693.480814
 30
0.0
 11
-1392.563654000001
 21
-697.6653279999999
 31
0.0
  0
LINE
  5
86D
  8
DATA
  6
CONTINUOUS
 62
     7
 10
-1406.445542000001
 20
-703.344274
 30
0.0
 11
-1406.445542000001
 21
-706.2335619999999
 31
0.0
  0
LINE
  5
86E
  8
DATA
  6
CONTINUOUS
 62
     7
 10
-1406.445542000001
 20
-703.344274
 30
0.0
 11
-1409.434478000001
 21
-703.344274
 31
0.0
  0
LINE
  5
86F
  8
DATA
  6
CONTINUOUS
 62
     7
 10
-1409.434478000001
 20
-703.344274
 30
0.0
 11
-1409.434478000001
 21
-706.2335619999999
 31
0.0
  0
ARC
  5
870
  8
DATA
  6
CONTINUOUS
 62
     7
 10
-1405.177226
 20
-706.272514
 30
0.0
 40
1.256271887236093
 50
269.711848792742
 51
1.775987005693935
  0
ARC
  5
871
  8
DATA
  6
CONTINUOUS
 62
     7
 10
-1405.189880000001
 20
-706.272514
 30
0.0
 40
1.256265463427244
 50
178.2240129943171
 51
270.2881512072482
  0
ARC
  5
872
  8
DATA
  6
CONTINUOUS
 62
     7
 10
-1407.336686000001
 20
-706.131808
 30
0.0
 40
2.10024037471721
 50
182.7769954499913
 51
207.3596066671465
  0
CIRCLE
  5
873
  8
DATA
  6
CONTINUOUS
 62
     7
 10
-1407.690926000001
 20
-699.890416
 30
0.0
 40
1.710324000000128
  0
LINE
  5
874
  8
DATA
  6
CONTINUOUS
 62
     7
 10
-1378.482470000001
 20
-708.9900279999999
 30
0.0
 11
-1387.482470000001
 21
-708.9900279999999
 31
0.0
  0
LINE
  5
875
  8
DATA
  6
CONTINUOUS
 62
     7
 10
-1378.482470000001
 20
-708.9900279999999
 30
0.0
 11
-1378.482470000001
 21
-703.3442560000001
 31
0.0
  0
LINE
  5
876
  8
DATA
  6
CONTINUOUS
 62
     7
 10
-1378.482470000001
 20
-703.344274
 30
0.0
 11
-1381.504598000001
 21
-703.344274
 31
0.0
  0
LINE
  5
877
  8
DATA
  6
CONTINUOUS
 62
     7
 10
-1381.504598000001
 20
-703.344274
 30
0.0
 11
-1381.504598000001
 21
-706.2335619999999
 31
0.0
  0
LINE
  5
878
  8
DATA
  6
CONTINUOUS
 62
     7
 10
-1398.873590000001
 20
-708.9900279999999
 30
0.0
 11
-1392.563654000001
 21
-708.99001
 31
0.0
  0
LINE
  5
879
  8
DATA
  6
CONTINUOUS
 62
     7
 10
-1395.851462000001
 20
-707.2963
 30
0.0
 11
-1394.224154000001
 21
-707.2963
 31
0.0
  0
LINE
  5
87A
  8
DATA
  6
CONTINUOUS
 62
     7
 10
-1395.851444000001
 20
-707.2963
 30
0.0
 11
-1395.851444000001
 21
-700.1892879999999
 31
0.0
  0
LINE
  5
87B
  8
DATA
  6
CONTINUOUS
 62
     7
 10
-1395.851462000001
 20
-700.1892879999999
 30
0.0
 11
-1394.224154000001
 21
-700.1892879999999
 31
0.0
  0
LINE
  5
87C
  8
DATA
  6
CONTINUOUS
 62
     7
 10
-1392.563654000001
 20
-706.4992599999999
 30
0.0
 11
-1392.563654000001
 21
-700.986328
 31
0.0
  0
ARC
  5
87D
  8
DATA
  6
CONTINUOUS
 62
     7
 10
-1402.698320000001
 20
-706.131808
 30
0.0
 40
2.100237386157006
 50
332.6403933328513
 51
357.2230045500036
  0
ARC
  5
87E
  8
DATA
  6
CONTINUOUS
 62
     7
 10
-1382.760278000001
 20
-706.272514
 30
0.0
 40
1.256271887236092
 50
269.7118487927523
 51
1.775987005693651
  0
ARC
  5
87F
  8
DATA
  6
CONTINUOUS
 62
     7
 10
-1382.772914000001
 20
-706.272514
 30
0.0
 40
1.256265463427244
 50
178.2240129943171
 51
270.2881512072482
  0
LINE
  5
880
  8
DATA
  6
CONTINUOUS
 62
     7
 10
-1389.375458000001
 20
-706.1007219999999
 30
0.0
 11
-1389.375458000001
 21
-701.318446
 31
0.0
  0
LINE
  5
881
  8
DATA
  6
CONTINUOUS
 62
     7
 10
-1395.851462000001
 20
-698.462368
 30
0.0
 11
-1394.224154000001
 21
-698.462368
 31
0.0
  0
LINE
  5
882
  8
DATA
  6
CONTINUOUS
 62
     7
 10
-1403.921564000001
 20
-690.9900459999999
 30
0.0
 11
-1400.600528000001
 21
-690.9900459999999
 31
0.0
  0
LINE
  5
883
  8
DATA
  6
CONTINUOUS
 62
     7
 10
-1410.530426
 20
-690.9900459999999
 30
0.0
 11
-1405.183562000001
 21
-690.9900459999999
 31
0.0
  0
LINE
  5
884
  8
DATA
  6
CONTINUOUS
 62
     7
 10
-1387.482470000001
 20
-690.9900459999999
 30
0.0
 11
-1384.028594000001
 21
-690.9900459999999
 31
0.0
  0
LINE
  5
885
  8
DATA
  6
CONTINUOUS
 62
     7
 10
-1398.873590000001
 20
-690.9900459999999
 30
0.0
 11
-1392.528967769337
 21
-690.9900605687328
 31
0.0
  0
LINE
  5
886
  8
DATA
  6
CONTINUOUS
 62
     7
 10
-1395.851462000001
 20
-692.683774
 30
0.0
 11
-1394.224154000001
 21
-692.683774
 31
0.0
  0
ARC
  5
887
  8
DATA
  6
CONTINUOUS
 62
     7
 10
-1394.204938167315
 20
-704.1396616709435
 30
0.0
 40
3.156696816087075
 50
269.6512199376164
 51
282.8264828068729
  0
ARC
  5
888
  8
DATA
  6
CONTINUOUS
 62
     7
 10
-1393.850391150561
 20
-705.4742505602088
 30
0.0
 40
1.777388226647748
 50
281.2331036226598
 51
306.8620088940645
  0
ARC
  5
889
  8
DATA
  6
CONTINUOUS
 62
     7
 10
-1393.134593545569
 20
-701.0436472813705
 30
0.0
 40
0.5738096066730816
 50
5.732980710610369
 51
52.35809750242498
  0
ARC
  5
88A
  8
DATA
  6
CONTINUOUS
 62
     7
 10
-1394.204938167315
 20
-703.3459263290566
 30
0.0
 40
3.156696816087155
 50
77.17351719312755
 51
90.34878006238361
  0
ARC
  5
88B
  8
DATA
  6
CONTINUOUS
 62
     7
 10
-1393.850391150561
 20
-702.0113374397912
 30
0.0
 40
1.777388226647797
 50
53.13799110593549
 51
78.76689637734027
  0
ARC
  5
88C
  8
DATA
  6
CONTINUOUS
 62
     7
 10
-1391.117282000001
 20
-701.4361839999999
 30
0.0
 40
1.74579869504471
 50
3.867006359819379
 51
88.36163456789498
  0
ARC
  5
88D
  8
DATA
  6
CONTINUOUS
 62
     7
 10
-1391.118884000001
 20
-697.944328
 30
0.0
 40
1.747533491905622
 50
271.6892821046482
 51
356.0782829826579
  0
ARC
  5
88E
  8
DATA
  6
CONTINUOUS
 62
     7
 10
-1393.134593545569
 20
-697.6080087186294
 30
0.0
 40
0.5738096066733063
 50
307.6419024975613
 51
354.2670192893919
  0
ARC
  5
88F
  8
DATA
  6
CONTINUOUS
 62
     7
 10
-1394.204938167315
 20
-695.3057296709435
 30
0.0
 40
3.156696816087075
 50
269.6512199376164
 51
282.8264828068729
  0
ARC
  5
890
  8
DATA
  6
CONTINUOUS
 62
     7
 10
-1393.850391150561
 20
-696.6403185602088
 30
0.0
 40
1.777388226647859
 50
281.233103622659
 51
306.8620088940623
  0
ARC
  5
891
  8
DATA
  6
CONTINUOUS
 62
     7
 10
-1393.134593545569
 20
-693.5381332813705
 30
0.0
 40
0.5738096066730816
 50
5.732980710610369
 51
52.35809750243191
  0
ARC
  5
892
  8
DATA
  6
CONTINUOUS
 62
     7
 10
-1394.204938167315
 20
-695.8404123290564
 30
0.0
 40
3.156696816087155
 50
77.17351719312755
 51
90.34878006238363
  0
ARC
  5
893
  8
DATA
  6
CONTINUOUS
 62
     7
 10
-1393.850391150561
 20
-694.5058234397911
 30
0.0
 40
1.777388226647888
 50
53.13799110593769
 51
78.76689637734098
  0
LINE
  5
894
  8
DATA
  6
CONTINUOUS
 62
     7
 10
-816.1000000000003
 20
-883.9
 30
0.0
 11
-813.1000000000003
 21
-883.9
 31
0.0
  0
LINE
  5
895
  8
DATA
  6
CONTINUOUS
 62
     7
 10
-814.6000000000003
 20
-882.4
 30
0.0
 11
-814.6000000000003
 21
-885.4
 31
0.0
  0
CIRCLE
  5
896
  8
DATA
  6
CONTINUOUS
 62
     7
 10
-785.4000000000002
 20
-883.9
 30
0.0
 40
3.0
  0
LINE
  5
897
  8
DATA
  6
CONTINUOUS
 62
     7
 10
-783.9000000000002
 20
-883.9
 30
0.0
 11
-786.9000000000002
 21
-883.9
 31
0.0
  0
LINE
  5
898
  8
DATA
  6
CONTINUOUS
 62
     7
 10
-785.4000000000002
 20
-882.4
 30
0.0
 11
-785.4000000000002
 21
-885.4
 31
0.0
  0
CIRCLE
  5
899
  8
DATA
  6
CONTINUOUS
 62
     7
 10
-814.6000000000003
 20
-913.1
 30
0.0
 40
3.0
  0
LINE
  5
89A
  8
DATA
  6
CONTINUOUS
 62
     7
 10
-816.1000000000003
 20
-913.1
 30
0.0
 11
-813.1000000000003
 21
-913.1
 31
0.0
  0
LINE
  5
89B
  8
DATA
  6
CONTINUOUS
 62
     7
 10
-814.6000000000003
 20
-914.6
 30
0.0
 11
-814.6000000000003
 21
-911.6
 31
0.0
  0
CIRCLE
  5
89C
  8
DATA
  6
CONTINUOUS
 62
     7
 10
-785.4000000000002
 20
-913.1
 30
0.0
 40
3.0
  0
LINE
  5
89D
  8
DATA
  6
CONTINUOUS
 62
     7
 10
-783.9000000000002
 20
-913.1
 30
0.0
 11
-786.9000000000002
 21
-913.1
 31
0.0
  0
LINE
  5
89E
  8
DATA
  6
CONTINUOUS
 62
     7
 10
-785.4000000000002
 20
-914.6
 30
0.0
 11
-785.4000000000002
 21
-911.6
 31
0.0
  0
ENDSEC
  0
EOF
