  0
SECTION
  2
HEADER
  9
$ACADVER
  1
AC1009
  9
$INSBASE
 10
0.0
 20
0.0
 30
0.0
  9
$EXTMIN
 10
-444.7935243309289
 20
-688.10956819777812
 30
-0.0015258207003583
  9
$EXTMAX
 10
455.2614073097597
 20
650.04075378504137
 30
0.0000000349246037
  9
$LIMMIN
 10
0.0
 20
0.0
  9
$LIMMAX
 10
0.0
 20
0.0
  9
$ORTHOMODE
 70
     0
  9
$REGENMODE
 70
     1
  9
$FILLMODE
 70
     1
  9
$QTEXTMODE
 70
     0
  9
$MIRRTEXT
 70
     1
  9
$DRAGMODE
 70
     2
  9
$LTSCALE
 40
25.399999999999999
  9
$OSMODE
 70
   231
  9
$ATTMODE
 70
     1
  9
$TEXTSIZE
 40
0.0
  9
$TRACEWID
 40
1.0
  9
$TEXTSTYLE
  7
STANDARD
  9
$CLAYER
  8
DATA
  9
$CELTYPE
  6
BYLAYER
  9
$CECOLOR
 62
   256
  9
$DIMSCALE
 40
1.0
  9
$DIMASZ
 40
0.18
  9
$DIMEXO
 40
0.0625
  9
$DIMDLI
 40
0.38
  9
$DIMRND
 40
0.0
  9
$DIMDLE
 40
0.0
  9
$DIMEXE
 40
0.18
  9
$DIMTP
 40
0.0
  9
$DIMTM
 40
0.0
  9
$DIMTXT
 40
0.18
  9
$DIMCEN
 40
0.09
  9
$DIMTSZ
 40
0.0
  9
$DIMTOL
 70
     0
  9
$DIMLIM
 70
     0
  9
$DIMTIH
 70
     1
  9
$DIMTOH
 70
     1
  9
$DIMSE1
 70
     0
  9
$DIMSE2
 70
     0
  9
$DIMTAD
 70
     0
  9
$DIMZIN
 70
     0
  9
$DIMBLK
  1

  9
$DIMASO
 70
     1
  9
$DIMSHO
 70
     1
  9
$DIMPOST
  1

  9
$DIMAPOST
  1

  9
$DIMALT
 70
     0
  9
$DIMALTD
 70
     2
  9
$DIMALTF
 40
25.399999999999999
  9
$DIMLFAC
 40
1.0
  9
$DIMTOFL
 70
     0
  9
$DIMTVP
 40
0.0
  9
$DIMTIX
 70
     0
  9
$DIMSOXD
 70
     0
  9
$DIMSAH
 70
     0
  9
$DIMBLK1
  1

  9
$DIMBLK2
  1

  9
$DIMSTYLE
  2
STANDARD
  9
$DIMCLRD
 70
     0
  9
$DIMCLRE
 70
     0
  9
$DIMCLRT
 70
     0
  9
$DIMTFAC
 40
1.0
  9
$DIMGAP
 40
0.09
  9
$LUNITS
 70
     2
  9
$LUPREC
 70
     4
  9
$SKETCHINC
 40
0.1
  9
$FILLETRAD
 40
0.0
  9
$AUNITS
 70
     0
  9
$AUPREC
 70
     0
  9
$MENU
  1
acad
  9
$ELEVATION
 40
0.0
  9
$PELEVATION
 40
0.0
  9
$THICKNESS
 40
0.0
  9
$LIMCHECK
 70
     0
  9
$BLIPMODE
 70
     0
  9
$CHAMFERA
 40
0.0
  9
$CHAMFERB
 40
0.0
  9
$SKPOLY
 70
     0
  9
$TDCREATE
 40
2455475.6097916672
  9
$TDUPDATE
 40
2455475.615364294
  9
$TDINDWG
 40
0.0006260764
  9
$TDUSRTIMER
 40
0.0006260764
  9
$USRTIMER
 70
     1
  9
$ANGBASE
 50
0.0
  9
$ANGDIR
 70
     0
  9
$PDMODE
 70
     1
  9
$PDSIZE
 40
-2.0
  9
$PLINEWID
 40
0.0
  9
$COORDS
 70
     0
  9
$SPLFRAME
 70
     0
  9
$SPLINETYPE
 70
     6
  9
$SPLINESEGS
 70
     8
  9
$ATTDIA
 70
     0
  9
$ATTREQ
 70
     1
  9
$HANDLING
 70
     1
  9
$HANDSEED
  5
E39
  9
$SURFTAB1
 70
     6
  9
$SURFTAB2
 70
     6
  9
$SURFTYPE
 70
     6
  9
$SURFU
 70
     6
  9
$SURFV
 70
     6
  9
$UCSNAME
  2

  9
$UCSORG
 10
0.0
 20
0.0
 30
0.0
  9
$UCSXDIR
 10
1.0
 20
0.0
 30
0.0
  9
$UCSYDIR
 10
0.0
 20
1.0
 30
0.0
  9
$PUCSNAME
  2

  9
$PUCSORG
 10
0.0
 20
0.0
 30
0.0
  9
$PUCSXDIR
 10
1.0
 20
0.0
 30
0.0
  9
$PUCSYDIR
 10
0.0
 20
1.0
 30
0.0
  9
$USERI1
 70
     0
  9
$USERI2
 70
     0
  9
$USERI3
 70
     0
  9
$USERI4
 70
     0
  9
$USERI5
 70
     0
  9
$USERR1
 40
0.0
  9
$USERR2
 40
0.0
  9
$USERR3
 40
0.0
  9
$USERR4
 40
0.0
  9
$USERR5
 40
0.0
  9
$WORLDVIEW
 70
     1
  9
$SHADEDGE
 70
     3
  9
$SHADEDIF
 70
    70
  9
$TILEMODE
 70
     1
  9
$MAXACTVP
 70
    64
  9
$PLIMCHECK
 70
     0
  9
$PEXTMIN
 10
1.0000000000000000E+020
 20
1.0000000000000000E+020
 30
1.0000000000000000E+020
  9
$PEXTMAX
 10
-1.0000000000000000E+020
 20
-1.0000000000000000E+020
 30
-1.0000000000000000E+020
  9
$PLIMMIN
 10
0.0
 20
0.0
  9
$PLIMMAX
 10
12.0
 20
9.0
  9
$UNITMODE
 70
     0
  9
$VISRETAIN
 70
     0
  9
$PLINEGEN
 70
     1
  9
$PSLTSCALE
 70
     0
  0
ENDSEC
  0
SECTION
  2
TABLES
  0
TABLE
  2
VPORT
 70
     1
  0
VPORT
  2
*ACTIVE
 70
     0
 10
0.0
 20
0.0
 11
1.0
 21
1.0
 12
5.2339414894154279
 22
-19.034407206368311
 13
0.0
 23
0.0
 14
1.0
 24
1.0
 15
0.0
 25
0.0
 16
0.0
 26
0.0
 36
1.0
 17
0.0
 27
0.0
 37
0.0
 40
1348.00173539619
 41
1.9619164619164611
 42
50.0
 43
0.0
 44
0.0
 50
0.0
 51
0.0
 71
     0
 72
  2000
 73
     1
 74
     1
 75
     0
 76
     0
 77
     0
 78
     0
  0
ENDTAB
  0
TABLE
  2
LTYPE
 70
    11
  0
LTYPE
  2
CONTINUOUS
 70
     0
  3
Solid line
 72
    65
 73
     0
 40
0.0
  0
ENDTAB
  0
TABLE
  2
LAYER
 70
     5
  0
LAYER
  2
0
 70
     0
 62
     7
  6
CONTINUOUS
  0
LAYER
  2
DATA
 70
     0
 62
     7
  6
CONTINUOUS
  0
LAYER
  2
HIBINO-BASE
 70
     0
 62
     7
  6
CONTINUOUS
  0
LAYER
  2
SPEC
 70
     0
 62
     7
  6
CONTINUOUS
  0
LAYER
  2
DIMNSIONS
 70
     0
 62
     7
  6
CONTINUOUS
  0
ENDTAB
  0
TABLE
  2
STYLE
 70
     3
  0
STYLE
  2
STANDARD
 70
     0
 40
0.0
 41
1.0
 50
0.0
 71
     0
 42
0.0
  3
txt
  4
BIGFONT.SHX
  0
ENDTAB
  0
TABLE
  2
VIEW
 70
     0
  0
ENDTAB
  0
TABLE
  2
UCS
 70
     0
  0
ENDTAB
  0
TABLE
  2
APPID
 70
     3
  0
APPID
  2
ACAD
 70
     0
  0
APPID
  2
ACADANNOTATIVE
 70
     0
  0
APPID
  2
ACAD_MLEADERVER
 70
     0
  0
ENDTAB
  0
TABLE
  2
DIMSTYLE
 70
     2
  0
DIMSTYLE
  2
STANDARD
 70
     0
  3

  4

  5

  6

  7

 40
1.0
 41
0.18
 42
0.0625
 43
0.38
 44
0.18
 45
0.0
 46
0.0
 47
0.0
 48
0.0
140
0.18
141
0.09
142
0.0
143
25.399999999999999
144
1.0
145
0.0
146
1.0
147
0.09
 71
     0
 72
     0
 73
     1
 74
     1
 75
     0
 76
     0
 77
     0
 78
     0
170
     0
171
     2
172
     0
173
     0
174
     0
175
     0
176
     0
177
     0
178
     0
  0
ENDTAB
  0
ENDSEC
  0
SECTION
  2
BLOCKS
  0
BLOCK
  8
0
  2
$MODEL_SPACE
 70
     0
 10
0.0
 20
0.0
 30
0.0
  3
$MODEL_SPACE
  1

  0
ENDBLK
  5
7BA
  8
0
  0
BLOCK
 67
     1
  8
0
  2
$PAPER_SPACE
 70
     0
 10
0.0
 20
0.0
 30
0.0
  3
$PAPER_SPACE
  1

  0
ENDBLK
  5
7B6
 67
     1
  8
0
  0
BLOCK
  8
DATA
  2
RACK___
 70
     0
 10
0.0
 20
0.0
 30
0.0
  3
RACK___
  1

  0
ARC
  5
2E
  8
0
  6
CONTINUOUS
 62
     7
 10
-2.2999999999998968
 20
0.0
 30
0.0
 40
3.1999999999999882
 50
90.000000000002018
 51
269.99999999999801
  0
ARC
  5
2F
  8
0
  6
CONTINUOUS
 62
     7
 10
2.2999999999999541
 20
-0.0000000000000568
 30
0.0
 40
3.1999999999999882
 50
270.0
 51
90.0
  0
LINE
  5
30
  8
0
  6
CONTINUOUS
 62
     7
 10
2.2999999999999541
 20
3.1999999999999882
 30
0.0
 11
-2.3500000000000218
 21
3.1999999999999882
 31
0.0
  0
LINE
  5
31
  8
0
  6
CONTINUOUS
 62
     7
 10
-2.3000000000000109
 20
-3.200000000000045
 30
0.0
 11
2.2999999999999541
 21
-3.200000000000045
 31
0.0
  0
ENDBLK
  5
32
  8
DATA
  0
ENDSEC
  0
SECTION
  2
ENTITIES
  0
LINE
  5
33
  8
HIBINO-BASE
  6
CONTINUOUS
 62
     7
 10
-444.76606060606048
 20
650.0
 30
0.0
 11
455.23393939393929
 21
650.0
 31
0.0
  0
LINE
  5
34
  8
HIBINO-BASE
  6
CONTINUOUS
 62
     7
 10
455.23393939393929
 20
-650.0
 30
0.0
 11
-444.76606060606048
 21
-650.0
 31
0.0
  0
LINE
  5
35
  8
HIBINO-BASE
  6
CONTINUOUS
 62
     7
 10
-444.76606060606048
 20
-650.0
 30
0.0
 11
-444.76606060606048
 21
650.0
 31
0.0
  0
TEXT
  5
36
  8
HIBINO-BASE
 62
     7
 10
-408.84606060606041
 20
-682.04338899999993
 30
0.0
 40
18.00022089843749
  1
Hibino Corporation
 41
0.7
 11
-408.84606060606041
 21
-664.04316810156229
 31
0.0
 73
     3
  0
LINE
  5
37
  8
HIBINO-BASE
  6
CONTINUOUS
 62
     7
 10
455.23393939393929
 20
650.0
 30
0.0
 11
455.23393939393929
 21
-650.0
 31
0.0
  0
LINE
  5
38
  8
HIBINO-BASE
  6
CONTINUOUS
 62
     7
 10
5.2339393939393926
 20
-537.49999999999989
 30
0.0
 11
455.23393939393929
 21
-537.49999999999989
 31
0.0
  0
LINE
  5
39
  8
HIBINO-BASE
  6
CONTINUOUS
 62
     7
 10
5.2339393939393926
 20
-650.0
 30
0.0
 11
5.2339393939393926
 21
-537.49999999999989
 31
0.0
  0
TEXT
  5
3A
  8
HIBINO-BASE
 62
     7
 10
9.7339393939393943
 20
-550.04346666666652
 30
0.0
 40
8.1442057291666661
  1
NOTE
 41
0.7
 11
9.7339393939393943
 21
-541.89926093749978
 31
0.0
 73
     3
  0
LINE
  5
3B
  8
HIBINO-BASE
  6
CONTINUOUS
 62
     7
 10
180.23393939393941
 20
-650.0
 30
0.0
 11
180.23393939393941
 21
-537.49999999999989
 31
0.0
  0
TEXT
  5
3C
  8
HIBINO-BASE
 62
     7
 10
184.73393939393941
 20
-550.04346666666652
 30
0.0
 40
8.1442057291666661
  1
TITLE
 41
0.7
 11
184.73393939393941
 21
-541.89926093749978
 31
0.0
 73
     3
  0
TEXT
  5
3D
  8
HIBINO-BASE
 62
     7
 10
255.57588939393929
 20
-682.04338899999993
 30
0.0
 40
18.00022089843749
  1
ヒビノ株式会社
 41
0.7
 11
255.57588939393929
 21
-664.04316810156229
 31
0.0
 73
     3
  0
LINE
  5
3E
  8
HIBINO-BASE
  6
CONTINUOUS
 62
     7
 10
5.2339393939393926
 20
-599.99999999999989
 30
0.0
 11
455.23393939393929
 21
-599.99999999999989
 31
0.0
  0
TEXT
  5
3F
  8
HIBINO-BASE
 62
     7
 10
247.23393939393941
 20
-612.26186666666649
 30
0.0
 40
8.1442057291666661
  1
DRAWN
 41
0.7
 11
247.23393939393941
 21
-604.11766093749975
 31
0.0
 73
     3
  0
TEXT
  5
40
  8
HIBINO-BASE
 62
     7
 10
122.23393939393939
 20
-612.26186666666649
 30
0.0
 40
8.1442057291666661
  1
DATE
 41
0.7
 11
122.23393939393939
 21
-604.11766093749975
 31
0.0
 73
     3
  0
TEXT
  5
41
  8
HIBINO-BASE
 62
     7
 10
72.233939393939394
 20
-612.26186666666649
 30
0.0
 40
8.1442057291666661
  1
SCALE
 41
0.7
 11
72.233939393939394
 21
-604.11766093749975
 31
0.0
 73
     3
  0
TEXT
  5
42
  8
HIBINO-BASE
 62
     7
 10
184.73393939393941
 20
-612.26186666666649
 30
0.0
 40
8.1442057291666661
  1
DESIGN
 41
0.7
 11
184.73393939393941
 21
-604.11766093749975
 31
0.0
 73
     3
  0
TEXT
  5
43
  8
HIBINO-BASE
 62
     7
 10
372.23393939393929
 20
-612.26186666666649
 30
0.0
 40
8.1442057291666661
  1
DRAWING NO.
 41
0.7
 11
372.23393939393929
 21
-604.11766093749975
 31
0.0
 73
     3
  0
TEXT
  5
44
  8
HIBINO-BASE
 62
     7
 10
309.73393939393929
 20
-612.26186666666649
 30
0.0
 40
8.1442057291666661
  1
CHECK
 41
0.7
 11
309.73393939393929
 21
-604.11766093749975
 31
0.0
 73
     3
  0
LINE
  5
45
  8
HIBINO-BASE
  6
CONTINUOUS
 62
     7
 10
77.108939393939366
 20
-643.75
 30
0.0
 11
95.858939393939394
 21
-624.99999999999989
 31
0.0
  0
TEXT
  5
46
  8
HIBINO-BASE
 62
     7
 10
77.394846838830588
 20
-633.52347858749306
 30
0.0
 40
9.5015733506944446
  1
1
 41
0.7
 11
77.394846838830588
 21
-624.0219052367986
 31
0.0
 73
     3
  0
LINE
  5
47
  8
HIBINO-BASE
  6
CONTINUOUS
 62
     7
 10
67.73393939393938
 20
-650.0
 30
0.0
 11
67.73393939393938
 21
-599.99999999999989
 31
0.0
  0
LINE
  5
48
  8
HIBINO-BASE
  6
CONTINUOUS
 62
     7
 10
117.73393939393939
 20
-650.0
 30
0.0
 11
117.73393939393939
 21
-599.99999999999989
 31
0.0
  0
LINE
  5
49
  8
HIBINO-BASE
  6
CONTINUOUS
 62
     7
 10
242.73393939393929
 20
-599.99999999999989
 30
0.0
 11
242.73393939393929
 21
-650.0
 31
0.0
  0
LINE
  5
4A
  8
HIBINO-BASE
  6
CONTINUOUS
 62
     7
 10
367.73393939393929
 20
-599.99999999999989
 30
0.0
 11
367.73393939393929
 21
-650.0
 31
0.0
  0
LINE
  5
4B
  8
HIBINO-BASE
  6
CONTINUOUS
 62
     7
 10
305.23393939393929
 20
-650.0
 30
0.0
 11
305.23393939393929
 21
-599.99999999999989
 31
0.0
  0
TEXT
  5
4C
  8
HIBINO-BASE
 62
     7
 10
122.0166393939394
 20
-637.19871111111115
 30
0.0
 40
9.5015733506944446
  1
'06.01.
 41
0.7
 11
122.0166393939394
 21
-627.69713776041669
 31
0.0
 73
     3
  0
TEXT
  5
4D
  8
HIBINO-BASE
 62
     7
 10
91.759394409684774
 20
-642.89847858749306
 30
0.0
 40
9.5015733506944446
  1
5
 41
0.7
 11
91.759394409684774
 21
-633.3969052367986
 31
0.0
 73
     3
  0
TEXT
  5
4E
  8
HIBINO-BASE
 62
     7
 10
24.65060606060614
 20
-640.11999999999989
 30
0.0
 40
16.288411458333329
  1
A4
 41
0.7
 11
24.65060606060614
 21
-623.83158854166652
 31
0.0
 73
     3
  0
TEXT
  5
4F
  8
HIBINO-BASE
 62
     7
 10
10.02560606060606
 20
-613.09727499999985
 30
0.0
 40
8.1442057291666661
  1
PAPER SIZE
 41
0.7
 11
10.02560606060606
 21
-604.95306927083334
 31
0.0
 73
     3
  0
TEXT
  5
50
  8
HIBINO-BASE
 62
     7
 10
-391.52586504840963
 20
-624.82703740169939
 30
0.0
 40
8.1442057291666661
  1
仕様および外観は予告なく変更されることがありますので、ご了承ください。
 41
0.7
 11
-391.52586504840963
 21
-616.68283167253276
 31
0.0
 73
     3
  0
TEXT
  5
51
  8
HIBINO-BASE
 62
     7
 10
249.04552247485219
 20
-637.45603978607414
 30
0.0
 40
9.5015733506944446
  1
T.Ohtake
 41
0.7
 11
249.04552247485219
 21
-627.95446643537969
 31
0.0
 73
     3
  0
TEXT
  5
52
  8
HIBINO-BASE
 62
     7
 10
316.09793487153229
 20
-637.44206226476035
 30
0.0
 40
9.5015733506944446
  1
Y.Ishii
 41
0.7
 11
316.09793487153229
 21
-627.9404889140659
 31
0.0
 73
     3
  0
LINE
  5
53
  8
SPEC
  6
CONTINUOUS
 62
     7
 10
-399.942780603872
 20
600.03202521605965
 30
0.0
 11
337.55721939612789
 21
600.03202521605965
 31
0.0
  0
LINE
  5
54
  8
SPEC
  6
CONTINUOUS
 62
     7
 10
-399.942780603872
 20
581.28202521605965
 30
0.0
 11
337.55721939612789
 21
581.28202521605965
 31
0.0
  0
LINE
  5
55
  8
SPEC
  6
CONTINUOUS
 62
     7
 10
-237.44278060387279
 20
506.28202521605971
 30
0.0
 11
337.55721939612789
 21
506.28202521605971
 31
0.0
  0
LINE
  5
56
  8
SPEC
  6
CONTINUOUS
 62
     7
 10
-399.942780603872
 20
525.03202521605965
 30
0.0
 11
337.55721939612789
 21
525.03202521605965
 31
0.0
  0
LINE
  5
57
  8
SPEC
  6
CONTINUOUS
 62
     7
 10
-237.44278060387279
 20
543.78202521605965
 30
0.0
 11
337.55721939612789
 21
543.78202521605965
 31
0.0
  0
LINE
  5
58
  8
SPEC
  6
CONTINUOUS
 62
     7
 10
-237.44278060387279
 20
487.53202521605971
 30
0.0
 11
337.55721939612789
 21
487.53202521605971
 31
0.0
  0
LINE
  5
59
  8
SPEC
  6
CONTINUOUS
 62
     7
 10
-237.44278060387279
 20
450.03202521605959
 30
0.0
 11
337.55721939612789
 21
450.03202521605971
 31
0.0
  0
LINE
  5
5A
  8
SPEC
  6
CONTINUOUS
 62
     7
 10
-399.942780603872
 20
468.78202521605971
 30
0.0
 11
337.55721939612789
 21
468.78202521605971
 31
0.0
  0
LINE
  5
5B
  8
SPEC
  6
CONTINUOUS
 62
     7
 10
-237.44278060387279
 20
431.28202521605959
 30
0.0
 11
337.55721939612789
 21
431.28202521605971
 31
0.0
  0
LINE
  5
5C
  8
SPEC
  6
CONTINUOUS
 62
     7
 10
-399.942780603872
 20
412.53202521605959
 30
0.0
 11
337.55721939612789
 21
412.53202521605959
 31
0.0
  0
LINE
  5
5D
  8
SPEC
  6
CONTINUOUS
 62
     7
 10
-237.44278060387279
 20
562.53202521605965
 30
0.0
 11
337.55721939612789
 21
562.53202521605965
 31
0.0
  0
LINE
  5
5E
  8
SPEC
  6
CONTINUOUS
 62
     7
 10
-399.942780603872
 20
375.03202521605971
 30
0.0
 11
337.55721939612789
 21
375.03202521605971
 31
0.0
  0
LINE
  5
5F
  8
SPEC
  6
CONTINUOUS
 62
     7
 10
-399.942780603872
 20
337.53202521605982
 30
0.0
 11
337.55721939612789
 21
337.53202521605982
 31
0.0
  0
LINE
  5
60
  8
SPEC
  6
CONTINUOUS
 62
     7
 10
-399.942780603872
 20
281.28202521605971
 30
0.0
 11
337.55721939612789
 21
281.28202521605971
 31
0.0
  0
LINE
  5
61
  8
SPEC
  6
CONTINUOUS
 62
     7
 10
-399.942780603872
 20
600.03202521605965
 30
0.0
 11
-399.942780603872
 21
281.28202521605971
 31
0.0
  0
TEXT
  5
62
  8
SPEC
 62
     7
 10
-386.437066787003
 20
606.99837521605957
 30
0.0
 40
12.21630859375
  1
仕様
 41
0.7
 11
-386.437066787003
 21
619.21468380980957
 31
0.0
 73
     3
  0
LINE
  5
63
  8
SPEC
  6
CONTINUOUS
 62
     7
 10
-237.44278060387279
 20
600.03202521605965
 30
0.0
 11
-237.44278060387279
 21
281.28202521605971
 31
0.0
  0
LINE
  5
64
  8
SPEC
  6
CONTINUOUS
 62
     7
 10
337.55721939612789
 20
600.03202521605965
 30
0.0
 11
337.55721939612789
 21
281.28202521605971
 31
0.0
  0
TEXT
  5
65
  8
SPEC
 62
     7
 10
-393.92164128821543
 20
585.87353095451601
 30
0.0
 40
9.5015733506944446
  1
形式
 41
0.7
 11
-393.92164128821543
 21
595.37510430521036
 31
0.0
 73
     3
  0
LINE
  5
66
  8
SPEC
  6
CONTINUOUS
 62
     7
 10
-237.44278060387279
 20
431.28202521605959
 30
0.0
 11
337.55721939612789
 21
431.28202521605971
 31
0.0
  0
LINE
  5
67
  8
SPEC
  6
CONTINUOUS
 62
     7
 10
-237.44278060387279
 20
431.28202521605959
 30
0.0
 11
337.55721939612789
 21
431.28202521605971
 31
0.0
  0
LINE
  5
68
  8
SPEC
  6
CONTINUOUS
 62
     7
 10
-399.942780603872
 20
393.78202521605971
 30
0.0
 11
337.55721939612789
 21
393.78202521605971
 31
0.0
  0
LINE
  5
69
  8
SPEC
  6
CONTINUOUS
 62
     7
 10
-399.942780603872
 20
356.28202521605971
 30
0.0
 11
337.55721939612789
 21
356.28202521605971
 31
0.0
  0
LINE
  5
6A
  8
SPEC
  6
CONTINUOUS
 62
     7
 10
-399.942780603872
 20
318.78202521605982
 30
0.0
 11
337.55721939612789
 21
318.78202521605982
 31
0.0
  0
LINE
  5
6B
  8
SPEC
  6
CONTINUOUS
 62
     7
 10
-399.942780603872
 20
300.03202521605982
 30
0.0
 11
337.55721939612789
 21
300.03202521605982
 31
0.0
  0
TEXT
  5
6C
  8
SPEC
 62
     7
 10
-394.26392019684778
 20
567.11434625102731
 30
0.0
 40
9.5015733506944446
  1
デジタル入出力
 41
0.7
 11
-394.26392019684778
 21
576.61591960172166
 31
0.0
 73
     3
  0
TEXT
  5
6D
  8
SPEC
 62
     7
 10
-231.49199631717181
 20
548.1298994801208
 30
0.0
 40
9.5015733506944446
  1
端子・型式 RCA,S/PDIF,24ビット
 41
0.7
 11
-231.49199631717181
 21
557.63147283081526
 31
0.0
 73
     3
  0
TEXT
  5
6E
  8
SPEC
 62
     7
 10
-231.38681299997259
 20
529.71749675051115
 30
0.0
 40
9.5015733506944446
  1
サンプリングレート 44.1kHz
 41
0.7
 11
-231.38681299997259
 21
539.21907010120572
 31
0.0
 73
     3
  0
TEXT
  5
6F
  8
SPEC
 62
     7
 10
-230.88705913744519
 20
398.50948053474468
 30
0.0
 40
9.5015733506944446
  1
24ビット,44.1kHz 内部32ビット,20ビット処理
 41
0.7
 11
-230.88705913744519
 21
408.01105388543908
 31
0.0
 73
     3
  0
TEXT
  5
70
  8
SPEC
 62
     7
 10
-393.82311541874031
 20
379.9186557227269
 30
0.0
 40
9.5015733506944446
  1
周波数特性
 41
0.7
 11
-393.82311541874031
 21
389.42022907342141
 31
0.0
 73
     3
  0
TEXT
  5
71
  8
SPEC
 62
     7
 10
-393.60630769061947
 20
360.87869126711672
 30
0.0
 40
9.5015733506944446
  1
THD＋N
 41
0.7
 11
-393.60630769061947
 21
370.38026461781118
 31
0.0
 73
     3
  0
TEXT
  5
72
  8
SPEC
 62
     7
 10
-230.9511041684907
 20
360.77912682761979
 30
0.0
 40
9.5015733506944446
  1
0.01％(20Hz～20kHz)
 41
0.7
 11
-230.9511041684907
 21
370.28070017831431
 31
0.0
 73
     3
  0
TEXT
  5
73
  8
SPEC
 62
     7
 10
-393.94008294579771
 20
323.61190538180603
 30
0.0
 40
9.5015733506944446
  1
電源
 41
0.7
 11
-393.94008294579771
 21
333.11347873250043
 31
0.0
 73
     3
  0
TEXT
  5
74
  8
SPEC
 62
     7
 10
-230.94090887455201
 20
323.11615160966932
 30
0.0
 40
9.5015733506944446
  1
AC100V,50/60Hz
 41
0.7
 11
-230.94090887455201
 21
332.61772496036372
 31
0.0
 73
     3
  0
TEXT
  5
75
  8
SPEC
 62
     7
 10
-393.80113499176002
 20
304.5175914940192
 30
0.0
 40
9.5015733506944446
  1
消費電力
 41
0.7
 11
-393.80113499176002
 21
314.01916484471371
 31
0.0
 73
     3
  0
TEXT
  5
76
  8
SPEC
 62
     7
 10
-231.25582516359461
 20
304.71390292815539
 30
0.0
 40
9.5015733506944446
  1
25W
 41
0.7
 11
-231.25582516359461
 21
314.21547627884991
 31
0.0
 73
     3
  0
TEXT
  5
77
  8
SPEC
 62
     7
 10
-393.95078886340769
 20
286.1489887913541
 30
0.0
 40
9.5015733506944446
  1
寸法　
 41
0.7
 11
-393.95078886340769
 21
295.65056214204861
 31
0.0
 73
     3
  0
TEXT
  5
78
  8
SPEC
 62
     7
 10
-231.2300382390456
 20
285.8747883604924
 30
0.0
 40
9.5015733506944446
  1
483(W)X45(H)X229(D)mm（突起部含まず）
 41
0.7
 11
-231.2300382390456
 21
295.37636171118692
 31
0.0
 73
     3
  0
TEXT
  5
79
  8
SPEC
 62
     7
 10
-231.33218777168381
 20
379.79309545952799
 30
0.0
 40
9.5015733506944446
  1
20Hz～20kHz(\U+00B11dB)
 41
0.7
 11
-231.33218777168381
 21
389.2946688102225
 31
0.0
 73
     3
  0
TEXT
  5
7A
  8
SPEC
 62
     7
 10
-393.70650962278228
 20
454.60957461563089
 30
0.0
 40
9.5015733506944446
  1
音声出力
 41
0.7
 11
-393.70650962278228
 21
464.1111479663254
 31
0.0
 73
     3
  0
TEXT
  5
7B
  8
SPEC
 62
     7
 10
-393.33292639724078
 20
398.47403866075069
 30
0.0
 40
9.5015733506944446
  1
A/D-D/A変換
 41
0.7
 11
-393.33292639724078
 21
407.97561201144509
 31
0.0
 73
     3
  0
TEXT
  5
7C
  8
SPEC
 62
     7
 10
-231.66315971241411
 20
567.15666550078959
 30
0.0
 40
9.5015733506944446
  1
チャンネル数 2
 41
0.7
 11
-231.66315971241411
 21
576.65823885148404
 31
0.0
 73
     3
  0
TEXT
  5
7D
  8
SPEC
 62
     7
 10
-231.90778711771529
 20
436.15606112713721
 30
0.0
 40
9.5015733506944446
  1
インピーダンス 600\U+03A9(アンバランス)
 41
0.7
 11
-231.90778711771529
 21
445.65763447783172
 31
0.0
 73
     3
  0
TEXT
  5
7E
  8
SPEC
 62
     7
 10
-231.196560082628
 20
417.1588111963535
 30
0.0
 40
9.5015733506944446
  1
最大レベル +18dBu
 41
0.7
 11
-231.196560082628
 21
426.66038454704801
 31
0.0
 73
     3
  0
TEXT
  5
7F
  8
SPEC
 62
     7
 10
-231.42224575312281
 20
473.59790952553351
 30
0.0
 40
9.5015733506944446
  1
最大レベル +20dBu
 41
0.7
 11
-231.42224575312281
 21
483.09948287622791
 31
0.0
 73
     3
  0
TEXT
  5
80
  8
SPEC
 62
     7
 10
-231.95055973707599
 20
492.53023434353452
 30
0.0
 40
9.5015733506944446
  1
インピーダンス100k\U+03A9(バランス）
 41
0.7
 11
-231.95055973707599
 21
502.03180769422892
 31
0.0
 73
     3
  0
TEXT
  5
81
  8
SPEC
 62
     7
 10
-394.53597153987948
 20
342.13596133924932
 30
0.0
 40
9.5015733506944446
  1
ダイナミックレンジ
 41
0.7
 11
-394.53597153987948
 21
351.63753468994372
 31
0.0
 73
     3
  0
TEXT
  5
82
  8
SPEC
 62
     7
 10
-231.2558427192246
 20
342.1125020308686
 30
0.0
 40
9.5015733506944446
  1
90dB以上(20Hz～20kHz,ウェイト無し)
 41
0.7
 11
-231.2558427192246
 21
351.614075381563
 31
0.0
 73
     3
  0
TEXT
  5
83
  8
SPEC
 62
     7
 10
-231.1082425959944
 20
585.28369196845415
 30
0.0
 40
9.5015733506944446
  1
2ch マルチエフェクタ 
 41
0.7
 11
-231.1082425959944
 21
594.78526531914849
 31
0.0
 73
     3
  0
TEXT
  5
84
  8
SPEC
 62
     7
 10
-393.47635706766221
 20
510.90696729011449
 30
0.0
 40
9.5015733506944446
  1
音声入力
 41
0.7
 11
-393.47635706766221
 21
520.40854064080895
 31
0.0
 73
     3
  0
TEXT
  5
85
  8
SPEC
 62
     7
 10
-231.21325811248249
 20
510.8946038033813
 30
0.0
 40
9.5015733506944446
  1
端子・型式 XLR 電子バランス 標準フォーンジャック(3P),電子バランス 
 41
0.7
 11
-231.21325811248249
 21
520.39617715407576
 31
0.0
 73
     3
  0
TEXT
  5
86
  8
SPEC
 62
     7
 10
-231.47458056693529
 20
454.49285856438951
 30
0.0
 40
9.5015733506944446
  1
端子・型式 XLR 電子バランス 標準フォーンジャック(3P),電子バランス 
 41
0.7
 11
-231.47458056693529
 21
463.99443191508402
 31
0.0
 73
     3
  0
LINE
  5
87
  8
SPEC
  6
CONTINUOUS
 62
     7
 10
-399.942780603872
 20
262.53202521605971
 30
0.0
 11
337.55721939612789
 21
262.53202521605971
 31
0.0
  0
LINE
  5
88
  8
SPEC
  6
CONTINUOUS
 62
     7
 10
-399.942780603872
 20
262.53202521605971
 30
0.0
 11
-399.942780603872
 21
281.60000000000002
 31
0.0
  0
LINE
  5
89
  8
SPEC
  6
CONTINUOUS
 62
     7
 10
-237.44278060387279
 20
282.60000000000002
 30
0.0
 11
-237.44278060387279
 21
262.53202521605971
 31
0.0
  0
LINE
  5
8A
  8
SPEC
  6
CONTINUOUS
 62
     7
 10
337.55721939612789
 20
262.53202521605971
 30
0.0
 11
337.55721939612789
 21
283.0
 31
0.0
  0
TEXT
  5
8B
  8
SPEC
 62
     7
 10
-393.99220402514788
 20
267.38814331874198
 30
0.0
 40
9.5015733506944464
  1
重量
 41
0.7
 11
-393.99220402514788
 21
276.88971666943638
 31
0.0
 73
     3
  0
TEXT
  5
8C
  8
SPEC
 62
     7
 10
-231.35412129799721
 20
267.71257083588472
 30
0.0
 40
9.5015733506944464
  1
2.8kg
 41
0.7
 11
-231.35412129799721
 21
277.21414418657912
 31
0.0
 73
     3
  0
TEXT
  5
8D
  8
DIMNSIONS
 62
     7
 10
-94.766060606060606
 20
-588.65255000000002
 30
0.0
 40
12.21630859375
  1
(単位：mm)
 41
0.7
 11
-94.766060606060606
 21
-576.43624140625002
 31
0.0
 73
     3
  0
LINE
  5
8E
  8
DIMNSIONS
  6
CONTINUOUS
 62
     7
 10
-360.0
 20
-440.0
 30
0.0
 11
-360.0
 21
-485.0
 31
0.0
  0
LINE
  5
8F
  8
DIMNSIONS
  6
CONTINUOUS
 62
     7
 10
123.0
 20
-440.0
 30
0.0
 11
123.0
 21
-485.0
 31
0.0
  0
LINE
  5
90
  8
DIMNSIONS
  6
CONTINUOUS
 62
     7
 10
-360.0
 20
-475.0
 30
0.0
 11
123.0
 21
-475.0
 31
0.0
  0
LINE
  5
91
  8
DIMNSIONS
  6
CONTINUOUS
 62
     7
 10
-360.0
 20
-475.0
 30
0.0
 11
-347.49688720703119
 21
-471.6498010242488
 31
0.0
  0
LINE
  5
92
  8
DIMNSIONS
  6
CONTINUOUS
 62
     7
 10
-360.0
 20
-475.0
 30
0.0
 11
-347.49688720703119
 21
-478.35019897575108
 31
0.0
  0
LINE
  5
93
  8
DIMNSIONS
  6
CONTINUOUS
 62
     7
 10
123.0
 20
-475.0
 30
0.0
 11
110.49688720703119
 21
-478.35019897575108
 31
0.0
  0
LINE
  5
94
  8
DIMNSIONS
  6
CONTINUOUS
 62
     7
 10
123.0
 20
-475.0
 30
0.0
 11
110.49688720703119
 21
-471.6498010242488
 31
0.0
  0
TEXT
  5
95
  8
DIMNSIONS
 62
     7
 10
-131.7291666666666
 20
-470.03055555555551
 30
0.0
 40
13.57367621527778
  1
483
 41
0.7
 11
-131.7291666666666
 21
-456.45687934027768
 31
0.0
 73
     3
  0
LINE
  5
96
  8
DIMNSIONS
  6
CONTINUOUS
 62
     7
 10
-338.10000000000002
 20
-53.299999999999997
 30
0.0
 11
-338.10000000000002
 21
35.000000000000007
 31
0.0
  0
LINE
  5
97
  8
DIMNSIONS
  6
CONTINUOUS
 62
     7
 10
101.09999999999999
 20
-53.399999999999977
 30
0.0
 11
101.09999999999999
 21
35.0
 31
0.0
  0
LINE
  5
98
  8
DIMNSIONS
  6
CONTINUOUS
 62
     7
 10
-338.10000000000002
 20
25.000000000000011
 30
0.0
 11
101.09999999999999
 21
25.0
 31
0.0
  0
LINE
  5
99
  8
DIMNSIONS
  6
CONTINUOUS
 62
     7
 10
-338.10000000000002
 20
25.000000000000011
 30
0.0
 11
-325.59688720703127
 21
28.35019897575123
 31
0.0
  0
LINE
  5
9A
  8
DIMNSIONS
  6
CONTINUOUS
 62
     7
 10
-338.10000000000002
 20
25.000000000000011
 30
0.0
 11
-325.59688720703127
 21
21.649801024248791
 31
0.0
  0
LINE
  5
9B
  8
DIMNSIONS
  6
CONTINUOUS
 62
     7
 10
101.09999999999999
 20
25.0
 30
0.0
 11
88.596887207031244
 21
21.649801024248791
 31
0.0
  0
LINE
  5
9C
  8
DIMNSIONS
  6
CONTINUOUS
 62
     7
 10
101.09999999999999
 20
25.0
 30
0.0
 11
88.596887207031244
 21
28.350198975751219
 31
0.0
  0
TEXT
  5
9D
  8
DIMNSIONS
 62
     7
 10
-131.72916666666671
 20
29.969444444444459
 30
0.0
 40
13.57367621527778
  1
439
 41
0.7
 11
-131.72916666666671
 21
43.543120659722241
 31
0.0
 73
     3
  0
LINE
  5
9E
  8
DIMNSIONS
  6
CONTINUOUS
 62
     7
 10
-335.5
 20
-31.000000000027669
 30
0.0
 11
-335.5
 21
10.0
 31
0.0
  0
LINE
  5
9F
  8
DIMNSIONS
  6
CONTINUOUS
 62
     7
 10
98.500000000000014
 20
-31.000000000027669
 30
0.0
 11
98.500000000000014
 21
10.0
 31
0.0
  0
LINE
  5
A0
  8
DIMNSIONS
  6
CONTINUOUS
 62
     7
 10
-335.5
 20
0.0
 30
0.0
 11
98.500000000000014
 21
0.0
 31
0.0
  0
LINE
  5
A1
  8
DIMNSIONS
  6
CONTINUOUS
 62
     7
 10
-335.5
 20
0.0
 30
0.0
 11
-322.99688720703119
 21
3.3501989757512161
 31
0.0
  0
LINE
  5
A2
  8
DIMNSIONS
  6
CONTINUOUS
 62
     7
 10
-335.5
 20
0.0
 30
0.0
 11
-322.99688720703119
 21
-3.3501989757512161
 31
0.0
  0
LINE
  5
A3
  8
DIMNSIONS
  6
CONTINUOUS
 62
     7
 10
98.500000000000014
 20
0.0
 30
0.0
 11
85.996887207031264
 21
-3.3501989757512192
 31
0.0
  0
LINE
  5
A4
  8
DIMNSIONS
  6
CONTINUOUS
 62
     7
 10
98.500000000000014
 20
0.0
 30
0.0
 11
85.996887207031264
 21
3.3501989757512161
 31
0.0
  0
TEXT
  5
A5
  8
DIMNSIONS
 62
     7
 10
-131.7291666666666
 20
4.9694444444444477
 30
0.0
 40
13.57367621527778
  1
434
 41
0.7
 11
-131.7291666666666
 21
18.543120659722231
 31
0.0
 73
     3
  0
LINE
  5
A6
  8
DIMNSIONS
  6
CONTINUOUS
 62
     7
 10
-293.39898733858382
 20
-33.500000000027669
 30
0.0
 11
-410.0
 21
-33.500000000027669
 31
0.0
  0
LINE
  5
A7
  8
DIMNSIONS
  6
CONTINUOUS
 62
     7
 10
-345.5
 20
-41.000000000027669
 30
0.0
 11
-410.0
 21
-41.000000000027669
 31
0.0
  0
LINE
  5
A8
  8
DIMNSIONS
  6
CONTINUOUS
 62
     7
 10
-400.0
 20
-41.000000000027669
 30
0.0
 11
-400.0
 21
-33.500000000027669
 31
0.0
  0
LINE
  5
A9
  8
DIMNSIONS
  6
CONTINUOUS
 62
     7
 10
-400.0
 20
-33.500000000027669
 30
0.0
 11
-400.0
 21
1.458333333333335
 31
0.0
  0
LINE
  5
AA
  8
DIMNSIONS
  6
CONTINUOUS
 62
     7
 10
-400.0
 20
-33.500000000027669
 30
0.0
 11
-403.35019897575108
 21
-20.996887207058919
 31
0.0
  0
LINE
  5
AB
  8
DIMNSIONS
  6
CONTINUOUS
 62
     7
 10
-400.0
 20
-33.500000000027669
 30
0.0
 11
-396.6498010242488
 21
-20.996887207058919
 31
0.0
  0
LINE
  5
AC
  8
DIMNSIONS
  6
CONTINUOUS
 62
     7
 10
-400.0
 20
-41.000000000027669
 30
0.0
 11
-400.0
 21
-66.000000000027669
 31
0.0
  0
LINE
  5
AD
  8
DIMNSIONS
  6
CONTINUOUS
 62
     7
 10
-400.0
 20
-41.000000000027669
 30
0.0
 11
-396.6498010242488
 21
-53.503112792996419
 31
0.0
  0
LINE
  5
AE
  8
DIMNSIONS
  6
CONTINUOUS
 62
     7
 10
-400.0
 20
-41.000000000027669
 30
0.0
 11
-403.35019897575108
 21
-53.503112792996419
 31
0.0
  0
TEXT
  5
AF
  8
DIMNSIONS
 62
     7
 10
-404.96944444444449
 20
-25.0
 30
0.0
 40
13.57367621527778
  1
7.5
 50
90.0
 41
0.7
 11
-418.54312065972221
 21
-25.0
 31
0.0
 73
     3
  0
LINE
  5
B0
  8
DIMNSIONS
  6
CONTINUOUS
 62
     7
 10
-345.5
 20
-41.000000000027669
 30
0.0
 11
-410.0
 21
-41.000000000027669
 31
0.0
  0
LINE
  5
B1
  8
DIMNSIONS
  6
CONTINUOUS
 62
     7
 10
-370.0
 20
-270.00000000002768
 30
0.0
 11
-410.0
 21
-270.00000000002768
 31
0.0
  0
LINE
  5
B2
  8
DIMNSIONS
  6
CONTINUOUS
 62
     7
 10
-400.0
 20
-41.000000000027669
 30
0.0
 11
-400.0
 21
-270.00000000002768
 31
0.0
  0
LINE
  5
B3
  8
DIMNSIONS
  6
CONTINUOUS
 62
     7
 10
-400.0
 20
-41.000000000027669
 30
0.0
 11
-396.6498010242488
 21
-53.503112792996419
 31
0.0
  0
LINE
  5
B4
  8
DIMNSIONS
  6
CONTINUOUS
 62
     7
 10
-400.0
 20
-41.000000000027669
 30
0.0
 11
-403.35019897575108
 21
-53.503112792996419
 31
0.0
  0
LINE
  5
B5
  8
DIMNSIONS
  6
CONTINUOUS
 62
     7
 10
-400.0
 20
-270.00000000002768
 30
0.0
 11
-403.35019897575108
 21
-257.49688720705888
 31
0.0
  0
LINE
  5
B6
  8
DIMNSIONS
  6
CONTINUOUS
 62
     7
 10
-400.0
 20
-270.00000000002768
 30
0.0
 11
-396.6498010242488
 21
-257.49688720705888
 31
0.0
  0
TEXT
  5
B7
  8
DIMNSIONS
 62
     7
 10
-404.96944444444449
 20
-168.72916666669431
 30
0.0
 40
13.57367621527778
  1
229
 50
90.0
 41
0.7
 11
-418.54312065972221
 21
-168.72916666669431
 31
0.0
 73
     3
  0
LINE
  5
B8
  8
DIMNSIONS
  6
CONTINUOUS
 62
     7
 10
-370.0
 20
-270.00000000002768
 30
0.0
 11
-385.0
 21
-270.00000000002768
 31
0.0
  0
LINE
  5
B9
  8
DIMNSIONS
  6
CONTINUOUS
 62
     7
 10
-370.0
 20
-266.20000000002773
 30
0.0
 11
-385.0
 21
-266.20000000002773
 31
0.0
  0
LINE
  5
BA
  8
DIMNSIONS
  6
CONTINUOUS
 62
     7
 10
-375.0
 20
-266.20000000002773
 30
0.0
 11
-375.0
 21
-270.00000000002768
 31
0.0
  0
LINE
  5
BB
  8
DIMNSIONS
  6
CONTINUOUS
 62
     7
 10
-375.0
 20
-270.00000000002768
 30
0.0
 11
-375.0
 21
-295.00000000002768
 31
0.0
  0
LINE
  5
BC
  8
DIMNSIONS
  6
CONTINUOUS
 62
     7
 10
-375.0
 20
-270.00000000002768
 30
0.0
 11
-371.6498010242488
 21
-282.50311279299638
 31
0.0
  0
LINE
  5
BD
  8
DIMNSIONS
  6
CONTINUOUS
 62
     7
 10
-375.0
 20
-270.00000000002768
 30
0.0
 11
-378.3501989757512
 21
-282.50311279299638
 31
0.0
  0
LINE
  5
BE
  8
DIMNSIONS
  6
CONTINUOUS
 62
     7
 10
-375.0
 20
-266.20000000002773
 30
0.0
 11
-375.0
 21
-223.5416666666666
 31
0.0
  0
LINE
  5
BF
  8
DIMNSIONS
  6
CONTINUOUS
 62
     7
 10
-375.0
 20
-266.20000000002773
 30
0.0
 11
-378.3501989757512
 21
-253.69688720705881
 31
0.0
  0
LINE
  5
C0
  8
DIMNSIONS
  6
CONTINUOUS
 62
     7
 10
-375.0
 20
-266.20000000002773
 30
0.0
 11
-371.6498010242488
 21
-253.69688720705881
 31
0.0
  0
TEXT
  5
C1
  8
DIMNSIONS
 62
     7
 10
-379.96944444444449
 20
-250.0
 30
0.0
 40
13.57367621527778
  1
3.8
 50
90.0
 41
0.7
 11
-393.54312065972232
 21
-250.0
 31
0.0
 73
     3
  0
LINE
  5
C2
  8
DIMNSIONS
  6
CONTINUOUS
 62
     7
 10
-370.0
 20
-270.00000000002768
 30
0.0
 11
-410.0
 21
-270.00000000002768
 31
0.0
  0
LINE
  5
C3
  8
DIMNSIONS
  6
CONTINUOUS
 62
     7
 10
-32.25
 20
-283.00000000002768
 30
0.0
 11
-410.0
 21
-283.00000000002768
 31
0.0
  0
LINE
  5
C4
  8
DIMNSIONS
  6
CONTINUOUS
 62
     7
 10
-400.0
 20
-283.00000000002768
 30
0.0
 11
-400.0
 21
-270.00000000002768
 31
0.0
  0
LINE
  5
C5
  8
DIMNSIONS
  6
CONTINUOUS
 62
     7
 10
-400.0
 20
-270.00000000002768
 30
0.0
 11
-400.0
 21
-245.00000000002771
 31
0.0
  0
LINE
  5
C6
  8
DIMNSIONS
  6
CONTINUOUS
 62
     7
 10
-400.0
 20
-270.00000000002768
 30
0.0
 11
-403.35019897575108
 21
-257.49688720705888
 31
0.0
  0
LINE
  5
C7
  8
DIMNSIONS
  6
CONTINUOUS
 62
     7
 10
-400.0
 20
-270.00000000002768
 30
0.0
 11
-396.6498010242488
 21
-257.49688720705888
 31
0.0
  0
LINE
  5
C8
  8
DIMNSIONS
  6
CONTINUOUS
 62
     7
 10
-400.0
 20
-283.00000000002768
 30
0.0
 11
-400.0
 21
-317.63888888888891
 31
0.0
  0
LINE
  5
C9
  8
DIMNSIONS
  6
CONTINUOUS
 62
     7
 10
-400.0
 20
-283.00000000002768
 30
0.0
 11
-396.6498010242488
 21
-295.50311279299638
 31
0.0
  0
LINE
  5
CA
  8
DIMNSIONS
  6
CONTINUOUS
 62
     7
 10
-400.0
 20
-283.00000000002768
 30
0.0
 11
-403.35019897575108
 21
-295.50311279299638
 31
0.0
  0
TEXT
  5
CB
  8
DIMNSIONS
 62
     7
 10
-404.96944444444449
 20
-317.63888888888891
 30
0.0
 40
13.57367621527778
  1
13
 50
90.0
 41
0.7
 11
-418.54312065972221
 21
-317.63888888888891
 31
0.0
 73
     3
  0
LINE
  5
CC
  8
DIMNSIONS
  6
CONTINUOUS
 62
     7
 10
-370.0
 20
-385.0
 30
0.0
 11
-410.0
 21
-385.0
 31
0.0
  0
LINE
  5
CD
  8
DIMNSIONS
  6
CONTINUOUS
 62
     7
 10
-370.0
 20
-430.0
 30
0.0
 11
-410.0
 21
-430.0
 31
0.0
  0
LINE
  5
CE
  8
DIMNSIONS
  6
CONTINUOUS
 62
     7
 10
-400.0
 20
-385.0
 30
0.0
 11
-400.0
 21
-430.0
 31
0.0
  0
LINE
  5
CF
  8
DIMNSIONS
  6
CONTINUOUS
 62
     7
 10
-400.0
 20
-385.0
 30
0.0
 11
-396.6498010242488
 21
-397.50311279296881
 31
0.0
  0
LINE
  5
D0
  8
DIMNSIONS
  6
CONTINUOUS
 62
     7
 10
-400.0
 20
-385.0
 30
0.0
 11
-403.35019897575108
 21
-397.50311279296881
 31
0.0
  0
LINE
  5
D1
  8
DIMNSIONS
  6
CONTINUOUS
 62
     7
 10
-400.0
 20
-430.0
 30
0.0
 11
-403.35019897575108
 21
-417.49688720703119
 31
0.0
  0
LINE
  5
D2
  8
DIMNSIONS
  6
CONTINUOUS
 62
     7
 10
-400.0
 20
-430.0
 30
0.0
 11
-396.6498010242488
 21
-417.49688720703119
 31
0.0
  0
TEXT
  5
D3
  8
DIMNSIONS
 62
     7
 10
-404.96944444444449
 20
-416.31944444444451
 30
0.0
 40
13.57367621527778
  1
45
 50
90.0
 41
0.7
 11
-418.54312065972221
 21
-416.31944444444451
 31
0.0
 73
     3
  0
TEXT
  5
D4
  8
DATA
 62
     7
 10
233.5088757718411
 20
-554.70254116979902
 30
0.0
 40
12.21630859375
  1
Lexicon
 41
0.7
 11
233.5088757718411
 21
-542.48623257604902
 31
0.0
 73
     3
  0
TEXT
  5
D5
  8
DATA
 62
     7
 10
220.93854430266461
 20
-592.97932292120095
 30
0.0
 40
12.21630859375
  1
MPX 1
 41
0.7
 11
220.93854430266461
 21
-580.76301432745095
 31
0.0
 73
     3
  0
TEXT
  5
D6
  8
DATA
 62
     7
 10
221.8203204563921
 20
-572.14856676542945
 30
0.0
 40
9.5015733506944446
  1
2ch マルチエフェクタ 
 41
0.7
 11
221.8203204563921
 21
-562.64699341473488
 31
0.0
 73
     3
  0
POLYLINE
  5
D7
  8
DATA
  6
CONTINUOUS
 62
     7
 66
     1
 10
0.0
 20
0.0
 30
0.0
 70
     1
  0
VERTEX
  5
B12
  8
DATA
  6
CONTINUOUS
 62
     7
 10
-360.0
 20
-385.0
 30
0.0
  0
VERTEX
  5
B13
  8
DATA
  6
CONTINUOUS
 62
     7
 10
123.0
 20
-385.0
 30
0.0
  0
VERTEX
  5
B14
  8
DATA
  6
CONTINUOUS
 62
     7
 10
123.0
 20
-430.0
 30
0.0
  0
VERTEX
  5
B15
  8
DATA
  6
CONTINUOUS
 62
     7
 10
-360.0
 20
-430.0
 30
0.0
  0
SEQEND
  5
B16
  8
DATA
  6
CONTINUOUS
 62
     7
  0
POLYLINE
  5
DE
  8
DATA
  6
CONTINUOUS
 62
     7
 66
     1
 10
0.0
 20
0.0
 30
0.0
  0
VERTEX
  5
B17
  8
DATA
  6
CONTINUOUS
 62
     7
 10
123.0
 20
-267.00000000002768
 30
0.0
  0
VERTEX
  5
B18
  8
DATA
  6
CONTINUOUS
 62
     7
 10
123.0
 20
-270.00000000002768
 30
0.0
  0
VERTEX
  5
B19
  8
DATA
  6
CONTINUOUS
 62
     7
 10
-360.0
 20
-270.00000000002768
 30
0.0
  0
VERTEX
  5
B1A
  8
DATA
  6
CONTINUOUS
 62
     7
 10
-360.0
 20
-267.00000000002768
 30
0.0
  0
SEQEND
  5
B1B
  8
DATA
  6
CONTINUOUS
 62
     7
  0
POLYLINE
  5
E5
  8
DATA
  6
CONTINUOUS
 62
     7
 66
     1
 10
0.0
 20
0.0
 30
0.0
 70
     1
  0
VERTEX
  5
B1C
  8
DATA
  6
CONTINUOUS
 62
     7
 10
-359.9999999520353
 20
194.9999999999612
 30
0.0
  0
VERTEX
  5
B1D
  8
DATA
  6
CONTINUOUS
 62
     7
 10
123.0000000479648
 20
194.9999999999612
 30
0.0
  0
VERTEX
  5
B1E
  8
DATA
  6
CONTINUOUS
 62
     7
 10
123.0000000479648
 20
149.99999999996081
 30
0.0
  0
VERTEX
  5
B1F
  8
DATA
  6
CONTINUOUS
 62
     7
 10
-359.9999999520353
 20
149.99999999996081
 30
0.0
  0
SEQEND
  5
B20
  8
DATA
  6
CONTINUOUS
 62
     7
  0
INSERT
  5
EC
  8
DATA
 62
     7
  2
RACK___
 10
-351.0
 20
-391.59999999999991
 30
0.0
  0
INSERT
  5
ED
  8
DATA
 62
     7
  2
RACK___
 10
-351.0
 20
-423.39999999999992
 30
0.0
  0
INSERT
  5
EE
  8
DATA
 62
     7
  2
RACK___
 10
114.0
 20
-391.59999999999991
 30
0.0
  0
INSERT
  5
EF
  8
DATA
 62
     7
  2
RACK___
 10
114.0
 20
-423.39999999999992
 30
0.0
  0
INSERT
  5
F0
  8
DATA
 62
     7
  2
RACK___
 10
114.0000000479648
 20
156.5999999999608
 30
0.0
 50
180.0
  0
INSERT
  5
F1
  8
DATA
 62
     7
  2
RACK___
 10
114.0000000479648
 20
188.39999999996121
 30
0.0
 50
180.0
  0
INSERT
  5
F2
  8
DATA
 62
     7
  2
RACK___
 10
-350.99999995203518
 20
156.5999999999608
 30
0.0
 50
180.0
  0
INSERT
  5
F3
  8
DATA
 62
     7
  2
RACK___
 10
-350.99999995203518
 20
188.39999999996121
 30
0.0
 50
180.0
  0
CIRCLE
  5
F4
  8
DATA
  6
CONTINUOUS
 62
     7
 10
-77.643997879656837
 20
164.3501741313766
 30
0.0
 40
4.1500000000002606
  0
CIRCLE
  5
F5
  8
DATA
  6
CONTINUOUS
 62
     7
 10
-77.643997879656837
 20
178.70844234744371
 30
0.0
 40
4.1500000000002606
  0
CIRCLE
  5
F6
  8
DATA
  6
CONTINUOUS
 62
     7
 10
-77.643997879656837
 20
164.3501741313766
 30
0.0
 40
1.700000000000045
  0
CIRCLE
  5
F7
  8
DATA
  6
CONTINUOUS
 62
     7
 10
-77.643997879656837
 20
178.70844234744371
 30
0.0
 40
1.700000000000045
  0
CIRCLE
  5
F8
  8
DATA
  6
CONTINUOUS
 62
     7
 10
-83.384166849197257
 20
171.45844234744359
 30
0.0
 40
2.6000000000001928
  0
POLYLINE
  5
F9
  8
DATA
  6
CONTINUOUS
 62
     7
 66
     1
 10
0.0
 20
0.0
 30
0.0
  0
VERTEX
  5
B21
  8
DATA
  6
CONTINUOUS
 62
     7
 10
-83.634166849197257
 20
171.70844234744359
 30
0.0
  0
VERTEX
  5
B22
  8
DATA
  6
CONTINUOUS
 62
     7
 10
-83.634166849197257
 20
173.45844234744359
 30
0.0
  0
VERTEX
  5
B23
  8
DATA
  6
CONTINUOUS
 62
     7
 10
-83.134166849197257
 20
173.45844234744359
 30
0.0
  0
VERTEX
  5
B24
  8
DATA
  6
CONTINUOUS
 62
     7
 10
-83.134166849197257
 20
171.70844234744359
 30
0.0
  0
SEQEND
  5
B25
  8
DATA
  6
CONTINUOUS
 62
     7
  0
POLYLINE
  5
100
  8
DATA
  6
CONTINUOUS
 62
     7
 66
     1
 10
0.0
 20
0.0
 30
0.0
  0
VERTEX
  5
B26
  8
DATA
  6
CONTINUOUS
 62
     7
 10
-83.634166849197257
 20
171.20844234744359
 30
0.0
  0
VERTEX
  5
B27
  8
DATA
  6
CONTINUOUS
 62
     7
 10
-83.634166849197257
 20
169.45844234744351
 30
0.0
  0
VERTEX
  5
B28
  8
DATA
  6
CONTINUOUS
 62
     7
 10
-83.134166849197257
 20
169.45844234744351
 30
0.0
  0
VERTEX
  5
B29
  8
DATA
  6
CONTINUOUS
 62
     7
 10
-83.134166849197257
 20
171.20844234744359
 30
0.0
  0
SEQEND
  5
B2A
  8
DATA
  6
CONTINUOUS
 62
     7
  0
POLYLINE
  5
107
  8
DATA
  6
CONTINUOUS
 62
     7
 66
     1
 10
0.0
 20
0.0
 30
0.0
  0
VERTEX
  5
B2B
  8
DATA
  6
CONTINUOUS
 62
     7
 10
-83.134166849197257
 20
171.70844234744359
 30
0.0
  0
VERTEX
  5
B2C
  8
DATA
  6
CONTINUOUS
 62
     7
 10
-81.384166849197086
 20
171.70844234744359
 30
0.0
  0
VERTEX
  5
B2D
  8
DATA
  6
CONTINUOUS
 62
     7
 10
-81.384166849197086
 20
171.20844234744359
 30
0.0
  0
VERTEX
  5
B2E
  8
DATA
  6
CONTINUOUS
 62
     7
 10
-83.134166849197257
 20
171.20844234744359
 30
0.0
  0
SEQEND
  5
B2F
  8
DATA
  6
CONTINUOUS
 62
     7
  0
POLYLINE
  5
10E
  8
DATA
  6
CONTINUOUS
 62
     7
 66
     1
 10
0.0
 20
0.0
 30
0.0
  0
VERTEX
  5
B30
  8
DATA
  6
CONTINUOUS
 62
     7
 10
-83.634166849197257
 20
171.70844234744359
 30
0.0
  0
VERTEX
  5
B31
  8
DATA
  6
CONTINUOUS
 62
     7
 10
-85.384166849197413
 20
171.70844234744359
 30
0.0
  0
VERTEX
  5
B32
  8
DATA
  6
CONTINUOUS
 62
     7
 10
-85.384166849197413
 20
171.20844234744359
 30
0.0
  0
VERTEX
  5
B33
  8
DATA
  6
CONTINUOUS
 62
     7
 10
-83.634166849197257
 20
171.20844234744359
 30
0.0
  0
SEQEND
  5
B34
  8
DATA
  6
CONTINUOUS
 62
     7
  0
LINE
  5
115
  8
DATA
  6
CONTINUOUS
 62
     7
 10
90.031905101043577
 20
-396.47996533031488
 30
0.0
 11
80.531905101043563
 21
-396.47996533031488
 31
0.0
  0
LINE
  5
116
  8
DATA
  6
CONTINUOUS
 62
     7
 10
90.031905101043577
 20
-417.47996533031483
 30
0.0
 11
80.531905101043563
 21
-417.47996533031483
 31
0.0
  0
LINE
  5
117
  8
DATA
  6
CONTINUOUS
 62
     7
 10
80.531905101043563
 20
-417.47996533031483
 30
0.0
 11
80.531905101043563
 21
-396.47996533031488
 31
0.0
  0
LINE
  5
118
  8
DATA
  6
CONTINUOUS
 62
     7
 10
90.031905101043577
 20
-417.47996533031483
 30
0.0
 11
90.031905101043577
 21
-396.47996533031488
 31
0.0
  0
LINE
  5
119
  8
DATA
  6
CONTINUOUS
 62
     7
 10
82.981905101043623
 20
-415.02996533031478
 30
0.0
 11
82.981905101043623
 21
-398.92996533031487
 31
0.0
  0
LINE
  5
11A
  8
DATA
  6
CONTINUOUS
 62
     7
 10
87.581905101043546
 20
-415.02996533031478
 30
0.0
 11
87.581905101043546
 21
-398.92996533031487
 31
0.0
  0
LINE
  5
11B
  8
DATA
  6
CONTINUOUS
 62
     7
 10
87.581905101043546
 20
-398.92996533031487
 30
0.0
 11
82.981905101043623
 21
-398.92996533031487
 31
0.0
  0
LINE
  5
11C
  8
DATA
  6
CONTINUOUS
 62
     7
 10
87.581905101043546
 20
-415.02996533031478
 30
0.0
 11
82.981905101043623
 21
-415.02996533031478
 31
0.0
  0
LINE
  5
11D
  8
DATA
  6
CONTINUOUS
 62
     7
 10
82.981905101043623
 20
-400.89999999999992
 30
0.0
 11
87.581905101043546
 21
-400.89999999999992
 31
0.0
  0
CIRCLE
  5
11E
  8
DATA
  6
CONTINUOUS
 62
     7
 10
85.281905101043563
 20
-413.05000000000001
 30
0.0
 40
0.827647267862328
  0
LINE
  5
11F
  8
DATA
  6
CONTINUOUS
 62
     7
 10
85.281905101043563
 20
-401.94999999999999
 30
0.0
 11
85.281905101043563
 21
-403.64999999999998
 31
0.0
  0
TEXT
  5
120
  8
DATA
 62
     7
 10
80.480613271326433
 20
-393.64014889876222
 30
0.0
 40
3.078125
  1
Power
 41
0.7
 11
80.480613271326433
 21
-390.56202389876222
 31
0.0
 73
     3
  0
LINE
  5
121
  8
DATA
  6
CONTINUOUS
 62
     7
 10
80.541653714542676
 20
-272.00000000002768
 30
0.0
 11
90.041653714542676
 21
-272.00000000002768
 31
0.0
  0
LINE
  5
122
  8
DATA
  6
CONTINUOUS
 62
     7
 10
82.991653714542721
 20
-275.00000000002768
 30
0.0
 11
87.591653714542616
 21
-275.00000000002768
 31
0.0
  0
LINE
  5
123
  8
DATA
  6
CONTINUOUS
 62
     7
 10
80.541653714542676
 20
-272.00000000002768
 30
0.0
 11
80.541653714542676
 21
-270.00000000002768
 31
0.0
  0
LINE
  5
124
  8
DATA
  6
CONTINUOUS
 62
     7
 10
90.041653714542676
 20
-272.00000000002768
 30
0.0
 11
90.041653714542676
 21
-270.00000000002768
 31
0.0
  0
LINE
  5
125
  8
DATA
  6
CONTINUOUS
 62
     7
 10
82.991653714542721
 20
-275.00000000002768
 30
0.0
 11
82.991653714542721
 21
-272.00000000002768
 31
0.0
  0
LINE
  5
126
  8
DATA
  6
CONTINUOUS
 62
     7
 10
87.591653714542616
 20
-275.00000000002768
 30
0.0
 11
87.591653714542616
 21
-272.00000000002768
 31
0.0
  0
POLYLINE
  5
127
  8
DATA
  6
CONTINUOUS
 62
     7
 66
     1
 10
0.0
 20
0.0
 30
0.0
 70
     1
  0
VERTEX
  5
B35
  8
DATA
  6
CONTINUOUS
 62
     7
 10
59.513987471543359
 20
181.54911939726421
 30
0.0
  0
VERTEX
  5
B36
  8
DATA
  6
CONTINUOUS
 62
     7
 10
89.513987471543373
 20
181.54911939726421
 30
0.0
  0
VERTEX
  5
B37
  8
DATA
  6
CONTINUOUS
 62
     7
 10
89.513987471543373
 20
160.54911939726401
 30
0.0
  0
VERTEX
  5
B38
  8
DATA
  6
CONTINUOUS
 62
     7
 10
59.513987471543359
 20
160.54911939726401
 30
0.0
  0
SEQEND
  5
B39
  8
DATA
  6
CONTINUOUS
 62
     7
  0
LINE
  5
12E
  8
DATA
  6
CONTINUOUS
 62
     7
 10
87.013987471543373
 20
163.34911939726399
 30
0.0
 11
62.013987471543359
 21
163.34911939726399
 31
0.0
  0
LINE
  5
12F
  8
DATA
  6
CONTINUOUS
 62
     7
 10
87.013987471543373
 20
173.74911939726411
 30
0.0
 11
87.013987471543373
 21
163.34911939726399
 31
0.0
  0
LINE
  5
130
  8
DATA
  6
CONTINUOUS
 62
     7
 10
62.013987471543359
 20
173.74911939726411
 30
0.0
 11
62.013987471543359
 21
163.34911939726399
 31
0.0
  0
LINE
  5
131
  8
DATA
  6
CONTINUOUS
 62
     7
 10
82.013987471543373
 20
178.7491193972642
 30
0.0
 11
87.013987471543373
 21
173.74911939726411
 31
0.0
  0
LINE
  5
132
  8
DATA
  6
CONTINUOUS
 62
     7
 10
67.013987471543373
 20
178.7491193972642
 30
0.0
 11
62.013987471543359
 21
173.74911939726411
 31
0.0
  0
LINE
  5
133
  8
DATA
  6
CONTINUOUS
 62
     7
 10
82.013987471543373
 20
178.7491193972642
 30
0.0
 11
67.013987471543373
 21
178.7491193972642
 31
0.0
  0
POLYLINE
  5
134
  8
DATA
  6
CONTINUOUS
 62
     7
 66
     1
 10
0.0
 20
0.0
 30
0.0
 70
     1
  0
VERTEX
  5
B3A
  8
DATA
  6
CONTINUOUS
 62
     7
 10
73.513987471543373
 20
175.37977159869499
 30
0.0
  0
VERTEX
  5
B3B
  8
DATA
  6
CONTINUOUS
 62
     7
 10
75.513987471543373
 20
175.37977159869499
 30
0.0
  0
VERTEX
  5
B3C
  8
DATA
  6
CONTINUOUS
 62
     7
 10
75.513987471543373
 20
171.57977159869489
 30
0.0
  0
VERTEX
  5
B3D
  8
DATA
  6
CONTINUOUS
 62
     7
 10
73.513987471543373
 20
171.57977159869489
 30
0.0
  0
SEQEND
  5
B3E
  8
DATA
  6
CONTINUOUS
 62
     7
  0
POLYLINE
  5
13B
  8
DATA
  6
CONTINUOUS
 62
     7
 66
     1
 10
0.0
 20
0.0
 30
0.0
 70
     1
  0
VERTEX
  5
B3F
  8
DATA
  6
CONTINUOUS
 62
     7
 10
66.713987471543291
 20
171.24911939726411
 30
0.0
  0
VERTEX
  5
B40
  8
DATA
  6
CONTINUOUS
 62
     7
 10
68.713987471543291
 20
171.24911939726411
 30
0.0
  0
VERTEX
  5
B41
  8
DATA
  6
CONTINUOUS
 62
     7
 10
68.713987471543291
 20
167.4491193972641
 30
0.0
  0
VERTEX
  5
B42
  8
DATA
  6
CONTINUOUS
 62
     7
 10
66.713987471543291
 20
167.4491193972641
 30
0.0
  0
SEQEND
  5
B43
  8
DATA
  6
CONTINUOUS
 62
     7
  0
POLYLINE
  5
142
  8
DATA
  6
CONTINUOUS
 62
     7
 66
     1
 10
0.0
 20
0.0
 30
0.0
 70
     1
  0
VERTEX
  5
B44
  8
DATA
  6
CONTINUOUS
 62
     7
 10
80.313987471543314
 20
171.24911939726411
 30
0.0
  0
VERTEX
  5
B45
  8
DATA
  6
CONTINUOUS
 62
     7
 10
82.313987471543328
 20
171.24911939726411
 30
0.0
  0
VERTEX
  5
B46
  8
DATA
  6
CONTINUOUS
 62
     7
 10
82.313987471543328
 20
167.4491193972641
 30
0.0
  0
VERTEX
  5
B47
  8
DATA
  6
CONTINUOUS
 62
     7
 10
80.313987471543314
 20
167.4491193972641
 30
0.0
  0
SEQEND
  5
B48
  8
DATA
  6
CONTINUOUS
 62
     7
  0
CIRCLE
  5
149
  8
DATA
  6
CONTINUOUS
 62
     7
 10
-13.288124627958441
 20
173.5379128607228
 30
0.0
 40
8.2500000000000853
  0
CIRCLE
  5
14A
  8
DATA
  6
CONTINUOUS
 62
     7
 10
-13.28472116427778
 20
173.67343872161041
 30
0.0
 40
6.9000000000000021
  0
CIRCLE
  5
14B
  8
DATA
  6
CONTINUOUS
 62
     7
 10
-10.735847679253281
 20
174.29112259653519
 30
0.0
 40
0.5519621081381896
  0
CIRCLE
  5
14C
  8
DATA
  6
CONTINUOUS
 62
     7
 10
-11.544903107238889
 20
175.83546221497491
 30
0.0
 40
0.5522307728991107
  0
CIRCLE
  5
14D
  8
DATA
  6
CONTINUOUS
 62
     7
 10
-13.5356834918187
 20
176.45701253795301
 30
0.0
 40
0.5505590016105373
  0
POLYLINE
  5
14E
  8
DATA
  6
CONTINUOUS
 62
     7
 66
     1
 10
0.0
 20
0.0
 30
0.0
  0
VERTEX
  5
B49
  8
DATA
  6
CONTINUOUS
 62
     7
 10
-13.865644433323981
 20
176.01628474062659
 30
0.0
  0
VERTEX
  5
B4A
  8
DATA
  6
CONTINUOUS
 62
     7
 10
-13.865644433323981
 20
175.13691546783249
 30
0.0
  0
VERTEX
  5
B4B
  8
DATA
  6
CONTINUOUS
 62
     7
 10
-13.18366608808179
 20
175.13691546783249
 30
0.0
  0
VERTEX
  5
B4C
  8
DATA
  6
CONTINUOUS
 62
     7
 10
-13.18366608808179
 20
176.03369355453549
 30
0.0
  0
SEQEND
  5
B4D
  8
DATA
  6
CONTINUOUS
 62
     7
  0
POLYLINE
  5
155
  8
DATA
  6
CONTINUOUS
 62
     7
 66
     1
 10
0.0
 20
0.0
 30
0.0
  0
VERTEX
  5
B4E
  8
DATA
  6
CONTINUOUS
 62
     7
 10
-13.865644433323981
 20
176.89774033527939
 30
0.0
  0
VERTEX
  5
B4F
  8
DATA
  6
CONTINUOUS
 62
     7
 10
-13.865644433323981
 20
177.7548708438907
 30
0.0
  0
VERTEX
  5
B50
  8
DATA
  6
CONTINUOUS
 62
     7
 10
-13.18366608808179
 20
177.7548708438907
 30
0.0
  0
VERTEX
  5
B51
  8
DATA
  6
CONTINUOUS
 62
     7
 10
-13.18366608808179
 20
176.88033152137061
 30
0.0
  0
SEQEND
  5
B52
  8
DATA
  6
CONTINUOUS
 62
     7
  0
POLYLINE
  5
15C
  8
DATA
  6
CONTINUOUS
 62
     7
 66
     1
 10
0.0
 20
0.0
 30
0.0
  0
VERTEX
  5
B53
  8
DATA
  6
CONTINUOUS
 62
     7
 10
-11.53846127261343
 20
176.38765541425519
 30
0.0
  0
VERTEX
  5
B54
  8
DATA
  6
CONTINUOUS
 62
     7
 10
-10.9819030211955
 20
177.0509085226158
 30
0.0
  0
VERTEX
  5
B55
  8
DATA
  6
CONTINUOUS
 62
     7
 10
-10.45756762874802
 20
176.61093888819991
 30
0.0
  0
VERTEX
  5
B56
  8
DATA
  6
CONTINUOUS
 62
     7
 10
-11.006233296053949
 20
175.9570914097657
 30
0.0
  0
SEQEND
  5
B57
  8
DATA
  6
CONTINUOUS
 62
     7
  0
POLYLINE
  5
163
  8
DATA
  6
CONTINUOUS
 62
     7
 66
     1
 10
0.0
 20
0.0
 30
0.0
  0
VERTEX
  5
B58
  8
DATA
  6
CONTINUOUS
 62
     7
 10
-12.087592764571321
 20
175.73325281037339
 30
0.0
  0
VERTEX
  5
B59
  8
DATA
  6
CONTINUOUS
 62
     7
 10
-12.66183673516883
 20
175.04892354657071
 30
0.0
  0
VERTEX
  5
B5A
  8
DATA
  6
CONTINUOUS
 62
     7
 10
-12.13750134272135
 20
174.60895391215479
 30
0.0
  0
VERTEX
  5
B5B
  8
DATA
  6
CONTINUOUS
 62
     7
 10
-11.571167717068301
 20
175.28385638036289
 30
0.0
  0
SEQEND
  5
B5C
  8
DATA
  6
CONTINUOUS
 62
     7
  0
POLYLINE
  5
16A
  8
DATA
  6
CONTINUOUS
 62
     7
 66
     1
 10
0.0
 20
0.0
 30
0.0
  0
VERTEX
  5
B5D
  8
DATA
  6
CONTINUOUS
 62
     7
 10
-10.661839412838299
 20
174.8381006082837
 30
0.0
  0
VERTEX
  5
B5E
  8
DATA
  6
CONTINUOUS
 62
     7
 10
-10.053832034823699
 20
175.44613252944541
 30
0.0
  0
VERTEX
  5
B5F
  8
DATA
  6
CONTINUOUS
 62
     7
 10
-9.5698377771195702
 20
174.98407019402279
 30
0.0
  0
VERTEX
  5
B60
  8
DATA
  6
CONTINUOUS
 62
     7
 10
-10.18801699229908
 20
174.35852962299319
 30
0.0
  0
SEQEND
  5
B61
  8
DATA
  6
CONTINUOUS
 62
     7
  0
POLYLINE
  5
171
  8
DATA
  6
CONTINUOUS
 62
     7
 66
     1
 10
0.0
 20
0.0
 30
0.0
  0
VERTEX
  5
B62
  8
DATA
  6
CONTINUOUS
 62
     7
 10
-11.28282270315969
 20
174.21709225102279
 30
0.0
  0
VERTEX
  5
B63
  8
DATA
  6
CONTINUOUS
 62
     7
 10
-11.90185758138634
 20
173.59803238450709
 30
0.0
  0
VERTEX
  5
B64
  8
DATA
  6
CONTINUOUS
 62
     7
 10
-11.417863323682861
 20
173.11403812680311
 30
0.0
  0
VERTEX
  5
B65
  8
DATA
  6
CONTINUOUS
 62
     7
 10
-10.79676518573239
 20
173.7425323795031
 30
0.0
  0
SEQEND
  5
B66
  8
DATA
  6
CONTINUOUS
 62
     7
  0
POLYLINE
  5
178
  8
DATA
  6
CONTINUOUS
 62
     7
 66
     1
 10
0.0
 20
0.0
 30
0.0
  0
VERTEX
  5
B67
  8
DATA
  6
CONTINUOUS
 62
     7
 10
-14.71558888241719
 20
168.12822884865531
 30
0.0
  0
VERTEX
  5
B68
  8
DATA
  6
CONTINUOUS
 62
     7
 10
-14.71558888241719
 20
169.7895027254614
 30
0.0
  0
VERTEX
  5
B69
  8
DATA
  6
CONTINUOUS
 62
     7
 10
-12.31558888241719
 20
169.7895027254614
 30
0.0
  0
VERTEX
  5
B6A
  8
DATA
  6
CONTINUOUS
 62
     7
 10
-12.31558888241719
 20
168.12822884865531
 30
0.0
  0
SEQEND
  5
B6B
  8
DATA
  6
CONTINUOUS
 62
     7
  0
ARC
  5
17F
  8
DATA
  6
CONTINUOUS
 62
     7
 10
-13.5155888824172
 20
173.24894811202151
 30
0.0
 40
5.2594453865602571
 50
283.18882270300412
 51
256.81117729699622
  0
CIRCLE
  5
180
  8
DATA
  6
CONTINUOUS
 62
     7
 10
-145.77796308109711
 20
174.56901302853751
 30
0.0
 40
11.0
  0
CIRCLE
  5
181
  8
DATA
  6
CONTINUOUS
 62
     7
 10
-145.77796308109711
 20
174.56901302853751
 30
0.0
 40
8.25
  0
CIRCLE
  5
182
  8
DATA
  6
CONTINUOUS
 62
     7
 10
-145.77796308109711
 20
178.75835369242029
 30
0.0
 40
1.25
  0
CIRCLE
  5
183
  8
DATA
  6
CONTINUOUS
 62
     7
 10
-150.02796308109711
 20
174.56901302853751
 30
0.0
 40
1.25
  0
CIRCLE
  5
184
  8
DATA
  6
CONTINUOUS
 62
     7
 10
-141.52796308109711
 20
174.56901302853751
 30
0.0
 40
1.25
  0
CIRCLE
  5
185
  8
DATA
  6
CONTINUOUS
 62
     7
 10
-155.31571937689611
 20
184.17407636131151
 30
0.0
 40
2.0006999999999939
  0
POLYLINE
  5
186
  8
DATA
  6
CONTINUOUS
 62
     7
 66
     1
 10
0.0
 20
0.0
 30
0.0
  0
VERTEX
  5
B6C
  8
DATA
  6
CONTINUOUS
 62
     7
 10
-155.50809437689611
 20
184.3664513613115
 30
0.0
  0
VERTEX
  5
B6D
  8
DATA
  6
CONTINUOUS
 62
     7
 10
-155.50809437689611
 20
185.71307636131149
 30
0.0
  0
VERTEX
  5
B6E
  8
DATA
  6
CONTINUOUS
 62
     7
 10
-155.12334437689611
 20
185.71307636131149
 30
0.0
  0
VERTEX
  5
B6F
  8
DATA
  6
CONTINUOUS
 62
     7
 10
-155.12334437689611
 20
184.3664513613115
 30
0.0
  0
SEQEND
  5
B70
  8
DATA
  6
CONTINUOUS
 62
     7
  0
POLYLINE
  5
18D
  8
DATA
  6
CONTINUOUS
 62
     7
 66
     1
 10
0.0
 20
0.0
 30
0.0
  0
VERTEX
  5
B71
  8
DATA
  6
CONTINUOUS
 62
     7
 10
-155.50809437689611
 20
183.98170136131151
 30
0.0
  0
VERTEX
  5
B72
  8
DATA
  6
CONTINUOUS
 62
     7
 10
-155.50809437689611
 20
182.63507636131141
 30
0.0
  0
VERTEX
  5
B73
  8
DATA
  6
CONTINUOUS
 62
     7
 10
-155.12334437689611
 20
182.63507636131141
 30
0.0
  0
VERTEX
  5
B74
  8
DATA
  6
CONTINUOUS
 62
     7
 10
-155.12334437689611
 20
183.98170136131151
 30
0.0
  0
SEQEND
  5
B75
  8
DATA
  6
CONTINUOUS
 62
     7
  0
POLYLINE
  5
194
  8
DATA
  6
CONTINUOUS
 62
     7
 66
     1
 10
0.0
 20
0.0
 30
0.0
  0
VERTEX
  5
B76
  8
DATA
  6
CONTINUOUS
 62
     7
 10
-155.12334437689611
 20
184.3664513613115
 30
0.0
  0
VERTEX
  5
B77
  8
DATA
  6
CONTINUOUS
 62
     7
 10
-153.7767193768961
 20
184.3664513613115
 30
0.0
  0
VERTEX
  5
B78
  8
DATA
  6
CONTINUOUS
 62
     7
 10
-153.7767193768961
 20
183.98170136131151
 30
0.0
  0
VERTEX
  5
B79
  8
DATA
  6
CONTINUOUS
 62
     7
 10
-155.12334437689611
 20
183.98170136131151
 30
0.0
  0
SEQEND
  5
B7A
  8
DATA
  6
CONTINUOUS
 62
     7
  0
POLYLINE
  5
19B
  8
DATA
  6
CONTINUOUS
 62
     7
 66
     1
 10
0.0
 20
0.0
 30
0.0
  0
VERTEX
  5
B7B
  8
DATA
  6
CONTINUOUS
 62
     7
 10
-155.50809437689611
 20
184.3664513613115
 30
0.0
  0
VERTEX
  5
B7C
  8
DATA
  6
CONTINUOUS
 62
     7
 10
-156.8547193768961
 20
184.3664513613115
 30
0.0
  0
VERTEX
  5
B7D
  8
DATA
  6
CONTINUOUS
 62
     7
 10
-156.8547193768961
 20
183.98170136131151
 30
0.0
  0
VERTEX
  5
B7E
  8
DATA
  6
CONTINUOUS
 62
     7
 10
-155.50809437689611
 20
183.98170136131151
 30
0.0
  0
SEQEND
  5
B7F
  8
DATA
  6
CONTINUOUS
 62
     7
  0
CIRCLE
  5
1A2
  8
DATA
  6
CONTINUOUS
 62
     7
 10
-136.17534197017241
 20
165.03369895458761
 30
0.0
 40
2.0006999999999939
  0
POLYLINE
  5
1A3
  8
DATA
  6
CONTINUOUS
 62
     7
 66
     1
 10
0.0
 20
0.0
 30
0.0
  0
VERTEX
  5
B80
  8
DATA
  6
CONTINUOUS
 62
     7
 10
-136.36771697017249
 20
165.2260739545876
 30
0.0
  0
VERTEX
  5
B81
  8
DATA
  6
CONTINUOUS
 62
     7
 10
-136.36771697017249
 20
166.57269895458759
 30
0.0
  0
VERTEX
  5
B82
  8
DATA
  6
CONTINUOUS
 62
     7
 10
-135.98296697017241
 20
166.57269895458759
 30
0.0
  0
VERTEX
  5
B83
  8
DATA
  6
CONTINUOUS
 62
     7
 10
-135.98296697017241
 20
165.2260739545876
 30
0.0
  0
SEQEND
  5
B84
  8
DATA
  6
CONTINUOUS
 62
     7
  0
POLYLINE
  5
1AA
  8
DATA
  6
CONTINUOUS
 62
     7
 66
     1
 10
0.0
 20
0.0
 30
0.0
  0
VERTEX
  5
B85
  8
DATA
  6
CONTINUOUS
 62
     7
 10
-136.36771697017249
 20
164.84132395458761
 30
0.0
  0
VERTEX
  5
B86
  8
DATA
  6
CONTINUOUS
 62
     7
 10
-136.36771697017249
 20
163.49469895458759
 30
0.0
  0
VERTEX
  5
B87
  8
DATA
  6
CONTINUOUS
 62
     7
 10
-135.98296697017241
 20
163.49469895458759
 30
0.0
  0
VERTEX
  5
B88
  8
DATA
  6
CONTINUOUS
 62
     7
 10
-135.98296697017241
 20
164.84132395458761
 30
0.0
  0
SEQEND
  5
B89
  8
DATA
  6
CONTINUOUS
 62
     7
  0
POLYLINE
  5
1B1
  8
DATA
  6
CONTINUOUS
 62
     7
 66
     1
 10
0.0
 20
0.0
 30
0.0
  0
VERTEX
  5
B8A
  8
DATA
  6
CONTINUOUS
 62
     7
 10
-135.98296697017241
 20
165.2260739545876
 30
0.0
  0
VERTEX
  5
B8B
  8
DATA
  6
CONTINUOUS
 62
     7
 10
-134.6363419701724
 20
165.2260739545876
 30
0.0
  0
VERTEX
  5
B8C
  8
DATA
  6
CONTINUOUS
 62
     7
 10
-134.6363419701724
 20
164.84132395458761
 30
0.0
  0
VERTEX
  5
B8D
  8
DATA
  6
CONTINUOUS
 62
     7
 10
-135.98296697017241
 20
164.84132395458761
 30
0.0
  0
SEQEND
  5
B8E
  8
DATA
  6
CONTINUOUS
 62
     7
  0
POLYLINE
  5
1B8
  8
DATA
  6
CONTINUOUS
 62
     7
 66
     1
 10
0.0
 20
0.0
 30
0.0
  0
VERTEX
  5
B8F
  8
DATA
  6
CONTINUOUS
 62
     7
 10
-136.36771697017249
 20
165.2260739545876
 30
0.0
  0
VERTEX
  5
B90
  8
DATA
  6
CONTINUOUS
 62
     7
 10
-137.71434197017251
 20
165.2260739545876
 30
0.0
  0
VERTEX
  5
B91
  8
DATA
  6
CONTINUOUS
 62
     7
 10
-137.71434197017251
 20
164.84132395458761
 30
0.0
  0
VERTEX
  5
B92
  8
DATA
  6
CONTINUOUS
 62
     7
 10
-136.36771697017249
 20
164.84132395458761
 30
0.0
  0
SEQEND
  5
B93
  8
DATA
  6
CONTINUOUS
 62
     7
  0
ARC
  5
1BF
  8
DATA
  6
CONTINUOUS
 62
     7
 10
-145.77796308109711
 20
174.56901302853751
 30
0.0
 40
8.0000000000000853
 50
247.97568716295811
 51
292.02431283704198
  0
LINE
  5
1C0
  8
DATA
  6
CONTINUOUS
 62
     7
 10
-148.77796308109711
 20
167.1528145414417
 30
0.0
 11
-148.77796308109711
 21
166.8837999540676
 31
0.0
  0
LINE
  5
1C1
  8
DATA
  6
CONTINUOUS
 62
     7
 10
-142.77796308109711
 20
167.1528145414417
 30
0.0
 11
-142.77796308109711
 21
166.8837999540676
 31
0.0
  0
TEXT
  5
1C2
  8
DATA
 62
     7
 10
55.719916862728901
 20
171.6207263265548
 30
0.0
 40
2.30859375
  1
100-240V～
 50
180.0
 41
0.7
 11
55.719916862728901
 21
169.3121325765548
 31
0.0
 73
     3
  0
TEXT
  5
1C3
  8
DATA
 62
     7
 10
55.719916862728901
 20
174.6207263265548
 30
0.0
 40
2.30859375
  1
50-60Hz,25W
 50
180.0
 41
0.7
 11
55.719916862728901
 21
172.3121325765548
 31
0.0
 73
     3
  0
POLYLINE
  5
1C4
  8
DATA
  6
CONTINUOUS
 62
     7
 66
     1
 10
0.0
 20
0.0
 30
0.0
  0
VERTEX
  5
B94
  8
DATA
  6
CONTINUOUS
 62
     7
 10
193.0
 20
-430.0
 30
0.0
  0
VERTEX
  5
B95
  8
DATA
  6
CONTINUOUS
 62
     7
 10
190.0
 20
-430.0
 30
0.0
  0
VERTEX
  5
B96
  8
DATA
  6
CONTINUOUS
 62
     7
 10
190.0
 20
-385.0
 30
0.0
  0
VERTEX
  5
B97
  8
DATA
  6
CONTINUOUS
 62
     7
 10
193.0
 20
-385.0
 30
0.0
  0
SEQEND
  5
B98
  8
DATA
  6
CONTINUOUS
 62
     7
  0
LINE
  5
1CB
  8
DATA
  6
CONTINUOUS
 62
     7
 10
190.0
 20
-396.6841420545444
 30
0.0
 11
190.00499405122969
 21
-396.6841420545444
 31
0.0
  0
LINE
  5
1CC
  8
DATA
  6
CONTINUOUS
 62
     7
 10
188.0022777855072
 20
-396.47996533031488
 30
0.0
 11
190.0
 21
-396.47996533031488
 31
0.0
  0
LINE
  5
1CD
  8
DATA
  6
CONTINUOUS
 62
     7
 10
188.0022777855072
 20
-417.47996533031483
 30
0.0
 11
190.0
 21
-417.47996533031483
 31
0.0
  0
LINE
  5
1CE
  8
DATA
  6
CONTINUOUS
 62
     7
 10
188.0022777855072
 20
-417.47996533031483
 30
0.0
 11
188.0022777855072
 21
-396.47996533031488
 31
0.0
  0
POLYLINE
  5
1CF
  8
DATA
  6
CONTINUOUS
 62
     7
 66
     1
 10
0.0
 20
0.0
 30
0.0
 70
   128
  0
VERTEX
  5
B99
  8
DATA
  6
CONTINUOUS
 62
     7
 10
188.0022777855072
 20
-398.92996533031487
 30
0.0
  0
VERTEX
  5
B9A
  8
DATA
  6
CONTINUOUS
 62
     7
 10
187.9368438828416
 20
-398.944312549036
 30
0.0
  0
VERTEX
  5
B9B
  8
DATA
  6
CONTINUOUS
 62
     7
 10
187.87199915168921
 20
-398.95888388118522
 30
0.0
  0
VERTEX
  5
B9C
  8
DATA
  6
CONTINUOUS
 62
     7
 10
187.80774359205
 20
-398.9736793267632
 30
0.0
  0
VERTEX
  5
B9D
  8
DATA
  6
CONTINUOUS
 62
     7
 10
187.74407720392401
 20
-398.98869888576911
 30
0.0
  0
VERTEX
  5
B9E
  8
DATA
  6
CONTINUOUS
 62
     7
 10
187.6809999873112
 20
-399.00394255820368
 30
0.0
  0
VERTEX
  5
B9F
  8
DATA
  6
CONTINUOUS
 62
     7
 10
187.6185119422116
 20
-399.01941034406627
 30
0.0
  0
VERTEX
  5
BA0
  8
DATA
  6
CONTINUOUS
 62
     7
 10
187.5566130686251
 20
-399.03510224335741
 30
0.0
  0
VERTEX
  5
BA1
  8
DATA
  6
CONTINUOUS
 62
     7
 10
187.49530336655181
 20
-399.05101825607682
 30
0.0
  0
VERTEX
  5
BA2
  8
DATA
  6
CONTINUOUS
 62
     7
 10
187.4345828359917
 20
-399.0671583822247
 30
0.0
  0
VERTEX
  5
BA3
  8
DATA
  6
CONTINUOUS
 62
     7
 10
187.3744514769449
 20
-399.0835226218008
 30
0.0
  0
VERTEX
  5
BA4
  8
DATA
  6
CONTINUOUS
 62
     7
 10
187.31490928941119
 20
-399.1001109748052
 30
0.0
  0
VERTEX
  5
BA5
  8
DATA
  6
CONTINUOUS
 62
     7
 10
187.25595627339081
 20
-399.11692344123799
 30
0.0
  0
VERTEX
  5
BA6
  8
DATA
  6
CONTINUOUS
 62
     7
 10
187.1975924288835
 20
-399.13396002109909
 30
0.0
  0
VERTEX
  5
BA7
  8
DATA
  6
CONTINUOUS
 62
     7
 10
187.1398177558894
 20
-399.15122071438873
 30
0.0
  0
VERTEX
  5
BA8
  8
DATA
  6
CONTINUOUS
 62
     7
 10
187.08263225440851
 20
-399.16870552110652
 30
0.0
  0
VERTEX
  5
BA9
  8
DATA
  6
CONTINUOUS
 62
     7
 10
187.02603592444089
 20
-399.18641444125262
 30
0.0
  0
VERTEX
  5
BAA
  8
DATA
  6
CONTINUOUS
 62
     7
 10
186.9700287659864
 20
-399.20434747482722
 30
0.0
  0
VERTEX
  5
BAB
  8
DATA
  6
CONTINUOUS
 62
     7
 10
186.91461077904501
 20
-399.22250462183001
 30
0.0
  0
VERTEX
  5
BAC
  8
DATA
  6
CONTINUOUS
 62
     7
 10
186.8597819636168
 20
-399.2408858822613
 30
0.0
  0
VERTEX
  5
BAD
  8
DATA
  6
CONTINUOUS
 62
     7
 10
186.805542319702
 20
-399.25949125612078
 30
0.0
  0
VERTEX
  5
BAE
  8
DATA
  6
CONTINUOUS
 62
     7
 10
186.75189184730019
 20
-399.27832074340859
 30
0.0
  0
VERTEX
  5
BAF
  8
DATA
  6
CONTINUOUS
 62
     7
 10
186.6988305464117
 20
-399.29737434412499
 30
0.0
  0
VERTEX
  5
BB0
  8
DATA
  6
CONTINUOUS
 62
     7
 10
186.6463584170364
 20
-399.31665205826943
 30
0.0
  0
VERTEX
  5
BB1
  8
DATA
  6
CONTINUOUS
 62
     7
 10
186.59447545917419
 20
-399.33615388584229
 30
0.0
  0
VERTEX
  5
BB2
  8
DATA
  6
CONTINUOUS
 62
     7
 10
186.54318167282531
 20
-399.35587982684359
 30
0.0
  0
VERTEX
  5
BB3
  8
DATA
  6
CONTINUOUS
 62
     7
 10
186.49247705798959
 20
-399.37582988127321
 30
0.0
  0
VERTEX
  5
BB4
  8
DATA
  6
CONTINUOUS
 62
     7
 10
186.44236161466691
 20
-399.39600404913119
 30
0.0
  0
VERTEX
  5
BB5
  8
DATA
  6
CONTINUOUS
 62
     7
 10
186.39283534285761
 20
-399.41640233041738
 30
0.0
  0
VERTEX
  5
BB6
  8
DATA
  6
CONTINUOUS
 62
     7
 10
186.34389824256149
 20
-399.43702472513212
 30
0.0
  0
VERTEX
  5
BB7
  8
DATA
  6
CONTINUOUS
 62
     7
 10
186.29555031377839
 20
-399.45787123327511
 30
0.0
  0
VERTEX
  5
BB8
  8
DATA
  6
CONTINUOUS
 62
     7
 10
186.2477915565087
 20
-399.47894185484643
 30
0.0
  0
VERTEX
  5
BB9
  8
DATA
  6
CONTINUOUS
 62
     7
 10
186.20062197075211
 20
-399.50023658984588
 30
0.0
  0
VERTEX
  5
BBA
  8
DATA
  6
CONTINUOUS
 62
     7
 10
186.15404155650859
 20
-399.52175543827389
 30
0.0
  0
VERTEX
  5
BBB
  8
DATA
  6
CONTINUOUS
 62
     7
 10
186.10805031377839
 20
-399.54349840013032
 30
0.0
  0
VERTEX
  5
BBC
  8
DATA
  6
CONTINUOUS
 62
     7
 10
186.06264824256141
 20
-399.56546547541512
 30
0.0
  0
VERTEX
  5
BBD
  8
DATA
  6
CONTINUOUS
 62
     7
 10
186.01783534285761
 20
-399.58765666412802
 30
0.0
  0
VERTEX
  5
BBE
  8
DATA
  6
CONTINUOUS
 62
     7
 10
185.97361161466691
 20
-399.61007196626952
 30
0.0
  0
VERTEX
  5
BBF
  8
DATA
  6
CONTINUOUS
 62
     7
 10
185.92997705798959
 20
-399.63271138183921
 30
0.0
  0
VERTEX
  5
BC0
  8
DATA
  6
CONTINUOUS
 62
     7
 10
185.88693167282531
 20
-399.65557491083717
 30
0.0
  0
VERTEX
  5
BC1
  8
DATA
  6
CONTINUOUS
 62
     7
 10
185.8444754591743
 20
-399.67866255326362
 30
0.0
  0
VERTEX
  5
BC2
  8
DATA
  6
CONTINUOUS
 62
     7
 10
185.8026084170364
 20
-399.70197430911838
 30
0.0
  0
VERTEX
  5
BC3
  8
DATA
  6
CONTINUOUS
 62
     7
 10
185.7613305464117
 20
-399.72551017840141
 30
0.0
  0
VERTEX
  5
BC4
  8
DATA
  6
CONTINUOUS
 62
     7
 10
185.7206418473003
 20
-399.74927016111292
 30
0.0
  0
VERTEX
  5
BC5
  8
DATA
  6
CONTINUOUS
 62
     7
 10
185.680542319702
 20
-399.77325425725269
 30
0.0
  0
VERTEX
  5
BC6
  8
DATA
  6
CONTINUOUS
 62
     7
 10
185.6410319636168
 20
-399.79746246682078
 30
0.0
  0
VERTEX
  5
BC7
  8
DATA
  6
CONTINUOUS
 62
     7
 10
185.60211077904501
 20
-399.82189478981729
 30
0.0
  0
VERTEX
  5
BC8
  8
DATA
  6
CONTINUOUS
 62
     7
 10
185.5637787659864
 20
-399.84655122624201
 30
0.0
  0
VERTEX
  5
BC9
  8
DATA
  6
CONTINUOUS
 62
     7
 10
185.52603592444089
 20
-399.87143177609522
 30
0.0
  0
VERTEX
  5
BCA
  8
DATA
  6
CONTINUOUS
 62
     7
 10
185.48888225440851
 20
-399.89653643937658
 30
0.0
  0
VERTEX
  5
BCB
  8
DATA
  6
CONTINUOUS
 62
     7
 10
185.4523177558894
 20
-399.92186521608647
 30
0.0
  0
VERTEX
  5
BCC
  8
DATA
  6
CONTINUOUS
 62
     7
 10
185.4163424288835
 20
-399.94741810622457
 30
0.0
  0
VERTEX
  5
BCD
  8
DATA
  6
CONTINUOUS
 62
     7
 10
185.38095627339081
 20
-399.97319510979122
 30
0.0
  0
VERTEX
  5
BCE
  8
DATA
  6
CONTINUOUS
 62
     7
 10
185.34615928941119
 20
-399.99919622678601
 30
0.0
  0
VERTEX
  5
BCF
  8
DATA
  6
CONTINUOUS
 62
     7
 10
185.3119514769449
 20
-400.02542145720912
 30
0.0
  0
VERTEX
  5
BD0
  8
DATA
  6
CONTINUOUS
 62
     7
 10
185.2783328359917
 20
-400.05187080106072
 30
0.0
  0
VERTEX
  5
BD1
  8
DATA
  6
CONTINUOUS
 62
     7
 10
185.24530336655181
 20
-400.07854425834051
 30
0.0
  0
VERTEX
  5
BD2
  8
DATA
  6
CONTINUOUS
 62
     7
 10
185.2128630686251
 20
-400.1054418290488
 30
0.0
  0
VERTEX
  5
BD3
  8
DATA
  6
CONTINUOUS
 62
     7
 10
185.18101194221151
 20
-400.13256351318529
 30
0.0
  0
VERTEX
  5
BD4
  8
DATA
  6
CONTINUOUS
 62
     7
 10
185.14974998731111
 20
-400.15990931075021
 30
0.0
  0
VERTEX
  5
BD5
  8
DATA
  6
CONTINUOUS
 62
     7
 10
185.11907720392401
 20
-400.18747922174362
 30
0.0
  0
VERTEX
  5
BD6
  8
DATA
  6
CONTINUOUS
 62
     7
 10
185.08899359205
 20
-400.21527324616511
 30
0.0
  0
VERTEX
  5
BD7
  8
DATA
  6
CONTINUOUS
 62
     7
 10
185.0594991516891
 20
-400.24329138401498
 30
0.0
  0
VERTEX
  5
BD8
  8
DATA
  6
CONTINUOUS
 62
     7
 10
185.0305938828416
 20
-400.27153363529328
 30
0.0
  0
VERTEX
  5
BD9
  8
DATA
  6
CONTINUOUS
 62
     7
 10
185.0022777855072
 20
-400.30000000000001
 30
0.0
  0
VERTEX
  5
BDA
  8
DATA
  6
CONTINUOUS
 62
     7
 10
185.0022777855072
 20
-400.30000000000001
 30
0.0
  0
SEQEND
  5
BDB
  8
DATA
  6
CONTINUOUS
 62
     7
  0
POLYLINE
  5
213
  8
DATA
  6
CONTINUOUS
 62
     7
 66
     1
 10
0.0
 20
0.0
 30
0.0
 70
   128
  0
VERTEX
  5
BDC
  8
DATA
  6
CONTINUOUS
 62
     7
 10
185.0022777855072
 20
-400.30000000000001
 30
0.0
  0
VERTEX
  5
BDD
  8
DATA
  6
CONTINUOUS
 62
     7
 10
185.0674319904804
 20
-400.36584563078702
 30
0.0
  0
VERTEX
  5
BDE
  8
DATA
  6
CONTINUOUS
 62
     7
 10
185.1320059032324
 20
-400.43208108281891
 30
0.0
  0
VERTEX
  5
BDF
  8
DATA
  6
CONTINUOUS
 62
     7
 10
185.19599952376291
 20
-400.49870635609568
 30
0.0
  0
VERTEX
  5
BE0
  8
DATA
  6
CONTINUOUS
 62
     7
 10
185.2594128520721
 20
-400.56572145061722
 30
0.0
  0
VERTEX
  5
BE1
  8
DATA
  6
CONTINUOUS
 62
     7
 10
185.32224588816001
 20
-400.63312636638369
 30
0.0
  0
VERTEX
  5
BE2
  8
DATA
  6
CONTINUOUS
 62
     7
 10
185.38449863202629
 20
-400.7009211033951
 30
0.0
  0
VERTEX
  5
BE3
  8
DATA
  6
CONTINUOUS
 62
     7
 10
185.4461710836714
 20
-400.76910566165111
 30
0.0
  0
VERTEX
  5
BE4
  8
DATA
  6
CONTINUOUS
 62
     7
 10
185.507263243095
 20
-400.83768004115223
 30
0.0
  0
VERTEX
  5
BE5
  8
DATA
  6
CONTINUOUS
 62
     7
 10
185.5677751102973
 20
-400.90664424189822
 30
0.0
  0
VERTEX
  5
BE6
  8
DATA
  6
CONTINUOUS
 62
     7
 10
185.6277066852783
 20
-400.97599826388881
 30
0.0
  0
VERTEX
  5
BE7
  8
DATA
  6
CONTINUOUS
 62
     7
 10
185.68705796803781
 20
-401.0457421071244
 30
0.0
  0
VERTEX
  5
BE8
  8
DATA
  6
CONTINUOUS
 62
     7
 10
185.745828958576
 20
-401.11587577160492
 30
0.0
  0
VERTEX
  5
BE9
  8
DATA
  6
CONTINUOUS
 62
     7
 10
185.80401965689279
 20
-401.18639925733032
 30
0.0
  0
VERTEX
  5
BEA
  8
DATA
  6
CONTINUOUS
 62
     7
 10
185.86163006298821
 20
-401.25731256430038
 30
0.0
  0
VERTEX
  5
BEB
  8
DATA
  6
CONTINUOUS
 62
     7
 10
185.9186601768622
 20
-401.32861569251543
 30
0.0
  0
VERTEX
  5
BEC
  8
DATA
  6
CONTINUOUS
 62
     7
 10
185.97510999851491
 20
-401.40030864197519
 30
0.0
  0
VERTEX
  5
BED
  8
DATA
  6
CONTINUOUS
 62
     7
 10
186.03097952794619
 20
-401.47239141268
 30
0.0
  0
VERTEX
  5
BEE
  8
DATA
  6
CONTINUOUS
 62
     7
 10
186.08626876515609
 20
-401.54486400462957
 30
0.0
  0
VERTEX
  5
BEF
  8
DATA
  6
CONTINUOUS
 62
     7
 10
186.14097771014471
 20
-401.61772641782397
 30
0.0
  0
VERTEX
  5
BF0
  8
DATA
  6
CONTINUOUS
 62
     7
 10
186.19510636291199
 20
-401.6909786522632
 30
0.0
  0
VERTEX
  5
BF1
  8
DATA
  6
CONTINUOUS
 62
     7
 10
186.24865472345769
 20
-401.76462070794742
 30
0.0
  0
VERTEX
  5
BF2
  8
DATA
  6
CONTINUOUS
 62
     7
 10
186.30162279178211
 20
-401.8386525848764
 30
0.0
  0
VERTEX
  5
BF3
  8
DATA
  6
CONTINUOUS
 62
     7
 10
186.35401056788521
 20
-401.91307428305032
 30
0.0
  0
VERTEX
  5
BF4
  8
DATA
  6
CONTINUOUS
 62
     7
 10
186.40581805176689
 20
-401.98788580246912
 30
0.0
  0
VERTEX
  5
BF5
  8
DATA
  6
CONTINUOUS
 62
     7
 10
186.45704524342719
 20
-402.06308714313269
 30
0.0
  0
VERTEX
  5
BF6
  8
DATA
  6
CONTINUOUS
 62
     7
 10
186.50769214286609
 20
-402.13867830504108
 30
0.0
  0
VERTEX
  5
BF7
  8
DATA
  6
CONTINUOUS
 62
     7
 10
186.55775875008371
 20
-402.2146592881943
 30
0.0
  0
VERTEX
  5
BF8
  8
DATA
  6
CONTINUOUS
 62
     7
 10
186.60724506507981
 20
-402.29103009259251
 30
0.0
  0
VERTEX
  5
BF9
  8
DATA
  6
CONTINUOUS
 62
     7
 10
186.65615108785471
 20
-402.3677907182356
 30
0.0
  0
VERTEX
  5
BFA
  8
DATA
  6
CONTINUOUS
 62
     7
 10
186.7044768184081
 20
-402.4449411651234
 30
0.0
  0
VERTEX
  5
BFB
  8
DATA
  6
CONTINUOUS
 62
     7
 10
186.7522222567402
 20
-402.52248143325619
 30
0.0
  0
VERTEX
  5
BFC
  8
DATA
  6
CONTINUOUS
 62
     7
 10
186.79938740285081
 20
-402.60041152263369
 30
0.0
  0
VERTEX
  5
BFD
  8
DATA
  6
CONTINUOUS
 62
     7
 10
186.8459722567402
 20
-402.67873143325619
 30
0.0
  0
VERTEX
  5
BFE
  8
DATA
  6
CONTINUOUS
 62
     7
 10
186.8919768184081
 20
-402.7574411651234
 30
0.0
  0
VERTEX
  5
BFF
  8
DATA
  6
CONTINUOUS
 62
     7
 10
186.93740108785471
 20
-402.8365407182356
 30
0.0
  0
VERTEX
  5
C00
  8
DATA
  6
CONTINUOUS
 62
     7
 10
186.98224506507989
 20
-402.91603009259262
 30
0.0
  0
VERTEX
  5
C01
  8
DATA
  6
CONTINUOUS
 62
     7
 10
187.02650875008371
 20
-402.9959092881943
 30
0.0
  0
VERTEX
  5
C02
  8
DATA
  6
CONTINUOUS
 62
     7
 10
187.07019214286609
 20
-403.07617830504108
 30
0.0
  0
VERTEX
  5
C03
  8
DATA
  6
CONTINUOUS
 62
     7
 10
187.11329524342719
 20
-403.1568371431328
 30
0.0
  0
VERTEX
  5
C04
  8
DATA
  6
CONTINUOUS
 62
     7
 10
187.15581805176689
 20
-403.23788580246901
 30
0.0
  0
VERTEX
  5
C05
  8
DATA
  6
CONTINUOUS
 62
     7
 10
187.19776056788521
 20
-403.31932428305032
 30
0.0
  0
VERTEX
  5
C06
  8
DATA
  6
CONTINUOUS
 62
     7
 10
187.23912279178211
 20
-403.4011525848764
 30
0.0
  0
VERTEX
  5
C07
  8
DATA
  6
CONTINUOUS
 62
     7
 10
187.27990472345769
 20
-403.48337070794742
 30
0.0
  0
VERTEX
  5
C08
  8
DATA
  6
CONTINUOUS
 62
     7
 10
187.32010636291199
 20
-403.5659786522632
 30
0.0
  0
VERTEX
  5
C09
  8
DATA
  6
CONTINUOUS
 62
     7
 10
187.35972771014471
 20
-403.64897641782397
 30
0.0
  0
VERTEX
  5
C0A
  8
DATA
  6
CONTINUOUS
 62
     7
 10
187.39876876515609
 20
-403.73236400462952
 30
0.0
  0
VERTEX
  5
C0B
  8
DATA
  6
CONTINUOUS
 62
     7
 10
187.4372295279463
 20
-403.81614141268
 30
0.0
  0
VERTEX
  5
C0C
  8
DATA
  6
CONTINUOUS
 62
     7
 10
187.47510999851491
 20
-403.9003086419753
 30
0.0
  0
VERTEX
  5
C0D
  8
DATA
  6
CONTINUOUS
 62
     7
 10
187.5124101768622
 20
-403.98486569251543
 30
0.0
  0
VERTEX
  5
C0E
  8
DATA
  6
CONTINUOUS
 62
     7
 10
187.54913006298821
 20
-404.06981256430032
 30
0.0
  0
VERTEX
  5
C0F
  8
DATA
  6
CONTINUOUS
 62
     7
 10
187.58526965689279
 20
-404.15514925733032
 30
0.0
  0
VERTEX
  5
C10
  8
DATA
  6
CONTINUOUS
 62
     7
 10
187.620828958576
 20
-404.24087577160492
 30
0.0
  0
VERTEX
  5
C11
  8
DATA
  6
CONTINUOUS
 62
     7
 10
187.65580796803781
 20
-404.3269921071244
 30
0.0
  0
VERTEX
  5
C12
  8
DATA
  6
CONTINUOUS
 62
     7
 10
187.69020668527821
 20
-404.41349826388893
 30
0.0
  0
VERTEX
  5
C13
  8
DATA
  6
CONTINUOUS
 62
     7
 10
187.72402511029739
 20
-404.50039424189822
 30
0.0
  0
VERTEX
  5
C14
  8
DATA
  6
CONTINUOUS
 62
     7
 10
187.757263243095
 20
-404.58768004115223
 30
0.0
  0
VERTEX
  5
C15
  8
DATA
  6
CONTINUOUS
 62
     7
 10
187.7899210836714
 20
-404.67535566165111
 30
0.0
  0
VERTEX
  5
C16
  8
DATA
  6
CONTINUOUS
 62
     7
 10
187.82199863202641
 20
-404.7634211033951
 30
0.0
  0
VERTEX
  5
C17
  8
DATA
  6
CONTINUOUS
 62
     7
 10
187.85349588816001
 20
-404.85187636638369
 30
0.0
  0
VERTEX
  5
C18
  8
DATA
  6
CONTINUOUS
 62
     7
 10
187.8844128520721
 20
-404.94072145061722
 30
0.0
  0
VERTEX
  5
C19
  8
DATA
  6
CONTINUOUS
 62
     7
 10
187.91474952376291
 20
-405.02995635609562
 30
0.0
  0
VERTEX
  5
C1A
  8
DATA
  6
CONTINUOUS
 62
     7
 10
187.9445059032324
 20
-405.11958108281891
 30
0.0
  0
VERTEX
  5
C1B
  8
DATA
  6
CONTINUOUS
 62
     7
 10
187.9736819904804
 20
-405.20959563078702
 30
0.0
  0
VERTEX
  5
C1C
  8
DATA
  6
CONTINUOUS
 62
     7
 10
188.0022777855072
 20
-405.2999999999999
 30
0.0
  0
VERTEX
  5
C1D
  8
DATA
  6
CONTINUOUS
 62
     7
 10
188.0022777855072
 20
-405.2999999999999
 30
0.0
  0
SEQEND
  5
C1E
  8
DATA
  6
CONTINUOUS
 62
     7
  0
LINE
  5
257
  8
DATA
  6
CONTINUOUS
 62
     7
 10
98.500000000000014
 20
-258.00000000002768
 30
0.0
 11
-335.5
 21
-258.00000000002768
 31
0.0
  0
CIRCLE
  5
258
  8
DATA
  6
CONTINUOUS
 62
     7
 10
-34.58812462795845
 20
173.5379128607228
 30
0.0
 40
8.2500000000000853
  0
CIRCLE
  5
259
  8
DATA
  6
CONTINUOUS
 62
     7
 10
-34.584721164277802
 20
173.67343872161041
 30
0.0
 40
6.9000000000000021
  0
CIRCLE
  5
25A
  8
DATA
  6
CONTINUOUS
 62
     7
 10
-31.997637938403528
 20
173.7179764837887
 30
0.0
 40
0.5519621081381896
  0
CIRCLE
  5
25B
  8
DATA
  6
CONTINUOUS
 62
     7
 10
-33.016421197807063
 20
175.47115880543731
 30
0.0
 40
0.5522307728991206
  0
CIRCLE
  5
25C
  8
DATA
  6
CONTINUOUS
 62
     7
 10
-34.835683491818713
 20
176.45701253795301
 30
0.0
 40
0.5505590016105373
  0
CIRCLE
  5
25D
  8
DATA
  6
CONTINUOUS
 62
     7
 10
-36.69458424820057
 20
175.46680916578461
 30
0.0
 40
0.5526399569132444
  0
CIRCLE
  5
25E
  8
DATA
  6
CONTINUOUS
 62
     7
 10
-37.740907830951727
 20
173.73026679892689
 30
0.0
 40
0.5441980039814637
  0
POLYLINE
  5
25F
  8
DATA
  6
CONTINUOUS
 62
     7
 66
     1
 10
0.0
 20
0.0
 30
0.0
  0
VERTEX
  5
C1F
  8
DATA
  6
CONTINUOUS
 62
     7
 10
-35.16564443332399
 20
176.01628474062659
 30
0.0
  0
VERTEX
  5
C20
  8
DATA
  6
CONTINUOUS
 62
     7
 10
-35.16564443332399
 20
175.13691546783249
 30
0.0
  0
VERTEX
  5
C21
  8
DATA
  6
CONTINUOUS
 62
     7
 10
-34.483666088081812
 20
175.13691546783249
 30
0.0
  0
VERTEX
  5
C22
  8
DATA
  6
CONTINUOUS
 62
     7
 10
-34.483666088081812
 20
176.03369355453549
 30
0.0
  0
SEQEND
  5
C23
  8
DATA
  6
CONTINUOUS
 62
     7
  0
POLYLINE
  5
266
  8
DATA
  6
CONTINUOUS
 62
     7
 66
     1
 10
0.0
 20
0.0
 30
0.0
  0
VERTEX
  5
C24
  8
DATA
  6
CONTINUOUS
 62
     7
 10
-35.16564443332399
 20
176.89774033527939
 30
0.0
  0
VERTEX
  5
C25
  8
DATA
  6
CONTINUOUS
 62
     7
 10
-35.16564443332399
 20
177.7548708438907
 30
0.0
  0
VERTEX
  5
C26
  8
DATA
  6
CONTINUOUS
 62
     7
 10
-34.483666088081812
 20
177.7548708438907
 30
0.0
  0
VERTEX
  5
C27
  8
DATA
  6
CONTINUOUS
 62
     7
 10
-34.483666088081812
 20
176.88033152137061
 30
0.0
  0
SEQEND
  5
C28
  8
DATA
  6
CONTINUOUS
 62
     7
  0
POLYLINE
  5
26D
  8
DATA
  6
CONTINUOUS
 62
     7
 66
     1
 10
0.0
 20
0.0
 30
0.0
  0
VERTEX
  5
C29
  8
DATA
  6
CONTINUOUS
 62
     7
 10
-36.639618341395419
 20
174.91690947393991
 30
0.0
  0
VERTEX
  5
C2A
  8
DATA
  6
CONTINUOUS
 62
     7
 10
-36.02367494382208
 20
174.30096607636679
 30
0.0
  0
VERTEX
  5
C2B
  8
DATA
  6
CONTINUOUS
 62
     7
 10
-35.539680686117961
 20
174.784960334071
 30
0.0
  0
VERTEX
  5
C2C
  8
DATA
  6
CONTINUOUS
 62
     7
 10
-36.146993760008542
 20
175.39227340796131
 30
0.0
  0
SEQEND
  5
C2D
  8
DATA
  6
CONTINUOUS
 62
     7
  0
POLYLINE
  5
274
  8
DATA
  6
CONTINUOUS
 62
     7
 66
     1
 10
0.0
 20
0.0
 30
0.0
  0
VERTEX
  5
C2E
  8
DATA
  6
CONTINUOUS
 62
     7
 10
-37.244483940002283
 20
175.5217750725466
 30
0.0
  0
VERTEX
  5
C2F
  8
DATA
  6
CONTINUOUS
 62
     7
 10
-37.871625892009952
 20
176.14891702455409
 30
0.0
  0
VERTEX
  5
C30
  8
DATA
  6
CONTINUOUS
 62
     7
 10
-37.387631634305819
 20
176.63291128225819
 30
0.0
  0
VERTEX
  5
C31
  8
DATA
  6
CONTINUOUS
 62
     7
 10
-36.769120006010141
 20
176.0143996539627
 30
0.0
  0
SEQEND
  5
C32
  8
DATA
  6
CONTINUOUS
 62
     7
  0
POLYLINE
  5
27B
  8
DATA
  6
CONTINUOUS
 62
     7
 66
     1
 10
0.0
 20
0.0
 30
0.0
  0
VERTEX
  5
C33
  8
DATA
  6
CONTINUOUS
 62
     7
 10
-32.961877067883727
 20
176.02068930000121
 30
0.0
  0
VERTEX
  5
C34
  8
DATA
  6
CONTINUOUS
 62
     7
 10
-32.349630371353101
 20
176.63291128225819
 30
0.0
  0
VERTEX
  5
C35
  8
DATA
  6
CONTINUOUS
 62
     7
 10
-31.86563611364901
 20
176.14891702455409
 30
0.0
  0
VERTEX
  5
C36
  8
DATA
  6
CONTINUOUS
 62
     7
 10
-32.469200505070752
 20
175.5453769969314
 30
0.0
  0
SEQEND
  5
C37
  8
DATA
  6
CONTINUOUS
 62
     7
  0
POLYLINE
  5
282
  8
DATA
  6
CONTINUOUS
 62
     7
 66
     1
 10
0.0
 20
0.0
 30
0.0
  0
VERTEX
  5
C38
  8
DATA
  6
CONTINUOUS
 62
     7
 10
-33.565953893724718
 20
175.41663685864441
 30
0.0
  0
VERTEX
  5
C39
  8
DATA
  6
CONTINUOUS
 62
     7
 10
-34.197655917915768
 20
174.784960334071
 30
0.0
  0
VERTEX
  5
C3A
  8
DATA
  6
CONTINUOUS
 62
     7
 10
-33.71366166021167
 20
174.30096607636679
 30
0.0
  0
VERTEX
  5
C3B
  8
DATA
  6
CONTINUOUS
 62
     7
 10
-33.09066147908613
 20
174.9239411091379
 30
0.0
  0
SEQEND
  5
C3C
  8
DATA
  6
CONTINUOUS
 62
     7
  0
POLYLINE
  5
289
  8
DATA
  6
CONTINUOUS
 62
     7
 66
     1
 10
0.0
 20
0.0
 30
0.0
  0
VERTEX
  5
C3D
  8
DATA
  6
CONTINUOUS
 62
     7
 10
-37.676960765190472
 20
173.18983896812421
 30
0.0
  0
VERTEX
  5
C3E
  8
DATA
  6
CONTINUOUS
 62
     7
 10
-37.035676500543651
 20
172.5408920140566
 30
0.0
  0
VERTEX
  5
C3F
  8
DATA
  6
CONTINUOUS
 62
     7
 10
-36.551682242840151
 20
173.02488627176069
 30
0.0
  0
VERTEX
  5
C40
  8
DATA
  6
CONTINUOUS
 62
     7
 10
-37.200503263639348
 20
173.6661234349346
 30
0.0
  0
SEQEND
  5
C41
  8
DATA
  6
CONTINUOUS
 62
     7
  0
POLYLINE
  5
290
  8
DATA
  6
CONTINUOUS
 62
     7
 66
     1
 10
0.0
 20
0.0
 30
0.0
  0
VERTEX
  5
C42
  8
DATA
  6
CONTINUOUS
 62
     7
 10
-38.280538002340002
 20
173.8006283343789
 30
0.0
  0
VERTEX
  5
C43
  8
DATA
  6
CONTINUOUS
 62
     7
 10
-38.883627448731581
 20
174.41092408127631
 30
0.0
  0
VERTEX
  5
C44
  8
DATA
  6
CONTINUOUS
 62
     7
 10
-38.421639711685032
 20
174.87298641669881
 30
0.0
  0
VERTEX
  5
C45
  8
DATA
  6
CONTINUOUS
 62
     7
 10
-37.811400288516353
 20
174.26987988342481
 30
0.0
  0
SEQEND
  5
C46
  8
DATA
  6
CONTINUOUS
 62
     7
  0
POLYLINE
  5
297
  8
DATA
  6
CONTINUOUS
 62
     7
 66
     1
 10
0.0
 20
0.0
 30
0.0
  0
VERTEX
  5
C47
  8
DATA
  6
CONTINUOUS
 62
     7
 10
-31.92362967198855
 20
174.2649544955373
 30
0.0
  0
VERTEX
  5
C48
  8
DATA
  6
CONTINUOUS
 62
     7
 10
-31.315622293973949
 20
174.87298641669881
 30
0.0
  0
VERTEX
  5
C49
  8
DATA
  6
CONTINUOUS
 62
     7
 10
-30.831628036269819
 20
174.41092408127631
 30
0.0
  0
VERTEX
  5
C4A
  8
DATA
  6
CONTINUOUS
 62
     7
 10
-31.449807251449329
 20
173.78538351024679
 30
0.0
  0
SEQEND
  5
C4B
  8
DATA
  6
CONTINUOUS
 62
     7
  0
POLYLINE
  5
29E
  8
DATA
  6
CONTINUOUS
 62
     7
 66
     1
 10
0.0
 20
0.0
 30
0.0
  0
VERTEX
  5
C4C
  8
DATA
  6
CONTINUOUS
 62
     7
 10
-32.544612962309941
 20
173.64394613827631
 30
0.0
  0
VERTEX
  5
C4D
  8
DATA
  6
CONTINUOUS
 62
     7
 10
-33.163647840536584
 20
173.02488627176069
 30
0.0
  0
VERTEX
  5
C4E
  8
DATA
  6
CONTINUOUS
 62
     7
 10
-32.679653582833112
 20
172.5408920140566
 30
0.0
  0
VERTEX
  5
C4F
  8
DATA
  6
CONTINUOUS
 62
     7
 10
-32.058555444882643
 20
173.16938626675659
 30
0.0
  0
SEQEND
  5
C50
  8
DATA
  6
CONTINUOUS
 62
     7
  0
POLYLINE
  5
2A5
  8
DATA
  6
CONTINUOUS
 62
     7
 66
     1
 10
0.0
 20
0.0
 30
0.0
  0
VERTEX
  5
C51
  8
DATA
  6
CONTINUOUS
 62
     7
 10
-36.015588882417212
 20
168.12822884865531
 30
0.0
  0
VERTEX
  5
C52
  8
DATA
  6
CONTINUOUS
 62
     7
 10
-36.015588882417212
 20
169.7895027254614
 30
0.0
  0
VERTEX
  5
C53
  8
DATA
  6
CONTINUOUS
 62
     7
 10
-33.6155888824172
 20
169.7895027254614
 30
0.0
  0
VERTEX
  5
C54
  8
DATA
  6
CONTINUOUS
 62
     7
 10
-33.6155888824172
 20
168.12822884865531
 30
0.0
  0
SEQEND
  5
C55
  8
DATA
  6
CONTINUOUS
 62
     7
  0
ARC
  5
2AC
  8
DATA
  6
CONTINUOUS
 62
     7
 10
-34.815588882417217
 20
173.24894811202151
 30
0.0
 40
5.2594453865602571
 50
283.18882270300412
 51
256.81117729699622
  0
CIRCLE
  5
2AD
  8
DATA
  6
CONTINUOUS
 62
     7
 10
-55.888124627958433
 20
173.5379128607228
 30
0.0
 40
8.2500000000000853
  0
CIRCLE
  5
2AE
  8
DATA
  6
CONTINUOUS
 62
     7
 10
-55.884721164277778
 20
173.67343872161041
 30
0.0
 40
6.9000000000000021
  0
CIRCLE
  5
2AF
  8
DATA
  6
CONTINUOUS
 62
     7
 10
-53.297637938403511
 20
173.7179764837887
 30
0.0
 40
0.5519621081381896
  0
CIRCLE
  5
2B0
  8
DATA
  6
CONTINUOUS
 62
     7
 10
-54.316421197807038
 20
175.47115880543731
 30
0.0
 40
0.5522307728991206
  0
CIRCLE
  5
2B1
  8
DATA
  6
CONTINUOUS
 62
     7
 10
-56.135683491818703
 20
176.45701253795301
 30
0.0
 40
0.5505590016105373
  0
CIRCLE
  5
2B2
  8
DATA
  6
CONTINUOUS
 62
     7
 10
-57.994584248200539
 20
175.46680916578461
 30
0.0
 40
0.5526399569132444
  0
CIRCLE
  5
2B3
  8
DATA
  6
CONTINUOUS
 62
     7
 10
-59.040907830951703
 20
173.73026679892689
 30
0.0
 40
0.5441980039814637
  0
POLYLINE
  5
2B4
  8
DATA
  6
CONTINUOUS
 62
     7
 66
     1
 10
0.0
 20
0.0
 30
0.0
  0
VERTEX
  5
C56
  8
DATA
  6
CONTINUOUS
 62
     7
 10
-56.465644433323973
 20
176.01628474062659
 30
0.0
  0
VERTEX
  5
C57
  8
DATA
  6
CONTINUOUS
 62
     7
 10
-56.465644433323973
 20
175.13691546783249
 30
0.0
  0
VERTEX
  5
C58
  8
DATA
  6
CONTINUOUS
 62
     7
 10
-55.78366608808178
 20
175.13691546783249
 30
0.0
  0
VERTEX
  5
C59
  8
DATA
  6
CONTINUOUS
 62
     7
 10
-55.78366608808178
 20
176.03369355453549
 30
0.0
  0
SEQEND
  5
C5A
  8
DATA
  6
CONTINUOUS
 62
     7
  0
POLYLINE
  5
2BB
  8
DATA
  6
CONTINUOUS
 62
     7
 66
     1
 10
0.0
 20
0.0
 30
0.0
  0
VERTEX
  5
C5B
  8
DATA
  6
CONTINUOUS
 62
     7
 10
-56.465644433323973
 20
176.89774033527939
 30
0.0
  0
VERTEX
  5
C5C
  8
DATA
  6
CONTINUOUS
 62
     7
 10
-56.465644433323973
 20
177.7548708438907
 30
0.0
  0
VERTEX
  5
C5D
  8
DATA
  6
CONTINUOUS
 62
     7
 10
-55.78366608808178
 20
177.7548708438907
 30
0.0
  0
VERTEX
  5
C5E
  8
DATA
  6
CONTINUOUS
 62
     7
 10
-55.78366608808178
 20
176.88033152137061
 30
0.0
  0
SEQEND
  5
C5F
  8
DATA
  6
CONTINUOUS
 62
     7
  0
POLYLINE
  5
2C2
  8
DATA
  6
CONTINUOUS
 62
     7
 66
     1
 10
0.0
 20
0.0
 30
0.0
  0
VERTEX
  5
C60
  8
DATA
  6
CONTINUOUS
 62
     7
 10
-57.939618341395402
 20
174.91690947393991
 30
0.0
  0
VERTEX
  5
C61
  8
DATA
  6
CONTINUOUS
 62
     7
 10
-57.323674943822063
 20
174.30096607636679
 30
0.0
  0
VERTEX
  5
C62
  8
DATA
  6
CONTINUOUS
 62
     7
 10
-56.839680686117923
 20
174.784960334071
 30
0.0
  0
VERTEX
  5
C63
  8
DATA
  6
CONTINUOUS
 62
     7
 10
-57.446993760008539
 20
175.39227340796131
 30
0.0
  0
SEQEND
  5
C64
  8
DATA
  6
CONTINUOUS
 62
     7
  0
POLYLINE
  5
2C9
  8
DATA
  6
CONTINUOUS
 62
     7
 66
     1
 10
0.0
 20
0.0
 30
0.0
  0
VERTEX
  5
C65
  8
DATA
  6
CONTINUOUS
 62
     7
 10
-58.544483940002252
 20
175.5217750725466
 30
0.0
  0
VERTEX
  5
C66
  8
DATA
  6
CONTINUOUS
 62
     7
 10
-59.171625892009928
 20
176.14891702455409
 30
0.0
  0
VERTEX
  5
C67
  8
DATA
  6
CONTINUOUS
 62
     7
 10
-58.687631634305802
 20
176.63291128225819
 30
0.0
  0
VERTEX
  5
C68
  8
DATA
  6
CONTINUOUS
 62
     7
 10
-58.06912000601011
 20
176.0143996539627
 30
0.0
  0
SEQEND
  5
C69
  8
DATA
  6
CONTINUOUS
 62
     7
  0
POLYLINE
  5
2D0
  8
DATA
  6
CONTINUOUS
 62
     7
 66
     1
 10
0.0
 20
0.0
 30
0.0
  0
VERTEX
  5
C6A
  8
DATA
  6
CONTINUOUS
 62
     7
 10
-54.261877067883717
 20
176.02068930000121
 30
0.0
  0
VERTEX
  5
C6B
  8
DATA
  6
CONTINUOUS
 62
     7
 10
-53.649630371353091
 20
176.63291128225819
 30
0.0
  0
VERTEX
  5
C6C
  8
DATA
  6
CONTINUOUS
 62
     7
 10
-53.165636113648979
 20
176.14891702455409
 30
0.0
  0
VERTEX
  5
C6D
  8
DATA
  6
CONTINUOUS
 62
     7
 10
-53.769200505070728
 20
175.5453769969314
 30
0.0
  0
SEQEND
  5
C6E
  8
DATA
  6
CONTINUOUS
 62
     7
  0
POLYLINE
  5
2D7
  8
DATA
  6
CONTINUOUS
 62
     7
 66
     1
 10
0.0
 20
0.0
 30
0.0
  0
VERTEX
  5
C6F
  8
DATA
  6
CONTINUOUS
 62
     7
 10
-54.865953893724708
 20
175.41663685864441
 30
0.0
  0
VERTEX
  5
C70
  8
DATA
  6
CONTINUOUS
 62
     7
 10
-55.497655917915758
 20
174.784960334071
 30
0.0
  0
VERTEX
  5
C71
  8
DATA
  6
CONTINUOUS
 62
     7
 10
-55.013661660211639
 20
174.30096607636679
 30
0.0
  0
VERTEX
  5
C72
  8
DATA
  6
CONTINUOUS
 62
     7
 10
-54.390661479086113
 20
174.9239411091379
 30
0.0
  0
SEQEND
  5
C73
  8
DATA
  6
CONTINUOUS
 62
     7
  0
POLYLINE
  5
2DE
  8
DATA
  6
CONTINUOUS
 62
     7
 66
     1
 10
0.0
 20
0.0
 30
0.0
  0
VERTEX
  5
C74
  8
DATA
  6
CONTINUOUS
 62
     7
 10
-58.976960765190462
 20
173.18983896812421
 30
0.0
  0
VERTEX
  5
C75
  8
DATA
  6
CONTINUOUS
 62
     7
 10
-58.335676500543613
 20
172.5408920140566
 30
0.0
  0
VERTEX
  5
C76
  8
DATA
  6
CONTINUOUS
 62
     7
 10
-57.851682242840141
 20
173.02488627176069
 30
0.0
  0
VERTEX
  5
C77
  8
DATA
  6
CONTINUOUS
 62
     7
 10
-58.500503263639317
 20
173.6661234349346
 30
0.0
  0
SEQEND
  5
C78
  8
DATA
  6
CONTINUOUS
 62
     7
  0
POLYLINE
  5
2E5
  8
DATA
  6
CONTINUOUS
 62
     7
 66
     1
 10
0.0
 20
0.0
 30
0.0
  0
VERTEX
  5
C79
  8
DATA
  6
CONTINUOUS
 62
     7
 10
-59.580538002339971
 20
173.8006283343789
 30
0.0
  0
VERTEX
  5
C7A
  8
DATA
  6
CONTINUOUS
 62
     7
 10
-60.183627448731563
 20
174.41092408127631
 30
0.0
  0
VERTEX
  5
C7B
  8
DATA
  6
CONTINUOUS
 62
     7
 10
-59.721639711685029
 20
174.87298641669881
 30
0.0
  0
VERTEX
  5
C7C
  8
DATA
  6
CONTINUOUS
 62
     7
 10
-59.111400288516343
 20
174.26987988342481
 30
0.0
  0
SEQEND
  5
C7D
  8
DATA
  6
CONTINUOUS
 62
     7
  0
POLYLINE
  5
2EC
  8
DATA
  6
CONTINUOUS
 62
     7
 66
     1
 10
0.0
 20
0.0
 30
0.0
  0
VERTEX
  5
C7E
  8
DATA
  6
CONTINUOUS
 62
     7
 10
-53.223629671988533
 20
174.2649544955373
 30
0.0
  0
VERTEX
  5
C7F
  8
DATA
  6
CONTINUOUS
 62
     7
 10
-52.615622293973942
 20
174.87298641669881
 30
0.0
  0
VERTEX
  5
C80
  8
DATA
  6
CONTINUOUS
 62
     7
 10
-52.131628036269788
 20
174.41092408127631
 30
0.0
  0
VERTEX
  5
C81
  8
DATA
  6
CONTINUOUS
 62
     7
 10
-52.749807251449312
 20
173.78538351024679
 30
0.0
  0
SEQEND
  5
C82
  8
DATA
  6
CONTINUOUS
 62
     7
  0
POLYLINE
  5
2F3
  8
DATA
  6
CONTINUOUS
 62
     7
 66
     1
 10
0.0
 20
0.0
 30
0.0
  0
VERTEX
  5
C83
  8
DATA
  6
CONTINUOUS
 62
     7
 10
-53.844612962309917
 20
173.64394613827631
 30
0.0
  0
VERTEX
  5
C84
  8
DATA
  6
CONTINUOUS
 62
     7
 10
-54.463647840536559
 20
173.02488627176069
 30
0.0
  0
VERTEX
  5
C85
  8
DATA
  6
CONTINUOUS
 62
     7
 10
-53.979653582833102
 20
172.5408920140566
 30
0.0
  0
VERTEX
  5
C86
  8
DATA
  6
CONTINUOUS
 62
     7
 10
-53.358555444882633
 20
173.16938626675659
 30
0.0
  0
SEQEND
  5
C87
  8
DATA
  6
CONTINUOUS
 62
     7
  0
POLYLINE
  5
2FA
  8
DATA
  6
CONTINUOUS
 62
     7
 66
     1
 10
0.0
 20
0.0
 30
0.0
  0
VERTEX
  5
C88
  8
DATA
  6
CONTINUOUS
 62
     7
 10
-57.315588882417181
 20
168.12822884865531
 30
0.0
  0
VERTEX
  5
C89
  8
DATA
  6
CONTINUOUS
 62
     7
 10
-57.315588882417181
 20
169.7895027254614
 30
0.0
  0
VERTEX
  5
C8A
  8
DATA
  6
CONTINUOUS
 62
     7
 10
-54.915588882417183
 20
169.7895027254614
 30
0.0
  0
VERTEX
  5
C8B
  8
DATA
  6
CONTINUOUS
 62
     7
 10
-54.915588882417183
 20
168.12822884865531
 30
0.0
  0
SEQEND
  5
C8C
  8
DATA
  6
CONTINUOUS
 62
     7
  0
ARC
  5
301
  8
DATA
  6
CONTINUOUS
 62
     7
 10
-56.1155888824172
 20
173.24894811202151
 30
0.0
 40
5.2594453865602571
 50
283.18882270300412
 51
256.81117729699622
  0
CIRCLE
  5
302
  8
DATA
  6
CONTINUOUS
 62
     7
 10
-11.238313992397931
 20
172.10148272292011
 30
0.0
 40
0.5519621081382212
  0
POLYLINE
  5
303
  8
DATA
  6
CONTINUOUS
 62
     7
 66
     1
 10
0.0
 20
0.0
 30
0.0
  0
VERTEX
  5
C8D
  8
DATA
  6
CONTINUOUS
 62
     7
 10
-11.043159272610801
 20
172.61779348610341
 30
0.0
  0
VERTEX
  5
C8E
  8
DATA
  6
CONTINUOUS
 62
     7
 10
-10.31395766256477
 20
173.0734696877839
 30
0.0
  0
VERTEX
  5
C8F
  8
DATA
  6
CONTINUOUS
 62
     7
 10
-9.9463095558558052
 20
172.51437496151649
 30
0.0
  0
VERTEX
  5
C90
  8
DATA
  6
CONTINUOUS
 62
     7
 10
-10.689360888787141
 20
172.04392702102481
 30
0.0
  0
SEQEND
  5
C91
  8
DATA
  6
CONTINUOUS
 62
     7
  0
POLYLINE
  5
30A
  8
DATA
  6
CONTINUOUS
 62
     7
 66
     1
 10
0.0
 20
0.0
 30
0.0
  0
VERTEX
  5
C92
  8
DATA
  6
CONTINUOUS
 62
     7
 10
-11.78792328615404
 20
172.1523923786946
 30
0.0
  0
VERTEX
  5
C93
  8
DATA
  6
CONTINUOUS
 62
     7
 10
-12.53035051023071
 20
171.68845152498449
 30
0.0
  0
VERTEX
  5
C94
  8
DATA
  6
CONTINUOUS
 62
     7
 10
-12.167636012563401
 20
171.10798699018301
 30
0.0
  0
VERTEX
  5
C95
  8
DATA
  6
CONTINUOUS
 62
     7
 10
-11.42107613485666
 20
171.5806562949204
 30
0.0
  0
SEQEND
  5
C96
  8
DATA
  6
CONTINUOUS
 62
     7
  0
CIRCLE
  5
311
  8
DATA
  6
CONTINUOUS
 62
     7
 10
-16.264152128887439
 20
174.29112259653519
 30
0.0
 40
0.5519621081381896
  0
CIRCLE
  5
312
  8
DATA
  6
CONTINUOUS
 62
     7
 10
-15.45509670090183
 20
175.83546221497491
 30
0.0
 40
0.5522307728991107
  0
POLYLINE
  5
313
  8
DATA
  6
CONTINUOUS
 62
     7
 66
     1
 10
0.0
 20
0.0
 30
0.0
  0
VERTEX
  5
C97
  8
DATA
  6
CONTINUOUS
 62
     7
 10
-15.461538535527289
 20
176.38765541425519
 30
0.0
  0
VERTEX
  5
C98
  8
DATA
  6
CONTINUOUS
 62
     7
 10
-16.018096786945222
 20
177.0509085226158
 30
0.0
  0
VERTEX
  5
C99
  8
DATA
  6
CONTINUOUS
 62
     7
 10
-16.542432179392701
 20
176.61093888819991
 30
0.0
  0
VERTEX
  5
C9A
  8
DATA
  6
CONTINUOUS
 62
     7
 10
-15.993766512086779
 20
175.9570914097657
 30
0.0
  0
SEQEND
  5
C9B
  8
DATA
  6
CONTINUOUS
 62
     7
  0
POLYLINE
  5
31A
  8
DATA
  6
CONTINUOUS
 62
     7
 66
     1
 10
0.0
 20
0.0
 30
0.0
  0
VERTEX
  5
C9C
  8
DATA
  6
CONTINUOUS
 62
     7
 10
-14.9124070435694
 20
175.73325281037339
 30
0.0
  0
VERTEX
  5
C9D
  8
DATA
  6
CONTINUOUS
 62
     7
 10
-14.33816307297189
 20
175.04892354657071
 30
0.0
  0
VERTEX
  5
C9E
  8
DATA
  6
CONTINUOUS
 62
     7
 10
-14.862498465419369
 20
174.60895391215479
 30
0.0
  0
VERTEX
  5
C9F
  8
DATA
  6
CONTINUOUS
 62
     7
 10
-15.428832091072421
 20
175.28385638036289
 30
0.0
  0
SEQEND
  5
CA0
  8
DATA
  6
CONTINUOUS
 62
     7
  0
POLYLINE
  5
321
  8
DATA
  6
CONTINUOUS
 62
     7
 66
     1
 10
0.0
 20
0.0
 30
0.0
  0
VERTEX
  5
CA1
  8
DATA
  6
CONTINUOUS
 62
     7
 10
-16.338160395302431
 20
174.8381006082837
 30
0.0
  0
VERTEX
  5
CA2
  8
DATA
  6
CONTINUOUS
 62
     7
 10
-16.946167773317018
 20
175.44613252944541
 30
0.0
  0
VERTEX
  5
CA3
  8
DATA
  6
CONTINUOUS
 62
     7
 10
-17.430162031021151
 20
174.98407019402279
 30
0.0
  0
VERTEX
  5
CA4
  8
DATA
  6
CONTINUOUS
 62
     7
 10
-16.811982815841638
 20
174.35852962299319
 30
0.0
  0
SEQEND
  5
CA5
  8
DATA
  6
CONTINUOUS
 62
     7
  0
POLYLINE
  5
328
  8
DATA
  6
CONTINUOUS
 62
     7
 66
     1
 10
0.0
 20
0.0
 30
0.0
  0
VERTEX
  5
CA6
  8
DATA
  6
CONTINUOUS
 62
     7
 10
-15.71717710498103
 20
174.21709225102279
 30
0.0
  0
VERTEX
  5
CA7
  8
DATA
  6
CONTINUOUS
 62
     7
 10
-15.098142226754391
 20
173.59803238450709
 30
0.0
  0
VERTEX
  5
CA8
  8
DATA
  6
CONTINUOUS
 62
     7
 10
-15.582136484457861
 20
173.11403812680311
 30
0.0
  0
VERTEX
  5
CA9
  8
DATA
  6
CONTINUOUS
 62
     7
 10
-16.203234622408331
 20
173.7425323795031
 30
0.0
  0
SEQEND
  5
CAA
  8
DATA
  6
CONTINUOUS
 62
     7
  0
CIRCLE
  5
32F
  8
DATA
  6
CONTINUOUS
 62
     7
 10
-15.761685815742791
 20
172.10148272292011
 30
0.0
 40
0.5519621081382212
  0
POLYLINE
  5
330
  8
DATA
  6
CONTINUOUS
 62
     7
 66
     1
 10
0.0
 20
0.0
 30
0.0
  0
VERTEX
  5
CAB
  8
DATA
  6
CONTINUOUS
 62
     7
 10
-15.956840535529921
 20
172.61779348610341
 30
0.0
  0
VERTEX
  5
CAC
  8
DATA
  6
CONTINUOUS
 62
     7
 10
-16.68604214557595
 20
173.0734696877839
 30
0.0
  0
VERTEX
  5
CAD
  8
DATA
  6
CONTINUOUS
 62
     7
 10
-17.05369025228493
 20
172.51437496151649
 30
0.0
  0
VERTEX
  5
CAE
  8
DATA
  6
CONTINUOUS
 62
     7
 10
-16.310638919353579
 20
172.04392702102481
 30
0.0
  0
SEQEND
  5
CAF
  8
DATA
  6
CONTINUOUS
 62
     7
  0
POLYLINE
  5
337
  8
DATA
  6
CONTINUOUS
 62
     7
 66
     1
 10
0.0
 20
0.0
 30
0.0
  0
VERTEX
  5
CB0
  8
DATA
  6
CONTINUOUS
 62
     7
 10
-15.21207652198669
 20
172.1523923786946
 30
0.0
  0
VERTEX
  5
CB1
  8
DATA
  6
CONTINUOUS
 62
     7
 10
-14.469649297910021
 20
171.68845152498449
 30
0.0
  0
VERTEX
  5
CB2
  8
DATA
  6
CONTINUOUS
 62
     7
 10
-14.83236379557732
 20
171.10798699018301
 30
0.0
  0
VERTEX
  5
CB3
  8
DATA
  6
CONTINUOUS
 62
     7
 10
-15.578923673284059
 20
171.5806562949204
 30
0.0
  0
SEQEND
  5
CB4
  8
DATA
  6
CONTINUOUS
 62
     7
  0
ARC
  5
33E
  8
DATA
  6
CONTINUOUS
 62
     7
 10
-311.0
 20
-408.49999999999989
 30
0.0
 40
7.4000000000000004
 50
93.874288206296768
 51
86.125711793703232
  0
CIRCLE
  5
33F
  8
DATA
  6
CONTINUOUS
 62
     7
 10
-311.0
 20
-408.49999999999989
 30
0.0
 40
8.0
  0
LINE
  5
340
  8
DATA
  6
CONTINUOUS
 62
     7
 10
-311.5
 20
-408.49999999999989
 30
0.0
 11
-311.5
 21
-401.11691121548648
 31
0.0
  0
LINE
  5
341
  8
DATA
  6
CONTINUOUS
 62
     7
 10
-310.5
 20
-408.49999999999989
 30
0.0
 11
-310.5
 21
-401.11691121548648
 31
0.0
  0
LINE
  5
342
  8
DATA
  6
CONTINUOUS
 62
     7
 10
-311.5
 20
-401.2999999999999
 30
0.0
 11
-310.5
 21
-401.2999999999999
 31
0.0
  0
LINE
  5
343
  8
DATA
  6
CONTINUOUS
 62
     7
 10
-311.0
 20
-399.23447249208118
 30
0.0
 11
-311.0
 21
-396.60000000000059
 31
0.0
  0
LINE
  5
344
  8
DATA
  6
CONTINUOUS
 62
     7
 10
-320.26552750791882
 20
-408.49999999999989
 30
0.0
 11
-322.89999999999969
 21
-408.49999999999989
 31
0.0
  0
LINE
  5
345
  8
DATA
  6
CONTINUOUS
 62
     7
 10
-301.73447249208118
 20
-408.49999999999989
 30
0.0
 11
-299.10000000000002
 21
-408.49999999999989
 31
0.0
  0
LINE
  5
346
  8
DATA
  6
CONTINUOUS
 62
     7
 10
-315.6327637539593
 20
-400.47581779867892
 30
0.0
 11
-316.94999999999681
 21
-398.19429769497083
 31
0.0
  0
LINE
  5
347
  8
DATA
  6
CONTINUOUS
 62
     7
 10
-319.02418220132262
 20
-403.86723624603968
 30
0.0
 11
-321.30570230503531
 21
-402.54999999999961
 31
0.0
  0
LINE
  5
348
  8
DATA
  6
CONTINUOUS
 62
     7
 10
-319.02418220132262
 20
-413.13276375396021
 30
0.0
 11
-321.305702305034
 21
-414.44999999999942
 31
0.0
  0
LINE
  5
349
  8
DATA
  6
CONTINUOUS
 62
     7
 10
-315.63276375395952
 20
-416.5241822013212
 30
0.0
 11
-316.94999999999811
 21
-418.80570230503122
 31
0.0
  0
LINE
  5
34A
  8
DATA
  6
CONTINUOUS
 62
     7
 10
-301.73447249208118
 20
-408.49999999999989
 30
0.0
 11
-299.10000000000031
 21
-408.49999999999989
 31
0.0
  0
LINE
  5
34B
  8
DATA
  6
CONTINUOUS
 62
     7
 10
-306.3672362460407
 20
-400.47581779867892
 30
0.0
 11
-305.05000000000319
 21
-398.19429769497083
 31
0.0
  0
LINE
  5
34C
  8
DATA
  6
CONTINUOUS
 62
     7
 10
-302.97581779867738
 20
-403.86723624603968
 30
0.0
 11
-300.69429769496469
 21
-402.54999999999961
 31
0.0
  0
LINE
  5
34D
  8
DATA
  6
CONTINUOUS
 62
     7
 10
-302.97581779867738
 20
-413.13276375396021
 30
0.0
 11
-300.694297694966
 21
-414.44999999999942
 31
0.0
  0
LINE
  5
34E
  8
DATA
  6
CONTINUOUS
 62
     7
 10
-306.36723624604048
 20
-416.5241822013212
 30
0.0
 11
-305.05000000000189
 21
-418.80570230503122
 31
0.0
  0
ARC
  5
34F
  8
DATA
  6
CONTINUOUS
 62
     7
 10
-279.0
 20
-408.49999999999989
 30
0.0
 40
7.4000000000000004
 50
93.874288206296768
 51
86.125711793703232
  0
CIRCLE
  5
350
  8
DATA
  6
CONTINUOUS
 62
     7
 10
-279.0
 20
-408.49999999999989
 30
0.0
 40
8.0
  0
LINE
  5
351
  8
DATA
  6
CONTINUOUS
 62
     7
 10
-279.5
 20
-408.49999999999989
 30
0.0
 11
-279.5
 21
-401.11691121548648
 31
0.0
  0
LINE
  5
352
  8
DATA
  6
CONTINUOUS
 62
     7
 10
-278.5
 20
-408.49999999999989
 30
0.0
 11
-278.5
 21
-401.11691121548648
 31
0.0
  0
LINE
  5
353
  8
DATA
  6
CONTINUOUS
 62
     7
 10
-279.5
 20
-401.2999999999999
 30
0.0
 11
-278.5
 21
-401.2999999999999
 31
0.0
  0
LINE
  5
354
  8
DATA
  6
CONTINUOUS
 62
     7
 10
-279.0
 20
-399.23447249208118
 30
0.0
 11
-279.0
 21
-396.60000000000059
 31
0.0
  0
LINE
  5
355
  8
DATA
  6
CONTINUOUS
 62
     7
 10
-288.26552750791882
 20
-408.49999999999989
 30
0.0
 11
-290.89999999999981
 21
-408.49999999999989
 31
0.0
  0
LINE
  5
356
  8
DATA
  6
CONTINUOUS
 62
     7
 10
-269.73447249208118
 20
-408.49999999999989
 30
0.0
 11
-267.10000000000002
 21
-408.49999999999989
 31
0.0
  0
LINE
  5
357
  8
DATA
  6
CONTINUOUS
 62
     7
 10
-283.6327637539593
 20
-400.47581779867892
 30
0.0
 11
-284.94999999999681
 21
-398.19429769497083
 31
0.0
  0
LINE
  5
358
  8
DATA
  6
CONTINUOUS
 62
     7
 10
-287.0241822013225
 20
-403.86723624603968
 30
0.0
 11
-289.30570230503531
 21
-402.54999999999961
 31
0.0
  0
LINE
  5
359
  8
DATA
  6
CONTINUOUS
 62
     7
 10
-287.02418220132262
 20
-413.13276375396021
 30
0.0
 11
-289.305702305034
 21
-414.44999999999942
 31
0.0
  0
LINE
  5
35A
  8
DATA
  6
CONTINUOUS
 62
     7
 10
-283.63276375395952
 20
-416.5241822013212
 30
0.0
 11
-284.94999999999811
 21
-418.80570230503122
 31
0.0
  0
LINE
  5
35B
  8
DATA
  6
CONTINUOUS
 62
     7
 10
-269.73447249208118
 20
-408.49999999999989
 30
0.0
 11
-267.10000000000019
 21
-408.49999999999989
 31
0.0
  0
LINE
  5
35C
  8
DATA
  6
CONTINUOUS
 62
     7
 10
-274.3672362460407
 20
-400.47581779867892
 30
0.0
 11
-273.05000000000319
 21
-398.19429769497083
 31
0.0
  0
LINE
  5
35D
  8
DATA
  6
CONTINUOUS
 62
     7
 10
-270.97581779867738
 20
-403.86723624603968
 30
0.0
 11
-268.69429769496469
 21
-402.54999999999961
 31
0.0
  0
LINE
  5
35E
  8
DATA
  6
CONTINUOUS
 62
     7
 10
-270.97581779867738
 20
-413.13276375396021
 30
0.0
 11
-268.694297694966
 21
-414.44999999999942
 31
0.0
  0
LINE
  5
35F
  8
DATA
  6
CONTINUOUS
 62
     7
 10
-274.36723624604048
 20
-416.5241822013212
 30
0.0
 11
-273.050000000002
 21
-418.80570230503122
 31
0.0
  0
LINE
  5
360
  8
DATA
  6
CONTINUOUS
 62
     7
 10
-311.5
 20
-408.49999999999989
 30
0.0
 11
-310.5
 21
-408.49999999999989
 31
0.0
  0
LINE
  5
361
  8
DATA
  6
CONTINUOUS
 62
     7
 10
-279.5
 20
-408.49999999999989
 30
0.0
 11
-278.48000000000002
 21
-408.49999999999989
 31
0.0
  0
TEXT
  5
362
  8
DATA
 62
     7
 10
-315.29025666780478
 20
-395.67612183261008
 30
0.0
 40
3.078125
  1
Input
 41
0.7
 11
-315.29025666780478
 21
-392.59799683261008
 31
0.0
 73
     3
  0
TEXT
  5
363
  8
DATA
 62
     7
 10
-285.30307692846822
 20
-395.53076921459569
 30
0.0
 40
3.078125
  1
Output
 41
0.7
 11
-285.30307692846822
 21
-392.45264421459569
 31
0.0
 73
     3
  0
LINE
  5
364
  8
DATA
  6
CONTINUOUS
 62
     7
 10
-251.0
 20
-391.0
 30
0.0
 11
-93.0
 21
-391.0
 31
0.0
  0
LINE
  5
365
  8
DATA
  6
CONTINUOUS
 62
     7
 10
-251.0
 20
-422.49999999999989
 30
0.0
 11
-93.0
 21
-422.49999999999989
 31
0.0
  0
LINE
  5
366
  8
DATA
  6
CONTINUOUS
 62
     7
 10
-251.0
 20
-422.49999999999989
 30
0.0
 11
-251.0
 21
-391.0
 31
0.0
  0
LINE
  5
367
  8
DATA
  6
CONTINUOUS
 62
     7
 10
-93.0
 20
-422.49999999999989
 30
0.0
 11
-93.0
 21
-391.0
 31
0.0
  0
LINE
  5
368
  8
DATA
  6
CONTINUOUS
 62
     7
 10
-88.0
 20
-392.5
 30
0.0
 11
-88.0
 21
-404.25
 31
0.0
  0
LINE
  5
369
  8
DATA
  6
CONTINUOUS
 62
     7
 10
-88.0
 20
-409.72484168179989
 30
0.0
 11
-88.0
 21
-421.47484168179989
 31
0.0
  0
LINE
  5
36A
  8
DATA
  6
CONTINUOUS
 62
     7
 10
-75.400000000000006
 20
-421.47484168179989
 30
0.0
 11
-75.400000000000006
 21
-409.72484168179989
 31
0.0
  0
LINE
  5
36B
  8
DATA
  6
CONTINUOUS
 62
     7
 10
-75.400000000000006
 20
-404.25
 30
0.0
 11
-75.400000000000006
 21
-392.5
 31
0.0
  0
LINE
  5
36C
  8
DATA
  6
CONTINUOUS
 62
     7
 10
-88.0
 20
-392.5
 30
0.0
 11
-75.400000000000006
 21
-392.5
 31
0.0
  0
LINE
  5
36D
  8
DATA
  6
CONTINUOUS
 62
     7
 10
-88.0
 20
-404.25
 30
0.0
 11
-75.400000000000006
 21
-404.25
 31
0.0
  0
LINE
  5
36E
  8
DATA
  6
CONTINUOUS
 62
     7
 10
-88.0
 20
-409.72484168179989
 30
0.0
 11
-75.400000000000006
 21
-409.72484168179989
 31
0.0
  0
LINE
  5
36F
  8
DATA
  6
CONTINUOUS
 62
     7
 10
-88.0
 20
-421.47484168179989
 30
0.0
 11
-75.400000000000006
 21
-421.47484168179989
 31
0.0
  0
LINE
  5
370
  8
DATA
  6
CONTINUOUS
 62
     7
 10
-67.0
 20
-409.86000000000001
 30
0.0
 11
-57.399999999999999
 21
-409.86000000000001
 31
0.0
  0
LINE
  5
371
  8
DATA
  6
CONTINUOUS
 62
     7
 10
-67.0
 20
-409.86000000000001
 30
0.0
 11
-67.0
 21
-405.13999999999999
 31
0.0
  0
LINE
  5
372
  8
DATA
  6
CONTINUOUS
 62
     7
 10
-57.399999999999999
 20
-409.86000000000001
 30
0.0
 11
-57.399999999999999
 21
-405.13999999999999
 31
0.0
  0
LINE
  5
373
  8
DATA
  6
CONTINUOUS
 62
     7
 10
-57.399999999999999
 20
-405.13999999999999
 30
0.0
 11
-67.0
 21
-405.13999999999999
 31
0.0
  0
LINE
  5
374
  8
DATA
  6
CONTINUOUS
 62
     7
 10
-67.0
 20
-397.86000000000001
 30
0.0
 11
-57.399999999999999
 21
-397.86000000000001
 31
0.0
  0
LINE
  5
375
  8
DATA
  6
CONTINUOUS
 62
     7
 10
-67.0
 20
-397.86000000000001
 30
0.0
 11
-67.0
 21
-393.13999999999999
 31
0.0
  0
LINE
  5
376
  8
DATA
  6
CONTINUOUS
 62
     7
 10
-57.399999999999999
 20
-397.86000000000001
 30
0.0
 11
-57.399999999999999
 21
-393.13999999999999
 31
0.0
  0
LINE
  5
377
  8
DATA
  6
CONTINUOUS
 62
     7
 10
-57.399999999999999
 20
-393.13999999999999
 30
0.0
 11
-67.0
 21
-393.13999999999999
 31
0.0
  0
LINE
  5
378
  8
DATA
  6
CONTINUOUS
 62
     7
 10
-67.0
 20
-421.86000000000001
 30
0.0
 11
-57.399999999999999
 21
-421.86000000000001
 31
0.0
  0
LINE
  5
379
  8
DATA
  6
CONTINUOUS
 62
     7
 10
-67.0
 20
-421.86000000000001
 30
0.0
 11
-67.0
 21
-417.13999999999999
 31
0.0
  0
LINE
  5
37A
  8
DATA
  6
CONTINUOUS
 62
     7
 10
-57.399999999999999
 20
-421.86000000000001
 30
0.0
 11
-57.399999999999999
 21
-417.13999999999999
 31
0.0
  0
LINE
  5
37B
  8
DATA
  6
CONTINUOUS
 62
     7
 10
-57.399999999999999
 20
-417.13999999999999
 30
0.0
 11
-67.0
 21
-417.13999999999999
 31
0.0
  0
LINE
  5
37C
  8
DATA
  6
CONTINUOUS
 62
     7
 10
-53.5
 20
-409.86000000000001
 30
0.0
 11
-43.899999999999991
 21
-409.86000000000001
 31
0.0
  0
LINE
  5
37D
  8
DATA
  6
CONTINUOUS
 62
     7
 10
-53.5
 20
-409.86000000000001
 30
0.0
 11
-53.5
 21
-405.13999999999999
 31
0.0
  0
LINE
  5
37E
  8
DATA
  6
CONTINUOUS
 62
     7
 10
-43.899999999999991
 20
-409.86000000000001
 30
0.0
 11
-43.899999999999991
 21
-405.13999999999999
 31
0.0
  0
LINE
  5
37F
  8
DATA
  6
CONTINUOUS
 62
     7
 10
-43.899999999999991
 20
-405.13999999999999
 30
0.0
 11
-53.5
 21
-405.13999999999999
 31
0.0
  0
LINE
  5
380
  8
DATA
  6
CONTINUOUS
 62
     7
 10
-53.5
 20
-397.86000000000001
 30
0.0
 11
-43.899999999999991
 21
-397.86000000000001
 31
0.0
  0
LINE
  5
381
  8
DATA
  6
CONTINUOUS
 62
     7
 10
-53.5
 20
-397.86000000000001
 30
0.0
 11
-53.5
 21
-393.13999999999999
 31
0.0
  0
LINE
  5
382
  8
DATA
  6
CONTINUOUS
 62
     7
 10
-43.899999999999991
 20
-397.86000000000001
 30
0.0
 11
-43.899999999999991
 21
-393.13999999999999
 31
0.0
  0
LINE
  5
383
  8
DATA
  6
CONTINUOUS
 62
     7
 10
-43.899999999999991
 20
-393.13999999999999
 30
0.0
 11
-53.5
 21
-393.13999999999999
 31
0.0
  0
LINE
  5
384
  8
DATA
  6
CONTINUOUS
 62
     7
 10
-53.5
 20
-421.86000000000001
 30
0.0
 11
-43.899999999999991
 21
-421.86000000000001
 31
0.0
  0
LINE
  5
385
  8
DATA
  6
CONTINUOUS
 62
     7
 10
-53.5
 20
-421.86000000000001
 30
0.0
 11
-53.5
 21
-417.13999999999999
 31
0.0
  0
LINE
  5
386
  8
DATA
  6
CONTINUOUS
 62
     7
 10
-43.899999999999991
 20
-421.86000000000001
 30
0.0
 11
-43.899999999999991
 21
-417.13999999999999
 31
0.0
  0
LINE
  5
387
  8
DATA
  6
CONTINUOUS
 62
     7
 10
-43.899999999999991
 20
-417.13999999999999
 30
0.0
 11
-53.5
 21
-417.13999999999999
 31
0.0
  0
LINE
  5
388
  8
DATA
  6
CONTINUOUS
 62
     7
 10
-40.0
 20
-409.86000000000001
 30
0.0
 11
-30.399999999999999
 21
-409.86000000000001
 31
0.0
  0
LINE
  5
389
  8
DATA
  6
CONTINUOUS
 62
     7
 10
-40.0
 20
-409.86000000000001
 30
0.0
 11
-40.0
 21
-405.13999999999999
 31
0.0
  0
LINE
  5
38A
  8
DATA
  6
CONTINUOUS
 62
     7
 10
-30.399999999999999
 20
-409.86000000000001
 30
0.0
 11
-30.399999999999999
 21
-405.13999999999999
 31
0.0
  0
LINE
  5
38B
  8
DATA
  6
CONTINUOUS
 62
     7
 10
-30.399999999999999
 20
-405.13999999999999
 30
0.0
 11
-40.0
 21
-405.13999999999999
 31
0.0
  0
LINE
  5
38C
  8
DATA
  6
CONTINUOUS
 62
     7
 10
-40.0
 20
-397.86000000000001
 30
0.0
 11
-30.399999999999999
 21
-397.86000000000001
 31
0.0
  0
LINE
  5
38D
  8
DATA
  6
CONTINUOUS
 62
     7
 10
-40.0
 20
-397.86000000000001
 30
0.0
 11
-40.0
 21
-393.13999999999999
 31
0.0
  0
LINE
  5
38E
  8
DATA
  6
CONTINUOUS
 62
     7
 10
-30.399999999999999
 20
-397.86000000000001
 30
0.0
 11
-30.399999999999999
 21
-393.13999999999999
 31
0.0
  0
LINE
  5
38F
  8
DATA
  6
CONTINUOUS
 62
     7
 10
-30.399999999999999
 20
-393.13999999999999
 30
0.0
 11
-40.0
 21
-393.13999999999999
 31
0.0
  0
LINE
  5
390
  8
DATA
  6
CONTINUOUS
 62
     7
 10
-40.0
 20
-421.86000000000001
 30
0.0
 11
-30.399999999999999
 21
-421.86000000000001
 31
0.0
  0
LINE
  5
391
  8
DATA
  6
CONTINUOUS
 62
     7
 10
-40.0
 20
-421.86000000000001
 30
0.0
 11
-40.0
 21
-417.13999999999999
 31
0.0
  0
LINE
  5
392
  8
DATA
  6
CONTINUOUS
 62
     7
 10
-30.399999999999999
 20
-421.86000000000001
 30
0.0
 11
-30.399999999999999
 21
-417.13999999999999
 31
0.0
  0
LINE
  5
393
  8
DATA
  6
CONTINUOUS
 62
     7
 10
-30.399999999999999
 20
-417.13999999999999
 30
0.0
 11
-40.0
 21
-417.13999999999999
 31
0.0
  0
CIRCLE
  5
394
  8
DATA
  6
CONTINUOUS
 62
     7
 10
-12.0
 20
-408.49999999999989
 30
0.0
 40
10.25
  0
LINE
  5
395
  8
DATA
  6
CONTINUOUS
 62
     7
 10
8.0
 20
-404.25
 30
0.0
 11
20.600000000000001
 21
-404.25
 31
0.0
  0
LINE
  5
396
  8
DATA
  6
CONTINUOUS
 62
     7
 10
8.0
 20
-392.5
 30
0.0
 11
20.600000000000001
 21
-392.5
 31
0.0
  0
LINE
  5
397
  8
DATA
  6
CONTINUOUS
 62
     7
 10
8.0
 20
-409.72484168179989
 30
0.0
 11
20.600000000000001
 21
-409.72484168179989
 31
0.0
  0
LINE
  5
398
  8
DATA
  6
CONTINUOUS
 62
     7
 10
8.0
 20
-421.47484168179989
 30
0.0
 11
20.600000000000001
 21
-421.47484168179989
 31
0.0
  0
LINE
  5
399
  8
DATA
  6
CONTINUOUS
 62
     7
 10
8.0
 20
-392.5
 30
0.0
 11
8.0
 21
-404.25
 31
0.0
  0
LINE
  5
39A
  8
DATA
  6
CONTINUOUS
 62
     7
 10
20.600000000000001
 20
-392.5
 30
0.0
 11
20.600000000000001
 21
-404.25
 31
0.0
  0
LINE
  5
39B
  8
DATA
  6
CONTINUOUS
 62
     7
 10
8.0
 20
-409.72484168179989
 30
0.0
 11
8.0
 21
-421.49999999999989
 31
0.0
  0
LINE
  5
39C
  8
DATA
  6
CONTINUOUS
 62
     7
 10
20.600000000000001
 20
-409.72484168179989
 30
0.0
 11
20.600000000000001
 21
-421.47484168179989
 31
0.0
  0
LINE
  5
39D
  8
DATA
  6
CONTINUOUS
 62
     7
 10
24.5
 20
-404.25
 30
0.0
 11
37.100000000000001
 21
-404.25
 31
0.0
  0
LINE
  5
39E
  8
DATA
  6
CONTINUOUS
 62
     7
 10
24.5
 20
-392.5
 30
0.0
 11
37.100000000000001
 21
-392.5
 31
0.0
  0
LINE
  5
39F
  8
DATA
  6
CONTINUOUS
 62
     7
 10
24.5
 20
-409.72484168179989
 30
0.0
 11
37.100000000000001
 21
-409.72484168179989
 31
0.0
  0
LINE
  5
3A0
  8
DATA
  6
CONTINUOUS
 62
     7
 10
24.5
 20
-421.47484168179989
 30
0.0
 11
37.100000000000001
 21
-421.47484168179989
 31
0.0
  0
LINE
  5
3A1
  8
DATA
  6
CONTINUOUS
 62
     7
 10
24.5
 20
-392.5
 30
0.0
 11
24.5
 21
-404.25
 31
0.0
  0
LINE
  5
3A2
  8
DATA
  6
CONTINUOUS
 62
     7
 10
37.100000000000001
 20
-392.5
 30
0.0
 11
37.100000000000001
 21
-404.25
 31
0.0
  0
LINE
  5
3A3
  8
DATA
  6
CONTINUOUS
 62
     7
 10
24.5
 20
-409.72484168179989
 30
0.0
 11
24.5
 21
-421.49999999999989
 31
0.0
  0
LINE
  5
3A4
  8
DATA
  6
CONTINUOUS
 62
     7
 10
37.100000000000001
 20
-409.72484168179989
 30
0.0
 11
37.100000000000001
 21
-421.47484168179989
 31
0.0
  0
LINE
  5
3A5
  8
DATA
  6
CONTINUOUS
 62
     7
 10
41.0
 20
-404.25
 30
0.0
 11
53.600000000000001
 21
-404.25
 31
0.0
  0
LINE
  5
3A6
  8
DATA
  6
CONTINUOUS
 62
     7
 10
41.0
 20
-392.5
 30
0.0
 11
53.600000000000001
 21
-392.5
 31
0.0
  0
LINE
  5
3A7
  8
DATA
  6
CONTINUOUS
 62
     7
 10
41.0
 20
-409.72484168179989
 30
0.0
 11
53.600000000000001
 21
-409.72484168179989
 31
0.0
  0
LINE
  5
3A8
  8
DATA
  6
CONTINUOUS
 62
     7
 10
41.0
 20
-421.47484168179989
 30
0.0
 11
53.600000000000001
 21
-421.47484168179989
 31
0.0
  0
LINE
  5
3A9
  8
DATA
  6
CONTINUOUS
 62
     7
 10
41.0
 20
-392.5
 30
0.0
 11
41.0
 21
-404.25
 31
0.0
  0
LINE
  5
3AA
  8
DATA
  6
CONTINUOUS
 62
     7
 10
53.600000000000001
 20
-392.5
 30
0.0
 11
53.600000000000001
 21
-404.25
 31
0.0
  0
LINE
  5
3AB
  8
DATA
  6
CONTINUOUS
 62
     7
 10
41.0
 20
-409.72484168179989
 30
0.0
 11
41.0
 21
-421.49999999999989
 31
0.0
  0
LINE
  5
3AC
  8
DATA
  6
CONTINUOUS
 62
     7
 10
53.600000000000001
 20
-409.72484168179989
 30
0.0
 11
53.600000000000001
 21
-421.47484168179989
 31
0.0
  0
LINE
  5
3AD
  8
DATA
  6
CONTINUOUS
 62
     7
 10
57.5
 20
-404.25
 30
0.0
 11
70.099999999999994
 21
-404.25
 31
0.0
  0
LINE
  5
3AE
  8
DATA
  6
CONTINUOUS
 62
     7
 10
57.5
 20
-392.5
 30
0.0
 11
70.099999999999994
 21
-392.5
 31
0.0
  0
LINE
  5
3AF
  8
DATA
  6
CONTINUOUS
 62
     7
 10
57.5
 20
-409.72484168179989
 30
0.0
 11
70.099999999999994
 21
-409.72484168179989
 31
0.0
  0
LINE
  5
3B0
  8
DATA
  6
CONTINUOUS
 62
     7
 10
57.5
 20
-421.47484168179989
 30
0.0
 11
70.099999999999994
 21
-421.47484168179989
 31
0.0
  0
LINE
  5
3B1
  8
DATA
  6
CONTINUOUS
 62
     7
 10
57.5
 20
-392.5
 30
0.0
 11
57.5
 21
-404.25
 31
0.0
  0
LINE
  5
3B2
  8
DATA
  6
CONTINUOUS
 62
     7
 10
70.099999999999994
 20
-392.5
 30
0.0
 11
70.099999999999994
 21
-404.25
 31
0.0
  0
LINE
  5
3B3
  8
DATA
  6
CONTINUOUS
 62
     7
 10
57.5
 20
-409.72484168179989
 30
0.0
 11
57.5
 21
-421.49999999999989
 31
0.0
  0
LINE
  5
3B4
  8
DATA
  6
CONTINUOUS
 62
     7
 10
70.099999999999994
 20
-409.72484168179989
 30
0.0
 11
70.099999999999994
 21
-421.47484168179989
 31
0.0
  0
LINE
  5
3B5
  8
DATA
  6
CONTINUOUS
 62
     7
 10
-251.0
 20
-412.0
 30
0.0
 11
-256.0
 21
-412.0
 31
0.0
  0
LINE
  5
3B6
  8
DATA
  6
CONTINUOUS
 62
     7
 10
-256.0
 20
-426.2999999999999
 30
0.0
 11
-256.0
 21
-412.0
 31
0.0
  0
LINE
  5
3B7
  8
DATA
  6
CONTINUOUS
 62
     7
 10
85.0
 20
-426.2999999999999
 30
0.0
 11
-256.0
 21
-426.2999999999999
 31
0.0
  0
LINE
  5
3B8
  8
DATA
  6
CONTINUOUS
 62
     7
 10
-93.0
 20
-412.0
 30
0.0
 11
-88.0
 21
-412.0
 31
0.0
  0
LINE
  5
3B9
  8
DATA
  6
CONTINUOUS
 62
     7
 10
-75.400000000000006
 20
-412.0
 30
0.0
 11
-22.16427567512806
 21
-412.0
 31
0.0
  0
LINE
  5
3BA
  8
DATA
  6
CONTINUOUS
 62
     7
 10
-1.8357243248719379
 20
-412.0
 30
0.0
 11
8.0
 21
-412.0
 31
0.0
  0
LINE
  5
3BB
  8
DATA
  6
CONTINUOUS
 62
     7
 10
20.600000000000001
 20
-412.0
 30
0.0
 11
24.5
 21
-412.0
 31
0.0
  0
LINE
  5
3BC
  8
DATA
  6
CONTINUOUS
 62
     7
 10
37.100000000000001
 20
-412.0
 30
0.0
 11
41.0
 21
-412.0
 31
0.0
  0
LINE
  5
3BD
  8
DATA
  6
CONTINUOUS
 62
     7
 10
53.600000000000001
 20
-412.0
 30
0.0
 11
57.5
 21
-412.0
 31
0.0
  0
LINE
  5
3BE
  8
DATA
  6
CONTINUOUS
 62
     7
 10
70.099999999999994
 20
-412.0
 30
0.0
 11
80.531905101043563
 21
-412.0
 31
0.0
  0
LINE
  5
3BF
  8
DATA
  6
CONTINUOUS
 62
     7
 10
85.0
 20
-426.2999999999999
 30
0.0
 11
85.0
 21
-417.47996533031483
 31
0.0
  0
TEXT
  5
3C0
  8
DATA
 62
     7
 10
-85.600100281933237
 20
-417.65069962408887
 30
0.0
 40
4.072102864583333
  1
A/B
 41
0.7
 11
-85.600100281933237
 21
-413.57859675950561
 31
0.0
 73
     3
  0
TEXT
  5
3C1
  8
DATA
 62
     7
 10
-85.662566854622142
 20
-400.54246657268891
 30
0.0
 40
4.072102864583333
  1
Tap
 41
0.7
 11
-85.662566854622142
 21
-396.47036370810559
 31
0.0
 73
     3
  0
TEXT
  5
3C2
  8
DATA
 62
     7
 10
-65.206106106021394
 20
-396.3875221375352
 30
0.0
 40
1.923828125
  1
Pitch
 41
0.7
 11
-65.206106106021394
 21
-394.4636940125352
 31
0.0
 73
     3
  0
TEXT
  5
3C3
  8
DATA
 62
     7
 10
-64.012301405976558
 20
-408.5063493235026
 30
0.0
 40
1.923828125
  1
Mod
 41
0.7
 11
-64.012301405976558
 21
-406.58252119850272
 31
0.0
 73
     3
  0
TEXT
  5
3C4
  8
DATA
 62
     7
 10
-64.062477862464803
 20
-420.41876106876742
 30
0.0
 40
1.923828125
  1
Mix
 41
0.7
 11
-64.062477862464803
 21
-418.49493294376742
 31
0.0
 73
     3
  0
TEXT
  5
3C5
  8
DATA
 62
     7
 10
-52.387301352994641
 20
-396.48095202949202
 30
0.0
 40
1.923828125
  1
Chorus
 41
0.7
 11
-52.387301352994641
 21
-394.55712390449202
 31
0.0
 73
     3
  0
TEXT
  5
3C6
  8
DATA
 62
     7
 10
-51.949205411978561
 20
-408.5373013529944
 30
0.0
 40
1.923828125
  1
Delay
 41
0.7
 11
-51.949205411978561
 21
-406.61347322799452
 31
0.0
 73
     3
  0
TEXT
  5
3C7
  8
DATA
 62
     7
 10
-51.730952029491959
 20
-420.44444526451861
 30
0.0
 40
1.923828125
  1
Patch
 41
0.7
 11
-51.730952029491959
 21
-418.52061713951861
 31
0.0
 73
     3
  0
TEXT
  5
3C8
  8
DATA
 62
     7
 10
-36.625397294010732
 20
-396.48095202949202
 30
0.0
 40
1.923828125
  1
EQ
 41
0.7
 11
-36.625397294010732
 21
-394.55712390449202
 31
0.0
 73
     3
  0
TEXT
  5
3C9
  8
DATA
 62
     7
 10
-38.912698647005357
 20
-408.55000000000001
 30
0.0
 40
1.923828125
  1
Reverb
 41
0.7
 11
-38.912698647005357
 21
-406.6261718749999
 31
0.0
 73
     3
  0
TEXT
  5
3CA
  8
DATA
 62
     7
 10
-38.743650676497317
 20
-420.4190479705079
 30
0.0
 40
1.923828125
  1
Bypass
 41
0.7
 11
-38.743650676497317
 21
-418.4952198455079
 31
0.0
 73
     3
  0
TEXT
  5
3CB
  8
DATA
 62
     7
 10
10.03333923985239
 20
-399.56186908735981
 30
0.0
 40
2.7147352430555549
  1
Value
 41
0.7
 11
10.03333923985239
 21
-396.84713384430421
 31
0.0
 73
     3
  0
TEXT
  5
3CC
  8
DATA
 62
     7
 10
24.809443472620458
 20
-399.69074038189592
 30
0.0
 40
2.7147352430555549
  1
Options
 41
0.7
 11
24.809443472620458
 21
-396.97600513884032
 31
0.0
 73
     3
  0
TEXT
  5
3CD
  8
DATA
 62
     7
 10
41.084524231418008
 20
-399.5684131203069
 30
0.0
 40
2.7147352430555549
  1
Program
 41
0.7
 11
41.084524231418008
 21
-396.85367787725141
 31
0.0
 73
     3
  0
TEXT
  5
3CE
  8
DATA
 62
     7
 10
60.013689421454927
 20
-399.84936465747091
 30
0.0
 40
2.7147352430555549
  1
Edit
 41
0.7
 11
60.013689421454927
 21
-397.13462941441537
 31
0.0
 73
     3
  0
TEXT
  5
3CF
  8
DATA
 62
     7
 10
59.600000000000001
 20
-416.96484042605277
 30
0.0
 40
2.7147352430555549
  1
Store
 41
0.7
 11
59.600000000000001
 21
-414.25010518299717
 31
0.0
 73
     3
  0
TEXT
  5
3D0
  8
DATA
 62
     7
 10
42.265475768581972
 20
-416.92674350038061
 30
0.0
 40
2.7147352430555549
  1
System
 41
0.7
 11
42.265475768581972
 21
-414.21200825732512
 31
0.0
 73
     3
  0
TEXT
  5
3D1
  8
DATA
 62
     7
 10
8.9444431790823504
 20
-420.68599577580841
 30
0.0
 40
1.923828125
  1
No
 41
0.7
 11
8.9444431790823504
 21
-418.76216765080852
 31
0.0
 73
     3
  0
TEXT
  5
3D2
  8
DATA
 62
     7
 10
32.433448246100589
 20
-420.68599577580841
 30
0.0
 40
1.923828125
  1
Yes
 41
0.7
 11
32.433448246100589
 21
-418.76216765080852
 31
0.0
 73
     3
  0
LINE
  5
3D3
  8
DATA
  6
CONTINUOUS
 62
     7
 10
10.483339239852469
 20
-415.61242084089992
 30
0.0
 11
17.483339239852469
 21
-418.61242084089992
 31
0.0
  0
LINE
  5
3D4
  8
DATA
  6
CONTINUOUS
 62
     7
 10
17.483339239852469
 20
-412.61242084089997
 30
0.0
 11
10.483339239852469
 21
-415.61242084089992
 31
0.0
  0
LINE
  5
3D5
  8
DATA
  6
CONTINUOUS
 62
     7
 10
34.836894214549297
 20
-415.61242084089992
 30
0.0
 11
27.836894214549179
 21
-412.61242084089997
 31
0.0
  0
LINE
  5
3D6
  8
DATA
  6
CONTINUOUS
 62
     7
 10
27.836894214549179
 20
-418.61242084089992
 30
0.0
 11
34.836894214549297
 21
-415.61242084089992
 31
0.0
  0
TEXT
  5
3D7
  8
DATA
 62
     7
 10
-242.48888888888891
 20
-394.9888479800901
 30
0.0
 40
1.923828125
  1
Headroom
 41
0.7
 11
-242.48888888888891
 21
-393.0650198550901
 31
0.0
 73
     3
  0
TEXT
  5
3D8
  8
DATA
 62
     7
 10
-239.67917803022169
 20
-399.62079469724563
 30
0.0
 40
1.923828125
  1
Clip
 41
0.7
 11
-239.67917803022169
 21
-397.69696657224563
 31
0.0
 73
     3
  0
TEXT
  5
3D9
  8
DATA
 62
     7
 10
-238.0629424570171
 20
-403.17070793122741
 30
0.0
 40
1.923828125
  1
0
 41
0.7
 11
-238.0629424570171
 21
-401.2468798062273
 31
0.0
 73
     3
  0
TEXT
  5
3DA
  8
DATA
 62
     7
 10
-239.3465928452614
 20
-406.7577654742102
 30
0.0
 40
1.923828125
  1
-6
 41
0.7
 11
-239.3465928452614
 21
-404.8339373492102
 31
0.0
 73
     3
  0
TEXT
  5
3DB
  8
DATA
 62
     7
 10
-239.9732964226308
 20
-410.3025884914033
 30
0.0
 40
1.923828125
  1
-12
 41
0.7
 11
-239.9732964226308
 21
-408.3787603664033
 31
0.0
 73
     3
  0
TEXT
  5
3DC
  8
DATA
 62
     7
 10
-239.99570787824541
 20
-413.87329642263052
 30
0.0
 40
1.923828125
  1
-18
 41
0.7
 11
-239.99570787824541
 21
-411.94946829763057
 31
0.0
 73
     3
  0
TEXT
  5
3DD
  8
DATA
 62
     7
 10
-239.994004353858
 20
-417.57070793122728
 30
0.0
 40
1.923828125
  1
-24
 41
0.7
 11
-239.994004353858
 21
-415.64687980622722
 31
0.0
 73
     3
  0
TEXT
  5
3DE
  8
DATA
 62
     7
 10
-227.72675272130479
 20
-394.9888479800901
 30
0.0
 40
1.923828125
  1
Digitil In
 41
0.7
 11
-227.72675272130479
 21
-393.0650198550901
 31
0.0
 73
     3
  0
TEXT
  5
3DF
  8
DATA
 62
     7
 10
-212.82446143824151
 20
-394.9888479800901
 30
0.0
 40
1.923828125
  1
-Clock
 41
0.7
 11
-212.82446143824151
 21
-393.0650198550901
 31
0.0
 73
     3
  0
TEXT
  5
3E0
  8
DATA
 62
     7
 10
-198.10645474021939
 20
-394.9888479800901
 30
0.0
 40
1.923828125
  1
MIDI
 41
0.7
 11
-198.10645474021939
 21
-393.0650198550901
 31
0.0
 73
     3
  0
LINE
  5
3E1
  8
DATA
  6
CONTINUOUS
 62
     7
 10
-222.0
 20
-398.43269922351129
 30
0.0
 11
-222.0
 21
-396.05176982806819
 31
0.0
  0
TEXT
  5
3E2
  8
DATA
 62
     7
 10
-169.17285713272889
 20
-395.80179536378432
 30
0.0
 40
2.7147352430555549
  1
MPX 1   Multiple Processor  FX　
 41
0.7
 11
-169.17285713272889
 21
-393.08706012072878
 31
0.0
 73
     3
  0
TEXT
  5
3E3
  8
DATA
 62
     7
 10
-105.6993908329501
 20
-400.0
 30
0.0
 40
1.923828125
  1
Tempo
 41
0.7
 11
-105.6993908329501
 21
-398.076171875
 31
0.0
 73
     3
  0
TEXT
  5
3E4
  8
DATA
 62
     7
 10
-103.9796267712691
 20
-410.91172887145518
 30
0.0
 40
1.923828125
  1
A
 41
0.7
 11
-103.9796267712691
 21
-408.98790074645513
 31
0.0
 73
     3
  0
TEXT
  5
3E5
  8
DATA
 62
     7
 10
-103.9796267712691
 20
-413.41172887145513
 30
0.0
 40
1.923828125
  1
B
 41
0.7
 11
-103.9796267712691
 21
-411.48790074645513
 31
0.0
 73
     3
  0
LINE
  5
3E6
  8
DATA
  6
CONTINUOUS
 62
     7
 10
-209.0
 20
-398.43269922351129
 30
0.0
 11
-209.0
 21
-396.05176982806819
 31
0.0
  0
LINE
  5
3E7
  8
DATA
  6
CONTINUOUS
 62
     7
 10
-196.0
 20
-398.43269922351129
 30
0.0
 11
-196.0
 21
-396.05176982806819
 31
0.0
  0
LINE
  5
3E8
  8
DATA
  6
CONTINUOUS
 62
     7
 10
100.5
 20
-264.20000000002773
 30
0.0
 11
100.5
 21
-242.50000000002771
 31
0.0
  0
LINE
  5
3E9
  8
DATA
  6
CONTINUOUS
 62
     7
 10
-337.5
 20
-242.50000000002771
 30
0.0
 11
-337.5
 21
-264.20000000002773
 31
0.0
  0
LINE
  5
3EA
  8
DATA
  6
CONTINUOUS
 62
     7
 10
123.0
 20
-267.00000000002768
 30
0.0
 11
123.0
 21
-266.20000000002773
 31
0.0
  0
LINE
  5
3EB
  8
DATA
  6
CONTINUOUS
 62
     7
 10
123.0
 20
-266.20000000002773
 30
0.0
 11
102.5
 21
-266.20000000002773
 31
0.0
  0
LINE
  5
3EC
  8
DATA
  6
CONTINUOUS
 62
     7
 10
-339.5
 20
-266.20000000002773
 30
0.0
 11
-360.0
 21
-266.20000000002773
 31
0.0
  0
LINE
  5
3ED
  8
DATA
  6
CONTINUOUS
 62
     7
 10
-360.0
 20
-267.00000000002768
 30
0.0
 11
-360.0
 21
-266.20000000002773
 31
0.0
  0
LINE
  5
3EE
  8
DATA
  6
CONTINUOUS
 62
     7
 10
98.500000000000014
 20
-41.000000000027669
 30
0.0
 11
98.500000000000014
 21
-266.20000000002773
 31
0.0
  0
LINE
  5
3EF
  8
DATA
  6
CONTINUOUS
 62
     7
 10
-335.5
 20
-41.000000000027669
 30
0.0
 11
-335.5
 21
-266.20000000002773
 31
0.0
  0
LINE
  5
3F0
  8
DATA
  6
CONTINUOUS
 62
     7
 10
119.5
 20
-268.10000000002759
 30
0.0
 11
123.0
 21
-268.10000000002759
 31
0.0
  0
LINE
  5
3F1
  8
DATA
  6
CONTINUOUS
 62
     7
 10
123.0
 20
-268.10000000002759
 30
0.0
 11
100.5
 21
-268.10000000002759
 31
0.0
  0
LINE
  5
3F2
  8
DATA
  6
CONTINUOUS
 62
     7
 10
-360.0
 20
-268.10000000002759
 30
0.0
 11
-337.5
 21
-268.10000000002759
 31
0.0
  0
ARC
  5
3F3
  8
DATA
  6
CONTINUOUS
 62
     7
 10
-339.5
 20
-264.20000000002773
 30
0.0
 40
2.0
 50
270.0
 51
0.0
  0
ARC
  5
3F4
  8
DATA
  6
CONTINUOUS
 62
     7
 10
-337.5
 20
-266.10000000002759
 30
0.0
 40
2.0
 50
270.0
 51
0.0
  0
ARC
  5
3F5
  8
DATA
  6
CONTINUOUS
 62
     7
 10
102.5
 20
-264.20000000002773
 30
0.0
 40
2.0
 50
180.0
 51
270.0
  0
ARC
  5
3F6
  8
DATA
  6
CONTINUOUS
 62
     7
 10
100.5
 20
-266.10000000002759
 30
0.0
 40
2.0
 50
180.0
 51
270.0
  0
LINE
  5
3F7
  8
DATA
  6
CONTINUOUS
 62
     7
 10
100.5
 20
-242.50000000002771
 30
0.0
 11
98.500000000000014
 21
-242.50000000002771
 31
0.0
  0
LINE
  5
3F8
  8
DATA
  6
CONTINUOUS
 62
     7
 10
-337.5
 20
-242.50000000002771
 30
0.0
 11
-335.5
 21
-242.50000000002771
 31
0.0
  0
LINE
  5
3F9
  8
DATA
  6
CONTINUOUS
 62
     7
 10
-335.5
 20
-41.000000000027669
 30
0.0
 11
98.500000000000014
 21
-41.000000000027669
 31
0.0
  0
CIRCLE
  5
3FA
  8
DATA
  6
CONTINUOUS
 62
     7
 10
-12.0
 20
-408.49999999999989
 30
0.0
 40
10.75
  0
LINE
  5
3FB
  8
DATA
  6
CONTINUOUS
 62
     7
 10
-318.39577098771298
 20
-281.00000000002768
 30
0.0
 11
-303.60422901228702
 21
-281.00000000002768
 31
0.0
  0
LINE
  5
3FC
  8
DATA
  6
CONTINUOUS
 62
     7
 10
-286.39577098771298
 20
-281.00000000002768
 30
0.0
 11
-271.60422901228702
 21
-281.00000000002768
 31
0.0
  0
LINE
  5
3FD
  8
DATA
  6
CONTINUOUS
 62
     7
 10
-318.39577098771298
 20
-281.00000000002768
 30
0.0
 11
-318.39577098771298
 21
-270.00000000002768
 31
0.0
  0
LINE
  5
3FE
  8
DATA
  6
CONTINUOUS
 62
     7
 10
-303.60422901228702
 20
-281.00000000002768
 30
0.0
 11
-303.60422901228702
 21
-270.00000000002768
 31
0.0
  0
LINE
  5
3FF
  8
DATA
  6
CONTINUOUS
 62
     7
 10
-286.39577098771298
 20
-281.00000000002768
 30
0.0
 11
-286.39577098771298
 21
-270.00000000002768
 31
0.0
  0
LINE
  5
400
  8
DATA
  6
CONTINUOUS
 62
     7
 10
-271.60422901228702
 20
-281.00000000002768
 30
0.0
 11
-271.60422901228702
 21
-270.00000000002768
 31
0.0
  0
LINE
  5
401
  8
DATA
  6
CONTINUOUS
 62
     7
 10
-22.25
 20
-283.00000000002768
 30
0.0
 11
-22.25
 21
-270.00000000002768
 31
0.0
  0
LINE
  5
402
  8
DATA
  6
CONTINUOUS
 62
     7
 10
-1.773930373794635
 20
-283.00000000002768
 30
0.0
 11
-1.773930373794635
 21
-270.00000000002768
 31
0.0
  0
LINE
  5
403
  8
DATA
  6
CONTINUOUS
 62
     7
 10
-22.25
 20
-283.00000000002768
 30
0.0
 11
-1.773930373794635
 21
-283.00000000002768
 31
0.0
  0
LINE
  5
404
  8
DATA
  6
CONTINUOUS
 62
     7
 10
-88.0
 20
-272.00000000002768
 30
0.0
 11
-75.400000000000006
 21
-272.00000000002768
 31
0.0
  0
LINE
  5
405
  8
DATA
  6
CONTINUOUS
 62
     7
 10
8.0
 20
-272.00000000002768
 30
0.0
 11
20.600000000000001
 21
-272.00000000002768
 31
0.0
  0
LINE
  5
406
  8
DATA
  6
CONTINUOUS
 62
     7
 10
24.5
 20
-272.00000000002768
 30
0.0
 11
37.100000000000001
 21
-272.00000000002768
 31
0.0
  0
LINE
  5
407
  8
DATA
  6
CONTINUOUS
 62
     7
 10
41.0
 20
-272.00000000002768
 30
0.0
 11
53.600000000000001
 21
-272.00000000002768
 31
0.0
  0
LINE
  5
408
  8
DATA
  6
CONTINUOUS
 62
     7
 10
57.5
 20
-272.00000000002768
 30
0.0
 11
70.099999999999994
 21
-272.00000000002768
 31
0.0
  0
LINE
  5
409
  8
DATA
  6
CONTINUOUS
 62
     7
 10
-67.0
 20
-271.50000000002768
 30
0.0
 11
-57.399999999999999
 21
-271.50000000002768
 31
0.0
  0
LINE
  5
40A
  8
DATA
  6
CONTINUOUS
 62
     7
 10
-53.5
 20
-271.50000000002768
 30
0.0
 11
-43.899999999999991
 21
-271.50000000002768
 31
0.0
  0
LINE
  5
40B
  8
DATA
  6
CONTINUOUS
 62
     7
 10
-40.0
 20
-271.50000000002768
 30
0.0
 11
-30.399999999999999
 21
-271.50000000002768
 31
0.0
  0
LINE
  5
40C
  8
DATA
  6
CONTINUOUS
 62
     7
 10
-88.0
 20
-272.00000000002768
 30
0.0
 11
-88.0
 21
-270.00000000002768
 31
0.0
  0
LINE
  5
40D
  8
DATA
  6
CONTINUOUS
 62
     7
 10
-75.400000000000006
 20
-272.00000000002768
 30
0.0
 11
-75.400000000000006
 21
-270.00000000002768
 31
0.0
  0
LINE
  5
40E
  8
DATA
  6
CONTINUOUS
 62
     7
 10
-67.0
 20
-271.50000000002768
 30
0.0
 11
-67.0
 21
-270.00000000002768
 31
0.0
  0
LINE
  5
40F
  8
DATA
  6
CONTINUOUS
 62
     7
 10
-57.399999999999999
 20
-271.50000000002768
 30
0.0
 11
-57.399999999999999
 21
-270.00000000002768
 31
0.0
  0
LINE
  5
410
  8
DATA
  6
CONTINUOUS
 62
     7
 10
-53.5
 20
-271.50000000002768
 30
0.0
 11
-53.5
 21
-270.00000000002768
 31
0.0
  0
LINE
  5
411
  8
DATA
  6
CONTINUOUS
 62
     7
 10
-43.899999999999991
 20
-271.50000000002768
 30
0.0
 11
-43.899999999999991
 21
-270.00000000002768
 31
0.0
  0
LINE
  5
412
  8
DATA
  6
CONTINUOUS
 62
     7
 10
-40.0
 20
-271.50000000002768
 30
0.0
 11
-40.0
 21
-270.00000000002768
 31
0.0
  0
LINE
  5
413
  8
DATA
  6
CONTINUOUS
 62
     7
 10
-30.399999999999999
 20
-271.50000000002768
 30
0.0
 11
-30.399999999999999
 21
-270.00000000002768
 31
0.0
  0
LINE
  5
414
  8
DATA
  6
CONTINUOUS
 62
     7
 10
8.0
 20
-272.00000000002768
 30
0.0
 11
8.0
 21
-270.00000000002768
 31
0.0
  0
LINE
  5
415
  8
DATA
  6
CONTINUOUS
 62
     7
 10
20.600000000000001
 20
-272.00000000002768
 30
0.0
 11
20.600000000000001
 21
-270.00000000002768
 31
0.0
  0
LINE
  5
416
  8
DATA
  6
CONTINUOUS
 62
     7
 10
24.5
 20
-272.00000000002768
 30
0.0
 11
24.5
 21
-270.00000000002768
 31
0.0
  0
LINE
  5
417
  8
DATA
  6
CONTINUOUS
 62
     7
 10
37.100000000000001
 20
-272.00000000002768
 30
0.0
 11
37.100000000000001
 21
-270.00000000002768
 31
0.0
  0
LINE
  5
418
  8
DATA
  6
CONTINUOUS
 62
     7
 10
41.0
 20
-272.00000000002768
 30
0.0
 11
41.0
 21
-270.00000000002768
 31
0.0
  0
LINE
  5
419
  8
DATA
  6
CONTINUOUS
 62
     7
 10
53.600000000000001
 20
-272.00000000002768
 30
0.0
 11
53.600000000000001
 21
-270.00000000002768
 31
0.0
  0
LINE
  5
41A
  8
DATA
  6
CONTINUOUS
 62
     7
 10
57.5
 20
-272.00000000002768
 30
0.0
 11
57.5
 21
-270.00000000002768
 31
0.0
  0
LINE
  5
41B
  8
DATA
  6
CONTINUOUS
 62
     7
 10
70.099999999999994
 20
-272.00000000002768
 30
0.0
 11
70.099999999999994
 21
-270.00000000002768
 31
0.0
  0
LINE
  5
41C
  8
DATA
  6
CONTINUOUS
 62
     7
 10
-340.09999999999991
 20
-257.15000000002772
 30
0.0
 11
-340.09999999999991
 21
-251.25000000002771
 31
0.0
  0
LINE
  5
41D
  8
DATA
  6
CONTINUOUS
 62
     7
 10
-340.09999999999991
 20
-251.25000000002771
 30
0.0
 11
-337.5
 21
-251.25000000002771
 31
0.0
  0
LINE
  5
41E
  8
DATA
  6
CONTINUOUS
 62
     7
 10
-340.09999999999991
 20
-257.15000000002772
 30
0.0
 11
-337.5
 21
-257.15000000002772
 31
0.0
  0
LINE
  5
41F
  8
DATA
  6
CONTINUOUS
 62
     7
 10
103.10000000000031
 20
-257.30000000000001
 30
0.0
 11
103.10000000000031
 21
-251.40000000000001
 31
0.0
  0
LINE
  5
420
  8
DATA
  6
CONTINUOUS
 62
     7
 10
103.10000000000031
 20
-251.40000000000001
 30
0.0
 11
100.5
 21
-251.40000000000001
 31
0.0
  0
LINE
  5
421
  8
DATA
  6
CONTINUOUS
 62
     7
 10
103.10000000000031
 20
-257.30000000000001
 30
0.0
 11
100.5
 21
-257.30000000000001
 31
0.0
  0
ARC
  5
422
  8
DATA
  6
CONTINUOUS
 62
     7
 10
-15.09999999999968
 20
-179.5904687500277
 30
0.0
 40
0.9904687500000156
 50
1.7628079931632601
 51
178.23719200683669
  0
ARC
  5
423
  8
DATA
  6
CONTINUOUS
 62
     7
 10
-15.10020717377815
 20
-202.6097448979867
 30
0.0
 40
0.9902551237126417
 50
181.7508209981614
 51
0.5638451396986
  0
LINE
  5
424
  8
DATA
  6
CONTINUOUS
 62
     7
 10
-16.089999999999691
 20
-202.6400000000277
 30
0.0
 11
-16.089999999999691
 21
-179.56000000004909
 31
0.0
  0
LINE
  5
425
  8
DATA
  6
CONTINUOUS
 62
     7
 10
-14.109999999999671
 20
-202.59999999999999
 30
0.0
 11
-14.109999999999671
 21
-179.56000000004909
 31
0.0
  0
ARC
  5
426
  8
DATA
  6
CONTINUOUS
 62
     7
 10
-10.59999999999968
 20
-179.5904687500277
 30
0.0
 40
0.9904687500000156
 50
1.7628079931632601
 51
178.23719200683669
  0
ARC
  5
427
  8
DATA
  6
CONTINUOUS
 62
     7
 10
-10.60020717377815
 20
-202.6097448979867
 30
0.0
 40
0.9902551237126417
 50
181.7508209981614
 51
0.5638451396986
  0
LINE
  5
428
  8
DATA
  6
CONTINUOUS
 62
     7
 10
-11.589999999999691
 20
-202.6400000000277
 30
0.0
 11
-11.589999999999691
 21
-179.56000000004909
 31
0.0
  0
LINE
  5
429
  8
DATA
  6
CONTINUOUS
 62
     7
 10
-9.6099999999996726
 20
-202.59999999999999
 30
0.0
 11
-9.6099999999996726
 21
-179.56000000004909
 31
0.0
  0
ARC
  5
42A
  8
DATA
  6
CONTINUOUS
 62
     7
 10
-6.0999999999996879
 20
-179.5904687500277
 30
0.0
 40
0.9904687500000156
 50
1.7628079931632601
 51
178.23719200683669
  0
ARC
  5
42B
  8
DATA
  6
CONTINUOUS
 62
     7
 10
-6.1002071737781458
 20
-202.6097448979867
 30
0.0
 40
0.9902551237126417
 50
181.7508209981614
 51
0.5638451396986
  0
LINE
  5
42C
  8
DATA
  6
CONTINUOUS
 62
     7
 10
-7.0899999999996899
 20
-202.6400000000277
 30
0.0
 11
-7.0899999999996899
 21
-179.56000000004909
 31
0.0
  0
LINE
  5
42D
  8
DATA
  6
CONTINUOUS
 62
     7
 10
-5.1099999999996717
 20
-202.59999999999999
 30
0.0
 11
-5.1099999999996717
 21
-179.56000000004909
 31
0.0
  0
ARC
  5
42E
  8
DATA
  6
CONTINUOUS
 62
     7
 10
-1.5999999999996879
 20
-179.5904687500277
 30
0.0
 40
0.9904687500000156
 50
1.7628079931632601
 51
178.23719200683669
  0
ARC
  5
42F
  8
DATA
  6
CONTINUOUS
 62
     7
 10
-1.600207173778146
 20
-202.6097448979867
 30
0.0
 40
0.9902551237126417
 50
181.7508209981614
 51
0.5638451396986
  0
LINE
  5
430
  8
DATA
  6
CONTINUOUS
 62
     7
 10
-2.5899999999996899
 20
-202.6400000000277
 30
0.0
 11
-2.5899999999996899
 21
-179.56000000004909
 31
0.0
  0
LINE
  5
431
  8
DATA
  6
CONTINUOUS
 62
     7
 10
-0.6099999999996726
 20
-202.59999999999999
 30
0.0
 11
-0.6099999999996726
 21
-179.56000000004909
 31
0.0
  0
ARC
  5
432
  8
DATA
  6
CONTINUOUS
 62
     7
 10
2.9000000000003112
 20
-179.5904687500277
 30
0.0
 40
0.9904687500000156
 50
1.7628079931632601
 51
178.23719200683669
  0
ARC
  5
433
  8
DATA
  6
CONTINUOUS
 62
     7
 10
2.8997928262218529
 20
-202.6097448979867
 30
0.0
 40
0.9902551237126417
 50
181.7508209981614
 51
0.5638451396986
  0
LINE
  5
434
  8
DATA
  6
CONTINUOUS
 62
     7
 10
1.9100000000003079
 20
-202.6400000000277
 30
0.0
 11
1.9100000000003079
 21
-179.56000000004909
 31
0.0
  0
LINE
  5
435
  8
DATA
  6
CONTINUOUS
 62
     7
 10
3.890000000000327
 20
-202.59999999999999
 30
0.0
 11
3.890000000000327
 21
-179.56000000004909
 31
0.0
  0
ARC
  5
436
  8
DATA
  6
CONTINUOUS
 62
     7
 10
7.4000000000003103
 20
-179.5904687500277
 30
0.0
 40
0.9904687500000156
 50
1.7628079931632601
 51
178.23719200683669
  0
ARC
  5
437
  8
DATA
  6
CONTINUOUS
 62
     7
 10
7.3997928262218524
 20
-202.6097448979867
 30
0.0
 40
0.9902551237126417
 50
181.7508209981614
 51
0.5638451396986
  0
LINE
  5
438
  8
DATA
  6
CONTINUOUS
 62
     7
 10
6.4100000000003092
 20
-202.6400000000277
 30
0.0
 11
6.4100000000003092
 21
-179.56000000004909
 31
0.0
  0
LINE
  5
439
  8
DATA
  6
CONTINUOUS
 62
     7
 10
8.3900000000003256
 20
-202.59999999999999
 30
0.0
 11
8.3900000000003256
 21
-179.56000000004909
 31
0.0
  0
ARC
  5
43A
  8
DATA
  6
CONTINUOUS
 62
     7
 10
11.900000000000309
 20
-179.5904687500277
 30
0.0
 40
0.9904687500000156
 50
1.7628079931632601
 51
178.23719200683669
  0
ARC
  5
43B
  8
DATA
  6
CONTINUOUS
 62
     7
 10
11.89979282622185
 20
-202.6097448979867
 30
0.0
 40
0.9902551237126417
 50
181.7508209981614
 51
0.5638451396986
  0
LINE
  5
43C
  8
DATA
  6
CONTINUOUS
 62
     7
 10
10.910000000000309
 20
-202.6400000000277
 30
0.0
 11
10.910000000000309
 21
-179.56000000004909
 31
0.0
  0
LINE
  5
43D
  8
DATA
  6
CONTINUOUS
 62
     7
 10
12.890000000000329
 20
-202.59999999999999
 30
0.0
 11
12.890000000000329
 21
-179.56000000004909
 31
0.0
  0
ARC
  5
43E
  8
DATA
  6
CONTINUOUS
 62
     7
 10
16.400000000000311
 20
-179.5904687500277
 30
0.0
 40
0.9904687500000156
 50
1.7628079931632601
 51
178.23719200683669
  0
ARC
  5
43F
  8
DATA
  6
CONTINUOUS
 62
     7
 10
16.399792826221852
 20
-202.6097448979867
 30
0.0
 40
0.9902551237126434
 50
181.7508209981614
 51
0.5638451396986
  0
LINE
  5
440
  8
DATA
  6
CONTINUOUS
 62
     7
 10
15.410000000000309
 20
-202.6400000000277
 30
0.0
 11
15.410000000000309
 21
-179.56000000004909
 31
0.0
  0
LINE
  5
441
  8
DATA
  6
CONTINUOUS
 62
     7
 10
17.39000000000032
 20
-202.59999999999999
 30
0.0
 11
17.39000000000032
 21
-179.56000000004909
 31
0.0
  0
ARC
  5
442
  8
DATA
  6
CONTINUOUS
 62
     7
 10
-15.09999999999968
 20
-141.5904687500277
 30
0.0
 40
0.9904687500000156
 50
1.7628079931632601
 51
178.23719200683669
  0
ARC
  5
443
  8
DATA
  6
CONTINUOUS
 62
     7
 10
-15.10020717377815
 20
-164.6097448979867
 30
0.0
 40
0.9902551237126417
 50
181.7508209981614
 51
0.5638451396986
  0
LINE
  5
444
  8
DATA
  6
CONTINUOUS
 62
     7
 10
-16.089999999999691
 20
-164.6400000000277
 30
0.0
 11
-16.089999999999691
 21
-141.56000000004909
 31
0.0
  0
LINE
  5
445
  8
DATA
  6
CONTINUOUS
 62
     7
 10
-14.109999999999671
 20
-164.59999999999999
 30
0.0
 11
-14.109999999999671
 21
-141.56000000004909
 31
0.0
  0
ARC
  5
446
  8
DATA
  6
CONTINUOUS
 62
     7
 10
-10.59999999999968
 20
-141.5904687500277
 30
0.0
 40
0.9904687500000156
 50
1.7628079931632601
 51
178.23719200683669
  0
ARC
  5
447
  8
DATA
  6
CONTINUOUS
 62
     7
 10
-10.60020717377815
 20
-164.6097448979867
 30
0.0
 40
0.9902551237126417
 50
181.7508209981614
 51
0.5638451396986
  0
LINE
  5
448
  8
DATA
  6
CONTINUOUS
 62
     7
 10
-11.589999999999691
 20
-164.6400000000277
 30
0.0
 11
-11.589999999999691
 21
-141.56000000004909
 31
0.0
  0
LINE
  5
449
  8
DATA
  6
CONTINUOUS
 62
     7
 10
-9.6099999999996726
 20
-164.59999999999999
 30
0.0
 11
-9.6099999999996726
 21
-141.56000000004909
 31
0.0
  0
ARC
  5
44A
  8
DATA
  6
CONTINUOUS
 62
     7
 10
-6.0999999999996879
 20
-141.5904687500277
 30
0.0
 40
0.9904687500000156
 50
1.7628079931632601
 51
178.23719200683669
  0
ARC
  5
44B
  8
DATA
  6
CONTINUOUS
 62
     7
 10
-6.1002071737781458
 20
-164.6097448979867
 30
0.0
 40
0.9902551237126417
 50
181.7508209981614
 51
0.5638451396986
  0
LINE
  5
44C
  8
DATA
  6
CONTINUOUS
 62
     7
 10
-7.0899999999996899
 20
-164.6400000000277
 30
0.0
 11
-7.0899999999996899
 21
-141.56000000004909
 31
0.0
  0
LINE
  5
44D
  8
DATA
  6
CONTINUOUS
 62
     7
 10
-5.1099999999996717
 20
-164.59999999999999
 30
0.0
 11
-5.1099999999996717
 21
-141.56000000004909
 31
0.0
  0
ARC
  5
44E
  8
DATA
  6
CONTINUOUS
 62
     7
 10
-1.5999999999996879
 20
-141.5904687500277
 30
0.0
 40
0.9904687500000156
 50
1.7628079931632601
 51
178.23719200683669
  0
ARC
  5
44F
  8
DATA
  6
CONTINUOUS
 62
     7
 10
-1.600207173778146
 20
-164.6097448979867
 30
0.0
 40
0.9902551237126417
 50
181.7508209981614
 51
0.5638451396986
  0
LINE
  5
450
  8
DATA
  6
CONTINUOUS
 62
     7
 10
-2.5899999999996899
 20
-164.6400000000277
 30
0.0
 11
-2.5899999999996899
 21
-141.56000000004909
 31
0.0
  0
LINE
  5
451
  8
DATA
  6
CONTINUOUS
 62
     7
 10
-0.6099999999996726
 20
-164.59999999999999
 30
0.0
 11
-0.6099999999996726
 21
-141.56000000004909
 31
0.0
  0
ARC
  5
452
  8
DATA
  6
CONTINUOUS
 62
     7
 10
2.9000000000003112
 20
-141.5904687500277
 30
0.0
 40
0.9904687500000156
 50
1.7628079931632601
 51
178.23719200683669
  0
ARC
  5
453
  8
DATA
  6
CONTINUOUS
 62
     7
 10
2.8997928262218529
 20
-164.6097448979867
 30
0.0
 40
0.9902551237126417
 50
181.7508209981614
 51
0.5638451396986
  0
LINE
  5
454
  8
DATA
  6
CONTINUOUS
 62
     7
 10
1.9100000000003079
 20
-164.6400000000277
 30
0.0
 11
1.9100000000003079
 21
-141.56000000004909
 31
0.0
  0
LINE
  5
455
  8
DATA
  6
CONTINUOUS
 62
     7
 10
3.890000000000327
 20
-164.59999999999999
 30
0.0
 11
3.890000000000327
 21
-141.56000000004909
 31
0.0
  0
ARC
  5
456
  8
DATA
  6
CONTINUOUS
 62
     7
 10
7.4000000000003103
 20
-141.5904687500277
 30
0.0
 40
0.9904687500000156
 50
1.7628079931632601
 51
178.23719200683669
  0
ARC
  5
457
  8
DATA
  6
CONTINUOUS
 62
     7
 10
7.3997928262218524
 20
-164.6097448979867
 30
0.0
 40
0.9902551237126417
 50
181.7508209981614
 51
0.5638451396986
  0
LINE
  5
458
  8
DATA
  6
CONTINUOUS
 62
     7
 10
6.4100000000003092
 20
-164.6400000000277
 30
0.0
 11
6.4100000000003092
 21
-141.56000000004909
 31
0.0
  0
LINE
  5
459
  8
DATA
  6
CONTINUOUS
 62
     7
 10
8.3900000000003256
 20
-164.59999999999999
 30
0.0
 11
8.3900000000003256
 21
-141.56000000004909
 31
0.0
  0
ARC
  5
45A
  8
DATA
  6
CONTINUOUS
 62
     7
 10
11.900000000000309
 20
-141.5904687500277
 30
0.0
 40
0.9904687500000156
 50
1.7628079931632601
 51
178.23719200683669
  0
ARC
  5
45B
  8
DATA
  6
CONTINUOUS
 62
     7
 10
11.89979282622185
 20
-164.6097448979867
 30
0.0
 40
0.9902551237126417
 50
181.7508209981614
 51
0.5638451396986
  0
LINE
  5
45C
  8
DATA
  6
CONTINUOUS
 62
     7
 10
10.910000000000309
 20
-164.6400000000277
 30
0.0
 11
10.910000000000309
 21
-141.56000000004909
 31
0.0
  0
LINE
  5
45D
  8
DATA
  6
CONTINUOUS
 62
     7
 10
12.890000000000329
 20
-164.59999999999999
 30
0.0
 11
12.890000000000329
 21
-141.56000000004909
 31
0.0
  0
ARC
  5
45E
  8
DATA
  6
CONTINUOUS
 62
     7
 10
16.400000000000311
 20
-141.5904687500277
 30
0.0
 40
0.9904687500000156
 50
1.7628079931632601
 51
178.23719200683669
  0
ARC
  5
45F
  8
DATA
  6
CONTINUOUS
 62
     7
 10
16.399792826221852
 20
-164.6097448979867
 30
0.0
 40
0.9902551237126434
 50
181.7508209981614
 51
0.5638451396986
  0
LINE
  5
460
  8
DATA
  6
CONTINUOUS
 62
     7
 10
15.410000000000309
 20
-164.6400000000277
 30
0.0
 11
15.410000000000309
 21
-141.56000000004909
 31
0.0
  0
LINE
  5
461
  8
DATA
  6
CONTINUOUS
 62
     7
 10
17.39000000000032
 20
-164.59999999999999
 30
0.0
 11
17.39000000000032
 21
-141.56000000004909
 31
0.0
  0
ARC
  5
462
  8
DATA
  6
CONTINUOUS
 62
     7
 10
-15.09999999999968
 20
-103.5904687500277
 30
0.0
 40
0.9904687500000156
 50
1.7628079931632601
 51
178.23719200683669
  0
ARC
  5
463
  8
DATA
  6
CONTINUOUS
 62
     7
 10
-15.10020717377815
 20
-126.6097448979867
 30
0.0
 40
0.9902551237126417
 50
181.7508209981614
 51
0.5638451396986
  0
LINE
  5
464
  8
DATA
  6
CONTINUOUS
 62
     7
 10
-16.089999999999691
 20
-126.6400000000277
 30
0.0
 11
-16.089999999999691
 21
-103.5600000000491
 31
0.0
  0
LINE
  5
465
  8
DATA
  6
CONTINUOUS
 62
     7
 10
-14.109999999999671
 20
-126.59999999999999
 30
0.0
 11
-14.109999999999671
 21
-103.5600000000491
 31
0.0
  0
ARC
  5
466
  8
DATA
  6
CONTINUOUS
 62
     7
 10
-10.59999999999968
 20
-103.5904687500277
 30
0.0
 40
0.9904687500000156
 50
1.7628079931632601
 51
178.23719200683669
  0
ARC
  5
467
  8
DATA
  6
CONTINUOUS
 62
     7
 10
-10.60020717377815
 20
-126.6097448979867
 30
0.0
 40
0.9902551237126417
 50
181.7508209981614
 51
0.5638451396986
  0
LINE
  5
468
  8
DATA
  6
CONTINUOUS
 62
     7
 10
-11.589999999999691
 20
-126.6400000000277
 30
0.0
 11
-11.589999999999691
 21
-103.5600000000491
 31
0.0
  0
LINE
  5
469
  8
DATA
  6
CONTINUOUS
 62
     7
 10
-9.6099999999996726
 20
-126.59999999999999
 30
0.0
 11
-9.6099999999996726
 21
-103.5600000000491
 31
0.0
  0
ARC
  5
46A
  8
DATA
  6
CONTINUOUS
 62
     7
 10
-6.0999999999996879
 20
-103.5904687500277
 30
0.0
 40
0.9904687500000156
 50
1.7628079931632601
 51
178.23719200683669
  0
ARC
  5
46B
  8
DATA
  6
CONTINUOUS
 62
     7
 10
-6.1002071737781458
 20
-126.6097448979867
 30
0.0
 40
0.9902551237126417
 50
181.7508209981614
 51
0.5638451396986
  0
LINE
  5
46C
  8
DATA
  6
CONTINUOUS
 62
     7
 10
-7.0899999999996899
 20
-126.6400000000277
 30
0.0
 11
-7.0899999999996899
 21
-103.5600000000491
 31
0.0
  0
LINE
  5
46D
  8
DATA
  6
CONTINUOUS
 62
     7
 10
-5.1099999999996717
 20
-126.59999999999999
 30
0.0
 11
-5.1099999999996717
 21
-103.5600000000491
 31
0.0
  0
ARC
  5
46E
  8
DATA
  6
CONTINUOUS
 62
     7
 10
-1.5999999999996879
 20
-103.5904687500277
 30
0.0
 40
0.9904687500000156
 50
1.7628079931632601
 51
178.23719200683669
  0
ARC
  5
46F
  8
DATA
  6
CONTINUOUS
 62
     7
 10
-1.600207173778146
 20
-126.6097448979867
 30
0.0
 40
0.9902551237126417
 50
181.7508209981614
 51
0.5638451396986
  0
LINE
  5
470
  8
DATA
  6
CONTINUOUS
 62
     7
 10
-2.5899999999996899
 20
-126.6400000000277
 30
0.0
 11
-2.5899999999996899
 21
-103.5600000000491
 31
0.0
  0
LINE
  5
471
  8
DATA
  6
CONTINUOUS
 62
     7
 10
-0.6099999999996726
 20
-126.59999999999999
 30
0.0
 11
-0.6099999999996726
 21
-103.5600000000491
 31
0.0
  0
ARC
  5
472
  8
DATA
  6
CONTINUOUS
 62
     7
 10
2.9000000000003112
 20
-103.5904687500277
 30
0.0
 40
0.9904687500000156
 50
1.7628079931632601
 51
178.23719200683669
  0
ARC
  5
473
  8
DATA
  6
CONTINUOUS
 62
     7
 10
2.8997928262218529
 20
-126.6097448979867
 30
0.0
 40
0.9902551237126417
 50
181.7508209981614
 51
0.5638451396986
  0
LINE
  5
474
  8
DATA
  6
CONTINUOUS
 62
     7
 10
1.9100000000003079
 20
-126.6400000000277
 30
0.0
 11
1.9100000000003079
 21
-103.5600000000491
 31
0.0
  0
LINE
  5
475
  8
DATA
  6
CONTINUOUS
 62
     7
 10
3.890000000000327
 20
-126.59999999999999
 30
0.0
 11
3.890000000000327
 21
-103.5600000000491
 31
0.0
  0
ARC
  5
476
  8
DATA
  6
CONTINUOUS
 62
     7
 10
7.4000000000003103
 20
-103.5904687500277
 30
0.0
 40
0.9904687500000156
 50
1.7628079931632601
 51
178.23719200683669
  0
ARC
  5
477
  8
DATA
  6
CONTINUOUS
 62
     7
 10
7.3997928262218524
 20
-126.6097448979867
 30
0.0
 40
0.9902551237126417
 50
181.7508209981614
 51
0.5638451396986
  0
LINE
  5
478
  8
DATA
  6
CONTINUOUS
 62
     7
 10
6.4100000000003092
 20
-126.6400000000277
 30
0.0
 11
6.4100000000003092
 21
-103.5600000000491
 31
0.0
  0
LINE
  5
479
  8
DATA
  6
CONTINUOUS
 62
     7
 10
8.3900000000003256
 20
-126.59999999999999
 30
0.0
 11
8.3900000000003256
 21
-103.5600000000491
 31
0.0
  0
ARC
  5
47A
  8
DATA
  6
CONTINUOUS
 62
     7
 10
11.900000000000309
 20
-103.5904687500277
 30
0.0
 40
0.9904687500000156
 50
1.7628079931632601
 51
178.23719200683669
  0
ARC
  5
47B
  8
DATA
  6
CONTINUOUS
 62
     7
 10
11.89979282622185
 20
-126.6097448979867
 30
0.0
 40
0.9902551237126417
 50
181.7508209981614
 51
0.5638451396986
  0
LINE
  5
47C
  8
DATA
  6
CONTINUOUS
 62
     7
 10
10.910000000000309
 20
-126.6400000000277
 30
0.0
 11
10.910000000000309
 21
-103.5600000000491
 31
0.0
  0
LINE
  5
47D
  8
DATA
  6
CONTINUOUS
 62
     7
 10
12.890000000000329
 20
-126.59999999999999
 30
0.0
 11
12.890000000000329
 21
-103.5600000000491
 31
0.0
  0
ARC
  5
47E
  8
DATA
  6
CONTINUOUS
 62
     7
 10
16.400000000000311
 20
-103.5904687500277
 30
0.0
 40
0.9904687500000156
 50
1.7628079931632601
 51
178.23719200683669
  0
ARC
  5
47F
  8
DATA
  6
CONTINUOUS
 62
     7
 10
16.399792826221852
 20
-126.6097448979867
 30
0.0
 40
0.9902551237126434
 50
181.7508209981614
 51
0.5638451396986
  0
LINE
  5
480
  8
DATA
  6
CONTINUOUS
 62
     7
 10
15.410000000000309
 20
-126.6400000000277
 30
0.0
 11
15.410000000000309
 21
-103.5600000000491
 31
0.0
  0
LINE
  5
481
  8
DATA
  6
CONTINUOUS
 62
     7
 10
17.39000000000032
 20
-126.59999999999999
 30
0.0
 11
17.39000000000032
 21
-103.5600000000491
 31
0.0
  0
LINE
  5
482
  8
DATA
  6
CONTINUOUS
 62
     7
 10
101.09999999999999
 20
-63.399999999999977
 30
0.0
 11
98.500000000000014
 21
-63.399999999999977
 31
0.0
  0
LINE
  5
483
  8
DATA
  6
CONTINUOUS
 62
     7
 10
101.09999999999999
 20
-69.299999999999983
 30
0.0
 11
98.500000000000014
 21
-69.299999999999983
 31
0.0
  0
LINE
  5
484
  8
DATA
  6
CONTINUOUS
 62
     7
 10
101.09999999999999
 20
-69.299999999999983
 30
0.0
 11
101.09999999999999
 21
-63.399999999999977
 31
0.0
  0
LINE
  5
485
  8
DATA
  6
CONTINUOUS
 62
     7
 10
-338.10000000000002
 20
-63.299999999999997
 30
0.0
 11
-335.5
 21
-63.299999999999997
 31
0.0
  0
LINE
  5
486
  8
DATA
  6
CONTINUOUS
 62
     7
 10
-338.10000000000002
 20
-69.200000000000017
 30
0.0
 11
-335.5
 21
-69.200000000000017
 31
0.0
  0
LINE
  5
487
  8
DATA
  6
CONTINUOUS
 62
     7
 10
-338.10000000000002
 20
-69.200000000000017
 30
0.0
 11
-338.10000000000002
 21
-63.299999999999997
 31
0.0
  0
LINE
  5
488
  8
DATA
  6
CONTINUOUS
 62
     7
 10
-335.49999990407042
 20
194.9999999999612
 30
0.0
 11
-335.49999990407042
 21
149.99999999996081
 31
0.0
  0
LINE
  5
489
  8
DATA
  6
CONTINUOUS
 62
     7
 10
-337.49999990407042
 20
194.9999999999612
 30
0.0
 11
-337.49999990407042
 21
149.99999999996081
 31
0.0
  0
LINE
  5
48A
  8
DATA
  6
CONTINUOUS
 62
     7
 10
98.500000095929636
 20
194.9999999999612
 30
0.0
 11
98.500000095929636
 21
149.99999999996081
 31
0.0
  0
LINE
  5
48B
  8
DATA
  6
CONTINUOUS
 62
     7
 10
100.50000009592959
 20
194.9999999999612
 30
0.0
 11
100.50000009592959
 21
149.99999999996081
 31
0.0
  0
LINE
  5
48C
  8
DATA
  6
CONTINUOUS
 62
     7
 10
98.500000095929636
 20
152.49999999996101
 30
0.0
 11
-335.49999990407042
 21
152.49999999996101
 31
0.0
  0
LINE
  5
48D
  8
DATA
  6
CONTINUOUS
 62
     7
 10
-335.49999990407042
 20
192.49999999996101
 30
0.0
 11
98.500000095929636
 21
192.49999999996101
 31
0.0
  0
LINE
  5
48E
  8
DATA
  6
CONTINUOUS
 62
     7
 10
-340.09999990407073
 20
155.29999999996099
 30
0.0
 11
-340.09999990407073
 21
161.19999999996099
 31
0.0
  0
LINE
  5
48F
  8
DATA
  6
CONTINUOUS
 62
     7
 10
-340.09999990407073
 20
183.79999999996099
 30
0.0
 11
-340.09999990407073
 21
189.69999999996091
 31
0.0
  0
LINE
  5
490
  8
DATA
  6
CONTINUOUS
 62
     7
 10
-340.09999990407073
 20
155.29999999996099
 30
0.0
 11
-337.49999990407042
 21
155.29999999996099
 31
0.0
  0
LINE
  5
491
  8
DATA
  6
CONTINUOUS
 62
     7
 10
-340.09999990407073
 20
161.19999999996099
 30
0.0
 11
-337.49999990407042
 21
161.19999999996099
 31
0.0
  0
LINE
  5
492
  8
DATA
  6
CONTINUOUS
 62
     7
 10
-340.09999990407073
 20
183.79999999996099
 30
0.0
 11
-337.49999990407042
 21
183.79999999996099
 31
0.0
  0
LINE
  5
493
  8
DATA
  6
CONTINUOUS
 62
     7
 10
-340.09999990407073
 20
189.69999999996091
 30
0.0
 11
-337.49999990407042
 21
189.69999999996091
 31
0.0
  0
LINE
  5
494
  8
DATA
  6
CONTINUOUS
 62
     7
 10
103.1000000959295
 20
161.19999999996099
 30
0.0
 11
103.1000000959295
 21
155.29999999996099
 31
0.0
  0
LINE
  5
495
  8
DATA
  6
CONTINUOUS
 62
     7
 10
103.1000000959295
 20
189.69999999996091
 30
0.0
 11
103.1000000959295
 21
183.79999999996099
 31
0.0
  0
LINE
  5
496
  8
DATA
  6
CONTINUOUS
 62
     7
 10
103.1000000959295
 20
155.29999999996099
 30
0.0
 11
100.50000009592959
 21
155.29999999996099
 31
0.0
  0
LINE
  5
497
  8
DATA
  6
CONTINUOUS
 62
     7
 10
103.1000000959295
 20
161.19999999996099
 30
0.0
 11
100.50000009592959
 21
161.19999999996099
 31
0.0
  0
LINE
  5
498
  8
DATA
  6
CONTINUOUS
 62
     7
 10
103.1000000959295
 20
183.79999999996099
 30
0.0
 11
100.50000009592959
 21
183.79999999996099
 31
0.0
  0
LINE
  5
499
  8
DATA
  6
CONTINUOUS
 62
     7
 10
103.1000000959295
 20
189.69999999996091
 30
0.0
 11
100.50000009592959
 21
189.69999999996091
 31
0.0
  0
LINE
  5
49A
  8
DATA
  6
CONTINUOUS
 62
     7
 10
92.500000095929636
 20
192.49999999996101
 30
0.0
 11
92.500000095929636
 21
157.69999999996099
 31
0.0
  0
LINE
  5
49B
  8
DATA
  6
CONTINUOUS
 62
     7
 10
-329.49999990407042
 20
192.49999999996101
 30
0.0
 11
-329.49999990407042
 21
157.69999999996099
 31
0.0
  0
LINE
  5
49C
  8
DATA
  6
CONTINUOUS
 62
     7
 10
92.500000095929636
 20
157.69999999996099
 30
0.0
 11
-43.499999904070371
 21
157.69999999996099
 31
0.0
  0
LINE
  5
49D
  8
DATA
  6
CONTINUOUS
 62
     7
 10
-67.999999904070364
 20
157.69999999996099
 30
0.0
 11
-141.5501260368832
 21
157.69999999996099
 31
0.0
  0
LINE
  5
49E
  8
DATA
  6
CONTINUOUS
 62
     7
 10
-150.1305533083048
 20
157.69999999996099
 30
0.0
 11
-186.49999990407039
 21
157.69999999996099
 31
0.0
  0
LINE
  5
49F
  8
DATA
  6
CONTINUOUS
 62
     7
 10
-192.49999990407039
 20
157.69999999996099
 30
0.0
 11
-203.71245156542091
 21
157.69999999996099
 31
0.0
  0
LINE
  5
4A0
  8
DATA
  6
CONTINUOUS
 62
     7
 10
-212.2928788368429
 20
157.69999999996099
 30
0.0
 11
-232.5875584094824
 21
157.69999999996099
 31
0.0
  0
LINE
  5
4A1
  8
DATA
  6
CONTINUOUS
 62
     7
 10
-241.16798568090439
 20
157.69999999996099
 30
0.0
 11
-294.74988393802067
 21
157.69999999996099
 31
0.0
  0
LINE
  5
4A2
  8
DATA
  6
CONTINUOUS
 62
     7
 10
-303.33031120944258
 20
157.69999999996099
 30
0.0
 11
-329.49999990407042
 21
157.69999999996099
 31
0.0
  0
LINE
  5
4A3
  8
DATA
  6
CONTINUOUS
 62
     7
 10
-329.49999990407042
 20
157.69999999996099
 30
0.0
 11
-335.49999990407042
 21
152.49999999996101
 31
0.0
  0
LINE
  5
4A4
  8
DATA
  6
CONTINUOUS
 62
     7
 10
92.500000095929636
 20
157.69999999996099
 30
0.0
 11
98.500000095929636
 21
152.49999999996101
 31
0.0
  0
POLYLINE
  5
4A5
  8
DATA
  6
CONTINUOUS
 62
     7
 66
     1
 10
0.0
 20
0.0
 30
0.0
 70
     1
  0
VERTEX
  5
CB5
  8
DATA
  6
CONTINUOUS
 62
     7
 10
1.0000000959296349
 20
184.9969462996666
 30
0.0
  0
VERTEX
  5
CB6
  8
DATA
  6
CONTINUOUS
 62
     7
 10
10.00000009592963
 20
184.9969462996666
 30
0.0
  0
VERTEX
  5
CB7
  8
DATA
  6
CONTINUOUS
 62
     7
 10
10.00000009592963
 20
173.9969462996666
 30
0.0
  0
VERTEX
  5
CB8
  8
DATA
  6
CONTINUOUS
 62
     7
 10
1.0000000959296349
 20
173.9969462996666
 30
0.0
  0
SEQEND
  5
CB9
  8
DATA
  6
CONTINUOUS
 62
     7
  0
CIRCLE
  5
4AC
  8
DATA
  6
CONTINUOUS
 62
     7
 10
5.5000000959296349
 20
178.0985252466804
 30
0.0
 40
3.1500000000000048
  0
CIRCLE
  5
4AD
  8
DATA
  6
CONTINUOUS
 62
     7
 10
5.5000000959296349
 20
178.0985252466804
 30
0.0
 40
1.199999999999988
  0
CIRCLE
  5
4AE
  8
DATA
  6
CONTINUOUS
 62
     7
 10
-321.56595320300221
 20
178.02793341074701
 30
0.0
 40
2.4249999999999541
  0
CIRCLE
  5
4AF
  8
DATA
  6
CONTINUOUS
 62
     7
 10
-299.04009757373149
 20
174.23398024082971
 30
0.0
 40
9.8500000000005912
  0
CIRCLE
  5
4B0
  8
DATA
  6
CONTINUOUS
 62
     7
 10
-299.04009757373149
 20
174.23398024082971
 30
0.0
 40
7.8500000000004757
  0
CIRCLE
  5
4B1
  8
DATA
  6
CONTINUOUS
 62
     7
 10
-299.04009757373149
 20
178.15511826197209
 30
0.0
 40
1.2650000000001
  0
CIRCLE
  5
4B2
  8
DATA
  6
CONTINUOUS
 62
     7
 10
-295.10861598784533
 20
174.23398024082971
 30
0.0
 40
1.2649999999999859
  0
CIRCLE
  5
4B3
  8
DATA
  6
CONTINUOUS
 62
     7
 10
-302.97454199311898
 20
174.23398024082971
 30
0.0
 40
1.265000000000043
  0
ARC
  5
4B4
  8
DATA
  6
CONTINUOUS
 62
     7
 10
-300.86795513355338
 20
159.69982254616619
 30
0.0
 40
3.1721424401782121
 50
101.31056104783779
 51
266.88920568607011
  0
ARC
  5
4B5
  8
DATA
  6
CONTINUOUS
 62
     7
 10
-297.21224001390971
 20
159.69982254616619
 30
0.0
 40
3.1721424401781899
 50
273.11079431392989
 51
78.689438953067736
  0
LINE
  5
4B6
  8
DATA
  6
CONTINUOUS
 62
     7
 10
-297.04009757373149
 20
156.53235437094031
 30
0.0
 11
-301.04009757373171
 21
156.53235437094031
 31
0.0
  0
CIRCLE
  5
4B7
  8
DATA
  6
CONTINUOUS
 62
     7
 10
-308.54696298662839
 20
183.78720537803659
 30
0.0
 40
2.0007000000001081
  0
POLYLINE
  5
4B8
  8
DATA
  6
CONTINUOUS
 62
     7
 66
     1
 10
0.0
 20
0.0
 30
0.0
  0
VERTEX
  5
CBA
  8
DATA
  6
CONTINUOUS
 62
     7
 10
-308.7393379866283
 20
183.97958037803659
 30
0.0
  0
VERTEX
  5
CBB
  8
DATA
  6
CONTINUOUS
 62
     7
 10
-308.7393379866283
 20
185.32620537803641
 30
0.0
  0
VERTEX
  5
CBC
  8
DATA
  6
CONTINUOUS
 62
     7
 10
-308.3545879866283
 20
185.32620537803641
 30
0.0
  0
VERTEX
  5
CBD
  8
DATA
  6
CONTINUOUS
 62
     7
 10
-308.3545879866283
 20
183.97958037803659
 30
0.0
  0
SEQEND
  5
CBE
  8
DATA
  6
CONTINUOUS
 62
     7
  0
POLYLINE
  5
4BF
  8
DATA
  6
CONTINUOUS
 62
     7
 66
     1
 10
0.0
 20
0.0
 30
0.0
  0
VERTEX
  5
CBF
  8
DATA
  6
CONTINUOUS
 62
     7
 10
-308.7393379866283
 20
183.59483037803651
 30
0.0
  0
VERTEX
  5
CC0
  8
DATA
  6
CONTINUOUS
 62
     7
 10
-308.7393379866283
 20
182.2482053780366
 30
0.0
  0
VERTEX
  5
CC1
  8
DATA
  6
CONTINUOUS
 62
     7
 10
-308.3545879866283
 20
182.2482053780366
 30
0.0
  0
VERTEX
  5
CC2
  8
DATA
  6
CONTINUOUS
 62
     7
 10
-308.3545879866283
 20
183.59483037803651
 30
0.0
  0
SEQEND
  5
CC3
  8
DATA
  6
CONTINUOUS
 62
     7
  0
POLYLINE
  5
4C6
  8
DATA
  6
CONTINUOUS
 62
     7
 66
     1
 10
0.0
 20
0.0
 30
0.0
  0
VERTEX
  5
CC4
  8
DATA
  6
CONTINUOUS
 62
     7
 10
-308.3545879866283
 20
183.97958037803659
 30
0.0
  0
VERTEX
  5
CC5
  8
DATA
  6
CONTINUOUS
 62
     7
 10
-307.00796298662817
 20
183.97958037803659
 30
0.0
  0
VERTEX
  5
CC6
  8
DATA
  6
CONTINUOUS
 62
     7
 10
-307.00796298662817
 20
183.59483037803651
 30
0.0
  0
VERTEX
  5
CC7
  8
DATA
  6
CONTINUOUS
 62
     7
 10
-308.3545879866283
 20
183.59483037803651
 30
0.0
  0
SEQEND
  5
CC8
  8
DATA
  6
CONTINUOUS
 62
     7
  0
POLYLINE
  5
4CD
  8
DATA
  6
CONTINUOUS
 62
     7
 66
     1
 10
0.0
 20
0.0
 30
0.0
  0
VERTEX
  5
CC9
  8
DATA
  6
CONTINUOUS
 62
     7
 10
-308.7393379866283
 20
183.97958037803659
 30
0.0
  0
VERTEX
  5
CCA
  8
DATA
  6
CONTINUOUS
 62
     7
 10
-310.08596298662837
 20
183.97958037803659
 30
0.0
  0
VERTEX
  5
CCB
  8
DATA
  6
CONTINUOUS
 62
     7
 10
-310.08596298662837
 20
183.59483037803651
 30
0.0
  0
VERTEX
  5
CCC
  8
DATA
  6
CONTINUOUS
 62
     7
 10
-308.7393379866283
 20
183.59483037803651
 30
0.0
  0
SEQEND
  5
CCD
  8
DATA
  6
CONTINUOUS
 62
     7
  0
CIRCLE
  5
4D4
  8
DATA
  6
CONTINUOUS
 62
     7
 10
-289.40658557990412
 20
164.64682797131309
 30
0.0
 40
2.0006999999999939
  0
POLYLINE
  5
4D5
  8
DATA
  6
CONTINUOUS
 62
     7
 66
     1
 10
0.0
 20
0.0
 30
0.0
  0
VERTEX
  5
CCE
  8
DATA
  6
CONTINUOUS
 62
     7
 10
-289.59896057990409
 20
164.839202971313
 30
0.0
  0
VERTEX
  5
CCF
  8
DATA
  6
CONTINUOUS
 62
     7
 10
-289.59896057990409
 20
166.1858279713131
 30
0.0
  0
VERTEX
  5
CD0
  8
DATA
  6
CONTINUOUS
 62
     7
 10
-289.21421057990398
 20
166.1858279713131
 30
0.0
  0
VERTEX
  5
CD1
  8
DATA
  6
CONTINUOUS
 62
     7
 10
-289.21421057990398
 20
164.839202971313
 30
0.0
  0
SEQEND
  5
CD2
  8
DATA
  6
CONTINUOUS
 62
     7
  0
POLYLINE
  5
4DC
  8
DATA
  6
CONTINUOUS
 62
     7
 66
     1
 10
0.0
 20
0.0
 30
0.0
  0
VERTEX
  5
CD3
  8
DATA
  6
CONTINUOUS
 62
     7
 10
-289.59896057990409
 20
164.454452971313
 30
0.0
  0
VERTEX
  5
CD4
  8
DATA
  6
CONTINUOUS
 62
     7
 10
-289.59896057990409
 20
163.1078279713131
 30
0.0
  0
VERTEX
  5
CD5
  8
DATA
  6
CONTINUOUS
 62
     7
 10
-289.21421057990398
 20
163.1078279713131
 30
0.0
  0
VERTEX
  5
CD6
  8
DATA
  6
CONTINUOUS
 62
     7
 10
-289.21421057990398
 20
164.454452971313
 30
0.0
  0
SEQEND
  5
CD7
  8
DATA
  6
CONTINUOUS
 62
     7
  0
POLYLINE
  5
4E3
  8
DATA
  6
CONTINUOUS
 62
     7
 66
     1
 10
0.0
 20
0.0
 30
0.0
  0
VERTEX
  5
CD8
  8
DATA
  6
CONTINUOUS
 62
     7
 10
-289.21421057990398
 20
164.839202971313
 30
0.0
  0
VERTEX
  5
CD9
  8
DATA
  6
CONTINUOUS
 62
     7
 10
-287.86758557990407
 20
164.839202971313
 30
0.0
  0
VERTEX
  5
CDA
  8
DATA
  6
CONTINUOUS
 62
     7
 10
-287.86758557990407
 20
164.454452971313
 30
0.0
  0
VERTEX
  5
CDB
  8
DATA
  6
CONTINUOUS
 62
     7
 10
-289.21421057990398
 20
164.454452971313
 30
0.0
  0
SEQEND
  5
CDC
  8
DATA
  6
CONTINUOUS
 62
     7
  0
POLYLINE
  5
4EA
  8
DATA
  6
CONTINUOUS
 62
     7
 66
     1
 10
0.0
 20
0.0
 30
0.0
  0
VERTEX
  5
CDD
  8
DATA
  6
CONTINUOUS
 62
     7
 10
-289.59896057990409
 20
164.839202971313
 30
0.0
  0
VERTEX
  5
CDE
  8
DATA
  6
CONTINUOUS
 62
     7
 10
-290.94558557990422
 20
164.839202971313
 30
0.0
  0
VERTEX
  5
CDF
  8
DATA
  6
CONTINUOUS
 62
     7
 10
-290.94558557990422
 20
164.454452971313
 30
0.0
  0
VERTEX
  5
CE0
  8
DATA
  6
CONTINUOUS
 62
     7
 10
-289.59896057990409
 20
164.454452971313
 30
0.0
  0
SEQEND
  5
CE1
  8
DATA
  6
CONTINUOUS
 62
     7
  0
ARC
  5
4F1
  8
DATA
  6
CONTINUOUS
 62
     7
 10
-299.04009757373149
 20
174.23398024082971
 30
0.0
 40
10.9
 50
282.98939147050203
 51
257.01060852923189
  0
LINE
  5
4F2
  8
DATA
  6
CONTINUOUS
 62
     7
 10
-296.59009757375611
 20
164.69353999940901
 30
0.0
 11
-296.59009757375611
 21
162.810357298414
 31
0.0
  0
LINE
  5
4F3
  8
DATA
  6
CONTINUOUS
 62
     7
 10
-301.4900975737562
 20
164.69353999942149
 30
0.0
 11
-301.4900975737562
 21
162.81035729840411
 31
0.0
  0
CIRCLE
  5
4F4
  8
DATA
  6
CONTINUOUS
 62
     7
 10
-236.87777204519341
 20
174.23398024082971
 30
0.0
 40
9.8500000000005041
  0
CIRCLE
  5
4F5
  8
DATA
  6
CONTINUOUS
 62
     7
 10
-236.87777204519341
 20
174.23398024082971
 30
0.0
 40
7.8500000000003922
  0
CIRCLE
  5
4F6
  8
DATA
  6
CONTINUOUS
 62
     7
 10
-236.87777204519341
 20
178.15511826197209
 30
0.0
 40
1.2650000000000139
  0
CIRCLE
  5
4F7
  8
DATA
  6
CONTINUOUS
 62
     7
 10
-232.94629045930711
 20
174.23398024082971
 30
0.0
 40
1.2649999999999859
  0
CIRCLE
  5
4F8
  8
DATA
  6
CONTINUOUS
 62
     7
 10
-240.8122164645809
 20
174.23398024082971
 30
0.0
 40
1.265000000000043
  0
ARC
  5
4F9
  8
DATA
  6
CONTINUOUS
 62
     7
 10
-238.70562960501519
 20
159.69982254616619
 30
0.0
 40
3.1721424401782161
 50
101.31056104783831
 51
266.88920568607011
  0
ARC
  5
4FA
  8
DATA
  6
CONTINUOUS
 62
     7
 10
-235.04991448537169
 20
159.69982254616619
 30
0.0
 40
3.1721424401781899
 50
273.11079431392989
 51
78.68943895306721
  0
LINE
  5
4FB
  8
DATA
  6
CONTINUOUS
 62
     7
 10
-234.87777204519341
 20
156.53235437094031
 30
0.0
 11
-238.87777204519341
 21
156.53235437094031
 31
0.0
  0
CIRCLE
  5
4FC
  8
DATA
  6
CONTINUOUS
 62
     7
 10
-246.38463745809011
 20
183.78720537803659
 30
0.0
 40
2.0007000000001081
  0
POLYLINE
  5
4FD
  8
DATA
  6
CONTINUOUS
 62
     7
 66
     1
 10
0.0
 20
0.0
 30
0.0
  0
VERTEX
  5
CE2
  8
DATA
  6
CONTINUOUS
 62
     7
 10
-246.57701245809011
 20
183.97958037803659
 30
0.0
  0
VERTEX
  5
CE3
  8
DATA
  6
CONTINUOUS
 62
     7
 10
-246.57701245809011
 20
185.32620537803641
 30
0.0
  0
VERTEX
  5
CE4
  8
DATA
  6
CONTINUOUS
 62
     7
 10
-246.19226245809011
 20
185.32620537803641
 30
0.0
  0
VERTEX
  5
CE5
  8
DATA
  6
CONTINUOUS
 62
     7
 10
-246.19226245809011
 20
183.97958037803659
 30
0.0
  0
SEQEND
  5
CE6
  8
DATA
  6
CONTINUOUS
 62
     7
  0
POLYLINE
  5
504
  8
DATA
  6
CONTINUOUS
 62
     7
 66
     1
 10
0.0
 20
0.0
 30
0.0
  0
VERTEX
  5
CE7
  8
DATA
  6
CONTINUOUS
 62
     7
 10
-246.57701245809011
 20
183.59483037803651
 30
0.0
  0
VERTEX
  5
CE8
  8
DATA
  6
CONTINUOUS
 62
     7
 10
-246.57701245809011
 20
182.2482053780366
 30
0.0
  0
VERTEX
  5
CE9
  8
DATA
  6
CONTINUOUS
 62
     7
 10
-246.19226245809011
 20
182.2482053780366
 30
0.0
  0
VERTEX
  5
CEA
  8
DATA
  6
CONTINUOUS
 62
     7
 10
-246.19226245809011
 20
183.59483037803651
 30
0.0
  0
SEQEND
  5
CEB
  8
DATA
  6
CONTINUOUS
 62
     7
  0
POLYLINE
  5
50B
  8
DATA
  6
CONTINUOUS
 62
     7
 66
     1
 10
0.0
 20
0.0
 30
0.0
  0
VERTEX
  5
CEC
  8
DATA
  6
CONTINUOUS
 62
     7
 10
-246.19226245809011
 20
183.97958037803659
 30
0.0
  0
VERTEX
  5
CED
  8
DATA
  6
CONTINUOUS
 62
     7
 10
-244.84563745809001
 20
183.97958037803659
 30
0.0
  0
VERTEX
  5
CEE
  8
DATA
  6
CONTINUOUS
 62
     7
 10
-244.84563745809001
 20
183.59483037803651
 30
0.0
  0
VERTEX
  5
CEF
  8
DATA
  6
CONTINUOUS
 62
     7
 10
-246.19226245809011
 20
183.59483037803651
 30
0.0
  0
SEQEND
  5
CF0
  8
DATA
  6
CONTINUOUS
 62
     7
  0
POLYLINE
  5
512
  8
DATA
  6
CONTINUOUS
 62
     7
 66
     1
 10
0.0
 20
0.0
 30
0.0
  0
VERTEX
  5
CF1
  8
DATA
  6
CONTINUOUS
 62
     7
 10
-246.57701245809011
 20
183.97958037803659
 30
0.0
  0
VERTEX
  5
CF2
  8
DATA
  6
CONTINUOUS
 62
     7
 10
-247.92363745809021
 20
183.97958037803659
 30
0.0
  0
VERTEX
  5
CF3
  8
DATA
  6
CONTINUOUS
 62
     7
 10
-247.92363745809021
 20
183.59483037803651
 30
0.0
  0
VERTEX
  5
CF4
  8
DATA
  6
CONTINUOUS
 62
     7
 10
-246.57701245809011
 20
183.59483037803651
 30
0.0
  0
SEQEND
  5
CF5
  8
DATA
  6
CONTINUOUS
 62
     7
  0
CIRCLE
  5
519
  8
DATA
  6
CONTINUOUS
 62
     7
 10
-227.2442600513659
 20
164.64682797131309
 30
0.0
 40
2.0006999999999939
  0
POLYLINE
  5
51A
  8
DATA
  6
CONTINUOUS
 62
     7
 66
     1
 10
0.0
 20
0.0
 30
0.0
  0
VERTEX
  5
CF6
  8
DATA
  6
CONTINUOUS
 62
     7
 10
-227.4366350513659
 20
164.839202971313
 30
0.0
  0
VERTEX
  5
CF7
  8
DATA
  6
CONTINUOUS
 62
     7
 10
-227.4366350513659
 20
166.1858279713131
 30
0.0
  0
VERTEX
  5
CF8
  8
DATA
  6
CONTINUOUS
 62
     7
 10
-227.05188505136601
 20
166.1858279713131
 30
0.0
  0
VERTEX
  5
CF9
  8
DATA
  6
CONTINUOUS
 62
     7
 10
-227.05188505136601
 20
164.839202971313
 30
0.0
  0
SEQEND
  5
CFA
  8
DATA
  6
CONTINUOUS
 62
     7
  0
POLYLINE
  5
521
  8
DATA
  6
CONTINUOUS
 62
     7
 66
     1
 10
0.0
 20
0.0
 30
0.0
  0
VERTEX
  5
CFB
  8
DATA
  6
CONTINUOUS
 62
     7
 10
-227.4366350513659
 20
164.454452971313
 30
0.0
  0
VERTEX
  5
CFC
  8
DATA
  6
CONTINUOUS
 62
     7
 10
-227.4366350513659
 20
163.1078279713131
 30
0.0
  0
VERTEX
  5
CFD
  8
DATA
  6
CONTINUOUS
 62
     7
 10
-227.05188505136601
 20
163.1078279713131
 30
0.0
  0
VERTEX
  5
CFE
  8
DATA
  6
CONTINUOUS
 62
     7
 10
-227.05188505136601
 20
164.454452971313
 30
0.0
  0
SEQEND
  5
CFF
  8
DATA
  6
CONTINUOUS
 62
     7
  0
POLYLINE
  5
528
  8
DATA
  6
CONTINUOUS
 62
     7
 66
     1
 10
0.0
 20
0.0
 30
0.0
  0
VERTEX
  5
D00
  8
DATA
  6
CONTINUOUS
 62
     7
 10
-227.05188505136601
 20
164.839202971313
 30
0.0
  0
VERTEX
  5
D01
  8
DATA
  6
CONTINUOUS
 62
     7
 10
-225.70526005136591
 20
164.839202971313
 30
0.0
  0
VERTEX
  5
D02
  8
DATA
  6
CONTINUOUS
 62
     7
 10
-225.70526005136591
 20
164.454452971313
 30
0.0
  0
VERTEX
  5
D03
  8
DATA
  6
CONTINUOUS
 62
     7
 10
-227.05188505136601
 20
164.454452971313
 30
0.0
  0
SEQEND
  5
D04
  8
DATA
  6
CONTINUOUS
 62
     7
  0
POLYLINE
  5
52F
  8
DATA
  6
CONTINUOUS
 62
     7
 66
     1
 10
0.0
 20
0.0
 30
0.0
  0
VERTEX
  5
D05
  8
DATA
  6
CONTINUOUS
 62
     7
 10
-227.4366350513659
 20
164.839202971313
 30
0.0
  0
VERTEX
  5
D06
  8
DATA
  6
CONTINUOUS
 62
     7
 10
-228.783260051366
 20
164.839202971313
 30
0.0
  0
VERTEX
  5
D07
  8
DATA
  6
CONTINUOUS
 62
     7
 10
-228.783260051366
 20
164.454452971313
 30
0.0
  0
VERTEX
  5
D08
  8
DATA
  6
CONTINUOUS
 62
     7
 10
-227.4366350513659
 20
164.454452971313
 30
0.0
  0
SEQEND
  5
D09
  8
DATA
  6
CONTINUOUS
 62
     7
  0
ARC
  5
536
  8
DATA
  6
CONTINUOUS
 62
     7
 10
-236.87777204519341
 20
174.23398024082971
 30
0.0
 40
10.9
 50
282.9893914705022
 51
257.0106085292324
  0
LINE
  5
537
  8
DATA
  6
CONTINUOUS
 62
     7
 10
-234.42777204521789
 20
164.69353999940901
 30
0.0
 11
-234.42777204521789
 21
162.810357298414
 31
0.0
  0
LINE
  5
538
  8
DATA
  6
CONTINUOUS
 62
     7
 10
-239.32777204521801
 20
164.69353999942149
 30
0.0
 11
-239.32777204521801
 21
162.81035729840411
 31
0.0
  0
CIRCLE
  5
539
  8
DATA
  6
CONTINUOUS
 62
     7
 10
-278.09898733858381
 20
180.6707031215482
 30
0.0
 40
5.3000000000000114
  0
CIRCLE
  5
53A
  8
DATA
  6
CONTINUOUS
 62
     7
 10
-278.09898733858381
 20
180.6707031215482
 30
0.0
 40
3.25
  0
CIRCLE
  5
53B
  8
DATA
  6
CONTINUOUS
 62
     7
 10
-278.09898733858381
 20
180.6707031215482
 30
0.0
 40
8.6500000000000341
  0
POLYLINE
  5
53C
  8
DATA
  6
CONTINUOUS
 62
     7
 66
     1
 10
0.0
 20
0.0
 30
0.0
 70
     1
  0
VERTEX
  5
D0A
  8
DATA
  6
CONTINUOUS
 62
     7
 10
-270.13994745846389
 20
177.2830513999773
 30
0.0
  0
VERTEX
  5
D0B
  8
DATA
  6
CONTINUOUS
 62
     7
 10
-271.1856749484694
 20
185.86960798668011
 30
0.0
  0
VERTEX
  5
D0C
  8
DATA
  6
CONTINUOUS
 62
     7
 10
-279.14471482858909
 20
189.25725970825101
 30
0.0
  0
VERTEX
  5
D0D
  8
DATA
  6
CONTINUOUS
 62
     7
 10
-286.05802721870373
 20
184.05835484311919
 30
0.0
  0
VERTEX
  5
D0E
  8
DATA
  6
CONTINUOUS
 62
     7
 10
-285.01229972869822
 20
175.47179825641641
 30
0.0
  0
VERTEX
  5
D0F
  8
DATA
  6
CONTINUOUS
 62
     7
 10
-277.05325984857842
 20
172.08414653484539
 30
0.0
  0
SEQEND
  5
D10
  8
DATA
  6
CONTINUOUS
 62
     7
  0
CIRCLE
  5
545
  8
DATA
  6
CONTINUOUS
 62
     7
 10
-259.09898733858392
 20
180.6707031215482
 30
0.0
 40
5.3000000000000114
  0
CIRCLE
  5
546
  8
DATA
  6
CONTINUOUS
 62
     7
 10
-259.09898733858392
 20
180.6707031215482
 30
0.0
 40
3.25
  0
CIRCLE
  5
547
  8
DATA
  6
CONTINUOUS
 62
     7
 10
-259.09898733858392
 20
180.6707031215482
 30
0.0
 40
8.6500000000000341
  0
POLYLINE
  5
548
  8
DATA
  6
CONTINUOUS
 62
     7
 66
     1
 10
0.0
 20
0.0
 30
0.0
 70
     1
  0
VERTEX
  5
D11
  8
DATA
  6
CONTINUOUS
 62
     7
 10
-251.13994745846401
 20
177.2830513999773
 30
0.0
  0
VERTEX
  5
D12
  8
DATA
  6
CONTINUOUS
 62
     7
 10
-252.1856749484694
 20
185.86960798668011
 30
0.0
  0
VERTEX
  5
D13
  8
DATA
  6
CONTINUOUS
 62
     7
 10
-260.14471482858931
 20
189.25725970825101
 30
0.0
  0
VERTEX
  5
D14
  8
DATA
  6
CONTINUOUS
 62
     7
 10
-267.05802721870373
 20
184.05835484311919
 30
0.0
  0
VERTEX
  5
D15
  8
DATA
  6
CONTINUOUS
 62
     7
 10
-266.01229972869828
 20
175.47179825641641
 30
0.0
  0
VERTEX
  5
D16
  8
DATA
  6
CONTINUOUS
 62
     7
 10
-258.05325984857848
 20
172.08414653484539
 30
0.0
  0
SEQEND
  5
D17
  8
DATA
  6
CONTINUOUS
 62
     7
  0
CIRCLE
  5
551
  8
DATA
  6
CONTINUOUS
 62
     7
 10
-187.0615549659839
 20
180.6707031215482
 30
0.0
 40
5.3000000000001251
  0
CIRCLE
  5
552
  8
DATA
  6
CONTINUOUS
 62
     7
 10
-187.0615549659839
 20
180.6707031215482
 30
0.0
 40
3.250000000000056
  0
CIRCLE
  5
553
  8
DATA
  6
CONTINUOUS
 62
     7
 10
-187.0615549659839
 20
180.6707031215482
 30
0.0
 40
8.6500000000002046
  0
POLYLINE
  5
554
  8
DATA
  6
CONTINUOUS
 62
     7
 66
     1
 10
0.0
 20
0.0
 30
0.0
 70
     1
  0
VERTEX
  5
D18
  8
DATA
  6
CONTINUOUS
 62
     7
 10
-179.1025150858639
 20
177.2830513999773
 30
0.0
  0
VERTEX
  5
D19
  8
DATA
  6
CONTINUOUS
 62
     7
 10
-180.1482425758694
 20
185.86960798668011
 30
0.0
  0
VERTEX
  5
D1A
  8
DATA
  6
CONTINUOUS
 62
     7
 10
-188.10728245598921
 20
189.25725970825101
 30
0.0
  0
VERTEX
  5
D1B
  8
DATA
  6
CONTINUOUS
 62
     7
 10
-195.0205948461039
 20
184.05835484311919
 30
0.0
  0
VERTEX
  5
D1C
  8
DATA
  6
CONTINUOUS
 62
     7
 10
-193.9748673560984
 20
175.47179825641641
 30
0.0
  0
VERTEX
  5
D1D
  8
DATA
  6
CONTINUOUS
 62
     7
 10
-186.01582747597851
 20
172.08414653484539
 30
0.0
  0
SEQEND
  5
D1E
  8
DATA
  6
CONTINUOUS
 62
     7
  0
CIRCLE
  5
55D
  8
DATA
  6
CONTINUOUS
 62
     7
 10
-168.0615549659839
 20
180.6707031215482
 30
0.0
 40
5.2999999999998684
  0
CIRCLE
  5
55E
  8
DATA
  6
CONTINUOUS
 62
     7
 10
-168.0615549659839
 20
180.6707031215482
 30
0.0
 40
3.2499999999999138
  0
CIRCLE
  5
55F
  8
DATA
  6
CONTINUOUS
 62
     7
 10
-168.0615549659839
 20
180.6707031215482
 30
0.0
 40
8.6499999999999204
  0
POLYLINE
  5
560
  8
DATA
  6
CONTINUOUS
 62
     7
 66
     1
 10
0.0
 20
0.0
 30
0.0
 70
     1
  0
VERTEX
  5
D1F
  8
DATA
  6
CONTINUOUS
 62
     7
 10
-160.1025150858643
 20
177.2830513999773
 30
0.0
  0
VERTEX
  5
D20
  8
DATA
  6
CONTINUOUS
 62
     7
 10
-161.14824257586969
 20
185.86960798668011
 30
0.0
  0
VERTEX
  5
D21
  8
DATA
  6
CONTINUOUS
 62
     7
 10
-169.10728245598929
 20
189.25725970825101
 30
0.0
  0
VERTEX
  5
D22
  8
DATA
  6
CONTINUOUS
 62
     7
 10
-176.02059484610371
 20
184.05835484311919
 30
0.0
  0
VERTEX
  5
D23
  8
DATA
  6
CONTINUOUS
 62
     7
 10
-174.9748673560982
 20
175.47179825641641
 30
0.0
  0
VERTEX
  5
D24
  8
DATA
  6
CONTINUOUS
 62
     7
 10
-167.0158274759786
 20
172.08414653484539
 30
0.0
  0
SEQEND
  5
D25
  8
DATA
  6
CONTINUOUS
 62
     7
  0
LINE
  5
569
  8
DATA
  6
CONTINUOUS
 62
     7
 10
-222.44021862316259
 20
157.69999999996099
 30
0.0
 11
-222.44021862316259
 21
192.49999999996101
 31
0.0
  0
LINE
  5
56A
  8
DATA
  6
CONTINUOUS
 62
     7
 10
-132.49999990407031
 20
192.49999999996101
 30
0.0
 11
-132.49999990407031
 21
157.69999999996099
 31
0.0
  0
CIRCLE
  5
56B
  8
DATA
  6
CONTINUOUS
 62
     7
 10
-122.3108883940331
 20
180.6707031215482
 30
0.0
 40
5.2999999999997121
  0
CIRCLE
  5
56C
  8
DATA
  6
CONTINUOUS
 62
     7
 10
-122.3108883940331
 20
180.6707031215482
 30
0.0
 40
3.249999999999801
  0
CIRCLE
  5
56D
  8
DATA
  6
CONTINUOUS
 62
     7
 10
-122.3108883940331
 20
180.6707031215482
 30
0.0
 40
8.6499999999995065
  0
POLYLINE
  5
56E
  8
DATA
  6
CONTINUOUS
 62
     7
 66
     1
 10
0.0
 20
0.0
 30
0.0
 70
     1
  0
VERTEX
  5
D26
  8
DATA
  6
CONTINUOUS
 62
     7
 10
-114.35184851391379
 20
177.2830513999773
 30
0.0
  0
VERTEX
  5
D27
  8
DATA
  6
CONTINUOUS
 62
     7
 10
-115.3975760039192
 20
185.86960798668011
 30
0.0
  0
VERTEX
  5
D28
  8
DATA
  6
CONTINUOUS
 62
     7
 10
-123.3566158840384
 20
189.25725970825101
 30
0.0
  0
VERTEX
  5
D29
  8
DATA
  6
CONTINUOUS
 62
     7
 10
-130.26992827415251
 20
184.05835484311919
 30
0.0
  0
VERTEX
  5
D2A
  8
DATA
  6
CONTINUOUS
 62
     7
 10
-129.22420078414709
 20
175.47179825641641
 30
0.0
  0
VERTEX
  5
D2B
  8
DATA
  6
CONTINUOUS
 62
     7
 10
-121.26516090402779
 20
172.08414653484539
 30
0.0
  0
SEQEND
  5
D2C
  8
DATA
  6
CONTINUOUS
 62
     7
  0
CIRCLE
  5
577
  8
DATA
  6
CONTINUOUS
 62
     7
 10
-103.31088839403429
 20
180.6707031215482
 30
0.0
 40
5.2999999999997272
  0
CIRCLE
  5
578
  8
DATA
  6
CONTINUOUS
 62
     7
 10
-103.31088839403429
 20
180.6707031215482
 30
0.0
 40
3.2499999999999138
  0
CIRCLE
  5
579
  8
DATA
  6
CONTINUOUS
 62
     7
 10
-103.31088839403429
 20
180.6707031215482
 30
0.0
 40
8.6499999999994941
  0
POLYLINE
  5
57A
  8
DATA
  6
CONTINUOUS
 62
     7
 66
     1
 10
0.0
 20
0.0
 30
0.0
 70
     1
  0
VERTEX
  5
D2D
  8
DATA
  6
CONTINUOUS
 62
     7
 10
-95.351848513914732
 20
177.2830513999773
 30
0.0
  0
VERTEX
  5
D2E
  8
DATA
  6
CONTINUOUS
 62
     7
 10
-96.397576003920165
 20
185.86960798668011
 30
0.0
  0
VERTEX
  5
D2F
  8
DATA
  6
CONTINUOUS
 62
     7
 10
-104.3566158840397
 20
189.25725970825101
 30
0.0
  0
VERTEX
  5
D30
  8
DATA
  6
CONTINUOUS
 62
     7
 10
-111.2699282741537
 20
184.05835484311919
 30
0.0
  0
VERTEX
  5
D31
  8
DATA
  6
CONTINUOUS
 62
     7
 10
-110.22420078414839
 20
175.47179825641641
 30
0.0
  0
VERTEX
  5
D32
  8
DATA
  6
CONTINUOUS
 62
     7
 10
-102.265160904029
 20
172.08414653484539
 30
0.0
  0
SEQEND
  5
D33
  8
DATA
  6
CONTINUOUS
 62
     7
  0
LINE
  5
583
  8
DATA
  6
CONTINUOUS
 62
     7
 10
-67.999999904070364
 20
157.69999999996099
 30
0.0
 11
-67.999999904070364
 21
192.49999999996101
 31
0.0
  0
CIRCLE
  5
584
  8
DATA
  6
CONTINUOUS
 62
     7
 10
-5.909397650603295
 20
182.0117090797261
 30
0.0
 40
2.0006999999999939
  0
POLYLINE
  5
585
  8
DATA
  6
CONTINUOUS
 62
     7
 66
     1
 10
0.0
 20
0.0
 30
0.0
  0
VERTEX
  5
D34
  8
DATA
  6
CONTINUOUS
 62
     7
 10
-5.7170226506032966
 20
181.8193340797261
 30
0.0
  0
VERTEX
  5
D35
  8
DATA
  6
CONTINUOUS
 62
     7
 10
-5.7170226506032966
 20
180.47270907972609
 30
0.0
  0
VERTEX
  5
D36
  8
DATA
  6
CONTINUOUS
 62
     7
 10
-6.1017726506032943
 20
180.47270907972609
 30
0.0
  0
VERTEX
  5
D37
  8
DATA
  6
CONTINUOUS
 62
     7
 10
-6.1017726506032943
 20
181.8193340797261
 30
0.0
  0
SEQEND
  5
D38
  8
DATA
  6
CONTINUOUS
 62
     7
  0
POLYLINE
  5
58C
  8
DATA
  6
CONTINUOUS
 62
     7
 66
     1
 10
0.0
 20
0.0
 30
0.0
  0
VERTEX
  5
D39
  8
DATA
  6
CONTINUOUS
 62
     7
 10
-5.7170226506032966
 20
182.2040840797261
 30
0.0
  0
VERTEX
  5
D3A
  8
DATA
  6
CONTINUOUS
 62
     7
 10
-5.7170226506032966
 20
183.55070907972609
 30
0.0
  0
VERTEX
  5
D3B
  8
DATA
  6
CONTINUOUS
 62
     7
 10
-6.1017726506032943
 20
183.55070907972609
 30
0.0
  0
VERTEX
  5
D3C
  8
DATA
  6
CONTINUOUS
 62
     7
 10
-6.1017726506032943
 20
182.2040840797261
 30
0.0
  0
SEQEND
  5
D3D
  8
DATA
  6
CONTINUOUS
 62
     7
  0
POLYLINE
  5
593
  8
DATA
  6
CONTINUOUS
 62
     7
 66
     1
 10
0.0
 20
0.0
 30
0.0
  0
VERTEX
  5
D3E
  8
DATA
  6
CONTINUOUS
 62
     7
 10
-6.1017726506032943
 20
181.8193340797261
 30
0.0
  0
VERTEX
  5
D3F
  8
DATA
  6
CONTINUOUS
 62
     7
 10
-7.4483976506033098
 20
181.8193340797261
 30
0.0
  0
VERTEX
  5
D40
  8
DATA
  6
CONTINUOUS
 62
     7
 10
-7.4483976506033098
 20
182.2040840797261
 30
0.0
  0
VERTEX
  5
D41
  8
DATA
  6
CONTINUOUS
 62
     7
 10
-6.1017726506032943
 20
182.2040840797261
 30
0.0
  0
SEQEND
  5
D42
  8
DATA
  6
CONTINUOUS
 62
     7
  0
POLYLINE
  5
59A
  8
DATA
  6
CONTINUOUS
 62
     7
 66
     1
 10
0.0
 20
0.0
 30
0.0
  0
VERTEX
  5
D43
  8
DATA
  6
CONTINUOUS
 62
     7
 10
-5.7170226506032966
 20
181.8193340797261
 30
0.0
  0
VERTEX
  5
D44
  8
DATA
  6
CONTINUOUS
 62
     7
 10
-4.3703976506032802
 20
181.8193340797261
 30
0.0
  0
VERTEX
  5
D45
  8
DATA
  6
CONTINUOUS
 62
     7
 10
-4.3703976506032802
 20
182.2040840797261
 30
0.0
  0
VERTEX
  5
D46
  8
DATA
  6
CONTINUOUS
 62
     7
 10
-5.7170226506032966
 20
182.2040840797261
 30
0.0
  0
SEQEND
  5
D47
  8
DATA
  6
CONTINUOUS
 62
     7
  0
CIRCLE
  5
5A1
  8
DATA
  6
CONTINUOUS
 62
     7
 10
-27.209397650603311
 20
182.0117090797261
 30
0.0
 40
2.0006999999999939
  0
POLYLINE
  5
5A2
  8
DATA
  6
CONTINUOUS
 62
     7
 66
     1
 10
0.0
 20
0.0
 30
0.0
  0
VERTEX
  5
D48
  8
DATA
  6
CONTINUOUS
 62
     7
 10
-27.017022650603309
 20
181.8193340797261
 30
0.0
  0
VERTEX
  5
D49
  8
DATA
  6
CONTINUOUS
 62
     7
 10
-27.017022650603309
 20
180.47270907972609
 30
0.0
  0
VERTEX
  5
D4A
  8
DATA
  6
CONTINUOUS
 62
     7
 10
-27.401772650603299
 20
180.47270907972609
 30
0.0
  0
VERTEX
  5
D4B
  8
DATA
  6
CONTINUOUS
 62
     7
 10
-27.401772650603299
 20
181.8193340797261
 30
0.0
  0
SEQEND
  5
D4C
  8
DATA
  6
CONTINUOUS
 62
     7
  0
POLYLINE
  5
5A9
  8
DATA
  6
CONTINUOUS
 62
     7
 66
     1
 10
0.0
 20
0.0
 30
0.0
  0
VERTEX
  5
D4D
  8
DATA
  6
CONTINUOUS
 62
     7
 10
-27.017022650603309
 20
182.2040840797261
 30
0.0
  0
VERTEX
  5
D4E
  8
DATA
  6
CONTINUOUS
 62
     7
 10
-27.017022650603309
 20
183.55070907972609
 30
0.0
  0
VERTEX
  5
D4F
  8
DATA
  6
CONTINUOUS
 62
     7
 10
-27.401772650603299
 20
183.55070907972609
 30
0.0
  0
VERTEX
  5
D50
  8
DATA
  6
CONTINUOUS
 62
     7
 10
-27.401772650603299
 20
182.2040840797261
 30
0.0
  0
SEQEND
  5
D51
  8
DATA
  6
CONTINUOUS
 62
     7
  0
POLYLINE
  5
5B0
  8
DATA
  6
CONTINUOUS
 62
     7
 66
     1
 10
0.0
 20
0.0
 30
0.0
  0
VERTEX
  5
D52
  8
DATA
  6
CONTINUOUS
 62
     7
 10
-27.401772650603299
 20
181.8193340797261
 30
0.0
  0
VERTEX
  5
D53
  8
DATA
  6
CONTINUOUS
 62
     7
 10
-28.74839765060333
 20
181.8193340797261
 30
0.0
  0
VERTEX
  5
D54
  8
DATA
  6
CONTINUOUS
 62
     7
 10
-28.74839765060333
 20
182.2040840797261
 30
0.0
  0
VERTEX
  5
D55
  8
DATA
  6
CONTINUOUS
 62
     7
 10
-27.401772650603299
 20
182.2040840797261
 30
0.0
  0
SEQEND
  5
D56
  8
DATA
  6
CONTINUOUS
 62
     7
  0
POLYLINE
  5
5B7
  8
DATA
  6
CONTINUOUS
 62
     7
 66
     1
 10
0.0
 20
0.0
 30
0.0
  0
VERTEX
  5
D57
  8
DATA
  6
CONTINUOUS
 62
     7
 10
-27.017022650603309
 20
181.8193340797261
 30
0.0
  0
VERTEX
  5
D58
  8
DATA
  6
CONTINUOUS
 62
     7
 10
-25.670397650603292
 20
181.8193340797261
 30
0.0
  0
VERTEX
  5
D59
  8
DATA
  6
CONTINUOUS
 62
     7
 10
-25.670397650603292
 20
182.2040840797261
 30
0.0
  0
VERTEX
  5
D5A
  8
DATA
  6
CONTINUOUS
 62
     7
 10
-27.017022650603309
 20
182.2040840797261
 30
0.0
  0
SEQEND
  5
D5B
  8
DATA
  6
CONTINUOUS
 62
     7
  0
CIRCLE
  5
5BE
  8
DATA
  6
CONTINUOUS
 62
     7
 10
-48.509397650603283
 20
182.0117090797261
 30
0.0
 40
2.0006999999999939
  0
POLYLINE
  5
5BF
  8
DATA
  6
CONTINUOUS
 62
     7
 66
     1
 10
0.0
 20
0.0
 30
0.0
  0
VERTEX
  5
D5C
  8
DATA
  6
CONTINUOUS
 62
     7
 10
-48.317022650603292
 20
181.8193340797261
 30
0.0
  0
VERTEX
  5
D5D
  8
DATA
  6
CONTINUOUS
 62
     7
 10
-48.317022650603292
 20
180.47270907972609
 30
0.0
  0
VERTEX
  5
D5E
  8
DATA
  6
CONTINUOUS
 62
     7
 10
-48.701772650603282
 20
180.47270907972609
 30
0.0
  0
VERTEX
  5
D5F
  8
DATA
  6
CONTINUOUS
 62
     7
 10
-48.701772650603282
 20
181.8193340797261
 30
0.0
  0
SEQEND
  5
D60
  8
DATA
  6
CONTINUOUS
 62
     7
  0
POLYLINE
  5
5C6
  8
DATA
  6
CONTINUOUS
 62
     7
 66
     1
 10
0.0
 20
0.0
 30
0.0
  0
VERTEX
  5
D61
  8
DATA
  6
CONTINUOUS
 62
     7
 10
-48.317022650603292
 20
182.2040840797261
 30
0.0
  0
VERTEX
  5
D62
  8
DATA
  6
CONTINUOUS
 62
     7
 10
-48.317022650603292
 20
183.55070907972609
 30
0.0
  0
VERTEX
  5
D63
  8
DATA
  6
CONTINUOUS
 62
     7
 10
-48.701772650603282
 20
183.55070907972609
 30
0.0
  0
VERTEX
  5
D64
  8
DATA
  6
CONTINUOUS
 62
     7
 10
-48.701772650603282
 20
182.2040840797261
 30
0.0
  0
SEQEND
  5
D65
  8
DATA
  6
CONTINUOUS
 62
     7
  0
POLYLINE
  5
5CD
  8
DATA
  6
CONTINUOUS
 62
     7
 66
     1
 10
0.0
 20
0.0
 30
0.0
  0
VERTEX
  5
D66
  8
DATA
  6
CONTINUOUS
 62
     7
 10
-48.701772650603282
 20
181.8193340797261
 30
0.0
  0
VERTEX
  5
D67
  8
DATA
  6
CONTINUOUS
 62
     7
 10
-50.048397650603292
 20
181.8193340797261
 30
0.0
  0
VERTEX
  5
D68
  8
DATA
  6
CONTINUOUS
 62
     7
 10
-50.048397650603292
 20
182.2040840797261
 30
0.0
  0
VERTEX
  5
D69
  8
DATA
  6
CONTINUOUS
 62
     7
 10
-48.701772650603282
 20
182.2040840797261
 30
0.0
  0
SEQEND
  5
D6A
  8
DATA
  6
CONTINUOUS
 62
     7
  0
POLYLINE
  5
5D4
  8
DATA
  6
CONTINUOUS
 62
     7
 66
     1
 10
0.0
 20
0.0
 30
0.0
  0
VERTEX
  5
D6B
  8
DATA
  6
CONTINUOUS
 62
     7
 10
-48.317022650603292
 20
181.8193340797261
 30
0.0
  0
VERTEX
  5
D6C
  8
DATA
  6
CONTINUOUS
 62
     7
 10
-46.970397650603282
 20
181.8193340797261
 30
0.0
  0
VERTEX
  5
D6D
  8
DATA
  6
CONTINUOUS
 62
     7
 10
-46.970397650603282
 20
182.2040840797261
 30
0.0
  0
VERTEX
  5
D6E
  8
DATA
  6
CONTINUOUS
 62
     7
 10
-48.317022650603292
 20
182.2040840797261
 30
0.0
  0
SEQEND
  5
D6F
  8
DATA
  6
CONTINUOUS
 62
     7
  0
LINE
  5
5DB
  8
DATA
  6
CONTINUOUS
 62
     7
 10
-141.5501260368832
 20
157.69999999996099
 30
0.0
 11
-150.19999990407041
 21
157.69999999996099
 31
0.0
  0
LINE
  5
5DC
  8
DATA
  6
CONTINUOUS
 62
     7
 10
-203.71245156542091
 20
157.69999999996099
 30
0.0
 11
-212.3999999040704
 21
157.69999999996099
 31
0.0
  0
CIRCLE
  5
5DD
  8
DATA
  6
CONTINUOUS
 62
     7
 10
-209.15796308109711
 20
174.56901302853751
 30
0.0
 40
11.0
  0
CIRCLE
  5
5DE
  8
DATA
  6
CONTINUOUS
 62
     7
 10
-209.15796308109711
 20
174.56901302853751
 30
0.0
 40
8.25
  0
CIRCLE
  5
5DF
  8
DATA
  6
CONTINUOUS
 62
     7
 10
-209.15796308109711
 20
178.75835369242029
 30
0.0
 40
1.25
  0
CIRCLE
  5
5E0
  8
DATA
  6
CONTINUOUS
 62
     7
 10
-213.40796308109711
 20
174.56901302853751
 30
0.0
 40
1.25
  0
CIRCLE
  5
5E1
  8
DATA
  6
CONTINUOUS
 62
     7
 10
-204.90796308109711
 20
174.56901302853751
 30
0.0
 40
1.25
  0
CIRCLE
  5
5E2
  8
DATA
  6
CONTINUOUS
 62
     7
 10
-218.69571937689611
 20
184.17407636131151
 30
0.0
 40
2.0006999999999939
  0
POLYLINE
  5
5E3
  8
DATA
  6
CONTINUOUS
 62
     7
 66
     1
 10
0.0
 20
0.0
 30
0.0
  0
VERTEX
  5
D70
  8
DATA
  6
CONTINUOUS
 62
     7
 10
-218.88809437689611
 20
184.3664513613115
 30
0.0
  0
VERTEX
  5
D71
  8
DATA
  6
CONTINUOUS
 62
     7
 10
-218.88809437689611
 20
185.71307636131149
 30
0.0
  0
VERTEX
  5
D72
  8
DATA
  6
CONTINUOUS
 62
     7
 10
-218.50334437689611
 20
185.71307636131149
 30
0.0
  0
VERTEX
  5
D73
  8
DATA
  6
CONTINUOUS
 62
     7
 10
-218.50334437689611
 20
184.3664513613115
 30
0.0
  0
SEQEND
  5
D74
  8
DATA
  6
CONTINUOUS
 62
     7
  0
POLYLINE
  5
5EA
  8
DATA
  6
CONTINUOUS
 62
     7
 66
     1
 10
0.0
 20
0.0
 30
0.0
  0
VERTEX
  5
D75
  8
DATA
  6
CONTINUOUS
 62
     7
 10
-218.88809437689611
 20
183.98170136131151
 30
0.0
  0
VERTEX
  5
D76
  8
DATA
  6
CONTINUOUS
 62
     7
 10
-218.88809437689611
 20
182.63507636131141
 30
0.0
  0
VERTEX
  5
D77
  8
DATA
  6
CONTINUOUS
 62
     7
 10
-218.50334437689611
 20
182.63507636131141
 30
0.0
  0
VERTEX
  5
D78
  8
DATA
  6
CONTINUOUS
 62
     7
 10
-218.50334437689611
 20
183.98170136131151
 30
0.0
  0
SEQEND
  5
D79
  8
DATA
  6
CONTINUOUS
 62
     7
  0
POLYLINE
  5
5F1
  8
DATA
  6
CONTINUOUS
 62
     7
 66
     1
 10
0.0
 20
0.0
 30
0.0
  0
VERTEX
  5
D7A
  8
DATA
  6
CONTINUOUS
 62
     7
 10
-218.50334437689611
 20
184.3664513613115
 30
0.0
  0
VERTEX
  5
D7B
  8
DATA
  6
CONTINUOUS
 62
     7
 10
-217.15671937689609
 20
184.3664513613115
 30
0.0
  0
VERTEX
  5
D7C
  8
DATA
  6
CONTINUOUS
 62
     7
 10
-217.15671937689609
 20
183.98170136131151
 30
0.0
  0
VERTEX
  5
D7D
  8
DATA
  6
CONTINUOUS
 62
     7
 10
-218.50334437689611
 20
183.98170136131151
 30
0.0
  0
SEQEND
  5
D7E
  8
DATA
  6
CONTINUOUS
 62
     7
  0
POLYLINE
  5
5F8
  8
DATA
  6
CONTINUOUS
 62
     7
 66
     1
 10
0.0
 20
0.0
 30
0.0
  0
VERTEX
  5
D7F
  8
DATA
  6
CONTINUOUS
 62
     7
 10
-218.88809437689611
 20
184.3664513613115
 30
0.0
  0
VERTEX
  5
D80
  8
DATA
  6
CONTINUOUS
 62
     7
 10
-220.23471937689609
 20
184.3664513613115
 30
0.0
  0
VERTEX
  5
D81
  8
DATA
  6
CONTINUOUS
 62
     7
 10
-220.23471937689609
 20
183.98170136131151
 30
0.0
  0
VERTEX
  5
D82
  8
DATA
  6
CONTINUOUS
 62
     7
 10
-218.88809437689611
 20
183.98170136131151
 30
0.0
  0
SEQEND
  5
D83
  8
DATA
  6
CONTINUOUS
 62
     7
  0
CIRCLE
  5
5FF
  8
DATA
  6
CONTINUOUS
 62
     7
 10
-199.55534197017241
 20
165.03369895458761
 30
0.0
 40
2.0006999999999939
  0
POLYLINE
  5
600
  8
DATA
  6
CONTINUOUS
 62
     7
 66
     1
 10
0.0
 20
0.0
 30
0.0
  0
VERTEX
  5
D84
  8
DATA
  6
CONTINUOUS
 62
     7
 10
-199.74771697017241
 20
165.2260739545876
 30
0.0
  0
VERTEX
  5
D85
  8
DATA
  6
CONTINUOUS
 62
     7
 10
-199.74771697017241
 20
166.57269895458759
 30
0.0
  0
VERTEX
  5
D86
  8
DATA
  6
CONTINUOUS
 62
     7
 10
-199.36296697017241
 20
166.57269895458759
 30
0.0
  0
VERTEX
  5
D87
  8
DATA
  6
CONTINUOUS
 62
     7
 10
-199.36296697017241
 20
165.2260739545876
 30
0.0
  0
SEQEND
  5
D88
  8
DATA
  6
CONTINUOUS
 62
     7
  0
POLYLINE
  5
607
  8
DATA
  6
CONTINUOUS
 62
     7
 66
     1
 10
0.0
 20
0.0
 30
0.0
  0
VERTEX
  5
D89
  8
DATA
  6
CONTINUOUS
 62
     7
 10
-199.74771697017241
 20
164.84132395458761
 30
0.0
  0
VERTEX
  5
D8A
  8
DATA
  6
CONTINUOUS
 62
     7
 10
-199.74771697017241
 20
163.49469895458759
 30
0.0
  0
VERTEX
  5
D8B
  8
DATA
  6
CONTINUOUS
 62
     7
 10
-199.36296697017241
 20
163.49469895458759
 30
0.0
  0
VERTEX
  5
D8C
  8
DATA
  6
CONTINUOUS
 62
     7
 10
-199.36296697017241
 20
164.84132395458761
 30
0.0
  0
SEQEND
  5
D8D
  8
DATA
  6
CONTINUOUS
 62
     7
  0
POLYLINE
  5
60E
  8
DATA
  6
CONTINUOUS
 62
     7
 66
     1
 10
0.0
 20
0.0
 30
0.0
  0
VERTEX
  5
D8E
  8
DATA
  6
CONTINUOUS
 62
     7
 10
-199.36296697017241
 20
165.2260739545876
 30
0.0
  0
VERTEX
  5
D8F
  8
DATA
  6
CONTINUOUS
 62
     7
 10
-198.01634197017239
 20
165.2260739545876
 30
0.0
  0
VERTEX
  5
D90
  8
DATA
  6
CONTINUOUS
 62
     7
 10
-198.01634197017239
 20
164.84132395458761
 30
0.0
  0
VERTEX
  5
D91
  8
DATA
  6
CONTINUOUS
 62
     7
 10
-199.36296697017241
 20
164.84132395458761
 30
0.0
  0
SEQEND
  5
D92
  8
DATA
  6
CONTINUOUS
 62
     7
  0
POLYLINE
  5
615
  8
DATA
  6
CONTINUOUS
 62
     7
 66
     1
 10
0.0
 20
0.0
 30
0.0
  0
VERTEX
  5
D93
  8
DATA
  6
CONTINUOUS
 62
     7
 10
-199.74771697017241
 20
165.2260739545876
 30
0.0
  0
VERTEX
  5
D94
  8
DATA
  6
CONTINUOUS
 62
     7
 10
-201.09434197017251
 20
165.2260739545876
 30
0.0
  0
VERTEX
  5
D95
  8
DATA
  6
CONTINUOUS
 62
     7
 10
-201.09434197017251
 20
164.84132395458761
 30
0.0
  0
VERTEX
  5
D96
  8
DATA
  6
CONTINUOUS
 62
     7
 10
-199.74771697017241
 20
164.84132395458761
 30
0.0
  0
SEQEND
  5
D97
  8
DATA
  6
CONTINUOUS
 62
     7
  0
ARC
  5
61C
  8
DATA
  6
CONTINUOUS
 62
     7
 10
-209.15796308109711
 20
174.56901302853751
 30
0.0
 40
8.0000000000000853
 50
247.97568716295811
 51
292.02431283704198
  0
LINE
  5
61D
  8
DATA
  6
CONTINUOUS
 62
     7
 10
-212.15796308109711
 20
167.1528145414417
 30
0.0
 11
-212.15796308109711
 21
166.8837999540676
 31
0.0
  0
LINE
  5
61E
  8
DATA
  6
CONTINUOUS
 62
     7
 10
-206.15796308109711
 20
167.1528145414417
 30
0.0
 11
-206.15796308109711
 21
166.8837999540676
 31
0.0
  0
LINE
  5
61F
  8
DATA
  6
CONTINUOUS
 62
     7
 10
-204.93012603688319
 20
157.69999999996099
 30
0.0
 11
-213.57999990407029
 21
157.69999999996099
 31
0.0
  0
TEXT
  5
620
  8
DATA
 62
     7
 10
11.62031588533241
 20
169.59342537721369
 30
0.0
 40
2.30859375
  1
 REMOTE
 50
180.0
 41
0.7
 11
11.62031588533241
 21
167.28483162721369
 31
0.0
 73
     3
  0
TEXT
  5
621
  8
DATA
 62
     7
 10
11.62031588533241
 20
172.59342537721369
 30
0.0
 40
2.30859375
  1
POWER IN
 50
180.0
 41
0.7
 11
11.62031588533241
 21
170.28483162721369
 31
0.0
 73
     3
  0
TEXT
  5
622
  8
DATA
 62
     7
 10
50.886456236327781
 20
162.24398677984789
 30
0.0
 40
2.30859375
  1
MPX 1
 50
180.0
 41
0.7
 11
50.886456236327781
 21
159.93539302984789
 31
0.0
 73
     3
  0
LINE
  5
623
  8
DATA
  6
CONTINUOUS
 62
     7
 10
55.800000095929647
 20
163.07437274542201
 30
0.0
 11
39.90000009592967
 21
163.07437274542201
 31
0.0
  0
TEXT
  5
624
  8
DATA
 62
     7
 10
-7.117719347779853
 20
164.50019730701459
 30
0.0
 40
2.30859375
  1
REMOTE/IN
 50
180.0
 41
0.7
 11
-7.117719347779853
 21
162.19160355701459
 31
0.0
 73
     3
  0
TEXT
  5
625
  8
DATA
 62
     7
 10
-31.58487709745464
 20
161.20854818382941
 30
0.0
 40
2.30859375
  1
MIDI
 50
180.0
 41
0.7
 11
-31.58487709745464
 21
158.89995443382941
 31
0.0
 73
     3
  0
TEXT
  5
626
  8
DATA
 62
     7
 10
-31.58487709745464
 20
164.20854818382941
 30
0.0
 40
2.30859375
  1
THRU
 50
180.0
 41
0.7
 11
-31.58487709745464
 21
161.89995443382941
 31
0.0
 73
     3
  0
TEXT
  5
627
  8
DATA
 62
     7
 10
-53.679684114667559
 20
164.70019730701461
 30
0.0
 40
2.30859375
  1
OUT
 50
180.0
 41
0.7
 11
-53.679684114667559
 21
162.39160355701461
 31
0.0
 73
     3
  0
LINE
  5
628
  8
DATA
  6
CONTINUOUS
 62
     7
 10
-13.5155888824172
 20
160.03374116661641
 30
0.0
 11
-18.515588882417202
 21
160.03374116661641
 31
0.0
  0
LINE
  5
629
  8
DATA
  6
CONTINUOUS
 62
     7
 10
-56.115588882417171
 20
160.03374116661641
 30
0.0
 11
-51.115588882417171
 21
160.03374116661641
 31
0.0
  0
LINE
  5
62A
  8
DATA
  6
CONTINUOUS
 62
     7
 10
-13.5155888824172
 20
160.03374116661641
 30
0.0
 11
-13.5155888824172
 21
161.53374116661641
 31
0.0
  0
LINE
  5
62B
  8
DATA
  6
CONTINUOUS
 62
     7
 10
-56.115588882417171
 20
160.03374116661641
 30
0.0
 11
-56.115588882417171
 21
161.53374116661641
 31
0.0
  0
CIRCLE
  5
62C
  8
DATA
  6
CONTINUOUS
 62
     7
 10
-46.484093124662742
 20
158.7115882227229
 30
0.0
 40
2.0006999999999939
  0
POLYLINE
  5
62D
  8
DATA
  6
CONTINUOUS
 62
     7
 66
     1
 10
0.0
 20
0.0
 30
0.0
  0
VERTEX
  5
D98
  8
DATA
  6
CONTINUOUS
 62
     7
 10
-46.291718124662736
 20
158.5192132227229
 30
0.0
  0
VERTEX
  5
D99
  8
DATA
  6
CONTINUOUS
 62
     7
 10
-46.291718124662736
 20
157.17258822272291
 30
0.0
  0
VERTEX
  5
D9A
  8
DATA
  6
CONTINUOUS
 62
     7
 10
-46.676468124662719
 20
157.17258822272291
 30
0.0
  0
VERTEX
  5
D9B
  8
DATA
  6
CONTINUOUS
 62
     7
 10
-46.676468124662719
 20
158.5192132227229
 30
0.0
  0
SEQEND
  5
D9C
  8
DATA
  6
CONTINUOUS
 62
     7
  0
POLYLINE
  5
634
  8
DATA
  6
CONTINUOUS
 62
     7
 66
     1
 10
0.0
 20
0.0
 30
0.0
  0
VERTEX
  5
D9D
  8
DATA
  6
CONTINUOUS
 62
     7
 10
-46.291718124662736
 20
158.90396322272289
 30
0.0
  0
VERTEX
  5
D9E
  8
DATA
  6
CONTINUOUS
 62
     7
 10
-46.291718124662736
 20
160.25058822272291
 30
0.0
  0
VERTEX
  5
D9F
  8
DATA
  6
CONTINUOUS
 62
     7
 10
-46.676468124662719
 20
160.25058822272291
 30
0.0
  0
VERTEX
  5
DA0
  8
DATA
  6
CONTINUOUS
 62
     7
 10
-46.676468124662719
 20
158.90396322272289
 30
0.0
  0
SEQEND
  5
DA1
  8
DATA
  6
CONTINUOUS
 62
     7
  0
POLYLINE
  5
63B
  8
DATA
  6
CONTINUOUS
 62
     7
 66
     1
 10
0.0
 20
0.0
 30
0.0
  0
VERTEX
  5
DA2
  8
DATA
  6
CONTINUOUS
 62
     7
 10
-46.676468124662719
 20
158.5192132227229
 30
0.0
  0
VERTEX
  5
DA3
  8
DATA
  6
CONTINUOUS
 62
     7
 10
-48.023093124662751
 20
158.5192132227229
 30
0.0
  0
VERTEX
  5
DA4
  8
DATA
  6
CONTINUOUS
 62
     7
 10
-48.023093124662751
 20
158.90396322272289
 30
0.0
  0
VERTEX
  5
DA5
  8
DATA
  6
CONTINUOUS
 62
     7
 10
-46.676468124662719
 20
158.90396322272289
 30
0.0
  0
SEQEND
  5
DA6
  8
DATA
  6
CONTINUOUS
 62
     7
  0
POLYLINE
  5
642
  8
DATA
  6
CONTINUOUS
 62
     7
 66
     1
 10
0.0
 20
0.0
 30
0.0
  0
VERTEX
  5
DA7
  8
DATA
  6
CONTINUOUS
 62
     7
 10
-46.291718124662736
 20
158.5192132227229
 30
0.0
  0
VERTEX
  5
DA8
  8
DATA
  6
CONTINUOUS
 62
     7
 10
-44.945093124662712
 20
158.5192132227229
 30
0.0
  0
VERTEX
  5
DA9
  8
DATA
  6
CONTINUOUS
 62
     7
 10
-44.945093124662712
 20
158.90396322272289
 30
0.0
  0
VERTEX
  5
DAA
  8
DATA
  6
CONTINUOUS
 62
     7
 10
-46.291718124662736
 20
158.90396322272289
 30
0.0
  0
SEQEND
  5
DAB
  8
DATA
  6
CONTINUOUS
 62
     7
  0
LINE
  5
649
  8
DATA
  6
CONTINUOUS
 62
     7
 10
-67.999999904070364
 20
157.69999999996099
 30
0.0
 11
-49.499999904070371
 21
157.69999999996099
 31
0.0
  0
LINE
  5
64A
  8
DATA
  6
CONTINUOUS
 62
     7
 10
-43.499999904070371
 20
160.69999999996099
 30
0.0
 11
-43.499999904070371
 21
157.69999999996099
 31
0.0
  0
LINE
  5
64B
  8
DATA
  6
CONTINUOUS
 62
     7
 10
-49.499999904070371
 20
160.69999999996099
 30
0.0
 11
-49.499999904070371
 21
157.69999999996099
 31
0.0
  0
LINE
  5
64C
  8
DATA
  6
CONTINUOUS
 62
     7
 10
-48.499999904070371
 20
161.69999999996099
 30
0.0
 11
-44.499999904070371
 21
161.69999999996099
 31
0.0
  0
LINE
  5
64D
  8
DATA
  6
CONTINUOUS
 62
     7
 10
-44.499999904070371
 20
161.69999999996099
 30
0.0
 11
-43.499999904070371
 21
160.69999999996099
 31
0.0
  0
LINE
  5
64E
  8
DATA
  6
CONTINUOUS
 62
     7
 10
-48.499999904070371
 20
161.69999999996099
 30
0.0
 11
-49.499999904070371
 21
160.69999999996099
 31
0.0
  0
CIRCLE
  5
64F
  8
DATA
  6
CONTINUOUS
 62
     7
 10
-189.48409312466271
 20
158.7115882227229
 30
0.0
 40
2.0006999999999939
  0
POLYLINE
  5
650
  8
DATA
  6
CONTINUOUS
 62
     7
 66
     1
 10
0.0
 20
0.0
 30
0.0
  0
VERTEX
  5
DAC
  8
DATA
  6
CONTINUOUS
 62
     7
 10
-189.29171812466271
 20
158.5192132227229
 30
0.0
  0
VERTEX
  5
DAD
  8
DATA
  6
CONTINUOUS
 62
     7
 10
-189.29171812466271
 20
157.17258822272291
 30
0.0
  0
VERTEX
  5
DAE
  8
DATA
  6
CONTINUOUS
 62
     7
 10
-189.6764681246627
 20
157.17258822272291
 30
0.0
  0
VERTEX
  5
DAF
  8
DATA
  6
CONTINUOUS
 62
     7
 10
-189.6764681246627
 20
158.5192132227229
 30
0.0
  0
SEQEND
  5
DB0
  8
DATA
  6
CONTINUOUS
 62
     7
  0
POLYLINE
  5
657
  8
DATA
  6
CONTINUOUS
 62
     7
 66
     1
 10
0.0
 20
0.0
 30
0.0
  0
VERTEX
  5
DB1
  8
DATA
  6
CONTINUOUS
 62
     7
 10
-189.29171812466271
 20
158.90396322272289
 30
0.0
  0
VERTEX
  5
DB2
  8
DATA
  6
CONTINUOUS
 62
     7
 10
-189.29171812466271
 20
160.25058822272291
 30
0.0
  0
VERTEX
  5
DB3
  8
DATA
  6
CONTINUOUS
 62
     7
 10
-189.6764681246627
 20
160.25058822272291
 30
0.0
  0
VERTEX
  5
DB4
  8
DATA
  6
CONTINUOUS
 62
     7
 10
-189.6764681246627
 20
158.90396322272289
 30
0.0
  0
SEQEND
  5
DB5
  8
DATA
  6
CONTINUOUS
 62
     7
  0
POLYLINE
  5
65E
  8
DATA
  6
CONTINUOUS
 62
     7
 66
     1
 10
0.0
 20
0.0
 30
0.0
  0
VERTEX
  5
DB6
  8
DATA
  6
CONTINUOUS
 62
     7
 10
-189.6764681246627
 20
158.5192132227229
 30
0.0
  0
VERTEX
  5
DB7
  8
DATA
  6
CONTINUOUS
 62
     7
 10
-191.02309312466269
 20
158.5192132227229
 30
0.0
  0
VERTEX
  5
DB8
  8
DATA
  6
CONTINUOUS
 62
     7
 10
-191.02309312466269
 20
158.90396322272289
 30
0.0
  0
VERTEX
  5
DB9
  8
DATA
  6
CONTINUOUS
 62
     7
 10
-189.6764681246627
 20
158.90396322272289
 30
0.0
  0
SEQEND
  5
DBA
  8
DATA
  6
CONTINUOUS
 62
     7
  0
POLYLINE
  5
665
  8
DATA
  6
CONTINUOUS
 62
     7
 66
     1
 10
0.0
 20
0.0
 30
0.0
  0
VERTEX
  5
DBB
  8
DATA
  6
CONTINUOUS
 62
     7
 10
-189.29171812466271
 20
158.5192132227229
 30
0.0
  0
VERTEX
  5
DBC
  8
DATA
  6
CONTINUOUS
 62
     7
 10
-187.94509312466269
 20
158.5192132227229
 30
0.0
  0
VERTEX
  5
DBD
  8
DATA
  6
CONTINUOUS
 62
     7
 10
-187.94509312466269
 20
158.90396322272289
 30
0.0
  0
VERTEX
  5
DBE
  8
DATA
  6
CONTINUOUS
 62
     7
 10
-189.29171812466271
 20
158.90396322272289
 30
0.0
  0
SEQEND
  5
DBF
  8
DATA
  6
CONTINUOUS
 62
     7
  0
LINE
  5
66C
  8
DATA
  6
CONTINUOUS
 62
     7
 10
-186.49999990407039
 20
160.69999999996099
 30
0.0
 11
-186.49999990407039
 21
157.69999999996099
 31
0.0
  0
LINE
  5
66D
  8
DATA
  6
CONTINUOUS
 62
     7
 10
-192.49999990407039
 20
160.69999999996099
 30
0.0
 11
-192.49999990407039
 21
157.69999999996099
 31
0.0
  0
LINE
  5
66E
  8
DATA
  6
CONTINUOUS
 62
     7
 10
-191.49999990407039
 20
161.69999999996099
 30
0.0
 11
-187.49999990407039
 21
161.69999999996099
 31
0.0
  0
LINE
  5
66F
  8
DATA
  6
CONTINUOUS
 62
     7
 10
-187.49999990407039
 20
161.69999999996099
 30
0.0
 11
-186.49999990407039
 21
160.69999999996099
 31
0.0
  0
LINE
  5
670
  8
DATA
  6
CONTINUOUS
 62
     7
 10
-191.49999990407039
 20
161.69999999996099
 30
0.0
 11
-192.49999990407039
 21
160.69999999996099
 31
0.0
  0
TEXT
  5
671
  8
DATA
 62
     7
 10
-82.939618648484668
 20
161.71795336427769
 30
0.0
 40
2.30859375
  1
S/PDIF
 50
180.0
 41
0.7
 11
-82.939618648484668
 21
159.40935961427769
 31
0.0
 73
     3
  0
TEXT
  5
672
  8
DATA
 62
     7
 10
-82.939618648484668
 20
164.71795336427769
 30
0.0
 40
2.30859375
  1
  IN
 50
180.0
 41
0.7
 11
-82.939618648484668
 21
162.40935961427769
 31
0.0
 73
     3
  0
TEXT
  5
673
  8
DATA
 62
     7
 10
-84.871885527394653
 20
180.3751352565933
 30
0.0
 40
2.30859375
  1
OUT
 50
180.0
 41
0.7
 11
-84.871885527394653
 21
178.0665415065933
 31
0.0
 73
     3
  0
TEXT
  5
674
  8
DATA
 62
     7
 10
-100.2958474018361
 20
166.62721150771051
 30
0.0
 40
2.30859375
  1
FOOT
 50
180.0
 41
0.7
 11
-100.2958474018361
 21
164.31861775771051
 31
0.0
 73
     3
  0
TEXT
  5
675
  8
DATA
 62
     7
 10
-100.2958474018361
 20
169.62721150771051
 30
0.0
 40
2.30859375
  1
PEDAL
 50
180.0
 41
0.7
 11
-100.2958474018361
 21
167.31861775771051
 31
0.0
 73
     3
  0
TEXT
  5
676
  8
DATA
 62
     7
 10
-117.8531992673406
 20
166.62721150771051
 30
0.0
 40
2.30859375
  1
 FOOT
 50
180.0
 41
0.7
 11
-117.8531992673406
 21
164.31861775771051
 31
0.0
 73
     3
  0
TEXT
  5
677
  8
DATA
 62
     7
 10
-117.8531992673406
 20
169.62721150771051
 30
0.0
 40
2.30859375
  1
SWITCH
 50
180.0
 41
0.7
 11
-117.8531992673406
 21
167.31861775771051
 31
0.0
 73
     3
  0
TEXT
  5
678
  8
DATA
 62
     7
 10
-158.04739471216001
 20
170.45437274542201
 30
0.0
 40
2.30859375
  1
LEFT
 50
180.0
 41
0.7
 11
-158.04739471216001
 21
168.14577899542201
 31
0.0
 73
     3
  0
TEXT
  5
679
  8
DATA
 62
     7
 10
-189.25971214214491
 20
170.34157571222801
 30
0.0
 40
2.30859375
  1
RIGHT
 50
180.0
 41
0.7
 11
-189.25971214214491
 21
168.03298196222789
 31
0.0
 73
     3
  0
TEXT
  5
67A
  8
DATA
 62
     7
 10
-172.22180064577179
 20
165.23636532840709
 30
0.0
 40
2.30859375
  1
OUTPUTS
 50
180.0
 41
0.7
 11
-172.22180064577179
 21
162.92777157840709
 31
0.0
 73
     3
  0
TEXT
  5
67B
  8
DATA
 62
     7
 10
-249.19999990407041
 20
170.32167163286971
 30
0.0
 40
2.30859375
  1
LEFT
 50
180.0
 41
0.7
 11
-249.19999990407041
 21
168.01307788286971
 31
0.0
 73
     3
  0
TEXT
  5
67C
  8
DATA
 62
     7
 10
-278.84929137450331
 20
170.29987089116821
 30
0.0
 40
2.30859375
  1
RIGHT
 50
180.0
 41
0.7
 11
-278.84929137450331
 21
167.99127714116821
 31
0.0
 73
     3
  0
TEXT
  5
67D
  8
DATA
 62
     7
 10
-264.28720287087629
 20
164.67617348712341
 30
0.0
 40
2.30859375
  1
INPUTS
 50
180.0
 41
0.7
 11
-264.28720287087629
 21
162.36757973712341
 31
0.0
 73
     3
  0
TEXT
  5
67E
  8
DATA
 62
     7
 10
-317.8796194369466
 20
161.70787412754689
 30
0.0
 40
2.30859375
  1
INPUT
 50
180.0
 41
0.7
 11
-317.8796194369466
 21
159.399280377547
 31
0.0
 73
     3
  0
TEXT
  5
67F
  8
DATA
 62
     7
 10
-317.8796194369466
 20
164.70787412754689
 30
0.0
 40
2.30859375
  1
LEVEL
 50
180.0
 41
0.7
 11
-317.8796194369466
 21
162.399280377547
 31
0.0
 73
     3
  0
TEXT
  5
680
  8
DATA
 62
     7
 10
-315.79999998851031
 20
174.81892489422009
 30
0.0
 40
1.5390625
  1
BAL
 50
180.0
 41
0.7
 11
-315.79999998851031
 21
173.27986239422009
 31
0.0
 73
     3
  0
TEXT
  5
681
  8
DATA
 62
     7
 10
-323.05047981498927
 20
174.75905171659471
 30
0.0
 40
1.5390625
  1
UNBAL
 50
180.0
 41
0.7
 11
-323.05047981498927
 21
173.21998921659471
 31
0.0
 73
     3
  0
LINE
  5
682
  8
DATA
  6
CONTINUOUS
 62
     7
 10
-314.30016275905291
 20
172.8989248942201
 30
0.0
 11
-320.30016275905291
 21
172.8989248942201
 31
0.0
  0
LINE
  5
683
  8
DATA
  6
CONTINUOUS
 62
     7
 10
-315.30016275905291
 20
172.8989248942201
 30
0.0
 11
-315.30016275905291
 21
169.8989248942201
 31
0.0
  0
LINE
  5
684
  8
DATA
  6
CONTINUOUS
 62
     7
 10
-319.30016275905291
 20
172.8989248942201
 30
0.0
 11
-319.30016275905291
 21
169.8989248942201
 31
0.0
  0
LINE
  5
685
  8
DATA
  6
CONTINUOUS
 62
     7
 10
-315.30016275905291
 20
169.8989248942201
 30
0.0
 11
-319.30016275905291
 21
169.8989248942201
 31
0.0
  0
LINE
  5
686
  8
DATA
  6
CONTINUOUS
 62
     7
 10
-322.3720278006387
 20
172.8989248942201
 30
0.0
 11
-328.3720278006387
 21
172.8989248942201
 31
0.0
  0
LINE
  5
687
  8
DATA
  6
CONTINUOUS
 62
     7
 10
-323.3720278006387
 20
172.8989248942201
 30
0.0
 11
-323.3720278006387
 21
171.3989248942201
 31
0.0
  0
LINE
  5
688
  8
DATA
  6
CONTINUOUS
 62
     7
 10
-327.3720278006387
 20
172.8989248942201
 30
0.0
 11
-327.3720278006387
 21
171.3989248942201
 31
0.0
  0
LINE
  5
689
  8
DATA
  6
CONTINUOUS
 62
     7
 10
-323.3720278006387
 20
171.3989248942201
 30
0.0
 11
-327.3720278006387
 21
171.3989248942201
 31
0.0
  0
TEXT
  5
68A
  8
DATA
 62
     7
 10
-315.39999990407028
 20
169.51965774164131
 30
0.0
 40
1.5390625
  1
+4dB
 50
180.0
 41
0.7
 11
-315.39999990407028
 21
167.98059524164131
 31
0.0
 73
     3
  0
TEXT
  5
68B
  8
DATA
 62
     7
 10
-322.9487784917012
 20
169.56770348185131
 30
0.0
 40
1.5390625
  1
-10dB
 50
180.0
 41
0.7
 11
-322.9487784917012
 21
168.02864098185131
 31
0.0
 73
     3
  0
LINE
  5
68C
  8
DATA
  6
CONTINUOUS
 62
     7
 10
-286.05802721870373
 20
-37.500000000027669
 30
0.0
 11
-286.05802721870373
 21
-41.000000000027669
 31
0.0
  0
LINE
  5
68D
  8
DATA
  6
CONTINUOUS
 62
     7
 10
-283.39898733858382
 20
-33.500000000027669
 30
0.0
 11
-283.39898733858382
 21
-37.500000000027669
 31
0.0
  0
LINE
  5
68E
  8
DATA
  6
CONTINUOUS
 62
     7
 10
-272.7989873385838
 20
-33.500000000027669
 30
0.0
 11
-272.7989873385838
 21
-37.500000000027669
 31
0.0
  0
LINE
  5
68F
  8
DATA
  6
CONTINUOUS
 62
     7
 10
-270.13994745846389
 20
-37.500000000027669
 30
0.0
 11
-270.13994745846389
 21
-41.000000000027669
 31
0.0
  0
LINE
  5
690
  8
DATA
  6
CONTINUOUS
 62
     7
 10
-267.05802721870373
 20
-37.500000000027669
 30
0.0
 11
-267.05802721870373
 21
-41.000000000027669
 31
0.0
  0
LINE
  5
691
  8
DATA
  6
CONTINUOUS
 62
     7
 10
-264.39898733858388
 20
-33.500000000027669
 30
0.0
 11
-264.39898733858388
 21
-37.500000000027669
 31
0.0
  0
LINE
  5
692
  8
DATA
  6
CONTINUOUS
 62
     7
 10
-253.7989873385838
 20
-33.500000000027669
 30
0.0
 11
-253.7989873385838
 21
-37.500000000027669
 31
0.0
  0
LINE
  5
693
  8
DATA
  6
CONTINUOUS
 62
     7
 10
-251.13994745846401
 20
-37.500000000027669
 30
0.0
 11
-251.13994745846401
 21
-41.000000000027669
 31
0.0
  0
LINE
  5
694
  8
DATA
  6
CONTINUOUS
 62
     7
 10
-195.0205948461039
 20
-37.500000000027669
 30
0.0
 11
-195.0205948461039
 21
-41.000000000027669
 31
0.0
  0
LINE
  5
695
  8
DATA
  6
CONTINUOUS
 62
     7
 10
-192.361554965984
 20
-33.500000000027669
 30
0.0
 11
-192.361554965984
 21
-37.500000000027669
 31
0.0
  0
LINE
  5
696
  8
DATA
  6
CONTINUOUS
 62
     7
 10
-181.76155496598369
 20
-33.500000000027669
 30
0.0
 11
-181.76155496598369
 21
-37.500000000027669
 31
0.0
  0
LINE
  5
697
  8
DATA
  6
CONTINUOUS
 62
     7
 10
-179.1025150858639
 20
-37.500000000027669
 30
0.0
 11
-179.1025150858639
 21
-41.000000000027669
 31
0.0
  0
LINE
  5
698
  8
DATA
  6
CONTINUOUS
 62
     7
 10
-176.02059484610371
 20
-37.500000000027669
 30
0.0
 11
-176.02059484610371
 21
-41.000000000027669
 31
0.0
  0
LINE
  5
699
  8
DATA
  6
CONTINUOUS
 62
     7
 10
-173.3615549659838
 20
-33.500000000027669
 30
0.0
 11
-173.3615549659838
 21
-37.500000000027669
 31
0.0
  0
LINE
  5
69A
  8
DATA
  6
CONTINUOUS
 62
     7
 10
-162.761554965984
 20
-33.500000000027669
 30
0.0
 11
-162.761554965984
 21
-37.500000000027669
 31
0.0
  0
LINE
  5
69B
  8
DATA
  6
CONTINUOUS
 62
     7
 10
-160.1025150858643
 20
-37.500000000027669
 30
0.0
 11
-160.1025150858643
 21
-41.000000000027669
 31
0.0
  0
LINE
  5
69C
  8
DATA
  6
CONTINUOUS
 62
     7
 10
-130.26992827415251
 20
-37.500000000027669
 30
0.0
 11
-130.26992827415251
 21
-41.000000000027669
 31
0.0
  0
LINE
  5
69D
  8
DATA
  6
CONTINUOUS
 62
     7
 10
-127.6108883940328
 20
-33.500000000027669
 30
0.0
 11
-127.6108883940328
 21
-37.500000000027669
 31
0.0
  0
LINE
  5
69E
  8
DATA
  6
CONTINUOUS
 62
     7
 10
-117.0108883940334
 20
-33.500000000027669
 30
0.0
 11
-117.0108883940334
 21
-37.500000000027669
 31
0.0
  0
LINE
  5
69F
  8
DATA
  6
CONTINUOUS
 62
     7
 10
-114.35184851391379
 20
-37.500000000027669
 30
0.0
 11
-114.35184851391379
 21
-41.000000000027669
 31
0.0
  0
LINE
  5
6A0
  8
DATA
  6
CONTINUOUS
 62
     7
 10
-111.2699282741537
 20
-37.500000000027669
 30
0.0
 11
-111.2699282741537
 21
-41.000000000027669
 31
0.0
  0
LINE
  5
6A1
  8
DATA
  6
CONTINUOUS
 62
     7
 10
-108.61088839403411
 20
-33.500000000027669
 30
0.0
 11
-108.61088839403411
 21
-37.500000000027669
 31
0.0
  0
LINE
  5
6A2
  8
DATA
  6
CONTINUOUS
 62
     7
 10
-98.010888394034637
 20
-33.500000000027669
 30
0.0
 11
-98.010888394034637
 21
-37.500000000027669
 31
0.0
  0
LINE
  5
6A3
  8
DATA
  6
CONTINUOUS
 62
     7
 10
-95.351848513914732
 20
-37.500000000027669
 30
0.0
 11
-95.351848513914732
 21
-41.000000000027669
 31
0.0
  0
LINE
  5
6A4
  8
DATA
  6
CONTINUOUS
 62
     7
 10
-283.39898733858382
 20
-33.500000000027669
 30
0.0
 11
-272.7989873385838
 21
-33.500000000027669
 31
0.0
  0
LINE
  5
6A5
  8
DATA
  6
CONTINUOUS
 62
     7
 10
-264.39898733858388
 20
-33.500000000027669
 30
0.0
 11
-253.7989873385838
 21
-33.500000000027669
 31
0.0
  0
LINE
  5
6A6
  8
DATA
  6
CONTINUOUS
 62
     7
 10
-192.361554965984
 20
-33.500000000027669
 30
0.0
 11
-181.76155496598369
 21
-33.500000000027669
 31
0.0
  0
LINE
  5
6A7
  8
DATA
  6
CONTINUOUS
 62
     7
 10
-173.3615549659838
 20
-33.500000000027669
 30
0.0
 11
-162.761554965984
 21
-33.500000000027669
 31
0.0
  0
LINE
  5
6A8
  8
DATA
  6
CONTINUOUS
 62
     7
 10
-127.6108883940328
 20
-33.500000000027669
 30
0.0
 11
-117.0108883940334
 21
-33.500000000027669
 31
0.0
  0
LINE
  5
6A9
  8
DATA
  6
CONTINUOUS
 62
     7
 10
-108.61088839403411
 20
-33.500000000027669
 30
0.0
 11
-98.010888394034637
 21
-33.500000000027669
 31
0.0
  0
LINE
  5
6AA
  8
DATA
  6
CONTINUOUS
 62
     7
 10
-286.05802721870373
 20
-37.500000000027669
 30
0.0
 11
-270.13994745846389
 21
-37.500000000027669
 31
0.0
  0
LINE
  5
6AB
  8
DATA
  6
CONTINUOUS
 62
     7
 10
-267.05802721870373
 20
-37.500000000027669
 30
0.0
 11
-251.13994745846401
 21
-37.500000000027669
 31
0.0
  0
LINE
  5
6AC
  8
DATA
  6
CONTINUOUS
 62
     7
 10
-195.0205948461039
 20
-37.500000000027669
 30
0.0
 11
-179.1025150858639
 21
-37.500000000027669
 31
0.0
  0
LINE
  5
6AD
  8
DATA
  6
CONTINUOUS
 62
     7
 10
-176.02059484610371
 20
-37.500000000027669
 30
0.0
 11
-160.1025150858643
 21
-37.500000000027669
 31
0.0
  0
LINE
  5
6AE
  8
DATA
  6
CONTINUOUS
 62
     7
 10
-130.26992827415251
 20
-37.500000000027669
 30
0.0
 11
-114.35184851391379
 21
-37.500000000027669
 31
0.0
  0
LINE
  5
6AF
  8
DATA
  6
CONTINUOUS
 62
     7
 10
-111.2699282741537
 20
-37.500000000027669
 30
0.0
 11
-95.351848513914732
 21
-37.500000000027669
 31
0.0
  0
LINE
  5
6B0
  8
DATA
  6
CONTINUOUS
 62
     7
 10
-277.05325984857842
 20
-37.500000000027669
 30
0.0
 11
-277.05325984857842
 21
-41.000000000027683
 31
0.0
  0
LINE
  5
6B1
  8
DATA
  6
CONTINUOUS
 62
     7
 10
-266.01229972869828
 20
-37.500000000027669
 30
0.0
 11
-266.01229972869828
 21
-41.000000000027669
 31
0.0
  0
LINE
  5
6B2
  8
DATA
  6
CONTINUOUS
 62
     7
 10
-258.05325984857848
 20
-37.500000000027669
 30
0.0
 11
-258.05325984857848
 21
-41.000000000027683
 31
0.0
  0
LINE
  5
6B3
  8
DATA
  6
CONTINUOUS
 62
     7
 10
-193.9748673560984
 20
-37.500000000027669
 30
0.0
 11
-193.9748673560984
 21
-41.000000000027683
 31
0.0
  0
LINE
  5
6B4
  8
DATA
  6
CONTINUOUS
 62
     7
 10
-186.01582747597851
 20
-37.500000000027669
 30
0.0
 11
-186.01582747597851
 21
-41.000000000027683
 31
0.0
  0
LINE
  5
6B5
  8
DATA
  6
CONTINUOUS
 62
     7
 10
-174.9748673560982
 20
-37.500000000027669
 30
0.0
 11
-174.9748673560982
 21
-41.000000000027683
 31
0.0
  0
LINE
  5
6B6
  8
DATA
  6
CONTINUOUS
 62
     7
 10
-167.0158274759786
 20
-37.500000000027669
 30
0.0
 11
-167.0158274759786
 21
-41.00000000002764
 31
0.0
  0
LINE
  5
6B7
  8
DATA
  6
CONTINUOUS
 62
     7
 10
-129.22420078414709
 20
-37.500000000027669
 30
0.0
 11
-129.22420078414709
 21
-41.00000000002764
 31
0.0
  0
LINE
  5
6B8
  8
DATA
  6
CONTINUOUS
 62
     7
 10
-121.26516090402779
 20
-37.500000000027669
 30
0.0
 11
-121.26516090402779
 21
-41.000000000027683
 31
0.0
  0
LINE
  5
6B9
  8
DATA
  6
CONTINUOUS
 62
     7
 10
-110.22420078414839
 20
-37.500000000027669
 30
0.0
 11
-110.22420078414839
 21
-41.00000000002764
 31
0.0
  0
LINE
  5
6BA
  8
DATA
  6
CONTINUOUS
 62
     7
 10
-102.265160904029
 20
-37.500000000027669
 30
0.0
 11
-102.265160904029
 21
-41.00000000002764
 31
0.0
  0
LINE
  5
6BB
  8
DATA
  6
CONTINUOUS
 62
     7
 10
-285.01229972869822
 20
-41.000000000027669
 30
0.0
 11
-285.01229972869822
 21
-37.500000000027669
 31
0.0
  0
LINE
  5
6BC
  8
DATA
  6
CONTINUOUS
 62
     7
 10
-81.793997879657098
 20
-36.000000000027669
 30
0.0
 11
-81.793997879657098
 21
-41.00000000002764
 31
0.0
  0
LINE
  5
6BD
  8
DATA
  6
CONTINUOUS
 62
     7
 10
-73.493997879656575
 20
-36.000000000027669
 30
0.0
 11
-73.493997879656575
 21
-41.00000000002764
 31
0.0
  0
LINE
  5
6BE
  8
DATA
  6
CONTINUOUS
 62
     7
 10
-323.99095320300222
 20
-38.000000000027669
 30
0.0
 11
-323.99095320300222
 21
-41.000000000027683
 31
0.0
  0
LINE
  5
6BF
  8
DATA
  6
CONTINUOUS
 62
     7
 10
-319.24348720747821
 20
-38.000000000027669
 30
0.0
 11
-319.24348720747821
 21
-41.00000000002764
 31
0.0
  0
LINE
  5
6C0
  8
DATA
  6
CONTINUOUS
 62
     7
 10
-304.03531107520843
 20
-37.000000000027669
 30
0.0
 11
-304.03531107520843
 21
-38.000000000027669
 31
0.0
  0
LINE
  5
6C1
  8
DATA
  6
CONTINUOUS
 62
     7
 10
-294.04020253339269
 20
-37.000000000027669
 30
0.0
 11
-294.04020253339269
 21
-38.000000000027669
 31
0.0
  0
LINE
  5
6C2
  8
DATA
  6
CONTINUOUS
 62
     7
 10
-323.99095320300222
 20
-38.000000000027669
 30
0.0
 11
-319.24348720747821
 21
-38.000000000027669
 31
0.0
  0
LINE
  5
6C3
  8
DATA
  6
CONTINUOUS
 62
     7
 10
-304.03531107520843
 20
-37.000000000027669
 30
0.0
 11
-294.04020253339269
 21
-37.000000000027669
 31
0.0
  0
LINE
  5
6C4
  8
DATA
  6
CONTINUOUS
 62
     7
 10
-301.5377568043005
 20
-41.000000000027669
 30
0.0
 11
-301.5377568043005
 21
-38.000000000027669
 31
0.0
  0
LINE
  5
6C5
  8
DATA
  6
CONTINUOUS
 62
     7
 10
-296.53775680430061
 20
-41.000000000027669
 30
0.0
 11
-296.53775680430061
 21
-38.000000000027669
 31
0.0
  0
LINE
  5
6C6
  8
DATA
  6
CONTINUOUS
 62
     7
 10
-304.03531107520843
 20
-38.000000000027669
 30
0.0
 11
-294.04020253339269
 21
-38.000000000027669
 31
0.0
  0
LINE
  5
6C7
  8
DATA
  6
CONTINUOUS
 62
     7
 10
-241.88531107520839
 20
-37.000000000027669
 30
0.0
 11
-241.88531107520839
 21
-38.000000000027669
 31
0.0
  0
LINE
  5
6C8
  8
DATA
  6
CONTINUOUS
 62
     7
 10
-231.89020253339271
 20
-37.000000000027669
 30
0.0
 11
-231.89020253339271
 21
-38.000000000027669
 31
0.0
  0
LINE
  5
6C9
  8
DATA
  6
CONTINUOUS
 62
     7
 10
-241.88531107520839
 20
-37.000000000027669
 30
0.0
 11
-231.89020253339271
 21
-37.000000000027669
 31
0.0
  0
LINE
  5
6CA
  8
DATA
  6
CONTINUOUS
 62
     7
 10
-239.38775680430061
 20
-41.000000000027669
 30
0.0
 11
-239.38775680430061
 21
-38.000000000027669
 31
0.0
  0
LINE
  5
6CB
  8
DATA
  6
CONTINUOUS
 62
     7
 10
-234.38775680430049
 20
-41.000000000027669
 30
0.0
 11
-234.38775680430049
 21
-38.000000000027669
 31
0.0
  0
LINE
  5
6CC
  8
DATA
  6
CONTINUOUS
 62
     7
 10
-241.88531107520839
 20
-38.000000000027669
 30
0.0
 11
-231.89020253339271
 21
-38.000000000027669
 31
0.0
  0
LINE
  5
6CD
  8
DATA
  6
CONTINUOUS
 62
     7
 10
-81.793997879657098
 20
-36.000000000027669
 30
0.0
 11
-73.493997879656575
 21
-36.000000000027669
 31
0.0
  0
LINE
  5
6CE
  8
DATA
  6
CONTINUOUS
 62
     7
 10
-191.4847931246627
 20
-38.400000000027667
 30
0.0
 11
-187.48339312466271
 21
-38.400000000027667
 31
0.0
  0
LINE
  5
6CF
  8
DATA
  6
CONTINUOUS
 62
     7
 10
-191.4847931246627
 20
-38.400000000027667
 30
0.0
 11
-191.4847931246627
 21
-41.000000000027669
 31
0.0
  0
LINE
  5
6D0
  8
DATA
  6
CONTINUOUS
 62
     7
 10
-187.48339312466271
 20
-38.400000000027667
 30
0.0
 11
-187.48339312466271
 21
-41.000000000027669
 31
0.0
  0
LINE
  5
6D1
  8
DATA
  6
CONTINUOUS
 62
     7
 10
-48.484793124662723
 20
-38.400000000027667
 30
0.0
 11
-44.945093124662712
 21
-38.400000000027667
 31
0.0
  0
LINE
  5
6D2
  8
DATA
  6
CONTINUOUS
 62
     7
 10
-48.484793124662723
 20
-38.400000000027667
 30
0.0
 11
-48.484793124662723
 21
-41.000000000027669
 31
0.0
  0
LINE
  5
6D3
  8
DATA
  6
CONTINUOUS
 62
     7
 10
-44.945093124662712
 20
-38.400000000027667
 30
0.0
 11
-44.945093124662712
 21
-41.000000000027669
 31
0.0
  0
LINE
  5
6D4
  8
DATA
  6
CONTINUOUS
 62
     7
 10
59.513987471543359
 20
-39.000000000027669
 30
0.0
 11
89.513987471543373
 21
-39.000000000027669
 31
0.0
  0
LINE
  5
6D5
  8
DATA
  6
CONTINUOUS
 62
     7
 10
59.513987471543359
 20
-39.000000000027669
 30
0.0
 11
59.513987471543359
 21
-41.000000000027669
 31
0.0
  0
LINE
  5
6D6
  8
DATA
  6
CONTINUOUS
 62
     7
 10
89.513987471543373
 20
-39.000000000027669
 30
0.0
 11
89.513987471543373
 21
-41.000000000027669
 31
0.0
  0
LINE
  5
6D7
  8
DATA
  6
CONTINUOUS
 62
     7
 10
193.0
 20
-385.0
 30
0.0
 11
419.0
 21
-385.0
 31
0.0
  0
LINE
  5
6D8
  8
DATA
  6
CONTINUOUS
 62
     7
 10
191.5
 20
-430.0
 30
0.0
 11
419.0
 21
-430.0
 31
0.0
  0
LINE
  5
6D9
  8
DATA
  6
CONTINUOUS
 62
     7
 10
191.90000000000001
 20
-430.0
 30
0.0
 11
191.90000000000001
 21
-385.0
 31
0.0
  0
LINE
  5
6DA
  8
DATA
  6
CONTINUOUS
 62
     7
 10
193.80000000000001
 20
-430.0
 30
0.0
 11
193.80000000000001
 21
-385.0
 31
0.0
  0
LINE
  5
6DB
  8
DATA
  6
CONTINUOUS
 62
     7
 10
217.4791731427286
 20
-385.0
 30
0.0
 11
217.4791731427286
 21
-430.0
 31
0.0
  0
CIRCLE
  5
6DC
  8
DATA
  6
CONTINUOUS
 62
     7
 10
205.5796636086252
 20
-393.35765759307878
 30
0.0
 40
3.0010499999999909
  0
POLYLINE
  5
6DD
  8
DATA
  6
CONTINUOUS
 62
     7
 66
     1
 10
0.0
 20
0.0
 30
0.0
  0
VERTEX
  5
DC0
  8
DATA
  6
CONTINUOUS
 62
     7
 10
205.86822610862509
 20
-393.64622009307891
 30
0.0
  0
VERTEX
  5
DC1
  8
DATA
  6
CONTINUOUS
 62
     7
 10
205.86822610862509
 20
-395.66615759307888
 30
0.0
  0
VERTEX
  5
DC2
  8
DATA
  6
CONTINUOUS
 62
     7
 10
205.2911011086251
 20
-395.66615759307888
 30
0.0
  0
VERTEX
  5
DC3
  8
DATA
  6
CONTINUOUS
 62
     7
 10
205.2911011086251
 20
-393.64622009307891
 30
0.0
  0
SEQEND
  5
DC4
  8
DATA
  6
CONTINUOUS
 62
     7
  0
POLYLINE
  5
6E4
  8
DATA
  6
CONTINUOUS
 62
     7
 66
     1
 10
0.0
 20
0.0
 30
0.0
  0
VERTEX
  5
DC5
  8
DATA
  6
CONTINUOUS
 62
     7
 10
205.86822610862509
 20
-393.06909509307877
 30
0.0
  0
VERTEX
  5
DC6
  8
DATA
  6
CONTINUOUS
 62
     7
 10
205.86822610862509
 20
-391.04915759307892
 30
0.0
  0
VERTEX
  5
DC7
  8
DATA
  6
CONTINUOUS
 62
     7
 10
205.2911011086251
 20
-391.04915759307892
 30
0.0
  0
VERTEX
  5
DC8
  8
DATA
  6
CONTINUOUS
 62
     7
 10
205.2911011086251
 20
-393.06909509307877
 30
0.0
  0
SEQEND
  5
DC9
  8
DATA
  6
CONTINUOUS
 62
     7
  0
POLYLINE
  5
6EB
  8
DATA
  6
CONTINUOUS
 62
     7
 66
     1
 10
0.0
 20
0.0
 30
0.0
  0
VERTEX
  5
DCA
  8
DATA
  6
CONTINUOUS
 62
     7
 10
205.2911011086251
 20
-393.64622009307891
 30
0.0
  0
VERTEX
  5
DCB
  8
DATA
  6
CONTINUOUS
 62
     7
 10
203.2711636086251
 20
-393.64622009307891
 30
0.0
  0
VERTEX
  5
DCC
  8
DATA
  6
CONTINUOUS
 62
     7
 10
203.2711636086251
 20
-393.06909509307877
 30
0.0
  0
VERTEX
  5
DCD
  8
DATA
  6
CONTINUOUS
 62
     7
 10
205.2911011086251
 20
-393.06909509307877
 30
0.0
  0
SEQEND
  5
DCE
  8
DATA
  6
CONTINUOUS
 62
     7
  0
POLYLINE
  5
6F2
  8
DATA
  6
CONTINUOUS
 62
     7
 66
     1
 10
0.0
 20
0.0
 30
0.0
  0
VERTEX
  5
DCF
  8
DATA
  6
CONTINUOUS
 62
     7
 10
205.86822610862509
 20
-393.64622009307891
 30
0.0
  0
VERTEX
  5
DD0
  8
DATA
  6
CONTINUOUS
 62
     7
 10
207.88816360862521
 20
-393.64622009307891
 30
0.0
  0
VERTEX
  5
DD1
  8
DATA
  6
CONTINUOUS
 62
     7
 10
207.88816360862521
 20
-393.06909509307877
 30
0.0
  0
VERTEX
  5
DD2
  8
DATA
  6
CONTINUOUS
 62
     7
 10
205.86822610862509
 20
-393.06909509307877
 30
0.0
  0
SEQEND
  5
DD3
  8
DATA
  6
CONTINUOUS
 62
     7
  0
CIRCLE
  5
6F9
  8
DATA
  6
CONTINUOUS
 62
     7
 10
205.5796636086252
 20
-421.79526219893722
 30
0.0
 40
3.0010499999999909
  0
POLYLINE
  5
6FA
  8
DATA
  6
CONTINUOUS
 62
     7
 66
     1
 10
0.0
 20
0.0
 30
0.0
  0
VERTEX
  5
DD4
  8
DATA
  6
CONTINUOUS
 62
     7
 10
205.86822610862509
 20
-422.08382469893718
 30
0.0
  0
VERTEX
  5
DD5
  8
DATA
  6
CONTINUOUS
 62
     7
 10
205.86822610862509
 20
-424.1037621989372
 30
0.0
  0
VERTEX
  5
DD6
  8
DATA
  6
CONTINUOUS
 62
     7
 10
205.2911011086251
 20
-424.1037621989372
 30
0.0
  0
VERTEX
  5
DD7
  8
DATA
  6
CONTINUOUS
 62
     7
 10
205.2911011086251
 20
-422.08382469893718
 30
0.0
  0
SEQEND
  5
DD8
  8
DATA
  6
CONTINUOUS
 62
     7
  0
POLYLINE
  5
701
  8
DATA
  6
CONTINUOUS
 62
     7
 66
     1
 10
0.0
 20
0.0
 30
0.0
  0
VERTEX
  5
DD9
  8
DATA
  6
CONTINUOUS
 62
     7
 10
205.86822610862509
 20
-421.50669969893721
 30
0.0
  0
VERTEX
  5
DDA
  8
DATA
  6
CONTINUOUS
 62
     7
 10
205.86822610862509
 20
-419.48676219893702
 30
0.0
  0
VERTEX
  5
DDB
  8
DATA
  6
CONTINUOUS
 62
     7
 10
205.2911011086251
 20
-419.48676219893702
 30
0.0
  0
VERTEX
  5
DDC
  8
DATA
  6
CONTINUOUS
 62
     7
 10
205.2911011086251
 20
-421.50669969893721
 30
0.0
  0
SEQEND
  5
DDD
  8
DATA
  6
CONTINUOUS
 62
     7
  0
POLYLINE
  5
708
  8
DATA
  6
CONTINUOUS
 62
     7
 66
     1
 10
0.0
 20
0.0
 30
0.0
  0
VERTEX
  5
DDE
  8
DATA
  6
CONTINUOUS
 62
     7
 10
205.2911011086251
 20
-422.08382469893718
 30
0.0
  0
VERTEX
  5
DDF
  8
DATA
  6
CONTINUOUS
 62
     7
 10
203.2711636086251
 20
-422.08382469893718
 30
0.0
  0
VERTEX
  5
DE0
  8
DATA
  6
CONTINUOUS
 62
     7
 10
203.2711636086251
 20
-421.50669969893721
 30
0.0
  0
VERTEX
  5
DE1
  8
DATA
  6
CONTINUOUS
 62
     7
 10
205.2911011086251
 20
-421.50669969893721
 30
0.0
  0
SEQEND
  5
DE2
  8
DATA
  6
CONTINUOUS
 62
     7
  0
POLYLINE
  5
70F
  8
DATA
  6
CONTINUOUS
 62
     7
 66
     1
 10
0.0
 20
0.0
 30
0.0
  0
VERTEX
  5
DE3
  8
DATA
  6
CONTINUOUS
 62
     7
 10
205.86822610862509
 20
-422.08382469893718
 30
0.0
  0
VERTEX
  5
DE4
  8
DATA
  6
CONTINUOUS
 62
     7
 10
207.88816360862521
 20
-422.08382469893718
 30
0.0
  0
VERTEX
  5
DE5
  8
DATA
  6
CONTINUOUS
 62
     7
 10
207.88816360862521
 20
-421.50669969893721
 30
0.0
  0
VERTEX
  5
DE6
  8
DATA
  6
CONTINUOUS
 62
     7
 10
205.86822610862509
 20
-421.50669969893721
 30
0.0
  0
SEQEND
  5
DE7
  8
DATA
  6
CONTINUOUS
 62
     7
  0
LINE
  5
716
  8
DATA
  6
CONTINUOUS
 62
     7
 10
419.0
 20
-430.0
 30
0.0
 11
419.0
 21
-385.0
 31
0.0
  0
LINE
  5
717
  8
DATA
  6
CONTINUOUS
 62
     7
 10
177.0
 20
-398.25
 30
0.0
 11
188.0022777855072
 21
-398.25
 31
0.0
  0
LINE
  5
718
  8
DATA
  6
CONTINUOUS
 62
     7
 10
177.0
 20
-418.75
 30
0.0
 11
188.0
 21
-418.75
 31
0.0
  0
LINE
  5
719
  8
DATA
  6
CONTINUOUS
 62
     7
 10
177.0
 20
-418.75
 30
0.0
 11
177.0
 21
-398.25
 31
0.0
  0
LINE
  5
71A
  8
DATA
  6
CONTINUOUS
 62
     7
 10
188.0
 20
-392.5
 30
0.0
 11
190.0
 21
-392.5
 31
0.0
  0
LINE
  5
71B
  8
DATA
  6
CONTINUOUS
 62
     7
 10
188.0
 20
-421.47484168179989
 30
0.0
 11
188.0
 21
-392.5
 31
0.0
  0
LINE
  5
71C
  8
DATA
  6
CONTINUOUS
 62
     7
 10
188.0
 20
-421.47484168179989
 30
0.0
 11
190.0
 21
-421.47484168179989
 31
0.0
  0
CIRCLE
  5
71D
  8
DATA
  6
CONTINUOUS
 62
     7
 10
392.82844221205289
 20
-423.94749635069962
 30
0.0
 40
3.0010500000000202
  0
POLYLINE
  5
71E
  8
DATA
  6
CONTINUOUS
 62
     7
 66
     1
 10
0.0
 20
0.0
 30
0.0
  0
VERTEX
  5
DE8
  8
DATA
  6
CONTINUOUS
 62
     7
 10
393.1170047120529
 20
-424.23605885069958
 30
0.0
  0
VERTEX
  5
DE9
  8
DATA
  6
CONTINUOUS
 62
     7
 10
393.1170047120529
 20
-426.25599635069972
 30
0.0
  0
VERTEX
  5
DEA
  8
DATA
  6
CONTINUOUS
 62
     7
 10
392.53987971205288
 20
-426.25599635069972
 30
0.0
  0
VERTEX
  5
DEB
  8
DATA
  6
CONTINUOUS
 62
     7
 10
392.53987971205288
 20
-424.23605885069958
 30
0.0
  0
SEQEND
  5
DEC
  8
DATA
  6
CONTINUOUS
 62
     7
  0
POLYLINE
  5
725
  8
DATA
  6
CONTINUOUS
 62
     7
 66
     1
 10
0.0
 20
0.0
 30
0.0
  0
VERTEX
  5
DED
  8
DATA
  6
CONTINUOUS
 62
     7
 10
393.1170047120529
 20
-423.65893385069961
 30
0.0
  0
VERTEX
  5
DEE
  8
DATA
  6
CONTINUOUS
 62
     7
 10
393.1170047120529
 20
-421.63899635069941
 30
0.0
  0
VERTEX
  5
DEF
  8
DATA
  6
CONTINUOUS
 62
     7
 10
392.53987971205288
 20
-421.63899635069941
 30
0.0
  0
VERTEX
  5
DF0
  8
DATA
  6
CONTINUOUS
 62
     7
 10
392.53987971205288
 20
-423.65893385069961
 30
0.0
  0
SEQEND
  5
DF1
  8
DATA
  6
CONTINUOUS
 62
     7
  0
POLYLINE
  5
72C
  8
DATA
  6
CONTINUOUS
 62
     7
 66
     1
 10
0.0
 20
0.0
 30
0.0
  0
VERTEX
  5
DF2
  8
DATA
  6
CONTINUOUS
 62
     7
 10
392.53987971205288
 20
-424.23605885069958
 30
0.0
  0
VERTEX
  5
DF3
  8
DATA
  6
CONTINUOUS
 62
     7
 10
390.51994221205291
 20
-424.23605885069958
 30
0.0
  0
VERTEX
  5
DF4
  8
DATA
  6
CONTINUOUS
 62
     7
 10
390.51994221205291
 20
-423.65893385069961
 30
0.0
  0
VERTEX
  5
DF5
  8
DATA
  6
CONTINUOUS
 62
     7
 10
392.53987971205288
 20
-423.65893385069961
 30
0.0
  0
SEQEND
  5
DF6
  8
DATA
  6
CONTINUOUS
 62
     7
  0
POLYLINE
  5
733
  8
DATA
  6
CONTINUOUS
 62
     7
 66
     1
 10
0.0
 20
0.0
 30
0.0
  0
VERTEX
  5
DF7
  8
DATA
  6
CONTINUOUS
 62
     7
 10
393.1170047120529
 20
-424.23605885069958
 30
0.0
  0
VERTEX
  5
DF8
  8
DATA
  6
CONTINUOUS
 62
     7
 10
395.13694221205287
 20
-424.23605885069958
 30
0.0
  0
VERTEX
  5
DF9
  8
DATA
  6
CONTINUOUS
 62
     7
 10
395.13694221205287
 20
-423.65893385069961
 30
0.0
  0
VERTEX
  5
DFA
  8
DATA
  6
CONTINUOUS
 62
     7
 10
393.1170047120529
 20
-423.65893385069961
 30
0.0
  0
SEQEND
  5
DFB
  8
DATA
  6
CONTINUOUS
 62
     7
  0
LINE
  5
73A
  8
DATA
  6
CONTINUOUS
 62
     7
 10
421.0
 20
-421.0
 30
0.0
 11
421.0
 21
-398.0
 31
0.0
  0
LINE
  5
73B
  8
DATA
  6
CONTINUOUS
 62
     7
 10
419.0
 20
-398.0
 30
0.0
 11
421.0
 21
-398.0
 31
0.0
  0
LINE
  5
73C
  8
DATA
  6
CONTINUOUS
 62
     7
 10
419.0
 20
-421.0
 30
0.0
 11
421.0
 21
-421.0
 31
0.0
  0
LINE
  5
73D
  8
DATA
  6
CONTINUOUS
 62
     7
 10
424.0
 20
-420.35000000000002
 30
0.0
 11
424.0
 21
-412.0499999999999
 31
0.0
  0
LINE
  5
73E
  8
DATA
  6
CONTINUOUS
 62
     7
 10
424.0
 20
-406.0
 30
0.0
 11
424.0
 21
-397.7000000000001
 31
0.0
  0
LINE
  5
73F
  8
DATA
  6
CONTINUOUS
 62
     7
 10
424.0
 20
-397.7000000000001
 30
0.0
 11
419.0
 21
-397.7000000000001
 31
0.0
  0
LINE
  5
740
  8
DATA
  6
CONTINUOUS
 62
     7
 10
424.0
 20
-406.0
 30
0.0
 11
421.0
 21
-406.0
 31
0.0
  0
LINE
  5
741
  8
DATA
  6
CONTINUOUS
 62
     7
 10
424.0
 20
-412.0499999999999
 30
0.0
 11
421.0
 21
-412.0499999999999
 31
0.0
  0
LINE
  5
742
  8
DATA
  6
CONTINUOUS
 62
     7
 10
424.0
 20
-420.35000000000002
 30
0.0
 11
421.0
 21
-420.35000000000002
 31
0.0
  0
LINE
  5
743
  8
DATA
  6
CONTINUOUS
 62
     7
 10
422.50301130163291
 20
-407.7977532341028
 30
0.0
 11
421.0
 21
-407.7977532341028
 31
0.0
  0
LINE
  5
744
  8
DATA
  6
CONTINUOUS
 62
     7
 10
426.50301130163291
 20
-410.45679311422259
 30
0.0
 11
422.50301130163291
 21
-410.45679311422259
 31
0.0
  0
LINE
  5
745
  8
DATA
  6
CONTINUOUS
 62
     7
 10
426.50301130163291
 20
-421.0567931142221
 30
0.0
 11
422.50301130163291
 21
-421.0567931142221
 31
0.0
  0
LINE
  5
746
  8
DATA
  6
CONTINUOUS
 62
     7
 10
422.50301130163291
 20
-423.71583299434161
 30
0.0
 11
419.0030113016328
 21
-423.71583299434161
 31
0.0
  0
LINE
  5
747
  8
DATA
  6
CONTINUOUS
 62
     7
 10
426.50301130163291
 20
-410.45679311422259
 30
0.0
 11
426.50301130163291
 21
-421.0567931142221
 31
0.0
  0
LINE
  5
748
  8
DATA
  6
CONTINUOUS
 62
     7
 10
422.50301130163291
 20
-407.7977532341028
 30
0.0
 11
422.50301130163291
 21
-412.0499999999999
 31
0.0
  0
LINE
  5
749
  8
DATA
  6
CONTINUOUS
 62
     7
 10
422.50301130163291
 20
-420.35000000000002
 30
0.0
 11
422.50301130163291
 21
-423.71583299434161
 31
0.0
  0
LINE
  5
74A
  8
DATA
  6
CONTINUOUS
 62
     7
 10
422.50301130163291
 20
-408.84348072410842
 30
0.0
 11
421.0
 21
-408.84348072410842
 31
0.0
  0
LINE
  5
74B
  8
DATA
  6
CONTINUOUS
 62
     7
 10
419.0030113016328
 20
-423.71583299434161
 30
0.0
 11
419.0
 21
-423.71583299434161
 31
0.0
  0
ENDSEC
  0
EOF
