  0
SECTION
  2
HEADER
  9
$ACADVER
  1
AC1009
  9
$INSBASE
 10
0.0
 20
0.0
 30
0.0
  9
$EXTMIN
 10
-444.7935243309289
 20
-688.10956819777812
 30
-0.0015258207003583
  9
$EXTMAX
 10
455.2614073097597
 20
650.04075378504137
 30
0.0000000349246037
  9
$LIMMIN
 10
0.0
 20
0.0
  9
$LIMMAX
 10
0.0
 20
0.0
  9
$ORTHOMODE
 70
     0
  9
$REGENMODE
 70
     1
  9
$FILLMODE
 70
     1
  9
$QTEXTMODE
 70
     0
  9
$MIRRTEXT
 70
     1
  9
$DRAGMODE
 70
     2
  9
$LTSCALE
 40
25.399999999999999
  9
$OSMODE
 70
   231
  9
$ATTMODE
 70
     1
  9
$TEXTSIZE
 40
0.0
  9
$TRACEWID
 40
1.0
  9
$TEXTSTYLE
  7
STANDARD
  9
$CLAYER
  8
DATA
  9
$CELTYPE
  6
BYLAYER
  9
$CECOLOR
 62
   256
  9
$DIMSCALE
 40
1.0
  9
$DIMASZ
 40
0.18
  9
$DIMEXO
 40
0.0625
  9
$DIMDLI
 40
0.38
  9
$DIMRND
 40
0.0
  9
$DIMDLE
 40
0.0
  9
$DIMEXE
 40
0.18
  9
$DIMTP
 40
0.0
  9
$DIMTM
 40
0.0
  9
$DIMTXT
 40
0.18
  9
$DIMCEN
 40
0.09
  9
$DIMTSZ
 40
0.0
  9
$DIMTOL
 70
     0
  9
$DIMLIM
 70
     0
  9
$DIMTIH
 70
     1
  9
$DIMTOH
 70
     1
  9
$DIMSE1
 70
     0
  9
$DIMSE2
 70
     0
  9
$DIMTAD
 70
     0
  9
$DIMZIN
 70
     0
  9
$DIMBLK
  1

  9
$DIMASO
 70
     1
  9
$DIMSHO
 70
     1
  9
$DIMPOST
  1

  9
$DIMAPOST
  1

  9
$DIMALT
 70
     0
  9
$DIMALTD
 70
     2
  9
$DIMALTF
 40
25.399999999999999
  9
$DIMLFAC
 40
1.0
  9
$DIMTOFL
 70
     0
  9
$DIMTVP
 40
0.0
  9
$DIMTIX
 70
     0
  9
$DIMSOXD
 70
     0
  9
$DIMSAH
 70
     0
  9
$DIMBLK1
  1

  9
$DIMBLK2
  1

  9
$DIMSTYLE
  2
STANDARD
  9
$DIMCLRD
 70
     0
  9
$DIMCLRE
 70
     0
  9
$DIMCLRT
 70
     0
  9
$DIMTFAC
 40
1.0
  9
$DIMGAP
 40
0.09
  9
$LUNITS
 70
     2
  9
$LUPREC
 70
     4
  9
$SKETCHINC
 40
0.1
  9
$FILLETRAD
 40
0.0
  9
$AUNITS
 70
     0
  9
$AUPREC
 70
     0
  9
$MENU
  1
acad
  9
$ELEVATION
 40
0.0
  9
$PELEVATION
 40
0.0
  9
$THICKNESS
 40
0.0
  9
$LIMCHECK
 70
     0
  9
$BLIPMODE
 70
     0
  9
$CHAMFERA
 40
0.0
  9
$CHAMFERB
 40
0.0
  9
$SKPOLY
 70
     0
  9
$TDCREATE
 40
2455475.6124421302
  9
$TDUPDATE
 40
2455475.6210280908
  9
$TDINDWG
 40
0.0004576852
  9
$TDUSRTIMER
 40
0.0004576852
  9
$USRTIMER
 70
     1
  9
$ANGBASE
 50
0.0
  9
$ANGDIR
 70
     0
  9
$PDMODE
 70
     1
  9
$PDSIZE
 40
-2.0
  9
$PLINEWID
 40
0.0
  9
$COORDS
 70
     0
  9
$SPLFRAME
 70
     0
  9
$SPLINETYPE
 70
     6
  9
$SPLINESEGS
 70
     8
  9
$ATTDIA
 70
     0
  9
$ATTREQ
 70
     1
  9
$HANDLING
 70
     1
  9
$HANDSEED
  5
11CE
  9
$SURFTAB1
 70
     6
  9
$SURFTAB2
 70
     6
  9
$SURFTYPE
 70
     6
  9
$SURFU
 70
     6
  9
$SURFV
 70
     6
  9
$UCSNAME
  2

  9
$UCSORG
 10
0.0
 20
0.0
 30
0.0
  9
$UCSXDIR
 10
1.0
 20
0.0
 30
0.0
  9
$UCSYDIR
 10
0.0
 20
1.0
 30
0.0
  9
$PUCSNAME
  2

  9
$PUCSORG
 10
0.0
 20
0.0
 30
0.0
  9
$PUCSXDIR
 10
1.0
 20
0.0
 30
0.0
  9
$PUCSYDIR
 10
0.0
 20
1.0
 30
0.0
  9
$USERI1
 70
     0
  9
$USERI2
 70
     0
  9
$USERI3
 70
     0
  9
$USERI4
 70
     0
  9
$USERI5
 70
     0
  9
$USERR1
 40
0.0
  9
$USERR2
 40
0.0
  9
$USERR3
 40
0.0
  9
$USERR4
 40
0.0
  9
$USERR5
 40
0.0
  9
$WORLDVIEW
 70
     1
  9
$SHADEDGE
 70
     3
  9
$SHADEDIF
 70
    70
  9
$TILEMODE
 70
     1
  9
$MAXACTVP
 70
    64
  9
$PLIMCHECK
 70
     0
  9
$PEXTMIN
 10
1.0000000000000000E+020
 20
1.0000000000000000E+020
 30
1.0000000000000000E+020
  9
$PEXTMAX
 10
-1.0000000000000000E+020
 20
-1.0000000000000000E+020
 30
-1.0000000000000000E+020
  9
$PLIMMIN
 10
0.0
 20
0.0
  9
$PLIMMAX
 10
12.0
 20
9.0
  9
$UNITMODE
 70
     0
  9
$VISRETAIN
 70
     0
  9
$PLINEGEN
 70
     1
  9
$PSLTSCALE
 70
     0
  0
ENDSEC
  0
SECTION
  2
TABLES
  0
TABLE
  2
VPORT
 70
     1
  0
VPORT
  2
*ACTIVE
 70
     0
 10
0.0
 20
0.0
 11
1.0
 21
1.0
 12
5.2339414894154279
 22
-19.034407206368311
 13
0.0
 23
0.0
 14
1.0
 24
1.0
 15
0.0
 25
0.0
 16
0.0
 26
0.0
 36
1.0
 17
0.0
 27
0.0
 37
0.0
 40
1348.00173539619
 41
1.9619164619164611
 42
50.0
 43
0.0
 44
0.0
 50
0.0
 51
0.0
 71
     0
 72
  2000
 73
     1
 74
     1
 75
     0
 76
     0
 77
     0
 78
     0
  0
ENDTAB
  0
TABLE
  2
LTYPE
 70
    11
  0
LTYPE
  2
CONTINUOUS
 70
     0
  3
Solid line
 72
    65
 73
     0
 40
0.0
  0
ENDTAB
  0
TABLE
  2
LAYER
 70
     5
  0
LAYER
  2
0
 70
     0
 62
     7
  6
CONTINUOUS
  0
LAYER
  2
DATA
 70
     0
 62
     7
  6
CONTINUOUS
  0
LAYER
  2
HIBINO-BASE
 70
     0
 62
     7
  6
CONTINUOUS
  0
LAYER
  2
SPEC
 70
     0
 62
     7
  6
CONTINUOUS
  0
LAYER
  2
DIMNSIONS
 70
     0
 62
     7
  6
CONTINUOUS
  0
ENDTAB
  0
TABLE
  2
STYLE
 70
     3
  0
STYLE
  2
STANDARD
 70
     0
 40
0.0
 41
1.0
 50
0.0
 71
     0
 42
0.0
  3
txt
  4
BIGFONT.SHX
  0
ENDTAB
  0
TABLE
  2
VIEW
 70
     0
  0
ENDTAB
  0
TABLE
  2
UCS
 70
     0
  0
ENDTAB
  0
TABLE
  2
APPID
 70
     3
  0
APPID
  2
ACAD
 70
     0
  0
APPID
  2
ACADANNOTATIVE
 70
     0
  0
APPID
  2
ACAD_MLEADERVER
 70
     0
  0
ENDTAB
  0
TABLE
  2
DIMSTYLE
 70
     2
  0
DIMSTYLE
  2
STANDARD
 70
     0
  3

  4

  5

  6

  7

 40
1.0
 41
0.18
 42
0.0625
 43
0.38
 44
0.18
 45
0.0
 46
0.0
 47
0.0
 48
0.0
140
0.18
141
0.09
142
0.0
143
25.399999999999999
144
1.0
145
0.0
146
1.0
147
0.09
 71
     0
 72
     0
 73
     1
 74
     1
 75
     0
 76
     0
 77
     0
 78
     0
170
     0
171
     2
172
     0
173
     0
174
     0
175
     0
176
     0
177
     0
178
     0
  0
ENDTAB
  0
ENDSEC
  0
SECTION
  2
BLOCKS
  0
BLOCK
  8
0
  2
$MODEL_SPACE
 70
     0
 10
0.0
 20
0.0
 30
0.0
  3
$MODEL_SPACE
  1

  0
ENDBLK
  5
BCD
  8
0
  0
BLOCK
 67
     1
  8
0
  2
$PAPER_SPACE
 70
     0
 10
0.0
 20
0.0
 30
0.0
  3
$PAPER_SPACE
  1

  0
ENDBLK
  5
BC9
 67
     1
  8
0
  0
BLOCK
  8
DATA
  2
RACK___
 70
     0
 10
0.0
 20
0.0
 30
0.0
  3
RACK___
  1

  0
ARC
  5
2E
  8
0
  6
CONTINUOUS
 62
     7
 10
-2.2999999999998968
 20
0.0
 30
0.0
 40
3.1999999999999882
 50
90.000000000002018
 51
269.99999999999801
  0
ARC
  5
2F
  8
0
  6
CONTINUOUS
 62
     7
 10
2.2999999999999541
 20
-0.0000000000000568
 30
0.0
 40
3.1999999999999882
 50
270.0
 51
90.0
  0
LINE
  5
30
  8
0
  6
CONTINUOUS
 62
     7
 10
2.2999999999999541
 20
3.1999999999999882
 30
0.0
 11
-2.3500000000000218
 21
3.1999999999999882
 31
0.0
  0
LINE
  5
31
  8
0
  6
CONTINUOUS
 62
     7
 10
-2.3000000000000109
 20
-3.200000000000045
 30
0.0
 11
2.2999999999999541
 21
-3.200000000000045
 31
0.0
  0
ENDBLK
  5
32
  8
DATA
  0
ENDSEC
  0
SECTION
  2
ENTITIES
  0
LINE
  5
33
  8
HIBINO-BASE
  6
CONTINUOUS
 62
     7
 10
-444.76606060606048
 20
650.0
 30
0.0
 11
455.23393939393929
 21
650.0
 31
0.0
  0
LINE
  5
34
  8
HIBINO-BASE
  6
CONTINUOUS
 62
     7
 10
455.23393939393929
 20
-650.0
 30
0.0
 11
-444.76606060606048
 21
-650.0
 31
0.0
  0
LINE
  5
35
  8
HIBINO-BASE
  6
CONTINUOUS
 62
     7
 10
-444.76606060606048
 20
-650.0
 30
0.0
 11
-444.76606060606048
 21
650.0
 31
0.0
  0
TEXT
  5
36
  8
HIBINO-BASE
 62
     7
 10
-408.84606060606041
 20
-682.04338899999993
 30
0.0
 40
18.00022089843749
  1
Hibino Corporation
 41
0.7
 11
-408.84606060606041
 21
-664.04316810156229
 31
0.0
 73
     3
  0
LINE
  5
37
  8
HIBINO-BASE
  6
CONTINUOUS
 62
     7
 10
455.23393939393929
 20
650.0
 30
0.0
 11
455.23393939393929
 21
-650.0
 31
0.0
  0
LINE
  5
38
  8
HIBINO-BASE
  6
CONTINUOUS
 62
     7
 10
5.2339393939393926
 20
-537.49999999999989
 30
0.0
 11
455.23393939393929
 21
-537.49999999999989
 31
0.0
  0
LINE
  5
39
  8
HIBINO-BASE
  6
CONTINUOUS
 62
     7
 10
5.2339393939393926
 20
-650.0
 30
0.0
 11
5.2339393939393926
 21
-537.49999999999989
 31
0.0
  0
TEXT
  5
3A
  8
HIBINO-BASE
 62
     7
 10
9.7339393939393943
 20
-550.04346666666652
 30
0.0
 40
8.1442057291666661
  1
NOTE
 41
0.7
 11
9.7339393939393943
 21
-541.89926093749978
 31
0.0
 73
     3
  0
LINE
  5
3B
  8
HIBINO-BASE
  6
CONTINUOUS
 62
     7
 10
180.23393939393941
 20
-650.0
 30
0.0
 11
180.23393939393941
 21
-537.49999999999989
 31
0.0
  0
TEXT
  5
3C
  8
HIBINO-BASE
 62
     7
 10
184.73393939393941
 20
-550.04346666666652
 30
0.0
 40
8.1442057291666661
  1
TITLE
 41
0.7
 11
184.73393939393941
 21
-541.89926093749978
 31
0.0
 73
     3
  0
TEXT
  5
3D
  8
HIBINO-BASE
 62
     7
 10
255.57588939393929
 20
-682.04338899999993
 30
0.0
 40
18.00022089843749
  1
ヒビノ株式会社
 41
0.7
 11
255.57588939393929
 21
-664.04316810156229
 31
0.0
 73
     3
  0
LINE
  5
3E
  8
HIBINO-BASE
  6
CONTINUOUS
 62
     7
 10
5.2339393939393926
 20
-599.99999999999989
 30
0.0
 11
455.23393939393929
 21
-599.99999999999989
 31
0.0
  0
TEXT
  5
3F
  8
HIBINO-BASE
 62
     7
 10
247.23393939393941
 20
-612.26186666666649
 30
0.0
 40
8.1442057291666661
  1
DRAWN
 41
0.7
 11
247.23393939393941
 21
-604.11766093749975
 31
0.0
 73
     3
  0
TEXT
  5
40
  8
HIBINO-BASE
 62
     7
 10
122.23393939393939
 20
-612.26186666666649
 30
0.0
 40
8.1442057291666661
  1
DATE
 41
0.7
 11
122.23393939393939
 21
-604.11766093749975
 31
0.0
 73
     3
  0
TEXT
  5
41
  8
HIBINO-BASE
 62
     7
 10
72.233939393939394
 20
-612.26186666666649
 30
0.0
 40
8.1442057291666661
  1
SCALE
 41
0.7
 11
72.233939393939394
 21
-604.11766093749975
 31
0.0
 73
     3
  0
TEXT
  5
42
  8
HIBINO-BASE
 62
     7
 10
184.73393939393941
 20
-612.26186666666649
 30
0.0
 40
8.1442057291666661
  1
DESIGN
 41
0.7
 11
184.73393939393941
 21
-604.11766093749975
 31
0.0
 73
     3
  0
TEXT
  5
43
  8
HIBINO-BASE
 62
     7
 10
372.23393939393929
 20
-612.26186666666649
 30
0.0
 40
8.1442057291666661
  1
DRAWING NO.
 41
0.7
 11
372.23393939393929
 21
-604.11766093749975
 31
0.0
 73
     3
  0
TEXT
  5
44
  8
HIBINO-BASE
 62
     7
 10
309.73393939393929
 20
-612.26186666666649
 30
0.0
 40
8.1442057291666661
  1
CHECK
 41
0.7
 11
309.73393939393929
 21
-604.11766093749975
 31
0.0
 73
     3
  0
LINE
  5
45
  8
HIBINO-BASE
  6
CONTINUOUS
 62
     7
 10
77.108939393939366
 20
-643.75
 30
0.0
 11
95.858939393939394
 21
-624.99999999999989
 31
0.0
  0
TEXT
  5
46
  8
HIBINO-BASE
 62
     7
 10
77.394846838830588
 20
-633.52347858749306
 30
0.0
 40
9.5015733506944446
  1
1
 41
0.7
 11
77.394846838830588
 21
-624.0219052367986
 31
0.0
 73
     3
  0
LINE
  5
47
  8
HIBINO-BASE
  6
CONTINUOUS
 62
     7
 10
67.73393939393938
 20
-650.0
 30
0.0
 11
67.73393939393938
 21
-599.99999999999989
 31
0.0
  0
LINE
  5
48
  8
HIBINO-BASE
  6
CONTINUOUS
 62
     7
 10
117.73393939393939
 20
-650.0
 30
0.0
 11
117.73393939393939
 21
-599.99999999999989
 31
0.0
  0
LINE
  5
49
  8
HIBINO-BASE
  6
CONTINUOUS
 62
     7
 10
242.73393939393929
 20
-599.99999999999989
 30
0.0
 11
242.73393939393929
 21
-650.0
 31
0.0
  0
LINE
  5
4A
  8
HIBINO-BASE
  6
CONTINUOUS
 62
     7
 10
367.73393939393929
 20
-599.99999999999989
 30
0.0
 11
367.73393939393929
 21
-650.0
 31
0.0
  0
LINE
  5
4B
  8
HIBINO-BASE
  6
CONTINUOUS
 62
     7
 10
305.23393939393929
 20
-650.0
 30
0.0
 11
305.23393939393929
 21
-599.99999999999989
 31
0.0
  0
TEXT
  5
4C
  8
HIBINO-BASE
 62
     7
 10
122.0166393939394
 20
-637.19871111111115
 30
0.0
 40
9.5015733506944446
  1
'06.03.
 41
0.7
 11
122.0166393939394
 21
-627.69713776041669
 31
0.0
 73
     3
  0
TEXT
  5
4D
  8
HIBINO-BASE
 62
     7
 10
91.759394409684774
 20
-642.89847858749306
 30
0.0
 40
9.5015733506944446
  1
5
 41
0.7
 11
91.759394409684774
 21
-633.3969052367986
 31
0.0
 73
     3
  0
TEXT
  5
4E
  8
HIBINO-BASE
 62
     7
 10
24.65060606060614
 20
-640.11999999999989
 30
0.0
 40
16.288411458333329
  1
A4
 41
0.7
 11
24.65060606060614
 21
-623.83158854166652
 31
0.0
 73
     3
  0
TEXT
  5
4F
  8
HIBINO-BASE
 62
     7
 10
10.02560606060606
 20
-613.09727499999985
 30
0.0
 40
8.1442057291666661
  1
PAPER SIZE
 41
0.7
 11
10.02560606060606
 21
-604.95306927083334
 31
0.0
 73
     3
  0
TEXT
  5
50
  8
HIBINO-BASE
 62
     7
 10
-391.52586504840963
 20
-624.82703740169939
 30
0.0
 40
8.1442057291666661
  1
仕様および外観は予告なく変更されることがありますので、ご了承ください。
 41
0.7
 11
-391.52586504840963
 21
-616.68283167253276
 31
0.0
 73
     3
  0
TEXT
  5
51
  8
HIBINO-BASE
 62
     7
 10
249.04552247485219
 20
-637.45603978607414
 30
0.0
 40
9.5015733506944446
  1
T.Ohtake
 41
0.7
 11
249.04552247485219
 21
-627.95446643537969
 31
0.0
 73
     3
  0
TEXT
  5
52
  8
HIBINO-BASE
 62
     7
 10
316.09793487153229
 20
-637.44206226476035
 30
0.0
 40
9.5015733506944446
  1
Y.Ishii
 41
0.7
 11
316.09793487153229
 21
-627.9404889140659
 31
0.0
 73
     3
  0
LINE
  5
53
  8
SPEC
  6
CONTINUOUS
 62
     7
 10
-399.942780603872
 20
600.03202521605965
 30
0.0
 11
337.55721939612789
 21
600.03202521605965
 31
0.0
  0
LINE
  5
54
  8
SPEC
  6
CONTINUOUS
 62
     7
 10
-399.942780603872
 20
581.28202521605965
 30
0.0
 11
337.55721939612789
 21
581.28202521605965
 31
0.0
  0
LINE
  5
55
  8
SPEC
  6
CONTINUOUS
 62
     7
 10
-237.44278060387279
 20
506.28202521605971
 30
0.0
 11
337.55721939612789
 21
506.28202521605971
 31
0.0
  0
LINE
  5
56
  8
SPEC
  6
CONTINUOUS
 62
     7
 10
-399.942780603872
 20
525.03202521605965
 30
0.0
 11
337.55721939612789
 21
525.03202521605965
 31
0.0
  0
LINE
  5
57
  8
SPEC
  6
CONTINUOUS
 62
     7
 10
-237.44278060387279
 20
543.78202521605965
 30
0.0
 11
337.55721939612789
 21
543.78202521605965
 31
0.0
  0
LINE
  5
58
  8
SPEC
  6
CONTINUOUS
 62
     7
 10
-237.44278060387279
 20
487.53202521605971
 30
0.0
 11
337.55721939612789
 21
487.53202521605971
 31
0.0
  0
LINE
  5
59
  8
SPEC
  6
CONTINUOUS
 62
     7
 10
-237.44278060387279
 20
450.03202521605959
 30
0.0
 11
337.55721939612789
 21
450.03202521605971
 31
0.0
  0
LINE
  5
5A
  8
SPEC
  6
CONTINUOUS
 62
     7
 10
-399.942780603872
 20
468.78202521605971
 30
0.0
 11
337.55721939612789
 21
468.78202521605971
 31
0.0
  0
LINE
  5
5B
  8
SPEC
  6
CONTINUOUS
 62
     7
 10
-237.44278060387279
 20
431.28202521605959
 30
0.0
 11
337.55721939612789
 21
431.28202521605971
 31
0.0
  0
LINE
  5
5C
  8
SPEC
  6
CONTINUOUS
 62
     7
 10
-399.942780603872
 20
412.53202521605959
 30
0.0
 11
337.55721939612789
 21
412.53202521605959
 31
0.0
  0
LINE
  5
5D
  8
SPEC
  6
CONTINUOUS
 62
     7
 10
-237.44278060387279
 20
562.53202521605965
 30
0.0
 11
337.55721939612789
 21
562.53202521605965
 31
0.0
  0
LINE
  5
5E
  8
SPEC
  6
CONTINUOUS
 62
     7
 10
-399.942780603872
 20
375.03202521605971
 30
0.0
 11
337.55721939612789
 21
375.03202521605971
 31
0.0
  0
LINE
  5
5F
  8
SPEC
  6
CONTINUOUS
 62
     7
 10
-399.942780603872
 20
337.53202521605982
 30
0.0
 11
337.55721939612789
 21
337.53202521605982
 31
0.0
  0
LINE
  5
60
  8
SPEC
  6
CONTINUOUS
 62
     7
 10
-399.942780603872
 20
281.28202521605971
 30
0.0
 11
337.55721939612789
 21
281.28202521605971
 31
0.0
  0
LINE
  5
61
  8
SPEC
  6
CONTINUOUS
 62
     7
 10
-399.942780603872
 20
600.03202521605965
 30
0.0
 11
-399.942780603872
 21
281.28202521605971
 31
0.0
  0
TEXT
  5
62
  8
SPEC
 62
     7
 10
-386.437066787003
 20
606.99837521605957
 30
0.0
 40
12.21630859375
  1
仕様
 41
0.7
 11
-386.437066787003
 21
619.21468380980957
 31
0.0
 73
     3
  0
LINE
  5
63
  8
SPEC
  6
CONTINUOUS
 62
     7
 10
-237.44278060387279
 20
600.03202521605965
 30
0.0
 11
-237.44278060387279
 21
281.28202521605971
 31
0.0
  0
LINE
  5
64
  8
SPEC
  6
CONTINUOUS
 62
     7
 10
337.55721939612789
 20
600.03202521605965
 30
0.0
 11
337.55721939612789
 21
281.28202521605971
 31
0.0
  0
TEXT
  5
65
  8
SPEC
 62
     7
 10
-393.81956284301373
 20
585.93523692557267
 30
0.0
 40
9.5015733506944446
  1
形式
 41
0.7
 11
-393.81956284301373
 21
595.43681027626724
 31
0.0
 73
     3
  0
LINE
  5
66
  8
SPEC
  6
CONTINUOUS
 62
     7
 10
-237.44278060387279
 20
431.28202521605959
 30
0.0
 11
337.55721939612789
 21
431.28202521605971
 31
0.0
  0
LINE
  5
67
  8
SPEC
  6
CONTINUOUS
 62
     7
 10
-237.44278060387279
 20
431.28202521605959
 30
0.0
 11
337.55721939612789
 21
431.28202521605971
 31
0.0
  0
LINE
  5
68
  8
SPEC
  6
CONTINUOUS
 62
     7
 10
-399.942780603872
 20
393.78202521605971
 30
0.0
 11
337.55721939612789
 21
393.78202521605971
 31
0.0
  0
LINE
  5
69
  8
SPEC
  6
CONTINUOUS
 62
     7
 10
-399.942780603872
 20
356.28202521605971
 30
0.0
 11
337.55721939612789
 21
356.28202521605971
 31
0.0
  0
LINE
  5
6A
  8
SPEC
  6
CONTINUOUS
 62
     7
 10
-399.942780603872
 20
318.78202521605982
 30
0.0
 11
337.55721939612789
 21
318.78202521605982
 31
0.0
  0
LINE
  5
6B
  8
SPEC
  6
CONTINUOUS
 62
     7
 10
-399.942780603872
 20
300.03202521605982
 30
0.0
 11
337.55721939612789
 21
300.03202521605982
 31
0.0
  0
TEXT
  5
6C
  8
SPEC
 62
     7
 10
-230.85465627822489
 20
585.25601373396455
 30
0.0
 40
9.5015733506944446
  1
2ch マルチエフェクタ 
 41
0.7
 11
-230.85465627822489
 21
594.75758708465901
 31
0.0
 73
     3
  0
TEXT
  5
6D
  8
SPEC
 62
     7
 10
-394.29606123353068
 20
567.36894886709513
 30
0.0
 40
9.5015733506944446
  1
デジタル入出力
 41
0.7
 11
-394.29606123353068
 21
576.87052221778958
 31
0.0
 73
     3
  0
TEXT
  5
6E
  8
SPEC
 62
     7
 10
-231.29215394185499
 20
547.86152011828847
 30
0.0
 40
9.5015733506944446
  1
端子・型式 RCA,S/PDIF,24ビット XLR:AES/EBU,24ビット
 41
0.7
 11
-231.29215394185499
 21
557.36309346898304
 31
0.0
 73
     3
  0
TEXT
  5
6F
  8
SPEC
 62
     7
 10
-231.2509186415019
 20
529.56067037990545
 30
0.0
 40
9.5015733506944446
  1
サンプリングレート 48kHz/44.1kHz
 41
0.7
 11
-231.2509186415019
 21
539.0622437305999
 31
0.0
 73
     3
  0
TEXT
  5
70
  8
SPEC
 62
     7
 10
-393.69051501585528
 20
379.69348950949001
 30
0.0
 40
9.5015733506944446
  1
周波数特性
 41
0.7
 11
-393.69051501585528
 21
389.19506286018452
 31
0.0
 73
     3
  0
TEXT
  5
71
  8
SPEC
 62
     7
 10
-393.65650793263188
 20
361.0428430267059
 30
0.0
 40
9.5015733506944446
  1
THD＋N
 41
0.7
 11
-393.65650793263188
 21
370.5444163774003
 31
0.0
 73
     3
  0
TEXT
  5
72
  8
SPEC
 62
     7
 10
-231.0698532920986
 20
360.8090856647882
 30
0.0
 40
9.5015733506944446
  1
0.005％以下(10Hz～20kHz）
 41
0.7
 11
-231.0698532920986
 21
370.31065901548271
 31
0.0
 73
     3
  0
TEXT
  5
73
  8
SPEC
 62
     7
 10
-393.83995135532098
 20
323.72963512585193
 30
0.0
 40
9.5015733506944446
  1
電源
 41
0.7
 11
-393.83995135532098
 21
333.23120847654639
 31
0.0
 73
     3
  0
TEXT
  5
74
  8
SPEC
 62
     7
 10
-230.79512042061171
 20
322.88121544269262
 30
0.0
 40
9.5015733506944446
  1
AC100V,50/60Hz
 41
0.7
 11
-230.79512042061171
 21
332.38278879338708
 31
0.0
 73
     3
  0
TEXT
  5
75
  8
SPEC
 62
     7
 10
-394.0487583569149
 20
304.85497919129352
 30
0.0
 40
9.5015733506944446
  1
消費電力
 41
0.7
 11
-394.0487583569149
 21
314.35655254198798
 31
0.0
 73
     3
  0
TEXT
  5
76
  8
SPEC
 62
     7
 10
-231.1718549888387
 20
304.39817362939408
 30
0.0
 40
9.5015733506944446
  1
35W
 41
0.7
 11
-231.1718549888387
 21
313.89974698008859
 31
0.0
 73
     3
  0
TEXT
  5
77
  8
SPEC
 62
     7
 10
-393.95905185274239
 20
286.22672776361441
 30
0.0
 40
9.5015733506944446
  1
寸法　
 41
0.7
 11
-393.95905185274239
 21
295.72830111430881
 31
0.0
 73
     3
  0
TEXT
  5
78
  8
SPEC
 62
     7
 10
-230.8710305125324
 20
285.8491439368824
 30
0.0
 40
9.5015733506944446
  1
483(W)X45(H)X305(D)mm（突起部含まず）
 41
0.7
 11
-230.8710305125324
 21
295.3507172875768
 31
0.0
 73
     3
  0
TEXT
  5
79
  8
SPEC
 62
     7
 10
-231.6384563913945
 20
379.90921454039591
 30
0.0
 40
9.5015733506944446
  1
10Hz～20kHz(\U+00B10.5dB)
 41
0.7
 11
-231.6384563913945
 21
389.41078789109031
 31
0.0
 73
     3
  0
TEXT
  5
7A
  8
SPEC
 62
     7
 10
-231.22481833740881
 20
398.23747722336788
 30
0.0
 40
9.5015733506944446
  1
24ビット,48kHz/44.1kHz,内部24ビット処理
 41
0.7
 11
-231.22481833740881
 21
407.73905057406228
 31
0.0
 73
     3
  0
TEXT
  5
7B
  8
SPEC
 62
     7
 10
-393.6099056648157
 20
511.31008513963519
 30
0.0
 40
9.5015733506944446
  1
音声入力
 41
0.7
 11
-393.6099056648157
 21
520.81165849032959
 31
0.0
 73
     3
  0
TEXT
  5
7C
  8
SPEC
 62
     7
 10
-393.3050297433573
 20
398.1694406639707
 30
0.0
 40
9.5015733506944446
  1
A/D-D/A変換
 41
0.7
 11
-393.3050297433573
 21
407.6710140146651
 31
0.0
 73
     3
  0
TEXT
  5
7D
  8
SPEC
 62
     7
 10
-231.97159815525421
 20
566.89530451613734
 30
0.0
 40
9.5015733506944446
  1
チャンネル数 2
 41
0.7
 11
-231.97159815525421
 21
576.39687786683191
 31
0.0
 73
     3
  0
TEXT
  5
7E
  8
SPEC
 62
     7
 10
-231.99854223230091
 20
435.752331916201
 30
0.0
 40
9.5015733506944446
  1
インピーダンス 100\U+03A9(バランス)
 41
0.7
 11
-231.99854223230091
 21
445.2539052668954
 31
0.0
 73
     3
  0
TEXT
  5
7F
  8
SPEC
 62
     7
 10
-231.37949141692351
 20
417.22265791757951
 30
0.0
 40
9.5015733506944446
  1
最大レベル +18dBm(バランス)
 41
0.7
 11
-231.37949141692351
 21
426.72423126827402
 31
0.0
 73
     3
  0
TEXT
  5
80
  8
SPEC
 62
     7
 10
-231.2587251392045
 20
473.55831684656607
 30
0.0
 40
9.5015733506944446
  1
最大レベル +20dBu(バランス)
 41
0.7
 11
-231.2587251392045
 21
483.05989019726047
 31
0.0
 73
     3
  0
TEXT
  5
81
  8
SPEC
 62
     7
 10
-232.14499135801441
 20
492.24344925802711
 30
0.0
 40
9.5015733506944446
  1
インピーダンス 100k\U+03A9(バランス)
 41
0.7
 11
-232.14499135801441
 21
501.74502260872163
 31
0.0
 73
     3
  0
TEXT
  5
82
  8
SPEC
 62
     7
 10
-394.59450110136441
 20
342.32248785189472
 30
0.0
 40
9.5015733506944446
  1
ダイナミックレンジ
 41
0.7
 11
-394.59450110136441
 21
351.82406120258918
 31
0.0
 73
     3
  0
TEXT
  5
83
  8
SPEC
 62
     7
 10
-231.3016574833166
 20
341.9235867065006
 30
0.0
 40
9.5015733506944446
  1
98dB以上(20kHz)
 41
0.7
 11
-231.3016574833166
 21
351.425160057195
 31
0.0
 73
     3
  0
TEXT
  5
84
  8
SPEC
 62
     7
 10
-231.45888559827179
 20
511.62398953303392
 30
0.0
 40
9.5015733506944446
  1
端子・形式 コンボ端子 XLR/標準フォーンジャック(3P),電子バランス
 41
0.7
 11
-231.45888559827179
 21
521.12556288372843
 31
0.0
 73
     3
  0
TEXT
  5
85
  8
SPEC
 62
     7
 10
-393.63915574735222
 20
454.7197279559951
 30
0.0
 40
9.5015733506944446
  1
音声出力
 41
0.7
 11
-393.63915574735222
 21
464.22130130668961
 31
0.0
 73
     3
  0
TEXT
  5
86
  8
SPEC
 62
     7
 10
-231.43173629394209
 20
454.27483981402293
 30
0.0
 40
9.5015733506944446
  1
端子・型式 XLR 電子バランス 標準フオーンジャック(3P),電子バランス
 41
0.7
 11
-231.43173629394209
 21
463.77641316471733
 31
0.0
 73
     3
  0
LINE
  5
87
  8
SPEC
  6
CONTINUOUS
 62
     7
 10
-399.942780603872
 20
262.53202521605971
 30
0.0
 11
337.55721939612789
 21
262.53202521605971
 31
0.0
  0
LINE
  5
88
  8
SPEC
  6
CONTINUOUS
 62
     7
 10
-399.942780603872
 20
262.53202521605971
 30
0.0
 11
-399.942780603872
 21
281.39999999999998
 31
0.0
  0
LINE
  5
89
  8
SPEC
  6
CONTINUOUS
 62
     7
 10
-237.44278060387279
 20
281.28202521605971
 30
0.0
 11
-237.44278060387279
 21
262.53202521605971
 31
0.0
  0
LINE
  5
8A
  8
SPEC
  6
CONTINUOUS
 62
     7
 10
337.55721939612789
 20
262.53202521605971
 30
0.0
 11
337.55721939612789
 21
282.40000000000009
 31
0.0
  0
TEXT
  5
8B
  8
SPEC
 62
     7
 10
-394.14197056600722
 20
267.66533002090313
 30
0.0
 40
9.5015733506944464
  1
重量
 41
0.7
 11
-394.14197056600722
 21
277.16690337159758
 31
0.0
 73
     3
  0
TEXT
  5
8C
  8
SPEC
 62
     7
 10
-231.19556918848099
 20
268.03821525949479
 30
0.0
 40
9.5015733506944464
  1
2.9kg
 41
0.7
 11
-231.19556918848099
 21
277.53978861018919
 31
0.0
 73
     3
  0
TEXT
  5
8D
  8
DIMNSIONS
 62
     7
 10
-94.766060606060606
 20
-588.65255000000002
 30
0.0
 40
12.21630859375
  1
(単位：mm)
 41
0.7
 11
-94.766060606060606
 21
-576.43624140625002
 31
0.0
 73
     3
  0
LINE
  5
8E
  8
DIMNSIONS
  6
CONTINUOUS
 62
     7
 10
-354.5
 20
25.0
 30
0.0
 11
-354.5
 21
60.0
 31
0.0
  0
LINE
  5
8F
  8
DIMNSIONS
  6
CONTINUOUS
 62
     7
 10
77.5
 20
25.0
 30
0.0
 11
77.5
 21
60.0
 31
0.0
  0
LINE
  5
90
  8
DIMNSIONS
  6
CONTINUOUS
 62
     7
 10
-354.5
 20
50.0
 30
0.0
 11
77.5
 21
50.0
 31
0.0
  0
LINE
  5
91
  8
DIMNSIONS
  6
CONTINUOUS
 62
     7
 10
-354.5
 20
50.0
 30
0.0
 11
-341.99688720703131
 21
53.350198975751212
 31
0.0
  0
LINE
  5
92
  8
DIMNSIONS
  6
CONTINUOUS
 62
     7
 10
-354.5
 20
50.0
 30
0.0
 11
-341.99688720703131
 21
46.649801024248788
 31
0.0
  0
LINE
  5
93
  8
DIMNSIONS
  6
CONTINUOUS
 62
     7
 10
77.5
 20
50.0
 30
0.0
 11
64.99688720703125
 21
46.649801024248781
 31
0.0
  0
LINE
  5
94
  8
DIMNSIONS
  6
CONTINUOUS
 62
     7
 10
77.5
 20
50.0
 30
0.0
 11
64.99688720703125
 21
53.350198975751219
 31
0.0
  0
TEXT
  5
95
  8
DIMNSIONS
 62
     7
 10
-151.7291666666666
 20
54.969444444444441
 30
0.0
 40
13.57367621527778
  1
432
 41
0.7
 11
-151.7291666666666
 21
68.54312065972222
 31
0.0
 73
     3
  0
LINE
  5
96
  8
DIMNSIONS
  6
CONTINUOUS
 62
     7
 10
-356.50000000000023
 20
2.529901475433888
 30
0.0
 11
-356.50000000000023
 21
85.0
 31
0.0
  0
LINE
  5
97
  8
DIMNSIONS
  6
CONTINUOUS
 62
     7
 10
79.500000000000298
 20
2.529901475433888
 30
0.0
 11
79.500000000000298
 21
85.0
 31
0.0
  0
LINE
  5
98
  8
DIMNSIONS
  6
CONTINUOUS
 62
     7
 10
-356.50000000000023
 20
75.0
 30
0.0
 11
79.500000000000298
 21
75.0
 31
0.0
  0
LINE
  5
99
  8
DIMNSIONS
  6
CONTINUOUS
 62
     7
 10
-356.50000000000023
 20
75.0
 30
0.0
 11
-343.99688720703148
 21
78.350198975751212
 31
0.0
  0
LINE
  5
9A
  8
DIMNSIONS
  6
CONTINUOUS
 62
     7
 10
-356.50000000000023
 20
75.0
 30
0.0
 11
-343.99688720703148
 21
71.649801024248802
 31
0.0
  0
LINE
  5
9B
  8
DIMNSIONS
  6
CONTINUOUS
 62
     7
 10
79.500000000000298
 20
75.0
 30
0.0
 11
66.996887207031534
 21
71.64980102424876
 31
0.0
  0
LINE
  5
9C
  8
DIMNSIONS
  6
CONTINUOUS
 62
     7
 10
79.500000000000298
 20
75.0
 30
0.0
 11
66.996887207031534
 21
78.350198975751212
 31
0.0
  0
TEXT
  5
9D
  8
DIMNSIONS
 62
     7
 10
-151.7291666666666
 20
79.969444444444434
 30
0.0
 40
13.57367621527778
  1
436
 41
0.7
 11
-151.7291666666666
 21
93.543120659722206
 31
0.0
 73
     3
  0
LINE
  5
9E
  8
DIMNSIONS
  6
CONTINUOUS
 62
     7
 10
-364.5
 20
15.0
 30
0.0
 11
-431.875
 21
15.0
 31
0.0
  0
LINE
  5
9F
  8
DIMNSIONS
  6
CONTINUOUS
 62
     7
 10
-348.36785765893171
 20
21.52000000000001
 30
0.0
 11
-431.875
 21
21.52000000000001
 31
0.0
  0
LINE
  5
A0
  8
DIMNSIONS
  6
CONTINUOUS
 62
     7
 10
-421.875
 20
21.52000000000001
 30
0.0
 11
-421.875
 21
15.0
 31
0.0
  0
LINE
  5
A1
  8
DIMNSIONS
  6
CONTINUOUS
 62
     7
 10
-421.875
 20
15.0
 30
0.0
 11
-421.875
 21
-9.9999999999999964
 31
0.0
  0
LINE
  5
A2
  8
DIMNSIONS
  6
CONTINUOUS
 62
     7
 10
-421.875
 20
15.0
 30
0.0
 11
-418.5248010242488
 21
2.49688720703125
 31
0.0
  0
LINE
  5
A3
  8
DIMNSIONS
  6
CONTINUOUS
 62
     7
 10
-421.875
 20
15.0
 30
0.0
 11
-425.22519897575108
 21
2.49688720703125
 31
0.0
  0
LINE
  5
A4
  8
DIMNSIONS
  6
CONTINUOUS
 62
     7
 10
-421.875
 20
21.52000000000001
 30
0.0
 11
-421.875
 21
54.087870471856391
 31
0.0
  0
LINE
  5
A5
  8
DIMNSIONS
  6
CONTINUOUS
 62
     7
 10
-421.875
 20
21.52000000000001
 30
0.0
 11
-425.22519897575108
 21
34.023112792968753
 31
0.0
  0
LINE
  5
A6
  8
DIMNSIONS
  6
CONTINUOUS
 62
     7
 10
-421.875
 20
21.52000000000001
 30
0.0
 11
-418.5248010242488
 21
34.023112792968753
 31
0.0
  0
TEXT
  5
A7
  8
DIMNSIONS
 62
     7
 10
-426.84444444444449
 20
27.629537138523069
 30
0.0
 40
13.57367621527778
  1
6.5
 50
90.0
 41
0.7
 11
-440.41812065972221
 21
27.629537138523069
 31
0.0
 73
     3
  0
LINE
  5
A8
  8
DIMNSIONS
  6
CONTINUOUS
 62
     7
 10
-364.5
 20
15.0
 30
0.0
 11
-431.875
 21
15.0
 31
0.0
  0
LINE
  5
A9
  8
DIMNSIONS
  6
CONTINUOUS
 62
     7
 10
-390.0
 20
-290.0
 30
0.0
 11
-431.875
 21
-290.0
 31
0.0
  0
LINE
  5
AA
  8
DIMNSIONS
  6
CONTINUOUS
 62
     7
 10
-421.875
 20
15.0
 30
0.0
 11
-421.875
 21
-290.0
 31
0.0
  0
LINE
  5
AB
  8
DIMNSIONS
  6
CONTINUOUS
 62
     7
 10
-421.875
 20
15.0
 30
0.0
 11
-418.5248010242488
 21
2.49688720703125
 31
0.0
  0
LINE
  5
AC
  8
DIMNSIONS
  6
CONTINUOUS
 62
     7
 10
-421.875
 20
15.0
 30
0.0
 11
-425.22519897575108
 21
2.49688720703125
 31
0.0
  0
LINE
  5
AD
  8
DIMNSIONS
  6
CONTINUOUS
 62
     7
 10
-421.875
 20
-290.0
 30
0.0
 11
-425.22519897575108
 21
-277.49688720703119
 31
0.0
  0
LINE
  5
AE
  8
DIMNSIONS
  6
CONTINUOUS
 62
     7
 10
-421.875
 20
-290.0
 30
0.0
 11
-418.5248010242488
 21
-277.49688720703119
 31
0.0
  0
TEXT
  5
AF
  8
DIMNSIONS
 62
     7
 10
-426.84444444444449
 20
-150.7291666666666
 30
0.0
 40
13.57367621527778
  1
305
 50
90.0
 41
0.7
 11
-440.41812065972221
 21
-150.7291666666666
 31
0.0
 73
     3
  0
LINE
  5
B0
  8
DIMNSIONS
  6
CONTINUOUS
 62
     7
 10
-390.0
 20
-290.0
 30
0.0
 11
-410.0
 21
-290.0
 31
0.0
  0
LINE
  5
B1
  8
DIMNSIONS
  6
CONTINUOUS
 62
     7
 10
-390.0
 20
-285.99999999999989
 30
0.0
 11
-410.0
 21
-285.99999999999989
 31
0.0
  0
LINE
  5
B2
  8
DIMNSIONS
  6
CONTINUOUS
 62
     7
 10
-400.0
 20
-285.99999999999989
 30
0.0
 11
-400.0
 21
-290.0
 31
0.0
  0
LINE
  5
B3
  8
DIMNSIONS
  6
CONTINUOUS
 62
     7
 10
-400.0
 20
-290.0
 30
0.0
 11
-400.0
 21
-314.99999999999989
 31
0.0
  0
LINE
  5
B4
  8
DIMNSIONS
  6
CONTINUOUS
 62
     7
 10
-400.0
 20
-290.0
 30
0.0
 11
-396.6498010242488
 21
-302.50311279296869
 31
0.0
  0
LINE
  5
B5
  8
DIMNSIONS
  6
CONTINUOUS
 62
     7
 10
-400.0
 20
-290.0
 30
0.0
 11
-403.35019897575108
 21
-302.50311279296869
 31
0.0
  0
LINE
  5
B6
  8
DIMNSIONS
  6
CONTINUOUS
 62
     7
 10
-400.0
 20
-285.99999999999989
 30
0.0
 11
-400.0
 21
-266.1805555555556
 31
0.0
  0
LINE
  5
B7
  8
DIMNSIONS
  6
CONTINUOUS
 62
     7
 10
-400.0
 20
-285.99999999999989
 30
0.0
 11
-403.35019897575108
 21
-273.49688720703119
 31
0.0
  0
LINE
  5
B8
  8
DIMNSIONS
  6
CONTINUOUS
 62
     7
 10
-400.0
 20
-285.99999999999989
 30
0.0
 11
-396.6498010242488
 21
-273.49688720703119
 31
0.0
  0
TEXT
  5
B9
  8
DIMNSIONS
 62
     7
 10
-404.96944444444449
 20
-275.0
 30
0.0
 40
13.57367621527778
  1
4
 50
90.0
 41
0.7
 11
-418.54312065972221
 21
-275.0
 31
0.0
 73
     3
  0
LINE
  5
BA
  8
DIMNSIONS
  6
CONTINUOUS
 62
     7
 10
-203.5
 20
-306.0
 30
0.0
 11
-431.875
 21
-306.0
 31
0.0
  0
LINE
  5
BB
  8
DIMNSIONS
  6
CONTINUOUS
 62
     7
 10
-390.0
 20
-290.0
 30
0.0
 11
-431.875
 21
-290.0
 31
0.0
  0
LINE
  5
BC
  8
DIMNSIONS
  6
CONTINUOUS
 62
     7
 10
-421.875
 20
-290.0
 30
0.0
 11
-421.875
 21
-306.0
 31
0.0
  0
LINE
  5
BD
  8
DIMNSIONS
  6
CONTINUOUS
 62
     7
 10
-421.875
 20
-306.0
 30
0.0
 11
-421.875
 21
-329.05154766254168
 31
0.0
  0
LINE
  5
BE
  8
DIMNSIONS
  6
CONTINUOUS
 62
     7
 10
-421.875
 20
-306.0
 30
0.0
 11
-418.5248010242488
 21
-318.50311279296881
 31
0.0
  0
LINE
  5
BF
  8
DIMNSIONS
  6
CONTINUOUS
 62
     7
 10
-421.875
 20
-306.0
 30
0.0
 11
-425.22519897575108
 21
-318.50311279296881
 31
0.0
  0
LINE
  5
C0
  8
DIMNSIONS
  6
CONTINUOUS
 62
     7
 10
-421.875
 20
-290.0
 30
0.0
 11
-421.875
 21
-264.99999999999989
 31
0.0
  0
LINE
  5
C1
  8
DIMNSIONS
  6
CONTINUOUS
 62
     7
 10
-421.875
 20
-290.0
 30
0.0
 11
-425.22519897575108
 21
-277.49688720703119
 31
0.0
  0
LINE
  5
C2
  8
DIMNSIONS
  6
CONTINUOUS
 62
     7
 10
-421.875
 20
-290.0
 30
0.0
 11
-418.5248010242488
 21
-277.49688720703119
 31
0.0
  0
TEXT
  5
C3
  8
DIMNSIONS
 62
     7
 10
-426.84444444444449
 20
-329.05154766254168
 30
0.0
 40
13.57367621527778
  1
16
 50
90.0
 41
0.7
 11
-440.41812065972221
 21
-329.05154766254168
 31
0.0
 73
     3
  0
LINE
  5
C4
  8
DIMNSIONS
  6
CONTINUOUS
 62
     7
 10
-390.0
 20
-385.0
 30
0.0
 11
-431.875
 21
-385.0
 31
0.0
  0
LINE
  5
C5
  8
DIMNSIONS
  6
CONTINUOUS
 62
     7
 10
-390.0
 20
-430.0
 30
0.0
 11
-431.875
 21
-430.0
 31
0.0
  0
LINE
  5
C6
  8
DIMNSIONS
  6
CONTINUOUS
 62
     7
 10
-421.875
 20
-385.0
 30
0.0
 11
-421.875
 21
-430.0
 31
0.0
  0
LINE
  5
C7
  8
DIMNSIONS
  6
CONTINUOUS
 62
     7
 10
-421.875
 20
-385.0
 30
0.0
 11
-418.5248010242488
 21
-397.50311279296881
 31
0.0
  0
LINE
  5
C8
  8
DIMNSIONS
  6
CONTINUOUS
 62
     7
 10
-421.875
 20
-385.0
 30
0.0
 11
-425.22519897575108
 21
-397.50311279296881
 31
0.0
  0
LINE
  5
C9
  8
DIMNSIONS
  6
CONTINUOUS
 62
     7
 10
-421.875
 20
-430.0
 30
0.0
 11
-425.22519897575108
 21
-417.49688720703119
 31
0.0
  0
LINE
  5
CA
  8
DIMNSIONS
  6
CONTINUOUS
 62
     7
 10
-421.875
 20
-430.0
 30
0.0
 11
-418.5248010242488
 21
-417.49688720703119
 31
0.0
  0
TEXT
  5
CB
  8
DIMNSIONS
 62
     7
 10
-426.84444444444449
 20
-416.31944444444451
 30
0.0
 40
13.57367621527778
  1
45
 50
90.0
 41
0.7
 11
-440.41812065972221
 21
-416.31944444444451
 31
0.0
 73
     3
  0
LINE
  5
CC
  8
DIMNSIONS
  6
CONTINUOUS
 62
     7
 10
-380.0
 20
-440.0
 30
0.0
 11
-380.0
 21
-485.0
 31
0.0
  0
LINE
  5
CD
  8
DIMNSIONS
  6
CONTINUOUS
 62
     7
 10
103.0
 20
-440.0
 30
0.0
 11
103.0
 21
-485.0
 31
0.0
  0
LINE
  5
CE
  8
DIMNSIONS
  6
CONTINUOUS
 62
     7
 10
-380.0
 20
-475.0
 30
0.0
 11
103.0
 21
-475.0
 31
0.0
  0
LINE
  5
CF
  8
DIMNSIONS
  6
CONTINUOUS
 62
     7
 10
-380.0
 20
-475.0
 30
0.0
 11
-367.49688720703131
 21
-471.6498010242488
 31
0.0
  0
LINE
  5
D0
  8
DIMNSIONS
  6
CONTINUOUS
 62
     7
 10
-380.0
 20
-475.0
 30
0.0
 11
-367.49688720703131
 21
-478.35019897575108
 31
0.0
  0
LINE
  5
D1
  8
DIMNSIONS
  6
CONTINUOUS
 62
     7
 10
103.0
 20
-475.0
 30
0.0
 11
90.496887207031236
 21
-478.35019897575108
 31
0.0
  0
LINE
  5
D2
  8
DIMNSIONS
  6
CONTINUOUS
 62
     7
 10
103.0
 20
-475.0
 30
0.0
 11
90.496887207031236
 21
-471.6498010242488
 31
0.0
  0
TEXT
  5
D3
  8
DIMNSIONS
 62
     7
 10
-151.7291666666666
 20
-470.03055555555551
 30
0.0
 40
13.57367621527778
  1
483
 41
0.7
 11
-151.7291666666666
 21
-456.45687934027768
 31
0.0
 73
     3
  0
TEXT
  5
D4
  8
DATA
 62
     7
 10
233.5088757718411
 20
-556.27224306791788
 30
0.0
 40
12.21630859375
  1
Lexicon
 41
0.7
 11
233.5088757718411
 21
-544.05593447416788
 31
0.0
 73
     3
  0
TEXT
  5
D5
  8
DATA
 62
     7
 10
219.3688424045456
 20
-592.97932292120095
 30
0.0
 40
12.21630859375
  1
PCM 81
 41
0.7
 11
219.3688424045456
 21
-580.76301432745095
 31
0.0
 73
     3
  0
TEXT
  5
D6
  8
DATA
 62
     7
 10
219.30879741940171
 20
-572.77644752467677
 30
0.0
 40
9.5015733506944446
  1
2ch マルチエフェクタ 
 41
0.7
 11
219.30879741940171
 21
-563.27487417398243
 31
0.0
 73
     3
  0
POLYLINE
  5
D7
  8
DATA
  6
CONTINUOUS
 62
     7
 66
     1
 10
0.0
 20
0.0
 30
0.0
 70
     1
  0
VERTEX
  5
BFA
  8
DATA
  6
CONTINUOUS
 62
     7
 10
-380.0
 20
-385.0
 30
0.0
  0
VERTEX
  5
BFB
  8
DATA
  6
CONTINUOUS
 62
     7
 10
103.0
 20
-385.0
 30
0.0
  0
VERTEX
  5
BFC
  8
DATA
  6
CONTINUOUS
 62
     7
 10
103.0
 20
-430.0
 30
0.0
  0
VERTEX
  5
BFD
  8
DATA
  6
CONTINUOUS
 62
     7
 10
-380.0
 20
-430.0
 30
0.0
  0
SEQEND
  5
BFE
  8
DATA
  6
CONTINUOUS
 62
     7
  0
INSERT
  5
DE
  8
DATA
 62
     7
  2
RACK___
 10
-371.0
 20
-391.59999999999991
 30
0.0
  0
INSERT
  5
DF
  8
DATA
 62
     7
  2
RACK___
 10
-371.0
 20
-423.39999999999992
 30
0.0
  0
INSERT
  5
E0
  8
DATA
 62
     7
  2
RACK___
 10
94.0
 20
-391.59999999999991
 30
0.0
  0
INSERT
  5
E1
  8
DATA
 62
     7
  2
RACK___
 10
94.0
 20
-423.39999999999992
 30
0.0
  0
CIRCLE
  5
E2
  8
DATA
  6
CONTINUOUS
 62
     7
 10
69.5
 20
-395.0
 30
0.0
 40
3.9150000000000058
  0
POLYLINE
  5
E3
  8
DATA
  6
CONTINUOUS
 62
     7
 66
     1
 10
0.0
 20
0.0
 30
0.0
 70
     1
  0
VERTEX
  5
BFF
  8
DATA
  6
CONTINUOUS
 62
     7
 10
69.899167359955356
 20
-393.61291717908313
 30
0.0
  0
VERTEX
  5
C00
  8
DATA
  6
CONTINUOUS
 62
     7
 10
68.498334719910673
 20
-393.96076951545859
 30
0.0
  0
VERTEX
  5
C01
  8
DATA
  6
CONTINUOUS
 62
     7
 10
68.099167359955345
 20
-395.34785233637558
 30
0.0
  0
VERTEX
  5
C02
  8
DATA
  6
CONTINUOUS
 62
     7
 10
69.100832640044644
 20
-396.38708282091687
 30
0.0
  0
VERTEX
  5
C03
  8
DATA
  6
CONTINUOUS
 62
     7
 10
70.501665280089313
 20
-396.03923048454141
 30
0.0
  0
VERTEX
  5
C04
  8
DATA
  6
CONTINUOUS
 62
     7
 10
70.900832640044655
 20
-394.65214766362448
 30
0.0
  0
SEQEND
  5
C05
  8
DATA
  6
CONTINUOUS
 62
     7
  0
CIRCLE
  5
EC
  8
DATA
  6
CONTINUOUS
 62
     7
 10
69.5
 20
-420.0
 30
0.0
 40
3.9150000000000058
  0
POLYLINE
  5
ED
  8
DATA
  6
CONTINUOUS
 62
     7
 66
     1
 10
0.0
 20
0.0
 30
0.0
 70
     1
  0
VERTEX
  5
C06
  8
DATA
  6
CONTINUOUS
 62
     7
 10
69.899167359955356
 20
-418.61291717908313
 30
0.0
  0
VERTEX
  5
C07
  8
DATA
  6
CONTINUOUS
 62
     7
 10
68.498334719910673
 20
-418.96076951545848
 30
0.0
  0
VERTEX
  5
C08
  8
DATA
  6
CONTINUOUS
 62
     7
 10
68.099167359955345
 20
-420.34785233637552
 30
0.0
  0
VERTEX
  5
C09
  8
DATA
  6
CONTINUOUS
 62
     7
 10
69.100832640044644
 20
-421.38708282091682
 30
0.0
  0
VERTEX
  5
C0A
  8
DATA
  6
CONTINUOUS
 62
     7
 10
70.501665280089313
 20
-421.03923048454141
 30
0.0
  0
VERTEX
  5
C0B
  8
DATA
  6
CONTINUOUS
 62
     7
 10
70.900832640044655
 20
-419.65214766362442
 30
0.0
  0
SEQEND
  5
C0C
  8
DATA
  6
CONTINUOUS
 62
     7
  0
CIRCLE
  5
F6
  8
DATA
  6
CONTINUOUS
 62
     7
 10
-346.5
 20
-395.0
 30
0.0
 40
3.91500000000002
  0
POLYLINE
  5
F7
  8
DATA
  6
CONTINUOUS
 62
     7
 66
     1
 10
0.0
 20
0.0
 30
0.0
 70
     1
  0
VERTEX
  5
C0D
  8
DATA
  6
CONTINUOUS
 62
     7
 10
-346.10083264004459
 20
-393.61291717908313
 30
0.0
  0
VERTEX
  5
C0E
  8
DATA
  6
CONTINUOUS
 62
     7
 10
-347.5016652800893
 20
-393.96076951545859
 30
0.0
  0
VERTEX
  5
C0F
  8
DATA
  6
CONTINUOUS
 62
     7
 10
-347.9008326400446
 20
-395.34785233637558
 30
0.0
  0
VERTEX
  5
C10
  8
DATA
  6
CONTINUOUS
 62
     7
 10
-346.89916735995541
 20
-396.38708282091687
 30
0.0
  0
VERTEX
  5
C11
  8
DATA
  6
CONTINUOUS
 62
     7
 10
-345.4983347199107
 20
-396.03923048454141
 30
0.0
  0
VERTEX
  5
C12
  8
DATA
  6
CONTINUOUS
 62
     7
 10
-345.09916735995529
 20
-394.65214766362448
 30
0.0
  0
SEQEND
  5
C13
  8
DATA
  6
CONTINUOUS
 62
     7
  0
CIRCLE
  5
100
  8
DATA
  6
CONTINUOUS
 62
     7
 10
-346.5
 20
-420.0
 30
0.0
 40
3.91500000000002
  0
POLYLINE
  5
101
  8
DATA
  6
CONTINUOUS
 62
     7
 66
     1
 10
0.0
 20
0.0
 30
0.0
 70
     1
  0
VERTEX
  5
C14
  8
DATA
  6
CONTINUOUS
 62
     7
 10
-346.10083264004459
 20
-418.61291717908313
 30
0.0
  0
VERTEX
  5
C15
  8
DATA
  6
CONTINUOUS
 62
     7
 10
-347.5016652800893
 20
-418.96076951545848
 30
0.0
  0
VERTEX
  5
C16
  8
DATA
  6
CONTINUOUS
 62
     7
 10
-347.9008326400446
 20
-420.34785233637552
 30
0.0
  0
VERTEX
  5
C17
  8
DATA
  6
CONTINUOUS
 62
     7
 10
-346.89916735995541
 20
-421.38708282091682
 30
0.0
  0
VERTEX
  5
C18
  8
DATA
  6
CONTINUOUS
 62
     7
 10
-345.4983347199107
 20
-421.03923048454141
 30
0.0
  0
VERTEX
  5
C19
  8
DATA
  6
CONTINUOUS
 62
     7
 10
-345.09916735995529
 20
-419.65214766362442
 30
0.0
  0
SEQEND
  5
C1A
  8
DATA
  6
CONTINUOUS
 62
     7
  0
CIRCLE
  5
10A
  8
DATA
  6
CONTINUOUS
 62
     7
 10
-306.0
 20
-407.5
 30
0.0
 40
7.0
  0
POLYLINE
  5
10B
  8
DATA
  6
CONTINUOUS
 62
     7
 66
     1
 10
0.0
 20
0.0
 30
0.0
 70
     1
  0
VERTEX
  5
C1B
  8
DATA
  6
CONTINUOUS
 62
     7
 10
-333.0
 20
-396.13703428038582
 30
0.0
  0
VERTEX
  5
C1C
  8
DATA
  6
CONTINUOUS
 62
     7
 10
-322.0
 20
-396.13703428038582
 30
0.0
  0
VERTEX
  5
C1D
  8
DATA
  6
CONTINUOUS
 62
     7
 10
-322.0
 20
-398.63703428038582
 30
0.0
  0
VERTEX
  5
C1E
  8
DATA
  6
CONTINUOUS
 62
     7
 10
-333.0
 20
-398.63703428038582
 30
0.0
  0
SEQEND
  5
C1F
  8
DATA
  6
CONTINUOUS
 62
     7
  0
POLYLINE
  5
112
  8
DATA
  6
CONTINUOUS
 62
     7
 66
     1
 10
0.0
 20
0.0
 30
0.0
 70
     1
  0
VERTEX
  5
C20
  8
DATA
  6
CONTINUOUS
 62
     7
 10
-333.0
 20
-401.13703428038571
 30
0.0
  0
VERTEX
  5
C21
  8
DATA
  6
CONTINUOUS
 62
     7
 10
-322.0
 20
-401.13703428038571
 30
0.0
  0
VERTEX
  5
C22
  8
DATA
  6
CONTINUOUS
 62
     7
 10
-322.0
 20
-403.63703428038571
 30
0.0
  0
VERTEX
  5
C23
  8
DATA
  6
CONTINUOUS
 62
     7
 10
-333.0
 20
-403.63703428038571
 30
0.0
  0
SEQEND
  5
C24
  8
DATA
  6
CONTINUOUS
 62
     7
  0
POLYLINE
  5
119
  8
DATA
  6
CONTINUOUS
 62
     7
 66
     1
 10
0.0
 20
0.0
 30
0.0
 70
     1
  0
VERTEX
  5
C25
  8
DATA
  6
CONTINUOUS
 62
     7
 10
-333.0
 20
-406.13703428038571
 30
0.0
  0
VERTEX
  5
C26
  8
DATA
  6
CONTINUOUS
 62
     7
 10
-322.0
 20
-406.13703428038571
 30
0.0
  0
VERTEX
  5
C27
  8
DATA
  6
CONTINUOUS
 62
     7
 10
-322.0
 20
-408.63703428038571
 30
0.0
  0
VERTEX
  5
C28
  8
DATA
  6
CONTINUOUS
 62
     7
 10
-333.0
 20
-408.63703428038571
 30
0.0
  0
SEQEND
  5
C29
  8
DATA
  6
CONTINUOUS
 62
     7
  0
POLYLINE
  5
120
  8
DATA
  6
CONTINUOUS
 62
     7
 66
     1
 10
0.0
 20
0.0
 30
0.0
 70
     1
  0
VERTEX
  5
C2A
  8
DATA
  6
CONTINUOUS
 62
     7
 10
-333.0
 20
-411.13703428038571
 30
0.0
  0
VERTEX
  5
C2B
  8
DATA
  6
CONTINUOUS
 62
     7
 10
-322.0
 20
-411.13703428038571
 30
0.0
  0
VERTEX
  5
C2C
  8
DATA
  6
CONTINUOUS
 62
     7
 10
-322.0
 20
-413.63703428038571
 30
0.0
  0
VERTEX
  5
C2D
  8
DATA
  6
CONTINUOUS
 62
     7
 10
-333.0
 20
-413.63703428038571
 30
0.0
  0
SEQEND
  5
C2E
  8
DATA
  6
CONTINUOUS
 62
     7
  0
POLYLINE
  5
127
  8
DATA
  6
CONTINUOUS
 62
     7
 66
     1
 10
0.0
 20
0.0
 30
0.0
 70
     1
  0
VERTEX
  5
C2F
  8
DATA
  6
CONTINUOUS
 62
     7
 10
-333.0
 20
-416.13703428038571
 30
0.0
  0
VERTEX
  5
C30
  8
DATA
  6
CONTINUOUS
 62
     7
 10
-322.0
 20
-416.13703428038571
 30
0.0
  0
VERTEX
  5
C31
  8
DATA
  6
CONTINUOUS
 62
     7
 10
-322.0
 20
-418.63703428038571
 30
0.0
  0
VERTEX
  5
C32
  8
DATA
  6
CONTINUOUS
 62
     7
 10
-333.0
 20
-418.63703428038571
 30
0.0
  0
SEQEND
  5
C33
  8
DATA
  6
CONTINUOUS
 62
     7
  0
CIRCLE
  5
12E
  8
DATA
  6
CONTINUOUS
 62
     7
 10
-306.0
 20
-407.5
 30
0.0
 40
7.625
  0
POLYLINE
  5
12F
  8
DATA
  6
CONTINUOUS
 62
     7
 66
     1
 10
0.0
 20
0.0
 30
0.0
 70
     1
  0
VERTEX
  5
C34
  8
DATA
  6
CONTINUOUS
 62
     7
 10
-290.0
 20
-395.0
 30
0.0
  0
VERTEX
  5
C35
  8
DATA
  6
CONTINUOUS
 62
     7
 10
-206.0
 20
-395.0
 30
0.0
  0
VERTEX
  5
C36
  8
DATA
  6
CONTINUOUS
 62
     7
 10
-206.0
 20
-420.0
 30
0.0
  0
VERTEX
  5
C37
  8
DATA
  6
CONTINUOUS
 62
     7
 10
-290.0
 20
-420.0
 30
0.0
  0
SEQEND
  5
C38
  8
DATA
  6
CONTINUOUS
 62
     7
  0
CIRCLE
  5
136
  8
DATA
  6
CONTINUOUS
 62
     7
 10
-184.0
 20
-407.5
 30
0.0
 40
9.5
  0
CIRCLE
  5
137
  8
DATA
  6
CONTINUOUS
 62
     7
 10
-184.0
 20
-407.5
 30
0.0
 40
10.5
  0
CIRCLE
  5
138
  8
DATA
  6
CONTINUOUS
 62
     7
 10
-145.0
 20
-407.5
 30
0.0
 40
9.5
  0
CIRCLE
  5
139
  8
DATA
  6
CONTINUOUS
 62
     7
 10
-145.0
 20
-407.5
 30
0.0
 40
10.5
  0
CIRCLE
  5
13A
  8
DATA
  6
CONTINUOUS
 62
     7
 10
61.0
 20
-402.0
 30
0.0
 40
4.375
  0
POLYLINE
  5
13B
  8
DATA
  6
CONTINUOUS
 62
     7
 66
     1
 10
0.0
 20
0.0
 30
0.0
 70
     1
  0
VERTEX
  5
C39
  8
DATA
  6
CONTINUOUS
 62
     7
 10
-17.0
 20
-413.0
 30
0.0
  0
VERTEX
  5
C3A
  8
DATA
  6
CONTINUOUS
 62
     7
 10
56.0
 20
-413.0
 30
0.0
  0
VERTEX
  5
C3B
  8
DATA
  6
CONTINUOUS
 62
     7
 10
56.0
 20
-420.89999999999992
 30
0.0
  0
VERTEX
  5
C3C
  8
DATA
  6
CONTINUOUS
 62
     7
 10
-17.0
 20
-420.89999999999992
 30
0.0
  0
SEQEND
  5
C3D
  8
DATA
  6
CONTINUOUS
 62
     7
  0
POLYLINE
  5
142
  8
DATA
  6
CONTINUOUS
 62
     7
 66
     1
 10
0.0
 20
0.0
 30
0.0
 70
     1
  0
VERTEX
  5
C3E
  8
DATA
  6
CONTINUOUS
 62
     7
 10
44.110000000000021
 20
-414.56
 30
0.0
  0
VERTEX
  5
C3F
  8
DATA
  6
CONTINUOUS
 62
     7
 10
54.100000000000009
 20
-414.56
 30
0.0
  0
VERTEX
  5
C40
  8
DATA
  6
CONTINUOUS
 62
     7
 10
54.100000000000009
 20
-419.33999999999992
 30
0.0
  0
VERTEX
  5
C41
  8
DATA
  6
CONTINUOUS
 62
     7
 10
44.110000000000021
 20
-419.33999999999992
 30
0.0
  0
SEQEND
  5
C42
  8
DATA
  6
CONTINUOUS
 62
     7
  0
POLYLINE
  5
149
  8
DATA
  6
CONTINUOUS
 62
     7
 66
     1
 10
0.0
 20
0.0
 30
0.0
 70
     1
  0
VERTEX
  5
C43
  8
DATA
  6
CONTINUOUS
 62
     7
 10
-124.0
 20
-414.52999999999992
 30
0.0
  0
VERTEX
  5
C44
  8
DATA
  6
CONTINUOUS
 62
     7
 10
-111.44
 20
-414.52999999999992
 30
0.0
  0
VERTEX
  5
C45
  8
DATA
  6
CONTINUOUS
 62
     7
 10
-111.44
 20
-419.5
 30
0.0
  0
VERTEX
  5
C46
  8
DATA
  6
CONTINUOUS
 62
     7
 10
-124.0
 20
-419.5
 30
0.0
  0
SEQEND
  5
C47
  8
DATA
  6
CONTINUOUS
 62
     7
  0
POLYLINE
  5
150
  8
DATA
  6
CONTINUOUS
 62
     7
 66
     1
 10
0.0
 20
0.0
 30
0.0
 70
     1
  0
VERTEX
  5
C48
  8
DATA
  6
CONTINUOUS
 62
     7
 10
-124.0
 20
-395.89999999999998
 30
0.0
  0
VERTEX
  5
C49
  8
DATA
  6
CONTINUOUS
 62
     7
 10
-111.40000000000001
 20
-395.89999999999998
 30
0.0
  0
VERTEX
  5
C4A
  8
DATA
  6
CONTINUOUS
 62
     7
 10
-111.40000000000001
 20
-400.89999999999992
 30
0.0
  0
VERTEX
  5
C4B
  8
DATA
  6
CONTINUOUS
 62
     7
 10
-124.0
 20
-400.89999999999992
 30
0.0
  0
SEQEND
  5
C4C
  8
DATA
  6
CONTINUOUS
 62
     7
  0
POLYLINE
  5
157
  8
DATA
  6
CONTINUOUS
 62
     7
 66
     1
 10
0.0
 20
0.0
 30
0.0
 70
     1
  0
VERTEX
  5
C4D
  8
DATA
  6
CONTINUOUS
 62
     7
 10
-105.0
 20
-414.52999999999992
 30
0.0
  0
VERTEX
  5
C4E
  8
DATA
  6
CONTINUOUS
 62
     7
 10
-92.440000000000055
 20
-414.52999999999992
 30
0.0
  0
VERTEX
  5
C4F
  8
DATA
  6
CONTINUOUS
 62
     7
 10
-92.440000000000055
 20
-419.5
 30
0.0
  0
VERTEX
  5
C50
  8
DATA
  6
CONTINUOUS
 62
     7
 10
-105.0
 20
-419.5
 30
0.0
  0
SEQEND
  5
C51
  8
DATA
  6
CONTINUOUS
 62
     7
  0
POLYLINE
  5
15E
  8
DATA
  6
CONTINUOUS
 62
     7
 66
     1
 10
0.0
 20
0.0
 30
0.0
 70
     1
  0
VERTEX
  5
C52
  8
DATA
  6
CONTINUOUS
 62
     7
 10
-105.0
 20
-395.89999999999998
 30
0.0
  0
VERTEX
  5
C53
  8
DATA
  6
CONTINUOUS
 62
     7
 10
-92.400000000000006
 20
-395.89999999999998
 30
0.0
  0
VERTEX
  5
C54
  8
DATA
  6
CONTINUOUS
 62
     7
 10
-92.400000000000006
 20
-400.89999999999992
 30
0.0
  0
VERTEX
  5
C55
  8
DATA
  6
CONTINUOUS
 62
     7
 10
-105.0
 20
-400.89999999999992
 30
0.0
  0
SEQEND
  5
C56
  8
DATA
  6
CONTINUOUS
 62
     7
  0
CIRCLE
  5
165
  8
DATA
  6
CONTINUOUS
 62
     7
 10
-95.567148357688595
 20
-398.39999999999998
 30
0.0
 40
1.4212670403551699
  0
CIRCLE
  5
166
  8
DATA
  6
CONTINUOUS
 62
     7
 10
-95.567148357688595
 20
-417.01499999999987
 30
0.0
 40
1.400000000000005
  0
POLYLINE
  5
167
  8
DATA
  6
CONTINUOUS
 62
     7
 66
     1
 10
0.0
 20
0.0
 30
0.0
 70
     1
  0
VERTEX
  5
C57
  8
DATA
  6
CONTINUOUS
 62
     7
 10
-89.0
 20
-414.52999999999992
 30
0.0
  0
VERTEX
  5
C58
  8
DATA
  6
CONTINUOUS
 62
     7
 10
-76.440000000000055
 20
-414.52999999999992
 30
0.0
  0
VERTEX
  5
C59
  8
DATA
  6
CONTINUOUS
 62
     7
 10
-76.440000000000055
 20
-419.5
 30
0.0
  0
VERTEX
  5
C5A
  8
DATA
  6
CONTINUOUS
 62
     7
 10
-89.0
 20
-419.5
 30
0.0
  0
SEQEND
  5
C5B
  8
DATA
  6
CONTINUOUS
 62
     7
  0
POLYLINE
  5
16E
  8
DATA
  6
CONTINUOUS
 62
     7
 66
     1
 10
0.0
 20
0.0
 30
0.0
 70
     1
  0
VERTEX
  5
C5C
  8
DATA
  6
CONTINUOUS
 62
     7
 10
-89.0
 20
-395.89999999999998
 30
0.0
  0
VERTEX
  5
C5D
  8
DATA
  6
CONTINUOUS
 62
     7
 10
-76.400000000000006
 20
-395.89999999999998
 30
0.0
  0
VERTEX
  5
C5E
  8
DATA
  6
CONTINUOUS
 62
     7
 10
-76.400000000000006
 20
-400.89999999999992
 30
0.0
  0
VERTEX
  5
C5F
  8
DATA
  6
CONTINUOUS
 62
     7
 10
-89.0
 20
-400.89999999999992
 30
0.0
  0
SEQEND
  5
C60
  8
DATA
  6
CONTINUOUS
 62
     7
  0
CIRCLE
  5
175
  8
DATA
  6
CONTINUOUS
 62
     7
 10
-79.567148357688595
 20
-398.39999999999998
 30
0.0
 40
1.4212670403551699
  0
CIRCLE
  5
176
  8
DATA
  6
CONTINUOUS
 62
     7
 10
-79.567148357688595
 20
-417.01499999999987
 30
0.0
 40
1.400000000000005
  0
POLYLINE
  5
177
  8
DATA
  6
CONTINUOUS
 62
     7
 66
     1
 10
0.0
 20
0.0
 30
0.0
 70
     1
  0
VERTEX
  5
C61
  8
DATA
  6
CONTINUOUS
 62
     7
 10
-73.0
 20
-414.52999999999992
 30
0.0
  0
VERTEX
  5
C62
  8
DATA
  6
CONTINUOUS
 62
     7
 10
-60.440000000000069
 20
-414.52999999999992
 30
0.0
  0
VERTEX
  5
C63
  8
DATA
  6
CONTINUOUS
 62
     7
 10
-60.440000000000069
 20
-419.5
 30
0.0
  0
VERTEX
  5
C64
  8
DATA
  6
CONTINUOUS
 62
     7
 10
-73.0
 20
-419.5
 30
0.0
  0
SEQEND
  5
C65
  8
DATA
  6
CONTINUOUS
 62
     7
  0
POLYLINE
  5
17E
  8
DATA
  6
CONTINUOUS
 62
     7
 66
     1
 10
0.0
 20
0.0
 30
0.0
 70
     1
  0
VERTEX
  5
C66
  8
DATA
  6
CONTINUOUS
 62
     7
 10
-73.0
 20
-395.89999999999998
 30
0.0
  0
VERTEX
  5
C67
  8
DATA
  6
CONTINUOUS
 62
     7
 10
-60.400000000000013
 20
-395.89999999999998
 30
0.0
  0
VERTEX
  5
C68
  8
DATA
  6
CONTINUOUS
 62
     7
 10
-60.400000000000013
 20
-400.89999999999992
 30
0.0
  0
VERTEX
  5
C69
  8
DATA
  6
CONTINUOUS
 62
     7
 10
-73.0
 20
-400.89999999999992
 30
0.0
  0
SEQEND
  5
C6A
  8
DATA
  6
CONTINUOUS
 62
     7
  0
CIRCLE
  5
185
  8
DATA
  6
CONTINUOUS
 62
     7
 10
-63.567148357688602
 20
-398.39999999999998
 30
0.0
 40
1.4212670403551699
  0
CIRCLE
  5
186
  8
DATA
  6
CONTINUOUS
 62
     7
 10
-63.567148357688602
 20
-417.01499999999987
 30
0.0
 40
1.400000000000005
  0
POLYLINE
  5
187
  8
DATA
  6
CONTINUOUS
 62
     7
 66
     1
 10
0.0
 20
0.0
 30
0.0
 70
     1
  0
VERTEX
  5
C6B
  8
DATA
  6
CONTINUOUS
 62
     7
 10
-57.0
 20
-414.52999999999992
 30
0.0
  0
VERTEX
  5
C6C
  8
DATA
  6
CONTINUOUS
 62
     7
 10
-44.440000000000047
 20
-414.52999999999992
 30
0.0
  0
VERTEX
  5
C6D
  8
DATA
  6
CONTINUOUS
 62
     7
 10
-44.440000000000047
 20
-419.5
 30
0.0
  0
VERTEX
  5
C6E
  8
DATA
  6
CONTINUOUS
 62
     7
 10
-57.0
 20
-419.5
 30
0.0
  0
SEQEND
  5
C6F
  8
DATA
  6
CONTINUOUS
 62
     7
  0
POLYLINE
  5
18E
  8
DATA
  6
CONTINUOUS
 62
     7
 66
     1
 10
0.0
 20
0.0
 30
0.0
 70
     1
  0
VERTEX
  5
C70
  8
DATA
  6
CONTINUOUS
 62
     7
 10
-57.0
 20
-395.89999999999998
 30
0.0
  0
VERTEX
  5
C71
  8
DATA
  6
CONTINUOUS
 62
     7
 10
-44.400000000000013
 20
-395.89999999999998
 30
0.0
  0
VERTEX
  5
C72
  8
DATA
  6
CONTINUOUS
 62
     7
 10
-44.400000000000013
 20
-400.89999999999992
 30
0.0
  0
VERTEX
  5
C73
  8
DATA
  6
CONTINUOUS
 62
     7
 10
-57.0
 20
-400.89999999999992
 30
0.0
  0
SEQEND
  5
C74
  8
DATA
  6
CONTINUOUS
 62
     7
  0
CIRCLE
  5
195
  8
DATA
  6
CONTINUOUS
 62
     7
 10
-47.567148357688602
 20
-398.39999999999998
 30
0.0
 40
1.4212670403551699
  0
CIRCLE
  5
196
  8
DATA
  6
CONTINUOUS
 62
     7
 10
-47.567148357688602
 20
-417.01499999999987
 30
0.0
 40
1.400000000000005
  0
POLYLINE
  5
197
  8
DATA
  6
CONTINUOUS
 62
     7
 66
     1
 10
0.0
 20
0.0
 30
0.0
 70
     1
  0
VERTEX
  5
C75
  8
DATA
  6
CONTINUOUS
 62
     7
 10
-37.0
 20
-414.52999999999992
 30
0.0
  0
VERTEX
  5
C76
  8
DATA
  6
CONTINUOUS
 62
     7
 10
-24.440000000000051
 20
-414.52999999999992
 30
0.0
  0
VERTEX
  5
C77
  8
DATA
  6
CONTINUOUS
 62
     7
 10
-24.440000000000051
 20
-419.5
 30
0.0
  0
VERTEX
  5
C78
  8
DATA
  6
CONTINUOUS
 62
     7
 10
-37.0
 20
-419.5
 30
0.0
  0
SEQEND
  5
C79
  8
DATA
  6
CONTINUOUS
 62
     7
  0
POLYLINE
  5
19E
  8
DATA
  6
CONTINUOUS
 62
     7
 66
     1
 10
0.0
 20
0.0
 30
0.0
 70
     1
  0
VERTEX
  5
C7A
  8
DATA
  6
CONTINUOUS
 62
     7
 10
-37.0
 20
-395.89999999999998
 30
0.0
  0
VERTEX
  5
C7B
  8
DATA
  6
CONTINUOUS
 62
     7
 10
-24.400000000000009
 20
-395.89999999999998
 30
0.0
  0
VERTEX
  5
C7C
  8
DATA
  6
CONTINUOUS
 62
     7
 10
-24.400000000000009
 20
-400.89999999999992
 30
0.0
  0
VERTEX
  5
C7D
  8
DATA
  6
CONTINUOUS
 62
     7
 10
-37.0
 20
-400.89999999999992
 30
0.0
  0
SEQEND
  5
C7E
  8
DATA
  6
CONTINUOUS
 62
     7
  0
LINE
  5
1A5
  8
DATA
  6
CONTINUOUS
 62
     7
 10
-21.0
 20
-427.5
 30
0.0
 11
-21.0
 21
-413.0
 31
0.0
  0
LINE
  5
1A6
  8
DATA
  6
CONTINUOUS
 62
     7
 10
-21.0
 20
-427.5
 30
0.0
 11
-138.0
 21
-427.5
 31
0.0
  0
LINE
  5
1A7
  8
DATA
  6
CONTINUOUS
 62
     7
 10
-138.0
 20
-427.5
 30
0.0
 11
-294.0
 21
-427.5
 31
0.0
  0
LINE
  5
1A8
  8
DATA
  6
CONTINUOUS
 62
     7
 10
-153.9442719099992
 20
-413.0
 30
0.0
 11
-175.0557280900008
 21
-413.0
 31
0.0
  0
LINE
  5
1A9
  8
DATA
  6
CONTINUOUS
 62
     7
 10
-192.9442719099992
 20
-413.0
 30
0.0
 11
-206.0
 21
-413.0
 31
0.0
  0
LINE
  5
1AA
  8
DATA
  6
CONTINUOUS
 62
     7
 10
-290.0
 20
-413.0
 30
0.0
 11
-294.0
 21
-413.0
 31
0.0
  0
LINE
  5
1AB
  8
DATA
  6
CONTINUOUS
 62
     7
 10
-294.0
 20
-427.5
 30
0.0
 11
-294.0
 21
-413.0
 31
0.0
  0
TEXT
  5
1AC
  8
DATA
 62
     7
 10
48.855223532575202
 20
-391.59919637960382
 30
0.0
 40
3.84765625
  1
POWER
 41
0.7
 11
48.855223532575202
 21
-387.75154012960382
 31
0.0
 73
     3
  0
TEXT
  5
1AD
  8
DATA
 62
     7
 10
38.329088650659124
 20
-426.23163546026359
 30
0.0
 40
3.078125
  1
Eject
 41
0.7
 11
38.329088650659124
 21
-423.15351046026359
 31
0.0
 73
     3
  0
TEXT
  5
1AE
  8
DATA
 62
     7
 10
-119.3856204189408
 20
-393.02437958105941
 30
0.0
 40
2.693359375
  1
Up
 41
0.7
 11
-119.3856204189408
 21
-390.33102020605929
 31
0.0
 73
     3
  0
TEXT
  5
1AF
  8
DATA
 62
     7
 10
-104.87770477028729
 20
-391.31791564865352
 30
0.0
 40
2.693359375
  1
Program
 41
0.7
 11
-104.87770477028729
 21
-388.62455627365352
 31
0.0
 73
     3
  0
TEXT
  5
1B0
  8
DATA
 62
     7
 10
-104.87770477028729
 20
-394.81791564865352
 30
0.0
 40
2.693359375
  1
 Banks
 41
0.7
 11
-104.87770477028729
 21
-392.12455627365352
 31
0.0
 73
     3
  0
TEXT
  5
1B1
  8
DATA
 62
     7
 10
-89.050259742997383
 20
-391.31791564865352
 30
0.0
 40
2.693359375
  1
Register
 41
0.7
 11
-89.050259742997383
 21
-388.62455627365352
 31
0.0
 73
     3
  0
TEXT
  5
1B2
  8
DATA
 62
     7
 10
-89.050259742997383
 20
-394.81791564865352
 30
0.0
 40
2.693359375
  1
 Banks
 41
0.7
 11
-89.050259742997383
 21
-392.12455627365352
 31
0.0
 73
     3
  0
TEXT
  5
1B3
  8
DATA
 62
     7
 10
-70.389180918850769
 20
-393.02437958105941
 30
0.0
 40
2.693359375
  1
Edit
 41
0.7
 11
-70.389180918850769
 21
-390.33102020605929
 31
0.0
 73
     3
  0
TEXT
  5
1B4
  8
DATA
 62
     7
 10
-56.407915648653521
 20
-393.03875916211848
 30
0.0
 40
2.693359375
  1
Control
 41
0.7
 11
-56.407915648653521
 21
-390.34539978711848
 31
0.0
 73
     3
  0
TEXT
  5
1B5
  8
DATA
 62
     7
 10
-35.630210878366213
 20
-392.76897004048487
 30
0.0
 40
2.693359375
  1
Tempo
 41
0.7
 11
-35.630210878366213
 21
-390.07561066548487
 31
0.0
 73
     3
  0
TEXT
  5
1B6
  8
DATA
 62
     7
 10
-120.71649438700329
 20
-411.67506037346709
 30
0.0
 40
2.693359375
  1
Down
 41
0.7
 11
-120.71649438700329
 21
-408.98170099846709
 31
0.0
 73
     3
  0
TEXT
  5
1B7
  8
DATA
 62
     7
 10
-102.61521902458109
 20
-409.96859644106132
 30
0.0
 40
2.693359375
  1
Load
 41
0.7
 11
-102.61521902458109
 21
-407.27523706606132
 31
0.0
 73
     3
  0
TEXT
  5
1B8
  8
DATA
 62
     7
 10
-72.695388516937513
 20
-411.6270143818403
 30
0.0
 40
2.693359375
  1
Compare
 41
0.7
 11
-72.695388516937513
 21
-408.9336550068403
 31
0.0
 73
     3
  0
TEXT
  5
1B9
  8
DATA
 62
     7
 10
-55.831363749131839
 20
-411.68943995452639
 30
0.0
 40
2.693359375
  1
Bypass
 41
0.7
 11
-55.831363749131839
 21
-408.99608057952639
 31
0.0
 73
     3
  0
TEXT
  5
1BA
  8
DATA
 62
     7
 10
-33.035727330518789
 20
-411.41965083289278
 30
0.0
 40
2.693359375
  1
Tap
 41
0.7
 11
-33.035727330518789
 21
-408.72629145789278
 31
0.0
 73
     3
  0
LINE
  5
1BB
  8
DATA
  6
CONTINUOUS
 62
     7
 10
-104.7315235092945
 20
-410.39999999999998
 30
0.0
 11
-92.049999999999997
 21
-410.39999999999998
 31
0.0
  0
TEXT
  5
1BC
  8
DATA
 62
     7
 10
-99.498045991626796
 20
-413.25494219258371
 30
0.0
 40
2.693359375
  1
*
 41
0.7
 11
-99.498045991626796
 21
-410.56158281758371
 31
0.0
 73
     3
  0
TEXT
  5
1BD
  8
DATA
 62
     7
 10
-86.978505907894885
 20
-411.61000000000001
 30
0.0
 40
2.693359375
  1
Store
 41
0.7
 11
-86.978505907894885
 21
-408.91664062500001
 31
0.0
 73
     3
  0
TEXT
  5
1BE
  8
DATA
 62
     7
 10
-17.045287765550508
 20
-410.82057425956953
 30
0.0
 40
2.693359375
  1
Memory Card
 41
0.7
 11
-17.045287765550508
 21
-408.12721488456953
 31
0.0
 73
     3
  0
TEXT
  5
1BF
  8
DATA
 62
     7
 10
-151.7154181631164
 20
-391.22196364437872
 30
0.0
 40
3.84765625
  1
SELECT
 41
0.7
 11
-151.7154181631164
 21
-387.37430739437872
 31
0.0
 73
     3
  0
TEXT
  5
1C0
  8
DATA
 62
     7
 10
-191.50443634092699
 20
-391.22196364437872
 30
0.0
 40
3.84765625
  1
ADJUST
 41
0.7
 11
-191.50443634092699
 21
-387.37430739437872
 31
0.0
 73
     3
  0
TEXT
  5
1C1
  8
DATA
 62
     7
 10
-316.47528930204891
 20
-392.45830070896022
 30
0.0
 40
3.84765625
  1
INPUT
 41
0.7
 11
-316.47528930204891
 21
-388.61064445896022
 31
0.0
 73
     3
  0
TEXT
  5
1C2
  8
DATA
 62
     7
 10
-340.74560894320109
 20
-392.45502796832892
 30
0.0
 40
3.84765625
  1
HEADROOM
 41
0.7
 11
-340.74560894320109
 21
-388.60737171832892
 31
0.0
 73
     3
  0
TEXT
  5
1C3
  8
DATA
 62
     7
 10
-338.09754371525861
 20
-418.88283216270929
 30
0.0
 40
2.693359375
  1
24
 41
0.7
 11
-338.09754371525861
 21
-416.18947278770929
 31
0.0
 73
     3
  0
TEXT
  5
1C4
  8
DATA
 62
     7
 10
-338.0864160813548
 20
-413.76679195932252
 30
0.0
 40
2.693359375
  1
18
 41
0.7
 11
-338.0864160813548
 21
-411.07343258432257
 31
0.0
 73
     3
  0
TEXT
  5
1C5
  8
DATA
 62
     7
 10
-338.12716783729059
 20
-408.68283216270942
 30
0.0
 40
2.693359375
  1
12
 41
0.7
 11
-338.12716783729059
 21
-405.98947278770942
 31
0.0
 73
     3
  0
TEXT
  5
1C6
  8
DATA
 62
     7
 10
-336.31604020338682
 20
-403.72358391864532
 30
0.0
 40
2.693359375
  1
6
 41
0.7
 11
-336.31604020338682
 21
-401.03022454364532
 31
0.0
 73
     3
  0
TEXT
  5
1C7
  8
DATA
 62
     7
 10
-339.83395977674519
 20
-398.70566432541881
 30
0.0
 40
2.693359375
  1
0dB
 41
0.7
 11
-339.83395977674519
 21
-396.01230495041881
 31
0.0
 73
     3
  0
TEXT
  5
1C8
  8
DATA
 62
     7
 10
-291.07167837290609
 20
-392.25132865083759
 30
0.0
 40
4.6171875
  1
PCM 81
 41
0.7
 11
-291.07167837290609
 21
-387.63414115083771
 31
0.0
 73
     3
  0
TEXT
  5
1C9
  8
DATA
 62
     7
 10
-268.82716783729057
 20
-391.41075175593602
 30
0.0
 40
3.462890625
  1
DIGITAL EFFECTS PROCESSOR
 41
0.7
 11
-268.82716783729057
 21
-387.94786113093602
 31
0.0
 73
     3
  0
CIRCLE
  5
1CA
  8
DATA
  6
CONTINUOUS
 62
     7
 10
-306.0
 20
-396.69999999999999
 30
0.0
 40
0.3000000000000114
  0
CIRCLE
  5
1CB
  8
DATA
  6
CONTINUOUS
 62
     7
 10
-316.80000000000001
 20
-407.5
 30
0.0
 40
0.3000000000000114
  0
CIRCLE
  5
1CC
  8
DATA
  6
CONTINUOUS
 62
     7
 10
-295.19999999999999
 20
-407.5
 30
0.0
 40
0.3000000000000114
  0
CIRCLE
  5
1CD
  8
DATA
  6
CONTINUOUS
 62
     7
 10
-311.39999999999952
 20
-398.14692563912911
 30
0.0
 40
0.3000000000000114
  0
CIRCLE
  5
1CE
  8
DATA
  6
CONTINUOUS
 62
     7
 10
-315.35307436087038
 20
-402.1000000000007
 30
0.0
 40
0.3000000000000114
  0
CIRCLE
  5
1CF
  8
DATA
  6
CONTINUOUS
 62
     7
 10
-300.60000000000048
 20
-398.14692563912911
 30
0.0
 40
0.3000000000000114
  0
CIRCLE
  5
1D0
  8
DATA
  6
CONTINUOUS
 62
     7
 10
-296.64692563912962
 20
-402.1000000000007
 30
0.0
 40
0.3000000000000114
  0
CIRCLE
  5
1D1
  8
DATA
  6
CONTINUOUS
 62
     7
 10
-315.35307436087038
 20
-412.89999999999912
 30
0.0
 40
0.3000000000000114
  0
CIRCLE
  5
1D2
  8
DATA
  6
CONTINUOUS
 62
     7
 10
-296.64692563912962
 20
-412.89999999999912
 30
0.0
 40
0.3000000000000114
  0
TEXT
  5
1D3
  8
DATA
 62
     7
 10
-312.24741913545807
 20
-418.29403302589668
 30
0.0
 40
2.693359375
  1
0
 41
0.7
 11
-312.24741913545807
 21
-415.60067365089668
 31
0.0
 73
     3
  0
TEXT
  5
1D4
  8
DATA
 62
     7
 10
-302.21596697410331
 20
-418.30741913545802
 30
0.0
 40
2.693359375
  1
10
 41
0.7
 11
-302.21596697410331
 21
-415.61405976045802
 31
0.0
 73
     3
  0
POLYLINE
  5
1D5
  8
DATA
  6
CONTINUOUS
 62
     7
 66
     1
 10
0.0
 20
0.0
 30
0.0
  0
VERTEX
  5
C7F
  8
DATA
  6
CONTINUOUS
 62
     7
 10
435.0
 20
-423.69999999999987
 30
0.0
  0
VERTEX
  5
C80
  8
DATA
  6
CONTINUOUS
 62
     7
 10
435.0
 20
-430.0
 30
0.0
  0
VERTEX
  5
C81
  8
DATA
  6
CONTINUOUS
 62
     7
 10
130.0
 20
-430.0
 30
0.0
  0
VERTEX
  5
C82
  8
DATA
  6
CONTINUOUS
 62
     7
 10
130.0
 20
-385.0
 30
0.0
  0
VERTEX
  5
C83
  8
DATA
  6
CONTINUOUS
 62
     7
 10
435.0
 20
-385.0
 30
0.0
  0
VERTEX
  5
C84
  8
DATA
  6
CONTINUOUS
 62
     7
 10
435.0
 20
-391.29999999999978
 30
0.0
  0
SEQEND
  5
C85
  8
DATA
  6
CONTINUOUS
 62
     7
  0
POLYLINE
  5
1DE
  8
DATA
  6
CONTINUOUS
 62
     7
 66
     1
 10
0.0
 20
0.0
 30
0.0
  0
VERTEX
  5
C86
  8
DATA
  6
CONTINUOUS
 62
     7
 10
-380.0
 20
-285.99999999999989
 30
0.0
  0
VERTEX
  5
C87
  8
DATA
  6
CONTINUOUS
 62
     7
 10
-380.0
 20
-290.0
 30
0.0
  0
VERTEX
  5
C88
  8
DATA
  6
CONTINUOUS
 62
     7
 10
103.0
 20
-290.0
 30
0.0
  0
VERTEX
  5
C89
  8
DATA
  6
CONTINUOUS
 62
     7
 10
103.0
 20
-285.99999999999989
 30
0.0
  0
SEQEND
  5
C8A
  8
DATA
  6
CONTINUOUS
 62
     7
  0
LINE
  5
1E5
  8
DATA
  6
CONTINUOUS
 62
     7
 10
-354.5
 20
15.0
 30
0.0
 11
77.5
 21
15.0
 31
0.0
  0
LINE
  5
1E6
  8
DATA
  6
CONTINUOUS
 62
     7
 10
-380.0
 20
-285.99999999999989
 30
0.0
 11
103.0
 21
-285.99999999999989
 31
0.0
  0
LINE
  5
1E7
  8
DATA
  6
CONTINUOUS
 62
     7
 10
-354.5
 20
15.0
 30
0.0
 11
-354.5
 21
-285.99999999999989
 31
0.0
  0
LINE
  5
1E8
  8
DATA
  6
CONTINUOUS
 62
     7
 10
77.5
 20
15.0
 30
0.0
 11
77.5
 21
-285.99999999999989
 31
0.0
  0
LINE
  5
1E9
  8
DATA
  6
CONTINUOUS
 62
     7
 10
56.625
 20
-295.0
 30
0.0
 11
65.375
 21
-295.0
 31
0.0
  0
LINE
  5
1EA
  8
DATA
  6
CONTINUOUS
 62
     7
 10
44.110000000000021
 20
-293.0
 30
0.0
 11
54.100000000000009
 21
-293.0
 31
0.0
  0
LINE
  5
1EB
  8
DATA
  6
CONTINUOUS
 62
     7
 10
56.625
 20
-295.0
 30
0.0
 11
56.625
 21
-290.0
 31
0.0
  0
LINE
  5
1EC
  8
DATA
  6
CONTINUOUS
 62
     7
 10
65.375
 20
-295.0
 30
0.0
 11
65.375
 21
-290.0
 31
0.0
  0
LINE
  5
1ED
  8
DATA
  6
CONTINUOUS
 62
     7
 10
54.100000000000009
 20
-293.0
 30
0.0
 11
54.100000000000009
 21
-290.0
 31
0.0
  0
LINE
  5
1EE
  8
DATA
  6
CONTINUOUS
 62
     7
 10
44.110000000000021
 20
-293.0
 30
0.0
 11
44.110000000000021
 21
-290.0
 31
0.0
  0
LINE
  5
1EF
  8
DATA
  6
CONTINUOUS
 62
     7
 10
-193.5
 20
-306.0
 30
0.0
 11
-174.5
 21
-306.0
 31
0.0
  0
LINE
  5
1F0
  8
DATA
  6
CONTINUOUS
 62
     7
 10
-154.5
 20
-306.0
 30
0.0
 11
-135.5
 21
-306.0
 31
0.0
  0
LINE
  5
1F1
  8
DATA
  6
CONTINUOUS
 62
     7
 10
-193.5
 20
-306.0
 30
0.0
 11
-194.5
 21
-290.0
 31
0.0
  0
LINE
  5
1F2
  8
DATA
  6
CONTINUOUS
 62
     7
 10
-174.5
 20
-306.0
 30
0.0
 11
-173.5
 21
-290.0
 31
0.0
  0
LINE
  5
1F3
  8
DATA
  6
CONTINUOUS
 62
     7
 10
-154.5
 20
-306.0
 30
0.0
 11
-155.5
 21
-290.0
 31
0.0
  0
LINE
  5
1F4
  8
DATA
  6
CONTINUOUS
 62
     7
 10
-135.5
 20
-306.0
 30
0.0
 11
-134.5
 21
-290.0
 31
0.0
  0
LINE
  5
1F5
  8
DATA
  6
CONTINUOUS
 62
     7
 10
-312.94190175672247
 20
-302.5
 30
0.0
 11
-299.0
 21
-302.5
 31
0.0
  0
LINE
  5
1F6
  8
DATA
  6
CONTINUOUS
 62
     7
 10
-312.94190175672247
 20
-302.5
 30
0.0
 11
-313.625
 21
-290.0
 31
0.0
  0
LINE
  5
1F7
  8
DATA
  6
CONTINUOUS
 62
     7
 10
-299.0
 20
-302.5
 30
0.0
 11
-298.375
 21
-290.0
 31
0.0
  0
LINE
  5
1F8
  8
DATA
  6
CONTINUOUS
 62
     7
 10
-344.87700311548548
 20
-292.5
 30
0.0
 11
-348.12289618027671
 21
-292.5
 31
0.0
  0
POLYLINE
  5
1F9
  8
DATA
  6
CONTINUOUS
 62
     7
 66
     1
 10
0.0
 20
0.0
 30
0.0
 70
   128
  0
VERTEX
  5
C8B
  8
DATA
  6
CONTINUOUS
 62
     7
 10
-350.41500000000002
 20
-290.0
 30
0.0
  0
VERTEX
  5
C8C
  8
DATA
  6
CONTINUOUS
 62
     7
 10
-350.37918667738961
 20
-290.05497721473358
 30
0.0
  0
VERTEX
  5
C8D
  8
DATA
  6
CONTINUOUS
 62
     7
 10
-350.3433733547792
 20
-290.1094492024796
 30
0.0
  0
VERTEX
  5
C8E
  8
DATA
  6
CONTINUOUS
 62
     7
 10
-350.30756003216868
 20
-290.16341596323809
 30
0.0
  0
VERTEX
  5
C8F
  8
DATA
  6
CONTINUOUS
 62
     7
 10
-350.27174670955827
 20
-290.21687749700919
 30
0.0
  0
VERTEX
  5
C90
  8
DATA
  6
CONTINUOUS
 62
     7
 10
-350.23593338694781
 20
-290.26983380379278
 30
0.0
  0
VERTEX
  5
C91
  8
DATA
  6
CONTINUOUS
 62
     7
 10
-350.20012006433723
 20
-290.32228488358891
 30
0.0
  0
VERTEX
  5
C92
  8
DATA
  6
CONTINUOUS
 62
     7
 10
-350.16430674172682
 20
-290.37423073639741
 30
0.0
  0
VERTEX
  5
C93
  8
DATA
  6
CONTINUOUS
 62
     7
 10
-350.12849341911641
 20
-290.42567136221851
 30
0.0
  0
VERTEX
  5
C94
  8
DATA
  6
CONTINUOUS
 62
     7
 10
-350.09268009650589
 20
-290.47660676105221
 30
0.0
  0
VERTEX
  5
C95
  8
DATA
  6
CONTINUOUS
 62
     7
 10
-350.05686677389542
 20
-290.52703693289823
 30
0.0
  0
VERTEX
  5
C96
  8
DATA
  6
CONTINUOUS
 62
     7
 10
-350.02105345128501
 20
-290.57696187775679
 30
0.0
  0
VERTEX
  5
C97
  8
DATA
  6
CONTINUOUS
 62
     7
 10
-349.98524012867449
 20
-290.626381595628
 30
0.0
  0
VERTEX
  5
C98
  8
DATA
  6
CONTINUOUS
 62
     7
 10
-349.94942680606408
 20
-290.67529608651159
 30
0.0
  0
VERTEX
  5
C99
  8
DATA
  6
CONTINUOUS
 62
     7
 10
-349.91361348345362
 20
-290.72370535040778
 30
0.0
  0
VERTEX
  5
C9A
  8
DATA
  6
CONTINUOUS
 62
     7
 10
-349.87780016084298
 20
-290.77160938731652
 30
0.0
  0
VERTEX
  5
C9B
  8
DATA
  6
CONTINUOUS
 62
     7
 10
-349.84198683823257
 20
-290.81900819723768
 30
0.0
  0
VERTEX
  5
C9C
  8
DATA
  6
CONTINUOUS
 62
     7
 10
-349.80617351562211
 20
-290.86590178017138
 30
0.0
  0
VERTEX
  5
C9D
  8
DATA
  6
CONTINUOUS
 62
     7
 10
-349.7703601930117
 20
-290.91229013611758
 30
0.0
  0
VERTEX
  5
C9E
  8
DATA
  6
CONTINUOUS
 62
     7
 10
-349.73454687040118
 20
-290.9581732650762
 30
0.0
  0
VERTEX
  5
C9F
  8
DATA
  6
CONTINUOUS
 62
     7
 10
-349.69873354779082
 20
-291.00355116704748
 30
0.0
  0
VERTEX
  5
CA0
  8
DATA
  6
CONTINUOUS
 62
     7
 10
-349.6629202251803
 20
-291.04842384203118
 30
0.0
  0
VERTEX
  5
CA1
  8
DATA
  6
CONTINUOUS
 62
     7
 10
-349.62710690256989
 20
-291.09279129002749
 30
0.0
  0
VERTEX
  5
CA2
  8
DATA
  6
CONTINUOUS
 62
     7
 10
-349.59129357995943
 20
-291.13665351103629
 30
0.0
  0
VERTEX
  5
CA3
  8
DATA
  6
CONTINUOUS
 62
     7
 10
-349.55548025734879
 20
-291.1800105050574
 30
0.0
  0
VERTEX
  5
CA4
  8
DATA
  6
CONTINUOUS
 62
     7
 10
-349.5196669347385
 20
-291.22286227209111
 30
0.0
  0
VERTEX
  5
CA5
  8
DATA
  6
CONTINUOUS
 62
     7
 10
-349.48385361212797
 20
-291.26520881213759
 30
0.0
  0
VERTEX
  5
CA6
  8
DATA
  6
CONTINUOUS
 62
     7
 10
-349.44804028951751
 20
-291.30705012519638
 30
0.0
  0
VERTEX
  5
CA7
  8
DATA
  6
CONTINUOUS
 62
     7
 10
-349.4122269669071
 20
-291.34838621126761
 30
0.0
  0
VERTEX
  5
CA8
  8
DATA
  6
CONTINUOUS
 62
     7
 10
-349.37641364429658
 20
-291.38921707035138
 30
0.0
  0
VERTEX
  5
CA9
  8
DATA
  6
CONTINUOUS
 62
     7
 10
-349.34060032168611
 20
-291.4295427024478
 30
0.0
  0
VERTEX
  5
CAA
  8
DATA
  6
CONTINUOUS
 62
     7
 10
-349.3047869990757
 20
-291.46936310755649
 30
0.0
  0
VERTEX
  5
CAB
  8
DATA
  6
CONTINUOUS
 62
     7
 10
-349.26897367646512
 20
-291.50867828567789
 30
0.0
  0
VERTEX
  5
CAC
  8
DATA
  6
CONTINUOUS
 62
     7
 10
-349.2331603538546
 20
-291.5474882368116
 30
0.0
  0
VERTEX
  5
CAD
  8
DATA
  6
CONTINUOUS
 62
     7
 10
-349.19734703124408
 20
-291.58579296095809
 30
0.0
  0
VERTEX
  5
CAE
  8
DATA
  6
CONTINUOUS
 62
     7
 10
-349.16153370863373
 20
-291.62359245811689
 30
0.0
  0
VERTEX
  5
CAF
  8
DATA
  6
CONTINUOUS
 62
     7
 10
-349.1257203860232
 20
-291.6608867282884
 30
0.0
  0
VERTEX
  5
CB0
  8
DATA
  6
CONTINUOUS
 62
     7
 10
-349.0899070634128
 20
-291.69767577147218
 30
0.0
  0
VERTEX
  5
CB1
  8
DATA
  6
CONTINUOUS
 62
     7
 10
-349.05409374080222
 20
-291.73395958766861
 30
0.0
  0
VERTEX
  5
CB2
  8
DATA
  6
CONTINUOUS
 62
     7
 10
-349.01828041819181
 20
-291.76973817687752
 30
0.0
  0
VERTEX
  5
CB3
  8
DATA
  6
CONTINUOUS
 62
     7
 10
-348.98246709558128
 20
-291.80501153909893
 30
0.0
  0
VERTEX
  5
CB4
  8
DATA
  6
CONTINUOUS
 62
     7
 10
-348.94665377297088
 20
-291.83977967433287
 30
0.0
  0
VERTEX
  5
CB5
  8
DATA
  6
CONTINUOUS
 62
     7
 10
-348.91084045036041
 20
-291.87404258257919
 30
0.0
  0
VERTEX
  5
CB6
  8
DATA
  6
CONTINUOUS
 62
     7
 10
-348.87502712775
 20
-291.90780026383823
 30
0.0
  0
VERTEX
  5
CB7
  8
DATA
  6
CONTINUOUS
 62
     7
 10
-348.83921380513948
 20
-291.94105271810969
 30
0.0
  0
VERTEX
  5
CB8
  8
DATA
  6
CONTINUOUS
 62
     7
 10
-348.80340048252901
 20
-291.97379994539358
 30
0.0
  0
VERTEX
  5
CB9
  8
DATA
  6
CONTINUOUS
 62
     7
 10
-348.76758715991849
 20
-292.00604194569019
 30
0.0
  0
VERTEX
  5
CBA
  8
DATA
  6
CONTINUOUS
 62
     7
 10
-348.73177383730803
 20
-292.03777871899911
 30
0.0
  0
VERTEX
  5
CBB
  8
DATA
  6
CONTINUOUS
 62
     7
 10
-348.69596051469767
 20
-292.06901026532063
 30
0.0
  0
VERTEX
  5
CBC
  8
DATA
  6
CONTINUOUS
 62
     7
 10
-348.66014719208709
 20
-292.09973658465458
 30
0.0
  0
VERTEX
  5
CBD
  8
DATA
  6
CONTINUOUS
 62
     7
 10
-348.62433386947669
 20
-292.12995767700119
 30
0.0
  0
VERTEX
  5
CBE
  8
DATA
  6
CONTINUOUS
 62
     7
 10
-348.58852054686622
 20
-292.15967354236028
 30
0.0
  0
VERTEX
  5
CBF
  8
DATA
  6
CONTINUOUS
 62
     7
 10
-348.5527072242557
 20
-292.1888841807318
 30
0.0
  0
VERTEX
  5
CC0
  8
DATA
  6
CONTINUOUS
 62
     7
 10
-348.51689390164529
 20
-292.2175895921157
 30
0.0
  0
VERTEX
  5
CC1
  8
DATA
  6
CONTINUOUS
 62
     7
 10
-348.48108057903482
 20
-292.24578977651231
 30
0.0
  0
VERTEX
  5
CC2
  8
DATA
  6
CONTINUOUS
 62
     7
 10
-348.44526725642442
 20
-292.27348473392129
 30
0.0
  0
VERTEX
  5
CC3
  8
DATA
  6
CONTINUOUS
 62
     7
 10
-348.40945393381378
 20
-292.30067446434299
 30
0.0
  0
VERTEX
  5
CC4
  8
DATA
  6
CONTINUOUS
 62
     7
 10
-348.37364061120348
 20
-292.327358967777
 30
0.0
  0
VERTEX
  5
CC5
  8
DATA
  6
CONTINUOUS
 62
     7
 10
-348.33782728859291
 20
-292.35353824422361
 30
0.0
  0
VERTEX
  5
CC6
  8
DATA
  6
CONTINUOUS
 62
     7
 10
-348.3020139659825
 20
-292.37921229368271
 30
0.0
  0
VERTEX
  5
CC7
  8
DATA
  6
CONTINUOUS
 62
     7
 10
-348.26620064337209
 20
-292.4043811161543
 30
0.0
  0
VERTEX
  5
CC8
  8
DATA
  6
CONTINUOUS
 62
     7
 10
-348.23038732076162
 20
-292.42904471163848
 30
0.0
  0
VERTEX
  5
CC9
  8
DATA
  6
CONTINUOUS
 62
     7
 10
-348.1945739981511
 20
-292.4532030801351
 30
0.0
  0
VERTEX
  5
CCA
  8
DATA
  6
CONTINUOUS
 62
     7
 10
-348.15876067554069
 20
-292.4768562216442
 30
0.0
  0
VERTEX
  5
CCB
  8
DATA
  6
CONTINUOUS
 62
     7
 10
-348.12294735293011
 20
-292.5000041361659
 30
0.0
  0
VERTEX
  5
CCC
  8
DATA
  6
CONTINUOUS
 62
     7
 10
-348.12294735293011
 20
-292.5000041361659
 30
0.0
  0
SEQEND
  5
CCD
  8
DATA
  6
CONTINUOUS
 62
     7
  0
POLYLINE
  5
23D
  8
DATA
  6
CONTINUOUS
 62
     7
 66
     1
 10
0.0
 20
0.0
 30
0.0
 70
   128
  0
VERTEX
  5
CCE
  8
DATA
  6
CONTINUOUS
 62
     7
 10
-344.87704703509019
 20
-292.50000054844571
 30
0.0
  0
VERTEX
  5
CCF
  8
DATA
  6
CONTINUOUS
 62
     7
 10
-344.841233800167
 20
-292.4768526120497
 30
0.0
  0
VERTEX
  5
CD0
  8
DATA
  6
CONTINUOUS
 62
     7
 10
-344.80542056524371
 20
-292.45319945114039
 30
0.0
  0
VERTEX
  5
CD1
  8
DATA
  6
CONTINUOUS
 62
     7
 10
-344.76960733032041
 20
-292.42904106571763
 30
0.0
  0
VERTEX
  5
CD2
  8
DATA
  6
CONTINUOUS
 62
     7
 10
-344.73379409539712
 20
-292.40437745578117
 30
0.0
  0
VERTEX
  5
CD3
  8
DATA
  6
CONTINUOUS
 62
     7
 10
-344.69798086047382
 20
-292.37920862133149
 30
0.0
  0
VERTEX
  5
CD4
  8
DATA
  6
CONTINUOUS
 62
     7
 10
-344.66216762555052
 20
-292.3535345623684
 30
0.0
  0
VERTEX
  5
CD5
  8
DATA
  6
CONTINUOUS
 62
     7
 10
-344.62635439062723
 20
-292.32735527889167
 30
0.0
  0
VERTEX
  5
CD6
  8
DATA
  6
CONTINUOUS
 62
     7
 10
-344.59054115570399
 20
-292.30067077090172
 30
0.0
  0
VERTEX
  5
CD7
  8
DATA
  6
CONTINUOUS
 62
     7
 10
-344.55472792078069
 20
-292.27348103839819
 30
0.0
  0
VERTEX
  5
CD8
  8
DATA
  6
CONTINUOUS
 62
     7
 10
-344.51891468585728
 20
-292.24578608138142
 30
0.0
  0
VERTEX
  5
CD9
  8
DATA
  6
CONTINUOUS
 62
     7
 10
-344.4831014509341
 20
-292.21758589985109
 30
0.0
  0
VERTEX
  5
CDA
  8
DATA
  6
CONTINUOUS
 62
     7
 10
-344.4472882160108
 20
-292.18888049380718
 30
0.0
  0
VERTEX
  5
CDB
  8
DATA
  6
CONTINUOUS
 62
     7
 10
-344.41147498108751
 20
-292.1596698632498
 30
0.0
  0
VERTEX
  5
CDC
  8
DATA
  6
CONTINUOUS
 62
     7
 10
-344.37566174616433
 20
-292.1299540081792
 30
0.0
  0
VERTEX
  5
CDD
  8
DATA
  6
CONTINUOUS
 62
     7
 10
-344.33984851124092
 20
-292.09973292859507
 30
0.0
  0
VERTEX
  5
CDE
  8
DATA
  6
CONTINUOUS
 62
     7
 10
-344.30403527631768
 20
-292.06900662449738
 30
0.0
  0
VERTEX
  5
CDF
  8
DATA
  6
CONTINUOUS
 62
     7
 10
-344.26822204139432
 20
-292.03777509588639
 30
0.0
  0
VERTEX
  5
CE0
  8
DATA
  6
CONTINUOUS
 62
     7
 10
-344.23240880647108
 20
-292.00603834276188
 30
0.0
  0
VERTEX
  5
CE1
  8
DATA
  6
CONTINUOUS
 62
     7
 10
-344.19659557154779
 20
-291.97379636512392
 30
0.0
  0
VERTEX
  5
CE2
  8
DATA
  6
CONTINUOUS
 62
     7
 10
-344.16078233662461
 20
-291.94104916297249
 30
0.0
  0
VERTEX
  5
CE3
  8
DATA
  6
CONTINUOUS
 62
     7
 10
-344.1249691017012
 20
-291.9077967363076
 30
0.0
  0
VERTEX
  5
CE4
  8
DATA
  6
CONTINUOUS
 62
     7
 10
-344.08915586677801
 20
-291.87403908512943
 30
0.0
  0
VERTEX
  5
CE5
  8
DATA
  6
CONTINUOUS
 62
     7
 10
-344.05334263185478
 20
-291.83977620943767
 30
0.0
  0
VERTEX
  5
CE6
  8
DATA
  6
CONTINUOUS
 62
     7
 10
-344.01752939693148
 20
-291.8050081092324
 30
0.0
  0
VERTEX
  5
CE7
  8
DATA
  6
CONTINUOUS
 62
     7
 10
-343.98171616200813
 20
-291.76973478451379
 30
0.0
  0
VERTEX
  5
CE8
  8
DATA
  6
CONTINUOUS
 62
     7
 10
-343.94590292708477
 20
-291.73395623528182
 30
0.0
  0
VERTEX
  5
CE9
  8
DATA
  6
CONTINUOUS
 62
     7
 10
-343.91008969216148
 20
-291.69767246153629
 30
0.0
  0
VERTEX
  5
CEA
  8
DATA
  6
CONTINUOUS
 62
     7
 10
-343.87427645723818
 20
-291.6608834632774
 30
0.0
  0
VERTEX
  5
CEB
  8
DATA
  6
CONTINUOUS
 62
     7
 10
-343.83846322231489
 20
-291.623589240505
 30
0.0
  0
VERTEX
  5
CEC
  8
DATA
  6
CONTINUOUS
 62
     7
 10
-343.8026499873917
 20
-291.58578979321919
 30
0.0
  0
VERTEX
  5
CED
  8
DATA
  6
CONTINUOUS
 62
     7
 10
-343.76683675246829
 20
-291.54748512141992
 30
0.0
  0
VERTEX
  5
CEE
  8
DATA
  6
CONTINUOUS
 62
     7
 10
-343.73102351754511
 20
-291.5086752251072
 30
0.0
  0
VERTEX
  5
CEF
  8
DATA
  6
CONTINUOUS
 62
     7
 10
-343.69521028262182
 20
-291.4693601042809
 30
0.0
  0
VERTEX
  5
CF0
  8
DATA
  6
CONTINUOUS
 62
     7
 10
-343.65939704769858
 20
-291.4295397589413
 30
0.0
  0
VERTEX
  5
CF1
  8
DATA
  6
CONTINUOUS
 62
     7
 10
-343.62358381277528
 20
-291.38921418908819
 30
0.0
  0
VERTEX
  5
CF2
  8
DATA
  6
CONTINUOUS
 62
     7
 10
-343.58777057785198
 20
-291.34838339472168
 30
0.0
  0
VERTEX
  5
CF3
  8
DATA
  6
CONTINUOUS
 62
     7
 10
-343.55195734292869
 20
-291.30704737584182
 30
0.0
  0
VERTEX
  5
CF4
  8
DATA
  6
CONTINUOUS
 62
     7
 10
-343.51614410800539
 20
-291.26520613244838
 30
0.0
  0
VERTEX
  5
CF5
  8
DATA
  6
CONTINUOUS
 62
     7
 10
-343.4803308730821
 20
-291.22285966454149
 30
0.0
  0
VERTEX
  5
CF6
  8
DATA
  6
CONTINUOUS
 62
     7
 10
-343.4445176381588
 20
-291.18000797212119
 30
0.0
  0
VERTEX
  5
CF7
  8
DATA
  6
CONTINUOUS
 62
     7
 10
-343.4087044032355
 20
-291.13665105518737
 30
0.0
  0
VERTEX
  5
CF8
  8
DATA
  6
CONTINUOUS
 62
     7
 10
-343.37289116831221
 20
-291.09278891374021
 30
0.0
  0
VERTEX
  5
CF9
  8
DATA
  6
CONTINUOUS
 62
     7
 10
-343.33707793338891
 20
-291.04842154777958
 30
0.0
  0
VERTEX
  5
CFA
  8
DATA
  6
CONTINUOUS
 62
     7
 10
-343.30126469846567
 20
-291.0035489573055
 30
0.0
  0
VERTEX
  5
CFB
  8
DATA
  6
CONTINUOUS
 62
     7
 10
-343.26545146354238
 20
-290.95817114231801
 30
0.0
  0
VERTEX
  5
CFC
  8
DATA
  6
CONTINUOUS
 62
     7
 10
-343.22963822861919
 20
-290.912288102817
 30
0.0
  0
VERTEX
  5
CFD
  8
DATA
  6
CONTINUOUS
 62
     7
 10
-343.19382499369578
 20
-290.86589983880248
 30
0.0
  0
VERTEX
  5
CFE
  8
DATA
  6
CONTINUOUS
 62
     7
 10
-343.15801175877249
 20
-290.81900635027461
 30
0.0
  0
VERTEX
  5
CFF
  8
DATA
  6
CONTINUOUS
 62
     7
 10
-343.12219852384919
 20
-290.77160763723327
 30
0.0
  0
VERTEX
  5
D00
  8
DATA
  6
CONTINUOUS
 62
     7
 10
-343.08638528892601
 20
-290.72370369967848
 30
0.0
  0
VERTEX
  5
D01
  8
DATA
  6
CONTINUOUS
 62
     7
 10
-343.05057205400283
 20
-290.67529453761023
 30
0.0
  0
VERTEX
  5
D02
  8
DATA
  6
CONTINUOUS
 62
     7
 10
-343.01475881907942
 20
-290.62638015102868
 30
0.0
  0
VERTEX
  5
D03
  8
DATA
  6
CONTINUOUS
 62
     7
 10
-342.97894558415612
 20
-290.57696053993362
 30
0.0
  0
VERTEX
  5
D04
  8
DATA
  6
CONTINUOUS
 62
     7
 10
-342.94313234923288
 20
-290.52703570432499
 30
0.0
  0
VERTEX
  5
D05
  8
DATA
  6
CONTINUOUS
 62
     7
 10
-342.9073191143097
 20
-290.476605644203
 30
0.0
  0
VERTEX
  5
D06
  8
DATA
  6
CONTINUOUS
 62
     7
 10
-342.87150587938629
 20
-290.42567035956762
 30
0.0
  0
VERTEX
  5
D07
  8
DATA
  6
CONTINUOUS
 62
     7
 10
-342.83569264446288
 20
-290.37422985041871
 30
0.0
  0
VERTEX
  5
D08
  8
DATA
  6
CONTINUOUS
 62
     7
 10
-342.7998794095397
 20
-290.32228411675629
 30
0.0
  0
VERTEX
  5
D09
  8
DATA
  6
CONTINUOUS
 62
     7
 10
-342.7640661746164
 20
-290.26983315858052
 30
0.0
  0
VERTEX
  5
D0A
  8
DATA
  6
CONTINUOUS
 62
     7
 10
-342.72825293969311
 20
-290.2168769758913
 30
0.0
  0
VERTEX
  5
D0B
  8
DATA
  6
CONTINUOUS
 62
     7
 10
-342.69243970476981
 20
-290.16341556868861
 30
0.0
  0
VERTEX
  5
D0C
  8
DATA
  6
CONTINUOUS
 62
     7
 10
-342.65662646984651
 20
-290.10944893697251
 30
0.0
  0
VERTEX
  5
D0D
  8
DATA
  6
CONTINUOUS
 62
     7
 10
-342.62081323492328
 20
-290.05497708074301
 30
0.0
  0
VERTEX
  5
D0E
  8
DATA
  6
CONTINUOUS
 62
     7
 10
-342.58499999999998
 20
-290.0
 30
0.0
  0
VERTEX
  5
D0F
  8
DATA
  6
CONTINUOUS
 62
     7
 10
-342.58499999999998
 20
-290.0
 30
0.0
  0
SEQEND
  5
D10
  8
DATA
  6
CONTINUOUS
 62
     7
  0
LINE
  5
281
  8
DATA
  6
CONTINUOUS
 62
     7
 10
71.122996884514563
 20
-292.5
 30
0.0
 11
67.877103819723288
 21
-292.5
 31
0.0
  0
POLYLINE
  5
282
  8
DATA
  6
CONTINUOUS
 62
     7
 66
     1
 10
0.0
 20
0.0
 30
0.0
 70
   128
  0
VERTEX
  5
D11
  8
DATA
  6
CONTINUOUS
 62
     7
 10
65.58499999999998
 20
-290.0
 30
0.0
  0
VERTEX
  5
D12
  8
DATA
  6
CONTINUOUS
 62
     7
 10
65.620813322610459
 20
-290.05497721473358
 30
0.0
  0
VERTEX
  5
D13
  8
DATA
  6
CONTINUOUS
 62
     7
 10
65.656626645220911
 20
-290.1094492024796
 30
0.0
  0
VERTEX
  5
D14
  8
DATA
  6
CONTINUOUS
 62
     7
 10
65.692439967831376
 20
-290.16341596323809
 30
0.0
  0
VERTEX
  5
D15
  8
DATA
  6
CONTINUOUS
 62
     7
 10
65.728253290441842
 20
-290.21687749700919
 30
0.0
  0
VERTEX
  5
D16
  8
DATA
  6
CONTINUOUS
 62
     7
 10
65.764066613052307
 20
-290.26983380379278
 30
0.0
  0
VERTEX
  5
D17
  8
DATA
  6
CONTINUOUS
 62
     7
 10
65.799879935662773
 20
-290.32228488358891
 30
0.0
  0
VERTEX
  5
D18
  8
DATA
  6
CONTINUOUS
 62
     7
 10
65.835693258273238
 20
-290.37423073639741
 30
0.0
  0
VERTEX
  5
D19
  8
DATA
  6
CONTINUOUS
 62
     7
 10
65.871506580883704
 20
-290.42567136221851
 30
0.0
  0
VERTEX
  5
D1A
  8
DATA
  6
CONTINUOUS
 62
     7
 10
65.907319903494169
 20
-290.47660676105221
 30
0.0
  0
VERTEX
  5
D1B
  8
DATA
  6
CONTINUOUS
 62
     7
 10
65.943133226104635
 20
-290.52703693289823
 30
0.0
  0
VERTEX
  5
D1C
  8
DATA
  6
CONTINUOUS
 62
     7
 10
65.978946548715101
 20
-290.57696187775679
 30
0.0
  0
VERTEX
  5
D1D
  8
DATA
  6
CONTINUOUS
 62
     7
 10
66.014759871325566
 20
-290.626381595628
 30
0.0
  0
VERTEX
  5
D1E
  8
DATA
  6
CONTINUOUS
 62
     7
 10
66.050573193936032
 20
-290.67529608651159
 30
0.0
  0
VERTEX
  5
D1F
  8
DATA
  6
CONTINUOUS
 62
     7
 10
66.086386516546497
 20
-290.72370535040778
 30
0.0
  0
VERTEX
  5
D20
  8
DATA
  6
CONTINUOUS
 62
     7
 10
66.122199839156963
 20
-290.77160938731652
 30
0.0
  0
VERTEX
  5
D21
  8
DATA
  6
CONTINUOUS
 62
     7
 10
66.1580131617674
 20
-290.81900819723768
 30
0.0
  0
VERTEX
  5
D22
  8
DATA
  6
CONTINUOUS
 62
     7
 10
66.193826484377894
 20
-290.86590178017138
 30
0.0
  0
VERTEX
  5
D23
  8
DATA
  6
CONTINUOUS
 62
     7
 10
66.229639806988359
 20
-290.91229013611758
 30
0.0
  0
VERTEX
  5
D24
  8
DATA
  6
CONTINUOUS
 62
     7
 10
66.265453129598811
 20
-290.9581732650762
 30
0.0
  0
VERTEX
  5
D25
  8
DATA
  6
CONTINUOUS
 62
     7
 10
66.30126645220929
 20
-291.00355116704748
 30
0.0
  0
VERTEX
  5
D26
  8
DATA
  6
CONTINUOUS
 62
     7
 10
66.337079774819756
 20
-291.04842384203118
 30
0.0
  0
VERTEX
  5
D27
  8
DATA
  6
CONTINUOUS
 62
     7
 10
66.372893097430222
 20
-291.09279129002749
 30
0.0
  0
VERTEX
  5
D28
  8
DATA
  6
CONTINUOUS
 62
     7
 10
66.408706420040687
 20
-291.13665351103629
 30
0.0
  0
VERTEX
  5
D29
  8
DATA
  6
CONTINUOUS
 62
     7
 10
66.444519742651153
 20
-291.1800105050574
 30
0.0
  0
VERTEX
  5
D2A
  8
DATA
  6
CONTINUOUS
 62
     7
 10
66.480333065261618
 20
-291.22286227209111
 30
0.0
  0
VERTEX
  5
D2B
  8
DATA
  6
CONTINUOUS
 62
     7
 10
66.51614638787207
 20
-291.26520881213759
 30
0.0
  0
VERTEX
  5
D2C
  8
DATA
  6
CONTINUOUS
 62
     7
 10
66.551959710482549
 20
-291.30705012519638
 30
0.0
  0
VERTEX
  5
D2D
  8
DATA
  6
CONTINUOUS
 62
     7
 10
66.587773033093029
 20
-291.34838621126761
 30
0.0
  0
VERTEX
  5
D2E
  8
DATA
  6
CONTINUOUS
 62
     7
 10
66.62358635570348
 20
-291.38921707035138
 30
0.0
  0
VERTEX
  5
D2F
  8
DATA
  6
CONTINUOUS
 62
     7
 10
66.659399678313946
 20
-291.4295427024478
 30
0.0
  0
VERTEX
  5
D30
  8
DATA
  6
CONTINUOUS
 62
     7
 10
66.695213000924412
 20
-291.46936310755649
 30
0.0
  0
VERTEX
  5
D31
  8
DATA
  6
CONTINUOUS
 62
     7
 10
66.731026323534877
 20
-291.50867828567789
 30
0.0
  0
VERTEX
  5
D32
  8
DATA
  6
CONTINUOUS
 62
     7
 10
66.766839646145343
 20
-291.5474882368116
 30
0.0
  0
VERTEX
  5
D33
  8
DATA
  6
CONTINUOUS
 62
     7
 10
66.802652968755808
 20
-291.58579296095809
 30
0.0
  0
VERTEX
  5
D34
  8
DATA
  6
CONTINUOUS
 62
     7
 10
66.838466291366274
 20
-291.62359245811689
 30
0.0
  0
VERTEX
  5
D35
  8
DATA
  6
CONTINUOUS
 62
     7
 10
66.874279613976725
 20
-291.6608867282884
 30
0.0
  0
VERTEX
  5
D36
  8
DATA
  6
CONTINUOUS
 62
     7
 10
66.910092936587205
 20
-291.69767577147218
 30
0.0
  0
VERTEX
  5
D37
  8
DATA
  6
CONTINUOUS
 62
     7
 10
66.94590625919767
 20
-291.73395958766861
 30
0.0
  0
VERTEX
  5
D38
  8
DATA
  6
CONTINUOUS
 62
     7
 10
66.981719581808136
 20
-291.76973817687752
 30
0.0
  0
VERTEX
  5
D39
  8
DATA
  6
CONTINUOUS
 62
     7
 10
67.017532904418616
 20
-291.80501153909893
 30
0.0
  0
VERTEX
  5
D3A
  8
DATA
  6
CONTINUOUS
 62
     7
 10
67.05334622702911
 20
-291.83977967433287
 30
0.0
  0
VERTEX
  5
D3B
  8
DATA
  6
CONTINUOUS
 62
     7
 10
67.089159549639561
 20
-291.87404258257919
 30
0.0
  0
VERTEX
  5
D3C
  8
DATA
  6
CONTINUOUS
 62
     7
 10
67.124972872250027
 20
-291.90780026383823
 30
0.0
  0
VERTEX
  5
D3D
  8
DATA
  6
CONTINUOUS
 62
     7
 10
67.160786194860492
 20
-291.94105271810969
 30
0.0
  0
VERTEX
  5
D3E
  8
DATA
  6
CONTINUOUS
 62
     7
 10
67.196599517470958
 20
-291.97379994539358
 30
0.0
  0
VERTEX
  5
D3F
  8
DATA
  6
CONTINUOUS
 62
     7
 10
67.232412840081423
 20
-292.00604194569019
 30
0.0
  0
VERTEX
  5
D40
  8
DATA
  6
CONTINUOUS
 62
     7
 10
67.268226162691874
 20
-292.03777871899911
 30
0.0
  0
VERTEX
  5
D41
  8
DATA
  6
CONTINUOUS
 62
     7
 10
67.304039485302368
 20
-292.06901026532063
 30
0.0
  0
VERTEX
  5
D42
  8
DATA
  6
CONTINUOUS
 62
     7
 10
67.339852807912834
 20
-292.09973658465458
 30
0.0
  0
VERTEX
  5
D43
  8
DATA
  6
CONTINUOUS
 62
     7
 10
67.375666130523314
 20
-292.12995767700119
 30
0.0
  0
VERTEX
  5
D44
  8
DATA
  6
CONTINUOUS
 62
     7
 10
67.411479453133779
 20
-292.15967354236028
 30
0.0
  0
VERTEX
  5
D45
  8
DATA
  6
CONTINUOUS
 62
     7
 10
67.447292775744245
 20
-292.1888841807318
 30
0.0
  0
VERTEX
  5
D46
  8
DATA
  6
CONTINUOUS
 62
     7
 10
67.48310609835471
 20
-292.2175895921157
 30
0.0
  0
VERTEX
  5
D47
  8
DATA
  6
CONTINUOUS
 62
     7
 10
67.518919420965176
 20
-292.24578977651231
 30
0.0
  0
VERTEX
  5
D48
  8
DATA
  6
CONTINUOUS
 62
     7
 10
67.554732743575642
 20
-292.27348473392129
 30
0.0
  0
VERTEX
  5
D49
  8
DATA
  6
CONTINUOUS
 62
     7
 10
67.590546066186107
 20
-292.30067446434299
 30
0.0
  0
VERTEX
  5
D4A
  8
DATA
  6
CONTINUOUS
 62
     7
 10
67.626359388796601
 20
-292.327358967777
 30
0.0
  0
VERTEX
  5
D4B
  8
DATA
  6
CONTINUOUS
 62
     7
 10
67.662172711407067
 20
-292.35353824422361
 30
0.0
  0
VERTEX
  5
D4C
  8
DATA
  6
CONTINUOUS
 62
     7
 10
67.697986034017532
 20
-292.37921229368271
 30
0.0
  0
VERTEX
  5
D4D
  8
DATA
  6
CONTINUOUS
 62
     7
 10
67.733799356627983
 20
-292.4043811161543
 30
0.0
  0
VERTEX
  5
D4E
  8
DATA
  6
CONTINUOUS
 62
     7
 10
67.769612679238463
 20
-292.42904471163848
 30
0.0
  0
VERTEX
  5
D4F
  8
DATA
  6
CONTINUOUS
 62
     7
 10
67.805426001848943
 20
-292.4532030801351
 30
0.0
  0
VERTEX
  5
D50
  8
DATA
  6
CONTINUOUS
 62
     7
 10
67.841239324459423
 20
-292.4768562216442
 30
0.0
  0
VERTEX
  5
D51
  8
DATA
  6
CONTINUOUS
 62
     7
 10
67.877052647069888
 20
-292.5000041361659
 30
0.0
  0
VERTEX
  5
D52
  8
DATA
  6
CONTINUOUS
 62
     7
 10
67.877052647069888
 20
-292.5000041361659
 30
0.0
  0
SEQEND
  5
D53
  8
DATA
  6
CONTINUOUS
 62
     7
  0
POLYLINE
  5
2C6
  8
DATA
  6
CONTINUOUS
 62
     7
 66
     1
 10
0.0
 20
0.0
 30
0.0
 70
   128
  0
VERTEX
  5
D54
  8
DATA
  6
CONTINUOUS
 62
     7
 10
71.122952964909757
 20
-292.50000054844571
 30
0.0
  0
VERTEX
  5
D55
  8
DATA
  6
CONTINUOUS
 62
     7
 10
71.158766199833053
 20
-292.4768526120497
 30
0.0
  0
VERTEX
  5
D56
  8
DATA
  6
CONTINUOUS
 62
     7
 10
71.194579434756321
 20
-292.45319945114039
 30
0.0
  0
VERTEX
  5
D57
  8
DATA
  6
CONTINUOUS
 62
     7
 10
71.230392669679588
 20
-292.42904106571763
 30
0.0
  0
VERTEX
  5
D58
  8
DATA
  6
CONTINUOUS
 62
     7
 10
71.26620590460287
 20
-292.40437745578117
 30
0.0
  0
VERTEX
  5
D59
  8
DATA
  6
CONTINUOUS
 62
     7
 10
71.30201913952618
 20
-292.37920862133149
 30
0.0
  0
VERTEX
  5
D5A
  8
DATA
  6
CONTINUOUS
 62
     7
 10
71.337832374449434
 20
-292.3535345623684
 30
0.0
  0
VERTEX
  5
D5B
  8
DATA
  6
CONTINUOUS
 62
     7
 10
71.37364560937273
 20
-292.32735527889167
 30
0.0
  0
VERTEX
  5
D5C
  8
DATA
  6
CONTINUOUS
 62
     7
 10
71.409458844296012
 20
-292.30067077090172
 30
0.0
  0
VERTEX
  5
D5D
  8
DATA
  6
CONTINUOUS
 62
     7
 10
71.445272079219293
 20
-292.27348103839819
 30
0.0
  0
VERTEX
  5
D5E
  8
DATA
  6
CONTINUOUS
 62
     7
 10
71.481085314142604
 20
-292.24578608138142
 30
0.0
  0
VERTEX
  5
D5F
  8
DATA
  6
CONTINUOUS
 62
     7
 10
71.5168985490659
 20
-292.21758589985109
 30
0.0
  0
VERTEX
  5
D60
  8
DATA
  6
CONTINUOUS
 62
     7
 10
71.552711783989153
 20
-292.18888049380718
 30
0.0
  0
VERTEX
  5
D61
  8
DATA
  6
CONTINUOUS
 62
     7
 10
71.588525018912449
 20
-292.1596698632498
 30
0.0
  0
VERTEX
  5
D62
  8
DATA
  6
CONTINUOUS
 62
     7
 10
71.624338253835731
 20
-292.1299540081792
 30
0.0
  0
VERTEX
  5
D63
  8
DATA
  6
CONTINUOUS
 62
     7
 10
71.660151488759013
 20
-292.09973292859507
 30
0.0
  0
VERTEX
  5
D64
  8
DATA
  6
CONTINUOUS
 62
     7
 10
71.695964723682295
 20
-292.06900662449738
 30
0.0
  0
VERTEX
  5
D65
  8
DATA
  6
CONTINUOUS
 62
     7
 10
71.731777958605576
 20
-292.03777509588639
 30
0.0
  0
VERTEX
  5
D66
  8
DATA
  6
CONTINUOUS
 62
     7
 10
71.767591193528858
 20
-292.00603834276188
 30
0.0
  0
VERTEX
  5
D67
  8
DATA
  6
CONTINUOUS
 62
     7
 10
71.803404428452154
 20
-291.97379636512392
 30
0.0
  0
VERTEX
  5
D68
  8
DATA
  6
CONTINUOUS
 62
     7
 10
71.839217663375436
 20
-291.94104916297249
 30
0.0
  0
VERTEX
  5
D69
  8
DATA
  6
CONTINUOUS
 62
     7
 10
71.875030898298704
 20
-291.9077967363076
 30
0.0
  0
VERTEX
  5
D6A
  8
DATA
  6
CONTINUOUS
 62
     7
 10
71.910844133222014
 20
-291.87403908512943
 30
0.0
  0
VERTEX
  5
D6B
  8
DATA
  6
CONTINUOUS
 62
     7
 10
71.946657368145296
 20
-291.83977620943767
 30
0.0
  0
VERTEX
  5
D6C
  8
DATA
  6
CONTINUOUS
 62
     7
 10
71.982470603068577
 20
-291.8050081092324
 30
0.0
  0
VERTEX
  5
D6D
  8
DATA
  6
CONTINUOUS
 62
     7
 10
72.018283837991859
 20
-291.76973478451379
 30
0.0
  0
VERTEX
  5
D6E
  8
DATA
  6
CONTINUOUS
 62
     7
 10
72.054097072915141
 20
-291.73395623528182
 30
0.0
  0
VERTEX
  5
D6F
  8
DATA
  6
CONTINUOUS
 62
     7
 10
72.089910307838437
 20
-291.69767246153629
 30
0.0
  0
VERTEX
  5
D70
  8
DATA
  6
CONTINUOUS
 62
     7
 10
72.125723542761733
 20
-291.6608834632774
 30
0.0
  0
VERTEX
  5
D71
  8
DATA
  6
CONTINUOUS
 62
     7
 10
72.161536777684987
 20
-291.623589240505
 30
0.0
  0
VERTEX
  5
D72
  8
DATA
  6
CONTINUOUS
 62
     7
 10
72.197350012608297
 20
-291.58578979321919
 30
0.0
  0
VERTEX
  5
D73
  8
DATA
  6
CONTINUOUS
 62
     7
 10
72.233163247531579
 20
-291.54748512141992
 30
0.0
  0
VERTEX
  5
D74
  8
DATA
  6
CONTINUOUS
 62
     7
 10
72.26897648245486
 20
-291.5086752251072
 30
0.0
  0
VERTEX
  5
D75
  8
DATA
  6
CONTINUOUS
 62
     7
 10
72.304789717378142
 20
-291.4693601042809
 30
0.0
  0
VERTEX
  5
D76
  8
DATA
  6
CONTINUOUS
 62
     7
 10
72.340602952301424
 20
-291.4295397589413
 30
0.0
  0
VERTEX
  5
D77
  8
DATA
  6
CONTINUOUS
 62
     7
 10
72.37641618722472
 20
-291.38921418908819
 30
0.0
  0
VERTEX
  5
D78
  8
DATA
  6
CONTINUOUS
 62
     7
 10
72.412229422148002
 20
-291.34838339472168
 30
0.0
  0
VERTEX
  5
D79
  8
DATA
  6
CONTINUOUS
 62
     7
 10
72.448042657071284
 20
-291.30704737584182
 30
0.0
  0
VERTEX
  5
D7A
  8
DATA
  6
CONTINUOUS
 62
     7
 10
72.483855891994565
 20
-291.26520613244838
 30
0.0
  0
VERTEX
  5
D7B
  8
DATA
  6
CONTINUOUS
 62
     7
 10
72.519669126917861
 20
-291.22285966454149
 30
0.0
  0
VERTEX
  5
D7C
  8
DATA
  6
CONTINUOUS
 62
     7
 10
72.555482361841143
 20
-291.18000797212119
 30
0.0
  0
VERTEX
  5
D7D
  8
DATA
  6
CONTINUOUS
 62
     7
 10
72.591295596764425
 20
-291.13665105518737
 30
0.0
  0
VERTEX
  5
D7E
  8
DATA
  6
CONTINUOUS
 62
     7
 10
72.627108831687693
 20
-291.09278891374021
 30
0.0
  0
VERTEX
  5
D7F
  8
DATA
  6
CONTINUOUS
 62
     7
 10
72.662922066611017
 20
-291.04842154777958
 30
0.0
  0
VERTEX
  5
D80
  8
DATA
  6
CONTINUOUS
 62
     7
 10
72.698735301534256
 20
-291.0035489573055
 30
0.0
  0
VERTEX
  5
D81
  8
DATA
  6
CONTINUOUS
 62
     7
 10
72.734548536457567
 20
-290.95817114231801
 30
0.0
  0
VERTEX
  5
D82
  8
DATA
  6
CONTINUOUS
 62
     7
 10
72.770361771380863
 20
-290.912288102817
 30
0.0
  0
VERTEX
  5
D83
  8
DATA
  6
CONTINUOUS
 62
     7
 10
72.806175006304144
 20
-290.86589983880248
 30
0.0
  0
VERTEX
  5
D84
  8
DATA
  6
CONTINUOUS
 62
     7
 10
72.841988241227426
 20
-290.81900635027461
 30
0.0
  0
VERTEX
  5
D85
  8
DATA
  6
CONTINUOUS
 62
     7
 10
72.877801476150722
 20
-290.77160763723327
 30
0.0
  0
VERTEX
  5
D86
  8
DATA
  6
CONTINUOUS
 62
     7
 10
72.913614711074004
 20
-290.72370369967848
 30
0.0
  0
VERTEX
  5
D87
  8
DATA
  6
CONTINUOUS
 62
     7
 10
72.949427945997286
 20
-290.67529453761023
 30
0.0
  0
VERTEX
  5
D88
  8
DATA
  6
CONTINUOUS
 62
     7
 10
72.985241180920582
 20
-290.62638015102868
 30
0.0
  0
VERTEX
  5
D89
  8
DATA
  6
CONTINUOUS
 62
     7
 10
73.021054415843864
 20
-290.57696053993362
 30
0.0
  0
VERTEX
  5
D8A
  8
DATA
  6
CONTINUOUS
 62
     7
 10
73.056867650767146
 20
-290.52703570432499
 30
0.0
  0
VERTEX
  5
D8B
  8
DATA
  6
CONTINUOUS
 62
     7
 10
73.092680885690442
 20
-290.476605644203
 30
0.0
  0
VERTEX
  5
D8C
  8
DATA
  6
CONTINUOUS
 62
     7
 10
73.128494120613738
 20
-290.42567035956762
 30
0.0
  0
VERTEX
  5
D8D
  8
DATA
  6
CONTINUOUS
 62
     7
 10
73.164307355536991
 20
-290.37422985041871
 30
0.0
  0
VERTEX
  5
D8E
  8
DATA
  6
CONTINUOUS
 62
     7
 10
73.200120590460301
 20
-290.32228411675629
 30
0.0
  0
VERTEX
  5
D8F
  8
DATA
  6
CONTINUOUS
 62
     7
 10
73.235933825383583
 20
-290.26983315858052
 30
0.0
  0
VERTEX
  5
D90
  8
DATA
  6
CONTINUOUS
 62
     7
 10
73.271747060306865
 20
-290.2168769758913
 30
0.0
  0
VERTEX
  5
D91
  8
DATA
  6
CONTINUOUS
 62
     7
 10
73.307560295230161
 20
-290.16341556868861
 30
0.0
  0
VERTEX
  5
D92
  8
DATA
  6
CONTINUOUS
 62
     7
 10
73.343373530153443
 20
-290.10944893697251
 30
0.0
  0
VERTEX
  5
D93
  8
DATA
  6
CONTINUOUS
 62
     7
 10
73.379186765076724
 20
-290.05497708074301
 30
0.0
  0
VERTEX
  5
D94
  8
DATA
  6
CONTINUOUS
 62
     7
 10
73.41500000000002
 20
-290.0
 30
0.0
  0
VERTEX
  5
D95
  8
DATA
  6
CONTINUOUS
 62
     7
 10
73.41500000000002
 20
-290.0
 30
0.0
  0
SEQEND
  5
D96
  8
DATA
  6
CONTINUOUS
 62
     7
  0
LINE
  5
30A
  8
DATA
  6
CONTINUOUS
 62
     7
 10
-124.0
 20
-291.29999999999978
 30
0.0
 11
-111.40000000000001
 21
-291.29999999999978
 31
0.0
  0
LINE
  5
30B
  8
DATA
  6
CONTINUOUS
 62
     7
 10
-105.0
 20
-291.29999999999978
 30
0.0
 11
-92.400000000000006
 21
-291.29999999999978
 31
0.0
  0
LINE
  5
30C
  8
DATA
  6
CONTINUOUS
 62
     7
 10
-89.0
 20
-291.29999999999978
 30
0.0
 11
-76.400000000000006
 21
-291.29999999999978
 31
0.0
  0
LINE
  5
30D
  8
DATA
  6
CONTINUOUS
 62
     7
 10
-73.0
 20
-291.29999999999978
 30
0.0
 11
-60.400000000000013
 21
-291.29999999999978
 31
0.0
  0
LINE
  5
30E
  8
DATA
  6
CONTINUOUS
 62
     7
 10
-57.0
 20
-291.29999999999978
 30
0.0
 11
-44.400000000000013
 21
-291.29999999999978
 31
0.0
  0
LINE
  5
30F
  8
DATA
  6
CONTINUOUS
 62
     7
 10
-37.0
 20
-291.29999999999978
 30
0.0
 11
-24.400000000000009
 21
-291.29999999999978
 31
0.0
  0
LINE
  5
310
  8
DATA
  6
CONTINUOUS
 62
     7
 10
-124.0
 20
-291.29999999999978
 30
0.0
 11
-124.0
 21
-290.0
 31
0.0
  0
LINE
  5
311
  8
DATA
  6
CONTINUOUS
 62
     7
 10
-111.40000000000001
 20
-291.29999999999978
 30
0.0
 11
-111.40000000000001
 21
-290.0
 31
0.0
  0
LINE
  5
312
  8
DATA
  6
CONTINUOUS
 62
     7
 10
-105.0
 20
-291.29999999999978
 30
0.0
 11
-105.0
 21
-290.0
 31
0.0
  0
LINE
  5
313
  8
DATA
  6
CONTINUOUS
 62
     7
 10
-92.400000000000006
 20
-291.29999999999978
 30
0.0
 11
-92.400000000000006
 21
-290.0
 31
0.0
  0
LINE
  5
314
  8
DATA
  6
CONTINUOUS
 62
     7
 10
-89.0
 20
-291.29999999999978
 30
0.0
 11
-89.0
 21
-290.0
 31
0.0
  0
LINE
  5
315
  8
DATA
  6
CONTINUOUS
 62
     7
 10
-76.400000000000006
 20
-291.29999999999978
 30
0.0
 11
-76.400000000000006
 21
-290.0
 31
0.0
  0
LINE
  5
316
  8
DATA
  6
CONTINUOUS
 62
     7
 10
-73.0
 20
-291.29999999999978
 30
0.0
 11
-73.0
 21
-290.05000000000001
 31
0.0
  0
LINE
  5
317
  8
DATA
  6
CONTINUOUS
 62
     7
 10
-60.400000000000013
 20
-291.29999999999978
 30
0.0
 11
-60.400000000000013
 21
-290.0
 31
0.0
  0
LINE
  5
318
  8
DATA
  6
CONTINUOUS
 62
     7
 10
-57.0
 20
-291.29999999999978
 30
0.0
 11
-57.0
 21
-290.0
 31
0.0
  0
LINE
  5
319
  8
DATA
  6
CONTINUOUS
 62
     7
 10
-44.400000000000013
 20
-291.29999999999978
 30
0.0
 11
-44.400000000000013
 21
-290.0
 31
0.0
  0
LINE
  5
31A
  8
DATA
  6
CONTINUOUS
 62
     7
 10
-37.0
 20
-291.29999999999978
 30
0.0
 11
-37.0
 21
-290.0
 31
0.0
  0
LINE
  5
31B
  8
DATA
  6
CONTINUOUS
 62
     7
 10
-24.400000000000009
 20
-291.29999999999978
 30
0.0
 11
-24.400000000000009
 21
-290.0
 31
0.0
  0
CIRCLE
  5
31C
  8
DATA
  6
CONTINUOUS
 62
     7
 10
-138.5
 20
-266.0
 30
0.0
 40
9.5
  0
CIRCLE
  5
31D
  8
DATA
  6
CONTINUOUS
 62
     7
 10
-138.5
 20
-266.0
 30
0.0
 40
4.0
  0
POLYLINE
  5
31E
  8
DATA
  6
CONTINUOUS
 62
     7
 66
     1
 10
0.0
 20
0.0
 30
0.0
  0
VERTEX
  5
D97
  8
DATA
  6
CONTINUOUS
 62
     7
 10
-138.0
 20
-266.5
 30
0.0
  0
VERTEX
  5
D98
  8
DATA
  6
CONTINUOUS
 62
     7
 10
-138.0
 20
-268.5
 30
0.0
  0
VERTEX
  5
D99
  8
DATA
  6
CONTINUOUS
 62
     7
 10
-139.0
 20
-268.5
 30
0.0
  0
VERTEX
  5
D9A
  8
DATA
  6
CONTINUOUS
 62
     7
 10
-139.0
 20
-266.5
 30
0.0
  0
SEQEND
  5
D9B
  8
DATA
  6
CONTINUOUS
 62
     7
  0
POLYLINE
  5
325
  8
DATA
  6
CONTINUOUS
 62
     7
 66
     1
 10
0.0
 20
0.0
 30
0.0
  0
VERTEX
  5
D9C
  8
DATA
  6
CONTINUOUS
 62
     7
 10
-138.0
 20
-265.5
 30
0.0
  0
VERTEX
  5
D9D
  8
DATA
  6
CONTINUOUS
 62
     7
 10
-138.0
 20
-263.5
 30
0.0
  0
VERTEX
  5
D9E
  8
DATA
  6
CONTINUOUS
 62
     7
 10
-139.0
 20
-263.5
 30
0.0
  0
VERTEX
  5
D9F
  8
DATA
  6
CONTINUOUS
 62
     7
 10
-139.0
 20
-265.5
 30
0.0
  0
SEQEND
  5
DA0
  8
DATA
  6
CONTINUOUS
 62
     7
  0
POLYLINE
  5
32C
  8
DATA
  6
CONTINUOUS
 62
     7
 66
     1
 10
0.0
 20
0.0
 30
0.0
  0
VERTEX
  5
DA1
  8
DATA
  6
CONTINUOUS
 62
     7
 10
-138.0
 20
-266.5
 30
0.0
  0
VERTEX
  5
DA2
  8
DATA
  6
CONTINUOUS
 62
     7
 10
-136.0
 20
-266.5
 30
0.0
  0
VERTEX
  5
DA3
  8
DATA
  6
CONTINUOUS
 62
     7
 10
-136.0
 20
-265.5
 30
0.0
  0
VERTEX
  5
DA4
  8
DATA
  6
CONTINUOUS
 62
     7
 10
-138.0
 20
-265.5
 30
0.0
  0
SEQEND
  5
DA5
  8
DATA
  6
CONTINUOUS
 62
     7
  0
POLYLINE
  5
333
  8
DATA
  6
CONTINUOUS
 62
     7
 66
     1
 10
0.0
 20
0.0
 30
0.0
  0
VERTEX
  5
DA6
  8
DATA
  6
CONTINUOUS
 62
     7
 10
-139.0
 20
-266.5
 30
0.0
  0
VERTEX
  5
DA7
  8
DATA
  6
CONTINUOUS
 62
     7
 10
-141.0
 20
-266.5
 30
0.0
  0
VERTEX
  5
DA8
  8
DATA
  6
CONTINUOUS
 62
     7
 10
-141.0
 20
-265.5
 30
0.0
  0
VERTEX
  5
DA9
  8
DATA
  6
CONTINUOUS
 62
     7
 10
-139.0
 20
-265.5
 30
0.0
  0
SEQEND
  5
DAA
  8
DATA
  6
CONTINUOUS
 62
     7
  0
CIRCLE
  5
33A
  8
DATA
  6
CONTINUOUS
 62
     7
 10
-21.0
 20
-266.0
 30
0.0
 40
9.5
  0
CIRCLE
  5
33B
  8
DATA
  6
CONTINUOUS
 62
     7
 10
-21.0
 20
-266.0
 30
0.0
 40
4.0
  0
POLYLINE
  5
33C
  8
DATA
  6
CONTINUOUS
 62
     7
 66
     1
 10
0.0
 20
0.0
 30
0.0
  0
VERTEX
  5
DAB
  8
DATA
  6
CONTINUOUS
 62
     7
 10
-20.5
 20
-266.5
 30
0.0
  0
VERTEX
  5
DAC
  8
DATA
  6
CONTINUOUS
 62
     7
 10
-20.5
 20
-268.5
 30
0.0
  0
VERTEX
  5
DAD
  8
DATA
  6
CONTINUOUS
 62
     7
 10
-21.5
 20
-268.5
 30
0.0
  0
VERTEX
  5
DAE
  8
DATA
  6
CONTINUOUS
 62
     7
 10
-21.5
 20
-266.5
 30
0.0
  0
SEQEND
  5
DAF
  8
DATA
  6
CONTINUOUS
 62
     7
  0
POLYLINE
  5
343
  8
DATA
  6
CONTINUOUS
 62
     7
 66
     1
 10
0.0
 20
0.0
 30
0.0
  0
VERTEX
  5
DB0
  8
DATA
  6
CONTINUOUS
 62
     7
 10
-20.5
 20
-265.5
 30
0.0
  0
VERTEX
  5
DB1
  8
DATA
  6
CONTINUOUS
 62
     7
 10
-20.5
 20
-263.5
 30
0.0
  0
VERTEX
  5
DB2
  8
DATA
  6
CONTINUOUS
 62
     7
 10
-21.5
 20
-263.5
 30
0.0
  0
VERTEX
  5
DB3
  8
DATA
  6
CONTINUOUS
 62
     7
 10
-21.5
 20
-265.5
 30
0.0
  0
SEQEND
  5
DB4
  8
DATA
  6
CONTINUOUS
 62
     7
  0
POLYLINE
  5
34A
  8
DATA
  6
CONTINUOUS
 62
     7
 66
     1
 10
0.0
 20
0.0
 30
0.0
  0
VERTEX
  5
DB5
  8
DATA
  6
CONTINUOUS
 62
     7
 10
-20.5
 20
-266.5
 30
0.0
  0
VERTEX
  5
DB6
  8
DATA
  6
CONTINUOUS
 62
     7
 10
-18.5
 20
-266.5
 30
0.0
  0
VERTEX
  5
DB7
  8
DATA
  6
CONTINUOUS
 62
     7
 10
-18.5
 20
-265.5
 30
0.0
  0
VERTEX
  5
DB8
  8
DATA
  6
CONTINUOUS
 62
     7
 10
-20.5
 20
-265.5
 30
0.0
  0
SEQEND
  5
DB9
  8
DATA
  6
CONTINUOUS
 62
     7
  0
POLYLINE
  5
351
  8
DATA
  6
CONTINUOUS
 62
     7
 66
     1
 10
0.0
 20
0.0
 30
0.0
  0
VERTEX
  5
DBA
  8
DATA
  6
CONTINUOUS
 62
     7
 10
-21.5
 20
-266.5
 30
0.0
  0
VERTEX
  5
DBB
  8
DATA
  6
CONTINUOUS
 62
     7
 10
-23.5
 20
-266.5
 30
0.0
  0
VERTEX
  5
DBC
  8
DATA
  6
CONTINUOUS
 62
     7
 10
-23.5
 20
-265.5
 30
0.0
  0
VERTEX
  5
DBD
  8
DATA
  6
CONTINUOUS
 62
     7
 10
-21.5
 20
-265.5
 30
0.0
  0
SEQEND
  5
DBE
  8
DATA
  6
CONTINUOUS
 62
     7
  0
CIRCLE
  5
358
  8
DATA
  6
CONTINUOUS
 62
     7
 10
-256.0
 20
-266.0
 30
0.0
 40
9.5
  0
CIRCLE
  5
359
  8
DATA
  6
CONTINUOUS
 62
     7
 10
-256.0
 20
-266.0
 30
0.0
 40
4.0
  0
POLYLINE
  5
35A
  8
DATA
  6
CONTINUOUS
 62
     7
 66
     1
 10
0.0
 20
0.0
 30
0.0
  0
VERTEX
  5
DBF
  8
DATA
  6
CONTINUOUS
 62
     7
 10
-255.5
 20
-266.5
 30
0.0
  0
VERTEX
  5
DC0
  8
DATA
  6
CONTINUOUS
 62
     7
 10
-255.5
 20
-268.5
 30
0.0
  0
VERTEX
  5
DC1
  8
DATA
  6
CONTINUOUS
 62
     7
 10
-256.5
 20
-268.5
 30
0.0
  0
VERTEX
  5
DC2
  8
DATA
  6
CONTINUOUS
 62
     7
 10
-256.5
 20
-266.5
 30
0.0
  0
SEQEND
  5
DC3
  8
DATA
  6
CONTINUOUS
 62
     7
  0
POLYLINE
  5
361
  8
DATA
  6
CONTINUOUS
 62
     7
 66
     1
 10
0.0
 20
0.0
 30
0.0
  0
VERTEX
  5
DC4
  8
DATA
  6
CONTINUOUS
 62
     7
 10
-255.5
 20
-265.5
 30
0.0
  0
VERTEX
  5
DC5
  8
DATA
  6
CONTINUOUS
 62
     7
 10
-255.5
 20
-263.5
 30
0.0
  0
VERTEX
  5
DC6
  8
DATA
  6
CONTINUOUS
 62
     7
 10
-256.5
 20
-263.5
 30
0.0
  0
VERTEX
  5
DC7
  8
DATA
  6
CONTINUOUS
 62
     7
 10
-256.5
 20
-265.5
 30
0.0
  0
SEQEND
  5
DC8
  8
DATA
  6
CONTINUOUS
 62
     7
  0
POLYLINE
  5
368
  8
DATA
  6
CONTINUOUS
 62
     7
 66
     1
 10
0.0
 20
0.0
 30
0.0
  0
VERTEX
  5
DC9
  8
DATA
  6
CONTINUOUS
 62
     7
 10
-255.5
 20
-266.5
 30
0.0
  0
VERTEX
  5
DCA
  8
DATA
  6
CONTINUOUS
 62
     7
 10
-253.5
 20
-266.5
 30
0.0
  0
VERTEX
  5
DCB
  8
DATA
  6
CONTINUOUS
 62
     7
 10
-253.5
 20
-265.5
 30
0.0
  0
VERTEX
  5
DCC
  8
DATA
  6
CONTINUOUS
 62
     7
 10
-255.5
 20
-265.5
 30
0.0
  0
SEQEND
  5
DCD
  8
DATA
  6
CONTINUOUS
 62
     7
  0
POLYLINE
  5
36F
  8
DATA
  6
CONTINUOUS
 62
     7
 66
     1
 10
0.0
 20
0.0
 30
0.0
  0
VERTEX
  5
DCE
  8
DATA
  6
CONTINUOUS
 62
     7
 10
-256.5
 20
-266.5
 30
0.0
  0
VERTEX
  5
DCF
  8
DATA
  6
CONTINUOUS
 62
     7
 10
-258.5
 20
-266.5
 30
0.0
  0
VERTEX
  5
DD0
  8
DATA
  6
CONTINUOUS
 62
     7
 10
-258.5
 20
-265.5
 30
0.0
  0
VERTEX
  5
DD1
  8
DATA
  6
CONTINUOUS
 62
     7
 10
-256.5
 20
-265.5
 30
0.0
  0
SEQEND
  5
DD2
  8
DATA
  6
CONTINUOUS
 62
     7
  0
ARC
  5
376
  8
DATA
  6
CONTINUOUS
 62
     7
 10
-345.0
 20
-148.5
 30
0.0
 40
1.0
 50
0.0
 51
180.0
  0
ARC
  5
377
  8
DATA
  6
CONTINUOUS
 62
     7
 10
-345.0
 20
-172.0
 30
0.0
 40
1.0
 50
180.0
 51
0.0
  0
LINE
  5
378
  8
DATA
  6
CONTINUOUS
 62
     7
 10
-346.0
 20
-172.0
 30
0.0
 11
-346.0
 21
-148.5
 31
0.0
  0
LINE
  5
379
  8
DATA
  6
CONTINUOUS
 62
     7
 10
-344.0
 20
-148.5
 30
0.0
 11
-344.0
 21
-172.0
 31
0.0
  0
ARC
  5
37A
  8
DATA
  6
CONTINUOUS
 62
     7
 10
-340.0
 20
-148.5
 30
0.0
 40
1.0
 50
0.0
 51
180.0
  0
ARC
  5
37B
  8
DATA
  6
CONTINUOUS
 62
     7
 10
-340.0
 20
-172.0
 30
0.0
 40
1.0
 50
180.0
 51
0.0
  0
LINE
  5
37C
  8
DATA
  6
CONTINUOUS
 62
     7
 10
-341.0
 20
-172.0
 30
0.0
 11
-341.0
 21
-148.5
 31
0.0
  0
LINE
  5
37D
  8
DATA
  6
CONTINUOUS
 62
     7
 10
-339.0
 20
-148.5
 30
0.0
 11
-339.0
 21
-172.0
 31
0.0
  0
ARC
  5
37E
  8
DATA
  6
CONTINUOUS
 62
     7
 10
-335.0
 20
-148.5
 30
0.0
 40
1.0
 50
0.0
 51
180.0
  0
ARC
  5
37F
  8
DATA
  6
CONTINUOUS
 62
     7
 10
-335.0
 20
-172.0
 30
0.0
 40
1.0
 50
180.0
 51
0.0
  0
LINE
  5
380
  8
DATA
  6
CONTINUOUS
 62
     7
 10
-336.0
 20
-172.0
 30
0.0
 11
-336.0
 21
-148.5
 31
0.0
  0
LINE
  5
381
  8
DATA
  6
CONTINUOUS
 62
     7
 10
-334.0
 20
-148.5
 30
0.0
 11
-334.0
 21
-172.0
 31
0.0
  0
ARC
  5
382
  8
DATA
  6
CONTINUOUS
 62
     7
 10
-330.0
 20
-148.5
 30
0.0
 40
1.0
 50
0.0
 51
180.0
  0
ARC
  5
383
  8
DATA
  6
CONTINUOUS
 62
     7
 10
-330.0
 20
-172.0
 30
0.0
 40
1.0
 50
180.0
 51
0.0
  0
LINE
  5
384
  8
DATA
  6
CONTINUOUS
 62
     7
 10
-331.0
 20
-172.0
 30
0.0
 11
-331.0
 21
-148.5
 31
0.0
  0
LINE
  5
385
  8
DATA
  6
CONTINUOUS
 62
     7
 10
-329.0
 20
-148.5
 30
0.0
 11
-329.0
 21
-172.0
 31
0.0
  0
ARC
  5
386
  8
DATA
  6
CONTINUOUS
 62
     7
 10
-325.0
 20
-148.5
 30
0.0
 40
1.0
 50
0.0
 51
180.0
  0
ARC
  5
387
  8
DATA
  6
CONTINUOUS
 62
     7
 10
-325.0
 20
-172.0
 30
0.0
 40
1.0
 50
180.0
 51
0.0
  0
LINE
  5
388
  8
DATA
  6
CONTINUOUS
 62
     7
 10
-326.0
 20
-172.0
 30
0.0
 11
-326.0
 21
-148.5
 31
0.0
  0
LINE
  5
389
  8
DATA
  6
CONTINUOUS
 62
     7
 10
-324.0
 20
-148.5
 30
0.0
 11
-324.0
 21
-172.0
 31
0.0
  0
ARC
  5
38A
  8
DATA
  6
CONTINUOUS
 62
     7
 10
-320.0
 20
-148.5
 30
0.0
 40
1.0
 50
0.0
 51
180.0
  0
ARC
  5
38B
  8
DATA
  6
CONTINUOUS
 62
     7
 10
-320.0
 20
-172.0
 30
0.0
 40
1.0
 50
180.0
 51
0.0
  0
LINE
  5
38C
  8
DATA
  6
CONTINUOUS
 62
     7
 10
-321.0
 20
-172.0
 30
0.0
 11
-321.0
 21
-148.5
 31
0.0
  0
LINE
  5
38D
  8
DATA
  6
CONTINUOUS
 62
     7
 10
-319.0
 20
-148.5
 30
0.0
 11
-319.0
 21
-172.0
 31
0.0
  0
ARC
  5
38E
  8
DATA
  6
CONTINUOUS
 62
     7
 10
-315.0
 20
-148.5
 30
0.0
 40
1.0
 50
0.0
 51
180.0
  0
ARC
  5
38F
  8
DATA
  6
CONTINUOUS
 62
     7
 10
-315.0
 20
-172.0
 30
0.0
 40
1.0
 50
180.0
 51
0.0
  0
LINE
  5
390
  8
DATA
  6
CONTINUOUS
 62
     7
 10
-316.0
 20
-172.0
 30
0.0
 11
-316.0
 21
-148.5
 31
0.0
  0
LINE
  5
391
  8
DATA
  6
CONTINUOUS
 62
     7
 10
-314.0
 20
-148.5
 30
0.0
 11
-314.0
 21
-172.0
 31
0.0
  0
ARC
  5
392
  8
DATA
  6
CONTINUOUS
 62
     7
 10
-310.0
 20
-148.5
 30
0.0
 40
1.0
 50
0.0
 51
180.0
  0
ARC
  5
393
  8
DATA
  6
CONTINUOUS
 62
     7
 10
-310.0
 20
-172.0
 30
0.0
 40
1.0
 50
180.0
 51
0.0
  0
LINE
  5
394
  8
DATA
  6
CONTINUOUS
 62
     7
 10
-311.0
 20
-172.0
 30
0.0
 11
-311.0
 21
-148.5
 31
0.0
  0
LINE
  5
395
  8
DATA
  6
CONTINUOUS
 62
     7
 10
-309.0
 20
-148.5
 30
0.0
 11
-309.0
 21
-172.0
 31
0.0
  0
ARC
  5
396
  8
DATA
  6
CONTINUOUS
 62
     7
 10
-290.0
 20
-148.5
 30
0.0
 40
1.0
 50
0.0
 51
180.0
  0
ARC
  5
397
  8
DATA
  6
CONTINUOUS
 62
     7
 10
-290.0
 20
-172.0
 30
0.0
 40
1.0
 50
180.0
 51
0.0
  0
LINE
  5
398
  8
DATA
  6
CONTINUOUS
 62
     7
 10
-291.0
 20
-172.0
 30
0.0
 11
-291.0
 21
-148.5
 31
0.0
  0
LINE
  5
399
  8
DATA
  6
CONTINUOUS
 62
     7
 10
-289.0
 20
-148.5
 30
0.0
 11
-289.0
 21
-172.0
 31
0.0
  0
ARC
  5
39A
  8
DATA
  6
CONTINUOUS
 62
     7
 10
-285.0
 20
-148.5
 30
0.0
 40
1.0
 50
0.0
 51
180.0
  0
ARC
  5
39B
  8
DATA
  6
CONTINUOUS
 62
     7
 10
-285.0
 20
-172.0
 30
0.0
 40
1.0
 50
180.0
 51
0.0
  0
LINE
  5
39C
  8
DATA
  6
CONTINUOUS
 62
     7
 10
-286.0
 20
-172.0
 30
0.0
 11
-286.0
 21
-148.5
 31
0.0
  0
LINE
  5
39D
  8
DATA
  6
CONTINUOUS
 62
     7
 10
-284.0
 20
-148.5
 30
0.0
 11
-284.0
 21
-172.0
 31
0.0
  0
ARC
  5
39E
  8
DATA
  6
CONTINUOUS
 62
     7
 10
-280.0
 20
-148.5
 30
0.0
 40
1.0
 50
0.0
 51
180.0
  0
ARC
  5
39F
  8
DATA
  6
CONTINUOUS
 62
     7
 10
-280.0
 20
-172.0
 30
0.0
 40
1.0
 50
180.0
 51
0.0
  0
LINE
  5
3A0
  8
DATA
  6
CONTINUOUS
 62
     7
 10
-281.0
 20
-172.0
 30
0.0
 11
-281.0
 21
-148.5
 31
0.0
  0
LINE
  5
3A1
  8
DATA
  6
CONTINUOUS
 62
     7
 10
-279.0
 20
-148.5
 30
0.0
 11
-279.0
 21
-172.0
 31
0.0
  0
ARC
  5
3A2
  8
DATA
  6
CONTINUOUS
 62
     7
 10
-275.0
 20
-148.5
 30
0.0
 40
1.0
 50
0.0
 51
180.0
  0
ARC
  5
3A3
  8
DATA
  6
CONTINUOUS
 62
     7
 10
-275.0
 20
-172.0
 30
0.0
 40
1.0
 50
180.0
 51
0.0
  0
LINE
  5
3A4
  8
DATA
  6
CONTINUOUS
 62
     7
 10
-276.0
 20
-172.0
 30
0.0
 11
-276.0
 21
-148.5
 31
0.0
  0
LINE
  5
3A5
  8
DATA
  6
CONTINUOUS
 62
     7
 10
-274.0
 20
-148.5
 30
0.0
 11
-274.0
 21
-172.0
 31
0.0
  0
ARC
  5
3A6
  8
DATA
  6
CONTINUOUS
 62
     7
 10
-270.0
 20
-148.5
 30
0.0
 40
1.0
 50
0.0
 51
180.0
  0
ARC
  5
3A7
  8
DATA
  6
CONTINUOUS
 62
     7
 10
-270.0
 20
-172.0
 30
0.0
 40
1.0
 50
180.0
 51
0.0
  0
LINE
  5
3A8
  8
DATA
  6
CONTINUOUS
 62
     7
 10
-271.0
 20
-172.0
 30
0.0
 11
-271.0
 21
-148.5
 31
0.0
  0
LINE
  5
3A9
  8
DATA
  6
CONTINUOUS
 62
     7
 10
-269.0
 20
-148.5
 30
0.0
 11
-269.0
 21
-172.0
 31
0.0
  0
ARC
  5
3AA
  8
DATA
  6
CONTINUOUS
 62
     7
 10
-265.0
 20
-148.5
 30
0.0
 40
1.0
 50
0.0
 51
180.0
  0
ARC
  5
3AB
  8
DATA
  6
CONTINUOUS
 62
     7
 10
-265.0
 20
-172.0
 30
0.0
 40
1.0
 50
180.0
 51
0.0
  0
LINE
  5
3AC
  8
DATA
  6
CONTINUOUS
 62
     7
 10
-266.0
 20
-172.0
 30
0.0
 11
-266.0
 21
-148.5
 31
0.0
  0
LINE
  5
3AD
  8
DATA
  6
CONTINUOUS
 62
     7
 10
-264.0
 20
-148.5
 30
0.0
 11
-264.0
 21
-172.0
 31
0.0
  0
ARC
  5
3AE
  8
DATA
  6
CONTINUOUS
 62
     7
 10
-260.0
 20
-148.5
 30
0.0
 40
1.0
 50
0.0
 51
180.0
  0
ARC
  5
3AF
  8
DATA
  6
CONTINUOUS
 62
     7
 10
-260.0
 20
-172.0
 30
0.0
 40
1.0
 50
180.0
 51
0.0
  0
LINE
  5
3B0
  8
DATA
  6
CONTINUOUS
 62
     7
 10
-261.0
 20
-172.0
 30
0.0
 11
-261.0
 21
-148.5
 31
0.0
  0
LINE
  5
3B1
  8
DATA
  6
CONTINUOUS
 62
     7
 10
-259.0
 20
-148.5
 30
0.0
 11
-259.0
 21
-172.0
 31
0.0
  0
ARC
  5
3B2
  8
DATA
  6
CONTINUOUS
 62
     7
 10
-255.0
 20
-148.5
 30
0.0
 40
1.0
 50
0.0
 51
180.0
  0
ARC
  5
3B3
  8
DATA
  6
CONTINUOUS
 62
     7
 10
-255.0
 20
-172.0
 30
0.0
 40
1.0
 50
180.0
 51
0.0
  0
LINE
  5
3B4
  8
DATA
  6
CONTINUOUS
 62
     7
 10
-256.0
 20
-172.0
 30
0.0
 11
-256.0
 21
-148.5
 31
0.0
  0
LINE
  5
3B5
  8
DATA
  6
CONTINUOUS
 62
     7
 10
-254.0
 20
-148.5
 30
0.0
 11
-254.0
 21
-172.0
 31
0.0
  0
ARC
  5
3B6
  8
DATA
  6
CONTINUOUS
 62
     7
 10
-345.0
 20
-113.5
 30
0.0
 40
1.0
 50
0.0
 51
180.0
  0
ARC
  5
3B7
  8
DATA
  6
CONTINUOUS
 62
     7
 10
-345.0
 20
-137.0
 30
0.0
 40
1.0
 50
180.0
 51
0.0
  0
LINE
  5
3B8
  8
DATA
  6
CONTINUOUS
 62
     7
 10
-346.0
 20
-137.0
 30
0.0
 11
-346.0
 21
-113.5
 31
0.0
  0
LINE
  5
3B9
  8
DATA
  6
CONTINUOUS
 62
     7
 10
-344.0
 20
-113.5
 30
0.0
 11
-344.0
 21
-137.0
 31
0.0
  0
ARC
  5
3BA
  8
DATA
  6
CONTINUOUS
 62
     7
 10
-340.0
 20
-113.5
 30
0.0
 40
1.0
 50
0.0
 51
180.0
  0
ARC
  5
3BB
  8
DATA
  6
CONTINUOUS
 62
     7
 10
-340.0
 20
-137.0
 30
0.0
 40
1.0
 50
180.0
 51
0.0
  0
LINE
  5
3BC
  8
DATA
  6
CONTINUOUS
 62
     7
 10
-341.0
 20
-137.0
 30
0.0
 11
-341.0
 21
-113.5
 31
0.0
  0
LINE
  5
3BD
  8
DATA
  6
CONTINUOUS
 62
     7
 10
-339.0
 20
-113.5
 30
0.0
 11
-339.0
 21
-137.0
 31
0.0
  0
ARC
  5
3BE
  8
DATA
  6
CONTINUOUS
 62
     7
 10
-335.0
 20
-113.5
 30
0.0
 40
1.0
 50
0.0
 51
180.0
  0
ARC
  5
3BF
  8
DATA
  6
CONTINUOUS
 62
     7
 10
-335.0
 20
-137.0
 30
0.0
 40
1.0
 50
180.0
 51
0.0
  0
LINE
  5
3C0
  8
DATA
  6
CONTINUOUS
 62
     7
 10
-336.0
 20
-137.0
 30
0.0
 11
-336.0
 21
-113.5
 31
0.0
  0
LINE
  5
3C1
  8
DATA
  6
CONTINUOUS
 62
     7
 10
-334.0
 20
-113.5
 30
0.0
 11
-334.0
 21
-137.0
 31
0.0
  0
ARC
  5
3C2
  8
DATA
  6
CONTINUOUS
 62
     7
 10
-330.0
 20
-113.5
 30
0.0
 40
1.0
 50
0.0
 51
180.0
  0
ARC
  5
3C3
  8
DATA
  6
CONTINUOUS
 62
     7
 10
-330.0
 20
-137.0
 30
0.0
 40
1.0
 50
180.0
 51
0.0
  0
LINE
  5
3C4
  8
DATA
  6
CONTINUOUS
 62
     7
 10
-331.0
 20
-137.0
 30
0.0
 11
-331.0
 21
-113.5
 31
0.0
  0
LINE
  5
3C5
  8
DATA
  6
CONTINUOUS
 62
     7
 10
-329.0
 20
-113.5
 30
0.0
 11
-329.0
 21
-137.0
 31
0.0
  0
ARC
  5
3C6
  8
DATA
  6
CONTINUOUS
 62
     7
 10
-325.0
 20
-113.5
 30
0.0
 40
1.0
 50
0.0
 51
180.0
  0
ARC
  5
3C7
  8
DATA
  6
CONTINUOUS
 62
     7
 10
-325.0
 20
-137.0
 30
0.0
 40
1.0
 50
180.0
 51
0.0
  0
LINE
  5
3C8
  8
DATA
  6
CONTINUOUS
 62
     7
 10
-326.0
 20
-137.0
 30
0.0
 11
-326.0
 21
-113.5
 31
0.0
  0
LINE
  5
3C9
  8
DATA
  6
CONTINUOUS
 62
     7
 10
-324.0
 20
-113.5
 30
0.0
 11
-324.0
 21
-137.0
 31
0.0
  0
ARC
  5
3CA
  8
DATA
  6
CONTINUOUS
 62
     7
 10
-320.0
 20
-113.5
 30
0.0
 40
1.0
 50
0.0
 51
180.0
  0
ARC
  5
3CB
  8
DATA
  6
CONTINUOUS
 62
     7
 10
-320.0
 20
-137.0
 30
0.0
 40
1.0
 50
180.0
 51
0.0
  0
LINE
  5
3CC
  8
DATA
  6
CONTINUOUS
 62
     7
 10
-321.0
 20
-137.0
 30
0.0
 11
-321.0
 21
-113.5
 31
0.0
  0
LINE
  5
3CD
  8
DATA
  6
CONTINUOUS
 62
     7
 10
-319.0
 20
-113.5
 30
0.0
 11
-319.0
 21
-137.0
 31
0.0
  0
ARC
  5
3CE
  8
DATA
  6
CONTINUOUS
 62
     7
 10
-315.0
 20
-113.5
 30
0.0
 40
1.0
 50
0.0
 51
180.0
  0
ARC
  5
3CF
  8
DATA
  6
CONTINUOUS
 62
     7
 10
-315.0
 20
-137.0
 30
0.0
 40
1.0
 50
180.0
 51
0.0
  0
LINE
  5
3D0
  8
DATA
  6
CONTINUOUS
 62
     7
 10
-316.0
 20
-137.0
 30
0.0
 11
-316.0
 21
-113.5
 31
0.0
  0
LINE
  5
3D1
  8
DATA
  6
CONTINUOUS
 62
     7
 10
-314.0
 20
-113.5
 30
0.0
 11
-314.0
 21
-137.0
 31
0.0
  0
ARC
  5
3D2
  8
DATA
  6
CONTINUOUS
 62
     7
 10
-310.0
 20
-113.5
 30
0.0
 40
1.0
 50
0.0
 51
180.0
  0
ARC
  5
3D3
  8
DATA
  6
CONTINUOUS
 62
     7
 10
-310.0
 20
-137.0
 30
0.0
 40
1.0
 50
180.0
 51
0.0
  0
LINE
  5
3D4
  8
DATA
  6
CONTINUOUS
 62
     7
 10
-311.0
 20
-137.0
 30
0.0
 11
-311.0
 21
-113.5
 31
0.0
  0
LINE
  5
3D5
  8
DATA
  6
CONTINUOUS
 62
     7
 10
-309.0
 20
-113.5
 30
0.0
 11
-309.0
 21
-137.0
 31
0.0
  0
ARC
  5
3D6
  8
DATA
  6
CONTINUOUS
 62
     7
 10
-290.0
 20
-113.5
 30
0.0
 40
1.0
 50
0.0
 51
180.0
  0
ARC
  5
3D7
  8
DATA
  6
CONTINUOUS
 62
     7
 10
-290.0
 20
-137.0
 30
0.0
 40
1.0
 50
180.0
 51
0.0
  0
LINE
  5
3D8
  8
DATA
  6
CONTINUOUS
 62
     7
 10
-291.0
 20
-137.0
 30
0.0
 11
-291.0
 21
-113.5
 31
0.0
  0
LINE
  5
3D9
  8
DATA
  6
CONTINUOUS
 62
     7
 10
-289.0
 20
-113.5
 30
0.0
 11
-289.0
 21
-137.0
 31
0.0
  0
ARC
  5
3DA
  8
DATA
  6
CONTINUOUS
 62
     7
 10
-285.0
 20
-113.5
 30
0.0
 40
1.0
 50
0.0
 51
180.0
  0
ARC
  5
3DB
  8
DATA
  6
CONTINUOUS
 62
     7
 10
-285.0
 20
-137.0
 30
0.0
 40
1.0
 50
180.0
 51
0.0
  0
LINE
  5
3DC
  8
DATA
  6
CONTINUOUS
 62
     7
 10
-286.0
 20
-137.0
 30
0.0
 11
-286.0
 21
-113.5
 31
0.0
  0
LINE
  5
3DD
  8
DATA
  6
CONTINUOUS
 62
     7
 10
-284.0
 20
-113.5
 30
0.0
 11
-284.0
 21
-137.0
 31
0.0
  0
ARC
  5
3DE
  8
DATA
  6
CONTINUOUS
 62
     7
 10
-280.0
 20
-113.5
 30
0.0
 40
1.0
 50
0.0
 51
180.0
  0
ARC
  5
3DF
  8
DATA
  6
CONTINUOUS
 62
     7
 10
-280.0
 20
-137.0
 30
0.0
 40
1.0
 50
180.0
 51
0.0
  0
LINE
  5
3E0
  8
DATA
  6
CONTINUOUS
 62
     7
 10
-281.0
 20
-137.0
 30
0.0
 11
-281.0
 21
-113.5
 31
0.0
  0
LINE
  5
3E1
  8
DATA
  6
CONTINUOUS
 62
     7
 10
-279.0
 20
-113.5
 30
0.0
 11
-279.0
 21
-137.0
 31
0.0
  0
ARC
  5
3E2
  8
DATA
  6
CONTINUOUS
 62
     7
 10
-275.0
 20
-113.5
 30
0.0
 40
1.0
 50
0.0
 51
180.0
  0
ARC
  5
3E3
  8
DATA
  6
CONTINUOUS
 62
     7
 10
-275.0
 20
-137.0
 30
0.0
 40
1.0
 50
180.0
 51
0.0
  0
LINE
  5
3E4
  8
DATA
  6
CONTINUOUS
 62
     7
 10
-276.0
 20
-137.0
 30
0.0
 11
-276.0
 21
-113.5
 31
0.0
  0
LINE
  5
3E5
  8
DATA
  6
CONTINUOUS
 62
     7
 10
-274.0
 20
-113.5
 30
0.0
 11
-274.0
 21
-137.0
 31
0.0
  0
ARC
  5
3E6
  8
DATA
  6
CONTINUOUS
 62
     7
 10
-270.0
 20
-113.5
 30
0.0
 40
1.0
 50
0.0
 51
180.0
  0
ARC
  5
3E7
  8
DATA
  6
CONTINUOUS
 62
     7
 10
-270.0
 20
-137.0
 30
0.0
 40
1.0
 50
180.0
 51
0.0
  0
LINE
  5
3E8
  8
DATA
  6
CONTINUOUS
 62
     7
 10
-271.0
 20
-137.0
 30
0.0
 11
-271.0
 21
-113.5
 31
0.0
  0
LINE
  5
3E9
  8
DATA
  6
CONTINUOUS
 62
     7
 10
-269.0
 20
-113.5
 30
0.0
 11
-269.0
 21
-137.0
 31
0.0
  0
ARC
  5
3EA
  8
DATA
  6
CONTINUOUS
 62
     7
 10
-265.0
 20
-113.5
 30
0.0
 40
1.0
 50
0.0
 51
180.0
  0
ARC
  5
3EB
  8
DATA
  6
CONTINUOUS
 62
     7
 10
-265.0
 20
-137.0
 30
0.0
 40
1.0
 50
180.0
 51
0.0
  0
LINE
  5
3EC
  8
DATA
  6
CONTINUOUS
 62
     7
 10
-266.0
 20
-137.0
 30
0.0
 11
-266.0
 21
-113.5
 31
0.0
  0
LINE
  5
3ED
  8
DATA
  6
CONTINUOUS
 62
     7
 10
-264.0
 20
-113.5
 30
0.0
 11
-264.0
 21
-137.0
 31
0.0
  0
ARC
  5
3EE
  8
DATA
  6
CONTINUOUS
 62
     7
 10
-260.0
 20
-113.5
 30
0.0
 40
1.0
 50
0.0
 51
180.0
  0
ARC
  5
3EF
  8
DATA
  6
CONTINUOUS
 62
     7
 10
-260.0
 20
-137.0
 30
0.0
 40
1.0
 50
180.0
 51
0.0
  0
LINE
  5
3F0
  8
DATA
  6
CONTINUOUS
 62
     7
 10
-261.0
 20
-137.0
 30
0.0
 11
-261.0
 21
-113.5
 31
0.0
  0
LINE
  5
3F1
  8
DATA
  6
CONTINUOUS
 62
     7
 10
-259.0
 20
-113.5
 30
0.0
 11
-259.0
 21
-137.0
 31
0.0
  0
ARC
  5
3F2
  8
DATA
  6
CONTINUOUS
 62
     7
 10
-255.0
 20
-113.5
 30
0.0
 40
1.0
 50
0.0
 51
180.0
  0
ARC
  5
3F3
  8
DATA
  6
CONTINUOUS
 62
     7
 10
-255.0
 20
-137.0
 30
0.0
 40
1.0
 50
180.0
 51
0.0
  0
LINE
  5
3F4
  8
DATA
  6
CONTINUOUS
 62
     7
 10
-256.0
 20
-137.0
 30
0.0
 11
-256.0
 21
-113.5
 31
0.0
  0
LINE
  5
3F5
  8
DATA
  6
CONTINUOUS
 62
     7
 10
-254.0
 20
-113.5
 30
0.0
 11
-254.0
 21
-137.0
 31
0.0
  0
ARC
  5
3F6
  8
DATA
  6
CONTINUOUS
 62
     7
 10
-345.0
 20
-78.5
 30
0.0
 40
1.0
 50
0.0
 51
180.0
  0
ARC
  5
3F7
  8
DATA
  6
CONTINUOUS
 62
     7
 10
-345.0
 20
-102.0
 30
0.0
 40
1.0
 50
180.0
 51
0.0
  0
LINE
  5
3F8
  8
DATA
  6
CONTINUOUS
 62
     7
 10
-346.0
 20
-102.0
 30
0.0
 11
-346.0
 21
-78.5
 31
0.0
  0
LINE
  5
3F9
  8
DATA
  6
CONTINUOUS
 62
     7
 10
-344.0
 20
-78.5
 30
0.0
 11
-344.0
 21
-102.0
 31
0.0
  0
ARC
  5
3FA
  8
DATA
  6
CONTINUOUS
 62
     7
 10
-340.0
 20
-78.5
 30
0.0
 40
1.0
 50
0.0
 51
180.0
  0
ARC
  5
3FB
  8
DATA
  6
CONTINUOUS
 62
     7
 10
-340.0
 20
-102.0
 30
0.0
 40
1.0
 50
180.0
 51
0.0
  0
LINE
  5
3FC
  8
DATA
  6
CONTINUOUS
 62
     7
 10
-341.0
 20
-102.0
 30
0.0
 11
-341.0
 21
-78.5
 31
0.0
  0
LINE
  5
3FD
  8
DATA
  6
CONTINUOUS
 62
     7
 10
-339.0
 20
-78.5
 30
0.0
 11
-339.0
 21
-102.0
 31
0.0
  0
ARC
  5
3FE
  8
DATA
  6
CONTINUOUS
 62
     7
 10
-260.0
 20
-78.5
 30
0.0
 40
1.0
 50
0.0
 51
180.0
  0
ARC
  5
3FF
  8
DATA
  6
CONTINUOUS
 62
     7
 10
-260.0
 20
-102.0
 30
0.0
 40
1.0
 50
180.0
 51
0.0
  0
LINE
  5
400
  8
DATA
  6
CONTINUOUS
 62
     7
 10
-261.0
 20
-102.0
 30
0.0
 11
-261.0
 21
-78.5
 31
0.0
  0
LINE
  5
401
  8
DATA
  6
CONTINUOUS
 62
     7
 10
-259.0
 20
-78.5
 30
0.0
 11
-259.0
 21
-102.0
 31
0.0
  0
ARC
  5
402
  8
DATA
  6
CONTINUOUS
 62
     7
 10
-255.0
 20
-78.5
 30
0.0
 40
1.0
 50
0.0
 51
180.0
  0
ARC
  5
403
  8
DATA
  6
CONTINUOUS
 62
     7
 10
-255.0
 20
-102.0
 30
0.0
 40
1.0
 50
180.0
 51
0.0
  0
LINE
  5
404
  8
DATA
  6
CONTINUOUS
 62
     7
 10
-256.0
 20
-102.0
 30
0.0
 11
-256.0
 21
-78.5
 31
0.0
  0
LINE
  5
405
  8
DATA
  6
CONTINUOUS
 62
     7
 10
-254.0
 20
-78.5
 30
0.0
 11
-254.0
 21
-102.0
 31
0.0
  0
ARC
  5
406
  8
DATA
  6
CONTINUOUS
 62
     7
 10
-345.0
 20
-43.5
 30
0.0
 40
1.0
 50
0.0
 51
180.0
  0
ARC
  5
407
  8
DATA
  6
CONTINUOUS
 62
     7
 10
-345.0
 20
-67.0
 30
0.0
 40
1.0
 50
180.0
 51
0.0
  0
LINE
  5
408
  8
DATA
  6
CONTINUOUS
 62
     7
 10
-346.0
 20
-67.0
 30
0.0
 11
-346.0
 21
-43.5
 31
0.0
  0
LINE
  5
409
  8
DATA
  6
CONTINUOUS
 62
     7
 10
-344.0
 20
-43.5
 30
0.0
 11
-344.0
 21
-67.0
 31
0.0
  0
ARC
  5
40A
  8
DATA
  6
CONTINUOUS
 62
     7
 10
-340.0
 20
-43.5
 30
0.0
 40
1.0
 50
0.0
 51
180.0
  0
ARC
  5
40B
  8
DATA
  6
CONTINUOUS
 62
     7
 10
-340.0
 20
-67.0
 30
0.0
 40
1.0
 50
180.0
 51
0.0
  0
LINE
  5
40C
  8
DATA
  6
CONTINUOUS
 62
     7
 10
-341.0
 20
-67.0
 30
0.0
 11
-341.0
 21
-43.5
 31
0.0
  0
LINE
  5
40D
  8
DATA
  6
CONTINUOUS
 62
     7
 10
-339.0
 20
-43.5
 30
0.0
 11
-339.0
 21
-67.0
 31
0.0
  0
ARC
  5
40E
  8
DATA
  6
CONTINUOUS
 62
     7
 10
-260.0
 20
-43.5
 30
0.0
 40
1.0
 50
0.0
 51
180.0
  0
ARC
  5
40F
  8
DATA
  6
CONTINUOUS
 62
     7
 10
-260.0
 20
-67.0
 30
0.0
 40
1.0
 50
180.0
 51
0.0
  0
LINE
  5
410
  8
DATA
  6
CONTINUOUS
 62
     7
 10
-261.0
 20
-67.0
 30
0.0
 11
-261.0
 21
-43.5
 31
0.0
  0
LINE
  5
411
  8
DATA
  6
CONTINUOUS
 62
     7
 10
-259.0
 20
-43.5
 30
0.0
 11
-259.0
 21
-67.0
 31
0.0
  0
ARC
  5
412
  8
DATA
  6
CONTINUOUS
 62
     7
 10
-255.0
 20
-43.5
 30
0.0
 40
1.0
 50
0.0
 51
180.0
  0
ARC
  5
413
  8
DATA
  6
CONTINUOUS
 62
     7
 10
-255.0
 20
-67.0
 30
0.0
 40
1.0
 50
180.0
 51
0.0
  0
LINE
  5
414
  8
DATA
  6
CONTINUOUS
 62
     7
 10
-256.0
 20
-67.0
 30
0.0
 11
-256.0
 21
-43.5
 31
0.0
  0
LINE
  5
415
  8
DATA
  6
CONTINUOUS
 62
     7
 10
-254.0
 20
-43.5
 30
0.0
 11
-254.0
 21
-67.0
 31
0.0
  0
ARC
  5
416
  8
DATA
  6
CONTINUOUS
 62
     7
 10
-290.0
 20
4.0
 30
0.0
 40
1.0
 50
0.0
 51
180.0
  0
ARC
  5
417
  8
DATA
  6
CONTINUOUS
 62
     7
 10
-290.0
 20
-19.5
 30
0.0
 40
1.0
 50
180.0
 51
0.0
  0
LINE
  5
418
  8
DATA
  6
CONTINUOUS
 62
     7
 10
-291.0
 20
-19.5
 30
0.0
 11
-291.0
 21
4.0
 31
0.0
  0
LINE
  5
419
  8
DATA
  6
CONTINUOUS
 62
     7
 10
-289.0
 20
4.0
 30
0.0
 11
-289.0
 21
-19.5
 31
0.0
  0
ARC
  5
41A
  8
DATA
  6
CONTINUOUS
 62
     7
 10
-285.0
 20
4.0
 30
0.0
 40
1.0
 50
0.0
 51
180.0
  0
ARC
  5
41B
  8
DATA
  6
CONTINUOUS
 62
     7
 10
-285.0
 20
-19.5
 30
0.0
 40
1.0
 50
180.0
 51
0.0
  0
LINE
  5
41C
  8
DATA
  6
CONTINUOUS
 62
     7
 10
-286.0
 20
-19.5
 30
0.0
 11
-286.0
 21
4.0
 31
0.0
  0
LINE
  5
41D
  8
DATA
  6
CONTINUOUS
 62
     7
 10
-284.0
 20
4.0
 30
0.0
 11
-284.0
 21
-19.5
 31
0.0
  0
ARC
  5
41E
  8
DATA
  6
CONTINUOUS
 62
     7
 10
-280.0
 20
4.0
 30
0.0
 40
1.0
 50
0.0
 51
180.0
  0
ARC
  5
41F
  8
DATA
  6
CONTINUOUS
 62
     7
 10
-280.0
 20
-19.5
 30
0.0
 40
1.0
 50
180.0
 51
0.0
  0
LINE
  5
420
  8
DATA
  6
CONTINUOUS
 62
     7
 10
-281.0
 20
-19.5
 30
0.0
 11
-281.0
 21
4.0
 31
0.0
  0
LINE
  5
421
  8
DATA
  6
CONTINUOUS
 62
     7
 10
-279.0
 20
4.0
 30
0.0
 11
-279.0
 21
-19.5
 31
0.0
  0
ARC
  5
422
  8
DATA
  6
CONTINUOUS
 62
     7
 10
-275.0
 20
4.0
 30
0.0
 40
1.0
 50
0.0
 51
180.0
  0
ARC
  5
423
  8
DATA
  6
CONTINUOUS
 62
     7
 10
-275.0
 20
-19.5
 30
0.0
 40
1.0
 50
180.0
 51
0.0
  0
LINE
  5
424
  8
DATA
  6
CONTINUOUS
 62
     7
 10
-276.0
 20
-19.5
 30
0.0
 11
-276.0
 21
4.0
 31
0.0
  0
LINE
  5
425
  8
DATA
  6
CONTINUOUS
 62
     7
 10
-274.0
 20
4.0
 30
0.0
 11
-274.0
 21
-19.5
 31
0.0
  0
ARC
  5
426
  8
DATA
  6
CONTINUOUS
 62
     7
 10
-270.0
 20
4.0
 30
0.0
 40
1.0
 50
0.0
 51
180.0
  0
ARC
  5
427
  8
DATA
  6
CONTINUOUS
 62
     7
 10
-270.0
 20
-19.5
 30
0.0
 40
1.0
 50
180.0
 51
0.0
  0
LINE
  5
428
  8
DATA
  6
CONTINUOUS
 62
     7
 10
-271.0
 20
-19.5
 30
0.0
 11
-271.0
 21
4.0
 31
0.0
  0
LINE
  5
429
  8
DATA
  6
CONTINUOUS
 62
     7
 10
-269.0
 20
4.0
 30
0.0
 11
-269.0
 21
-19.5
 31
0.0
  0
ARC
  5
42A
  8
DATA
  6
CONTINUOUS
 62
     7
 10
-265.0
 20
4.0
 30
0.0
 40
1.0
 50
0.0
 51
180.0
  0
ARC
  5
42B
  8
DATA
  6
CONTINUOUS
 62
     7
 10
-265.0
 20
-19.5
 30
0.0
 40
1.0
 50
180.0
 51
0.0
  0
LINE
  5
42C
  8
DATA
  6
CONTINUOUS
 62
     7
 10
-266.0
 20
-19.5
 30
0.0
 11
-266.0
 21
4.0
 31
0.0
  0
LINE
  5
42D
  8
DATA
  6
CONTINUOUS
 62
     7
 10
-264.0
 20
4.0
 30
0.0
 11
-264.0
 21
-19.5
 31
0.0
  0
ARC
  5
42E
  8
DATA
  6
CONTINUOUS
 62
     7
 10
-260.0
 20
4.0
 30
0.0
 40
1.0
 50
0.0
 51
180.0
  0
ARC
  5
42F
  8
DATA
  6
CONTINUOUS
 62
     7
 10
-260.0
 20
-19.5
 30
0.0
 40
1.0
 50
180.0
 51
0.0
  0
LINE
  5
430
  8
DATA
  6
CONTINUOUS
 62
     7
 10
-261.0
 20
-19.5
 30
0.0
 11
-261.0
 21
4.0
 31
0.0
  0
LINE
  5
431
  8
DATA
  6
CONTINUOUS
 62
     7
 10
-259.0
 20
4.0
 30
0.0
 11
-259.0
 21
-19.5
 31
0.0
  0
ARC
  5
432
  8
DATA
  6
CONTINUOUS
 62
     7
 10
-255.0
 20
4.0
 30
0.0
 40
1.0
 50
0.0
 51
180.0
  0
ARC
  5
433
  8
DATA
  6
CONTINUOUS
 62
     7
 10
-255.0
 20
-19.5
 30
0.0
 40
1.0
 50
180.0
 51
0.0
  0
LINE
  5
434
  8
DATA
  6
CONTINUOUS
 62
     7
 10
-256.0
 20
-19.5
 30
0.0
 11
-256.0
 21
4.0
 31
0.0
  0
LINE
  5
435
  8
DATA
  6
CONTINUOUS
 62
     7
 10
-254.0
 20
4.0
 30
0.0
 11
-254.0
 21
-19.5
 31
0.0
  0
ARC
  5
436
  8
DATA
  6
CONTINUOUS
 62
     7
 10
68.0
 20
-148.5
 30
0.0
 40
1.0
 50
0.0
 51
180.0
  0
ARC
  5
437
  8
DATA
  6
CONTINUOUS
 62
     7
 10
68.0
 20
-172.0
 30
0.0
 40
1.0
 50
180.0
 51
0.0
  0
LINE
  5
438
  8
DATA
  6
CONTINUOUS
 62
     7
 10
69.0
 20
-172.0
 30
0.0
 11
69.0
 21
-148.5
 31
0.0
  0
LINE
  5
439
  8
DATA
  6
CONTINUOUS
 62
     7
 10
67.0
 20
-148.5
 30
0.0
 11
67.0
 21
-172.0
 31
0.0
  0
ARC
  5
43A
  8
DATA
  6
CONTINUOUS
 62
     7
 10
63.0
 20
-148.5
 30
0.0
 40
1.0
 50
0.0
 51
180.0
  0
ARC
  5
43B
  8
DATA
  6
CONTINUOUS
 62
     7
 10
63.0
 20
-172.0
 30
0.0
 40
1.0
 50
180.0
 51
0.0
  0
LINE
  5
43C
  8
DATA
  6
CONTINUOUS
 62
     7
 10
64.0
 20
-172.0
 30
0.0
 11
64.0
 21
-148.5
 31
0.0
  0
LINE
  5
43D
  8
DATA
  6
CONTINUOUS
 62
     7
 10
62.0
 20
-148.5
 30
0.0
 11
62.0
 21
-172.0
 31
0.0
  0
ARC
  5
43E
  8
DATA
  6
CONTINUOUS
 62
     7
 10
58.0
 20
-148.5
 30
0.0
 40
1.0
 50
0.0
 51
180.0
  0
ARC
  5
43F
  8
DATA
  6
CONTINUOUS
 62
     7
 10
58.0
 20
-172.0
 30
0.0
 40
1.0
 50
180.0
 51
0.0
  0
LINE
  5
440
  8
DATA
  6
CONTINUOUS
 62
     7
 10
59.0
 20
-172.0
 30
0.0
 11
59.0
 21
-148.5
 31
0.0
  0
LINE
  5
441
  8
DATA
  6
CONTINUOUS
 62
     7
 10
57.0
 20
-148.5
 30
0.0
 11
57.0
 21
-172.0
 31
0.0
  0
ARC
  5
442
  8
DATA
  6
CONTINUOUS
 62
     7
 10
53.0
 20
-148.5
 30
0.0
 40
1.0
 50
0.0
 51
180.0
  0
ARC
  5
443
  8
DATA
  6
CONTINUOUS
 62
     7
 10
53.0
 20
-172.0
 30
0.0
 40
1.0
 50
180.0
 51
0.0
  0
LINE
  5
444
  8
DATA
  6
CONTINUOUS
 62
     7
 10
54.0
 20
-172.0
 30
0.0
 11
54.0
 21
-148.5
 31
0.0
  0
LINE
  5
445
  8
DATA
  6
CONTINUOUS
 62
     7
 10
52.0
 20
-148.5
 30
0.0
 11
52.0
 21
-172.0
 31
0.0
  0
ARC
  5
446
  8
DATA
  6
CONTINUOUS
 62
     7
 10
48.0
 20
-148.5
 30
0.0
 40
1.0
 50
0.0
 51
180.0
  0
ARC
  5
447
  8
DATA
  6
CONTINUOUS
 62
     7
 10
48.0
 20
-172.0
 30
0.0
 40
1.0
 50
180.0
 51
0.0
  0
LINE
  5
448
  8
DATA
  6
CONTINUOUS
 62
     7
 10
49.0
 20
-172.0
 30
0.0
 11
49.0
 21
-148.5
 31
0.0
  0
LINE
  5
449
  8
DATA
  6
CONTINUOUS
 62
     7
 10
47.0
 20
-148.5
 30
0.0
 11
47.0
 21
-172.0
 31
0.0
  0
ARC
  5
44A
  8
DATA
  6
CONTINUOUS
 62
     7
 10
43.0
 20
-148.5
 30
0.0
 40
1.0
 50
0.0
 51
180.0
  0
ARC
  5
44B
  8
DATA
  6
CONTINUOUS
 62
     7
 10
43.0
 20
-172.0
 30
0.0
 40
1.0
 50
180.0
 51
0.0
  0
LINE
  5
44C
  8
DATA
  6
CONTINUOUS
 62
     7
 10
44.0
 20
-172.0
 30
0.0
 11
44.0
 21
-148.5
 31
0.0
  0
LINE
  5
44D
  8
DATA
  6
CONTINUOUS
 62
     7
 10
42.0
 20
-148.5
 30
0.0
 11
42.0
 21
-172.0
 31
0.0
  0
ARC
  5
44E
  8
DATA
  6
CONTINUOUS
 62
     7
 10
38.0
 20
-148.5
 30
0.0
 40
1.0
 50
0.0
 51
180.0
  0
ARC
  5
44F
  8
DATA
  6
CONTINUOUS
 62
     7
 10
38.0
 20
-172.0
 30
0.0
 40
1.0
 50
180.0
 51
0.0
  0
LINE
  5
450
  8
DATA
  6
CONTINUOUS
 62
     7
 10
39.0
 20
-172.0
 30
0.0
 11
39.0
 21
-148.5
 31
0.0
  0
LINE
  5
451
  8
DATA
  6
CONTINUOUS
 62
     7
 10
37.0
 20
-148.5
 30
0.0
 11
37.0
 21
-172.0
 31
0.0
  0
ARC
  5
452
  8
DATA
  6
CONTINUOUS
 62
     7
 10
33.0
 20
-148.5
 30
0.0
 40
1.0
 50
0.0
 51
180.0
  0
ARC
  5
453
  8
DATA
  6
CONTINUOUS
 62
     7
 10
33.0
 20
-172.0
 30
0.0
 40
1.0
 50
180.0
 51
0.0
  0
LINE
  5
454
  8
DATA
  6
CONTINUOUS
 62
     7
 10
34.0
 20
-172.0
 30
0.0
 11
34.0
 21
-148.5
 31
0.0
  0
LINE
  5
455
  8
DATA
  6
CONTINUOUS
 62
     7
 10
32.0
 20
-148.5
 30
0.0
 11
32.0
 21
-172.0
 31
0.0
  0
ARC
  5
456
  8
DATA
  6
CONTINUOUS
 62
     7
 10
13.0
 20
-148.5
 30
0.0
 40
1.0
 50
0.0
 51
180.0
  0
ARC
  5
457
  8
DATA
  6
CONTINUOUS
 62
     7
 10
13.0
 20
-172.0
 30
0.0
 40
1.0
 50
180.0
 51
0.0
  0
LINE
  5
458
  8
DATA
  6
CONTINUOUS
 62
     7
 10
14.0
 20
-172.0
 30
0.0
 11
14.0
 21
-148.5
 31
0.0
  0
LINE
  5
459
  8
DATA
  6
CONTINUOUS
 62
     7
 10
12.0
 20
-148.5
 30
0.0
 11
12.0
 21
-172.0
 31
0.0
  0
ARC
  5
45A
  8
DATA
  6
CONTINUOUS
 62
     7
 10
8.0
 20
-148.5
 30
0.0
 40
1.0
 50
0.0
 51
180.0
  0
ARC
  5
45B
  8
DATA
  6
CONTINUOUS
 62
     7
 10
8.0
 20
-172.0
 30
0.0
 40
1.0
 50
180.0
 51
0.0
  0
LINE
  5
45C
  8
DATA
  6
CONTINUOUS
 62
     7
 10
9.0
 20
-172.0
 30
0.0
 11
9.0
 21
-148.5
 31
0.0
  0
LINE
  5
45D
  8
DATA
  6
CONTINUOUS
 62
     7
 10
7.0
 20
-148.5
 30
0.0
 11
7.0
 21
-172.0
 31
0.0
  0
ARC
  5
45E
  8
DATA
  6
CONTINUOUS
 62
     7
 10
3.0
 20
-148.5
 30
0.0
 40
1.0
 50
0.0
 51
180.0
  0
ARC
  5
45F
  8
DATA
  6
CONTINUOUS
 62
     7
 10
3.0
 20
-172.0
 30
0.0
 40
1.0
 50
180.0
 51
0.0
  0
LINE
  5
460
  8
DATA
  6
CONTINUOUS
 62
     7
 10
4.0
 20
-172.0
 30
0.0
 11
4.0
 21
-148.5
 31
0.0
  0
LINE
  5
461
  8
DATA
  6
CONTINUOUS
 62
     7
 10
2.0
 20
-148.5
 30
0.0
 11
2.0
 21
-172.0
 31
0.0
  0
ARC
  5
462
  8
DATA
  6
CONTINUOUS
 62
     7
 10
-2.0
 20
-148.5
 30
0.0
 40
1.0
 50
0.0
 51
180.0
  0
ARC
  5
463
  8
DATA
  6
CONTINUOUS
 62
     7
 10
-2.0
 20
-172.0
 30
0.0
 40
1.0
 50
180.0
 51
0.0
  0
LINE
  5
464
  8
DATA
  6
CONTINUOUS
 62
     7
 10
-1.0
 20
-172.0
 30
0.0
 11
-1.0
 21
-148.5
 31
0.0
  0
LINE
  5
465
  8
DATA
  6
CONTINUOUS
 62
     7
 10
-3.0
 20
-148.5
 30
0.0
 11
-3.0
 21
-172.0
 31
0.0
  0
ARC
  5
466
  8
DATA
  6
CONTINUOUS
 62
     7
 10
-7.0
 20
-148.5
 30
0.0
 40
1.0
 50
0.0
 51
180.0
  0
ARC
  5
467
  8
DATA
  6
CONTINUOUS
 62
     7
 10
-7.0
 20
-172.0
 30
0.0
 40
1.0
 50
180.0
 51
0.0
  0
LINE
  5
468
  8
DATA
  6
CONTINUOUS
 62
     7
 10
-6.0
 20
-172.0
 30
0.0
 11
-6.0
 21
-148.5
 31
0.0
  0
LINE
  5
469
  8
DATA
  6
CONTINUOUS
 62
     7
 10
-8.0
 20
-148.5
 30
0.0
 11
-8.0
 21
-172.0
 31
0.0
  0
ARC
  5
46A
  8
DATA
  6
CONTINUOUS
 62
     7
 10
-12.0
 20
-148.5
 30
0.0
 40
1.0
 50
0.0
 51
180.0
  0
ARC
  5
46B
  8
DATA
  6
CONTINUOUS
 62
     7
 10
-12.0
 20
-172.0
 30
0.0
 40
1.0
 50
180.0
 51
0.0
  0
LINE
  5
46C
  8
DATA
  6
CONTINUOUS
 62
     7
 10
-11.0
 20
-172.0
 30
0.0
 11
-11.0
 21
-148.5
 31
0.0
  0
LINE
  5
46D
  8
DATA
  6
CONTINUOUS
 62
     7
 10
-13.0
 20
-148.5
 30
0.0
 11
-13.0
 21
-172.0
 31
0.0
  0
ARC
  5
46E
  8
DATA
  6
CONTINUOUS
 62
     7
 10
-17.0
 20
-148.5
 30
0.0
 40
1.0
 50
0.0
 51
180.0
  0
ARC
  5
46F
  8
DATA
  6
CONTINUOUS
 62
     7
 10
-17.0
 20
-172.0
 30
0.0
 40
1.0
 50
180.0
 51
0.0
  0
LINE
  5
470
  8
DATA
  6
CONTINUOUS
 62
     7
 10
-16.0
 20
-172.0
 30
0.0
 11
-16.0
 21
-148.5
 31
0.0
  0
LINE
  5
471
  8
DATA
  6
CONTINUOUS
 62
     7
 10
-18.0
 20
-148.5
 30
0.0
 11
-18.0
 21
-172.0
 31
0.0
  0
ARC
  5
472
  8
DATA
  6
CONTINUOUS
 62
     7
 10
-22.0
 20
-148.5
 30
0.0
 40
1.0
 50
0.0
 51
180.0
  0
ARC
  5
473
  8
DATA
  6
CONTINUOUS
 62
     7
 10
-22.0
 20
-172.0
 30
0.0
 40
1.0
 50
180.0
 51
0.0
  0
LINE
  5
474
  8
DATA
  6
CONTINUOUS
 62
     7
 10
-21.0
 20
-172.0
 30
0.0
 11
-21.0
 21
-148.5
 31
0.0
  0
LINE
  5
475
  8
DATA
  6
CONTINUOUS
 62
     7
 10
-23.0
 20
-148.5
 30
0.0
 11
-23.0
 21
-172.0
 31
0.0
  0
ARC
  5
476
  8
DATA
  6
CONTINUOUS
 62
     7
 10
68.0
 20
-113.5
 30
0.0
 40
1.0
 50
0.0
 51
180.0
  0
ARC
  5
477
  8
DATA
  6
CONTINUOUS
 62
     7
 10
68.0
 20
-137.0
 30
0.0
 40
1.0
 50
180.0
 51
0.0
  0
LINE
  5
478
  8
DATA
  6
CONTINUOUS
 62
     7
 10
69.0
 20
-137.0
 30
0.0
 11
69.0
 21
-113.5
 31
0.0
  0
LINE
  5
479
  8
DATA
  6
CONTINUOUS
 62
     7
 10
67.0
 20
-113.5
 30
0.0
 11
67.0
 21
-137.0
 31
0.0
  0
ARC
  5
47A
  8
DATA
  6
CONTINUOUS
 62
     7
 10
63.0
 20
-113.5
 30
0.0
 40
1.0
 50
0.0
 51
180.0
  0
ARC
  5
47B
  8
DATA
  6
CONTINUOUS
 62
     7
 10
63.0
 20
-137.0
 30
0.0
 40
1.0
 50
180.0
 51
0.0
  0
LINE
  5
47C
  8
DATA
  6
CONTINUOUS
 62
     7
 10
64.0
 20
-137.0
 30
0.0
 11
64.0
 21
-113.5
 31
0.0
  0
LINE
  5
47D
  8
DATA
  6
CONTINUOUS
 62
     7
 10
62.0
 20
-113.5
 30
0.0
 11
62.0
 21
-137.0
 31
0.0
  0
ARC
  5
47E
  8
DATA
  6
CONTINUOUS
 62
     7
 10
58.0
 20
-113.5
 30
0.0
 40
1.0
 50
0.0
 51
180.0
  0
ARC
  5
47F
  8
DATA
  6
CONTINUOUS
 62
     7
 10
58.0
 20
-137.0
 30
0.0
 40
1.0
 50
180.0
 51
0.0
  0
LINE
  5
480
  8
DATA
  6
CONTINUOUS
 62
     7
 10
59.0
 20
-137.0
 30
0.0
 11
59.0
 21
-113.5
 31
0.0
  0
LINE
  5
481
  8
DATA
  6
CONTINUOUS
 62
     7
 10
57.0
 20
-113.5
 30
0.0
 11
57.0
 21
-137.0
 31
0.0
  0
ARC
  5
482
  8
DATA
  6
CONTINUOUS
 62
     7
 10
53.0
 20
-113.5
 30
0.0
 40
1.0
 50
0.0
 51
180.0
  0
ARC
  5
483
  8
DATA
  6
CONTINUOUS
 62
     7
 10
53.0
 20
-137.0
 30
0.0
 40
1.0
 50
180.0
 51
0.0
  0
LINE
  5
484
  8
DATA
  6
CONTINUOUS
 62
     7
 10
54.0
 20
-137.0
 30
0.0
 11
54.0
 21
-113.5
 31
0.0
  0
LINE
  5
485
  8
DATA
  6
CONTINUOUS
 62
     7
 10
52.0
 20
-113.5
 30
0.0
 11
52.0
 21
-137.0
 31
0.0
  0
ARC
  5
486
  8
DATA
  6
CONTINUOUS
 62
     7
 10
48.0
 20
-113.5
 30
0.0
 40
1.0
 50
0.0
 51
180.0
  0
ARC
  5
487
  8
DATA
  6
CONTINUOUS
 62
     7
 10
48.0
 20
-137.0
 30
0.0
 40
1.0
 50
180.0
 51
0.0
  0
LINE
  5
488
  8
DATA
  6
CONTINUOUS
 62
     7
 10
49.0
 20
-137.0
 30
0.0
 11
49.0
 21
-113.5
 31
0.0
  0
LINE
  5
489
  8
DATA
  6
CONTINUOUS
 62
     7
 10
47.0
 20
-113.5
 30
0.0
 11
47.0
 21
-137.0
 31
0.0
  0
ARC
  5
48A
  8
DATA
  6
CONTINUOUS
 62
     7
 10
43.0
 20
-113.5
 30
0.0
 40
1.0
 50
0.0
 51
180.0
  0
ARC
  5
48B
  8
DATA
  6
CONTINUOUS
 62
     7
 10
43.0
 20
-137.0
 30
0.0
 40
1.0
 50
180.0
 51
0.0
  0
LINE
  5
48C
  8
DATA
  6
CONTINUOUS
 62
     7
 10
44.0
 20
-137.0
 30
0.0
 11
44.0
 21
-113.5
 31
0.0
  0
LINE
  5
48D
  8
DATA
  6
CONTINUOUS
 62
     7
 10
42.0
 20
-113.5
 30
0.0
 11
42.0
 21
-137.0
 31
0.0
  0
ARC
  5
48E
  8
DATA
  6
CONTINUOUS
 62
     7
 10
38.0
 20
-113.5
 30
0.0
 40
1.0
 50
0.0
 51
180.0
  0
ARC
  5
48F
  8
DATA
  6
CONTINUOUS
 62
     7
 10
38.0
 20
-137.0
 30
0.0
 40
1.0
 50
180.0
 51
0.0
  0
LINE
  5
490
  8
DATA
  6
CONTINUOUS
 62
     7
 10
39.0
 20
-137.0
 30
0.0
 11
39.0
 21
-113.5
 31
0.0
  0
LINE
  5
491
  8
DATA
  6
CONTINUOUS
 62
     7
 10
37.0
 20
-113.5
 30
0.0
 11
37.0
 21
-137.0
 31
0.0
  0
ARC
  5
492
  8
DATA
  6
CONTINUOUS
 62
     7
 10
33.0
 20
-113.5
 30
0.0
 40
1.0
 50
0.0
 51
180.0
  0
ARC
  5
493
  8
DATA
  6
CONTINUOUS
 62
     7
 10
33.0
 20
-137.0
 30
0.0
 40
1.0
 50
180.0
 51
0.0
  0
LINE
  5
494
  8
DATA
  6
CONTINUOUS
 62
     7
 10
34.0
 20
-137.0
 30
0.0
 11
34.0
 21
-113.5
 31
0.0
  0
LINE
  5
495
  8
DATA
  6
CONTINUOUS
 62
     7
 10
32.0
 20
-113.5
 30
0.0
 11
32.0
 21
-137.0
 31
0.0
  0
ARC
  5
496
  8
DATA
  6
CONTINUOUS
 62
     7
 10
13.0
 20
-113.5
 30
0.0
 40
1.0
 50
0.0
 51
180.0
  0
ARC
  5
497
  8
DATA
  6
CONTINUOUS
 62
     7
 10
13.0
 20
-137.0
 30
0.0
 40
1.0
 50
180.0
 51
0.0
  0
LINE
  5
498
  8
DATA
  6
CONTINUOUS
 62
     7
 10
14.0
 20
-137.0
 30
0.0
 11
14.0
 21
-113.5
 31
0.0
  0
LINE
  5
499
  8
DATA
  6
CONTINUOUS
 62
     7
 10
12.0
 20
-113.5
 30
0.0
 11
12.0
 21
-137.0
 31
0.0
  0
ARC
  5
49A
  8
DATA
  6
CONTINUOUS
 62
     7
 10
8.0
 20
-113.5
 30
0.0
 40
1.0
 50
0.0
 51
180.0
  0
ARC
  5
49B
  8
DATA
  6
CONTINUOUS
 62
     7
 10
8.0
 20
-137.0
 30
0.0
 40
1.0
 50
180.0
 51
0.0
  0
LINE
  5
49C
  8
DATA
  6
CONTINUOUS
 62
     7
 10
9.0
 20
-137.0
 30
0.0
 11
9.0
 21
-113.5
 31
0.0
  0
LINE
  5
49D
  8
DATA
  6
CONTINUOUS
 62
     7
 10
7.0
 20
-113.5
 30
0.0
 11
7.0
 21
-137.0
 31
0.0
  0
ARC
  5
49E
  8
DATA
  6
CONTINUOUS
 62
     7
 10
3.0
 20
-113.5
 30
0.0
 40
1.0
 50
0.0
 51
180.0
  0
ARC
  5
49F
  8
DATA
  6
CONTINUOUS
 62
     7
 10
3.0
 20
-137.0
 30
0.0
 40
1.0
 50
180.0
 51
0.0
  0
LINE
  5
4A0
  8
DATA
  6
CONTINUOUS
 62
     7
 10
4.0
 20
-137.0
 30
0.0
 11
4.0
 21
-113.5
 31
0.0
  0
LINE
  5
4A1
  8
DATA
  6
CONTINUOUS
 62
     7
 10
2.0
 20
-113.5
 30
0.0
 11
2.0
 21
-137.0
 31
0.0
  0
ARC
  5
4A2
  8
DATA
  6
CONTINUOUS
 62
     7
 10
-2.0
 20
-113.5
 30
0.0
 40
1.0
 50
0.0
 51
180.0
  0
ARC
  5
4A3
  8
DATA
  6
CONTINUOUS
 62
     7
 10
-2.0
 20
-137.0
 30
0.0
 40
1.0
 50
180.0
 51
0.0
  0
LINE
  5
4A4
  8
DATA
  6
CONTINUOUS
 62
     7
 10
-1.0
 20
-137.0
 30
0.0
 11
-1.0
 21
-113.5
 31
0.0
  0
LINE
  5
4A5
  8
DATA
  6
CONTINUOUS
 62
     7
 10
-3.0
 20
-113.5
 30
0.0
 11
-3.0
 21
-137.0
 31
0.0
  0
ARC
  5
4A6
  8
DATA
  6
CONTINUOUS
 62
     7
 10
-7.0
 20
-113.5
 30
0.0
 40
1.0
 50
0.0
 51
180.0
  0
ARC
  5
4A7
  8
DATA
  6
CONTINUOUS
 62
     7
 10
-7.0
 20
-137.0
 30
0.0
 40
1.0
 50
180.0
 51
0.0
  0
LINE
  5
4A8
  8
DATA
  6
CONTINUOUS
 62
     7
 10
-6.0
 20
-137.0
 30
0.0
 11
-6.0
 21
-113.5
 31
0.0
  0
LINE
  5
4A9
  8
DATA
  6
CONTINUOUS
 62
     7
 10
-8.0
 20
-113.5
 30
0.0
 11
-8.0
 21
-137.0
 31
0.0
  0
ARC
  5
4AA
  8
DATA
  6
CONTINUOUS
 62
     7
 10
-12.0
 20
-113.5
 30
0.0
 40
1.0
 50
0.0
 51
180.0
  0
ARC
  5
4AB
  8
DATA
  6
CONTINUOUS
 62
     7
 10
-12.0
 20
-137.0
 30
0.0
 40
1.0
 50
180.0
 51
0.0
  0
LINE
  5
4AC
  8
DATA
  6
CONTINUOUS
 62
     7
 10
-11.0
 20
-137.0
 30
0.0
 11
-11.0
 21
-113.5
 31
0.0
  0
LINE
  5
4AD
  8
DATA
  6
CONTINUOUS
 62
     7
 10
-13.0
 20
-113.5
 30
0.0
 11
-13.0
 21
-137.0
 31
0.0
  0
ARC
  5
4AE
  8
DATA
  6
CONTINUOUS
 62
     7
 10
-17.0
 20
-113.5
 30
0.0
 40
1.0
 50
0.0
 51
180.0
  0
ARC
  5
4AF
  8
DATA
  6
CONTINUOUS
 62
     7
 10
-17.0
 20
-137.0
 30
0.0
 40
1.0
 50
180.0
 51
0.0
  0
LINE
  5
4B0
  8
DATA
  6
CONTINUOUS
 62
     7
 10
-16.0
 20
-137.0
 30
0.0
 11
-16.0
 21
-113.5
 31
0.0
  0
LINE
  5
4B1
  8
DATA
  6
CONTINUOUS
 62
     7
 10
-18.0
 20
-113.5
 30
0.0
 11
-18.0
 21
-137.0
 31
0.0
  0
ARC
  5
4B2
  8
DATA
  6
CONTINUOUS
 62
     7
 10
-22.0
 20
-113.5
 30
0.0
 40
1.0
 50
0.0
 51
180.0
  0
ARC
  5
4B3
  8
DATA
  6
CONTINUOUS
 62
     7
 10
-22.0
 20
-137.0
 30
0.0
 40
1.0
 50
180.0
 51
0.0
  0
LINE
  5
4B4
  8
DATA
  6
CONTINUOUS
 62
     7
 10
-21.0
 20
-137.0
 30
0.0
 11
-21.0
 21
-113.5
 31
0.0
  0
LINE
  5
4B5
  8
DATA
  6
CONTINUOUS
 62
     7
 10
-23.0
 20
-113.5
 30
0.0
 11
-23.0
 21
-137.0
 31
0.0
  0
ARC
  5
4B6
  8
DATA
  6
CONTINUOUS
 62
     7
 10
68.0
 20
-78.5
 30
0.0
 40
1.0
 50
0.0
 51
180.0
  0
ARC
  5
4B7
  8
DATA
  6
CONTINUOUS
 62
     7
 10
68.0
 20
-102.0
 30
0.0
 40
1.0
 50
180.0
 51
0.0
  0
LINE
  5
4B8
  8
DATA
  6
CONTINUOUS
 62
     7
 10
69.0
 20
-102.0
 30
0.0
 11
69.0
 21
-78.5
 31
0.0
  0
LINE
  5
4B9
  8
DATA
  6
CONTINUOUS
 62
     7
 10
67.0
 20
-78.5
 30
0.0
 11
67.0
 21
-102.0
 31
0.0
  0
ARC
  5
4BA
  8
DATA
  6
CONTINUOUS
 62
     7
 10
63.0
 20
-78.5
 30
0.0
 40
1.0
 50
0.0
 51
180.0
  0
ARC
  5
4BB
  8
DATA
  6
CONTINUOUS
 62
     7
 10
63.0
 20
-102.0
 30
0.0
 40
1.0
 50
180.0
 51
0.0
  0
LINE
  5
4BC
  8
DATA
  6
CONTINUOUS
 62
     7
 10
64.0
 20
-102.0
 30
0.0
 11
64.0
 21
-78.5
 31
0.0
  0
LINE
  5
4BD
  8
DATA
  6
CONTINUOUS
 62
     7
 10
62.0
 20
-78.5
 30
0.0
 11
62.0
 21
-102.0
 31
0.0
  0
ARC
  5
4BE
  8
DATA
  6
CONTINUOUS
 62
     7
 10
-17.0
 20
-78.5
 30
0.0
 40
1.0
 50
0.0
 51
180.0
  0
ARC
  5
4BF
  8
DATA
  6
CONTINUOUS
 62
     7
 10
-17.0
 20
-102.0
 30
0.0
 40
1.0
 50
180.0
 51
0.0
  0
LINE
  5
4C0
  8
DATA
  6
CONTINUOUS
 62
     7
 10
-16.0
 20
-102.0
 30
0.0
 11
-16.0
 21
-78.5
 31
0.0
  0
LINE
  5
4C1
  8
DATA
  6
CONTINUOUS
 62
     7
 10
-18.0
 20
-78.5
 30
0.0
 11
-18.0
 21
-102.0
 31
0.0
  0
ARC
  5
4C2
  8
DATA
  6
CONTINUOUS
 62
     7
 10
-22.0
 20
-78.5
 30
0.0
 40
1.0
 50
0.0
 51
180.0
  0
ARC
  5
4C3
  8
DATA
  6
CONTINUOUS
 62
     7
 10
-22.0
 20
-102.0
 30
0.0
 40
1.0
 50
180.0
 51
0.0
  0
LINE
  5
4C4
  8
DATA
  6
CONTINUOUS
 62
     7
 10
-21.0
 20
-102.0
 30
0.0
 11
-21.0
 21
-78.5
 31
0.0
  0
LINE
  5
4C5
  8
DATA
  6
CONTINUOUS
 62
     7
 10
-23.0
 20
-78.5
 30
0.0
 11
-23.0
 21
-102.0
 31
0.0
  0
ARC
  5
4C6
  8
DATA
  6
CONTINUOUS
 62
     7
 10
68.0
 20
-43.5
 30
0.0
 40
1.0
 50
0.0
 51
180.0
  0
ARC
  5
4C7
  8
DATA
  6
CONTINUOUS
 62
     7
 10
68.0
 20
-67.0
 30
0.0
 40
1.0
 50
180.0
 51
0.0
  0
LINE
  5
4C8
  8
DATA
  6
CONTINUOUS
 62
     7
 10
69.0
 20
-67.0
 30
0.0
 11
69.0
 21
-43.5
 31
0.0
  0
LINE
  5
4C9
  8
DATA
  6
CONTINUOUS
 62
     7
 10
67.0
 20
-43.5
 30
0.0
 11
67.0
 21
-67.0
 31
0.0
  0
ARC
  5
4CA
  8
DATA
  6
CONTINUOUS
 62
     7
 10
63.0
 20
-43.5
 30
0.0
 40
1.0
 50
0.0
 51
180.0
  0
ARC
  5
4CB
  8
DATA
  6
CONTINUOUS
 62
     7
 10
63.0
 20
-67.0
 30
0.0
 40
1.0
 50
180.0
 51
0.0
  0
LINE
  5
4CC
  8
DATA
  6
CONTINUOUS
 62
     7
 10
64.0
 20
-67.0
 30
0.0
 11
64.0
 21
-43.5
 31
0.0
  0
LINE
  5
4CD
  8
DATA
  6
CONTINUOUS
 62
     7
 10
62.0
 20
-43.5
 30
0.0
 11
62.0
 21
-67.0
 31
0.0
  0
ARC
  5
4CE
  8
DATA
  6
CONTINUOUS
 62
     7
 10
-17.0
 20
-43.5
 30
0.0
 40
1.0
 50
0.0
 51
180.0
  0
ARC
  5
4CF
  8
DATA
  6
CONTINUOUS
 62
     7
 10
-17.0
 20
-67.0
 30
0.0
 40
1.0
 50
180.0
 51
0.0
  0
LINE
  5
4D0
  8
DATA
  6
CONTINUOUS
 62
     7
 10
-16.0
 20
-67.0
 30
0.0
 11
-16.0
 21
-43.5
 31
0.0
  0
LINE
  5
4D1
  8
DATA
  6
CONTINUOUS
 62
     7
 10
-18.0
 20
-43.5
 30
0.0
 11
-18.0
 21
-67.0
 31
0.0
  0
ARC
  5
4D2
  8
DATA
  6
CONTINUOUS
 62
     7
 10
-22.0
 20
-43.5
 30
0.0
 40
1.0
 50
0.0
 51
180.0
  0
ARC
  5
4D3
  8
DATA
  6
CONTINUOUS
 62
     7
 10
-22.0
 20
-67.0
 30
0.0
 40
1.0
 50
180.0
 51
0.0
  0
LINE
  5
4D4
  8
DATA
  6
CONTINUOUS
 62
     7
 10
-21.0
 20
-67.0
 30
0.0
 11
-21.0
 21
-43.5
 31
0.0
  0
LINE
  5
4D5
  8
DATA
  6
CONTINUOUS
 62
     7
 10
-23.0
 20
-43.5
 30
0.0
 11
-23.0
 21
-67.0
 31
0.0
  0
ARC
  5
4D6
  8
DATA
  6
CONTINUOUS
 62
     7
 10
13.0
 20
4.0
 30
0.0
 40
1.0
 50
0.0
 51
180.0
  0
ARC
  5
4D7
  8
DATA
  6
CONTINUOUS
 62
     7
 10
13.0
 20
-19.5
 30
0.0
 40
1.0
 50
180.0
 51
0.0
  0
LINE
  5
4D8
  8
DATA
  6
CONTINUOUS
 62
     7
 10
14.0
 20
-19.5
 30
0.0
 11
14.0
 21
4.0
 31
0.0
  0
LINE
  5
4D9
  8
DATA
  6
CONTINUOUS
 62
     7
 10
12.0
 20
4.0
 30
0.0
 11
12.0
 21
-19.5
 31
0.0
  0
ARC
  5
4DA
  8
DATA
  6
CONTINUOUS
 62
     7
 10
8.0
 20
4.0
 30
0.0
 40
1.0
 50
0.0
 51
180.0
  0
ARC
  5
4DB
  8
DATA
  6
CONTINUOUS
 62
     7
 10
8.0
 20
-19.5
 30
0.0
 40
1.0
 50
180.0
 51
0.0
  0
LINE
  5
4DC
  8
DATA
  6
CONTINUOUS
 62
     7
 10
9.0
 20
-19.5
 30
0.0
 11
9.0
 21
4.0
 31
0.0
  0
LINE
  5
4DD
  8
DATA
  6
CONTINUOUS
 62
     7
 10
7.0
 20
4.0
 30
0.0
 11
7.0
 21
-19.5
 31
0.0
  0
ARC
  5
4DE
  8
DATA
  6
CONTINUOUS
 62
     7
 10
3.0
 20
4.0
 30
0.0
 40
1.0
 50
0.0
 51
180.0
  0
ARC
  5
4DF
  8
DATA
  6
CONTINUOUS
 62
     7
 10
3.0
 20
-19.5
 30
0.0
 40
1.0
 50
180.0
 51
0.0
  0
LINE
  5
4E0
  8
DATA
  6
CONTINUOUS
 62
     7
 10
4.0
 20
-19.5
 30
0.0
 11
4.0
 21
4.0
 31
0.0
  0
LINE
  5
4E1
  8
DATA
  6
CONTINUOUS
 62
     7
 10
2.0
 20
4.0
 30
0.0
 11
2.0
 21
-19.5
 31
0.0
  0
ARC
  5
4E2
  8
DATA
  6
CONTINUOUS
 62
     7
 10
-2.0
 20
4.0
 30
0.0
 40
1.0
 50
0.0
 51
180.0
  0
ARC
  5
4E3
  8
DATA
  6
CONTINUOUS
 62
     7
 10
-2.0
 20
-19.5
 30
0.0
 40
1.0
 50
180.0
 51
0.0
  0
LINE
  5
4E4
  8
DATA
  6
CONTINUOUS
 62
     7
 10
-1.0
 20
-19.5
 30
0.0
 11
-1.0
 21
4.0
 31
0.0
  0
LINE
  5
4E5
  8
DATA
  6
CONTINUOUS
 62
     7
 10
-3.0
 20
4.0
 30
0.0
 11
-3.0
 21
-19.5
 31
0.0
  0
ARC
  5
4E6
  8
DATA
  6
CONTINUOUS
 62
     7
 10
-7.0
 20
4.0
 30
0.0
 40
1.0
 50
0.0
 51
180.0
  0
ARC
  5
4E7
  8
DATA
  6
CONTINUOUS
 62
     7
 10
-7.0
 20
-19.5
 30
0.0
 40
1.0
 50
180.0
 51
0.0
  0
LINE
  5
4E8
  8
DATA
  6
CONTINUOUS
 62
     7
 10
-6.0
 20
-19.5
 30
0.0
 11
-6.0
 21
4.0
 31
0.0
  0
LINE
  5
4E9
  8
DATA
  6
CONTINUOUS
 62
     7
 10
-8.0
 20
4.0
 30
0.0
 11
-8.0
 21
-19.5
 31
0.0
  0
ARC
  5
4EA
  8
DATA
  6
CONTINUOUS
 62
     7
 10
-12.0
 20
4.0
 30
0.0
 40
1.0
 50
0.0
 51
180.0
  0
ARC
  5
4EB
  8
DATA
  6
CONTINUOUS
 62
     7
 10
-12.0
 20
-19.5
 30
0.0
 40
1.0
 50
180.0
 51
0.0
  0
LINE
  5
4EC
  8
DATA
  6
CONTINUOUS
 62
     7
 10
-11.0
 20
-19.5
 30
0.0
 11
-11.0
 21
4.0
 31
0.0
  0
LINE
  5
4ED
  8
DATA
  6
CONTINUOUS
 62
     7
 10
-13.0
 20
4.0
 30
0.0
 11
-13.0
 21
-19.5
 31
0.0
  0
ARC
  5
4EE
  8
DATA
  6
CONTINUOUS
 62
     7
 10
-17.0
 20
4.0
 30
0.0
 40
1.0
 50
0.0
 51
180.0
  0
ARC
  5
4EF
  8
DATA
  6
CONTINUOUS
 62
     7
 10
-17.0
 20
-19.5
 30
0.0
 40
1.0
 50
180.0
 51
0.0
  0
LINE
  5
4F0
  8
DATA
  6
CONTINUOUS
 62
     7
 10
-16.0
 20
-19.5
 30
0.0
 11
-16.0
 21
4.0
 31
0.0
  0
LINE
  5
4F1
  8
DATA
  6
CONTINUOUS
 62
     7
 10
-18.0
 20
4.0
 30
0.0
 11
-18.0
 21
-19.5
 31
0.0
  0
ARC
  5
4F2
  8
DATA
  6
CONTINUOUS
 62
     7
 10
-22.0
 20
4.0
 30
0.0
 40
1.0
 50
0.0
 51
180.0
  0
ARC
  5
4F3
  8
DATA
  6
CONTINUOUS
 62
     7
 10
-22.0
 20
-19.5
 30
0.0
 40
1.0
 50
180.0
 51
0.0
  0
LINE
  5
4F4
  8
DATA
  6
CONTINUOUS
 62
     7
 10
-21.0
 20
-19.5
 30
0.0
 11
-21.0
 21
4.0
 31
0.0
  0
LINE
  5
4F5
  8
DATA
  6
CONTINUOUS
 62
     7
 10
-23.0
 20
4.0
 30
0.0
 11
-23.0
 21
-19.5
 31
0.0
  0
POLYLINE
  5
4F6
  8
DATA
  6
CONTINUOUS
 62
     7
 66
     1
 10
0.0
 20
0.0
 30
0.0
 70
     1
  0
VERTEX
  5
DD3
  8
DATA
  6
CONTINUOUS
 62
     7
 10
-380.0
 20
185.0
 30
0.0
  0
VERTEX
  5
DD4
  8
DATA
  6
CONTINUOUS
 62
     7
 10
103.0
 20
185.0
 30
0.0
  0
VERTEX
  5
DD5
  8
DATA
  6
CONTINUOUS
 62
     7
 10
103.0
 20
140.0
 30
0.0
  0
VERTEX
  5
DD6
  8
DATA
  6
CONTINUOUS
 62
     7
 10
-380.0
 20
140.0
 30
0.0
  0
SEQEND
  5
DD7
  8
DATA
  6
CONTINUOUS
 62
     7
  0
LINE
  5
4FD
  8
DATA
  6
CONTINUOUS
 62
     7
 10
77.5
 20
185.0
 30
0.0
 11
77.5
 21
178.69999999999999
 31
0.0
  0
LINE
  5
4FE
  8
DATA
  6
CONTINUOUS
 62
     7
 10
77.5
 20
146.2999999999999
 30
0.0
 11
77.5
 21
140.0
 31
0.0
  0
LINE
  5
4FF
  8
DATA
  6
CONTINUOUS
 62
     7
 10
-354.5
 20
185.0
 30
0.0
 11
-354.5
 21
178.69999999999999
 31
0.0
  0
LINE
  5
500
  8
DATA
  6
CONTINUOUS
 62
     7
 10
-354.5
 20
146.2999999999999
 30
0.0
 11
-354.5
 21
140.0
 31
0.0
  0
INSERT
  5
501
  8
DATA
 62
     7
  2
RACK___
 10
94.0
 20
146.59999999999991
 30
0.0
 50
180.0
  0
INSERT
  5
502
  8
DATA
 62
     7
  2
RACK___
 10
94.0
 20
178.39999999999989
 30
0.0
 50
180.0
  0
INSERT
  5
503
  8
DATA
 62
     7
  2
RACK___
 10
-371.0
 20
146.59999999999991
 30
0.0
 50
180.0
  0
INSERT
  5
504
  8
DATA
 62
     7
  2
RACK___
 10
-371.0
 20
178.39999999999989
 30
0.0
 50
180.0
  0
LINE
  5
505
  8
DATA
  6
CONTINUOUS
 62
     7
 10
77.5
 20
146.2999999999999
 30
0.0
 11
-134.0122819332027
 21
146.2999999999999
 31
0.0
  0
LINE
  5
506
  8
DATA
  6
CONTINUOUS
 62
     7
 10
-139.80792323058651
 20
146.2999999999999
 30
0.0
 11
-150.04282273323761
 21
146.2999999999999
 31
0.0
  0
LINE
  5
507
  8
DATA
  6
CONTINUOUS
 62
     7
 10
-157.08382384769419
 20
146.2999999999999
 30
0.0
 11
-290.92368021179431
 21
146.2999999999999
 31
0.0
  0
LINE
  5
508
  8
DATA
  6
CONTINUOUS
 62
     7
 10
-300.8165369442919
 20
146.2999999999999
 30
0.0
 11
-328.37762066089681
 21
146.2999999999999
 31
0.0
  0
LINE
  5
509
  8
DATA
  6
CONTINUOUS
 62
     7
 10
-338.36259649518962
 20
146.2999999999999
 30
0.0
 11
-354.5
 21
146.2999999999999
 31
0.0
  0
LINE
  5
50A
  8
DATA
  6
CONTINUOUS
 62
     7
 10
-354.5
 20
178.69999999999999
 30
0.0
 11
-146.39999999999981
 21
178.69999999999999
 31
0.0
  0
LINE
  5
50B
  8
DATA
  6
CONTINUOUS
 62
     7
 10
-138.60000000000011
 20
178.69999999999999
 30
0.0
 11
77.5
 21
178.69999999999999
 31
0.0
  0
LINE
  5
50C
  8
DATA
  6
CONTINUOUS
 62
     7
 10
76.5
 20
178.69999999999999
 30
0.0
 11
76.5
 21
146.2999999999999
 31
0.0
  0
LINE
  5
50D
  8
DATA
  6
CONTINUOUS
 62
     7
 10
-353.5
 20
178.69999999999999
 30
0.0
 11
-353.5
 21
146.2999999999999
 31
0.0
  0
POLYLINE
  5
50E
  8
DATA
  6
CONTINUOUS
 62
     7
 66
     1
 10
0.0
 20
0.0
 30
0.0
 70
     1
  0
VERTEX
  5
DD8
  8
DATA
  6
CONTINUOUS
 62
     7
 10
30.46043279432115
 20
172.8929698643876
 30
0.0
  0
VERTEX
  5
DD9
  8
DATA
  6
CONTINUOUS
 62
     7
 10
60.460432794321143
 20
172.8929698643876
 30
0.0
  0
VERTEX
  5
DDA
  8
DATA
  6
CONTINUOUS
 62
     7
 10
60.460432794321143
 20
151.8929698643876
 30
0.0
  0
VERTEX
  5
DDB
  8
DATA
  6
CONTINUOUS
 62
     7
 10
30.46043279432115
 20
151.8929698643876
 30
0.0
  0
SEQEND
  5
DDC
  8
DATA
  6
CONTINUOUS
 62
     7
  0
LINE
  5
515
  8
DATA
  6
CONTINUOUS
 62
     7
 10
57.960432794321143
 20
154.69296986438761
 30
0.0
 11
32.96043279432115
 21
154.69296986438761
 31
0.0
  0
LINE
  5
516
  8
DATA
  6
CONTINUOUS
 62
     7
 10
57.960432794321143
 20
165.09296986438761
 30
0.0
 11
57.960432794321143
 21
154.69296986438761
 31
0.0
  0
LINE
  5
517
  8
DATA
  6
CONTINUOUS
 62
     7
 10
32.96043279432115
 20
165.09296986438761
 30
0.0
 11
32.96043279432115
 21
154.69296986438761
 31
0.0
  0
LINE
  5
518
  8
DATA
  6
CONTINUOUS
 62
     7
 10
52.960432794321143
 20
170.0929698643875
 30
0.0
 11
57.960432794321143
 21
165.09296986438761
 31
0.0
  0
LINE
  5
519
  8
DATA
  6
CONTINUOUS
 62
     7
 10
37.96043279432115
 20
170.0929698643875
 30
0.0
 11
32.96043279432115
 21
165.09296986438761
 31
0.0
  0
LINE
  5
51A
  8
DATA
  6
CONTINUOUS
 62
     7
 10
52.960432794321143
 20
170.0929698643875
 30
0.0
 11
37.96043279432115
 21
170.0929698643875
 31
0.0
  0
POLYLINE
  5
51B
  8
DATA
  6
CONTINUOUS
 62
     7
 66
     1
 10
0.0
 20
0.0
 30
0.0
 70
     1
  0
VERTEX
  5
DDD
  8
DATA
  6
CONTINUOUS
 62
     7
 10
44.460432794321143
 20
166.7236220658184
 30
0.0
  0
VERTEX
  5
DDE
  8
DATA
  6
CONTINUOUS
 62
     7
 10
46.460432794321143
 20
166.7236220658184
 30
0.0
  0
VERTEX
  5
DDF
  8
DATA
  6
CONTINUOUS
 62
     7
 10
46.460432794321143
 20
162.92362206581839
 30
0.0
  0
VERTEX
  5
DE0
  8
DATA
  6
CONTINUOUS
 62
     7
 10
44.460432794321143
 20
162.92362206581839
 30
0.0
  0
SEQEND
  5
DE1
  8
DATA
  6
CONTINUOUS
 62
     7
  0
POLYLINE
  5
522
  8
DATA
  6
CONTINUOUS
 62
     7
 66
     1
 10
0.0
 20
0.0
 30
0.0
 70
     1
  0
VERTEX
  5
DE2
  8
DATA
  6
CONTINUOUS
 62
     7
 10
37.660432794321082
 20
162.59296986438761
 30
0.0
  0
VERTEX
  5
DE3
  8
DATA
  6
CONTINUOUS
 62
     7
 10
39.660432794321082
 20
162.59296986438761
 30
0.0
  0
VERTEX
  5
DE4
  8
DATA
  6
CONTINUOUS
 62
     7
 10
39.660432794321082
 20
158.7929698643876
 30
0.0
  0
VERTEX
  5
DE5
  8
DATA
  6
CONTINUOUS
 62
     7
 10
37.660432794321082
 20
158.7929698643876
 30
0.0
  0
SEQEND
  5
DE6
  8
DATA
  6
CONTINUOUS
 62
     7
  0
POLYLINE
  5
529
  8
DATA
  6
CONTINUOUS
 62
     7
 66
     1
 10
0.0
 20
0.0
 30
0.0
 70
     1
  0
VERTEX
  5
DE7
  8
DATA
  6
CONTINUOUS
 62
     7
 10
51.260432794321098
 20
162.59296986438761
 30
0.0
  0
VERTEX
  5
DE8
  8
DATA
  6
CONTINUOUS
 62
     7
 10
53.260432794321098
 20
162.59296986438761
 30
0.0
  0
VERTEX
  5
DE9
  8
DATA
  6
CONTINUOUS
 62
     7
 10
53.260432794321098
 20
158.7929698643876
 30
0.0
  0
VERTEX
  5
DEA
  8
DATA
  6
CONTINUOUS
 62
     7
 10
51.260432794321098
 20
158.7929698643876
 30
0.0
  0
SEQEND
  5
DEB
  8
DATA
  6
CONTINUOUS
 62
     7
  0
CIRCLE
  5
530
  8
DATA
  6
CONTINUOUS
 62
     7
 10
65.269235672910838
 20
162.5429698643876
 30
0.0
 40
2.6499999999999768
  0
POLYLINE
  5
531
  8
DATA
  6
CONTINUOUS
 62
     7
 66
     1
 10
0.0
 20
0.0
 30
0.0
  0
VERTEX
  5
DEC
  8
DATA
  6
CONTINUOUS
 62
     7
 10
64.869235672910861
 20
162.7929698643876
 30
0.0
  0
VERTEX
  5
DED
  8
DATA
  6
CONTINUOUS
 62
     7
 10
64.869235672910861
 20
164.34296986438761
 30
0.0
  0
VERTEX
  5
DEE
  8
DATA
  6
CONTINUOUS
 62
     7
 10
65.66923567291083
 20
164.34296986438761
 30
0.0
  0
VERTEX
  5
DEF
  8
DATA
  6
CONTINUOUS
 62
     7
 10
65.66923567291083
 20
162.7929698643876
 30
0.0
  0
SEQEND
  5
DF0
  8
DATA
  6
CONTINUOUS
 62
     7
  0
POLYLINE
  5
538
  8
DATA
  6
CONTINUOUS
 62
     7
 66
     1
 10
0.0
 20
0.0
 30
0.0
  0
VERTEX
  5
DF1
  8
DATA
  6
CONTINUOUS
 62
     7
 10
64.869235672910861
 20
162.2929698643876
 30
0.0
  0
VERTEX
  5
DF2
  8
DATA
  6
CONTINUOUS
 62
     7
 10
64.869235672910861
 20
160.74296986438759
 30
0.0
  0
VERTEX
  5
DF3
  8
DATA
  6
CONTINUOUS
 62
     7
 10
65.66923567291083
 20
160.74296986438759
 30
0.0
  0
VERTEX
  5
DF4
  8
DATA
  6
CONTINUOUS
 62
     7
 10
65.66923567291083
 20
162.2929698643876
 30
0.0
  0
SEQEND
  5
DF5
  8
DATA
  6
CONTINUOUS
 62
     7
  0
POLYLINE
  5
53F
  8
DATA
  6
CONTINUOUS
 62
     7
 66
     1
 10
0.0
 20
0.0
 30
0.0
  0
VERTEX
  5
DF6
  8
DATA
  6
CONTINUOUS
 62
     7
 10
65.66923567291083
 20
162.2929698643876
 30
0.0
  0
VERTEX
  5
DF7
  8
DATA
  6
CONTINUOUS
 62
     7
 10
67.069235672910835
 20
162.2929698643876
 30
0.0
  0
VERTEX
  5
DF8
  8
DATA
  6
CONTINUOUS
 62
     7
 10
67.069235672910835
 20
162.7929698643876
 30
0.0
  0
VERTEX
  5
DF9
  8
DATA
  6
CONTINUOUS
 62
     7
 10
65.66923567291083
 20
162.7929698643876
 30
0.0
  0
SEQEND
  5
DFA
  8
DATA
  6
CONTINUOUS
 62
     7
  0
POLYLINE
  5
546
  8
DATA
  6
CONTINUOUS
 62
     7
 66
     1
 10
0.0
 20
0.0
 30
0.0
  0
VERTEX
  5
DFB
  8
DATA
  6
CONTINUOUS
 62
     7
 10
64.869235672910861
 20
162.7929698643876
 30
0.0
  0
VERTEX
  5
DFC
  8
DATA
  6
CONTINUOUS
 62
     7
 10
63.46923567291082
 20
162.7929698643876
 30
0.0
  0
VERTEX
  5
DFD
  8
DATA
  6
CONTINUOUS
 62
     7
 10
63.46923567291082
 20
162.2929698643876
 30
0.0
  0
VERTEX
  5
DFE
  8
DATA
  6
CONTINUOUS
 62
     7
 10
64.869235672910861
 20
162.2929698643876
 30
0.0
  0
SEQEND
  5
DFF
  8
DATA
  6
CONTINUOUS
 62
     7
  0
CIRCLE
  5
54D
  8
DATA
  6
CONTINUOUS
 62
     7
 10
25.95923567291084
 20
162.5429698643876
 30
0.0
 40
2.6499999999999768
  0
POLYLINE
  5
54E
  8
DATA
  6
CONTINUOUS
 62
     7
 66
     1
 10
0.0
 20
0.0
 30
0.0
  0
VERTEX
  5
E00
  8
DATA
  6
CONTINUOUS
 62
     7
 10
25.559235672910859
 20
162.7929698643876
 30
0.0
  0
VERTEX
  5
E01
  8
DATA
  6
CONTINUOUS
 62
     7
 10
25.559235672910859
 20
164.34296986438761
 30
0.0
  0
VERTEX
  5
E02
  8
DATA
  6
CONTINUOUS
 62
     7
 10
26.35923567291081
 20
164.34296986438761
 30
0.0
  0
VERTEX
  5
E03
  8
DATA
  6
CONTINUOUS
 62
     7
 10
26.35923567291081
 20
162.7929698643876
 30
0.0
  0
SEQEND
  5
E04
  8
DATA
  6
CONTINUOUS
 62
     7
  0
POLYLINE
  5
555
  8
DATA
  6
CONTINUOUS
 62
     7
 66
     1
 10
0.0
 20
0.0
 30
0.0
  0
VERTEX
  5
E05
  8
DATA
  6
CONTINUOUS
 62
     7
 10
25.559235672910859
 20
162.2929698643876
 30
0.0
  0
VERTEX
  5
E06
  8
DATA
  6
CONTINUOUS
 62
     7
 10
25.559235672910859
 20
160.74296986438759
 30
0.0
  0
VERTEX
  5
E07
  8
DATA
  6
CONTINUOUS
 62
     7
 10
26.35923567291081
 20
160.74296986438759
 30
0.0
  0
VERTEX
  5
E08
  8
DATA
  6
CONTINUOUS
 62
     7
 10
26.35923567291081
 20
162.2929698643876
 30
0.0
  0
SEQEND
  5
E09
  8
DATA
  6
CONTINUOUS
 62
     7
  0
POLYLINE
  5
55C
  8
DATA
  6
CONTINUOUS
 62
     7
 66
     1
 10
0.0
 20
0.0
 30
0.0
  0
VERTEX
  5
E0A
  8
DATA
  6
CONTINUOUS
 62
     7
 10
26.35923567291081
 20
162.2929698643876
 30
0.0
  0
VERTEX
  5
E0B
  8
DATA
  6
CONTINUOUS
 62
     7
 10
27.759235672910851
 20
162.2929698643876
 30
0.0
  0
VERTEX
  5
E0C
  8
DATA
  6
CONTINUOUS
 62
     7
 10
27.759235672910851
 20
162.7929698643876
 30
0.0
  0
VERTEX
  5
E0D
  8
DATA
  6
CONTINUOUS
 62
     7
 10
26.35923567291081
 20
162.7929698643876
 30
0.0
  0
SEQEND
  5
E0E
  8
DATA
  6
CONTINUOUS
 62
     7
  0
POLYLINE
  5
563
  8
DATA
  6
CONTINUOUS
 62
     7
 66
     1
 10
0.0
 20
0.0
 30
0.0
  0
VERTEX
  5
E0F
  8
DATA
  6
CONTINUOUS
 62
     7
 10
25.559235672910859
 20
162.7929698643876
 30
0.0
  0
VERTEX
  5
E10
  8
DATA
  6
CONTINUOUS
 62
     7
 10
24.159235672910832
 20
162.7929698643876
 30
0.0
  0
VERTEX
  5
E11
  8
DATA
  6
CONTINUOUS
 62
     7
 10
24.159235672910832
 20
162.2929698643876
 30
0.0
  0
VERTEX
  5
E12
  8
DATA
  6
CONTINUOUS
 62
     7
 10
25.559235672910859
 20
162.2929698643876
 30
0.0
  0
SEQEND
  5
E13
  8
DATA
  6
CONTINUOUS
 62
     7
  0
CIRCLE
  5
56A
  8
DATA
  6
CONTINUOUS
 62
     7
 10
-101.4951784161621
 20
153.1020627003717
 30
0.0
 40
4.1500000000000332
  0
CIRCLE
  5
56B
  8
DATA
  6
CONTINUOUS
 62
     7
 10
-101.4951784161621
 20
167.46033091643861
 30
0.0
 40
4.1500000000000332
  0
CIRCLE
  5
56C
  8
DATA
  6
CONTINUOUS
 62
     7
 10
-101.4951784161621
 20
153.1020627003717
 30
0.0
 40
1.699999999999988
  0
CIRCLE
  5
56D
  8
DATA
  6
CONTINUOUS
 62
     7
 10
-101.4951784161621
 20
167.46033091643861
 30
0.0
 40
1.699999999999988
  0
CIRCLE
  5
56E
  8
DATA
  6
CONTINUOUS
 62
     7
 10
-107.2353473857022
 20
160.21033091643861
 30
0.0
 40
2.599999999999965
  0
TEXT
  5
56F
  8
DATA
 62
     7
 10
-90.339717635225483
 20
161.62360973301159
 30
0.0
 40
2.693359375
  1
S/PDIF
 50
180.0
 41
0.7
 11
-90.339717635225483
 21
158.93025035801151
 31
0.0
 73
     3
  0
TEXT
  5
570
  8
DATA
 62
     7
 10
-105.8270511969454
 20
154.36206270037169
 30
0.0
 40
2.693359375
  1
IN
 50
180.0
 41
0.7
 11
-105.8270511969454
 21
151.66870332537169
 31
0.0
 73
     3
  0
TEXT
  5
571
  8
DATA
 62
     7
 10
-106.39889778675079
 20
168.7203309164386
 30
0.0
 40
2.693359375
  1
OUT
 50
180.0
 41
0.7
 11
-106.39889778675079
 21
166.0269715414386
 31
0.0
 73
     3
  0
POLYLINE
  5
572
  8
DATA
  6
CONTINUOUS
 62
     7
 66
     1
 10
0.0
 20
0.0
 30
0.0
  0
VERTEX
  5
E14
  8
DATA
  6
CONTINUOUS
 62
     7
 10
-107.4853473857022
 20
160.46033091643861
 30
0.0
  0
VERTEX
  5
E15
  8
DATA
  6
CONTINUOUS
 62
     7
 10
-107.4853473857022
 20
162.21033091643861
 30
0.0
  0
VERTEX
  5
E16
  8
DATA
  6
CONTINUOUS
 62
     7
 10
-106.9853473857022
 20
162.21033091643861
 30
0.0
  0
VERTEX
  5
E17
  8
DATA
  6
CONTINUOUS
 62
     7
 10
-106.9853473857022
 20
160.46033091643861
 30
0.0
  0
SEQEND
  5
E18
  8
DATA
  6
CONTINUOUS
 62
     7
  0
POLYLINE
  5
579
  8
DATA
  6
CONTINUOUS
 62
     7
 66
     1
 10
0.0
 20
0.0
 30
0.0
  0
VERTEX
  5
E19
  8
DATA
  6
CONTINUOUS
 62
     7
 10
-107.4853473857022
 20
159.96033091643861
 30
0.0
  0
VERTEX
  5
E1A
  8
DATA
  6
CONTINUOUS
 62
     7
 10
-107.4853473857022
 20
158.21033091643861
 30
0.0
  0
VERTEX
  5
E1B
  8
DATA
  6
CONTINUOUS
 62
     7
 10
-106.9853473857022
 20
158.21033091643861
 30
0.0
  0
VERTEX
  5
E1C
  8
DATA
  6
CONTINUOUS
 62
     7
 10
-106.9853473857022
 20
159.96033091643861
 30
0.0
  0
SEQEND
  5
E1D
  8
DATA
  6
CONTINUOUS
 62
     7
  0
POLYLINE
  5
580
  8
DATA
  6
CONTINUOUS
 62
     7
 66
     1
 10
0.0
 20
0.0
 30
0.0
  0
VERTEX
  5
E1E
  8
DATA
  6
CONTINUOUS
 62
     7
 10
-106.9853473857022
 20
160.46033091643861
 30
0.0
  0
VERTEX
  5
E1F
  8
DATA
  6
CONTINUOUS
 62
     7
 10
-105.2353473857022
 20
160.46033091643861
 30
0.0
  0
VERTEX
  5
E20
  8
DATA
  6
CONTINUOUS
 62
     7
 10
-105.2353473857022
 20
159.96033091643861
 30
0.0
  0
VERTEX
  5
E21
  8
DATA
  6
CONTINUOUS
 62
     7
 10
-106.9853473857022
 20
159.96033091643861
 30
0.0
  0
SEQEND
  5
E22
  8
DATA
  6
CONTINUOUS
 62
     7
  0
POLYLINE
  5
587
  8
DATA
  6
CONTINUOUS
 62
     7
 66
     1
 10
0.0
 20
0.0
 30
0.0
  0
VERTEX
  5
E23
  8
DATA
  6
CONTINUOUS
 62
     7
 10
-107.4853473857022
 20
160.46033091643861
 30
0.0
  0
VERTEX
  5
E24
  8
DATA
  6
CONTINUOUS
 62
     7
 10
-109.2353473857022
 20
160.46033091643861
 30
0.0
  0
VERTEX
  5
E25
  8
DATA
  6
CONTINUOUS
 62
     7
 10
-109.2353473857022
 20
159.96033091643861
 30
0.0
  0
VERTEX
  5
E26
  8
DATA
  6
CONTINUOUS
 62
     7
 10
-107.4853473857022
 20
159.96033091643861
 30
0.0
  0
SEQEND
  5
E27
  8
DATA
  6
CONTINUOUS
 62
     7
  0
LINE
  5
58E
  8
DATA
  6
CONTINUOUS
 62
     7
 10
-24.5
 20
178.69999999999999
 30
0.0
 11
-24.5
 21
146.2999999999999
 31
0.0
  0
ARC
  5
58F
  8
DATA
  6
CONTINUOUS
 62
     7
 10
15.5
 20
151.98671010052439
 30
0.0
 40
1.0
 50
270.0
 51
90.0
  0
ARC
  5
590
  8
DATA
  6
CONTINUOUS
 62
     7
 10
-8.0
 20
151.98671010052439
 30
0.0
 40
1.0
 50
90.0
 51
270.0
  0
LINE
  5
591
  8
DATA
  6
CONTINUOUS
 62
     7
 10
-8.0
 20
150.9867101005245
 30
0.0
 11
15.509999999999989
 21
150.9867101005245
 31
0.0
  0
LINE
  5
592
  8
DATA
  6
CONTINUOUS
 62
     7
 10
15.5
 20
152.98671010052439
 30
0.0
 11
-8.0299999999999692
 21
152.98671010052439
 31
0.0
  0
ARC
  5
593
  8
DATA
  6
CONTINUOUS
 62
     7
 10
15.5
 20
157.54505700693829
 30
0.0
 40
1.0
 50
270.0
 51
90.0
  0
ARC
  5
594
  8
DATA
  6
CONTINUOUS
 62
     7
 10
-8.0
 20
157.54505700693829
 30
0.0
 40
1.0
 50
90.0
 51
270.0
  0
LINE
  5
595
  8
DATA
  6
CONTINUOUS
 62
     7
 10
-8.0
 20
156.54505700693841
 30
0.0
 11
15.509999999999989
 21
156.54505700693841
 31
0.0
  0
LINE
  5
596
  8
DATA
  6
CONTINUOUS
 62
     7
 10
15.5
 20
158.54505700693829
 30
0.0
 11
-8.0299999999999692
 21
158.54505700693829
 31
0.0
  0
ARC
  5
597
  8
DATA
  6
CONTINUOUS
 62
     7
 10
15.5
 20
162.54505700693829
 30
0.0
 40
1.0
 50
270.0
 51
90.0
  0
ARC
  5
598
  8
DATA
  6
CONTINUOUS
 62
     7
 10
-8.0
 20
162.54505700693829
 30
0.0
 40
1.0
 50
90.0
 51
270.0
  0
LINE
  5
599
  8
DATA
  6
CONTINUOUS
 62
     7
 10
-8.0
 20
161.54505700693829
 30
0.0
 11
15.509999999999989
 21
161.54505700693829
 31
0.0
  0
LINE
  5
59A
  8
DATA
  6
CONTINUOUS
 62
     7
 10
15.5
 20
163.54505700693841
 30
0.0
 11
-8.0299999999999692
 21
163.54505700693841
 31
0.0
  0
ARC
  5
59B
  8
DATA
  6
CONTINUOUS
 62
     7
 10
15.5
 20
167.54505700693841
 30
0.0
 40
1.0
 50
270.0
 51
90.0
  0
ARC
  5
59C
  8
DATA
  6
CONTINUOUS
 62
     7
 10
-8.0
 20
167.54505700693841
 30
0.0
 40
1.0
 50
90.0
 51
270.0
  0
LINE
  5
59D
  8
DATA
  6
CONTINUOUS
 62
     7
 10
-8.0
 20
166.54505700693841
 30
0.0
 11
15.509999999999989
 21
166.54505700693841
 31
0.0
  0
LINE
  5
59E
  8
DATA
  6
CONTINUOUS
 62
     7
 10
15.5
 20
168.54505700693841
 30
0.0
 11
-8.0299999999999692
 21
168.54505700693841
 31
0.0
  0
ARC
  5
59F
  8
DATA
  6
CONTINUOUS
 62
     7
 10
15.5
 20
172.54505700693829
 30
0.0
 40
1.0
 50
270.0
 51
90.0
  0
ARC
  5
5A0
  8
DATA
  6
CONTINUOUS
 62
     7
 10
-8.0
 20
172.54505700693829
 30
0.0
 40
1.0
 50
90.0
 51
270.0
  0
LINE
  5
5A1
  8
DATA
  6
CONTINUOUS
 62
     7
 10
-8.0
 20
171.54505700693841
 30
0.0
 11
15.509999999999989
 21
171.54505700693841
 31
0.0
  0
LINE
  5
5A2
  8
DATA
  6
CONTINUOUS
 62
     7
 10
15.5
 20
173.54505700693829
 30
0.0
 11
-8.0299999999999692
 21
173.54505700693829
 31
0.0
  0
CIRCLE
  5
5A3
  8
DATA
  6
CONTINUOUS
 62
     7
 10
-18.5
 20
153.0
 30
0.0
 40
3.849999999999993
  0
CIRCLE
  5
5A4
  8
DATA
  6
CONTINUOUS
 62
     7
 10
-18.5
 20
172.0
 30
0.0
 40
3.849999999999993
  0
CIRCLE
  5
5A5
  8
DATA
  6
CONTINUOUS
 62
     7
 10
-18.5
 20
153.0
 30
0.0
 40
1.149999999999977
  0
CIRCLE
  5
5A6
  8
DATA
  6
CONTINUOUS
 62
     7
 10
-18.5
 20
172.0
 30
0.0
 40
1.149999999999977
  0
CIRCLE
  5
5A7
  8
DATA
  6
CONTINUOUS
 62
     7
 10
-38.596479705732953
 20
165.6997762739764
 30
0.0
 40
8.2500000000000284
  0
CIRCLE
  5
5A8
  8
DATA
  6
CONTINUOUS
 62
     7
 10
-38.593076242052291
 20
165.83530213486389
 30
0.0
 40
6.9000000000000021
  0
CIRCLE
  5
5A9
  8
DATA
  6
CONTINUOUS
 62
     7
 10
-36.005993016178031
 20
165.87983989704219
 30
0.0
 40
0.5519621081381703
  0
CIRCLE
  5
5AA
  8
DATA
  6
CONTINUOUS
 62
     7
 10
-37.024776275581559
 20
167.6330222186908
 30
0.0
 40
0.5522307728991206
  0
CIRCLE
  5
5AB
  8
DATA
  6
CONTINUOUS
 62
     7
 10
-38.844038569593209
 20
168.61887595120649
 30
0.0
 40
0.5505590016105373
  0
CIRCLE
  5
5AC
  8
DATA
  6
CONTINUOUS
 62
     7
 10
-40.702939325975038
 20
167.6286725790381
 30
0.0
 40
0.5526399569132444
  0
CIRCLE
  5
5AD
  8
DATA
  6
CONTINUOUS
 62
     7
 10
-41.749262908726223
 20
165.8921302121804
 30
0.0
 40
0.5441980039814436
  0
POLYLINE
  5
5AE
  8
DATA
  6
CONTINUOUS
 62
     7
 66
     1
 10
0.0
 20
0.0
 30
0.0
  0
VERTEX
  5
E28
  8
DATA
  6
CONTINUOUS
 62
     7
 10
-39.173999511098501
 20
168.1781481538801
 30
0.0
  0
VERTEX
  5
E29
  8
DATA
  6
CONTINUOUS
 62
     7
 10
-39.173999511098501
 20
167.29877888108601
 30
0.0
  0
VERTEX
  5
E2A
  8
DATA
  6
CONTINUOUS
 62
     7
 10
-38.492021165856308
 20
167.29877888108601
 30
0.0
  0
VERTEX
  5
E2B
  8
DATA
  6
CONTINUOUS
 62
     7
 10
-38.492021165856308
 20
168.195556967789
 30
0.0
  0
SEQEND
  5
E2C
  8
DATA
  6
CONTINUOUS
 62
     7
  0
POLYLINE
  5
5B5
  8
DATA
  6
CONTINUOUS
 62
     7
 66
     1
 10
0.0
 20
0.0
 30
0.0
  0
VERTEX
  5
E2D
  8
DATA
  6
CONTINUOUS
 62
     7
 10
-39.173999511098501
 20
169.05960374853291
 30
0.0
  0
VERTEX
  5
E2E
  8
DATA
  6
CONTINUOUS
 62
     7
 10
-39.173999511098501
 20
169.9167342571441
 30
0.0
  0
VERTEX
  5
E2F
  8
DATA
  6
CONTINUOUS
 62
     7
 10
-38.492021165856308
 20
169.9167342571441
 30
0.0
  0
VERTEX
  5
E30
  8
DATA
  6
CONTINUOUS
 62
     7
 10
-38.492021165856308
 20
169.04219493462409
 30
0.0
  0
SEQEND
  5
E31
  8
DATA
  6
CONTINUOUS
 62
     7
  0
POLYLINE
  5
5BC
  8
DATA
  6
CONTINUOUS
 62
     7
 66
     1
 10
0.0
 20
0.0
 30
0.0
  0
VERTEX
  5
E32
  8
DATA
  6
CONTINUOUS
 62
     7
 10
-40.647973419169922
 20
167.07877288719351
 30
0.0
  0
VERTEX
  5
E33
  8
DATA
  6
CONTINUOUS
 62
     7
 10
-40.032030021596569
 20
166.46282948962039
 30
0.0
  0
VERTEX
  5
E34
  8
DATA
  6
CONTINUOUS
 62
     7
 10
-39.548035763892443
 20
166.9468237473244
 30
0.0
  0
VERTEX
  5
E35
  8
DATA
  6
CONTINUOUS
 62
     7
 10
-40.155348837783031
 20
167.5541368212148
 30
0.0
  0
SEQEND
  5
E36
  8
DATA
  6
CONTINUOUS
 62
     7
  0
POLYLINE
  5
5C3
  8
DATA
  6
CONTINUOUS
 62
     7
 66
     1
 10
0.0
 20
0.0
 30
0.0
  0
VERTEX
  5
E37
  8
DATA
  6
CONTINUOUS
 62
     7
 10
-41.252839017776772
 20
167.68363848580009
 30
0.0
  0
VERTEX
  5
E38
  8
DATA
  6
CONTINUOUS
 62
     7
 10
-41.879980969784427
 20
168.31078043780769
 30
0.0
  0
VERTEX
  5
E39
  8
DATA
  6
CONTINUOUS
 62
     7
 10
-41.395986712080322
 20
168.79477469551179
 30
0.0
  0
VERTEX
  5
E3A
  8
DATA
  6
CONTINUOUS
 62
     7
 10
-40.777475083784623
 20
168.1762630672163
 30
0.0
  0
SEQEND
  5
E3B
  8
DATA
  6
CONTINUOUS
 62
     7
  0
POLYLINE
  5
5CA
  8
DATA
  6
CONTINUOUS
 62
     7
 66
     1
 10
0.0
 20
0.0
 30
0.0
  0
VERTEX
  5
E3C
  8
DATA
  6
CONTINUOUS
 62
     7
 10
-36.97023214565823
 20
168.18255271325469
 30
0.0
  0
VERTEX
  5
E3D
  8
DATA
  6
CONTINUOUS
 62
     7
 10
-36.357985449127597
 20
168.79477469551179
 30
0.0
  0
VERTEX
  5
E3E
  8
DATA
  6
CONTINUOUS
 62
     7
 10
-35.873991191423492
 20
168.31078043780769
 30
0.0
  0
VERTEX
  5
E3F
  8
DATA
  6
CONTINUOUS
 62
     7
 10
-36.477555582845241
 20
167.70724041018491
 30
0.0
  0
SEQEND
  5
E40
  8
DATA
  6
CONTINUOUS
 62
     7
  0
POLYLINE
  5
5D1
  8
DATA
  6
CONTINUOUS
 62
     7
 66
     1
 10
0.0
 20
0.0
 30
0.0
  0
VERTEX
  5
E41
  8
DATA
  6
CONTINUOUS
 62
     7
 10
-37.574308971499221
 20
167.57850027189789
 30
0.0
  0
VERTEX
  5
E42
  8
DATA
  6
CONTINUOUS
 62
     7
 10
-38.206010995690256
 20
166.9468237473244
 30
0.0
  0
VERTEX
  5
E43
  8
DATA
  6
CONTINUOUS
 62
     7
 10
-37.722016737986181
 20
166.46282948962039
 30
0.0
  0
VERTEX
  5
E44
  8
DATA
  6
CONTINUOUS
 62
     7
 10
-37.099016556860619
 20
167.0858045223915
 30
0.0
  0
SEQEND
  5
E45
  8
DATA
  6
CONTINUOUS
 62
     7
  0
POLYLINE
  5
5D8
  8
DATA
  6
CONTINUOUS
 62
     7
 66
     1
 10
0.0
 20
0.0
 30
0.0
  0
VERTEX
  5
E46
  8
DATA
  6
CONTINUOUS
 62
     7
 10
-41.685315842964968
 20
165.35170238137781
 30
0.0
  0
VERTEX
  5
E47
  8
DATA
  6
CONTINUOUS
 62
     7
 10
-41.044031578318133
 20
164.70275542731011
 30
0.0
  0
VERTEX
  5
E48
  8
DATA
  6
CONTINUOUS
 62
     7
 10
-40.56003732061464
 20
165.18674968501429
 30
0.0
  0
VERTEX
  5
E49
  8
DATA
  6
CONTINUOUS
 62
     7
 10
-41.208858341413837
 20
165.82798684818809
 30
0.0
  0
SEQEND
  5
E4A
  8
DATA
  6
CONTINUOUS
 62
     7
  0
POLYLINE
  5
5DF
  8
DATA
  6
CONTINUOUS
 62
     7
 66
     1
 10
0.0
 20
0.0
 30
0.0
  0
VERTEX
  5
E4B
  8
DATA
  6
CONTINUOUS
 62
     7
 10
-42.288893080114477
 20
165.9624917476325
 30
0.0
  0
VERTEX
  5
E4C
  8
DATA
  6
CONTINUOUS
 62
     7
 10
-42.891982526506062
 20
166.5727874945299
 30
0.0
  0
VERTEX
  5
E4D
  8
DATA
  6
CONTINUOUS
 62
     7
 10
-42.429994789459528
 20
167.03484982995241
 30
0.0
  0
VERTEX
  5
E4E
  8
DATA
  6
CONTINUOUS
 62
     7
 10
-41.819755366290842
 20
166.43174329667829
 30
0.0
  0
SEQEND
  5
E4F
  8
DATA
  6
CONTINUOUS
 62
     7
  0
POLYLINE
  5
5E6
  8
DATA
  6
CONTINUOUS
 62
     7
 66
     1
 10
0.0
 20
0.0
 30
0.0
  0
VERTEX
  5
E50
  8
DATA
  6
CONTINUOUS
 62
     7
 10
-35.931984749763053
 20
166.42681790879081
 30
0.0
  0
VERTEX
  5
E51
  8
DATA
  6
CONTINUOUS
 62
     7
 10
-35.323977371748441
 20
167.03484982995241
 30
0.0
  0
VERTEX
  5
E52
  8
DATA
  6
CONTINUOUS
 62
     7
 10
-34.839983114044323
 20
166.5727874945299
 30
0.0
  0
VERTEX
  5
E53
  8
DATA
  6
CONTINUOUS
 62
     7
 10
-35.458162329223832
 20
165.9472469235003
 30
0.0
  0
SEQEND
  5
E54
  8
DATA
  6
CONTINUOUS
 62
     7
  0
POLYLINE
  5
5ED
  8
DATA
  6
CONTINUOUS
 62
     7
 66
     1
 10
0.0
 20
0.0
 30
0.0
  0
VERTEX
  5
E55
  8
DATA
  6
CONTINUOUS
 62
     7
 10
-36.552968040084437
 20
165.80580955152979
 30
0.0
  0
VERTEX
  5
E56
  8
DATA
  6
CONTINUOUS
 62
     7
 10
-37.17200291831108
 20
165.18674968501429
 30
0.0
  0
VERTEX
  5
E57
  8
DATA
  6
CONTINUOUS
 62
     7
 10
-36.688008660607608
 20
164.70275542731011
 30
0.0
  0
VERTEX
  5
E58
  8
DATA
  6
CONTINUOUS
 62
     7
 10
-36.066910522657132
 20
165.3312496800101
 30
0.0
  0
SEQEND
  5
E59
  8
DATA
  6
CONTINUOUS
 62
     7
  0
POLYLINE
  5
5F4
  8
DATA
  6
CONTINUOUS
 62
     7
 66
     1
 10
0.0
 20
0.0
 30
0.0
  0
VERTEX
  5
E5A
  8
DATA
  6
CONTINUOUS
 62
     7
 10
-40.023943960191687
 20
160.29009226190891
 30
0.0
  0
VERTEX
  5
E5B
  8
DATA
  6
CONTINUOUS
 62
     7
 10
-40.023943960191687
 20
161.95136613871489
 30
0.0
  0
VERTEX
  5
E5C
  8
DATA
  6
CONTINUOUS
 62
     7
 10
-37.623943960191703
 20
161.95136613871489
 30
0.0
  0
VERTEX
  5
E5D
  8
DATA
  6
CONTINUOUS
 62
     7
 10
-37.623943960191703
 20
160.29009226190891
 30
0.0
  0
SEQEND
  5
E5E
  8
DATA
  6
CONTINUOUS
 62
     7
  0
ARC
  5
5FB
  8
DATA
  6
CONTINUOUS
 62
     7
 10
-38.823943960191713
 20
165.41081152527511
 30
0.0
 40
5.2594453865602011
 50
283.18882270300429
 51
256.81117729699611
  0
CIRCLE
  5
5FC
  8
DATA
  6
CONTINUOUS
 62
     7
 10
-32.154220294267049
 20
173.8100666064993
 30
0.0
 40
2.0006999999999939
  0
POLYLINE
  5
5FD
  8
DATA
  6
CONTINUOUS
 62
     7
 66
     1
 10
0.0
 20
0.0
 30
0.0
  0
VERTEX
  5
E5F
  8
DATA
  6
CONTINUOUS
 62
     7
 10
-31.96184529426705
 20
174.0024416064993
 30
0.0
  0
VERTEX
  5
E60
  8
DATA
  6
CONTINUOUS
 62
     7
 10
-31.96184529426705
 20
175.34906660649929
 30
0.0
  0
VERTEX
  5
E61
  8
DATA
  6
CONTINUOUS
 62
     7
 10
-32.346595294267047
 20
175.34906660649929
 30
0.0
  0
VERTEX
  5
E62
  8
DATA
  6
CONTINUOUS
 62
     7
 10
-32.346595294267047
 20
174.0024416064993
 30
0.0
  0
SEQEND
  5
E63
  8
DATA
  6
CONTINUOUS
 62
     7
  0
POLYLINE
  5
604
  8
DATA
  6
CONTINUOUS
 62
     7
 66
     1
 10
0.0
 20
0.0
 30
0.0
  0
VERTEX
  5
E64
  8
DATA
  6
CONTINUOUS
 62
     7
 10
-31.96184529426705
 20
173.61769160649931
 30
0.0
  0
VERTEX
  5
E65
  8
DATA
  6
CONTINUOUS
 62
     7
 10
-31.96184529426705
 20
172.27106660649929
 30
0.0
  0
VERTEX
  5
E66
  8
DATA
  6
CONTINUOUS
 62
     7
 10
-32.346595294267047
 20
172.27106660649929
 30
0.0
  0
VERTEX
  5
E67
  8
DATA
  6
CONTINUOUS
 62
     7
 10
-32.346595294267047
 20
173.61769160649931
 30
0.0
  0
SEQEND
  5
E68
  8
DATA
  6
CONTINUOUS
 62
     7
  0
POLYLINE
  5
60B
  8
DATA
  6
CONTINUOUS
 62
     7
 66
     1
 10
0.0
 20
0.0
 30
0.0
  0
VERTEX
  5
E69
  8
DATA
  6
CONTINUOUS
 62
     7
 10
-32.346595294267047
 20
174.0024416064993
 30
0.0
  0
VERTEX
  5
E6A
  8
DATA
  6
CONTINUOUS
 62
     7
 10
-33.693220294267071
 20
174.0024416064993
 30
0.0
  0
VERTEX
  5
E6B
  8
DATA
  6
CONTINUOUS
 62
     7
 10
-33.693220294267071
 20
173.61769160649931
 30
0.0
  0
VERTEX
  5
E6C
  8
DATA
  6
CONTINUOUS
 62
     7
 10
-32.346595294267047
 20
173.61769160649931
 30
0.0
  0
SEQEND
  5
E6D
  8
DATA
  6
CONTINUOUS
 62
     7
  0
POLYLINE
  5
612
  8
DATA
  6
CONTINUOUS
 62
     7
 66
     1
 10
0.0
 20
0.0
 30
0.0
  0
VERTEX
  5
E6E
  8
DATA
  6
CONTINUOUS
 62
     7
 10
-31.96184529426705
 20
174.0024416064993
 30
0.0
  0
VERTEX
  5
E6F
  8
DATA
  6
CONTINUOUS
 62
     7
 10
-30.615220294267029
 20
174.0024416064993
 30
0.0
  0
VERTEX
  5
E70
  8
DATA
  6
CONTINUOUS
 62
     7
 10
-30.615220294267029
 20
173.61769160649931
 30
0.0
  0
VERTEX
  5
E71
  8
DATA
  6
CONTINUOUS
 62
     7
 10
-31.96184529426705
 20
173.61769160649931
 30
0.0
  0
SEQEND
  5
E72
  8
DATA
  6
CONTINUOUS
 62
     7
  0
CIRCLE
  5
619
  8
DATA
  6
CONTINUOUS
 62
     7
 10
-60.096479705732953
 20
165.6997762739764
 30
0.0
 40
8.2500000000000284
  0
CIRCLE
  5
61A
  8
DATA
  6
CONTINUOUS
 62
     7
 10
-60.093076242052291
 20
165.83530213486389
 30
0.0
 40
6.9000000000000021
  0
CIRCLE
  5
61B
  8
DATA
  6
CONTINUOUS
 62
     7
 10
-57.505993016178017
 20
165.87983989704219
 30
0.0
 40
0.5519621081381703
  0
CIRCLE
  5
61C
  8
DATA
  6
CONTINUOUS
 62
     7
 10
-58.524776275581559
 20
167.6330222186908
 30
0.0
 40
0.5522307728991206
  0
CIRCLE
  5
61D
  8
DATA
  6
CONTINUOUS
 62
     7
 10
-60.344038569593209
 20
168.61887595120649
 30
0.0
 40
0.5505590016105373
  0
CIRCLE
  5
61E
  8
DATA
  6
CONTINUOUS
 62
     7
 10
-62.202939325975038
 20
167.6286725790381
 30
0.0
 40
0.5526399569132444
  0
CIRCLE
  5
61F
  8
DATA
  6
CONTINUOUS
 62
     7
 10
-63.249262908726209
 20
165.8921302121804
 30
0.0
 40
0.5441980039814436
  0
POLYLINE
  5
620
  8
DATA
  6
CONTINUOUS
 62
     7
 66
     1
 10
0.0
 20
0.0
 30
0.0
  0
VERTEX
  5
E73
  8
DATA
  6
CONTINUOUS
 62
     7
 10
-60.673999511098479
 20
168.1781481538801
 30
0.0
  0
VERTEX
  5
E74
  8
DATA
  6
CONTINUOUS
 62
     7
 10
-60.673999511098479
 20
167.29877888108601
 30
0.0
  0
VERTEX
  5
E75
  8
DATA
  6
CONTINUOUS
 62
     7
 10
-59.992021165856293
 20
167.29877888108601
 30
0.0
  0
VERTEX
  5
E76
  8
DATA
  6
CONTINUOUS
 62
     7
 10
-59.992021165856293
 20
168.195556967789
 30
0.0
  0
SEQEND
  5
E77
  8
DATA
  6
CONTINUOUS
 62
     7
  0
POLYLINE
  5
627
  8
DATA
  6
CONTINUOUS
 62
     7
 66
     1
 10
0.0
 20
0.0
 30
0.0
  0
VERTEX
  5
E78
  8
DATA
  6
CONTINUOUS
 62
     7
 10
-60.673999511098479
 20
169.05960374853291
 30
0.0
  0
VERTEX
  5
E79
  8
DATA
  6
CONTINUOUS
 62
     7
 10
-60.673999511098479
 20
169.9167342571441
 30
0.0
  0
VERTEX
  5
E7A
  8
DATA
  6
CONTINUOUS
 62
     7
 10
-59.992021165856293
 20
169.9167342571441
 30
0.0
  0
VERTEX
  5
E7B
  8
DATA
  6
CONTINUOUS
 62
     7
 10
-59.992021165856293
 20
169.04219493462409
 30
0.0
  0
SEQEND
  5
E7C
  8
DATA
  6
CONTINUOUS
 62
     7
  0
POLYLINE
  5
62E
  8
DATA
  6
CONTINUOUS
 62
     7
 66
     1
 10
0.0
 20
0.0
 30
0.0
  0
VERTEX
  5
E7D
  8
DATA
  6
CONTINUOUS
 62
     7
 10
-62.147973419169922
 20
167.07877288719351
 30
0.0
  0
VERTEX
  5
E7E
  8
DATA
  6
CONTINUOUS
 62
     7
 10
-61.532030021596569
 20
166.46282948962039
 30
0.0
  0
VERTEX
  5
E7F
  8
DATA
  6
CONTINUOUS
 62
     7
 10
-61.048035763892443
 20
166.9468237473244
 30
0.0
  0
VERTEX
  5
E80
  8
DATA
  6
CONTINUOUS
 62
     7
 10
-61.655348837783031
 20
167.5541368212148
 30
0.0
  0
SEQEND
  5
E81
  8
DATA
  6
CONTINUOUS
 62
     7
  0
POLYLINE
  5
635
  8
DATA
  6
CONTINUOUS
 62
     7
 66
     1
 10
0.0
 20
0.0
 30
0.0
  0
VERTEX
  5
E82
  8
DATA
  6
CONTINUOUS
 62
     7
 10
-62.752839017776793
 20
167.68363848580009
 30
0.0
  0
VERTEX
  5
E83
  8
DATA
  6
CONTINUOUS
 62
     7
 10
-63.379980969784441
 20
168.31078043780769
 30
0.0
  0
VERTEX
  5
E84
  8
DATA
  6
CONTINUOUS
 62
     7
 10
-62.895986712080322
 20
168.79477469551179
 30
0.0
  0
VERTEX
  5
E85
  8
DATA
  6
CONTINUOUS
 62
     7
 10
-62.277475083784609
 20
168.1762630672163
 30
0.0
  0
SEQEND
  5
E86
  8
DATA
  6
CONTINUOUS
 62
     7
  0
POLYLINE
  5
63C
  8
DATA
  6
CONTINUOUS
 62
     7
 66
     1
 10
0.0
 20
0.0
 30
0.0
  0
VERTEX
  5
E87
  8
DATA
  6
CONTINUOUS
 62
     7
 10
-58.470232145658223
 20
168.18255271325469
 30
0.0
  0
VERTEX
  5
E88
  8
DATA
  6
CONTINUOUS
 62
     7
 10
-57.857985449127597
 20
168.79477469551179
 30
0.0
  0
VERTEX
  5
E89
  8
DATA
  6
CONTINUOUS
 62
     7
 10
-57.373991191423499
 20
168.31078043780769
 30
0.0
  0
VERTEX
  5
E8A
  8
DATA
  6
CONTINUOUS
 62
     7
 10
-57.977555582845241
 20
167.70724041018491
 30
0.0
  0
SEQEND
  5
E8B
  8
DATA
  6
CONTINUOUS
 62
     7
  0
POLYLINE
  5
643
  8
DATA
  6
CONTINUOUS
 62
     7
 66
     1
 10
0.0
 20
0.0
 30
0.0
  0
VERTEX
  5
E8C
  8
DATA
  6
CONTINUOUS
 62
     7
 10
-59.074308971499221
 20
167.57850027189789
 30
0.0
  0
VERTEX
  5
E8D
  8
DATA
  6
CONTINUOUS
 62
     7
 10
-59.706010995690256
 20
166.9468237473244
 30
0.0
  0
VERTEX
  5
E8E
  8
DATA
  6
CONTINUOUS
 62
     7
 10
-59.222016737986181
 20
166.46282948962039
 30
0.0
  0
VERTEX
  5
E8F
  8
DATA
  6
CONTINUOUS
 62
     7
 10
-58.599016556860619
 20
167.0858045223915
 30
0.0
  0
SEQEND
  5
E90
  8
DATA
  6
CONTINUOUS
 62
     7
  0
POLYLINE
  5
64A
  8
DATA
  6
CONTINUOUS
 62
     7
 66
     1
 10
0.0
 20
0.0
 30
0.0
  0
VERTEX
  5
E91
  8
DATA
  6
CONTINUOUS
 62
     7
 10
-63.185315842964968
 20
165.35170238137781
 30
0.0
  0
VERTEX
  5
E92
  8
DATA
  6
CONTINUOUS
 62
     7
 10
-62.54403157831814
 20
164.70275542731011
 30
0.0
  0
VERTEX
  5
E93
  8
DATA
  6
CONTINUOUS
 62
     7
 10
-62.06003732061464
 20
165.18674968501429
 30
0.0
  0
VERTEX
  5
E94
  8
DATA
  6
CONTINUOUS
 62
     7
 10
-62.708858341413851
 20
165.82798684818809
 30
0.0
  0
SEQEND
  5
E95
  8
DATA
  6
CONTINUOUS
 62
     7
  0
POLYLINE
  5
651
  8
DATA
  6
CONTINUOUS
 62
     7
 66
     1
 10
0.0
 20
0.0
 30
0.0
  0
VERTEX
  5
E96
  8
DATA
  6
CONTINUOUS
 62
     7
 10
-63.788893080114491
 20
165.9624917476325
 30
0.0
  0
VERTEX
  5
E97
  8
DATA
  6
CONTINUOUS
 62
     7
 10
-64.391982526506069
 20
166.5727874945299
 30
0.0
  0
VERTEX
  5
E98
  8
DATA
  6
CONTINUOUS
 62
     7
 10
-63.929994789459528
 20
167.03484982995241
 30
0.0
  0
VERTEX
  5
E99
  8
DATA
  6
CONTINUOUS
 62
     7
 10
-63.319755366290849
 20
166.43174329667829
 30
0.0
  0
SEQEND
  5
E9A
  8
DATA
  6
CONTINUOUS
 62
     7
  0
POLYLINE
  5
658
  8
DATA
  6
CONTINUOUS
 62
     7
 66
     1
 10
0.0
 20
0.0
 30
0.0
  0
VERTEX
  5
E9B
  8
DATA
  6
CONTINUOUS
 62
     7
 10
-57.431984749763053
 20
166.42681790879081
 30
0.0
  0
VERTEX
  5
E9C
  8
DATA
  6
CONTINUOUS
 62
     7
 10
-56.823977371748441
 20
167.03484982995241
 30
0.0
  0
VERTEX
  5
E9D
  8
DATA
  6
CONTINUOUS
 62
     7
 10
-56.339983114044323
 20
166.5727874945299
 30
0.0
  0
VERTEX
  5
E9E
  8
DATA
  6
CONTINUOUS
 62
     7
 10
-56.958162329223818
 20
165.9472469235003
 30
0.0
  0
SEQEND
  5
E9F
  8
DATA
  6
CONTINUOUS
 62
     7
  0
POLYLINE
  5
65F
  8
DATA
  6
CONTINUOUS
 62
     7
 66
     1
 10
0.0
 20
0.0
 30
0.0
  0
VERTEX
  5
EA0
  8
DATA
  6
CONTINUOUS
 62
     7
 10
-58.052968040084437
 20
165.80580955152979
 30
0.0
  0
VERTEX
  5
EA1
  8
DATA
  6
CONTINUOUS
 62
     7
 10
-58.67200291831108
 20
165.18674968501429
 30
0.0
  0
VERTEX
  5
EA2
  8
DATA
  6
CONTINUOUS
 62
     7
 10
-58.188008660607608
 20
164.70275542731011
 30
0.0
  0
VERTEX
  5
EA3
  8
DATA
  6
CONTINUOUS
 62
     7
 10
-57.566910522657139
 20
165.3312496800101
 30
0.0
  0
SEQEND
  5
EA4
  8
DATA
  6
CONTINUOUS
 62
     7
  0
POLYLINE
  5
666
  8
DATA
  6
CONTINUOUS
 62
     7
 66
     1
 10
0.0
 20
0.0
 30
0.0
  0
VERTEX
  5
EA5
  8
DATA
  6
CONTINUOUS
 62
     7
 10
-61.523943960191708
 20
160.29009226190891
 30
0.0
  0
VERTEX
  5
EA6
  8
DATA
  6
CONTINUOUS
 62
     7
 10
-61.523943960191708
 20
161.95136613871489
 30
0.0
  0
VERTEX
  5
EA7
  8
DATA
  6
CONTINUOUS
 62
     7
 10
-59.12394396019171
 20
161.95136613871489
 30
0.0
  0
VERTEX
  5
EA8
  8
DATA
  6
CONTINUOUS
 62
     7
 10
-59.12394396019171
 20
160.29009226190891
 30
0.0
  0
SEQEND
  5
EA9
  8
DATA
  6
CONTINUOUS
 62
     7
  0
ARC
  5
66D
  8
DATA
  6
CONTINUOUS
 62
     7
 10
-60.323943960191713
 20
165.41081152527511
 30
0.0
 40
5.2594453865602011
 50
283.18882270300429
 51
256.81117729699611
  0
CIRCLE
  5
66E
  8
DATA
  6
CONTINUOUS
 62
     7
 10
-53.654220294267041
 20
173.8100666064993
 30
0.0
 40
2.0006999999999939
  0
POLYLINE
  5
66F
  8
DATA
  6
CONTINUOUS
 62
     7
 66
     1
 10
0.0
 20
0.0
 30
0.0
  0
VERTEX
  5
EAA
  8
DATA
  6
CONTINUOUS
 62
     7
 10
-53.461845294267043
 20
174.0024416064993
 30
0.0
  0
VERTEX
  5
EAB
  8
DATA
  6
CONTINUOUS
 62
     7
 10
-53.461845294267043
 20
175.34906660649929
 30
0.0
  0
VERTEX
  5
EAC
  8
DATA
  6
CONTINUOUS
 62
     7
 10
-53.846595294267047
 20
175.34906660649929
 30
0.0
  0
VERTEX
  5
EAD
  8
DATA
  6
CONTINUOUS
 62
     7
 10
-53.846595294267047
 20
174.0024416064993
 30
0.0
  0
SEQEND
  5
EAE
  8
DATA
  6
CONTINUOUS
 62
     7
  0
POLYLINE
  5
676
  8
DATA
  6
CONTINUOUS
 62
     7
 66
     1
 10
0.0
 20
0.0
 30
0.0
  0
VERTEX
  5
EAF
  8
DATA
  6
CONTINUOUS
 62
     7
 10
-53.461845294267043
 20
173.61769160649931
 30
0.0
  0
VERTEX
  5
EB0
  8
DATA
  6
CONTINUOUS
 62
     7
 10
-53.461845294267043
 20
172.27106660649929
 30
0.0
  0
VERTEX
  5
EB1
  8
DATA
  6
CONTINUOUS
 62
     7
 10
-53.846595294267047
 20
172.27106660649929
 30
0.0
  0
VERTEX
  5
EB2
  8
DATA
  6
CONTINUOUS
 62
     7
 10
-53.846595294267047
 20
173.61769160649931
 30
0.0
  0
SEQEND
  5
EB3
  8
DATA
  6
CONTINUOUS
 62
     7
  0
POLYLINE
  5
67D
  8
DATA
  6
CONTINUOUS
 62
     7
 66
     1
 10
0.0
 20
0.0
 30
0.0
  0
VERTEX
  5
EB4
  8
DATA
  6
CONTINUOUS
 62
     7
 10
-53.846595294267047
 20
174.0024416064993
 30
0.0
  0
VERTEX
  5
EB5
  8
DATA
  6
CONTINUOUS
 62
     7
 10
-55.193220294267071
 20
174.0024416064993
 30
0.0
  0
VERTEX
  5
EB6
  8
DATA
  6
CONTINUOUS
 62
     7
 10
-55.193220294267071
 20
173.61769160649931
 30
0.0
  0
VERTEX
  5
EB7
  8
DATA
  6
CONTINUOUS
 62
     7
 10
-53.846595294267047
 20
173.61769160649931
 30
0.0
  0
SEQEND
  5
EB8
  8
DATA
  6
CONTINUOUS
 62
     7
  0
POLYLINE
  5
684
  8
DATA
  6
CONTINUOUS
 62
     7
 66
     1
 10
0.0
 20
0.0
 30
0.0
  0
VERTEX
  5
EB9
  8
DATA
  6
CONTINUOUS
 62
     7
 10
-53.461845294267043
 20
174.0024416064993
 30
0.0
  0
VERTEX
  5
EBA
  8
DATA
  6
CONTINUOUS
 62
     7
 10
-52.115220294267033
 20
174.0024416064993
 30
0.0
  0
VERTEX
  5
EBB
  8
DATA
  6
CONTINUOUS
 62
     7
 10
-52.115220294267033
 20
173.61769160649931
 30
0.0
  0
VERTEX
  5
EBC
  8
DATA
  6
CONTINUOUS
 62
     7
 10
-53.461845294267043
 20
173.61769160649931
 30
0.0
  0
SEQEND
  5
EBD
  8
DATA
  6
CONTINUOUS
 62
     7
  0
CIRCLE
  5
68B
  8
DATA
  6
CONTINUOUS
 62
     7
 10
-81.596479705732946
 20
165.6997762739764
 30
0.0
 40
8.2500000000000284
  0
CIRCLE
  5
68C
  8
DATA
  6
CONTINUOUS
 62
     7
 10
-81.593076242052291
 20
165.83530213486389
 30
0.0
 40
6.9000000000000021
  0
CIRCLE
  5
68D
  8
DATA
  6
CONTINUOUS
 62
     7
 10
-79.00599301617801
 20
165.87983989704219
 30
0.0
 40
0.5519621081381703
  0
CIRCLE
  5
68E
  8
DATA
  6
CONTINUOUS
 62
     7
 10
-80.024776275581544
 20
167.6330222186908
 30
0.0
 40
0.5522307728991206
  0
CIRCLE
  5
68F
  8
DATA
  6
CONTINUOUS
 62
     7
 10
-81.844038569593224
 20
168.61887595120649
 30
0.0
 40
0.5505590016105373
  0
CIRCLE
  5
690
  8
DATA
  6
CONTINUOUS
 62
     7
 10
-83.702939325975066
 20
167.6286725790381
 30
0.0
 40
0.5526399569132444
  0
CIRCLE
  5
691
  8
DATA
  6
CONTINUOUS
 62
     7
 10
-84.749262908726209
 20
165.8921302121804
 30
0.0
 40
0.5441980039814436
  0
POLYLINE
  5
692
  8
DATA
  6
CONTINUOUS
 62
     7
 66
     1
 10
0.0
 20
0.0
 30
0.0
  0
VERTEX
  5
EBE
  8
DATA
  6
CONTINUOUS
 62
     7
 10
-82.173999511098486
 20
168.1781481538801
 30
0.0
  0
VERTEX
  5
EBF
  8
DATA
  6
CONTINUOUS
 62
     7
 10
-82.173999511098486
 20
167.29877888108601
 30
0.0
  0
VERTEX
  5
EC0
  8
DATA
  6
CONTINUOUS
 62
     7
 10
-81.492021165856301
 20
167.29877888108601
 30
0.0
  0
VERTEX
  5
EC1
  8
DATA
  6
CONTINUOUS
 62
     7
 10
-81.492021165856301
 20
168.195556967789
 30
0.0
  0
SEQEND
  5
EC2
  8
DATA
  6
CONTINUOUS
 62
     7
  0
POLYLINE
  5
699
  8
DATA
  6
CONTINUOUS
 62
     7
 66
     1
 10
0.0
 20
0.0
 30
0.0
  0
VERTEX
  5
EC3
  8
DATA
  6
CONTINUOUS
 62
     7
 10
-82.173999511098486
 20
169.05960374853291
 30
0.0
  0
VERTEX
  5
EC4
  8
DATA
  6
CONTINUOUS
 62
     7
 10
-82.173999511098486
 20
169.9167342571441
 30
0.0
  0
VERTEX
  5
EC5
  8
DATA
  6
CONTINUOUS
 62
     7
 10
-81.492021165856301
 20
169.9167342571441
 30
0.0
  0
VERTEX
  5
EC6
  8
DATA
  6
CONTINUOUS
 62
     7
 10
-81.492021165856301
 20
169.04219493462409
 30
0.0
  0
SEQEND
  5
EC7
  8
DATA
  6
CONTINUOUS
 62
     7
  0
POLYLINE
  5
6A0
  8
DATA
  6
CONTINUOUS
 62
     7
 66
     1
 10
0.0
 20
0.0
 30
0.0
  0
VERTEX
  5
EC8
  8
DATA
  6
CONTINUOUS
 62
     7
 10
-83.647973419169901
 20
167.07877288719351
 30
0.0
  0
VERTEX
  5
EC9
  8
DATA
  6
CONTINUOUS
 62
     7
 10
-83.032030021596569
 20
166.46282948962039
 30
0.0
  0
VERTEX
  5
ECA
  8
DATA
  6
CONTINUOUS
 62
     7
 10
-82.548035763892457
 20
166.9468237473244
 30
0.0
  0
VERTEX
  5
ECB
  8
DATA
  6
CONTINUOUS
 62
     7
 10
-83.155348837783052
 20
167.5541368212148
 30
0.0
  0
SEQEND
  5
ECC
  8
DATA
  6
CONTINUOUS
 62
     7
  0
POLYLINE
  5
6A7
  8
DATA
  6
CONTINUOUS
 62
     7
 66
     1
 10
0.0
 20
0.0
 30
0.0
  0
VERTEX
  5
ECD
  8
DATA
  6
CONTINUOUS
 62
     7
 10
-84.252839017776779
 20
167.68363848580009
 30
0.0
  0
VERTEX
  5
ECE
  8
DATA
  6
CONTINUOUS
 62
     7
 10
-84.879980969784455
 20
168.31078043780769
 30
0.0
  0
VERTEX
  5
ECF
  8
DATA
  6
CONTINUOUS
 62
     7
 10
-84.395986712080287
 20
168.79477469551179
 30
0.0
  0
VERTEX
  5
ED0
  8
DATA
  6
CONTINUOUS
 62
     7
 10
-83.777475083784623
 20
168.1762630672163
 30
0.0
  0
SEQEND
  5
ED1
  8
DATA
  6
CONTINUOUS
 62
     7
  0
POLYLINE
  5
6AE
  8
DATA
  6
CONTINUOUS
 62
     7
 66
     1
 10
0.0
 20
0.0
 30
0.0
  0
VERTEX
  5
ED2
  8
DATA
  6
CONTINUOUS
 62
     7
 10
-79.97023214565823
 20
168.18255271325469
 30
0.0
  0
VERTEX
  5
ED3
  8
DATA
  6
CONTINUOUS
 62
     7
 10
-79.357985449127582
 20
168.79477469551179
 30
0.0
  0
VERTEX
  5
ED4
  8
DATA
  6
CONTINUOUS
 62
     7
 10
-78.873991191423499
 20
168.31078043780769
 30
0.0
  0
VERTEX
  5
ED5
  8
DATA
  6
CONTINUOUS
 62
     7
 10
-79.477555582845255
 20
167.70724041018491
 30
0.0
  0
SEQEND
  5
ED6
  8
DATA
  6
CONTINUOUS
 62
     7
  0
POLYLINE
  5
6B5
  8
DATA
  6
CONTINUOUS
 62
     7
 66
     1
 10
0.0
 20
0.0
 30
0.0
  0
VERTEX
  5
ED7
  8
DATA
  6
CONTINUOUS
 62
     7
 10
-80.574308971499221
 20
167.57850027189789
 30
0.0
  0
VERTEX
  5
ED8
  8
DATA
  6
CONTINUOUS
 62
     7
 10
-81.206010995690264
 20
166.9468237473244
 30
0.0
  0
VERTEX
  5
ED9
  8
DATA
  6
CONTINUOUS
 62
     7
 10
-80.722016737986138
 20
166.46282948962039
 30
0.0
  0
VERTEX
  5
EDA
  8
DATA
  6
CONTINUOUS
 62
     7
 10
-80.099016556860619
 20
167.0858045223915
 30
0.0
  0
SEQEND
  5
EDB
  8
DATA
  6
CONTINUOUS
 62
     7
  0
POLYLINE
  5
6BC
  8
DATA
  6
CONTINUOUS
 62
     7
 66
     1
 10
0.0
 20
0.0
 30
0.0
  0
VERTEX
  5
EDC
  8
DATA
  6
CONTINUOUS
 62
     7
 10
-84.685315842964954
 20
165.35170238137781
 30
0.0
  0
VERTEX
  5
EDD
  8
DATA
  6
CONTINUOUS
 62
     7
 10
-84.044031578318126
 20
164.70275542731011
 30
0.0
  0
VERTEX
  5
EDE
  8
DATA
  6
CONTINUOUS
 62
     7
 10
-83.560037320614654
 20
165.18674968501429
 30
0.0
  0
VERTEX
  5
EDF
  8
DATA
  6
CONTINUOUS
 62
     7
 10
-84.208858341413844
 20
165.82798684818809
 30
0.0
  0
SEQEND
  5
EE0
  8
DATA
  6
CONTINUOUS
 62
     7
  0
POLYLINE
  5
6C3
  8
DATA
  6
CONTINUOUS
 62
     7
 66
     1
 10
0.0
 20
0.0
 30
0.0
  0
VERTEX
  5
EE1
  8
DATA
  6
CONTINUOUS
 62
     7
 10
-85.288893080114505
 20
165.9624917476325
 30
0.0
  0
VERTEX
  5
EE2
  8
DATA
  6
CONTINUOUS
 62
     7
 10
-85.891982526506084
 20
166.5727874945299
 30
0.0
  0
VERTEX
  5
EE3
  8
DATA
  6
CONTINUOUS
 62
     7
 10
-85.429994789459514
 20
167.03484982995241
 30
0.0
  0
VERTEX
  5
EE4
  8
DATA
  6
CONTINUOUS
 62
     7
 10
-84.819755366290835
 20
166.43174329667829
 30
0.0
  0
SEQEND
  5
EE5
  8
DATA
  6
CONTINUOUS
 62
     7
  0
POLYLINE
  5
6CA
  8
DATA
  6
CONTINUOUS
 62
     7
 66
     1
 10
0.0
 20
0.0
 30
0.0
  0
VERTEX
  5
EE6
  8
DATA
  6
CONTINUOUS
 62
     7
 10
-78.931984749763046
 20
166.42681790879081
 30
0.0
  0
VERTEX
  5
EE7
  8
DATA
  6
CONTINUOUS
 62
     7
 10
-78.323977371748455
 20
167.03484982995241
 30
0.0
  0
VERTEX
  5
EE8
  8
DATA
  6
CONTINUOUS
 62
     7
 10
-77.839983114044301
 20
166.5727874945299
 30
0.0
  0
VERTEX
  5
EE9
  8
DATA
  6
CONTINUOUS
 62
     7
 10
-78.458162329223811
 20
165.9472469235003
 30
0.0
  0
SEQEND
  5
EEA
  8
DATA
  6
CONTINUOUS
 62
     7
  0
POLYLINE
  5
6D1
  8
DATA
  6
CONTINUOUS
 62
     7
 66
     1
 10
0.0
 20
0.0
 30
0.0
  0
VERTEX
  5
EEB
  8
DATA
  6
CONTINUOUS
 62
     7
 10
-79.552968040084437
 20
165.80580955152979
 30
0.0
  0
VERTEX
  5
EEC
  8
DATA
  6
CONTINUOUS
 62
     7
 10
-80.172002918311065
 20
165.18674968501429
 30
0.0
  0
VERTEX
  5
EED
  8
DATA
  6
CONTINUOUS
 62
     7
 10
-79.688008660607622
 20
164.70275542731011
 30
0.0
  0
VERTEX
  5
EEE
  8
DATA
  6
CONTINUOUS
 62
     7
 10
-79.066910522657153
 20
165.3312496800101
 30
0.0
  0
SEQEND
  5
EEF
  8
DATA
  6
CONTINUOUS
 62
     7
  0
POLYLINE
  5
6D8
  8
DATA
  6
CONTINUOUS
 62
     7
 66
     1
 10
0.0
 20
0.0
 30
0.0
  0
VERTEX
  5
EF0
  8
DATA
  6
CONTINUOUS
 62
     7
 10
-83.023943960191701
 20
160.29009226190891
 30
0.0
  0
VERTEX
  5
EF1
  8
DATA
  6
CONTINUOUS
 62
     7
 10
-83.023943960191701
 20
161.95136613871489
 30
0.0
  0
VERTEX
  5
EF2
  8
DATA
  6
CONTINUOUS
 62
     7
 10
-80.623943960191696
 20
161.95136613871489
 30
0.0
  0
VERTEX
  5
EF3
  8
DATA
  6
CONTINUOUS
 62
     7
 10
-80.623943960191696
 20
160.29009226190891
 30
0.0
  0
SEQEND
  5
EF4
  8
DATA
  6
CONTINUOUS
 62
     7
  0
ARC
  5
6DF
  8
DATA
  6
CONTINUOUS
 62
     7
 10
-81.823943960191713
 20
165.41081152527511
 30
0.0
 40
5.2594453865602011
 50
283.18882270300429
 51
256.81117729699611
  0
CIRCLE
  5
6E0
  8
DATA
  6
CONTINUOUS
 62
     7
 10
-75.154220294267063
 20
173.8100666064993
 30
0.0
 40
2.0006999999999939
  0
POLYLINE
  5
6E1
  8
DATA
  6
CONTINUOUS
 62
     7
 66
     1
 10
0.0
 20
0.0
 30
0.0
  0
VERTEX
  5
EF5
  8
DATA
  6
CONTINUOUS
 62
     7
 10
-74.96184529426705
 20
174.0024416064993
 30
0.0
  0
VERTEX
  5
EF6
  8
DATA
  6
CONTINUOUS
 62
     7
 10
-74.96184529426705
 20
175.34906660649929
 30
0.0
  0
VERTEX
  5
EF7
  8
DATA
  6
CONTINUOUS
 62
     7
 10
-75.346595294267047
 20
175.34906660649929
 30
0.0
  0
VERTEX
  5
EF8
  8
DATA
  6
CONTINUOUS
 62
     7
 10
-75.346595294267047
 20
174.0024416064993
 30
0.0
  0
SEQEND
  5
EF9
  8
DATA
  6
CONTINUOUS
 62
     7
  0
POLYLINE
  5
6E8
  8
DATA
  6
CONTINUOUS
 62
     7
 66
     1
 10
0.0
 20
0.0
 30
0.0
  0
VERTEX
  5
EFA
  8
DATA
  6
CONTINUOUS
 62
     7
 10
-74.96184529426705
 20
173.61769160649931
 30
0.0
  0
VERTEX
  5
EFB
  8
DATA
  6
CONTINUOUS
 62
     7
 10
-74.96184529426705
 20
172.27106660649929
 30
0.0
  0
VERTEX
  5
EFC
  8
DATA
  6
CONTINUOUS
 62
     7
 10
-75.346595294267047
 20
172.27106660649929
 30
0.0
  0
VERTEX
  5
EFD
  8
DATA
  6
CONTINUOUS
 62
     7
 10
-75.346595294267047
 20
173.61769160649931
 30
0.0
  0
SEQEND
  5
EFE
  8
DATA
  6
CONTINUOUS
 62
     7
  0
POLYLINE
  5
6EF
  8
DATA
  6
CONTINUOUS
 62
     7
 66
     1
 10
0.0
 20
0.0
 30
0.0
  0
VERTEX
  5
EFF
  8
DATA
  6
CONTINUOUS
 62
     7
 10
-75.346595294267047
 20
174.0024416064993
 30
0.0
  0
VERTEX
  5
F00
  8
DATA
  6
CONTINUOUS
 62
     7
 10
-76.693220294267064
 20
174.0024416064993
 30
0.0
  0
VERTEX
  5
F01
  8
DATA
  6
CONTINUOUS
 62
     7
 10
-76.693220294267064
 20
173.61769160649931
 30
0.0
  0
VERTEX
  5
F02
  8
DATA
  6
CONTINUOUS
 62
     7
 10
-75.346595294267047
 20
173.61769160649931
 30
0.0
  0
SEQEND
  5
F03
  8
DATA
  6
CONTINUOUS
 62
     7
  0
POLYLINE
  5
6F6
  8
DATA
  6
CONTINUOUS
 62
     7
 66
     1
 10
0.0
 20
0.0
 30
0.0
  0
VERTEX
  5
F04
  8
DATA
  6
CONTINUOUS
 62
     7
 10
-74.96184529426705
 20
174.0024416064993
 30
0.0
  0
VERTEX
  5
F05
  8
DATA
  6
CONTINUOUS
 62
     7
 10
-73.615220294267004
 20
174.0024416064993
 30
0.0
  0
VERTEX
  5
F06
  8
DATA
  6
CONTINUOUS
 62
     7
 10
-73.615220294267004
 20
173.61769160649931
 30
0.0
  0
VERTEX
  5
F07
  8
DATA
  6
CONTINUOUS
 62
     7
 10
-74.96184529426705
 20
173.61769160649931
 30
0.0
  0
SEQEND
  5
F08
  8
DATA
  6
CONTINUOUS
 62
     7
  0
TEXT
  5
6FD
  8
DATA
 62
     7
 10
-79.337511964129391
 20
155.38723522440009
 30
0.0
 40
2.30859375
  1
OUT
 50
180.0
 41
0.7
 11
-79.337511964129391
 21
153.07864147440009
 31
0.0
 73
     3
  0
TEXT
  5
6FE
  8
DATA
 62
     7
 10
-37.290814320713451
 20
155.44380653213881
 30
0.0
 40
2.30859375
  1
IN
 50
180.0
 41
0.7
 11
-37.290814320713451
 21
153.13521278213881
 31
0.0
 73
     3
  0
TEXT
  5
6FF
  8
DATA
 62
     7
 10
-56.227520962041517
 20
151.3005428804756
 30
0.0
 40
3.078125
  1
MIDI
 50
180.0
 41
0.7
 11
-56.227520962041517
 21
148.2224178804756
 31
0.0
 73
     3
  0
LINE
  5
700
  8
DATA
  6
CONTINUOUS
 62
     7
 10
-49.19140753815099
 20
149.69009134798739
 30
0.0
 11
-55.191407538150997
 21
149.69009134798739
 31
0.0
  0
LINE
  5
701
  8
DATA
  6
CONTINUOUS
 62
     7
 10
-70.651109088868949
 20
149.69009134798739
 30
0.0
 11
-65.051109088868969
 21
149.69009134798739
 31
0.0
  0
TEXT
  5
702
  8
DATA
 62
     7
 10
-57.21758950445934
 20
155.44380653213881
 30
0.0
 40
2.30859375
  1
THRU
 50
180.0
 41
0.7
 11
-57.21758950445934
 21
153.13521278213881
 31
0.0
 73
     3
  0
LINE
  5
703
  8
DATA
  6
CONTINUOUS
 62
     7
 10
-49.19140753815099
 20
149.69009134798739
 30
0.0
 11
-38.5
 21
149.69009134798739
 31
0.0
  0
LINE
  5
704
  8
DATA
  6
CONTINUOUS
 62
     7
 10
-70.651109088868949
 20
149.69009134798739
 30
0.0
 11
-81.5
 21
149.69009134798739
 31
0.0
  0
LINE
  5
705
  8
DATA
  6
CONTINUOUS
 62
     7
 10
-38.5
 20
149.69009134798739
 30
0.0
 11
-38.5
 21
151.19999999999999
 31
0.0
  0
LINE
  5
706
  8
DATA
  6
CONTINUOUS
 62
     7
 10
-81.5
 20
149.69009134798739
 30
0.0
 11
-81.5
 21
151.19999999999999
 31
0.0
  0
LINE
  5
707
  8
DATA
  6
CONTINUOUS
 62
     7
 10
-113.5
 20
185.0
 30
0.0
 11
-185.0
 21
185.0
 31
0.0
  0
CIRCLE
  5
708
  8
DATA
  6
CONTINUOUS
 62
     7
 10
-126.03243240756279
 20
163.46512537058791
 30
0.0
 40
11.0
  0
CIRCLE
  5
709
  8
DATA
  6
CONTINUOUS
 62
     7
 10
-126.03243240756279
 20
163.46512537058791
 30
0.0
 40
8.25
  0
CIRCLE
  5
70A
  8
DATA
  6
CONTINUOUS
 62
     7
 10
-126.03243240756279
 20
167.65446603447069
 30
0.0
 40
1.25
  0
CIRCLE
  5
70B
  8
DATA
  6
CONTINUOUS
 62
     7
 10
-130.28243240756279
 20
163.46512537058791
 30
0.0
 40
1.25
  0
CIRCLE
  5
70C
  8
DATA
  6
CONTINUOUS
 62
     7
 10
-121.78243240756279
 20
163.46512537058791
 30
0.0
 40
1.25
  0
CIRCLE
  5
70D
  8
DATA
  6
CONTINUOUS
 62
     7
 10
-135.57018870336179
 20
173.07018870336179
 30
0.0
 40
2.0006999999999939
  0
POLYLINE
  5
70E
  8
DATA
  6
CONTINUOUS
 62
     7
 66
     1
 10
0.0
 20
0.0
 30
0.0
  0
VERTEX
  5
F09
  8
DATA
  6
CONTINUOUS
 62
     7
 10
-135.76256370336179
 20
173.26256370336179
 30
0.0
  0
VERTEX
  5
F0A
  8
DATA
  6
CONTINUOUS
 62
     7
 10
-135.76256370336179
 20
174.60918870336181
 30
0.0
  0
VERTEX
  5
F0B
  8
DATA
  6
CONTINUOUS
 62
     7
 10
-135.3778137033618
 20
174.60918870336181
 30
0.0
  0
VERTEX
  5
F0C
  8
DATA
  6
CONTINUOUS
 62
     7
 10
-135.3778137033618
 20
173.26256370336179
 30
0.0
  0
SEQEND
  5
F0D
  8
DATA
  6
CONTINUOUS
 62
     7
  0
POLYLINE
  5
715
  8
DATA
  6
CONTINUOUS
 62
     7
 66
     1
 10
0.0
 20
0.0
 30
0.0
  0
VERTEX
  5
F0E
  8
DATA
  6
CONTINUOUS
 62
     7
 10
-135.76256370336179
 20
172.8778137033618
 30
0.0
  0
VERTEX
  5
F0F
  8
DATA
  6
CONTINUOUS
 62
     7
 10
-135.76256370336179
 20
171.53118870336181
 30
0.0
  0
VERTEX
  5
F10
  8
DATA
  6
CONTINUOUS
 62
     7
 10
-135.3778137033618
 20
171.53118870336181
 30
0.0
  0
VERTEX
  5
F11
  8
DATA
  6
CONTINUOUS
 62
     7
 10
-135.3778137033618
 20
172.8778137033618
 30
0.0
  0
SEQEND
  5
F12
  8
DATA
  6
CONTINUOUS
 62
     7
  0
POLYLINE
  5
71C
  8
DATA
  6
CONTINUOUS
 62
     7
 66
     1
 10
0.0
 20
0.0
 30
0.0
  0
VERTEX
  5
F13
  8
DATA
  6
CONTINUOUS
 62
     7
 10
-135.3778137033618
 20
173.26256370336179
 30
0.0
  0
VERTEX
  5
F14
  8
DATA
  6
CONTINUOUS
 62
     7
 10
-134.03118870336181
 20
173.26256370336179
 30
0.0
  0
VERTEX
  5
F15
  8
DATA
  6
CONTINUOUS
 62
     7
 10
-134.03118870336181
 20
172.8778137033618
 30
0.0
  0
VERTEX
  5
F16
  8
DATA
  6
CONTINUOUS
 62
     7
 10
-135.3778137033618
 20
172.8778137033618
 30
0.0
  0
SEQEND
  5
F17
  8
DATA
  6
CONTINUOUS
 62
     7
  0
POLYLINE
  5
723
  8
DATA
  6
CONTINUOUS
 62
     7
 66
     1
 10
0.0
 20
0.0
 30
0.0
  0
VERTEX
  5
F18
  8
DATA
  6
CONTINUOUS
 62
     7
 10
-135.76256370336179
 20
173.26256370336179
 30
0.0
  0
VERTEX
  5
F19
  8
DATA
  6
CONTINUOUS
 62
     7
 10
-137.10918870336181
 20
173.26256370336179
 30
0.0
  0
VERTEX
  5
F1A
  8
DATA
  6
CONTINUOUS
 62
     7
 10
-137.10918870336181
 20
172.8778137033618
 30
0.0
  0
VERTEX
  5
F1B
  8
DATA
  6
CONTINUOUS
 62
     7
 10
-135.76256370336179
 20
172.8778137033618
 30
0.0
  0
SEQEND
  5
F1C
  8
DATA
  6
CONTINUOUS
 62
     7
  0
CIRCLE
  5
72A
  8
DATA
  6
CONTINUOUS
 62
     7
 10
-116.42981129663811
 20
153.92981129663821
 30
0.0
 40
2.0006999999999939
  0
POLYLINE
  5
72B
  8
DATA
  6
CONTINUOUS
 62
     7
 66
     1
 10
0.0
 20
0.0
 30
0.0
  0
VERTEX
  5
F1D
  8
DATA
  6
CONTINUOUS
 62
     7
 10
-116.6221862966382
 20
154.12218629663809
 30
0.0
  0
VERTEX
  5
F1E
  8
DATA
  6
CONTINUOUS
 62
     7
 10
-116.6221862966382
 20
155.46881129663811
 30
0.0
  0
VERTEX
  5
F1F
  8
DATA
  6
CONTINUOUS
 62
     7
 10
-116.23743629663819
 20
155.46881129663811
 30
0.0
  0
VERTEX
  5
F20
  8
DATA
  6
CONTINUOUS
 62
     7
 10
-116.23743629663819
 20
154.12218629663809
 30
0.0
  0
SEQEND
  5
F21
  8
DATA
  6
CONTINUOUS
 62
     7
  0
POLYLINE
  5
732
  8
DATA
  6
CONTINUOUS
 62
     7
 66
     1
 10
0.0
 20
0.0
 30
0.0
  0
VERTEX
  5
F22
  8
DATA
  6
CONTINUOUS
 62
     7
 10
-116.6221862966382
 20
153.73743629663809
 30
0.0
  0
VERTEX
  5
F23
  8
DATA
  6
CONTINUOUS
 62
     7
 10
-116.6221862966382
 20
152.39081129663811
 30
0.0
  0
VERTEX
  5
F24
  8
DATA
  6
CONTINUOUS
 62
     7
 10
-116.23743629663819
 20
152.39081129663811
 30
0.0
  0
VERTEX
  5
F25
  8
DATA
  6
CONTINUOUS
 62
     7
 10
-116.23743629663819
 20
153.73743629663809
 30
0.0
  0
SEQEND
  5
F26
  8
DATA
  6
CONTINUOUS
 62
     7
  0
POLYLINE
  5
739
  8
DATA
  6
CONTINUOUS
 62
     7
 66
     1
 10
0.0
 20
0.0
 30
0.0
  0
VERTEX
  5
F27
  8
DATA
  6
CONTINUOUS
 62
     7
 10
-116.23743629663819
 20
154.12218629663809
 30
0.0
  0
VERTEX
  5
F28
  8
DATA
  6
CONTINUOUS
 62
     7
 10
-114.89081129663811
 20
154.12218629663809
 30
0.0
  0
VERTEX
  5
F29
  8
DATA
  6
CONTINUOUS
 62
     7
 10
-114.89081129663811
 20
153.73743629663809
 30
0.0
  0
VERTEX
  5
F2A
  8
DATA
  6
CONTINUOUS
 62
     7
 10
-116.23743629663819
 20
153.73743629663809
 30
0.0
  0
SEQEND
  5
F2B
  8
DATA
  6
CONTINUOUS
 62
     7
  0
POLYLINE
  5
740
  8
DATA
  6
CONTINUOUS
 62
     7
 66
     1
 10
0.0
 20
0.0
 30
0.0
  0
VERTEX
  5
F2C
  8
DATA
  6
CONTINUOUS
 62
     7
 10
-116.6221862966382
 20
154.12218629663809
 30
0.0
  0
VERTEX
  5
F2D
  8
DATA
  6
CONTINUOUS
 62
     7
 10
-117.96881129663819
 20
154.12218629663809
 30
0.0
  0
VERTEX
  5
F2E
  8
DATA
  6
CONTINUOUS
 62
     7
 10
-117.96881129663819
 20
153.73743629663809
 30
0.0
  0
VERTEX
  5
F2F
  8
DATA
  6
CONTINUOUS
 62
     7
 10
-116.6221862966382
 20
153.73743629663809
 30
0.0
  0
SEQEND
  5
F30
  8
DATA
  6
CONTINUOUS
 62
     7
  0
ARC
  5
747
  8
DATA
  6
CONTINUOUS
 62
     7
 10
-126.03243240756279
 20
163.46512537058791
 30
0.0
 40
8.0000000000000071
 50
247.97568716295791
 51
292.02431283704209
  0
LINE
  5
748
  8
DATA
  6
CONTINUOUS
 62
     7
 10
-129.03243240756279
 20
156.04892688349219
 30
0.0
 11
-129.03243240756279
 21
155.7799122961182
 31
0.0
  0
LINE
  5
749
  8
DATA
  6
CONTINUOUS
 62
     7
 10
-123.03243240756279
 20
156.04892688349219
 30
0.0
 11
-123.03243240756279
 21
155.7799122961182
 31
0.0
  0
CIRCLE
  5
74A
  8
DATA
  6
CONTINUOUS
 62
     7
 10
-153.5633232904656
 20
163.51696356615469
 30
0.0
 40
9.8500000000000227
  0
CIRCLE
  5
74B
  8
DATA
  6
CONTINUOUS
 62
     7
 10
-153.5633232904656
 20
163.51696356615469
 30
0.0
 40
7.8500000000000218
  0
CIRCLE
  5
74C
  8
DATA
  6
CONTINUOUS
 62
     7
 10
-153.5633232904656
 20
167.43810158729721
 30
0.0
 40
1.2649999999999859
  0
CIRCLE
  5
74D
  8
DATA
  6
CONTINUOUS
 62
     7
 10
-149.63184170457939
 20
163.51696356615469
 30
0.0
 40
1.2649999999999859
  0
CIRCLE
  5
74E
  8
DATA
  6
CONTINUOUS
 62
     7
 10
-157.49776770985281
 20
163.51696356615469
 30
0.0
 40
1.2649999999999859
  0
ARC
  5
74F
  8
DATA
  6
CONTINUOUS
 62
     7
 10
-155.3911808502873
 20
148.98280587149131
 30
0.0
 40
3.1721424401782121
 50
101.31056104783779
 51
266.88920568607011
  0
ARC
  5
750
  8
DATA
  6
CONTINUOUS
 62
     7
 10
-151.7354657306438
 20
148.98280587149131
 30
0.0
 40
3.1721424401781899
 50
273.11079431392989
 51
78.689438953067736
  0
LINE
  5
751
  8
DATA
  6
CONTINUOUS
 62
     7
 10
-151.5633232904656
 20
145.8153376962654
 30
0.0
 11
-155.5633232904656
 21
145.8153376962654
 31
0.0
  0
CIRCLE
  5
752
  8
DATA
  6
CONTINUOUS
 62
     7
 10
-163.07018870336179
 20
173.07018870336179
 30
0.0
 40
2.0006999999999939
  0
POLYLINE
  5
753
  8
DATA
  6
CONTINUOUS
 62
     7
 66
     1
 10
0.0
 20
0.0
 30
0.0
  0
VERTEX
  5
F31
  8
DATA
  6
CONTINUOUS
 62
     7
 10
-163.26256370336179
 20
173.26256370336179
 30
0.0
  0
VERTEX
  5
F32
  8
DATA
  6
CONTINUOUS
 62
     7
 10
-163.26256370336179
 20
174.60918870336181
 30
0.0
  0
VERTEX
  5
F33
  8
DATA
  6
CONTINUOUS
 62
     7
 10
-162.8778137033618
 20
174.60918870336181
 30
0.0
  0
VERTEX
  5
F34
  8
DATA
  6
CONTINUOUS
 62
     7
 10
-162.8778137033618
 20
173.26256370336179
 30
0.0
  0
SEQEND
  5
F35
  8
DATA
  6
CONTINUOUS
 62
     7
  0
POLYLINE
  5
75A
  8
DATA
  6
CONTINUOUS
 62
     7
 66
     1
 10
0.0
 20
0.0
 30
0.0
  0
VERTEX
  5
F36
  8
DATA
  6
CONTINUOUS
 62
     7
 10
-163.26256370336179
 20
172.8778137033618
 30
0.0
  0
VERTEX
  5
F37
  8
DATA
  6
CONTINUOUS
 62
     7
 10
-163.26256370336179
 20
171.53118870336181
 30
0.0
  0
VERTEX
  5
F38
  8
DATA
  6
CONTINUOUS
 62
     7
 10
-162.8778137033618
 20
171.53118870336181
 30
0.0
  0
VERTEX
  5
F39
  8
DATA
  6
CONTINUOUS
 62
     7
 10
-162.8778137033618
 20
172.8778137033618
 30
0.0
  0
SEQEND
  5
F3A
  8
DATA
  6
CONTINUOUS
 62
     7
  0
POLYLINE
  5
761
  8
DATA
  6
CONTINUOUS
 62
     7
 66
     1
 10
0.0
 20
0.0
 30
0.0
  0
VERTEX
  5
F3B
  8
DATA
  6
CONTINUOUS
 62
     7
 10
-162.8778137033618
 20
173.26256370336179
 30
0.0
  0
VERTEX
  5
F3C
  8
DATA
  6
CONTINUOUS
 62
     7
 10
-161.53118870336181
 20
173.26256370336179
 30
0.0
  0
VERTEX
  5
F3D
  8
DATA
  6
CONTINUOUS
 62
     7
 10
-161.53118870336181
 20
172.8778137033618
 30
0.0
  0
VERTEX
  5
F3E
  8
DATA
  6
CONTINUOUS
 62
     7
 10
-162.8778137033618
 20
172.8778137033618
 30
0.0
  0
SEQEND
  5
F3F
  8
DATA
  6
CONTINUOUS
 62
     7
  0
POLYLINE
  5
768
  8
DATA
  6
CONTINUOUS
 62
     7
 66
     1
 10
0.0
 20
0.0
 30
0.0
  0
VERTEX
  5
F40
  8
DATA
  6
CONTINUOUS
 62
     7
 10
-163.26256370336179
 20
173.26256370336179
 30
0.0
  0
VERTEX
  5
F41
  8
DATA
  6
CONTINUOUS
 62
     7
 10
-164.60918870336181
 20
173.26256370336179
 30
0.0
  0
VERTEX
  5
F42
  8
DATA
  6
CONTINUOUS
 62
     7
 10
-164.60918870336181
 20
172.8778137033618
 30
0.0
  0
VERTEX
  5
F43
  8
DATA
  6
CONTINUOUS
 62
     7
 10
-163.26256370336179
 20
172.8778137033618
 30
0.0
  0
SEQEND
  5
F44
  8
DATA
  6
CONTINUOUS
 62
     7
  0
CIRCLE
  5
76F
  8
DATA
  6
CONTINUOUS
 62
     7
 10
-143.92981129663809
 20
153.92981129663821
 30
0.0
 40
2.0006999999999939
  0
POLYLINE
  5
770
  8
DATA
  6
CONTINUOUS
 62
     7
 66
     1
 10
0.0
 20
0.0
 30
0.0
  0
VERTEX
  5
F45
  8
DATA
  6
CONTINUOUS
 62
     7
 10
-144.12218629663809
 20
154.12218629663809
 30
0.0
  0
VERTEX
  5
F46
  8
DATA
  6
CONTINUOUS
 62
     7
 10
-144.12218629663809
 20
155.46881129663811
 30
0.0
  0
VERTEX
  5
F47
  8
DATA
  6
CONTINUOUS
 62
     7
 10
-143.73743629663809
 20
155.46881129663811
 30
0.0
  0
VERTEX
  5
F48
  8
DATA
  6
CONTINUOUS
 62
     7
 10
-143.73743629663809
 20
154.12218629663809
 30
0.0
  0
SEQEND
  5
F49
  8
DATA
  6
CONTINUOUS
 62
     7
  0
POLYLINE
  5
777
  8
DATA
  6
CONTINUOUS
 62
     7
 66
     1
 10
0.0
 20
0.0
 30
0.0
  0
VERTEX
  5
F4A
  8
DATA
  6
CONTINUOUS
 62
     7
 10
-144.12218629663809
 20
153.73743629663809
 30
0.0
  0
VERTEX
  5
F4B
  8
DATA
  6
CONTINUOUS
 62
     7
 10
-144.12218629663809
 20
152.39081129663811
 30
0.0
  0
VERTEX
  5
F4C
  8
DATA
  6
CONTINUOUS
 62
     7
 10
-143.73743629663809
 20
152.39081129663811
 30
0.0
  0
VERTEX
  5
F4D
  8
DATA
  6
CONTINUOUS
 62
     7
 10
-143.73743629663809
 20
153.73743629663809
 30
0.0
  0
SEQEND
  5
F4E
  8
DATA
  6
CONTINUOUS
 62
     7
  0
POLYLINE
  5
77E
  8
DATA
  6
CONTINUOUS
 62
     7
 66
     1
 10
0.0
 20
0.0
 30
0.0
  0
VERTEX
  5
F4F
  8
DATA
  6
CONTINUOUS
 62
     7
 10
-143.73743629663809
 20
154.12218629663809
 30
0.0
  0
VERTEX
  5
F50
  8
DATA
  6
CONTINUOUS
 62
     7
 10
-142.39081129663811
 20
154.12218629663809
 30
0.0
  0
VERTEX
  5
F51
  8
DATA
  6
CONTINUOUS
 62
     7
 10
-142.39081129663811
 20
153.73743629663809
 30
0.0
  0
VERTEX
  5
F52
  8
DATA
  6
CONTINUOUS
 62
     7
 10
-143.73743629663809
 20
153.73743629663809
 30
0.0
  0
SEQEND
  5
F53
  8
DATA
  6
CONTINUOUS
 62
     7
  0
POLYLINE
  5
785
  8
DATA
  6
CONTINUOUS
 62
     7
 66
     1
 10
0.0
 20
0.0
 30
0.0
  0
VERTEX
  5
F54
  8
DATA
  6
CONTINUOUS
 62
     7
 10
-144.12218629663809
 20
154.12218629663809
 30
0.0
  0
VERTEX
  5
F55
  8
DATA
  6
CONTINUOUS
 62
     7
 10
-145.46881129663819
 20
154.12218629663809
 30
0.0
  0
VERTEX
  5
F56
  8
DATA
  6
CONTINUOUS
 62
     7
 10
-145.46881129663819
 20
153.73743629663809
 30
0.0
  0
VERTEX
  5
F57
  8
DATA
  6
CONTINUOUS
 62
     7
 10
-144.12218629663809
 20
153.73743629663809
 30
0.0
  0
SEQEND
  5
F58
  8
DATA
  6
CONTINUOUS
 62
     7
  0
CIRCLE
  5
78C
  8
DATA
  6
CONTINUOUS
 62
     7
 10
-174.5
 20
169.0
 30
0.0
 40
7.2500000000000187
  0
CIRCLE
  5
78D
  8
DATA
  6
CONTINUOUS
 62
     7
 10
-174.5
 20
169.0
 30
0.0
 40
5.2899999999999956
  0
CIRCLE
  5
78E
  8
DATA
  6
CONTINUOUS
 62
     7
 10
-174.5
 20
169.0
 30
0.0
 40
3.1749999999999972
  0
LINE
  5
78F
  8
DATA
  6
CONTINUOUS
 62
     7
 10
-170.1833995478539
 20
165.94204961836601
 30
0.0
 11
-168.78292497088611
 21
164.54157504139809
 31
0.0
  0
LINE
  5
790
  8
DATA
  6
CONTINUOUS
 62
     7
 10
-170.0415750413982
 20
163.28292497088611
 30
0.0
 11
-171.44204961836601
 21
164.6833995478539
 31
0.0
  0
LINE
  5
791
  8
DATA
  6
CONTINUOUS
 62
     7
 10
-177.55795038163399
 20
173.31660045214599
 30
0.0
 11
-178.9584249586018
 21
174.71707502911389
 31
0.0
  0
LINE
  5
792
  8
DATA
  6
CONTINUOUS
 62
     7
 10
-178.81660045214599
 20
172.05795038163399
 30
0.0
 11
-180.2170750291138
 21
173.4584249586018
 31
0.0
  0
CIRCLE
  5
793
  8
DATA
  6
CONTINUOUS
 62
     7
 10
-191.0
 20
169.0
 30
0.0
 40
7.2500000000000187
  0
CIRCLE
  5
794
  8
DATA
  6
CONTINUOUS
 62
     7
 10
-191.0
 20
169.0
 30
0.0
 40
5.2899999999999956
  0
CIRCLE
  5
795
  8
DATA
  6
CONTINUOUS
 62
     7
 10
-191.0
 20
169.0
 30
0.0
 40
3.1749999999999972
  0
LINE
  5
796
  8
DATA
  6
CONTINUOUS
 62
     7
 10
-186.68339954785401
 20
165.94204961836601
 30
0.0
 11
-185.28292497088611
 21
164.54157504139809
 31
0.0
  0
LINE
  5
797
  8
DATA
  6
CONTINUOUS
 62
     7
 10
-186.5415750413982
 20
163.28292497088611
 30
0.0
 11
-187.94204961836601
 21
164.6833995478539
 31
0.0
  0
LINE
  5
798
  8
DATA
  6
CONTINUOUS
 62
     7
 10
-194.05795038163399
 20
173.31660045214599
 30
0.0
 11
-195.4584249586018
 21
174.71707502911389
 31
0.0
  0
LINE
  5
799
  8
DATA
  6
CONTINUOUS
 62
     7
 10
-195.31660045214599
 20
172.05795038163399
 30
0.0
 11
-196.7170750291138
 21
173.4584249586018
 31
0.0
  0
CIRCLE
  5
79A
  8
DATA
  6
CONTINUOUS
 62
     7
 10
-233.0
 20
169.0
 30
0.0
 40
7.2500000000000187
  0
CIRCLE
  5
79B
  8
DATA
  6
CONTINUOUS
 62
     7
 10
-233.0
 20
169.0
 30
0.0
 40
5.2899999999999956
  0
CIRCLE
  5
79C
  8
DATA
  6
CONTINUOUS
 62
     7
 10
-233.0
 20
169.0
 30
0.0
 40
3.1749999999999972
  0
LINE
  5
79D
  8
DATA
  6
CONTINUOUS
 62
     7
 10
-228.68339954785401
 20
165.94204961836601
 30
0.0
 11
-227.28292497088611
 21
164.54157504139809
 31
0.0
  0
LINE
  5
79E
  8
DATA
  6
CONTINUOUS
 62
     7
 10
-228.5415750413982
 20
163.28292497088611
 30
0.0
 11
-229.94204961836601
 21
164.6833995478539
 31
0.0
  0
LINE
  5
79F
  8
DATA
  6
CONTINUOUS
 62
     7
 10
-236.05795038163399
 20
173.31660045214599
 30
0.0
 11
-237.4584249586018
 21
174.71707502911389
 31
0.0
  0
LINE
  5
7A0
  8
DATA
  6
CONTINUOUS
 62
     7
 10
-237.31660045214599
 20
172.05795038163399
 30
0.0
 11
-238.71707502911389
 21
173.4584249586018
 31
0.0
  0
CIRCLE
  5
7A1
  8
DATA
  6
CONTINUOUS
 62
     7
 10
-249.5
 20
169.0
 30
0.0
 40
7.2500000000000187
  0
CIRCLE
  5
7A2
  8
DATA
  6
CONTINUOUS
 62
     7
 10
-249.5
 20
169.0
 30
0.0
 40
5.2899999999999956
  0
CIRCLE
  5
7A3
  8
DATA
  6
CONTINUOUS
 62
     7
 10
-249.5
 20
169.0
 30
0.0
 40
3.1749999999999972
  0
LINE
  5
7A4
  8
DATA
  6
CONTINUOUS
 62
     7
 10
-245.18339954785401
 20
165.94204961836601
 30
0.0
 11
-243.78292497088611
 21
164.54157504139809
 31
0.0
  0
LINE
  5
7A5
  8
DATA
  6
CONTINUOUS
 62
     7
 10
-245.0415750413982
 20
163.28292497088611
 30
0.0
 11
-246.44204961836601
 21
164.6833995478539
 31
0.0
  0
LINE
  5
7A6
  8
DATA
  6
CONTINUOUS
 62
     7
 10
-252.55795038163399
 20
173.31660045214599
 30
0.0
 11
-253.9584249586018
 21
174.71707502911389
 31
0.0
  0
LINE
  5
7A7
  8
DATA
  6
CONTINUOUS
 62
     7
 10
-253.81660045214599
 20
172.05795038163399
 30
0.0
 11
-255.21707502911389
 21
173.4584249586018
 31
0.0
  0
CIRCLE
  5
7A8
  8
DATA
  6
CONTINUOUS
 62
     7
 10
-212.03243240756279
 20
163.46512537058791
 30
0.0
 40
11.0
  0
CIRCLE
  5
7A9
  8
DATA
  6
CONTINUOUS
 62
     7
 10
-212.03243240756279
 20
163.46512537058791
 30
0.0
 40
8.25
  0
CIRCLE
  5
7AA
  8
DATA
  6
CONTINUOUS
 62
     7
 10
-212.03243240756279
 20
167.65446603447069
 30
0.0
 40
1.25
  0
CIRCLE
  5
7AB
  8
DATA
  6
CONTINUOUS
 62
     7
 10
-216.28243240756279
 20
163.46512537058791
 30
0.0
 40
1.25
  0
CIRCLE
  5
7AC
  8
DATA
  6
CONTINUOUS
 62
     7
 10
-207.78243240756279
 20
163.46512537058791
 30
0.0
 40
1.25
  0
CIRCLE
  5
7AD
  8
DATA
  6
CONTINUOUS
 62
     7
 10
-221.57018870336191
 20
173.07018870336179
 30
0.0
 40
2.0006999999999939
  0
POLYLINE
  5
7AE
  8
DATA
  6
CONTINUOUS
 62
     7
 66
     1
 10
0.0
 20
0.0
 30
0.0
  0
VERTEX
  5
F59
  8
DATA
  6
CONTINUOUS
 62
     7
 10
-221.76256370336191
 20
173.26256370336179
 30
0.0
  0
VERTEX
  5
F5A
  8
DATA
  6
CONTINUOUS
 62
     7
 10
-221.76256370336191
 20
174.60918870336181
 30
0.0
  0
VERTEX
  5
F5B
  8
DATA
  6
CONTINUOUS
 62
     7
 10
-221.37781370336191
 20
174.60918870336181
 30
0.0
  0
VERTEX
  5
F5C
  8
DATA
  6
CONTINUOUS
 62
     7
 10
-221.37781370336191
 20
173.26256370336179
 30
0.0
  0
SEQEND
  5
F5D
  8
DATA
  6
CONTINUOUS
 62
     7
  0
POLYLINE
  5
7B5
  8
DATA
  6
CONTINUOUS
 62
     7
 66
     1
 10
0.0
 20
0.0
 30
0.0
  0
VERTEX
  5
F5E
  8
DATA
  6
CONTINUOUS
 62
     7
 10
-221.76256370336191
 20
172.8778137033618
 30
0.0
  0
VERTEX
  5
F5F
  8
DATA
  6
CONTINUOUS
 62
     7
 10
-221.76256370336191
 20
171.53118870336181
 30
0.0
  0
VERTEX
  5
F60
  8
DATA
  6
CONTINUOUS
 62
     7
 10
-221.37781370336191
 20
171.53118870336181
 30
0.0
  0
VERTEX
  5
F61
  8
DATA
  6
CONTINUOUS
 62
     7
 10
-221.37781370336191
 20
172.8778137033618
 30
0.0
  0
SEQEND
  5
F62
  8
DATA
  6
CONTINUOUS
 62
     7
  0
POLYLINE
  5
7BC
  8
DATA
  6
CONTINUOUS
 62
     7
 66
     1
 10
0.0
 20
0.0
 30
0.0
  0
VERTEX
  5
F63
  8
DATA
  6
CONTINUOUS
 62
     7
 10
-221.37781370336191
 20
173.26256370336179
 30
0.0
  0
VERTEX
  5
F64
  8
DATA
  6
CONTINUOUS
 62
     7
 10
-220.03118870336181
 20
173.26256370336179
 30
0.0
  0
VERTEX
  5
F65
  8
DATA
  6
CONTINUOUS
 62
     7
 10
-220.03118870336181
 20
172.8778137033618
 30
0.0
  0
VERTEX
  5
F66
  8
DATA
  6
CONTINUOUS
 62
     7
 10
-221.37781370336191
 20
172.8778137033618
 30
0.0
  0
SEQEND
  5
F67
  8
DATA
  6
CONTINUOUS
 62
     7
  0
POLYLINE
  5
7C3
  8
DATA
  6
CONTINUOUS
 62
     7
 66
     1
 10
0.0
 20
0.0
 30
0.0
  0
VERTEX
  5
F68
  8
DATA
  6
CONTINUOUS
 62
     7
 10
-221.76256370336191
 20
173.26256370336179
 30
0.0
  0
VERTEX
  5
F69
  8
DATA
  6
CONTINUOUS
 62
     7
 10
-223.10918870336189
 20
173.26256370336179
 30
0.0
  0
VERTEX
  5
F6A
  8
DATA
  6
CONTINUOUS
 62
     7
 10
-223.10918870336189
 20
172.8778137033618
 30
0.0
  0
VERTEX
  5
F6B
  8
DATA
  6
CONTINUOUS
 62
     7
 10
-221.76256370336191
 20
172.8778137033618
 30
0.0
  0
SEQEND
  5
F6C
  8
DATA
  6
CONTINUOUS
 62
     7
  0
CIRCLE
  5
7CA
  8
DATA
  6
CONTINUOUS
 62
     7
 10
-202.42981129663809
 20
153.92981129663821
 30
0.0
 40
2.0006999999999939
  0
POLYLINE
  5
7CB
  8
DATA
  6
CONTINUOUS
 62
     7
 66
     1
 10
0.0
 20
0.0
 30
0.0
  0
VERTEX
  5
F6D
  8
DATA
  6
CONTINUOUS
 62
     7
 10
-202.62218629663809
 20
154.12218629663809
 30
0.0
  0
VERTEX
  5
F6E
  8
DATA
  6
CONTINUOUS
 62
     7
 10
-202.62218629663809
 20
155.46881129663811
 30
0.0
  0
VERTEX
  5
F6F
  8
DATA
  6
CONTINUOUS
 62
     7
 10
-202.23743629663809
 20
155.46881129663811
 30
0.0
  0
VERTEX
  5
F70
  8
DATA
  6
CONTINUOUS
 62
     7
 10
-202.23743629663809
 20
154.12218629663809
 30
0.0
  0
SEQEND
  5
F71
  8
DATA
  6
CONTINUOUS
 62
     7
  0
POLYLINE
  5
7D2
  8
DATA
  6
CONTINUOUS
 62
     7
 66
     1
 10
0.0
 20
0.0
 30
0.0
  0
VERTEX
  5
F72
  8
DATA
  6
CONTINUOUS
 62
     7
 10
-202.62218629663809
 20
153.73743629663809
 30
0.0
  0
VERTEX
  5
F73
  8
DATA
  6
CONTINUOUS
 62
     7
 10
-202.62218629663809
 20
152.39081129663811
 30
0.0
  0
VERTEX
  5
F74
  8
DATA
  6
CONTINUOUS
 62
     7
 10
-202.23743629663809
 20
152.39081129663811
 30
0.0
  0
VERTEX
  5
F75
  8
DATA
  6
CONTINUOUS
 62
     7
 10
-202.23743629663809
 20
153.73743629663809
 30
0.0
  0
SEQEND
  5
F76
  8
DATA
  6
CONTINUOUS
 62
     7
  0
POLYLINE
  5
7D9
  8
DATA
  6
CONTINUOUS
 62
     7
 66
     1
 10
0.0
 20
0.0
 30
0.0
  0
VERTEX
  5
F77
  8
DATA
  6
CONTINUOUS
 62
     7
 10
-202.23743629663809
 20
154.12218629663809
 30
0.0
  0
VERTEX
  5
F78
  8
DATA
  6
CONTINUOUS
 62
     7
 10
-200.89081129663811
 20
154.12218629663809
 30
0.0
  0
VERTEX
  5
F79
  8
DATA
  6
CONTINUOUS
 62
     7
 10
-200.89081129663811
 20
153.73743629663809
 30
0.0
  0
VERTEX
  5
F7A
  8
DATA
  6
CONTINUOUS
 62
     7
 10
-202.23743629663809
 20
153.73743629663809
 30
0.0
  0
SEQEND
  5
F7B
  8
DATA
  6
CONTINUOUS
 62
     7
  0
POLYLINE
  5
7E0
  8
DATA
  6
CONTINUOUS
 62
     7
 66
     1
 10
0.0
 20
0.0
 30
0.0
  0
VERTEX
  5
F7C
  8
DATA
  6
CONTINUOUS
 62
     7
 10
-202.62218629663809
 20
154.12218629663809
 30
0.0
  0
VERTEX
  5
F7D
  8
DATA
  6
CONTINUOUS
 62
     7
 10
-203.96881129663811
 20
154.12218629663809
 30
0.0
  0
VERTEX
  5
F7E
  8
DATA
  6
CONTINUOUS
 62
     7
 10
-203.96881129663811
 20
153.73743629663809
 30
0.0
  0
VERTEX
  5
F7F
  8
DATA
  6
CONTINUOUS
 62
     7
 10
-202.62218629663809
 20
153.73743629663809
 30
0.0
  0
SEQEND
  5
F80
  8
DATA
  6
CONTINUOUS
 62
     7
  0
ARC
  5
7E7
  8
DATA
  6
CONTINUOUS
 62
     7
 10
-212.03243240756279
 20
163.46512537058791
 30
0.0
 40
8.0000000000000071
 50
247.97568716295791
 51
292.02431283704209
  0
LINE
  5
7E8
  8
DATA
  6
CONTINUOUS
 62
     7
 10
-215.03243240756279
 20
156.04892688349219
 30
0.0
 11
-215.03243240756279
 21
155.7799122961182
 31
0.0
  0
LINE
  5
7E9
  8
DATA
  6
CONTINUOUS
 62
     7
 10
-209.03243240756279
 20
156.04892688349219
 30
0.0
 11
-209.03243240756279
 21
155.7799122961182
 31
0.0
  0
CIRCLE
  5
7EA
  8
DATA
  6
CONTINUOUS
 62
     7
 10
-333.49999999999989
 20
160.99916048651019
 30
0.0
 40
9.9000000000000341
  0
CIRCLE
  5
7EB
  8
DATA
  6
CONTINUOUS
 62
     7
 10
-333.49999999999989
 20
160.99916048651019
 30
0.0
 40
7.8000000000000114
  0
ARC
  5
7EC
  8
DATA
  6
CONTINUOUS
 62
     7
 10
-333.49999999999989
 20
160.99916048651019
 30
0.0
 40
3.3000000000000211
 50
15.003704329311139
 51
75.037109872825468
  0
ARC
  5
7ED
  8
DATA
  6
CONTINUOUS
 62
     7
 10
-333.49999999999989
 20
160.99916048651019
 30
0.0
 40
3.3000000000000238
 50
105.8421633413984
 51
164.9962956706888
  0
ARC
  5
7EE
  8
DATA
  6
CONTINUOUS
 62
     7
 10
-333.49999999999989
 20
160.99916048651019
 30
0.0
 40
3.300000000000006
 50
195.0037043293101
 51
344.99629567068922
  0
ARC
  5
7EF
  8
DATA
  6
CONTINUOUS
 62
     7
 10
-329.39999999999998
 20
160.99916048651019
 30
0.0
 40
1.2500000000000131
 50
223.1136059459017
 51
136.88639405410109
  0
ARC
  5
7F0
  8
DATA
  6
CONTINUOUS
 62
     7
 10
-337.59999999999991
 20
160.99916048651019
 30
0.0
 40
1.2500000000000351
 50
43.113605945898897
 51
316.88639405409828
  0
ARC
  5
7F1
  8
DATA
  6
CONTINUOUS
 62
     7
 10
-333.53125
 20
165.0717466663869
 30
0.0
 40
1.249999999999994
 50
314.96142057864688
 51
225.9178526355729
  0
ARC
  5
7F2
  8
DATA
  6
CONTINUOUS
 62
     7
 10
-153.5633232904656
 20
163.51696356615469
 30
0.0
 40
10.9
 50
282.9893914705022
 51
257.01060852923291
  0
LINE
  5
7F3
  8
DATA
  6
CONTINUOUS
 62
     7
 10
-151.11332329049009
 20
153.97652332473399
 30
0.0
 11
-151.11332329049009
 21
152.0933406237391
 31
0.0
  0
LINE
  5
7F4
  8
DATA
  6
CONTINUOUS
 62
     7
 10
-156.01332329049009
 20
153.97652332474661
 30
0.0
 11
-156.01332329049009
 21
152.09334062372909
 31
0.0
  0
ARC
  5
7F5
  8
DATA
  6
CONTINUOUS
 62
     7
 10
-335.1979661378648
 20
145.7194797281054
 30
0.0
 40
3.1721424401781841
 50
101.31056104783789
 51
266.88920568607011
  0
ARC
  5
7F6
  8
DATA
  6
CONTINUOUS
 62
     7
 10
-331.54225101822129
 20
145.7194797281054
 30
0.0
 40
3.1721424401781899
 50
273.11079431392989
 51
78.689438953067736
  0
LINE
  5
7F7
  8
DATA
  6
CONTINUOUS
 62
     7
 10
-331.37010857804307
 20
142.55201155287949
 30
0.0
 11
-335.37010857804307
 21
142.55201155287949
 31
0.0
  0
CIRCLE
  5
7F8
  8
DATA
  6
CONTINUOUS
 62
     7
 10
-343.0
 20
172.99916048651011
 30
0.0
 40
2.9499999999999882
  0
LINE
  5
7F9
  8
DATA
  6
CONTINUOUS
 62
     7
 10
-330.9201085780677
 20
149.2519267695825
 30
0.0
 11
-330.9201085780677
 21
148.83001448035321
 31
0.0
  0
LINE
  5
7FA
  8
DATA
  6
CONTINUOUS
 62
     7
 10
-335.82010857806762
 20
149.22558430142621
 30
0.0
 11
-335.82010857806762
 21
148.83001448034329
 31
0.0
  0
CIRCLE
  5
7FB
  8
DATA
  6
CONTINUOUS
 62
     7
 10
-333.37010857804307
 20
160.99916048651019
 30
0.0
 40
12.0
  0
LINE
  5
7FC
  8
DATA
  6
CONTINUOUS
 62
     7
 10
-335.82010857806762
 20
149.22558430142621
 30
0.0
 11
-335.82010857806762
 21
149.25192676959281
 31
0.0
  0
POLYLINE
  5
7FD
  8
DATA
  6
CONTINUOUS
 62
     7
 66
     1
 10
0.0
 20
0.0
 30
0.0
  0
VERTEX
  5
F81
  8
DATA
  6
CONTINUOUS
 62
     7
 10
-343.34999999999991
 20
173.3491604865101
 30
0.0
  0
VERTEX
  5
F82
  8
DATA
  6
CONTINUOUS
 62
     7
 10
-345.25
 20
173.3491604865101
 30
0.0
  0
VERTEX
  5
F83
  8
DATA
  6
CONTINUOUS
 62
     7
 10
-345.25
 20
172.64916048651011
 30
0.0
  0
VERTEX
  5
F84
  8
DATA
  6
CONTINUOUS
 62
     7
 10
-343.34999999999991
 20
172.64916048651011
 30
0.0
  0
SEQEND
  5
F85
  8
DATA
  6
CONTINUOUS
 62
     7
  0
POLYLINE
  5
804
  8
DATA
  6
CONTINUOUS
 62
     7
 66
     1
 10
0.0
 20
0.0
 30
0.0
  0
VERTEX
  5
F86
  8
DATA
  6
CONTINUOUS
 62
     7
 10
-342.64999999999998
 20
173.3491604865101
 30
0.0
  0
VERTEX
  5
F87
  8
DATA
  6
CONTINUOUS
 62
     7
 10
-340.74999999999989
 20
173.3491604865101
 30
0.0
  0
VERTEX
  5
F88
  8
DATA
  6
CONTINUOUS
 62
     7
 10
-340.74999999999989
 20
172.64916048651011
 30
0.0
  0
VERTEX
  5
F89
  8
DATA
  6
CONTINUOUS
 62
     7
 10
-342.64999999999998
 20
172.64916048651011
 30
0.0
  0
SEQEND
  5
F8A
  8
DATA
  6
CONTINUOUS
 62
     7
  0
POLYLINE
  5
80B
  8
DATA
  6
CONTINUOUS
 62
     7
 66
     1
 10
0.0
 20
0.0
 30
0.0
  0
VERTEX
  5
F8B
  8
DATA
  6
CONTINUOUS
 62
     7
 10
-343.34999999999991
 20
172.64916048651011
 30
0.0
  0
VERTEX
  5
F8C
  8
DATA
  6
CONTINUOUS
 62
     7
 10
-343.34999999999991
 20
170.74916048651011
 30
0.0
  0
VERTEX
  5
F8D
  8
DATA
  6
CONTINUOUS
 62
     7
 10
-342.64999999999998
 20
170.74916048651011
 30
0.0
  0
VERTEX
  5
F8E
  8
DATA
  6
CONTINUOUS
 62
     7
 10
-342.64999999999998
 20
172.64916048651011
 30
0.0
  0
SEQEND
  5
F8F
  8
DATA
  6
CONTINUOUS
 62
     7
  0
POLYLINE
  5
812
  8
DATA
  6
CONTINUOUS
 62
     7
 66
     1
 10
0.0
 20
0.0
 30
0.0
  0
VERTEX
  5
F90
  8
DATA
  6
CONTINUOUS
 62
     7
 10
-343.34999999999991
 20
173.3491604865101
 30
0.0
  0
VERTEX
  5
F91
  8
DATA
  6
CONTINUOUS
 62
     7
 10
-343.34999999999991
 20
175.24916048651019
 30
0.0
  0
VERTEX
  5
F92
  8
DATA
  6
CONTINUOUS
 62
     7
 10
-342.64999999999998
 20
175.24916048651019
 30
0.0
  0
VERTEX
  5
F93
  8
DATA
  6
CONTINUOUS
 62
     7
 10
-342.64999999999998
 20
173.3491604865101
 30
0.0
  0
SEQEND
  5
F94
  8
DATA
  6
CONTINUOUS
 62
     7
  0
ARC
  5
819
  8
DATA
  6
CONTINUOUS
 62
     7
 10
-323.99999999999989
 20
148.99916048651011
 30
0.0
 40
2.9500000000000042
 50
293.7985817692304
 51
246.20141823076969
  0
POLYLINE
  5
81A
  8
DATA
  6
CONTINUOUS
 62
     7
 66
     1
 10
0.0
 20
0.0
 30
0.0
  0
VERTEX
  5
F95
  8
DATA
  6
CONTINUOUS
 62
     7
 10
-324.34999999999991
 20
149.3491604865101
 30
0.0
  0
VERTEX
  5
F96
  8
DATA
  6
CONTINUOUS
 62
     7
 10
-326.24999999999989
 20
149.3491604865101
 30
0.0
  0
VERTEX
  5
F97
  8
DATA
  6
CONTINUOUS
 62
     7
 10
-326.24999999999989
 20
148.64916048651011
 30
0.0
  0
VERTEX
  5
F98
  8
DATA
  6
CONTINUOUS
 62
     7
 10
-324.34999999999991
 20
148.64916048651011
 30
0.0
  0
SEQEND
  5
F99
  8
DATA
  6
CONTINUOUS
 62
     7
  0
POLYLINE
  5
821
  8
DATA
  6
CONTINUOUS
 62
     7
 66
     1
 10
0.0
 20
0.0
 30
0.0
  0
VERTEX
  5
F9A
  8
DATA
  6
CONTINUOUS
 62
     7
 10
-323.64999999999998
 20
149.3491604865101
 30
0.0
  0
VERTEX
  5
F9B
  8
DATA
  6
CONTINUOUS
 62
     7
 10
-321.74999999999989
 20
149.3491604865101
 30
0.0
  0
VERTEX
  5
F9C
  8
DATA
  6
CONTINUOUS
 62
     7
 10
-321.74999999999989
 20
148.64916048651011
 30
0.0
  0
VERTEX
  5
F9D
  8
DATA
  6
CONTINUOUS
 62
     7
 10
-323.64999999999998
 20
148.64916048651011
 30
0.0
  0
SEQEND
  5
F9E
  8
DATA
  6
CONTINUOUS
 62
     7
  0
POLYLINE
  5
828
  8
DATA
  6
CONTINUOUS
 62
     7
 66
     1
 10
0.0
 20
0.0
 30
0.0
  0
VERTEX
  5
F9F
  8
DATA
  6
CONTINUOUS
 62
     7
 10
-324.34999999999991
 20
148.64916048651011
 30
0.0
  0
VERTEX
  5
FA0
  8
DATA
  6
CONTINUOUS
 62
     7
 10
-324.34999999999991
 20
146.74916048651011
 30
0.0
  0
VERTEX
  5
FA1
  8
DATA
  6
CONTINUOUS
 62
     7
 10
-323.64999999999998
 20
146.74916048651011
 30
0.0
  0
VERTEX
  5
FA2
  8
DATA
  6
CONTINUOUS
 62
     7
 10
-323.64999999999998
 20
148.64916048651011
 30
0.0
  0
SEQEND
  5
FA3
  8
DATA
  6
CONTINUOUS
 62
     7
  0
POLYLINE
  5
82F
  8
DATA
  6
CONTINUOUS
 62
     7
 66
     1
 10
0.0
 20
0.0
 30
0.0
  0
VERTEX
  5
FA4
  8
DATA
  6
CONTINUOUS
 62
     7
 10
-324.34999999999991
 20
149.3491604865101
 30
0.0
  0
VERTEX
  5
FA5
  8
DATA
  6
CONTINUOUS
 62
     7
 10
-324.34999999999991
 20
151.24916048651019
 30
0.0
  0
VERTEX
  5
FA6
  8
DATA
  6
CONTINUOUS
 62
     7
 10
-323.64999999999998
 20
151.24916048651019
 30
0.0
  0
VERTEX
  5
FA7
  8
DATA
  6
CONTINUOUS
 62
     7
 10
-323.64999999999998
 20
149.3491604865101
 30
0.0
  0
SEQEND
  5
FA8
  8
DATA
  6
CONTINUOUS
 62
     7
  0
CIRCLE
  5
836
  8
DATA
  6
CONTINUOUS
 62
     7
 10
-295.99999999999989
 20
160.99916048651019
 30
0.0
 40
9.9000000000000341
  0
CIRCLE
  5
837
  8
DATA
  6
CONTINUOUS
 62
     7
 10
-295.99999999999989
 20
160.99916048651019
 30
0.0
 40
7.8000000000000114
  0
ARC
  5
838
  8
DATA
  6
CONTINUOUS
 62
     7
 10
-295.99999999999989
 20
160.99916048651019
 30
0.0
 40
3.3000000000000211
 50
15.003704329311139
 51
75.037109872825468
  0
ARC
  5
839
  8
DATA
  6
CONTINUOUS
 62
     7
 10
-295.99999999999989
 20
160.99916048651019
 30
0.0
 40
3.3000000000000238
 50
105.8421633413984
 51
164.9962956706888
  0
ARC
  5
83A
  8
DATA
  6
CONTINUOUS
 62
     7
 10
-295.99999999999989
 20
160.99916048651019
 30
0.0
 40
3.300000000000006
 50
195.0037043293101
 51
344.99629567068922
  0
ARC
  5
83B
  8
DATA
  6
CONTINUOUS
 62
     7
 10
-291.89999999999998
 20
160.99916048651019
 30
0.0
 40
1.2500000000000131
 50
223.1136059459017
 51
136.88639405410109
  0
ARC
  5
83C
  8
DATA
  6
CONTINUOUS
 62
     7
 10
-300.09999999999991
 20
160.99916048651019
 30
0.0
 40
1.2500000000000351
 50
43.113605945898897
 51
316.88639405409828
  0
ARC
  5
83D
  8
DATA
  6
CONTINUOUS
 62
     7
 10
-296.03125
 20
165.0717466663869
 30
0.0
 40
1.249999999999994
 50
314.96142057864688
 51
225.9178526355729
  0
ARC
  5
83E
  8
DATA
  6
CONTINUOUS
 62
     7
 10
-297.6979661378648
 20
145.7194797281054
 30
0.0
 40
3.1721424401781841
 50
101.31056104783789
 51
266.88920568607011
  0
ARC
  5
83F
  8
DATA
  6
CONTINUOUS
 62
     7
 10
-294.04225101822129
 20
145.7194797281054
 30
0.0
 40
3.1721424401781899
 50
273.11079431392989
 51
78.689438953067736
  0
LINE
  5
840
  8
DATA
  6
CONTINUOUS
 62
     7
 10
-293.87010857804307
 20
142.55201155287949
 30
0.0
 11
-297.87010857804307
 21
142.55201155287949
 31
0.0
  0
CIRCLE
  5
841
  8
DATA
  6
CONTINUOUS
 62
     7
 10
-305.5
 20
172.99916048651011
 30
0.0
 40
2.9499999999999882
  0
LINE
  5
842
  8
DATA
  6
CONTINUOUS
 62
     7
 10
-293.4201085780677
 20
149.2519267695825
 30
0.0
 11
-293.4201085780677
 21
148.83001448035321
 31
0.0
  0
LINE
  5
843
  8
DATA
  6
CONTINUOUS
 62
     7
 10
-298.32010857806762
 20
149.22558430142621
 30
0.0
 11
-298.32010857806762
 21
148.83001448034329
 31
0.0
  0
CIRCLE
  5
844
  8
DATA
  6
CONTINUOUS
 62
     7
 10
-295.87010857804307
 20
160.99916048651019
 30
0.0
 40
12.0
  0
LINE
  5
845
  8
DATA
  6
CONTINUOUS
 62
     7
 10
-298.32010857806762
 20
149.22558430142621
 30
0.0
 11
-298.32010857806762
 21
149.25192676959281
 31
0.0
  0
POLYLINE
  5
846
  8
DATA
  6
CONTINUOUS
 62
     7
 66
     1
 10
0.0
 20
0.0
 30
0.0
  0
VERTEX
  5
FA9
  8
DATA
  6
CONTINUOUS
 62
     7
 10
-305.84999999999991
 20
173.3491604865101
 30
0.0
  0
VERTEX
  5
FAA
  8
DATA
  6
CONTINUOUS
 62
     7
 10
-307.75
 20
173.3491604865101
 30
0.0
  0
VERTEX
  5
FAB
  8
DATA
  6
CONTINUOUS
 62
     7
 10
-307.75
 20
172.64916048651011
 30
0.0
  0
VERTEX
  5
FAC
  8
DATA
  6
CONTINUOUS
 62
     7
 10
-305.84999999999991
 20
172.64916048651011
 30
0.0
  0
SEQEND
  5
FAD
  8
DATA
  6
CONTINUOUS
 62
     7
  0
POLYLINE
  5
84D
  8
DATA
  6
CONTINUOUS
 62
     7
 66
     1
 10
0.0
 20
0.0
 30
0.0
  0
VERTEX
  5
FAE
  8
DATA
  6
CONTINUOUS
 62
     7
 10
-305.14999999999998
 20
173.3491604865101
 30
0.0
  0
VERTEX
  5
FAF
  8
DATA
  6
CONTINUOUS
 62
     7
 10
-303.24999999999989
 20
173.3491604865101
 30
0.0
  0
VERTEX
  5
FB0
  8
DATA
  6
CONTINUOUS
 62
     7
 10
-303.24999999999989
 20
172.64916048651011
 30
0.0
  0
VERTEX
  5
FB1
  8
DATA
  6
CONTINUOUS
 62
     7
 10
-305.14999999999998
 20
172.64916048651011
 30
0.0
  0
SEQEND
  5
FB2
  8
DATA
  6
CONTINUOUS
 62
     7
  0
POLYLINE
  5
854
  8
DATA
  6
CONTINUOUS
 62
     7
 66
     1
 10
0.0
 20
0.0
 30
0.0
  0
VERTEX
  5
FB3
  8
DATA
  6
CONTINUOUS
 62
     7
 10
-305.84999999999991
 20
172.64916048651011
 30
0.0
  0
VERTEX
  5
FB4
  8
DATA
  6
CONTINUOUS
 62
     7
 10
-305.84999999999991
 20
170.74916048651011
 30
0.0
  0
VERTEX
  5
FB5
  8
DATA
  6
CONTINUOUS
 62
     7
 10
-305.14999999999998
 20
170.74916048651011
 30
0.0
  0
VERTEX
  5
FB6
  8
DATA
  6
CONTINUOUS
 62
     7
 10
-305.14999999999998
 20
172.64916048651011
 30
0.0
  0
SEQEND
  5
FB7
  8
DATA
  6
CONTINUOUS
 62
     7
  0
POLYLINE
  5
85B
  8
DATA
  6
CONTINUOUS
 62
     7
 66
     1
 10
0.0
 20
0.0
 30
0.0
  0
VERTEX
  5
FB8
  8
DATA
  6
CONTINUOUS
 62
     7
 10
-305.84999999999991
 20
173.3491604865101
 30
0.0
  0
VERTEX
  5
FB9
  8
DATA
  6
CONTINUOUS
 62
     7
 10
-305.84999999999991
 20
175.24916048651019
 30
0.0
  0
VERTEX
  5
FBA
  8
DATA
  6
CONTINUOUS
 62
     7
 10
-305.14999999999998
 20
175.24916048651019
 30
0.0
  0
VERTEX
  5
FBB
  8
DATA
  6
CONTINUOUS
 62
     7
 10
-305.14999999999998
 20
173.3491604865101
 30
0.0
  0
SEQEND
  5
FBC
  8
DATA
  6
CONTINUOUS
 62
     7
  0
ARC
  5
862
  8
DATA
  6
CONTINUOUS
 62
     7
 10
-286.49999999999989
 20
148.99916048651011
 30
0.0
 40
2.9500000000000042
 50
293.7985817692304
 51
246.20141823076969
  0
POLYLINE
  5
863
  8
DATA
  6
CONTINUOUS
 62
     7
 66
     1
 10
0.0
 20
0.0
 30
0.0
  0
VERTEX
  5
FBD
  8
DATA
  6
CONTINUOUS
 62
     7
 10
-286.84999999999991
 20
149.3491604865101
 30
0.0
  0
VERTEX
  5
FBE
  8
DATA
  6
CONTINUOUS
 62
     7
 10
-288.74999999999989
 20
149.3491604865101
 30
0.0
  0
VERTEX
  5
FBF
  8
DATA
  6
CONTINUOUS
 62
     7
 10
-288.74999999999989
 20
148.64916048651011
 30
0.0
  0
VERTEX
  5
FC0
  8
DATA
  6
CONTINUOUS
 62
     7
 10
-286.84999999999991
 20
148.64916048651011
 30
0.0
  0
SEQEND
  5
FC1
  8
DATA
  6
CONTINUOUS
 62
     7
  0
POLYLINE
  5
86A
  8
DATA
  6
CONTINUOUS
 62
     7
 66
     1
 10
0.0
 20
0.0
 30
0.0
  0
VERTEX
  5
FC2
  8
DATA
  6
CONTINUOUS
 62
     7
 10
-286.14999999999998
 20
149.3491604865101
 30
0.0
  0
VERTEX
  5
FC3
  8
DATA
  6
CONTINUOUS
 62
     7
 10
-284.24999999999989
 20
149.3491604865101
 30
0.0
  0
VERTEX
  5
FC4
  8
DATA
  6
CONTINUOUS
 62
     7
 10
-284.24999999999989
 20
148.64916048651011
 30
0.0
  0
VERTEX
  5
FC5
  8
DATA
  6
CONTINUOUS
 62
     7
 10
-286.14999999999998
 20
148.64916048651011
 30
0.0
  0
SEQEND
  5
FC6
  8
DATA
  6
CONTINUOUS
 62
     7
  0
POLYLINE
  5
871
  8
DATA
  6
CONTINUOUS
 62
     7
 66
     1
 10
0.0
 20
0.0
 30
0.0
  0
VERTEX
  5
FC7
  8
DATA
  6
CONTINUOUS
 62
     7
 10
-286.84999999999991
 20
148.64916048651011
 30
0.0
  0
VERTEX
  5
FC8
  8
DATA
  6
CONTINUOUS
 62
     7
 10
-286.84999999999991
 20
146.74916048651011
 30
0.0
  0
VERTEX
  5
FC9
  8
DATA
  6
CONTINUOUS
 62
     7
 10
-286.14999999999998
 20
146.74916048651011
 30
0.0
  0
VERTEX
  5
FCA
  8
DATA
  6
CONTINUOUS
 62
     7
 10
-286.14999999999998
 20
148.64916048651011
 30
0.0
  0
SEQEND
  5
FCB
  8
DATA
  6
CONTINUOUS
 62
     7
  0
POLYLINE
  5
878
  8
DATA
  6
CONTINUOUS
 62
     7
 66
     1
 10
0.0
 20
0.0
 30
0.0
  0
VERTEX
  5
FCC
  8
DATA
  6
CONTINUOUS
 62
     7
 10
-286.84999999999991
 20
149.3491604865101
 30
0.0
  0
VERTEX
  5
FCD
  8
DATA
  6
CONTINUOUS
 62
     7
 10
-286.84999999999991
 20
151.24916048651019
 30
0.0
  0
VERTEX
  5
FCE
  8
DATA
  6
CONTINUOUS
 62
     7
 10
-286.14999999999998
 20
151.24916048651019
 30
0.0
  0
VERTEX
  5
FCF
  8
DATA
  6
CONTINUOUS
 62
     7
 10
-286.14999999999998
 20
149.3491604865101
 30
0.0
  0
SEQEND
  5
FD0
  8
DATA
  6
CONTINUOUS
 62
     7
  0
CIRCLE
  5
87F
  8
DATA
  6
CONTINUOUS
 62
     7
 10
-271.03243240756279
 20
163.46512537058791
 30
0.0
 40
11.0
  0
CIRCLE
  5
880
  8
DATA
  6
CONTINUOUS
 62
     7
 10
-271.03243240756279
 20
163.46512537058791
 30
0.0
 40
8.25
  0
CIRCLE
  5
881
  8
DATA
  6
CONTINUOUS
 62
     7
 10
-271.03243240756279
 20
167.65446603447069
 30
0.0
 40
1.25
  0
CIRCLE
  5
882
  8
DATA
  6
CONTINUOUS
 62
     7
 10
-275.28243240756279
 20
163.46512537058791
 30
0.0
 40
1.25
  0
CIRCLE
  5
883
  8
DATA
  6
CONTINUOUS
 62
     7
 10
-266.78243240756279
 20
163.46512537058791
 30
0.0
 40
1.25
  0
CIRCLE
  5
884
  8
DATA
  6
CONTINUOUS
 62
     7
 10
-280.57018870336191
 20
173.07018870336179
 30
0.0
 40
2.0006999999999939
  0
POLYLINE
  5
885
  8
DATA
  6
CONTINUOUS
 62
     7
 66
     1
 10
0.0
 20
0.0
 30
0.0
  0
VERTEX
  5
FD1
  8
DATA
  6
CONTINUOUS
 62
     7
 10
-280.76256370336188
 20
173.26256370336179
 30
0.0
  0
VERTEX
  5
FD2
  8
DATA
  6
CONTINUOUS
 62
     7
 10
-280.76256370336188
 20
174.60918870336181
 30
0.0
  0
VERTEX
  5
FD3
  8
DATA
  6
CONTINUOUS
 62
     7
 10
-280.37781370336188
 20
174.60918870336181
 30
0.0
  0
VERTEX
  5
FD4
  8
DATA
  6
CONTINUOUS
 62
     7
 10
-280.37781370336188
 20
173.26256370336179
 30
0.0
  0
SEQEND
  5
FD5
  8
DATA
  6
CONTINUOUS
 62
     7
  0
POLYLINE
  5
88C
  8
DATA
  6
CONTINUOUS
 62
     7
 66
     1
 10
0.0
 20
0.0
 30
0.0
  0
VERTEX
  5
FD6
  8
DATA
  6
CONTINUOUS
 62
     7
 10
-280.76256370336188
 20
172.8778137033618
 30
0.0
  0
VERTEX
  5
FD7
  8
DATA
  6
CONTINUOUS
 62
     7
 10
-280.76256370336188
 20
171.53118870336181
 30
0.0
  0
VERTEX
  5
FD8
  8
DATA
  6
CONTINUOUS
 62
     7
 10
-280.37781370336188
 20
171.53118870336181
 30
0.0
  0
VERTEX
  5
FD9
  8
DATA
  6
CONTINUOUS
 62
     7
 10
-280.37781370336188
 20
172.8778137033618
 30
0.0
  0
SEQEND
  5
FDA
  8
DATA
  6
CONTINUOUS
 62
     7
  0
POLYLINE
  5
893
  8
DATA
  6
CONTINUOUS
 62
     7
 66
     1
 10
0.0
 20
0.0
 30
0.0
  0
VERTEX
  5
FDB
  8
DATA
  6
CONTINUOUS
 62
     7
 10
-280.37781370336188
 20
173.26256370336179
 30
0.0
  0
VERTEX
  5
FDC
  8
DATA
  6
CONTINUOUS
 62
     7
 10
-279.03118870336181
 20
173.26256370336179
 30
0.0
  0
VERTEX
  5
FDD
  8
DATA
  6
CONTINUOUS
 62
     7
 10
-279.03118870336181
 20
172.8778137033618
 30
0.0
  0
VERTEX
  5
FDE
  8
DATA
  6
CONTINUOUS
 62
     7
 10
-280.37781370336188
 20
172.8778137033618
 30
0.0
  0
SEQEND
  5
FDF
  8
DATA
  6
CONTINUOUS
 62
     7
  0
POLYLINE
  5
89A
  8
DATA
  6
CONTINUOUS
 62
     7
 66
     1
 10
0.0
 20
0.0
 30
0.0
  0
VERTEX
  5
FE0
  8
DATA
  6
CONTINUOUS
 62
     7
 10
-280.76256370336188
 20
173.26256370336179
 30
0.0
  0
VERTEX
  5
FE1
  8
DATA
  6
CONTINUOUS
 62
     7
 10
-282.10918870336189
 20
173.26256370336179
 30
0.0
  0
VERTEX
  5
FE2
  8
DATA
  6
CONTINUOUS
 62
     7
 10
-282.10918870336189
 20
172.8778137033618
 30
0.0
  0
VERTEX
  5
FE3
  8
DATA
  6
CONTINUOUS
 62
     7
 10
-280.76256370336188
 20
172.8778137033618
 30
0.0
  0
SEQEND
  5
FE4
  8
DATA
  6
CONTINUOUS
 62
     7
  0
CIRCLE
  5
8A1
  8
DATA
  6
CONTINUOUS
 62
     7
 10
-261.42981129663809
 20
153.92981129663821
 30
0.0
 40
2.0006999999999939
  0
POLYLINE
  5
8A2
  8
DATA
  6
CONTINUOUS
 62
     7
 66
     1
 10
0.0
 20
0.0
 30
0.0
  0
VERTEX
  5
FE5
  8
DATA
  6
CONTINUOUS
 62
     7
 10
-261.62218629663812
 20
154.12218629663809
 30
0.0
  0
VERTEX
  5
FE6
  8
DATA
  6
CONTINUOUS
 62
     7
 10
-261.62218629663812
 20
155.46881129663811
 30
0.0
  0
VERTEX
  5
FE7
  8
DATA
  6
CONTINUOUS
 62
     7
 10
-261.23743629663812
 20
155.46881129663811
 30
0.0
  0
VERTEX
  5
FE8
  8
DATA
  6
CONTINUOUS
 62
     7
 10
-261.23743629663812
 20
154.12218629663809
 30
0.0
  0
SEQEND
  5
FE9
  8
DATA
  6
CONTINUOUS
 62
     7
  0
POLYLINE
  5
8A9
  8
DATA
  6
CONTINUOUS
 62
     7
 66
     1
 10
0.0
 20
0.0
 30
0.0
  0
VERTEX
  5
FEA
  8
DATA
  6
CONTINUOUS
 62
     7
 10
-261.62218629663812
 20
153.73743629663809
 30
0.0
  0
VERTEX
  5
FEB
  8
DATA
  6
CONTINUOUS
 62
     7
 10
-261.62218629663812
 20
152.39081129663811
 30
0.0
  0
VERTEX
  5
FEC
  8
DATA
  6
CONTINUOUS
 62
     7
 10
-261.23743629663812
 20
152.39081129663811
 30
0.0
  0
VERTEX
  5
FED
  8
DATA
  6
CONTINUOUS
 62
     7
 10
-261.23743629663812
 20
153.73743629663809
 30
0.0
  0
SEQEND
  5
FEE
  8
DATA
  6
CONTINUOUS
 62
     7
  0
POLYLINE
  5
8B0
  8
DATA
  6
CONTINUOUS
 62
     7
 66
     1
 10
0.0
 20
0.0
 30
0.0
  0
VERTEX
  5
FEF
  8
DATA
  6
CONTINUOUS
 62
     7
 10
-261.23743629663812
 20
154.12218629663809
 30
0.0
  0
VERTEX
  5
FF0
  8
DATA
  6
CONTINUOUS
 62
     7
 10
-259.89081129663822
 20
154.12218629663809
 30
0.0
  0
VERTEX
  5
FF1
  8
DATA
  6
CONTINUOUS
 62
     7
 10
-259.89081129663822
 20
153.73743629663809
 30
0.0
  0
VERTEX
  5
FF2
  8
DATA
  6
CONTINUOUS
 62
     7
 10
-261.23743629663812
 20
153.73743629663809
 30
0.0
  0
SEQEND
  5
FF3
  8
DATA
  6
CONTINUOUS
 62
     7
  0
POLYLINE
  5
8B7
  8
DATA
  6
CONTINUOUS
 62
     7
 66
     1
 10
0.0
 20
0.0
 30
0.0
  0
VERTEX
  5
FF4
  8
DATA
  6
CONTINUOUS
 62
     7
 10
-261.62218629663812
 20
154.12218629663809
 30
0.0
  0
VERTEX
  5
FF5
  8
DATA
  6
CONTINUOUS
 62
     7
 10
-262.96881129663808
 20
154.12218629663809
 30
0.0
  0
VERTEX
  5
FF6
  8
DATA
  6
CONTINUOUS
 62
     7
 10
-262.96881129663808
 20
153.73743629663809
 30
0.0
  0
VERTEX
  5
FF7
  8
DATA
  6
CONTINUOUS
 62
     7
 10
-261.62218629663812
 20
153.73743629663809
 30
0.0
  0
SEQEND
  5
FF8
  8
DATA
  6
CONTINUOUS
 62
     7
  0
ARC
  5
8BE
  8
DATA
  6
CONTINUOUS
 62
     7
 10
-271.03243240756279
 20
163.46512537058791
 30
0.0
 40
8.0000000000000071
 50
247.97568716295791
 51
292.02431283704209
  0
LINE
  5
8BF
  8
DATA
  6
CONTINUOUS
 62
     7
 10
-274.03243240756291
 20
156.04892688349219
 30
0.0
 11
-274.03243240756291
 21
155.7799122961182
 31
0.0
  0
LINE
  5
8C0
  8
DATA
  6
CONTINUOUS
 62
     7
 10
-268.03243240756291
 20
156.04892688349219
 30
0.0
 11
-268.03243240756291
 21
155.7799122961182
 31
0.0
  0
TEXT
  5
8C1
  8
DATA
 62
     7
 10
-341.79658510906501
 20
151.1212180998578
 30
0.0
 40
3.078125
  1
R
 50
180.0
 41
0.7
 11
-341.79658510906501
 21
148.0430930998578
 31
0.0
 73
     3
  0
TEXT
  5
8C2
  8
DATA
 62
     7
 10
-304.23756380028408
 20
151.1212180998578
 30
0.0
 40
3.078125
  1
L
 50
180.0
 41
0.7
 11
-304.23756380028408
 21
148.0430930998578
 31
0.0
 73
     3
  0
TEXT
  5
8C3
  8
DATA
 62
     7
 10
-321.30096816288722
 20
177.30487766359761
 30
0.0
 40
2.693359375
  1
INPUTS
 50
180.0
 41
0.7
 11
-321.30096816288722
 21
174.61151828859761
 31
0.0
 73
     3
  0
TEXT
  5
8C4
  8
DATA
 62
     7
 10
-288.04632990792862
 20
177.30487766359761
 30
0.0
 40
2.693359375
  1
BALANCED
 50
180.0
 41
0.7
 11
-288.04632990792862
 21
174.61151828859761
 31
0.0
 73
     3
  0
TEXT
  5
8C5
  8
DATA
 62
     7
 10
-310.8499998431239
 20
152.08000000000001
 30
0.0
 40
2.30859375
  1
INPUT
 50
180.0
 41
0.7
 11
-310.8499998431239
 21
149.77140625000001
 31
0.0
 73
     3
  0
TEXT
  5
8C6
  8
DATA
 62
     7
 10
-310.8499998431239
 20
155.08000000000001
 30
0.0
 40
2.30859375
  1
LEVEL
 50
180.0
 41
0.7
 11
-310.8499998431239
 21
152.77140625000001
 31
0.0
 73
     3
  0
TEXT
  5
8C7
  8
DATA
 62
     7
 10
-308.39999999999998
 20
158.465
 30
0.0
 40
2.1162109375
  1
0dB -20dB
 50
180.0
 41
0.7
 11
-308.39999999999998
 21
156.3487890625
 31
0.0
 73
     3
  0
CIRCLE
  5
8C8
  8
DATA
  6
CONTINUOUS
 62
     7
 10
-314.60220996317503
 20
170.05425188504279
 30
0.0
 40
3.575000000000045
  0
LINE
  5
8C9
  8
DATA
  6
CONTINUOUS
 62
     7
 10
-313.2193188568362
 20
164.7999999999999
 30
0.0
 11
-308.71931885683631
 21
164.7999999999999
 31
0.0
  0
LINE
  5
8CA
  8
DATA
  6
CONTINUOUS
 62
     7
 10
-309.24431885683617
 20
164.7999999999999
 30
0.0
 11
-309.24431885683617
 21
161.7999999999999
 31
0.0
  0
LINE
  5
8CB
  8
DATA
  6
CONTINUOUS
 62
     7
 10
-312.69431885683622
 20
164.7999999999999
 30
0.0
 11
-312.69431885683622
 21
161.7999999999999
 31
0.0
  0
LINE
  5
8CC
  8
DATA
  6
CONTINUOUS
 62
     7
 10
-309.24431885683617
 20
161.7999999999999
 30
0.0
 11
-312.7193188568362
 21
161.7999999999999
 31
0.0
  0
LINE
  5
8CD
  8
DATA
  6
CONTINUOUS
 62
     7
 10
-320.3727385622077
 20
164.7999999999999
 30
0.0
 11
-315.87273856220759
 21
164.7999999999999
 31
0.0
  0
LINE
  5
8CE
  8
DATA
  6
CONTINUOUS
 62
     7
 10
-316.39773856220762
 20
164.7999999999999
 30
0.0
 11
-316.39773856220762
 21
163.5499999999999
 31
0.0
  0
LINE
  5
8CF
  8
DATA
  6
CONTINUOUS
 62
     7
 10
-319.84773856220772
 20
164.7999999999999
 30
0.0
 11
-319.84773856220772
 21
163.5499999999999
 31
0.0
  0
LINE
  5
8D0
  8
DATA
  6
CONTINUOUS
 62
     7
 10
-319.29838868430619
 20
161.7999999999999
 30
0.0
 11
-319.323388684306
 21
161.7999999999999
 31
0.0
  0
LINE
  5
8D1
  8
DATA
  6
CONTINUOUS
 62
     7
 10
-316.39773856220762
 20
163.5499999999999
 30
0.0
 11
-319.84773856220772
 21
163.5499999999999
 31
0.0
  0
TEXT
  5
8D2
  8
DATA
 62
     7
 10
-314.07500001821251
 20
162.64999999999989
 30
0.0
 40
1.923828125
  1
UNBAL
 50
180.0
 41
0.7
 11
-314.07500001821251
 21
160.72617187499989
 31
0.0
 73
     3
  0
TEXT
  5
8D3
  8
DATA
 62
     7
 10
-256.00967143087962
 20
159.66402481685219
 30
0.0
 40
3.078125
  1
R
 50
180.0
 41
0.7
 11
-256.00967143087962
 21
156.58589981685219
 31
0.0
 73
     3
  0
TEXT
  5
8D4
  8
DATA
 62
     7
 10
-225.47987591573931
 20
159.63999999999999
 30
0.0
 40
3.078125
  1
L
 50
180.0
 41
0.7
 11
-225.47987591573931
 21
156.56187499999999
 31
0.0
 73
     3
  0
TEXT
  5
8D5
  8
DATA
 62
     7
 10
-229.11331265262319
 20
155.70272457265509
 30
0.0
 40
2.30859375
  1
BALANCED OUTPUTS
 50
180.0
 41
0.7
 11
-229.11331265262319
 21
153.3941308226552
 31
0.0
 73
     3
  0
TEXT
  5
8D6
  8
DATA
 62
     7
 10
-170.17749743763059
 20
156.94498514235769
 30
0.0
 40
2.30859375
  1
 FOOT
 50
180.0
 41
0.7
 11
-170.17749743763059
 21
154.63639139235769
 31
0.0
 73
     3
  0
TEXT
  5
8D7
  8
DATA
 62
     7
 10
-170.17749743763059
 20
159.94498514235769
 30
0.0
 40
2.30859375
  1
SWITCH
 50
180.0
 41
0.7
 11
-170.17749743763059
 21
157.63639139235769
 31
0.0
 73
     3
  0
TEXT
  5
8D8
  8
DATA
 62
     7
 10
-183.55751733391611
 20
157.03121161775741
 30
0.0
 40
2.30859375
  1
   FOOT
 50
180.0
 41
0.7
 11
-183.55751733391611
 21
154.72261786775741
 31
0.0
 73
     3
  0
TEXT
  5
8D9
  8
DATA
 62
     7
 10
-183.55751733391611
 20
160.03121161775741
 30
0.0
 40
2.30859375
  1
CONTROLLER
 50
180.0
 41
0.7
 11
-183.55751733391611
 21
157.72261786775741
 31
0.0
 73
     3
  0
TEXT
  5
8DA
  8
DATA
 62
     7
 10
-156.99621657030451
 20
177.58000000000001
 30
0.0
 40
2.30859375
  1
IN
 50
180.0
 41
0.7
 11
-156.99621657030451
 21
175.27140625000001
 31
0.0
 73
     3
  0
TEXT
  5
8DB
  8
DATA
 62
     7
 10
-128.0499504745257
 20
177.97999999999999
 30
0.0
 40
2.30859375
  1
OUT
 50
180.0
 41
0.7
 11
-128.0499504745257
 21
175.67140624999999
 31
0.0
 73
     3
  0
TEXT
  5
8DC
  8
DATA
 62
     7
 10
-121.0173386983369
 20
150.88
 30
0.0
 40
2.30859375
  1
AES/EBU
 50
180.0
 41
0.7
 11
-121.0173386983369
 21
148.57140625
 31
0.0
 73
     3
  0
CIRCLE
  5
8DD
  8
DATA
  6
CONTINUOUS
 62
     7
 10
-136.91010258189459
 20
148.91010258189459
 30
0.0
 40
3.9000000000000048
  0
POLYLINE
  5
8DE
  8
DATA
  6
CONTINUOUS
 62
     7
 66
     1
 10
0.0
 20
0.0
 30
0.0
  0
VERTEX
  5
FF9
  8
DATA
  6
CONTINUOUS
 62
     7
 10
-137.41010258189459
 20
148.41010258189459
 30
0.0
  0
VERTEX
  5
FFA
  8
DATA
  6
CONTINUOUS
 62
     7
 10
-137.41010258189459
 20
145.91010258189459
 30
0.0
  0
VERTEX
  5
FFB
  8
DATA
  6
CONTINUOUS
 62
     7
 10
-136.41010258189459
 20
145.91010258189459
 30
0.0
  0
VERTEX
  5
FFC
  8
DATA
  6
CONTINUOUS
 62
     7
 10
-136.41010258189459
 20
148.41010258189459
 30
0.0
  0
SEQEND
  5
FFD
  8
DATA
  6
CONTINUOUS
 62
     7
  0
POLYLINE
  5
8E5
  8
DATA
  6
CONTINUOUS
 62
     7
 66
     1
 10
0.0
 20
0.0
 30
0.0
  0
VERTEX
  5
FFE
  8
DATA
  6
CONTINUOUS
 62
     7
 10
-137.41010258189459
 20
149.41010258189459
 30
0.0
  0
VERTEX
  5
FFF
  8
DATA
  6
CONTINUOUS
 62
     7
 10
-137.41010258189459
 20
151.91010258189459
 30
0.0
  0
VERTEX
  5
1000
  8
DATA
  6
CONTINUOUS
 62
     7
 10
-136.41010258189459
 20
151.91010258189459
 30
0.0
  0
VERTEX
  5
1001
  8
DATA
  6
CONTINUOUS
 62
     7
 10
-136.41010258189459
 20
149.41010258189459
 30
0.0
  0
SEQEND
  5
1002
  8
DATA
  6
CONTINUOUS
 62
     7
  0
POLYLINE
  5
8EC
  8
DATA
  6
CONTINUOUS
 62
     7
 66
     1
 10
0.0
 20
0.0
 30
0.0
  0
VERTEX
  5
1003
  8
DATA
  6
CONTINUOUS
 62
     7
 10
-137.41010258189459
 20
149.41010258189459
 30
0.0
  0
VERTEX
  5
1004
  8
DATA
  6
CONTINUOUS
 62
     7
 10
-139.91010258189459
 20
149.41010258189459
 30
0.0
  0
VERTEX
  5
1005
  8
DATA
  6
CONTINUOUS
 62
     7
 10
-139.91010258189459
 20
148.41010258189459
 30
0.0
  0
VERTEX
  5
1006
  8
DATA
  6
CONTINUOUS
 62
     7
 10
-137.41010258189459
 20
148.41010258189459
 30
0.0
  0
SEQEND
  5
1007
  8
DATA
  6
CONTINUOUS
 62
     7
  0
POLYLINE
  5
8F3
  8
DATA
  6
CONTINUOUS
 62
     7
 66
     1
 10
0.0
 20
0.0
 30
0.0
  0
VERTEX
  5
1008
  8
DATA
  6
CONTINUOUS
 62
     7
 10
-136.41010258189459
 20
149.41010258189459
 30
0.0
  0
VERTEX
  5
1009
  8
DATA
  6
CONTINUOUS
 62
     7
 10
-133.91010258189459
 20
149.41010258189459
 30
0.0
  0
VERTEX
  5
100A
  8
DATA
  6
CONTINUOUS
 62
     7
 10
-133.91010258189459
 20
148.41010258189459
 30
0.0
  0
VERTEX
  5
100B
  8
DATA
  6
CONTINUOUS
 62
     7
 10
-136.41010258189459
 20
148.41010258189459
 30
0.0
  0
SEQEND
  5
100C
  8
DATA
  6
CONTINUOUS
 62
     7
  0
CIRCLE
  5
8FA
  8
DATA
  6
CONTINUOUS
 62
     7
 10
-142.5
 20
176.61765788344039
 30
0.0
 40
3.9000000000000048
  0
POLYLINE
  5
8FB
  8
DATA
  6
CONTINUOUS
 62
     7
 66
     1
 10
0.0
 20
0.0
 30
0.0
  0
VERTEX
  5
100D
  8
DATA
  6
CONTINUOUS
 62
     7
 10
-143.0
 20
176.11765788344039
 30
0.0
  0
VERTEX
  5
100E
  8
DATA
  6
CONTINUOUS
 62
     7
 10
-143.0
 20
173.61765788344039
 30
0.0
  0
VERTEX
  5
100F
  8
DATA
  6
CONTINUOUS
 62
     7
 10
-142.0
 20
173.61765788344039
 30
0.0
  0
VERTEX
  5
1010
  8
DATA
  6
CONTINUOUS
 62
     7
 10
-142.0
 20
176.11765788344039
 30
0.0
  0
SEQEND
  5
1011
  8
DATA
  6
CONTINUOUS
 62
     7
  0
POLYLINE
  5
902
  8
DATA
  6
CONTINUOUS
 62
     7
 66
     1
 10
0.0
 20
0.0
 30
0.0
  0
VERTEX
  5
1012
  8
DATA
  6
CONTINUOUS
 62
     7
 10
-143.0
 20
177.11765788344039
 30
0.0
  0
VERTEX
  5
1013
  8
DATA
  6
CONTINUOUS
 62
     7
 10
-143.0
 20
179.61765788344039
 30
0.0
  0
VERTEX
  5
1014
  8
DATA
  6
CONTINUOUS
 62
     7
 10
-142.0
 20
179.61765788344039
 30
0.0
  0
VERTEX
  5
1015
  8
DATA
  6
CONTINUOUS
 62
     7
 10
-142.0
 20
177.11765788344039
 30
0.0
  0
SEQEND
  5
1016
  8
DATA
  6
CONTINUOUS
 62
     7
  0
POLYLINE
  5
909
  8
DATA
  6
CONTINUOUS
 62
     7
 66
     1
 10
0.0
 20
0.0
 30
0.0
  0
VERTEX
  5
1017
  8
DATA
  6
CONTINUOUS
 62
     7
 10
-143.0
 20
177.11765788344039
 30
0.0
  0
VERTEX
  5
1018
  8
DATA
  6
CONTINUOUS
 62
     7
 10
-145.5
 20
177.11765788344039
 30
0.0
  0
VERTEX
  5
1019
  8
DATA
  6
CONTINUOUS
 62
     7
 10
-145.5
 20
176.11765788344039
 30
0.0
  0
VERTEX
  5
101A
  8
DATA
  6
CONTINUOUS
 62
     7
 10
-143.0
 20
176.11765788344039
 30
0.0
  0
SEQEND
  5
101B
  8
DATA
  6
CONTINUOUS
 62
     7
  0
POLYLINE
  5
910
  8
DATA
  6
CONTINUOUS
 62
     7
 66
     1
 10
0.0
 20
0.0
 30
0.0
  0
VERTEX
  5
101C
  8
DATA
  6
CONTINUOUS
 62
     7
 10
-142.0
 20
177.11765788344039
 30
0.0
  0
VERTEX
  5
101D
  8
DATA
  6
CONTINUOUS
 62
     7
 10
-139.5
 20
177.11765788344039
 30
0.0
  0
VERTEX
  5
101E
  8
DATA
  6
CONTINUOUS
 62
     7
 10
-139.5
 20
176.11765788344039
 30
0.0
  0
VERTEX
  5
101F
  8
DATA
  6
CONTINUOUS
 62
     7
 10
-142.0
 20
176.11765788344039
 30
0.0
  0
SEQEND
  5
1020
  8
DATA
  6
CONTINUOUS
 62
     7
  0
LINE
  5
917
  8
DATA
  6
CONTINUOUS
 62
     7
 10
-138.60000000000011
 20
178.69999999999999
 30
0.0
 11
-139.20244767901951
 21
178.69999999999999
 31
0.0
  0
LINE
  5
918
  8
DATA
  6
CONTINUOUS
 62
     7
 10
-146.39999999999981
 20
178.69999999999999
 30
0.0
 11
-145.7975523209804
 21
178.69999999999999
 31
0.0
  0
LINE
  5
919
  8
DATA
  6
CONTINUOUS
 62
     7
 10
134.0
 20
-430.0
 30
0.0
 11
134.0
 21
-385.0
 31
0.0
  0
LINE
  5
91A
  8
DATA
  6
CONTINUOUS
 62
     7
 10
114.0
 20
-417.0
 30
0.0
 11
114.0
 21
-398.0
 31
0.0
  0
LINE
  5
91B
  8
DATA
  6
CONTINUOUS
 62
     7
 10
127.85700976311
 20
-397.14053786166329
 30
0.0
 11
114.0
 21
-398.0
 31
0.0
  0
LINE
  5
91C
  8
DATA
  6
CONTINUOUS
 62
     7
 10
127.89451030644879
 20
-417.868406894153
 30
0.0
 11
114.0
 21
-417.0
 31
0.0
  0
LINE
  5
91D
  8
DATA
  6
CONTINUOUS
 62
     7
 10
127.54545304017211
 20
-396.71035367479561
 30
0.0
 11
127.54545304017211
 21
-393.46446061000432
 31
0.0
  0
POLYLINE
  5
91E
  8
DATA
  6
CONTINUOUS
 62
     7
 66
     1
 10
0.0
 20
0.0
 30
0.0
 70
   128
  0
VERTEX
  5
1021
  8
DATA
  6
CONTINUOUS
 62
     7
 10
129.99999106278929
 20
-391.20194806313401
 30
0.0
  0
VERTEX
  5
1022
  8
DATA
  6
CONTINUOUS
 62
     7
 10
129.9461324672227
 20
-391.23729902210607
 30
0.0
  0
VERTEX
  5
1023
  8
DATA
  6
CONTINUOUS
 62
     7
 10
129.89276613750809
 20
-391.27264998107842
 30
0.0
  0
VERTEX
  5
1024
  8
DATA
  6
CONTINUOUS
 62
     7
 10
129.83989207364539
 20
-391.30800094005042
 30
0.0
  0
VERTEX
  5
1025
  8
DATA
  6
CONTINUOUS
 62
     7
 10
129.78751027563459
 20
-391.34335189902259
 30
0.0
  0
VERTEX
  5
1026
  8
DATA
  6
CONTINUOUS
 62
     7
 10
129.73562074347569
 20
-391.3787028579946
 30
0.0
  0
VERTEX
  5
1027
  8
DATA
  6
CONTINUOUS
 62
     7
 10
129.68422347716881
 20
-391.41405381696683
 30
0.0
  0
VERTEX
  5
1028
  8
DATA
  6
CONTINUOUS
 62
     7
 10
129.63331847671381
 20
-391.44940477593889
 30
0.0
  0
VERTEX
  5
1029
  8
DATA
  6
CONTINUOUS
 62
     7
 10
129.58290574211071
 20
-391.48475573491112
 30
0.0
  0
VERTEX
  5
102A
  8
DATA
  6
CONTINUOUS
 62
     7
 10
129.53298527335949
 20
-391.52010669388318
 30
0.0
  0
VERTEX
  5
102B
  8
DATA
  6
CONTINUOUS
 62
     7
 10
129.48355707046031
 20
-391.5554576528553
 30
0.0
  0
VERTEX
  5
102C
  8
DATA
  6
CONTINUOUS
 62
     7
 10
129.43462113341289
 20
-391.59080861182753
 30
0.0
  0
VERTEX
  5
102D
  8
DATA
  6
CONTINUOUS
 62
     7
 10
129.38617746221749
 20
-391.6261595707997
 30
0.0
  0
VERTEX
  5
102E
  8
DATA
  6
CONTINUOUS
 62
     7
 10
129.33822605687411
 20
-391.6615105297717
 30
0.0
  0
VERTEX
  5
102F
  8
DATA
  6
CONTINUOUS
 62
     7
 10
129.29076691738251
 20
-391.69686148874399
 30
0.0
  0
VERTEX
  5
1030
  8
DATA
  6
CONTINUOUS
 62
     7
 10
129.24380004374291
 20
-391.73221244771611
 30
0.0
  0
VERTEX
  5
1031
  8
DATA
  6
CONTINUOUS
 62
     7
 10
129.19732543595521
 20
-391.76756340668823
 30
0.0
  0
VERTEX
  5
1032
  8
DATA
  6
CONTINUOUS
 62
     7
 10
129.15134309401941
 20
-391.80291436566017
 30
0.0
  0
VERTEX
  5
1033
  8
DATA
  6
CONTINUOUS
 62
     7
 10
129.10585301793549
 20
-391.83826532463252
 30
0.0
  0
VERTEX
  5
1034
  8
DATA
  6
CONTINUOUS
 62
     7
 10
129.06085520770361
 20
-391.87361628360458
 30
0.0
  0
VERTEX
  5
1035
  8
DATA
  6
CONTINUOUS
 62
     7
 10
129.01634966332361
 20
-391.90896724257681
 30
0.0
  0
VERTEX
  5
1036
  8
DATA
  6
CONTINUOUS
 62
     7
 10
128.97233638479551
 20
-391.94431820154892
 30
0.0
  0
VERTEX
  5
1037
  8
DATA
  6
CONTINUOUS
 62
     7
 10
128.92881537211929
 20
-391.97966916052093
 30
0.0
  0
VERTEX
  5
1038
  8
DATA
  6
CONTINUOUS
 62
     7
 10
128.885786625295
 20
-392.0150201194931
 30
0.0
  0
VERTEX
  5
1039
  8
DATA
  6
CONTINUOUS
 62
     7
 10
128.8432501443227
 20
-392.05037107846528
 30
0.0
  0
VERTEX
  5
103A
  8
DATA
  6
CONTINUOUS
 62
     7
 10
128.8012059292023
 20
-392.08572203743751
 30
0.0
  0
VERTEX
  5
103B
  8
DATA
  6
CONTINUOUS
 62
     7
 10
128.7596539799338
 20
-392.12107299640962
 30
0.0
  0
VERTEX
  5
103C
  8
DATA
  6
CONTINUOUS
 62
     7
 10
128.71859429651721
 20
-392.15642395538168
 30
0.0
  0
VERTEX
  5
103D
  8
DATA
  6
CONTINUOUS
 62
     7
 10
128.67802687895261
 20
-392.1917749143538
 30
0.0
  0
VERTEX
  5
103E
  8
DATA
  6
CONTINUOUS
 62
     7
 10
128.63795172723991
 20
-392.22712587332597
 30
0.0
  0
VERTEX
  5
103F
  8
DATA
  6
CONTINUOUS
 62
     7
 10
128.59836884137911
 20
-392.26247683229798
 30
0.0
  0
VERTEX
  5
1040
  8
DATA
  6
CONTINUOUS
 62
     7
 10
128.55927822137019
 20
-392.29782779127032
 30
0.0
  0
VERTEX
  5
1041
  8
DATA
  6
CONTINUOUS
 62
     7
 10
128.52067986721329
 20
-392.33317875024238
 30
0.0
  0
VERTEX
  5
1042
  8
DATA
  6
CONTINUOUS
 62
     7
 10
128.4825737789082
 20
-392.3685297092145
 30
0.0
  0
VERTEX
  5
1043
  8
DATA
  6
CONTINUOUS
 62
     7
 10
128.44495995645511
 20
-392.40388066818667
 30
0.0
  0
VERTEX
  5
1044
  8
DATA
  6
CONTINUOUS
 62
     7
 10
128.407838399854
 20
-392.4392316271589
 30
0.0
  0
VERTEX
  5
1045
  8
DATA
  6
CONTINUOUS
 62
     7
 10
128.37120910910471
 20
-392.47458258613091
 30
0.0
  0
VERTEX
  5
1046
  8
DATA
  6
CONTINUOUS
 62
     7
 10
128.33507208420741
 20
-392.50993354510308
 30
0.0
  0
VERTEX
  5
1047
  8
DATA
  6
CONTINUOUS
 62
     7
 10
128.29942732516199
 20
-392.54528450407508
 30
0.0
  0
VERTEX
  5
1048
  8
DATA
  6
CONTINUOUS
 62
     7
 10
128.26427483196849
 20
-392.58063546304732
 30
0.0
  0
VERTEX
  5
1049
  8
DATA
  6
CONTINUOUS
 62
     7
 10
128.2296146046269
 20
-392.61598642201938
 30
0.0
  0
VERTEX
  5
104A
  8
DATA
  6
CONTINUOUS
 62
     7
 10
128.19544664313719
 20
-392.65133738099172
 30
0.0
  0
VERTEX
  5
104B
  8
DATA
  6
CONTINUOUS
 62
     7
 10
128.1617709474996
 20
-392.68668833996378
 30
0.0
  0
VERTEX
  5
104C
  8
DATA
  6
CONTINUOUS
 62
     7
 10
128.1285875177137
 20
-392.72203929893578
 30
0.0
  0
VERTEX
  5
104D
  8
DATA
  6
CONTINUOUS
 62
     7
 10
128.09589635377981
 20
-392.75739025790801
 30
0.0
  0
VERTEX
  5
104E
  8
DATA
  6
CONTINUOUS
 62
     7
 10
128.06369745569791
 20
-392.79274121688002
 30
0.0
  0
VERTEX
  5
104F
  8
DATA
  6
CONTINUOUS
 62
     7
 10
128.03199082346791
 20
-392.8280921758523
 30
0.0
  0
VERTEX
  5
1050
  8
DATA
  6
CONTINUOUS
 62
     7
 10
128.00077645708981
 20
-392.86344313482448
 30
0.0
  0
VERTEX
  5
1051
  8
DATA
  6
CONTINUOUS
 62
     7
 10
127.97005435656359
 20
-392.8987940937966
 30
0.0
  0
VERTEX
  5
1052
  8
DATA
  6
CONTINUOUS
 62
     7
 10
127.93982452188941
 20
-392.93414505276883
 30
0.0
  0
VERTEX
  5
1053
  8
DATA
  6
CONTINUOUS
 62
     7
 10
127.91008695306699
 20
-392.96949601174089
 30
0.0
  0
VERTEX
  5
1054
  8
DATA
  6
CONTINUOUS
 62
     7
 10
127.8808416500966
 20
-393.00484697071312
 30
0.0
  0
VERTEX
  5
1055
  8
DATA
  6
CONTINUOUS
 62
     7
 10
127.85208861297809
 20
-393.04019792968518
 30
0.0
  0
VERTEX
  5
1056
  8
DATA
  6
CONTINUOUS
 62
     7
 10
127.82382784171151
 20
-393.07554888865729
 30
0.0
  0
VERTEX
  5
1057
  8
DATA
  6
CONTINUOUS
 62
     7
 10
127.79605933629691
 20
-393.11089984762953
 30
0.0
  0
VERTEX
  5
1058
  8
DATA
  6
CONTINUOUS
 62
     7
 10
127.7687830967342
 20
-393.1462508066017
 30
0.0
  0
VERTEX
  5
1059
  8
DATA
  6
CONTINUOUS
 62
     7
 10
127.7419991230234
 20
-393.1816017655737
 30
0.0
  0
VERTEX
  5
105A
  8
DATA
  6
CONTINUOUS
 62
     7
 10
127.7157074151645
 20
-393.21695272454582
 30
0.0
  0
VERTEX
  5
105B
  8
DATA
  6
CONTINUOUS
 62
     7
 10
127.6899079731576
 20
-393.25230368351799
 30
0.0
  0
VERTEX
  5
105C
  8
DATA
  6
CONTINUOUS
 62
     7
 10
127.66460079700251
 20
-393.28765464249022
 30
0.0
  0
VERTEX
  5
105D
  8
DATA
  6
CONTINUOUS
 62
     7
 10
127.6397858866994
 20
-393.3230056014624
 30
0.0
  0
VERTEX
  5
105E
  8
DATA
  6
CONTINUOUS
 62
     7
 10
127.6154632422482
 20
-393.35835656043452
 30
0.0
  0
VERTEX
  5
105F
  8
DATA
  6
CONTINUOUS
 62
     7
 10
127.591632863649
 20
-393.39370751940658
 30
0.0
  0
VERTEX
  5
1060
  8
DATA
  6
CONTINUOUS
 62
     7
 10
127.5682947509016
 20
-393.42905847837881
 30
0.0
  0
VERTEX
  5
1061
  8
DATA
  6
CONTINUOUS
 62
     7
 10
127.54544890400619
 20
-393.46440943735081
 30
0.0
  0
VERTEX
  5
1062
  8
DATA
  6
CONTINUOUS
 62
     7
 10
127.54544890400619
 20
-393.46440943735081
 30
0.0
  0
SEQEND
  5
1063
  8
DATA
  6
CONTINUOUS
 62
     7
  0
POLYLINE
  5
962
  8
DATA
  6
CONTINUOUS
 62
     7
 66
     1
 10
0.0
 20
0.0
 30
0.0
 70
   128
  0
VERTEX
  5
1064
  8
DATA
  6
CONTINUOUS
 62
     7
 10
127.54545249172649
 20
-396.71030975519079
 30
0.0
  0
VERTEX
  5
1065
  8
DATA
  6
CONTINUOUS
 62
     7
 10
127.5682984243067
 20
-396.74566072570173
 30
0.0
  0
VERTEX
  5
1066
  8
DATA
  6
CONTINUOUS
 62
     7
 10
127.5916366230602
 20
-396.78101169621277
 30
0.0
  0
VERTEX
  5
1067
  8
DATA
  6
CONTINUOUS
 62
     7
 10
127.615467087987
 20
-396.81636266672359
 30
0.0
  0
VERTEX
  5
1068
  8
DATA
  6
CONTINUOUS
 62
     7
 10
127.6397898190871
 20
-396.85171363723452
 30
0.0
  0
VERTEX
  5
1069
  8
DATA
  6
CONTINUOUS
 62
     7
 10
127.6646048163604
 20
-396.88706460774551
 30
0.0
  0
VERTEX
  5
106A
  8
DATA
  6
CONTINUOUS
 62
     7
 10
127.689912079807
 20
-396.92241557825639
 30
0.0
  0
VERTEX
  5
106B
  8
DATA
  6
CONTINUOUS
 62
     7
 10
127.7157116094269
 20
-396.95776654876732
 30
0.0
  0
VERTEX
  5
106C
  8
DATA
  6
CONTINUOUS
 62
     7
 10
127.7420034052201
 20
-396.99311751927831
 30
0.0
  0
VERTEX
  5
106D
  8
DATA
  6
CONTINUOUS
 62
     7
 10
127.7687874671866
 20
-397.02846848978919
 30
0.0
  0
VERTEX
  5
106E
  8
DATA
  6
CONTINUOUS
 62
     7
 10
127.7960637953263
 20
-397.06381946030012
 30
0.0
  0
VERTEX
  5
106F
  8
DATA
  6
CONTINUOUS
 62
     7
 10
127.82383238963941
 20
-397.09917043081123
 30
0.0
  0
VERTEX
  5
1070
  8
DATA
  6
CONTINUOUS
 62
     7
 10
127.85209325012571
 20
-397.13452140132199
 30
0.0
  0
VERTEX
  5
1071
  8
DATA
  6
CONTINUOUS
 62
     7
 10
127.8808463767853
 20
-397.16987237183292
 30
0.0
  0
VERTEX
  5
1072
  8
DATA
  6
CONTINUOUS
 62
     7
 10
127.91009176961821
 20
-397.20522334234391
 30
0.0
  0
VERTEX
  5
1073
  8
DATA
  6
CONTINUOUS
 62
     7
 10
127.93982942862429
 20
-397.24057431285479
 30
0.0
  0
VERTEX
  5
1074
  8
DATA
  6
CONTINUOUS
 62
     7
 10
127.9700593538038
 20
-397.27592528336572
 30
0.0
  0
VERTEX
  5
1075
  8
DATA
  6
CONTINUOUS
 62
     7
 10
128.00078154515651
 20
-397.31127625387671
 30
0.0
  0
VERTEX
  5
1076
  8
DATA
  6
CONTINUOUS
 62
     7
 10
128.03199600268249
 20
-397.34662722438742
 30
0.0
  0
VERTEX
  5
1077
  8
DATA
  6
CONTINUOUS
 62
     7
 10
128.06370272638179
 20
-397.38197819489841
 30
0.0
  0
VERTEX
  5
1078
  8
DATA
  6
CONTINUOUS
 62
     7
 10
128.0959017162543
 20
-397.41732916540923
 30
0.0
  0
VERTEX
  5
1079
  8
DATA
  6
CONTINUOUS
 62
     7
 10
128.12859297230011
 20
-397.45268013592028
 30
0.0
  0
VERTEX
  5
107A
  8
DATA
  6
CONTINUOUS
 62
     7
 10
128.16177649451919
 20
-397.48803110643121
 30
0.0
  0
VERTEX
  5
107B
  8
DATA
  6
CONTINUOUS
 62
     7
 10
128.19545228291159
 20
-397.52338207694208
 30
0.0
  0
VERTEX
  5
107C
  8
DATA
  6
CONTINUOUS
 62
     7
 10
128.2296203374774
 20
-397.55873304745307
 30
0.0
  0
VERTEX
  5
107D
  8
DATA
  6
CONTINUOUS
 62
     7
 10
128.26428065821631
 20
-397.59408401796401
 30
0.0
  0
VERTEX
  5
107E
  8
DATA
  6
CONTINUOUS
 62
     7
 10
128.2994332451286
 20
-397.62943498847488
 30
0.0
  0
VERTEX
  5
107F
  8
DATA
  6
CONTINUOUS
 62
     7
 10
128.3350780982141
 20
-397.66478595898582
 30
0.0
  0
VERTEX
  5
1080
  8
DATA
  6
CONTINUOUS
 62
     7
 10
128.37121521747289
 20
-397.70013692949692
 30
0.0
  0
VERTEX
  5
1081
  8
DATA
  6
CONTINUOUS
 62
     7
 10
128.40784460290499
 20
-397.73548790000768
 30
0.0
  0
VERTEX
  5
1082
  8
DATA
  6
CONTINUOUS
 62
     7
 10
128.4449662545104
 20
-397.77083887051867
 30
0.0
  0
VERTEX
  5
1083
  8
DATA
  6
CONTINUOUS
 62
     7
 10
128.482580172289
 20
-397.80618984102972
 30
0.0
  0
VERTEX
  5
1084
  8
DATA
  6
CONTINUOUS
 62
     7
 10
128.5206863562409
 20
-397.8415408115406
 30
0.0
  0
VERTEX
  5
1085
  8
DATA
  6
CONTINUOUS
 62
     7
 10
128.55928480636621
 20
-397.87689178205147
 30
0.0
  0
VERTEX
  5
1086
  8
DATA
  6
CONTINUOUS
 62
     7
 10
128.59837552266461
 20
-397.91224275256241
 30
0.0
  0
VERTEX
  5
1087
  8
DATA
  6
CONTINUOUS
 62
     7
 10
128.6379585051364
 20
-397.94759372307328
 30
0.0
  0
VERTEX
  5
1088
  8
DATA
  6
CONTINUOUS
 62
     7
 10
128.67803375378151
 20
-397.98294469358422
 30
0.0
  0
VERTEX
  5
1089
  8
DATA
  6
CONTINUOUS
 62
     7
 10
128.7186012685998
 20
-398.01829566409509
 30
0.0
  0
VERTEX
  5
108A
  8
DATA
  6
CONTINUOUS
 62
     7
 10
128.75966104959139
 20
-398.05364663460608
 30
0.0
  0
VERTEX
  5
108B
  8
DATA
  6
CONTINUOUS
 62
     7
 10
128.8012130967563
 20
-398.08899760511702
 30
0.0
  0
VERTEX
  5
108C
  8
DATA
  6
CONTINUOUS
 62
     7
 10
128.84325741009451
 20
-398.12434857562801
 30
0.0
  0
VERTEX
  5
108D
  8
DATA
  6
CONTINUOUS
 62
     7
 10
128.88579398960599
 20
-398.15969954613882
 30
0.0
  0
VERTEX
  5
108E
  8
DATA
  6
CONTINUOUS
 62
     7
 10
128.9288228352907
 20
-398.19505051664981
 30
0.0
  0
VERTEX
  5
108F
  8
DATA
  6
CONTINUOUS
 62
     7
 10
128.97234394714869
 20
-398.2304014871608
 30
0.0
  0
VERTEX
  5
1090
  8
DATA
  6
CONTINUOUS
 62
     7
 10
129.01635732518
 20
-398.26575245767168
 30
0.0
  0
VERTEX
  5
1091
  8
DATA
  6
CONTINUOUS
 62
     7
 10
129.0608629693846
 20
-398.30110342818261
 30
0.0
  0
VERTEX
  5
1092
  8
DATA
  6
CONTINUOUS
 62
     7
 10
129.10586087976239
 20
-398.3364543986936
 30
0.0
  0
VERTEX
  5
1093
  8
DATA
  6
CONTINUOUS
 62
     7
 10
129.15135105631359
 20
-398.37180536920448
 30
0.0
  0
VERTEX
  5
1094
  8
DATA
  6
CONTINUOUS
 62
     7
 10
129.197333499038
 20
-398.4071563397153
 30
0.0
  0
VERTEX
  5
1095
  8
DATA
  6
CONTINUOUS
 62
     7
 10
129.2438082079357
 20
-398.4425073102264
 30
0.0
  0
VERTEX
  5
1096
  8
DATA
  6
CONTINUOUS
 62
     7
 10
129.2907751830067
 20
-398.47785828073722
 30
0.0
  0
VERTEX
  5
1097
  8
DATA
  6
CONTINUOUS
 62
     7
 10
129.33823442425091
 20
-398.51320925124821
 30
0.0
  0
VERTEX
  5
1098
  8
DATA
  6
CONTINUOUS
 62
     7
 10
129.38618593166851
 20
-398.54856022175909
 30
0.0
  0
VERTEX
  5
1099
  8
DATA
  6
CONTINUOUS
 62
     7
 10
129.43462970525931
 20
-398.58391119227002
 30
0.0
  0
VERTEX
  5
109A
  8
DATA
  6
CONTINUOUS
 62
     7
 10
129.48356574502341
 20
-398.6192621627809
 30
0.0
  0
VERTEX
  5
109B
  8
DATA
  6
CONTINUOUS
 62
     7
 10
129.53299405096081
 20
-398.65461313329189
 30
0.0
  0
VERTEX
  5
109C
  8
DATA
  6
CONTINUOUS
 62
     7
 10
129.58291462307139
 20
-398.68996410380282
 30
0.0
  0
VERTEX
  5
109D
  8
DATA
  6
CONTINUOUS
 62
     7
 10
129.63332746135541
 20
-398.7253150743137
 30
0.0
  0
VERTEX
  5
109E
  8
DATA
  6
CONTINUOUS
 62
     7
 10
129.68423256581261
 20
-398.7606660448248
 30
0.0
  0
VERTEX
  5
109F
  8
DATA
  6
CONTINUOUS
 62
     7
 10
129.7356299364431
 20
-398.79601701533562
 30
0.0
  0
VERTEX
  5
10A0
  8
DATA
  6
CONTINUOUS
 62
     7
 10
129.78751957324701
 20
-398.83136798584661
 30
0.0
  0
VERTEX
  5
10A1
  8
DATA
  6
CONTINUOUS
 62
     7
 10
129.83990147622399
 20
-398.86671895635749
 30
0.0
  0
VERTEX
  5
10A2
  8
DATA
  6
CONTINUOUS
 62
     7
 10
129.8927756453744
 20
-398.90206992686842
 30
0.0
  0
VERTEX
  5
10A3
  8
DATA
  6
CONTINUOUS
 62
     7
 10
129.946142080698
 20
-398.93742089737941
 30
0.0
  0
VERTEX
  5
10A4
  8
DATA
  6
CONTINUOUS
 62
     7
 10
130.00000078219489
 20
-398.9727718678904
 30
0.0
  0
VERTEX
  5
10A5
  8
DATA
  6
CONTINUOUS
 62
     7
 10
130.00000078219489
 20
-398.9727718678904
 30
0.0
  0
SEQEND
  5
10A6
  8
DATA
  6
CONTINUOUS
 62
     7
  0
LINE
  5
9A6
  8
DATA
  6
CONTINUOUS
 62
     7
 10
127.54545304017211
 20
-421.59035367479561
 30
0.0
 11
127.54545304017211
 21
-418.34446061000432
 31
0.0
  0
POLYLINE
  5
9A7
  8
DATA
  6
CONTINUOUS
 62
     7
 66
     1
 10
0.0
 20
0.0
 30
0.0
 70
   128
  0
VERTEX
  5
10A7
  8
DATA
  6
CONTINUOUS
 62
     7
 10
129.99999106278929
 20
-416.08194806313401
 30
0.0
  0
VERTEX
  5
10A8
  8
DATA
  6
CONTINUOUS
 62
     7
 10
129.9461324672227
 20
-416.11729902210601
 30
0.0
  0
VERTEX
  5
10A9
  8
DATA
  6
CONTINUOUS
 62
     7
 10
129.89276613750809
 20
-416.15264998107818
 30
0.0
  0
VERTEX
  5
10AA
  8
DATA
  6
CONTINUOUS
 62
     7
 10
129.83989207364539
 20
-416.1880009400503
 30
0.0
  0
VERTEX
  5
10AB
  8
DATA
  6
CONTINUOUS
 62
     7
 10
129.78751027563459
 20
-416.22335189902248
 30
0.0
  0
VERTEX
  5
10AC
  8
DATA
  6
CONTINUOUS
 62
     7
 10
129.73562074347569
 20
-416.25870285799448
 30
0.0
  0
VERTEX
  5
10AD
  8
DATA
  6
CONTINUOUS
 62
     7
 10
129.68422347716881
 20
-416.29405381696671
 30
0.0
  0
VERTEX
  5
10AE
  8
DATA
  6
CONTINUOUS
 62
     7
 10
129.63331847671381
 20
-416.32940477593883
 30
0.0
  0
VERTEX
  5
10AF
  8
DATA
  6
CONTINUOUS
 62
     7
 10
129.58290574211071
 20
-416.364755734911
 30
0.0
  0
VERTEX
  5
10B0
  8
DATA
  6
CONTINUOUS
 62
     7
 10
129.53298527335949
 20
-416.40010669388317
 30
0.0
  0
VERTEX
  5
10B1
  8
DATA
  6
CONTINUOUS
 62
     7
 10
129.48355707046031
 20
-416.4354576528554
 30
0.0
  0
VERTEX
  5
10B2
  8
DATA
  6
CONTINUOUS
 62
     7
 10
129.43462113341289
 20
-416.47080861182741
 30
0.0
  0
VERTEX
  5
10B3
  8
DATA
  6
CONTINUOUS
 62
     7
 10
129.38617746221749
 20
-416.50615957079958
 30
0.0
  0
VERTEX
  5
10B4
  8
DATA
  6
CONTINUOUS
 62
     7
 10
129.33822605687411
 20
-416.54151052977159
 30
0.0
  0
VERTEX
  5
10B5
  8
DATA
  6
CONTINUOUS
 62
     7
 10
129.29076691738251
 20
-416.57686148874387
 30
0.0
  0
VERTEX
  5
10B6
  8
DATA
  6
CONTINUOUS
 62
     7
 10
129.24380004374291
 20
-416.61221244771599
 30
0.0
  0
VERTEX
  5
10B7
  8
DATA
  6
CONTINUOUS
 62
     7
 10
129.19732543595521
 20
-416.64756340668811
 30
0.0
  0
VERTEX
  5
10B8
  8
DATA
  6
CONTINUOUS
 62
     7
 10
129.15134309401941
 20
-416.68291436566022
 30
0.0
  0
VERTEX
  5
10B9
  8
DATA
  6
CONTINUOUS
 62
     7
 10
129.10585301793549
 20
-416.7182653246324
 30
0.0
  0
VERTEX
  5
10BA
  8
DATA
  6
CONTINUOUS
 62
     7
 10
129.06085520770361
 20
-416.75361628360457
 30
0.0
  0
VERTEX
  5
10BB
  8
DATA
  6
CONTINUOUS
 62
     7
 10
129.01634966332361
 20
-416.7889672425768
 30
0.0
  0
VERTEX
  5
10BC
  8
DATA
  6
CONTINUOUS
 62
     7
 10
128.97233638479551
 20
-416.82431820154881
 30
0.0
  0
VERTEX
  5
10BD
  8
DATA
  6
CONTINUOUS
 62
     7
 10
128.92881537211929
 20
-416.85966916052092
 30
0.0
  0
VERTEX
  5
10BE
  8
DATA
  6
CONTINUOUS
 62
     7
 10
128.885786625295
 20
-416.89502011949298
 30
0.0
  0
VERTEX
  5
10BF
  8
DATA
  6
CONTINUOUS
 62
     7
 10
128.8432501443227
 20
-416.93037107846521
 30
0.0
  0
VERTEX
  5
10C0
  8
DATA
  6
CONTINUOUS
 62
     7
 10
128.8012059292023
 20
-416.96572203743739
 30
0.0
  0
VERTEX
  5
10C1
  8
DATA
  6
CONTINUOUS
 62
     7
 10
128.7596539799338
 20
-417.0010729964095
 30
0.0
  0
VERTEX
  5
10C2
  8
DATA
  6
CONTINUOUS
 62
     7
 10
128.71859429651721
 20
-417.03642395538162
 30
0.0
  0
VERTEX
  5
10C3
  8
DATA
  6
CONTINUOUS
 62
     7
 10
128.67802687895261
 20
-417.0717749143538
 30
0.0
  0
VERTEX
  5
10C4
  8
DATA
  6
CONTINUOUS
 62
     7
 10
128.63795172723991
 20
-417.10712587332603
 30
0.0
  0
VERTEX
  5
10C5
  8
DATA
  6
CONTINUOUS
 62
     7
 10
128.59836884137911
 20
-417.14247683229797
 30
0.0
  0
VERTEX
  5
10C6
  8
DATA
  6
CONTINUOUS
 62
     7
 10
128.55927822137019
 20
-417.17782779127032
 30
0.0
  0
VERTEX
  5
10C7
  8
DATA
  6
CONTINUOUS
 62
     7
 10
128.52067986721329
 20
-417.21317875024232
 30
0.0
  0
VERTEX
  5
10C8
  8
DATA
  6
CONTINUOUS
 62
     7
 10
128.4825737789082
 20
-417.24852970921438
 30
0.0
  0
VERTEX
  5
10C9
  8
DATA
  6
CONTINUOUS
 62
     7
 10
128.44495995645511
 20
-417.28388066818661
 30
0.0
  0
VERTEX
  5
10CA
  8
DATA
  6
CONTINUOUS
 62
     7
 10
128.407838399854
 20
-417.31923162715879
 30
0.0
  0
VERTEX
  5
10CB
  8
DATA
  6
CONTINUOUS
 62
     7
 10
128.37120910910471
 20
-417.35458258613079
 30
0.0
  0
VERTEX
  5
10CC
  8
DATA
  6
CONTINUOUS
 62
     7
 10
128.33507208420741
 20
-417.38993354510302
 30
0.0
  0
VERTEX
  5
10CD
  8
DATA
  6
CONTINUOUS
 62
     7
 10
128.29942732516199
 20
-417.42528450407508
 30
0.0
  0
VERTEX
  5
10CE
  8
DATA
  6
CONTINUOUS
 62
     7
 10
128.26427483196849
 20
-417.4606354630472
 30
0.0
  0
VERTEX
  5
10CF
  8
DATA
  6
CONTINUOUS
 62
     7
 10
128.2296146046269
 20
-417.49598642201943
 30
0.0
  0
VERTEX
  5
10D0
  8
DATA
  6
CONTINUOUS
 62
     7
 10
128.19544664313719
 20
-417.5313373809916
 30
0.0
  0
VERTEX
  5
10D1
  8
DATA
  6
CONTINUOUS
 62
     7
 10
128.1617709474996
 20
-417.56668833996372
 30
0.0
  0
VERTEX
  5
10D2
  8
DATA
  6
CONTINUOUS
 62
     7
 10
128.1285875177137
 20
-417.60203929893589
 30
0.0
  0
VERTEX
  5
10D3
  8
DATA
  6
CONTINUOUS
 62
     7
 10
128.09589635377981
 20
-417.6373902579079
 30
0.0
  0
VERTEX
  5
10D4
  8
DATA
  6
CONTINUOUS
 62
     7
 10
128.06369745569791
 20
-417.67274121688001
 30
0.0
  0
VERTEX
  5
10D5
  8
DATA
  6
CONTINUOUS
 62
     7
 10
128.03199082346791
 20
-417.70809217585219
 30
0.0
  0
VERTEX
  5
10D6
  8
DATA
  6
CONTINUOUS
 62
     7
 10
128.00077645708981
 20
-417.74344313482442
 30
0.0
  0
VERTEX
  5
10D7
  8
DATA
  6
CONTINUOUS
 62
     7
 10
127.97005435656359
 20
-417.77879409379648
 30
0.0
  0
VERTEX
  5
10D8
  8
DATA
  6
CONTINUOUS
 62
     7
 10
127.93982452188941
 20
-417.81414505276882
 30
0.0
  0
VERTEX
  5
10D9
  8
DATA
  6
CONTINUOUS
 62
     7
 10
127.91008695306699
 20
-417.84949601174088
 30
0.0
  0
VERTEX
  5
10DA
  8
DATA
  6
CONTINUOUS
 62
     7
 10
127.8808416500966
 20
-417.884846970713
 30
0.0
  0
VERTEX
  5
10DB
  8
DATA
  6
CONTINUOUS
 62
     7
 10
127.85208861297809
 20
-417.92019792968517
 30
0.0
  0
VERTEX
  5
10DC
  8
DATA
  6
CONTINUOUS
 62
     7
 10
127.82382784171151
 20
-417.95554888865718
 30
0.0
  0
VERTEX
  5
10DD
  8
DATA
  6
CONTINUOUS
 62
     7
 10
127.79605933629691
 20
-417.99089984762941
 30
0.0
  0
VERTEX
  5
10DE
  8
DATA
  6
CONTINUOUS
 62
     7
 10
127.7687830967342
 20
-418.02625080660158
 30
0.0
  0
VERTEX
  5
10DF
  8
DATA
  6
CONTINUOUS
 62
     7
 10
127.7419991230234
 20
-418.0616017655737
 30
0.0
  0
VERTEX
  5
10E0
  8
DATA
  6
CONTINUOUS
 62
     7
 10
127.7157074151645
 20
-418.09695272454582
 30
0.0
  0
VERTEX
  5
10E1
  8
DATA
  6
CONTINUOUS
 62
     7
 10
127.6899079731576
 20
-418.13230368351799
 30
0.0
  0
VERTEX
  5
10E2
  8
DATA
  6
CONTINUOUS
 62
     7
 10
127.66460079700251
 20
-418.16765464249022
 30
0.0
  0
VERTEX
  5
10E3
  8
DATA
  6
CONTINUOUS
 62
     7
 10
127.6397858866994
 20
-418.20300560146239
 30
0.0
  0
VERTEX
  5
10E4
  8
DATA
  6
CONTINUOUS
 62
     7
 10
127.6154632422482
 20
-418.23835656043451
 30
0.0
  0
VERTEX
  5
10E5
  8
DATA
  6
CONTINUOUS
 62
     7
 10
127.591632863649
 20
-418.27370751940651
 30
0.0
  0
VERTEX
  5
10E6
  8
DATA
  6
CONTINUOUS
 62
     7
 10
127.5682947509016
 20
-418.3090584783788
 30
0.0
  0
VERTEX
  5
10E7
  8
DATA
  6
CONTINUOUS
 62
     7
 10
127.54544890400619
 20
-418.34440943735081
 30
0.0
  0
VERTEX
  5
10E8
  8
DATA
  6
CONTINUOUS
 62
     7
 10
127.54544890400619
 20
-418.34440943735081
 30
0.0
  0
SEQEND
  5
10E9
  8
DATA
  6
CONTINUOUS
 62
     7
  0
POLYLINE
  5
9EB
  8
DATA
  6
CONTINUOUS
 62
     7
 66
     1
 10
0.0
 20
0.0
 30
0.0
 70
   128
  0
VERTEX
  5
10EA
  8
DATA
  6
CONTINUOUS
 62
     7
 10
127.54545249172649
 20
-421.59030975519067
 30
0.0
  0
VERTEX
  5
10EB
  8
DATA
  6
CONTINUOUS
 62
     7
 10
127.5682984243067
 20
-421.62566072570161
 30
0.0
  0
VERTEX
  5
10EC
  8
DATA
  6
CONTINUOUS
 62
     7
 10
127.5916366230602
 20
-421.66101169621282
 30
0.0
  0
VERTEX
  5
10ED
  8
DATA
  6
CONTINUOUS
 62
     7
 10
127.615467087987
 20
-421.69636266672359
 30
0.0
  0
VERTEX
  5
10EE
  8
DATA
  6
CONTINUOUS
 62
     7
 10
127.6397898190871
 20
-421.73171363723441
 30
0.0
  0
VERTEX
  5
10EF
  8
DATA
  6
CONTINUOUS
 62
     7
 10
127.6646048163604
 20
-421.76706460774551
 30
0.0
  0
VERTEX
  5
10F0
  8
DATA
  6
CONTINUOUS
 62
     7
 10
127.689912079807
 20
-421.80241557825627
 30
0.0
  0
VERTEX
  5
10F1
  8
DATA
  6
CONTINUOUS
 62
     7
 10
127.7157116094269
 20
-421.83776654876721
 30
0.0
  0
VERTEX
  5
10F2
  8
DATA
  6
CONTINUOUS
 62
     7
 10
127.7420034052201
 20
-421.8731175192782
 30
0.0
  0
VERTEX
  5
10F3
  8
DATA
  6
CONTINUOUS
 62
     7
 10
127.7687874671866
 20
-421.90846848978907
 30
0.0
  0
VERTEX
  5
10F4
  8
DATA
  6
CONTINUOUS
 62
     7
 10
127.7960637953263
 20
-421.94381946030001
 30
0.0
  0
VERTEX
  5
10F5
  8
DATA
  6
CONTINUOUS
 62
     7
 10
127.82383238963941
 20
-421.97917043081122
 30
0.0
  0
VERTEX
  5
10F6
  8
DATA
  6
CONTINUOUS
 62
     7
 10
127.85209325012571
 20
-422.01452140132199
 30
0.0
  0
VERTEX
  5
10F7
  8
DATA
  6
CONTINUOUS
 62
     7
 10
127.8808463767853
 20
-422.04987237183281
 30
0.0
  0
VERTEX
  5
10F8
  8
DATA
  6
CONTINUOUS
 62
     7
 10
127.91009176961821
 20
-422.08522334234391
 30
0.0
  0
VERTEX
  5
10F9
  8
DATA
  6
CONTINUOUS
 62
     7
 10
127.93982942862429
 20
-422.12057431285479
 30
0.0
  0
VERTEX
  5
10FA
  8
DATA
  6
CONTINUOUS
 62
     7
 10
127.9700593538038
 20
-422.15592528336572
 30
0.0
  0
VERTEX
  5
10FB
  8
DATA
  6
CONTINUOUS
 62
     7
 10
128.00078154515651
 20
-422.19127625387659
 30
0.0
  0
VERTEX
  5
10FC
  8
DATA
  6
CONTINUOUS
 62
     7
 10
128.03199600268249
 20
-422.2266272243873
 30
0.0
  0
VERTEX
  5
10FD
  8
DATA
  6
CONTINUOUS
 62
     7
 10
128.06370272638179
 20
-422.26197819489829
 30
0.0
  0
VERTEX
  5
10FE
  8
DATA
  6
CONTINUOUS
 62
     7
 10
128.0959017162543
 20
-422.29732916540922
 30
0.0
  0
VERTEX
  5
10FF
  8
DATA
  6
CONTINUOUS
 62
     7
 10
128.12859297230011
 20
-422.33268013592033
 30
0.0
  0
VERTEX
  5
1100
  8
DATA
  6
CONTINUOUS
 62
     7
 10
128.16177649451919
 20
-422.36803110643109
 30
0.0
  0
VERTEX
  5
1101
  8
DATA
  6
CONTINUOUS
 62
     7
 10
128.19545228291159
 20
-422.40338207694202
 30
0.0
  0
VERTEX
  5
1102
  8
DATA
  6
CONTINUOUS
 62
     7
 10
128.2296203374774
 20
-422.43873304745301
 30
0.0
  0
VERTEX
  5
1103
  8
DATA
  6
CONTINUOUS
 62
     7
 10
128.26428065821631
 20
-422.474084017964
 30
0.0
  0
VERTEX
  5
1104
  8
DATA
  6
CONTINUOUS
 62
     7
 10
128.2994332451286
 20
-422.50943498847488
 30
0.0
  0
VERTEX
  5
1105
  8
DATA
  6
CONTINUOUS
 62
     7
 10
128.3350780982141
 20
-422.5447859589857
 30
0.0
  0
VERTEX
  5
1106
  8
DATA
  6
CONTINUOUS
 62
     7
 10
128.37121521747289
 20
-422.5801369294968
 30
0.0
  0
VERTEX
  5
1107
  8
DATA
  6
CONTINUOUS
 62
     7
 10
128.40784460290499
 20
-422.61548790000762
 30
0.0
  0
VERTEX
  5
1108
  8
DATA
  6
CONTINUOUS
 62
     7
 10
128.4449662545104
 20
-422.65083887051873
 30
0.0
  0
VERTEX
  5
1109
  8
DATA
  6
CONTINUOUS
 62
     7
 10
128.482580172289
 20
-422.6861898410296
 30
0.0
  0
VERTEX
  5
110A
  8
DATA
  6
CONTINUOUS
 62
     7
 10
128.5206863562409
 20
-422.72154081154048
 30
0.0
  0
VERTEX
  5
110B
  8
DATA
  6
CONTINUOUS
 62
     7
 10
128.55928480636621
 20
-422.75689178205141
 30
0.0
  0
VERTEX
  5
110C
  8
DATA
  6
CONTINUOUS
 62
     7
 10
128.59837552266461
 20
-422.7922427525624
 30
0.0
  0
VERTEX
  5
110D
  8
DATA
  6
CONTINUOUS
 62
     7
 10
128.6379585051364
 20
-422.82759372307328
 30
0.0
  0
VERTEX
  5
110E
  8
DATA
  6
CONTINUOUS
 62
     7
 10
128.67803375378151
 20
-422.8629446935841
 30
0.0
  0
VERTEX
  5
110F
  8
DATA
  6
CONTINUOUS
 62
     7
 10
128.7186012685998
 20
-422.89829566409509
 30
0.0
  0
VERTEX
  5
1110
  8
DATA
  6
CONTINUOUS
 62
     7
 10
128.75966104959139
 20
-422.93364663460602
 30
0.0
  0
VERTEX
  5
1111
  8
DATA
  6
CONTINUOUS
 62
     7
 10
128.8012130967563
 20
-422.96899760511701
 30
0.0
  0
VERTEX
  5
1112
  8
DATA
  6
CONTINUOUS
 62
     7
 10
128.84325741009451
 20
-423.00434857562789
 30
0.0
  0
VERTEX
  5
1113
  8
DATA
  6
CONTINUOUS
 62
     7
 10
128.88579398960599
 20
-423.03969954613882
 30
0.0
  0
VERTEX
  5
1114
  8
DATA
  6
CONTINUOUS
 62
     7
 10
128.9288228352907
 20
-423.0750505166497
 30
0.0
  0
VERTEX
  5
1115
  8
DATA
  6
CONTINUOUS
 62
     7
 10
128.97234394714869
 20
-423.1104014871608
 30
0.0
  0
VERTEX
  5
1116
  8
DATA
  6
CONTINUOUS
 62
     7
 10
129.01635732518
 20
-423.14575245767162
 30
0.0
  0
VERTEX
  5
1117
  8
DATA
  6
CONTINUOUS
 62
     7
 10
129.0608629693846
 20
-423.1811034281825
 30
0.0
  0
VERTEX
  5
1118
  8
DATA
  6
CONTINUOUS
 62
     7
 10
129.10586087976239
 20
-423.2164543986936
 30
0.0
  0
VERTEX
  5
1119
  8
DATA
  6
CONTINUOUS
 62
     7
 10
129.15135105631359
 20
-423.25180536920448
 30
0.0
  0
VERTEX
  5
111A
  8
DATA
  6
CONTINUOUS
 62
     7
 10
129.197333499038
 20
-423.2871563397153
 30
0.0
  0
VERTEX
  5
111B
  8
DATA
  6
CONTINUOUS
 62
     7
 10
129.2438082079357
 20
-423.32250731022629
 30
0.0
  0
VERTEX
  5
111C
  8
DATA
  6
CONTINUOUS
 62
     7
 10
129.2907751830067
 20
-423.3578582807371
 30
0.0
  0
VERTEX
  5
111D
  8
DATA
  6
CONTINUOUS
 62
     7
 10
129.33823442425091
 20
-423.39320925124809
 30
0.0
  0
VERTEX
  5
111E
  8
DATA
  6
CONTINUOUS
 62
     7
 10
129.38618593166851
 20
-423.42856022175908
 30
0.0
  0
VERTEX
  5
111F
  8
DATA
  6
CONTINUOUS
 62
     7
 10
129.43462970525931
 20
-423.46391119227002
 30
0.0
  0
VERTEX
  5
1120
  8
DATA
  6
CONTINUOUS
 62
     7
 10
129.48356574502341
 20
-423.49926216278078
 30
0.0
  0
VERTEX
  5
1121
  8
DATA
  6
CONTINUOUS
 62
     7
 10
129.53299405096081
 20
-423.53461313329188
 30
0.0
  0
VERTEX
  5
1122
  8
DATA
  6
CONTINUOUS
 62
     7
 10
129.58291462307139
 20
-423.56996410380282
 30
0.0
  0
VERTEX
  5
1123
  8
DATA
  6
CONTINUOUS
 62
     7
 10
129.63332746135541
 20
-423.60531507431369
 30
0.0
  0
VERTEX
  5
1124
  8
DATA
  6
CONTINUOUS
 62
     7
 10
129.68423256581261
 20
-423.64066604482468
 30
0.0
  0
VERTEX
  5
1125
  8
DATA
  6
CONTINUOUS
 62
     7
 10
129.7356299364431
 20
-423.67601701533562
 30
0.0
  0
VERTEX
  5
1126
  8
DATA
  6
CONTINUOUS
 62
     7
 10
129.78751957324701
 20
-423.71136798584649
 30
0.0
  0
VERTEX
  5
1127
  8
DATA
  6
CONTINUOUS
 62
     7
 10
129.83990147622399
 20
-423.74671895635748
 30
0.0
  0
VERTEX
  5
1128
  8
DATA
  6
CONTINUOUS
 62
     7
 10
129.8927756453744
 20
-423.7820699268683
 30
0.0
  0
VERTEX
  5
1129
  8
DATA
  6
CONTINUOUS
 62
     7
 10
129.946142080698
 20
-423.81742089737929
 30
0.0
  0
VERTEX
  5
112A
  8
DATA
  6
CONTINUOUS
 62
     7
 10
130.00000078219489
 20
-423.85277186789028
 30
0.0
  0
VERTEX
  5
112B
  8
DATA
  6
CONTINUOUS
 62
     7
 10
130.00000078219489
 20
-423.85277186789028
 30
0.0
  0
SEQEND
  5
112C
  8
DATA
  6
CONTINUOUS
 62
     7
  0
LINE
  5
A2F
  8
DATA
  6
CONTINUOUS
 62
     7
 10
125.0
 20
-406.37499999999989
 30
0.0
 11
130.0
 21
-406.37499999999989
 31
0.0
  0
LINE
  5
A30
  8
DATA
  6
CONTINUOUS
 62
     7
 10
125.0
 20
-397.625
 30
0.0
 11
128.30000000000001
 21
-397.625
 31
0.0
  0
LINE
  5
A31
  8
DATA
  6
CONTINUOUS
 62
     7
 10
125.0
 20
-406.37499999999989
 30
0.0
 11
125.0
 21
-397.64999999999998
 31
0.0
  0
LINE
  5
A32
  8
DATA
  6
CONTINUOUS
 62
     7
 10
127.0
 20
-419.33999999999992
 30
0.0
 11
127.0
 21
-417.81249999999989
 31
0.0
  0
LINE
  5
A33
  8
DATA
  6
CONTINUOUS
 62
     7
 10
127.0
 20
-419.33999999999992
 30
0.0
 11
127.54545304017211
 21
-419.33999999999992
 31
0.0
  0
ARC
  5
A34
  8
DATA
  6
CONTINUOUS
 62
     7
 10
292.00882168453097
 20
-407.53246415933648
 30
0.0
 40
1.0
 50
90.0
 51
270.0
  0
ARC
  5
A35
  8
DATA
  6
CONTINUOUS
 62
     7
 10
315.50882168453097
 20
-407.53246415933648
 30
0.0
 40
1.0
 50
270.0
 51
90.0
  0
LINE
  5
A36
  8
DATA
  6
CONTINUOUS
 62
     7
 10
315.50882168453097
 20
-406.53246415933643
 30
0.0
 11
291.99882168453092
 21
-406.53246415933643
 31
0.0
  0
LINE
  5
A37
  8
DATA
  6
CONTINUOUS
 62
     7
 10
292.00882168453097
 20
-408.53246415933648
 30
0.0
 11
315.538821684531
 21
-408.53246415933648
 31
0.0
  0
LINE
  5
A38
  8
DATA
  6
CONTINUOUS
 62
     7
 10
134.0
 20
-397.5
 30
0.0
 11
425.49999999999989
 21
-397.5
 31
0.0
  0
LINE
  5
A39
  8
DATA
  6
CONTINUOUS
 62
     7
 10
134.0
 20
-417.2000000000001
 30
0.0
 11
425.49999999999989
 21
-417.2000000000001
 31
0.0
  0
CIRCLE
  5
A3A
  8
DATA
  6
CONTINUOUS
 62
     7
 10
167.0
 20
-393.5
 30
0.0
 40
3.9000000000000048
  0
POLYLINE
  5
A3B
  8
DATA
  6
CONTINUOUS
 62
     7
 66
     1
 10
0.0
 20
0.0
 30
0.0
  0
VERTEX
  5
112D
  8
DATA
  6
CONTINUOUS
 62
     7
 10
167.5
 20
-393.0
 30
0.0
  0
VERTEX
  5
112E
  8
DATA
  6
CONTINUOUS
 62
     7
 10
167.5
 20
-390.5
 30
0.0
  0
VERTEX
  5
112F
  8
DATA
  6
CONTINUOUS
 62
     7
 10
166.5
 20
-390.5
 30
0.0
  0
VERTEX
  5
1130
  8
DATA
  6
CONTINUOUS
 62
     7
 10
166.5
 20
-393.0
 30
0.0
  0
SEQEND
  5
1131
  8
DATA
  6
CONTINUOUS
 62
     7
  0
POLYLINE
  5
A42
  8
DATA
  6
CONTINUOUS
 62
     7
 66
     1
 10
0.0
 20
0.0
 30
0.0
  0
VERTEX
  5
1132
  8
DATA
  6
CONTINUOUS
 62
     7
 10
167.5
 20
-394.0
 30
0.0
  0
VERTEX
  5
1133
  8
DATA
  6
CONTINUOUS
 62
     7
 10
167.5
 20
-396.5
 30
0.0
  0
VERTEX
  5
1134
  8
DATA
  6
CONTINUOUS
 62
     7
 10
166.5
 20
-396.5
 30
0.0
  0
VERTEX
  5
1135
  8
DATA
  6
CONTINUOUS
 62
     7
 10
166.5
 20
-394.0
 30
0.0
  0
SEQEND
  5
1136
  8
DATA
  6
CONTINUOUS
 62
     7
  0
POLYLINE
  5
A49
  8
DATA
  6
CONTINUOUS
 62
     7
 66
     1
 10
0.0
 20
0.0
 30
0.0
  0
VERTEX
  5
1137
  8
DATA
  6
CONTINUOUS
 62
     7
 10
167.5
 20
-394.0
 30
0.0
  0
VERTEX
  5
1138
  8
DATA
  6
CONTINUOUS
 62
     7
 10
170.0
 20
-394.0
 30
0.0
  0
VERTEX
  5
1139
  8
DATA
  6
CONTINUOUS
 62
     7
 10
170.0
 20
-393.0
 30
0.0
  0
VERTEX
  5
113A
  8
DATA
  6
CONTINUOUS
 62
     7
 10
167.5
 20
-393.0
 30
0.0
  0
SEQEND
  5
113B
  8
DATA
  6
CONTINUOUS
 62
     7
  0
POLYLINE
  5
A50
  8
DATA
  6
CONTINUOUS
 62
     7
 66
     1
 10
0.0
 20
0.0
 30
0.0
  0
VERTEX
  5
113C
  8
DATA
  6
CONTINUOUS
 62
     7
 10
166.5
 20
-394.0
 30
0.0
  0
VERTEX
  5
113D
  8
DATA
  6
CONTINUOUS
 62
     7
 10
164.0
 20
-394.0
 30
0.0
  0
VERTEX
  5
113E
  8
DATA
  6
CONTINUOUS
 62
     7
 10
164.0
 20
-393.0
 30
0.0
  0
VERTEX
  5
113F
  8
DATA
  6
CONTINUOUS
 62
     7
 10
166.5
 20
-393.0
 30
0.0
  0
SEQEND
  5
1140
  8
DATA
  6
CONTINUOUS
 62
     7
  0
CIRCLE
  5
A57
  8
DATA
  6
CONTINUOUS
 62
     7
 10
167.0
 20
-421.49999999999989
 30
0.0
 40
3.9000000000000048
  0
POLYLINE
  5
A58
  8
DATA
  6
CONTINUOUS
 62
     7
 66
     1
 10
0.0
 20
0.0
 30
0.0
  0
VERTEX
  5
1141
  8
DATA
  6
CONTINUOUS
 62
     7
 10
167.5
 20
-421.0
 30
0.0
  0
VERTEX
  5
1142
  8
DATA
  6
CONTINUOUS
 62
     7
 10
167.5
 20
-418.5
 30
0.0
  0
VERTEX
  5
1143
  8
DATA
  6
CONTINUOUS
 62
     7
 10
166.5
 20
-418.5
 30
0.0
  0
VERTEX
  5
1144
  8
DATA
  6
CONTINUOUS
 62
     7
 10
166.5
 20
-421.0
 30
0.0
  0
SEQEND
  5
1145
  8
DATA
  6
CONTINUOUS
 62
     7
  0
POLYLINE
  5
A5F
  8
DATA
  6
CONTINUOUS
 62
     7
 66
     1
 10
0.0
 20
0.0
 30
0.0
  0
VERTEX
  5
1146
  8
DATA
  6
CONTINUOUS
 62
     7
 10
167.5
 20
-422.0
 30
0.0
  0
VERTEX
  5
1147
  8
DATA
  6
CONTINUOUS
 62
     7
 10
167.5
 20
-424.5
 30
0.0
  0
VERTEX
  5
1148
  8
DATA
  6
CONTINUOUS
 62
     7
 10
166.5
 20
-424.5
 30
0.0
  0
VERTEX
  5
1149
  8
DATA
  6
CONTINUOUS
 62
     7
 10
166.5
 20
-422.0
 30
0.0
  0
SEQEND
  5
114A
  8
DATA
  6
CONTINUOUS
 62
     7
  0
POLYLINE
  5
A66
  8
DATA
  6
CONTINUOUS
 62
     7
 66
     1
 10
0.0
 20
0.0
 30
0.0
  0
VERTEX
  5
114B
  8
DATA
  6
CONTINUOUS
 62
     7
 10
167.5
 20
-422.0
 30
0.0
  0
VERTEX
  5
114C
  8
DATA
  6
CONTINUOUS
 62
     7
 10
170.0
 20
-422.0
 30
0.0
  0
VERTEX
  5
114D
  8
DATA
  6
CONTINUOUS
 62
     7
 10
170.0
 20
-421.0
 30
0.0
  0
VERTEX
  5
114E
  8
DATA
  6
CONTINUOUS
 62
     7
 10
167.5
 20
-421.0
 30
0.0
  0
SEQEND
  5
114F
  8
DATA
  6
CONTINUOUS
 62
     7
  0
POLYLINE
  5
A6D
  8
DATA
  6
CONTINUOUS
 62
     7
 66
     1
 10
0.0
 20
0.0
 30
0.0
  0
VERTEX
  5
1150
  8
DATA
  6
CONTINUOUS
 62
     7
 10
166.5
 20
-422.0
 30
0.0
  0
VERTEX
  5
1151
  8
DATA
  6
CONTINUOUS
 62
     7
 10
164.0
 20
-422.0
 30
0.0
  0
VERTEX
  5
1152
  8
DATA
  6
CONTINUOUS
 62
     7
 10
164.0
 20
-421.0
 30
0.0
  0
VERTEX
  5
1153
  8
DATA
  6
CONTINUOUS
 62
     7
 10
166.5
 20
-421.0
 30
0.0
  0
SEQEND
  5
1154
  8
DATA
  6
CONTINUOUS
 62
     7
  0
CIRCLE
  5
A74
  8
DATA
  6
CONTINUOUS
 62
     7
 10
407.0
 20
-393.5
 30
0.0
 40
3.8999999999999759
  0
POLYLINE
  5
A75
  8
DATA
  6
CONTINUOUS
 62
     7
 66
     1
 10
0.0
 20
0.0
 30
0.0
  0
VERTEX
  5
1155
  8
DATA
  6
CONTINUOUS
 62
     7
 10
407.5
 20
-393.0
 30
0.0
  0
VERTEX
  5
1156
  8
DATA
  6
CONTINUOUS
 62
     7
 10
407.5
 20
-390.5
 30
0.0
  0
VERTEX
  5
1157
  8
DATA
  6
CONTINUOUS
 62
     7
 10
406.5
 20
-390.5
 30
0.0
  0
VERTEX
  5
1158
  8
DATA
  6
CONTINUOUS
 62
     7
 10
406.5
 20
-393.0
 30
0.0
  0
SEQEND
  5
1159
  8
DATA
  6
CONTINUOUS
 62
     7
  0
POLYLINE
  5
A7C
  8
DATA
  6
CONTINUOUS
 62
     7
 66
     1
 10
0.0
 20
0.0
 30
0.0
  0
VERTEX
  5
115A
  8
DATA
  6
CONTINUOUS
 62
     7
 10
407.5
 20
-394.0
 30
0.0
  0
VERTEX
  5
115B
  8
DATA
  6
CONTINUOUS
 62
     7
 10
407.5
 20
-396.5
 30
0.0
  0
VERTEX
  5
115C
  8
DATA
  6
CONTINUOUS
 62
     7
 10
406.5
 20
-396.5
 30
0.0
  0
VERTEX
  5
115D
  8
DATA
  6
CONTINUOUS
 62
     7
 10
406.5
 20
-394.0
 30
0.0
  0
SEQEND
  5
115E
  8
DATA
  6
CONTINUOUS
 62
     7
  0
POLYLINE
  5
A83
  8
DATA
  6
CONTINUOUS
 62
     7
 66
     1
 10
0.0
 20
0.0
 30
0.0
  0
VERTEX
  5
115F
  8
DATA
  6
CONTINUOUS
 62
     7
 10
407.5
 20
-394.0
 30
0.0
  0
VERTEX
  5
1160
  8
DATA
  6
CONTINUOUS
 62
     7
 10
410.0
 20
-394.0
 30
0.0
  0
VERTEX
  5
1161
  8
DATA
  6
CONTINUOUS
 62
     7
 10
410.0
 20
-393.0
 30
0.0
  0
VERTEX
  5
1162
  8
DATA
  6
CONTINUOUS
 62
     7
 10
407.5
 20
-393.0
 30
0.0
  0
SEQEND
  5
1163
  8
DATA
  6
CONTINUOUS
 62
     7
  0
POLYLINE
  5
A8A
  8
DATA
  6
CONTINUOUS
 62
     7
 66
     1
 10
0.0
 20
0.0
 30
0.0
  0
VERTEX
  5
1164
  8
DATA
  6
CONTINUOUS
 62
     7
 10
406.5
 20
-394.0
 30
0.0
  0
VERTEX
  5
1165
  8
DATA
  6
CONTINUOUS
 62
     7
 10
404.0
 20
-394.0
 30
0.0
  0
VERTEX
  5
1166
  8
DATA
  6
CONTINUOUS
 62
     7
 10
404.0
 20
-393.0
 30
0.0
  0
VERTEX
  5
1167
  8
DATA
  6
CONTINUOUS
 62
     7
 10
406.5
 20
-393.0
 30
0.0
  0
SEQEND
  5
1168
  8
DATA
  6
CONTINUOUS
 62
     7
  0
CIRCLE
  5
A91
  8
DATA
  6
CONTINUOUS
 62
     7
 10
407.0
 20
-421.49999999999989
 30
0.0
 40
3.8999999999999759
  0
POLYLINE
  5
A92
  8
DATA
  6
CONTINUOUS
 62
     7
 66
     1
 10
0.0
 20
0.0
 30
0.0
  0
VERTEX
  5
1169
  8
DATA
  6
CONTINUOUS
 62
     7
 10
407.5
 20
-421.0
 30
0.0
  0
VERTEX
  5
116A
  8
DATA
  6
CONTINUOUS
 62
     7
 10
407.5
 20
-418.5
 30
0.0
  0
VERTEX
  5
116B
  8
DATA
  6
CONTINUOUS
 62
     7
 10
406.5
 20
-418.5
 30
0.0
  0
VERTEX
  5
116C
  8
DATA
  6
CONTINUOUS
 62
     7
 10
406.5
 20
-421.0
 30
0.0
  0
SEQEND
  5
116D
  8
DATA
  6
CONTINUOUS
 62
     7
  0
POLYLINE
  5
A99
  8
DATA
  6
CONTINUOUS
 62
     7
 66
     1
 10
0.0
 20
0.0
 30
0.0
  0
VERTEX
  5
116E
  8
DATA
  6
CONTINUOUS
 62
     7
 10
407.5
 20
-422.0
 30
0.0
  0
VERTEX
  5
116F
  8
DATA
  6
CONTINUOUS
 62
     7
 10
407.5
 20
-424.5
 30
0.0
  0
VERTEX
  5
1170
  8
DATA
  6
CONTINUOUS
 62
     7
 10
406.5
 20
-424.5
 30
0.0
  0
VERTEX
  5
1171
  8
DATA
  6
CONTINUOUS
 62
     7
 10
406.5
 20
-422.0
 30
0.0
  0
SEQEND
  5
1172
  8
DATA
  6
CONTINUOUS
 62
     7
  0
POLYLINE
  5
AA0
  8
DATA
  6
CONTINUOUS
 62
     7
 66
     1
 10
0.0
 20
0.0
 30
0.0
  0
VERTEX
  5
1173
  8
DATA
  6
CONTINUOUS
 62
     7
 10
407.5
 20
-422.0
 30
0.0
  0
VERTEX
  5
1174
  8
DATA
  6
CONTINUOUS
 62
     7
 10
410.0
 20
-422.0
 30
0.0
  0
VERTEX
  5
1175
  8
DATA
  6
CONTINUOUS
 62
     7
 10
410.0
 20
-421.0
 30
0.0
  0
VERTEX
  5
1176
  8
DATA
  6
CONTINUOUS
 62
     7
 10
407.5
 20
-421.0
 30
0.0
  0
SEQEND
  5
1177
  8
DATA
  6
CONTINUOUS
 62
     7
  0
POLYLINE
  5
AA7
  8
DATA
  6
CONTINUOUS
 62
     7
 66
     1
 10
0.0
 20
0.0
 30
0.0
  0
VERTEX
  5
1178
  8
DATA
  6
CONTINUOUS
 62
     7
 10
406.5
 20
-422.0
 30
0.0
  0
VERTEX
  5
1179
  8
DATA
  6
CONTINUOUS
 62
     7
 10
404.0
 20
-422.0
 30
0.0
  0
VERTEX
  5
117A
  8
DATA
  6
CONTINUOUS
 62
     7
 10
404.0
 20
-421.0
 30
0.0
  0
VERTEX
  5
117B
  8
DATA
  6
CONTINUOUS
 62
     7
 10
406.5
 20
-421.0
 30
0.0
  0
SEQEND
  5
117C
  8
DATA
  6
CONTINUOUS
 62
     7
  0
ARC
  5
AAE
  8
DATA
  6
CONTINUOUS
 62
     7
 10
292.00882168453097
 20
-412.53246415933648
 30
0.0
 40
1.0
 50
90.0
 51
270.0
  0
ARC
  5
AAF
  8
DATA
  6
CONTINUOUS
 62
     7
 10
315.50882168453097
 20
-412.53246415933648
 30
0.0
 40
1.0
 50
270.0
 51
90.0
  0
LINE
  5
AB0
  8
DATA
  6
CONTINUOUS
 62
     7
 10
315.50882168453097
 20
-411.53246415933648
 30
0.0
 11
291.99882168453092
 21
-411.53246415933648
 31
0.0
  0
LINE
  5
AB1
  8
DATA
  6
CONTINUOUS
 62
     7
 10
292.00882168453097
 20
-413.53246415933643
 30
0.0
 11
315.538821684531
 21
-413.53246415933643
 31
0.0
  0
ARC
  5
AB2
  8
DATA
  6
CONTINUOUS
 62
     7
 10
292.00882168453097
 20
-402.53246415933643
 30
0.0
 40
1.0
 50
90.0
 51
270.0
  0
ARC
  5
AB3
  8
DATA
  6
CONTINUOUS
 62
     7
 10
315.50882168453097
 20
-402.53246415933643
 30
0.0
 40
1.0
 50
270.0
 51
90.0
  0
LINE
  5
AB4
  8
DATA
  6
CONTINUOUS
 62
     7
 10
315.50882168453097
 20
-401.53246415933643
 30
0.0
 11
291.99882168453092
 21
-401.53246415933643
 31
0.0
  0
LINE
  5
AB5
  8
DATA
  6
CONTINUOUS
 62
     7
 10
292.00882168453097
 20
-403.53246415933648
 30
0.0
 11
315.538821684531
 21
-403.53246415933648
 31
0.0
  0
ARC
  5
AB6
  8
DATA
  6
CONTINUOUS
 62
     7
 10
330.00882168453097
 20
-407.53246415933648
 30
0.0
 40
1.0
 50
90.0
 51
270.0
  0
ARC
  5
AB7
  8
DATA
  6
CONTINUOUS
 62
     7
 10
353.50882168453097
 20
-407.53246415933648
 30
0.0
 40
1.0
 50
270.0
 51
90.0
  0
LINE
  5
AB8
  8
DATA
  6
CONTINUOUS
 62
     7
 10
353.50882168453097
 20
-406.53246415933643
 30
0.0
 11
329.99882168453092
 21
-406.53246415933643
 31
0.0
  0
LINE
  5
AB9
  8
DATA
  6
CONTINUOUS
 62
     7
 10
330.00882168453097
 20
-408.53246415933648
 30
0.0
 11
353.53882168453089
 21
-408.53246415933648
 31
0.0
  0
ARC
  5
ABA
  8
DATA
  6
CONTINUOUS
 62
     7
 10
330.00882168453097
 20
-412.53246415933648
 30
0.0
 40
1.0
 50
90.0
 51
270.0
  0
ARC
  5
ABB
  8
DATA
  6
CONTINUOUS
 62
     7
 10
353.50882168453097
 20
-412.53246415933648
 30
0.0
 40
1.0
 50
270.0
 51
90.0
  0
LINE
  5
ABC
  8
DATA
  6
CONTINUOUS
 62
     7
 10
353.50882168453097
 20
-411.53246415933648
 30
0.0
 11
329.99882168453092
 21
-411.53246415933648
 31
0.0
  0
LINE
  5
ABD
  8
DATA
  6
CONTINUOUS
 62
     7
 10
330.00882168453097
 20
-413.53246415933643
 30
0.0
 11
353.53882168453089
 21
-413.53246415933643
 31
0.0
  0
ARC
  5
ABE
  8
DATA
  6
CONTINUOUS
 62
     7
 10
330.00882168453097
 20
-402.53246415933643
 30
0.0
 40
1.0
 50
90.0
 51
270.0
  0
ARC
  5
ABF
  8
DATA
  6
CONTINUOUS
 62
     7
 10
353.50882168453097
 20
-402.53246415933643
 30
0.0
 40
1.0
 50
270.0
 51
90.0
  0
LINE
  5
AC0
  8
DATA
  6
CONTINUOUS
 62
     7
 10
353.50882168453097
 20
-401.53246415933643
 30
0.0
 11
329.99882168453092
 21
-401.53246415933643
 31
0.0
  0
LINE
  5
AC1
  8
DATA
  6
CONTINUOUS
 62
     7
 10
330.00882168453097
 20
-403.53246415933648
 30
0.0
 11
353.53882168453089
 21
-403.53246415933648
 31
0.0
  0
ARC
  5
AC2
  8
DATA
  6
CONTINUOUS
 62
     7
 10
368.00882168453097
 20
-407.53246415933648
 30
0.0
 40
1.0
 50
90.0
 51
270.0
  0
ARC
  5
AC3
  8
DATA
  6
CONTINUOUS
 62
     7
 10
391.50882168453097
 20
-407.53246415933648
 30
0.0
 40
1.0
 50
270.0
 51
90.0
  0
LINE
  5
AC4
  8
DATA
  6
CONTINUOUS
 62
     7
 10
391.50882168453097
 20
-406.53246415933643
 30
0.0
 11
367.99882168453092
 21
-406.53246415933643
 31
0.0
  0
LINE
  5
AC5
  8
DATA
  6
CONTINUOUS
 62
     7
 10
368.00882168453097
 20
-408.53246415933648
 30
0.0
 11
391.53882168453089
 21
-408.53246415933648
 31
0.0
  0
ARC
  5
AC6
  8
DATA
  6
CONTINUOUS
 62
     7
 10
368.00882168453097
 20
-412.53246415933648
 30
0.0
 40
1.0
 50
90.0
 51
270.0
  0
ARC
  5
AC7
  8
DATA
  6
CONTINUOUS
 62
     7
 10
391.50882168453097
 20
-412.53246415933648
 30
0.0
 40
1.0
 50
270.0
 51
90.0
  0
LINE
  5
AC8
  8
DATA
  6
CONTINUOUS
 62
     7
 10
391.50882168453097
 20
-411.53246415933648
 30
0.0
 11
367.99882168453092
 21
-411.53246415933648
 31
0.0
  0
LINE
  5
AC9
  8
DATA
  6
CONTINUOUS
 62
     7
 10
368.00882168453097
 20
-413.53246415933643
 30
0.0
 11
391.53882168453089
 21
-413.53246415933643
 31
0.0
  0
ARC
  5
ACA
  8
DATA
  6
CONTINUOUS
 62
     7
 10
368.00882168453097
 20
-402.53246415933643
 30
0.0
 40
1.0
 50
90.0
 51
270.0
  0
ARC
  5
ACB
  8
DATA
  6
CONTINUOUS
 62
     7
 10
391.50882168453097
 20
-402.53246415933643
 30
0.0
 40
1.0
 50
270.0
 51
90.0
  0
LINE
  5
ACC
  8
DATA
  6
CONTINUOUS
 62
     7
 10
391.50882168453097
 20
-401.53246415933643
 30
0.0
 11
367.99882168453092
 21
-401.53246415933643
 31
0.0
  0
LINE
  5
ACD
  8
DATA
  6
CONTINUOUS
 62
     7
 10
368.00882168453097
 20
-403.53246415933648
 30
0.0
 11
391.53882168453089
 21
-403.53246415933648
 31
0.0
  0
CIRCLE
  5
ACE
  8
DATA
  6
CONTINUOUS
 62
     7
 10
322.0
 20
-407.5
 30
0.0
 40
3.8000000000000109
  0
POLYLINE
  5
ACF
  8
DATA
  6
CONTINUOUS
 62
     7
 66
     1
 10
0.0
 20
0.0
 30
0.0
  0
VERTEX
  5
117D
  8
DATA
  6
CONTINUOUS
 62
     7
 10
322.5
 20
-407.0
 30
0.0
  0
VERTEX
  5
117E
  8
DATA
  6
CONTINUOUS
 62
     7
 10
322.5
 20
-404.49999999999989
 30
0.0
  0
VERTEX
  5
117F
  8
DATA
  6
CONTINUOUS
 62
     7
 10
321.5
 20
-404.49999999999989
 30
0.0
  0
VERTEX
  5
1180
  8
DATA
  6
CONTINUOUS
 62
     7
 10
321.5
 20
-407.0
 30
0.0
  0
SEQEND
  5
1181
  8
DATA
  6
CONTINUOUS
 62
     7
  0
POLYLINE
  5
AD6
  8
DATA
  6
CONTINUOUS
 62
     7
 66
     1
 10
0.0
 20
0.0
 30
0.0
  0
VERTEX
  5
1182
  8
DATA
  6
CONTINUOUS
 62
     7
 10
322.5
 20
-408.0
 30
0.0
  0
VERTEX
  5
1183
  8
DATA
  6
CONTINUOUS
 62
     7
 10
322.5
 20
-410.5
 30
0.0
  0
VERTEX
  5
1184
  8
DATA
  6
CONTINUOUS
 62
     7
 10
321.5
 20
-410.5
 30
0.0
  0
VERTEX
  5
1185
  8
DATA
  6
CONTINUOUS
 62
     7
 10
321.5
 20
-408.0
 30
0.0
  0
SEQEND
  5
1186
  8
DATA
  6
CONTINUOUS
 62
     7
  0
POLYLINE
  5
ADD
  8
DATA
  6
CONTINUOUS
 62
     7
 66
     1
 10
0.0
 20
0.0
 30
0.0
  0
VERTEX
  5
1187
  8
DATA
  6
CONTINUOUS
 62
     7
 10
322.5
 20
-408.0
 30
0.0
  0
VERTEX
  5
1188
  8
DATA
  6
CONTINUOUS
 62
     7
 10
325.0
 20
-408.0
 30
0.0
  0
VERTEX
  5
1189
  8
DATA
  6
CONTINUOUS
 62
     7
 10
325.0
 20
-407.0
 30
0.0
  0
VERTEX
  5
118A
  8
DATA
  6
CONTINUOUS
 62
     7
 10
322.5
 20
-407.0
 30
0.0
  0
SEQEND
  5
118B
  8
DATA
  6
CONTINUOUS
 62
     7
  0
POLYLINE
  5
AE4
  8
DATA
  6
CONTINUOUS
 62
     7
 66
     1
 10
0.0
 20
0.0
 30
0.0
  0
VERTEX
  5
118C
  8
DATA
  6
CONTINUOUS
 62
     7
 10
321.5
 20
-408.0
 30
0.0
  0
VERTEX
  5
118D
  8
DATA
  6
CONTINUOUS
 62
     7
 10
319.0
 20
-408.0
 30
0.0
  0
VERTEX
  5
118E
  8
DATA
  6
CONTINUOUS
 62
     7
 10
319.0
 20
-407.0
 30
0.0
  0
VERTEX
  5
118F
  8
DATA
  6
CONTINUOUS
 62
     7
 10
321.5
 20
-407.0
 30
0.0
  0
SEQEND
  5
1190
  8
DATA
  6
CONTINUOUS
 62
     7
  0
CIRCLE
  5
AEB
  8
DATA
  6
CONTINUOUS
 62
     7
 10
262.0
 20
-407.5
 30
0.0
 40
3.8500000000000232
  0
CIRCLE
  5
AEC
  8
DATA
  6
CONTINUOUS
 62
     7
 10
262.0
 20
-407.5
 30
0.0
 40
1.149999999999977
  0
LINE
  5
AED
  8
DATA
  6
CONTINUOUS
 62
     7
 10
433.49999999999989
 20
-417.2000000000001
 30
0.0
 11
433.49999999999989
 21
-397.5
 31
0.0
  0
LINE
  5
AEE
  8
DATA
  6
CONTINUOUS
 62
     7
 10
433.49999999999989
 20
-389.49999999999989
 30
0.0
 11
433.49999999999989
 21
-385.0
 31
0.0
  0
LINE
  5
AEF
  8
DATA
  6
CONTINUOUS
 62
     7
 10
433.49999999999989
 20
-425.19999999999999
 30
0.0
 11
433.49999999999989
 21
-430.0
 31
0.0
  0
ARC
  5
AF0
  8
DATA
  6
CONTINUOUS
 62
     7
 10
425.49999999999989
 20
-389.49999999999989
 30
0.0
 40
8.0
 50
270.0
 51
0.0
  0
ARC
  5
AF1
  8
DATA
  6
CONTINUOUS
 62
     7
 10
425.49999999999989
 20
-425.19999999999999
 30
0.0
 40
8.0
 50
0.0
 51
90.0
  0
LINE
  5
AF2
  8
DATA
  6
CONTINUOUS
 62
     7
 10
433.49999999999989
 20
-417.2000000000001
 30
0.0
 11
433.49999999999989
 21
-425.19999999999999
 31
0.0
  0
LINE
  5
AF3
  8
DATA
  6
CONTINUOUS
 62
     7
 10
433.49999999999989
 20
-397.5
 30
0.0
 11
433.49999999999989
 21
-390.10000000000002
 31
0.0
  0
LINE
  5
AF4
  8
DATA
  6
CONTINUOUS
 62
     7
 10
435.0
 20
-391.29999999999978
 30
0.0
 11
433.49999999999989
 21
-391.29999999999978
 31
0.0
  0
LINE
  5
AF5
  8
DATA
  6
CONTINUOUS
 62
     7
 10
435.0
 20
-423.69999999999987
 30
0.0
 11
433.49999999999989
 21
-423.69999999999987
 31
0.0
  0
LINE
  5
AF6
  8
DATA
  6
CONTINUOUS
 62
     7
 10
435.5
 20
-409.84999999999991
 30
0.0
 11
435.5
 21
-404.8499999999998
 31
0.0
  0
LINE
  5
AF7
  8
DATA
  6
CONTINUOUS
 62
     7
 10
435.5
 20
-404.8499999999998
 30
0.0
 11
433.49999999999989
 21
-404.8499999999998
 31
0.0
  0
LINE
  5
AF8
  8
DATA
  6
CONTINUOUS
 62
     7
 10
435.5
 20
-409.84999999999991
 30
0.0
 11
433.49999999999989
 21
-409.84999999999991
 31
0.0
  0
LINE
  5
AF9
  8
DATA
  6
CONTINUOUS
 62
     7
 10
-349.5
 20
178.69999999999999
 30
0.0
 11
-349.5
 21
146.2999999999999
 31
0.0
  0
LINE
  5
AFA
  8
DATA
  6
CONTINUOUS
 62
     7
 10
-105.6451784161621
 20
18.0
 30
0.0
 11
-97.345178416162085
 21
18.0
 31
0.0
  0
LINE
  5
AFB
  8
DATA
  6
CONTINUOUS
 62
     7
 10
-105.6451784161621
 20
18.0
 30
0.0
 11
-105.6451784161621
 21
15.0
 31
0.0
  0
LINE
  5
AFC
  8
DATA
  6
CONTINUOUS
 62
     7
 10
-97.345178416162085
 20
18.0
 30
0.0
 11
-97.345178416162085
 21
15.0
 31
0.0
  0
LINE
  5
AFD
  8
DATA
  6
CONTINUOUS
 62
     7
 10
-146.40000000000001
 20
17.0
 30
0.0
 11
-133.01010258189461
 21
17.0
 31
0.0
  0
LINE
  5
AFE
  8
DATA
  6
CONTINUOUS
 62
     7
 10
-133.01010258189461
 20
17.0
 30
0.0
 11
-133.01010258189461
 21
15.0
 31
0.0
  0
LINE
  5
AFF
  8
DATA
  6
CONTINUOUS
 62
     7
 10
-146.40000000000001
 20
17.0
 30
0.0
 11
-146.40000000000001
 21
15.0
 31
0.0
  0
LINE
  5
B00
  8
DATA
  6
CONTINUOUS
 62
     7
 10
-140.8101025818946
 20
15.0
 30
0.0
 11
-140.8101025818946
 21
17.0
 31
0.0
  0
LINE
  5
B01
  8
DATA
  6
CONTINUOUS
 62
     7
 10
-254.78999999999999
 20
20.0
 30
0.0
 11
-244.21000000000001
 21
20.0
 31
0.0
  0
LINE
  5
B02
  8
DATA
  6
CONTINUOUS
 62
     7
 10
-254.78999999999999
 20
20.0
 30
0.0
 11
-254.78999999999999
 21
17.0
 31
0.0
  0
LINE
  5
B03
  8
DATA
  6
CONTINUOUS
 62
     7
 10
-244.21000000000001
 20
20.0
 30
0.0
 11
-244.21000000000001
 21
17.0
 31
0.0
  0
LINE
  5
B04
  8
DATA
  6
CONTINUOUS
 62
     7
 10
-254.78999999999999
 20
17.0
 30
0.0
 11
-256.75
 21
17.0
 31
0.0
  0
LINE
  5
B05
  8
DATA
  6
CONTINUOUS
 62
     7
 10
-244.21000000000001
 20
17.0
 30
0.0
 11
-242.25
 21
17.0
 31
0.0
  0
LINE
  5
B06
  8
DATA
  6
CONTINUOUS
 62
     7
 10
-256.75
 20
17.0
 30
0.0
 11
-256.75
 21
15.0
 31
0.0
  0
LINE
  5
B07
  8
DATA
  6
CONTINUOUS
 62
     7
 10
-242.25
 20
17.0
 30
0.0
 11
-242.25
 21
15.0
 31
0.0
  0
LINE
  5
B08
  8
DATA
  6
CONTINUOUS
 62
     7
 10
-254.78999999999999
 20
17.0
 30
0.0
 11
-244.21000000000001
 21
17.0
 31
0.0
  0
LINE
  5
B09
  8
DATA
  6
CONTINUOUS
 62
     7
 10
-238.28999999999999
 20
20.0
 30
0.0
 11
-227.71000000000001
 21
20.0
 31
0.0
  0
LINE
  5
B0A
  8
DATA
  6
CONTINUOUS
 62
     7
 10
-238.28999999999999
 20
20.0
 30
0.0
 11
-238.28999999999999
 21
17.0
 31
0.0
  0
LINE
  5
B0B
  8
DATA
  6
CONTINUOUS
 62
     7
 10
-227.71000000000001
 20
20.0
 30
0.0
 11
-227.71000000000001
 21
17.0
 31
0.0
  0
LINE
  5
B0C
  8
DATA
  6
CONTINUOUS
 62
     7
 10
-238.28999999999999
 20
17.0
 30
0.0
 11
-240.25
 21
17.0
 31
0.0
  0
LINE
  5
B0D
  8
DATA
  6
CONTINUOUS
 62
     7
 10
-227.71000000000001
 20
17.0
 30
0.0
 11
-225.75
 21
17.0
 31
0.0
  0
LINE
  5
B0E
  8
DATA
  6
CONTINUOUS
 62
     7
 10
-240.25
 20
17.0
 30
0.0
 11
-240.25
 21
15.0
 31
0.0
  0
LINE
  5
B0F
  8
DATA
  6
CONTINUOUS
 62
     7
 10
-225.75
 20
17.0
 30
0.0
 11
-225.75
 21
15.0
 31
0.0
  0
LINE
  5
B10
  8
DATA
  6
CONTINUOUS
 62
     7
 10
-238.28999999999999
 20
17.0
 30
0.0
 11
-227.71000000000001
 21
17.0
 31
0.0
  0
LINE
  5
B11
  8
DATA
  6
CONTINUOUS
 62
     7
 10
-196.28999999999999
 20
20.0
 30
0.0
 11
-185.71000000000001
 21
20.0
 31
0.0
  0
LINE
  5
B12
  8
DATA
  6
CONTINUOUS
 62
     7
 10
-196.28999999999999
 20
20.0
 30
0.0
 11
-196.28999999999999
 21
17.0
 31
0.0
  0
LINE
  5
B13
  8
DATA
  6
CONTINUOUS
 62
     7
 10
-185.71000000000001
 20
20.0
 30
0.0
 11
-185.71000000000001
 21
17.0
 31
0.0
  0
LINE
  5
B14
  8
DATA
  6
CONTINUOUS
 62
     7
 10
-196.28999999999999
 20
17.0
 30
0.0
 11
-198.25
 21
17.0
 31
0.0
  0
LINE
  5
B15
  8
DATA
  6
CONTINUOUS
 62
     7
 10
-185.71000000000001
 20
17.0
 30
0.0
 11
-183.75
 21
17.0
 31
0.0
  0
LINE
  5
B16
  8
DATA
  6
CONTINUOUS
 62
     7
 10
-198.25
 20
17.0
 30
0.0
 11
-198.25
 21
15.0
 31
0.0
  0
LINE
  5
B17
  8
DATA
  6
CONTINUOUS
 62
     7
 10
-183.75
 20
17.0
 30
0.0
 11
-183.75
 21
15.0
 31
0.0
  0
LINE
  5
B18
  8
DATA
  6
CONTINUOUS
 62
     7
 10
-196.28999999999999
 20
17.0
 30
0.0
 11
-185.71000000000001
 21
17.0
 31
0.0
  0
LINE
  5
B19
  8
DATA
  6
CONTINUOUS
 62
     7
 10
-179.87
 20
20.0
 30
0.0
 11
-169.28999999999999
 21
20.0
 31
0.0
  0
LINE
  5
B1A
  8
DATA
  6
CONTINUOUS
 62
     7
 10
-179.87
 20
20.0
 30
0.0
 11
-179.87
 21
17.0
 31
0.0
  0
LINE
  5
B1B
  8
DATA
  6
CONTINUOUS
 62
     7
 10
-169.28999999999999
 20
20.0
 30
0.0
 11
-169.28999999999999
 21
17.0
 31
0.0
  0
LINE
  5
B1C
  8
DATA
  6
CONTINUOUS
 62
     7
 10
-179.87
 20
17.0
 30
0.0
 11
-181.83000000000001
 21
17.0
 31
0.0
  0
LINE
  5
B1D
  8
DATA
  6
CONTINUOUS
 62
     7
 10
-169.28999999999999
 20
17.0
 30
0.0
 11
-167.3299999999999
 21
17.0
 31
0.0
  0
LINE
  5
B1E
  8
DATA
  6
CONTINUOUS
 62
     7
 10
-181.83000000000001
 20
17.0
 30
0.0
 11
-181.83000000000001
 21
15.0
 31
0.0
  0
LINE
  5
B1F
  8
DATA
  6
CONTINUOUS
 62
     7
 10
-167.3299999999999
 20
17.0
 30
0.0
 11
-167.3299999999999
 21
15.0
 31
0.0
  0
LINE
  5
B20
  8
DATA
  6
CONTINUOUS
 62
     7
 10
-179.87
 20
17.0
 30
0.0
 11
-169.28999999999999
 21
17.0
 31
0.0
  0
LINE
  5
B21
  8
DATA
  6
CONTINUOUS
 62
     7
 10
-345.37010857804307
 20
18.5
 30
0.0
 11
-321.37010857804307
 21
18.5
 31
0.0
  0
LINE
  5
B22
  8
DATA
  6
CONTINUOUS
 62
     7
 10
-307.87010857804307
 20
18.5
 30
0.0
 11
-283.87010857804307
 21
18.5
 31
0.0
  0
LINE
  5
B23
  8
DATA
  6
CONTINUOUS
 62
     7
 10
-345.37010857804307
 20
18.5
 30
0.0
 11
-345.37010857804307
 21
15.0
 31
0.0
  0
LINE
  5
B24
  8
DATA
  6
CONTINUOUS
 62
     7
 10
-321.37010857804307
 20
18.5
 30
0.0
 11
-321.37010857804307
 21
15.0
 31
0.0
  0
LINE
  5
B25
  8
DATA
  6
CONTINUOUS
 62
     7
 10
-307.87010857804307
 20
18.5
 30
0.0
 11
-307.87010857804307
 21
15.0
 31
0.0
  0
LINE
  5
B26
  8
DATA
  6
CONTINUOUS
 62
     7
 10
-283.87010857804307
 20
18.5
 30
0.0
 11
-283.87010857804307
 21
15.0
 31
0.0
  0
LINE
  5
B27
  8
DATA
  6
CONTINUOUS
 62
     7
 10
-338.3678576589316
 20
21.5
 30
0.0
 11
-328.41293344519789
 21
21.5
 31
0.0
  0
LINE
  5
B28
  8
DATA
  6
CONTINUOUS
 62
     7
 10
-300.85397950350688
 20
21.5
 30
0.0
 11
-290.87235949714869
 21
21.5
 31
0.0
  0
LINE
  5
B29
  8
DATA
  6
CONTINUOUS
 62
     7
 10
-338.3678576589316
 20
20.70000000000001
 30
0.0
 11
-328.41293344519789
 21
20.70000000000001
 31
0.0
  0
LINE
  5
B2A
  8
DATA
  6
CONTINUOUS
 62
     7
 10
-300.85397950350688
 20
20.70000000000001
 30
0.0
 11
-290.87235949714869
 21
20.70000000000001
 31
0.0
  0
LINE
  5
B2B
  8
DATA
  6
CONTINUOUS
 62
     7
 10
-300.85397950350688
 20
20.70000000000001
 30
0.0
 11
-300.85397950350688
 21
21.5
 31
0.0
  0
LINE
  5
B2C
  8
DATA
  6
CONTINUOUS
 62
     7
 10
-290.87235949714869
 20
20.70000000000001
 30
0.0
 11
-290.87235949714869
 21
21.5
 31
0.0
  0
LINE
  5
B2D
  8
DATA
  6
CONTINUOUS
 62
     7
 10
-338.3678576589316
 20
20.70000000000001
 30
0.0
 11
-338.3678576589316
 21
21.52000000000001
 31
0.0
  0
LINE
  5
B2E
  8
DATA
  6
CONTINUOUS
 62
     7
 10
-328.41293344519789
 20
20.70000000000001
 30
0.0
 11
-328.41293344519789
 21
21.5
 31
0.0
  0
LINE
  5
B2F
  8
DATA
  6
CONTINUOUS
 62
     7
 10
-335.79039555206481
 20
18.5
 30
0.0
 11
-335.79039555206481
 21
20.70000000000001
 31
0.0
  0
LINE
  5
B30
  8
DATA
  6
CONTINUOUS
 62
     7
 10
-330.99039555206468
 20
18.5
 30
0.0
 11
-330.99039555206468
 21
20.70000000000001
 31
0.0
  0
LINE
  5
B31
  8
DATA
  6
CONTINUOUS
 62
     7
 10
-298.26316950032771
 20
18.5
 30
0.0
 11
-298.26316950032771
 21
20.70000000000001
 31
0.0
  0
LINE
  5
B32
  8
DATA
  6
CONTINUOUS
 62
     7
 10
-293.46316950032769
 20
18.5
 30
0.0
 11
-293.46316950032769
 21
20.70000000000001
 31
0.0
  0
LINE
  5
B33
  8
DATA
  6
CONTINUOUS
 62
     7
 10
-158.58397950350681
 20
17.462070185356911
 30
0.0
 11
-148.60235949714871
 21
17.462070185356911
 31
0.0
  0
LINE
  5
B34
  8
DATA
  6
CONTINUOUS
 62
     7
 10
-158.58397950350681
 20
16.66207018535691
 30
0.0
 11
-148.60235949714871
 21
16.66207018535691
 31
0.0
  0
LINE
  5
B35
  8
DATA
  6
CONTINUOUS
 62
     7
 10
-158.58397950350681
 20
16.66207018535691
 30
0.0
 11
-158.58397950350681
 21
17.462070185356911
 31
0.0
  0
LINE
  5
B36
  8
DATA
  6
CONTINUOUS
 62
     7
 10
-148.60235949714871
 20
16.66207018535691
 30
0.0
 11
-148.60235949714871
 21
17.462070185356911
 31
0.0
  0
LINE
  5
B37
  8
DATA
  6
CONTINUOUS
 62
     7
 10
-155.9931695003277
 20
15.0
 30
0.0
 11
-155.9931695003277
 21
16.66207018535691
 31
0.0
  0
LINE
  5
B38
  8
DATA
  6
CONTINUOUS
 62
     7
 10
-151.19316950032771
 20
15.0
 30
0.0
 11
-151.19316950032771
 21
16.66207018535691
 31
0.0
  0
LINE
  5
B39
  8
DATA
  6
CONTINUOUS
 62
     7
 10
438.0
 20
-393.84999999999991
 30
0.0
 11
433.49999999999989
 21
-393.84999999999991
 31
0.0
  0
LINE
  5
B3A
  8
DATA
  6
CONTINUOUS
 62
     7
 10
438.0
 20
-402.14999999999992
 30
0.0
 11
433.49999999999989
 21
-402.14999999999992
 31
0.0
  0
LINE
  5
B3B
  8
DATA
  6
CONTINUOUS
 62
     7
 10
438.0
 20
-407.84999999999991
 30
0.0
 11
435.5
 21
-407.84999999999991
 31
0.0
  0
LINE
  5
B3C
  8
DATA
  6
CONTINUOUS
 62
     7
 10
438.0
 20
-416.14999999999992
 30
0.0
 11
433.49999999999989
 21
-416.14999999999992
 31
0.0
  0
LINE
  5
B3D
  8
DATA
  6
CONTINUOUS
 62
     7
 10
438.0
 20
-402.14999999999992
 30
0.0
 11
438.0
 21
-393.84999999999991
 31
0.0
  0
LINE
  5
B3E
  8
DATA
  6
CONTINUOUS
 62
     7
 10
438.0
 20
-416.14999999999992
 30
0.0
 11
438.0
 21
-407.84999999999991
 31
0.0
  0
LINE
  5
B3F
  8
DATA
  6
CONTINUOUS
 62
     7
 10
433.49999999999989
 20
-392.4989468328871
 30
0.0
 11
438.50324626480767
 21
-392.4989468328871
 31
0.0
  0
LINE
  5
B40
  8
DATA
  6
CONTINUOUS
 62
     7
 10
433.49999999999989
 20
-416.4989468328871
 30
0.0
 11
438.50324626480767
 21
-416.4989468328871
 31
0.0
  0
LINE
  5
B41
  8
DATA
  6
CONTINUOUS
 62
     7
 10
438.50324626480767
 20
-416.4989468328871
 30
0.0
 11
438.50324626480767
 21
-392.5
 31
0.0
  0
LINE
  5
B42
  8
DATA
  6
CONTINUOUS
 62
     7
 10
440.7032462648076
 20
-388.0
 30
0.0
 11
441.50324626480767
 21
-388.0
 31
0.0
  0
LINE
  5
B43
  8
DATA
  6
CONTINUOUS
 62
     7
 10
441.50324626480767
 20
-388.0
 30
0.0
 11
441.50324626480767
 21
-393.19999999999999
 31
0.0
  0
LINE
  5
B44
  8
DATA
  6
CONTINUOUS
 62
     7
 10
440.00324626480761
 20
-394.69999999999999
 30
0.0
 11
438.50324626480767
 21
-394.69999999999999
 31
0.0
  0
LINE
  5
B45
  8
DATA
  6
CONTINUOUS
 62
     7
 10
440.7032462648076
 20
-388.0
 30
0.0
 11
440.7032462648076
 21
-392.40000000000009
 31
0.0
  0
LINE
  5
B46
  8
DATA
  6
CONTINUOUS
 62
     7
 10
439.2032462648076
 20
-393.90000000000009
 30
0.0
 11
438.50324626480767
 21
-393.90000000000009
 31
0.0
  0
ARC
  5
B47
  8
DATA
  6
CONTINUOUS
 62
     7
 10
439.2032462648076
 20
-392.40000000000009
 30
0.0
 40
1.5
 50
270.0
 51
0.0
  0
ARC
  5
B48
  8
DATA
  6
CONTINUOUS
 62
     7
 10
440.00324626480761
 20
-393.19999999999999
 30
0.0
 40
1.5
 50
270.0
 51
0.0
  0
ARC
  5
B49
  8
DATA
  6
CONTINUOUS
 62
     7
 10
-352.6294999999929
 20
-252.99999999999989
 30
0.0
 40
4.3705000000030267
 50
115.3396285299834
 51
152.32503041977429
  0
ARC
  5
B4A
  8
DATA
  6
CONTINUOUS
 62
     7
 10
-352.6294999999929
 20
-252.99999999999989
 30
0.0
 40
4.3705000000029797
 50
207.6749695802261
 51
244.6603714700162
  0
LINE
  5
B4B
  8
DATA
  6
CONTINUOUS
 62
     7
 10
-356.50000000000023
 20
-255.0299014754338
 30
0.0
 11
-356.50000000000023
 21
-250.97009852456611
 31
0.0
  0
ARC
  5
B4C
  8
DATA
  6
CONTINUOUS
 62
     7
 10
75.629499999992902
 20
-252.99999999999989
 30
0.0
 40
4.3705000000030312
 50
27.674969580225731
 51
64.660371470016571
  0
ARC
  5
B4D
  8
DATA
  6
CONTINUOUS
 62
     7
 10
75.629499999992902
 20
-252.99999999999989
 30
0.0
 40
4.3705000000029761
 50
295.33962852998383
 51
332.32503041977401
  0
LINE
  5
B4E
  8
DATA
  6
CONTINUOUS
 62
     7
 10
79.500000000000298
 20
-255.0299014754338
 30
0.0
 11
79.500000000000298
 21
-250.97009852456611
 31
0.0
  0
LINE
  5
B4F
  8
DATA
  6
CONTINUOUS
 62
     7
 10
-327.5
 20
-418.63703428038571
 30
0.0
 11
-327.5
 21
-416.13703428038571
 31
0.0
  0
LINE
  5
B50
  8
DATA
  6
CONTINUOUS
 62
     7
 10
-327.5
 20
-413.63703428038571
 30
0.0
 11
-327.5
 21
-411.13703428038571
 31
0.0
  0
LINE
  5
B51
  8
DATA
  6
CONTINUOUS
 62
     7
 10
-327.5
 20
-408.63703428038571
 30
0.0
 11
-327.5
 21
-406.13703428038571
 31
0.0
  0
LINE
  5
B52
  8
DATA
  6
CONTINUOUS
 62
     7
 10
-327.5
 20
-403.63703428038571
 30
0.0
 11
-327.5
 21
-401.13703428038571
 31
0.0
  0
LINE
  5
B53
  8
DATA
  6
CONTINUOUS
 62
     7
 10
-327.5
 20
-398.63703428038582
 30
0.0
 11
-327.5
 21
-396.13703428038582
 31
0.0
  0
ARC
  5
B54
  8
DATA
  6
CONTINUOUS
 62
     7
 10
-352.6294999999929
 20
-9.4999999999998863
 30
0.0
 40
4.3705000000030267
 50
115.3396285299834
 51
152.32503041977429
  0
ARC
  5
B55
  8
DATA
  6
CONTINUOUS
 62
     7
 10
-352.6294999999929
 20
-9.4999999999998863
 30
0.0
 40
4.3705000000029797
 50
207.6749695802261
 51
244.6603714700164
  0
LINE
  5
B56
  8
DATA
  6
CONTINUOUS
 62
     7
 10
-356.50000000000023
 20
-11.52990147543383
 30
0.0
 11
-356.50000000000023
 21
-7.4700985245661098
 31
0.0
  0
ARC
  5
B57
  8
DATA
  6
CONTINUOUS
 62
     7
 10
75.629499999992902
 20
-9.4999999999998863
 30
0.0
 40
4.3705000000030312
 50
27.674969580225731
 51
64.660371470016571
  0
ARC
  5
B58
  8
DATA
  6
CONTINUOUS
 62
     7
 10
75.629499999992902
 20
-9.4999999999998863
 30
0.0
 40
4.370500000003001
 50
295.33962852998371
 51
332.32503041977401
  0
LINE
  5
B59
  8
DATA
  6
CONTINUOUS
 62
     7
 10
79.500000000000298
 20
-11.52990147543383
 30
0.0
 11
79.500000000000298
 21
-7.4700985245661098
 31
0.0
  0
LINE
  5
B5A
  8
DATA
  6
CONTINUOUS
 62
     7
 10
-356.50000000000023
 20
-9.4999999999999716
 30
0.0
 11
-356.50000000000023
 21
-7.4700985245658771
 31
0.0
  0
LINE
  5
B5B
  8
DATA
  6
CONTINUOUS
 62
     7
 10
79.500000000000298
 20
-9.4999999999999716
 30
0.0
 11
79.500000000000298
 21
-7.4700985245658273
 31
0.0
  0
LINE
  5
B5C
  8
DATA
  6
CONTINUOUS
 62
     7
 10
-337.40000000000009
 20
21.5
 30
0.0
 11
-338.3678576589316
 21
21.5
 31
0.0
  0
LINE
  5
B5D
  8
DATA
  6
CONTINUOUS
 62
     7
 10
-136.0557280900008
 20
-413.0
 30
0.0
 11
-21.0
 21
-413.0
 31
0.0
  0
CIRCLE
  5
B5E
  8
DATA
  6
CONTINUOUS
 62
     7
 10
-27.567148357688598
 20
-398.39999999999998
 30
0.0
 40
1.4212670403551699
  0
ENDSEC
  0
EOF
