  0
SECTION
  2
HEADER
  9
$ACADVER
  1
AC1009
  9
$INSBASE
 10
0.0
 20
0.0
 30
0.0
  9
$EXTMIN
 10
-444.7935243309289
 20
-688.10956819777812
 30
-0.0015258207003583
  9
$EXTMAX
 10
455.2614073097597
 20
650.04075378504137
 30
0.0000000349246037
  9
$LIMMIN
 10
0.0
 20
0.0
  9
$LIMMAX
 10
0.0
 20
0.0
  9
$ORTHOMODE
 70
     0
  9
$REGENMODE
 70
     1
  9
$FILLMODE
 70
     1
  9
$QTEXTMODE
 70
     0
  9
$MIRRTEXT
 70
     1
  9
$DRAGMODE
 70
     2
  9
$LTSCALE
 40
25.399999999999999
  9
$OSMODE
 70
   231
  9
$ATTMODE
 70
     1
  9
$TEXTSIZE
 40
0.0
  9
$TRACEWID
 40
1.0
  9
$TEXTSTYLE
  7
STANDARD
  9
$CLAYER
  8
DATA
  9
$CELTYPE
  6
BYLAYER
  9
$CECOLOR
 62
   256
  9
$DIMSCALE
 40
1.0
  9
$DIMASZ
 40
0.18
  9
$DIMEXO
 40
0.0625
  9
$DIMDLI
 40
0.38
  9
$DIMRND
 40
0.0
  9
$DIMDLE
 40
0.0
  9
$DIMEXE
 40
0.18
  9
$DIMTP
 40
0.0
  9
$DIMTM
 40
0.0
  9
$DIMTXT
 40
0.18
  9
$DIMCEN
 40
0.09
  9
$DIMTSZ
 40
0.0
  9
$DIMTOL
 70
     0
  9
$DIMLIM
 70
     0
  9
$DIMTIH
 70
     1
  9
$DIMTOH
 70
     1
  9
$DIMSE1
 70
     0
  9
$DIMSE2
 70
     0
  9
$DIMTAD
 70
     0
  9
$DIMZIN
 70
     0
  9
$DIMBLK
  1

  9
$DIMASO
 70
     1
  9
$DIMSHO
 70
     1
  9
$DIMPOST
  1

  9
$DIMAPOST
  1

  9
$DIMALT
 70
     0
  9
$DIMALTD
 70
     2
  9
$DIMALTF
 40
25.399999999999999
  9
$DIMLFAC
 40
1.0
  9
$DIMTOFL
 70
     0
  9
$DIMTVP
 40
0.0
  9
$DIMTIX
 70
     0
  9
$DIMSOXD
 70
     0
  9
$DIMSAH
 70
     0
  9
$DIMBLK1
  1

  9
$DIMBLK2
  1

  9
$DIMSTYLE
  2
STANDARD
  9
$DIMCLRD
 70
     0
  9
$DIMCLRE
 70
     0
  9
$DIMCLRT
 70
     0
  9
$DIMTFAC
 40
1.0
  9
$DIMGAP
 40
0.09
  9
$LUNITS
 70
     2
  9
$LUPREC
 70
     4
  9
$SKETCHINC
 40
0.1
  9
$FILLETRAD
 40
0.0
  9
$AUNITS
 70
     0
  9
$AUPREC
 70
     0
  9
$MENU
  1
acad
  9
$ELEVATION
 40
0.0
  9
$PELEVATION
 40
0.0
  9
$THICKNESS
 40
0.0
  9
$LIMCHECK
 70
     0
  9
$BLIPMODE
 70
     0
  9
$CHAMFERA
 40
0.0
  9
$CHAMFERB
 40
0.0
  9
$SKPOLY
 70
     0
  9
$TDCREATE
 40
2455475.612106482
  9
$TDUPDATE
 40
2455475.6192535758
  9
$TDINDWG
 40
0.0004039815
  9
$TDUSRTIMER
 40
0.0004039815
  9
$USRTIMER
 70
     1
  9
$ANGBASE
 50
0.0
  9
$ANGDIR
 70
     0
  9
$PDMODE
 70
     1
  9
$PDSIZE
 40
-2.0
  9
$PLINEWID
 40
0.0
  9
$COORDS
 70
     0
  9
$SPLFRAME
 70
     0
  9
$SPLINETYPE
 70
     6
  9
$SPLINESEGS
 70
     8
  9
$ATTDIA
 70
     0
  9
$ATTREQ
 70
     1
  9
$HANDLING
 70
     1
  9
$HANDSEED
  5
C47
  9
$SURFTAB1
 70
     6
  9
$SURFTAB2
 70
     6
  9
$SURFTYPE
 70
     6
  9
$SURFU
 70
     6
  9
$SURFV
 70
     6
  9
$UCSNAME
  2

  9
$UCSORG
 10
0.0
 20
0.0
 30
0.0
  9
$UCSXDIR
 10
1.0
 20
0.0
 30
0.0
  9
$UCSYDIR
 10
0.0
 20
1.0
 30
0.0
  9
$PUCSNAME
  2

  9
$PUCSORG
 10
0.0
 20
0.0
 30
0.0
  9
$PUCSXDIR
 10
1.0
 20
0.0
 30
0.0
  9
$PUCSYDIR
 10
0.0
 20
1.0
 30
0.0
  9
$USERI1
 70
     0
  9
$USERI2
 70
     0
  9
$USERI3
 70
     0
  9
$USERI4
 70
     0
  9
$USERI5
 70
     0
  9
$USERR1
 40
0.0
  9
$USERR2
 40
0.0
  9
$USERR3
 40
0.0
  9
$USERR4
 40
0.0
  9
$USERR5
 40
0.0
  9
$WORLDVIEW
 70
     1
  9
$SHADEDGE
 70
     3
  9
$SHADEDIF
 70
    70
  9
$TILEMODE
 70
     1
  9
$MAXACTVP
 70
    64
  9
$PLIMCHECK
 70
     0
  9
$PEXTMIN
 10
1.0000000000000000E+020
 20
1.0000000000000000E+020
 30
1.0000000000000000E+020
  9
$PEXTMAX
 10
-1.0000000000000000E+020
 20
-1.0000000000000000E+020
 30
-1.0000000000000000E+020
  9
$PLIMMIN
 10
0.0
 20
0.0
  9
$PLIMMAX
 10
12.0
 20
9.0
  9
$UNITMODE
 70
     0
  9
$VISRETAIN
 70
     0
  9
$PLINEGEN
 70
     1
  9
$PSLTSCALE
 70
     0
  0
ENDSEC
  0
SECTION
  2
TABLES
  0
TABLE
  2
VPORT
 70
     1
  0
VPORT
  2
*ACTIVE
 70
     0
 10
0.0
 20
0.0
 11
1.0
 21
1.0
 12
5.2339414894154279
 22
-19.034407206368311
 13
0.0
 23
0.0
 14
1.0
 24
1.0
 15
0.0
 25
0.0
 16
0.0
 26
0.0
 36
1.0
 17
0.0
 27
0.0
 37
0.0
 40
1348.00173539619
 41
1.9619164619164611
 42
50.0
 43
0.0
 44
0.0
 50
0.0
 51
0.0
 71
     0
 72
  2000
 73
     1
 74
     1
 75
     0
 76
     0
 77
     0
 78
     0
  0
ENDTAB
  0
TABLE
  2
LTYPE
 70
    11
  0
LTYPE
  2
CONTINUOUS
 70
     0
  3
Solid line
 72
    65
 73
     0
 40
0.0
  0
ENDTAB
  0
TABLE
  2
LAYER
 70
     5
  0
LAYER
  2
0
 70
     0
 62
     7
  6
CONTINUOUS
  0
LAYER
  2
DATA
 70
     0
 62
     7
  6
CONTINUOUS
  0
LAYER
  2
HIBINO-BASE
 70
     0
 62
     7
  6
CONTINUOUS
  0
LAYER
  2
SPEC
 70
     0
 62
     7
  6
CONTINUOUS
  0
LAYER
  2
DIMNSIONS
 70
     0
 62
     7
  6
CONTINUOUS
  0
ENDTAB
  0
TABLE
  2
STYLE
 70
     3
  0
STYLE
  2
STANDARD
 70
     0
 40
0.0
 41
1.0
 50
0.0
 71
     0
 42
0.0
  3
txt
  4
BIGFONT.SHX
  0
ENDTAB
  0
TABLE
  2
VIEW
 70
     0
  0
ENDTAB
  0
TABLE
  2
UCS
 70
     0
  0
ENDTAB
  0
TABLE
  2
APPID
 70
     3
  0
APPID
  2
ACAD
 70
     0
  0
APPID
  2
ACADANNOTATIVE
 70
     0
  0
APPID
  2
ACAD_MLEADERVER
 70
     0
  0
ENDTAB
  0
TABLE
  2
DIMSTYLE
 70
     2
  0
DIMSTYLE
  2
STANDARD
 70
     0
  3

  4

  5

  6

  7

 40
1.0
 41
0.18
 42
0.0625
 43
0.38
 44
0.18
 45
0.0
 46
0.0
 47
0.0
 48
0.0
140
0.18
141
0.09
142
0.0
143
25.399999999999999
144
1.0
145
0.0
146
1.0
147
0.09
 71
     0
 72
     0
 73
     1
 74
     1
 75
     0
 76
     0
 77
     0
 78
     0
170
     0
171
     2
172
     0
173
     0
174
     0
175
     0
176
     0
177
     0
178
     0
  0
ENDTAB
  0
ENDSEC
  0
SECTION
  2
BLOCKS
  0
BLOCK
  8
0
  2
$MODEL_SPACE
 70
     0
 10
0.0
 20
0.0
 30
0.0
  3
$MODEL_SPACE
  1

  0
ENDBLK
  5
852
  8
0
  0
BLOCK
 67
     1
  8
0
  2
$PAPER_SPACE
 70
     0
 10
0.0
 20
0.0
 30
0.0
  3
$PAPER_SPACE
  1

  0
ENDBLK
  5
84E
 67
     1
  8
0
  0
BLOCK
  8
DATA
  2
RACK___
 70
     0
 10
0.0
 20
0.0
 30
0.0
  3
RACK___
  1

  0
ARC
  5
2F
  8
0
  6
CONTINUOUS
 62
     7
 10
-2.2999999999998968
 20
0.0
 30
0.0
 40
3.1999999999999882
 50
90.000000000002018
 51
269.99999999999801
  0
ARC
  5
30
  8
0
  6
CONTINUOUS
 62
     7
 10
2.2999999999999541
 20
-0.0000000000000568
 30
0.0
 40
3.1999999999999882
 50
270.0
 51
90.0
  0
LINE
  5
31
  8
0
  6
CONTINUOUS
 62
     7
 10
2.2999999999999541
 20
3.1999999999999882
 30
0.0
 11
-2.3500000000000218
 21
3.1999999999999882
 31
0.0
  0
LINE
  5
32
  8
0
  6
CONTINUOUS
 62
     7
 10
-2.3000000000000109
 20
-3.200000000000045
 30
0.0
 11
2.2999999999999541
 21
-3.200000000000045
 31
0.0
  0
ENDBLK
  5
33
  8
DATA
  0
BLOCK
  8
DATA
  2
____-20
 70
     0
 10
0.0
 20
0.0
 30
0.0
  3
____-20
  1

  0
CIRCLE
  5
35
  8
0
  6
CONTINUOUS
 62
     7
 10
0.0
 20
0.0
 30
0.0
 40
2.828427124746141
  0
POLYLINE
  5
36
  8
0
  6
CONTINUOUS
 62
     7
 66
     1
 10
0.0
 20
0.0
 30
0.0
 70
     1
  0
VERTEX
  5
880
  8
0
  6
CONTINUOUS
 62
     7
 10
-0.4668926229138037
 20
1.5476900891285359
 30
0.0
  0
VERTEX
  5
881
  8
0
  6
CONTINUOUS
 62
     7
 10
-1.5737852458275929
 20
0.3695041722813812
 30
0.0
  0
VERTEX
  5
882
  8
0
  6
CONTINUOUS
 62
     7
 10
-1.1068926229137901
 20
-1.1781859168471549
 30
0.0
  0
VERTEX
  5
883
  8
0
  6
CONTINUOUS
 62
     7
 10
0.4668926229138037
 20
-1.5476900891285359
 30
0.0
  0
VERTEX
  5
884
  8
0
  6
CONTINUOUS
 62
     7
 10
1.5737852458275929
 20
-0.3695041722813812
 30
0.0
  0
VERTEX
  5
885
  8
0
  6
CONTINUOUS
 62
     7
 10
1.1068926229137901
 20
1.1781859168471549
 30
0.0
  0
SEQEND
  5
886
  8
0
  6
CONTINUOUS
 62
     7
  0
ENDBLK
  5
3F
  8
DATA
  0
ENDSEC
  0
SECTION
  2
ENTITIES
  0
LINE
  5
40
  8
HIBINO-BASE
  6
CONTINUOUS
 62
     7
 10
-444.76606060606048
 20
650.0
 30
0.0
 11
455.23393939393929
 21
650.0
 31
0.0
  0
LINE
  5
41
  8
HIBINO-BASE
  6
CONTINUOUS
 62
     7
 10
455.23393939393929
 20
-650.0
 30
0.0
 11
-444.76606060606048
 21
-650.0
 31
0.0
  0
LINE
  5
42
  8
HIBINO-BASE
  6
CONTINUOUS
 62
     7
 10
-444.76606060606048
 20
-650.0
 30
0.0
 11
-444.76606060606048
 21
650.0
 31
0.0
  0
TEXT
  5
43
  8
HIBINO-BASE
 62
     7
 10
-408.84606060606041
 20
-682.04338899999993
 30
0.0
 40
18.00022089843749
  1
Hibino Corporation
 41
0.7
 11
-408.84606060606041
 21
-664.04316810156229
 31
0.0
 73
     3
  0
LINE
  5
44
  8
HIBINO-BASE
  6
CONTINUOUS
 62
     7
 10
455.23393939393929
 20
650.0
 30
0.0
 11
455.23393939393929
 21
-650.0
 31
0.0
  0
LINE
  5
45
  8
HIBINO-BASE
  6
CONTINUOUS
 62
     7
 10
5.2339393939393926
 20
-537.49999999999989
 30
0.0
 11
455.23393939393929
 21
-537.49999999999989
 31
0.0
  0
LINE
  5
46
  8
HIBINO-BASE
  6
CONTINUOUS
 62
     7
 10
5.2339393939393926
 20
-650.0
 30
0.0
 11
5.2339393939393926
 21
-537.49999999999989
 31
0.0
  0
TEXT
  5
47
  8
HIBINO-BASE
 62
     7
 10
9.7339393939393943
 20
-550.04346666666652
 30
0.0
 40
8.1442057291666661
  1
NOTE
 41
0.7
 11
9.7339393939393943
 21
-541.89926093749978
 31
0.0
 73
     3
  0
LINE
  5
48
  8
HIBINO-BASE
  6
CONTINUOUS
 62
     7
 10
180.23393939393941
 20
-650.0
 30
0.0
 11
180.23393939393941
 21
-537.49999999999989
 31
0.0
  0
TEXT
  5
49
  8
HIBINO-BASE
 62
     7
 10
184.73393939393941
 20
-550.04346666666652
 30
0.0
 40
8.1442057291666661
  1
TITLE
 41
0.7
 11
184.73393939393941
 21
-541.89926093749978
 31
0.0
 73
     3
  0
TEXT
  5
4A
  8
HIBINO-BASE
 62
     7
 10
255.57588939393929
 20
-682.04338899999993
 30
0.0
 40
18.00022089843749
  1
ヒビノ株式会社
 41
0.7
 11
255.57588939393929
 21
-664.04316810156229
 31
0.0
 73
     3
  0
LINE
  5
4B
  8
HIBINO-BASE
  6
CONTINUOUS
 62
     7
 10
5.2339393939393926
 20
-599.99999999999989
 30
0.0
 11
455.23393939393929
 21
-599.99999999999989
 31
0.0
  0
TEXT
  5
4C
  8
HIBINO-BASE
 62
     7
 10
247.23393939393941
 20
-612.26186666666649
 30
0.0
 40
8.1442057291666661
  1
DRAWN
 41
0.7
 11
247.23393939393941
 21
-604.11766093749975
 31
0.0
 73
     3
  0
TEXT
  5
4D
  8
HIBINO-BASE
 62
     7
 10
122.23393939393939
 20
-612.26186666666649
 30
0.0
 40
8.1442057291666661
  1
DATE
 41
0.7
 11
122.23393939393939
 21
-604.11766093749975
 31
0.0
 73
     3
  0
TEXT
  5
4E
  8
HIBINO-BASE
 62
     7
 10
72.233939393939394
 20
-612.26186666666649
 30
0.0
 40
8.1442057291666661
  1
SCALE
 41
0.7
 11
72.233939393939394
 21
-604.11766093749975
 31
0.0
 73
     3
  0
TEXT
  5
4F
  8
HIBINO-BASE
 62
     7
 10
184.73393939393941
 20
-612.26186666666649
 30
0.0
 40
8.1442057291666661
  1
DESIGN
 41
0.7
 11
184.73393939393941
 21
-604.11766093749975
 31
0.0
 73
     3
  0
TEXT
  5
50
  8
HIBINO-BASE
 62
     7
 10
372.23393939393929
 20
-612.26186666666649
 30
0.0
 40
8.1442057291666661
  1
DRAWING NO.
 41
0.7
 11
372.23393939393929
 21
-604.11766093749975
 31
0.0
 73
     3
  0
TEXT
  5
51
  8
HIBINO-BASE
 62
     7
 10
309.73393939393929
 20
-612.26186666666649
 30
0.0
 40
8.1442057291666661
  1
CHECK
 41
0.7
 11
309.73393939393929
 21
-604.11766093749975
 31
0.0
 73
     3
  0
LINE
  5
52
  8
HIBINO-BASE
  6
CONTINUOUS
 62
     7
 10
77.108939393939366
 20
-643.75
 30
0.0
 11
95.858939393939394
 21
-624.99999999999989
 31
0.0
  0
TEXT
  5
53
  8
HIBINO-BASE
 62
     7
 10
77.394846838830588
 20
-633.52347858749306
 30
0.0
 40
9.5015733506944446
  1
1
 41
0.7
 11
77.394846838830588
 21
-624.0219052367986
 31
0.0
 73
     3
  0
LINE
  5
54
  8
HIBINO-BASE
  6
CONTINUOUS
 62
     7
 10
67.73393939393938
 20
-650.0
 30
0.0
 11
67.73393939393938
 21
-599.99999999999989
 31
0.0
  0
LINE
  5
55
  8
HIBINO-BASE
  6
CONTINUOUS
 62
     7
 10
117.73393939393939
 20
-650.0
 30
0.0
 11
117.73393939393939
 21
-599.99999999999989
 31
0.0
  0
LINE
  5
56
  8
HIBINO-BASE
  6
CONTINUOUS
 62
     7
 10
242.73393939393929
 20
-599.99999999999989
 30
0.0
 11
242.73393939393929
 21
-650.0
 31
0.0
  0
LINE
  5
57
  8
HIBINO-BASE
  6
CONTINUOUS
 62
     7
 10
367.73393939393929
 20
-599.99999999999989
 30
0.0
 11
367.73393939393929
 21
-650.0
 31
0.0
  0
LINE
  5
58
  8
HIBINO-BASE
  6
CONTINUOUS
 62
     7
 10
305.23393939393929
 20
-650.0
 30
0.0
 11
305.23393939393929
 21
-599.99999999999989
 31
0.0
  0
TEXT
  5
59
  8
HIBINO-BASE
 62
     7
 10
122.0166393939394
 20
-637.19871111111115
 30
0.0
 40
9.5015733506944446
  1
'05.11.
 41
0.7
 11
122.0166393939394
 21
-627.69713776041669
 31
0.0
 73
     3
  0
TEXT
  5
5A
  8
HIBINO-BASE
 62
     7
 10
91.759394409684774
 20
-642.89847858749306
 30
0.0
 40
9.5015733506944446
  1
5
 41
0.7
 11
91.759394409684774
 21
-633.3969052367986
 31
0.0
 73
     3
  0
TEXT
  5
5B
  8
HIBINO-BASE
 62
     7
 10
24.65060606060614
 20
-640.11999999999989
 30
0.0
 40
16.288411458333329
  1
A4
 41
0.7
 11
24.65060606060614
 21
-623.83158854166652
 31
0.0
 73
     3
  0
TEXT
  5
5C
  8
HIBINO-BASE
 62
     7
 10
10.02560606060606
 20
-613.09727499999985
 30
0.0
 40
8.1442057291666661
  1
PAPER SIZE
 41
0.7
 11
10.02560606060606
 21
-604.95306927083334
 31
0.0
 73
     3
  0
TEXT
  5
5D
  8
HIBINO-BASE
 62
     7
 10
-391.52586504840963
 20
-624.82703740169939
 30
0.0
 40
8.1442057291666661
  1
仕様および外観は予告なく変更されることがありますので、ご了承ください。
 41
0.7
 11
-391.52586504840963
 21
-616.68283167253276
 31
0.0
 73
     3
  0
TEXT
  5
5E
  8
HIBINO-BASE
 62
     7
 10
249.04552247485219
 20
-637.45603978607414
 30
0.0
 40
9.5015733506944446
  1
T.Ohtake
 41
0.7
 11
249.04552247485219
 21
-627.95446643537969
 31
0.0
 73
     3
  0
TEXT
  5
5F
  8
HIBINO-BASE
 62
     7
 10
316.09793487153229
 20
-637.44206226476035
 30
0.0
 40
9.5015733506944446
  1
Y.Ishii
 41
0.7
 11
316.09793487153229
 21
-627.9404889140659
 31
0.0
 73
     3
  0
LINE
  5
60
  8
SPEC
  6
CONTINUOUS
 62
     7
 10
-399.942780603872
 20
600.03202521605965
 30
0.0
 11
337.55721939612789
 21
600.03202521605965
 31
0.0
  0
LINE
  5
61
  8
SPEC
  6
CONTINUOUS
 62
     7
 10
-399.942780603872
 20
581.28202521605965
 30
0.0
 11
337.55721939612789
 21
581.28202521605965
 31
0.0
  0
LINE
  5
62
  8
SPEC
  6
CONTINUOUS
 62
     7
 10
-237.44278060387279
 20
506.28202521605971
 30
0.0
 11
337.55721939612789
 21
506.28202521605971
 31
0.0
  0
LINE
  5
63
  8
SPEC
  6
CONTINUOUS
 62
     7
 10
-399.942780603872
 20
525.03202521605965
 30
0.0
 11
337.55721939612789
 21
525.03202521605965
 31
0.0
  0
LINE
  5
64
  8
SPEC
  6
CONTINUOUS
 62
     7
 10
-237.44278060387279
 20
543.78202521605965
 30
0.0
 11
337.55721939612789
 21
543.78202521605965
 31
0.0
  0
LINE
  5
65
  8
SPEC
  6
CONTINUOUS
 62
     7
 10
-237.44278060387279
 20
487.53202521605971
 30
0.0
 11
337.55721939612789
 21
487.53202521605971
 31
0.0
  0
LINE
  5
66
  8
SPEC
  6
CONTINUOUS
 62
     7
 10
-237.44278060387279
 20
450.03202521605959
 30
0.0
 11
337.55721939612789
 21
450.03202521605971
 31
0.0
  0
LINE
  5
67
  8
SPEC
  6
CONTINUOUS
 62
     7
 10
-399.942780603872
 20
468.78202521605971
 30
0.0
 11
337.55721939612789
 21
468.78202521605971
 31
0.0
  0
LINE
  5
68
  8
SPEC
  6
CONTINUOUS
 62
     7
 10
-237.44278060387279
 20
431.28202521605959
 30
0.0
 11
337.55721939612789
 21
431.28202521605971
 31
0.0
  0
LINE
  5
69
  8
SPEC
  6
CONTINUOUS
 62
     7
 10
-399.942780603872
 20
412.53202521605959
 30
0.0
 11
337.55721939612789
 21
412.53202521605959
 31
0.0
  0
LINE
  5
6A
  8
SPEC
  6
CONTINUOUS
 62
     7
 10
-237.44278060387279
 20
562.53202521605965
 30
0.0
 11
337.55721939612789
 21
562.53202521605965
 31
0.0
  0
LINE
  5
6B
  8
SPEC
  6
CONTINUOUS
 62
     7
 10
-399.942780603872
 20
375.03202521605971
 30
0.0
 11
337.55721939612789
 21
375.03202521605971
 31
0.0
  0
LINE
  5
6C
  8
SPEC
  6
CONTINUOUS
 62
     7
 10
-399.942780603872
 20
337.53202521605982
 30
0.0
 11
337.55721939612789
 21
337.53202521605982
 31
0.0
  0
LINE
  5
6D
  8
SPEC
  6
CONTINUOUS
 62
     7
 10
-399.942780603872
 20
281.28202521605971
 30
0.0
 11
337.55721939612789
 21
281.28202521605971
 31
0.0
  0
LINE
  5
6E
  8
SPEC
  6
CONTINUOUS
 62
     7
 10
-399.942780603872
 20
600.03202521605965
 30
0.0
 11
-399.942780603872
 21
281.28202521605971
 31
0.0
  0
TEXT
  5
6F
  8
SPEC
 62
     7
 10
-386.437066787003
 20
606.99837521605957
 30
0.0
 40
12.21630859375
  1
仕様
 41
0.7
 11
-386.437066787003
 21
619.21468380980957
 31
0.0
 73
     3
  0
LINE
  5
70
  8
SPEC
  6
CONTINUOUS
 62
     7
 10
-237.44278060387279
 20
600.03202521605965
 30
0.0
 11
-237.44278060387279
 21
281.28202521605971
 31
0.0
  0
LINE
  5
71
  8
SPEC
  6
CONTINUOUS
 62
     7
 10
337.55721939612789
 20
600.03202521605965
 30
0.0
 11
337.55721939612789
 21
281.28202521605971
 31
0.0
  0
TEXT
  5
72
  8
SPEC
 62
     7
 10
-393.75547361745038
 20
586.00717673592874
 30
0.0
 40
9.5015733506944446
  1
形式
 41
0.7
 11
-393.75547361745038
 21
595.50875008662308
 31
0.0
 73
     3
  0
LINE
  5
73
  8
SPEC
  6
CONTINUOUS
 62
     7
 10
-237.44278060387279
 20
431.28202521605959
 30
0.0
 11
337.55721939612789
 21
431.28202521605971
 31
0.0
  0
LINE
  5
74
  8
SPEC
  6
CONTINUOUS
 62
     7
 10
-237.44278060387279
 20
431.28202521605959
 30
0.0
 11
337.55721939612789
 21
431.28202521605971
 31
0.0
  0
LINE
  5
75
  8
SPEC
  6
CONTINUOUS
 62
     7
 10
-399.942780603872
 20
393.78202521605971
 30
0.0
 11
337.55721939612789
 21
393.78202521605971
 31
0.0
  0
LINE
  5
76
  8
SPEC
  6
CONTINUOUS
 62
     7
 10
-399.942780603872
 20
356.28202521605971
 30
0.0
 11
337.55721939612789
 21
356.28202521605971
 31
0.0
  0
LINE
  5
77
  8
SPEC
  6
CONTINUOUS
 62
     7
 10
-399.942780603872
 20
318.78202521605982
 30
0.0
 11
337.55721939612789
 21
318.78202521605982
 31
0.0
  0
LINE
  5
78
  8
SPEC
  6
CONTINUOUS
 62
     7
 10
-399.942780603872
 20
300.03202521605982
 30
0.0
 11
337.55721939612789
 21
300.03202521605982
 31
0.0
  0
TEXT
  5
79
  8
SPEC
 62
     7
 10
-394.09693128167828
 20
567.22299905928855
 30
0.0
 40
9.5015733506944446
  1
デジタル入出力
 41
0.7
 11
-394.09693128167828
 21
576.7245724099829
 31
0.0
 73
     3
  0
TEXT
  5
7A
  8
SPEC
 62
     7
 10
-231.2137213989183
 20
548.43436245845191
 30
0.0
 40
9.5015733506944446
  1
端子・型式 RCA,S/PDIF,24ビット
 41
0.7
 11
-231.2137213989183
 21
557.93593580914637
 31
0.0
 73
     3
  0
TEXT
  5
7B
  8
SPEC
 62
     7
 10
-231.011395143388
 20
529.81707782206365
 30
0.0
 40
9.5015733506944446
  1
サンプリングレート 48kHz/44.1kHz
 41
0.7
 11
-231.011395143388
 21
539.31865117275822
 31
0.0
 73
     3
  0
TEXT
  5
7C
  8
SPEC
 62
     7
 10
-393.86076473912169
 20
379.58921659361852
 30
0.0
 40
9.5015733506944446
  1
周波数特性
 41
0.7
 11
-393.86076473912169
 21
389.09078994431292
 31
0.0
 73
     3
  0
TEXT
  5
7D
  8
SPEC
 62
     7
 10
-393.58850953901123
 20
360.81685421032671
 30
0.0
 40
9.5015733506944446
  1
THD＋N
 41
0.7
 11
-393.58850953901123
 21
370.31842756102122
 31
0.0
 73
     3
  0
TEXT
  5
7E
  8
SPEC
 62
     7
 10
-230.7332892888212
 20
360.69716487125203
 30
0.0
 40
9.5015733506944446
  1
0.007％以下（20Hz～20kHz）
 41
0.7
 11
-230.7332892888212
 21
370.19873822194648
 31
0.0
 73
     3
  0
TEXT
  5
7F
  8
SPEC
 62
     7
 10
-393.74571054294199
 20
323.33598228169569
 30
0.0
 40
9.5015733506944446
  1
電源
 41
0.7
 11
-393.74571054294199
 21
332.83755563239009
 31
0.0
 73
     3
  0
TEXT
  5
80
  8
SPEC
 62
     7
 10
-230.99382705367381
 20
323.91810571495671
 30
0.0
 40
9.5015733506944446
  1
外部電源アダプタ AC100V,50/60Hz
 41
0.7
 11
-230.99382705367381
 21
333.41967906565122
 31
0.0
 73
     3
  0
TEXT
  5
81
  8
SPEC
 62
     7
 10
-393.96315271619181
 20
304.99142368387788
 30
0.0
 40
9.5015733506944446
  1
消費電力
 41
0.7
 11
-393.96315271619181
 21
314.4929970345724
 31
0.0
 73
     3
  0
TEXT
  5
82
  8
SPEC
 62
     7
 10
-231.51265693396789
 20
304.90689160816561
 30
0.0
 40
9.5015733506944446
  1
17W
 41
0.7
 11
-231.51265693396789
 21
314.40846495886012
 31
0.0
 73
     3
  0
TEXT
  5
83
  8
SPEC
 62
     7
 10
-393.82460688452568
 20
286.68776008728582
 30
0.0
 40
9.5015733506944446
  1
寸法　
 41
0.7
 11
-393.82460688452568
 21
296.18933343798022
 31
0.0
 73
     3
  0
TEXT
  5
84
  8
SPEC
 62
     7
 10
-230.7866321820847
 20
286.22605129532559
 30
0.0
 40
9.5015733506944446
  1
483(W)X45(H)X113(D)mm(突起部含まず)
 41
0.7
 11
-230.7866321820847
 21
295.72762464601999
 31
0.0
 73
     3
  0
TEXT
  5
85
  8
SPEC
 62
     7
 10
-230.80487659774241
 20
379.73189629619048
 30
0.0
 40
9.5015733506944446
  1
20Hz～20kHz(\U+00B11dB)
 41
0.7
 11
-230.80487659774241
 21
389.233469646885
 31
0.0
 73
     3
  0
TEXT
  5
86
  8
SPEC
 62
     7
 10
-230.78082851914431
 20
398.48747641163868
 30
0.0
 40
9.5015733506944446
  1
24ビット,48kHz(内部24ビット処理)
 41
0.7
 11
-230.78082851914431
 21
407.98904976233308
 31
0.0
 73
     3
  0
TEXT
  5
87
  8
SPEC
 62
     7
 10
-393.59961076183038
 20
453.76193247432587
 30
0.0
 40
9.5015733506944446
  1
音声出力
 41
0.7
 11
-393.59961076183038
 21
463.26350582502039
 31
0.0
 73
     3
  0
TEXT
  5
88
  8
SPEC
 62
     7
 10
-393.06449433549432
 20
398.39999020190731
 30
0.0
 40
9.5015733506944446
  1
A/D-D/A変換
 41
0.7
 11
-393.06449433549432
 21
407.90156355260171
 31
0.0
 73
     3
  0
TEXT
  5
89
  8
SPEC
 62
     7
 10
-231.3655962870325
 20
567.32423855226398
 30
0.0
 40
9.5015733506944446
  1
チャンネル数 2
 41
0.7
 11
-231.3655962870325
 21
576.82581190295855
 31
0.0
 73
     3
  0
TEXT
  5
8A
  8
SPEC
 62
     7
 10
-393.49196447561189
 20
510.63333145501201
 30
0.0
 40
9.5015733506944446
  1
音声入力
 41
0.7
 11
-393.49196447561189
 21
520.13490480570636
 31
0.0
 73
     3
  0
TEXT
  5
8B
  8
SPEC
 62
     7
 10
-230.55941019882249
 20
511.10437066753121
 30
0.0
 40
9.5015733506944446
  1
端子・型式 標準フォーンジャック(3P),バランス　
 41
0.7
 11
-230.55941019882249
 21
520.60594401822573
 31
0.0
 73
     3
  0
TEXT
  5
8C
  8
SPEC
 62
     7
 10
-394.5967612660865
 20
342.41648684603018
 30
0.0
 40
9.5015733506944446
  1
ダイナミックレンジ
 41
0.7
 11
-394.5967612660865
 21
351.9180601967247
 31
0.0
 73
     3
  0
TEXT
  5
8D
  8
SPEC
 62
     7
 10
-231.49977621288431
 20
342.34055074967642
 30
0.0
 40
9.5015733506944446
  1
107dB(Aウェイト）
 41
0.7
 11
-231.49977621288431
 21
351.84212410037088
 31
0.0
 73
     3
  0
TEXT
  5
8E
  8
SPEC
 62
     7
 10
-230.81022974195221
 20
585.78390245957439
 30
0.0
 40
9.5015733506944446
  1
2ch マルチエフェクタ 
 41
0.7
 11
-230.81022974195221
 21
595.28547581026885
 31
0.0
 73
     3
  0
TEXT
  5
8F
  8
SPEC
 62
     7
 10
-230.89457331012289
 20
474.07478348114432
 30
0.0
 40
9.5015733506944446
  1
最大レベル +20dBu
 41
0.7
 11
-230.89457331012289
 21
483.57635683183878
 31
0.0
 73
     3
  0
TEXT
  5
90
  8
SPEC
 62
     7
 10
-231.51681105740269
 20
492.47909159828828
 30
0.0
 40
9.5015733506944446
  1
インピーダンス 20k\U+03A9(バランス)
 41
0.7
 11
-231.51681105740269
 21
501.98066494898291
 31
0.0
 73
     3
  0
TEXT
  5
91
  8
SPEC
 62
     7
 10
-231.06598733917829
 20
454.42711815699693
 30
0.0
 40
9.5015733506944446
  1
端子・型式 標準フォーンジャック(3P),電子バランス　
 41
0.7
 11
-231.06598733917829
 21
463.92869150769133
 31
0.0
 73
     3
  0
TEXT
  5
92
  8
SPEC
 62
     7
 10
-231.575702878123
 20
435.95675358639568
 30
0.0
 40
9.5015733506944446
  1
インピーダンス 60\U+03A9
 41
0.7
 11
-231.575702878123
 21
445.45832693709019
 31
0.0
 73
     3
  0
TEXT
  5
93
  8
SPEC
 62
     7
 10
-230.88856787420201
 20
417.02803659682201
 30
0.0
 40
9.5015733506944446
  1
最大レベル +20dBu
 41
0.7
 11
-230.88856787420201
 21
426.52960994751641
 31
0.0
 73
     3
  0
LINE
  5
94
  8
SPEC
  6
CONTINUOUS
 62
     7
 10
-399.942780603872
 20
262.53202521605971
 30
0.0
 11
337.55721939612789
 21
262.53202521605971
 31
0.0
  0
LINE
  5
95
  8
SPEC
  6
CONTINUOUS
 62
     7
 10
-399.942780603872
 20
262.53202521605971
 30
0.0
 11
-399.942780603872
 21
281.28202521605971
 31
0.0
  0
LINE
  5
96
  8
SPEC
  6
CONTINUOUS
 62
     7
 10
-237.44278060387279
 20
281.28202521605971
 30
0.0
 11
-237.44278060387279
 21
262.53202521605971
 31
0.0
  0
LINE
  5
97
  8
SPEC
  6
CONTINUOUS
 62
     7
 10
337.55721939612789
 20
262.53202521605971
 30
0.0
 11
337.55721939612789
 21
282.0
 31
0.0
  0
TEXT
  5
98
  8
SPEC
 62
     7
 10
-393.82522416149828
 20
267.29099273069789
 30
0.0
 40
9.5015733506944464
  1
重量
 41
0.7
 11
-393.82522416149828
 21
276.79256608139229
 31
0.0
 73
     3
  0
TEXT
  5
99
  8
SPEC
 62
     7
 10
-231.63860659311769
 20
268.01560504325158
 30
0.0
 40
9.5015733506944464
  1
1.7kg
 41
0.7
 11
-231.63860659311769
 21
277.51717839394598
 31
0.0
 73
     3
  0
TEXT
  5
9A
  8
DIMNSIONS
 62
     7
 10
-94.766060606060606
 20
-588.65255000000002
 30
0.0
 40
12.21630859375
  1
(単位：mm)
 41
0.7
 11
-94.766060606060606
 21
-576.43624140625002
 31
0.0
 73
     3
  0
LINE
  5
9B
  8
DIMNSIONS
  6
CONTINUOUS
 62
     7
 10
100.0
 20
-147.40000000002769
 30
0.0
 11
100.0
 21
-115.0
 31
0.0
  0
LINE
  5
9C
  8
DIMNSIONS
  6
CONTINUOUS
 62
     7
 10
-337.0
 20
-147.40000000002769
 30
0.0
 11
-337.0
 21
-115.0
 31
0.0
  0
LINE
  5
9D
  8
DIMNSIONS
  6
CONTINUOUS
 62
     7
 10
100.0
 20
-125.0
 30
0.0
 11
-337.0
 21
-125.0
 31
0.0
  0
LINE
  5
9E
  8
DIMNSIONS
  6
CONTINUOUS
 62
     7
 10
100.0
 20
-125.0
 30
0.0
 11
87.496887207031236
 21
-128.3501989757512
 31
0.0
  0
LINE
  5
9F
  8
DIMNSIONS
  6
CONTINUOUS
 62
     7
 10
100.0
 20
-125.0
 30
0.0
 11
87.496887207031236
 21
-121.6498010242488
 31
0.0
  0
LINE
  5
A0
  8
DIMNSIONS
  6
CONTINUOUS
 62
     7
 10
-337.0
 20
-125.0
 30
0.0
 11
-324.49688720703119
 21
-121.6498010242488
 31
0.0
  0
LINE
  5
A1
  8
DIMNSIONS
  6
CONTINUOUS
 62
     7
 10
-337.0
 20
-125.0
 30
0.0
 11
-324.49688720703119
 21
-128.3501989757512
 31
0.0
  0
TEXT
  5
A2
  8
DIMNSIONS
 62
     7
 10
-131.7291666666666
 20
-120.03055555555549
 30
0.0
 40
13.57367621527778
  1
437
 41
0.7
 11
-131.7291666666666
 21
-106.45687934027779
 31
0.0
 73
     3
  0
LINE
  5
A3
  8
DIMNSIONS
  6
CONTINUOUS
 62
     7
 10
-339.50999999999948
 20
-168.50000000002771
 30
0.0
 11
-339.50999999999948
 21
-90.0
 31
0.0
  0
LINE
  5
A4
  8
DIMNSIONS
  6
CONTINUOUS
 62
     7
 10
102.50999999999991
 20
-168.50000000002771
 30
0.0
 11
102.50999999999991
 21
-90.0
 31
0.0
  0
LINE
  5
A5
  8
DIMNSIONS
  6
CONTINUOUS
 62
     7
 10
-339.50999999999948
 20
-100.0
 30
0.0
 11
102.50999999999991
 21
-100.0
 31
0.0
  0
LINE
  5
A6
  8
DIMNSIONS
  6
CONTINUOUS
 62
     7
 10
-339.50999999999948
 20
-100.0
 30
0.0
 11
-327.00688720703067
 21
-96.649801024248788
 31
0.0
  0
LINE
  5
A7
  8
DIMNSIONS
  6
CONTINUOUS
 62
     7
 10
-339.50999999999948
 20
-100.0
 30
0.0
 11
-327.00688720703067
 21
-103.3501989757512
 31
0.0
  0
LINE
  5
A8
  8
DIMNSIONS
  6
CONTINUOUS
 62
     7
 10
102.50999999999991
 20
-100.0
 30
0.0
 11
90.006887207031227
 21
-103.3501989757512
 31
0.0
  0
LINE
  5
A9
  8
DIMNSIONS
  6
CONTINUOUS
 62
     7
 10
102.50999999999991
 20
-100.0
 30
0.0
 11
90.006887207031227
 21
-96.649801024248788
 31
0.0
  0
TEXT
  5
AA
  8
DIMNSIONS
 62
     7
 10
-131.7291666666664
 20
-95.030555555555566
 30
0.0
 40
13.57367621527778
  1
442
 41
0.7
 11
-131.7291666666664
 21
-81.45687934027778
 31
0.0
 73
     3
  0
LINE
  5
AB
  8
DIMNSIONS
  6
CONTINUOUS
 62
     7
 10
-347.0
 20
-157.40000000002769
 30
0.0
 11
-410.0
 21
-157.40000000002769
 31
0.0
  0
LINE
  5
AC
  8
DIMNSIONS
  6
CONTINUOUS
 62
     7
 10
-319.30236076367038
 20
-150.90000000002769
 30
0.0
 11
-410.0
 21
-150.90000000002769
 31
0.0
  0
LINE
  5
AD
  8
DIMNSIONS
  6
CONTINUOUS
 62
     7
 10
-400.0
 20
-150.90000000002769
 30
0.0
 11
-400.0
 21
-157.40000000002769
 31
0.0
  0
LINE
  5
AE
  8
DIMNSIONS
  6
CONTINUOUS
 62
     7
 10
-400.0
 20
-157.40000000002769
 30
0.0
 11
-400.0
 21
-182.40000000002769
 31
0.0
  0
LINE
  5
AF
  8
DIMNSIONS
  6
CONTINUOUS
 62
     7
 10
-400.0
 20
-157.40000000002769
 30
0.0
 11
-396.6498010242488
 21
-169.9031127929965
 31
0.0
  0
LINE
  5
B0
  8
DIMNSIONS
  6
CONTINUOUS
 62
     7
 10
-400.0
 20
-157.40000000002769
 30
0.0
 11
-403.35019897575108
 21
-169.9031127929965
 31
0.0
  0
LINE
  5
B1
  8
DIMNSIONS
  6
CONTINUOUS
 62
     7
 10
-400.0
 20
-150.90000000002769
 30
0.0
 11
-400.0
 21
-116.1805555555555
 31
0.0
  0
LINE
  5
B2
  8
DIMNSIONS
  6
CONTINUOUS
 62
     7
 10
-400.0
 20
-150.90000000002769
 30
0.0
 11
-403.35019897575108
 21
-138.396887207059
 31
0.0
  0
LINE
  5
B3
  8
DIMNSIONS
  6
CONTINUOUS
 62
     7
 10
-400.0
 20
-150.90000000002769
 30
0.0
 11
-396.6498010242488
 21
-138.396887207059
 31
0.0
  0
TEXT
  5
B4
  8
DIMNSIONS
 62
     7
 10
-404.96944444444449
 20
-125.0
 30
0.0
 40
13.57367621527778
  1
7
 50
90.0
 41
0.7
 11
-418.54312065972221
 21
-125.0
 31
0.0
 73
     3
  0
LINE
  5
B5
  8
DIMNSIONS
  6
CONTINUOUS
 62
     7
 10
-347.0
 20
-157.40000000002769
 30
0.0
 11
-410.0
 21
-157.40000000002769
 31
0.0
  0
LINE
  5
B6
  8
DIMNSIONS
  6
CONTINUOUS
 62
     7
 10
-370.0
 20
-270.00000000002763
 30
0.0
 11
-410.0
 21
-270.00000000002763
 31
0.0
  0
LINE
  5
B7
  8
DIMNSIONS
  6
CONTINUOUS
 62
     7
 10
-400.0
 20
-157.40000000002769
 30
0.0
 11
-400.0
 21
-270.00000000002763
 31
0.0
  0
LINE
  5
B8
  8
DIMNSIONS
  6
CONTINUOUS
 62
     7
 10
-400.0
 20
-157.40000000002769
 30
0.0
 11
-396.6498010242488
 21
-169.9031127929965
 31
0.0
  0
LINE
  5
B9
  8
DIMNSIONS
  6
CONTINUOUS
 62
     7
 10
-400.0
 20
-157.40000000002769
 30
0.0
 11
-403.35019897575108
 21
-169.9031127929965
 31
0.0
  0
LINE
  5
BA
  8
DIMNSIONS
  6
CONTINUOUS
 62
     7
 10
-400.0
 20
-270.00000000002763
 30
0.0
 11
-403.35019897575108
 21
-257.49688720705888
 31
0.0
  0
LINE
  5
BB
  8
DIMNSIONS
  6
CONTINUOUS
 62
     7
 10
-400.0
 20
-270.00000000002763
 30
0.0
 11
-396.6498010242488
 21
-257.49688720705888
 31
0.0
  0
TEXT
  5
BC
  8
DIMNSIONS
 62
     7
 10
-404.96944444444449
 20
-226.92916666669441
 30
0.0
 40
13.57367621527778
  1
113
 50
90.0
 41
0.7
 11
-418.54312065972221
 21
-226.92916666669441
 31
0.0
 73
     3
  0
LINE
  5
BD
  8
DIMNSIONS
  6
CONTINUOUS
 62
     7
 10
-370.0
 20
-270.00000000002763
 30
0.0
 11
-385.0
 21
-270.00000000002763
 31
0.0
  0
LINE
  5
BE
  8
DIMNSIONS
  6
CONTINUOUS
 62
     7
 10
-370.0
 20
-267.00000000002763
 30
0.0
 11
-385.0
 21
-267.00000000002763
 31
0.0
  0
LINE
  5
BF
  8
DIMNSIONS
  6
CONTINUOUS
 62
     7
 10
-375.0
 20
-267.00000000002763
 30
0.0
 11
-375.0
 21
-270.00000000002763
 31
0.0
  0
LINE
  5
C0
  8
DIMNSIONS
  6
CONTINUOUS
 62
     7
 10
-375.0
 20
-270.00000000002763
 30
0.0
 11
-375.0
 21
-295.00000000002763
 31
0.0
  0
LINE
  5
C1
  8
DIMNSIONS
  6
CONTINUOUS
 62
     7
 10
-375.0
 20
-270.00000000002763
 30
0.0
 11
-371.6498010242488
 21
-282.50311279299638
 31
0.0
  0
LINE
  5
C2
  8
DIMNSIONS
  6
CONTINUOUS
 62
     7
 10
-375.0
 20
-270.00000000002763
 30
0.0
 11
-378.3501989757512
 21
-282.50311279299638
 31
0.0
  0
LINE
  5
C3
  8
DIMNSIONS
  6
CONTINUOUS
 62
     7
 10
-375.0
 20
-267.00000000002763
 30
0.0
 11
-375.0
 21
-241.1805555555556
 31
0.0
  0
LINE
  5
C4
  8
DIMNSIONS
  6
CONTINUOUS
 62
     7
 10
-375.0
 20
-267.00000000002763
 30
0.0
 11
-378.3501989757512
 21
-254.4968872070589
 31
0.0
  0
LINE
  5
C5
  8
DIMNSIONS
  6
CONTINUOUS
 62
     7
 10
-375.0
 20
-267.00000000002763
 30
0.0
 11
-371.6498010242488
 21
-254.4968872070589
 31
0.0
  0
TEXT
  5
C6
  8
DIMNSIONS
 62
     7
 10
-379.96944444444449
 20
-250.0
 30
0.0
 40
13.57367621527778
  1
3
 50
90.0
 41
0.7
 11
-393.54312065972232
 21
-250.0
 31
0.0
 73
     3
  0
LINE
  5
C7
  8
DIMNSIONS
  6
CONTINUOUS
 62
     7
 10
65.590323836487045
 20
-287.00000000002763
 30
0.0
 11
-410.0
 21
-287.00000000002763
 31
0.0
  0
LINE
  5
C8
  8
DIMNSIONS
  6
CONTINUOUS
 62
     7
 10
-370.0
 20
-270.00000000002763
 30
0.0
 11
-410.0
 21
-270.00000000002763
 31
0.0
  0
LINE
  5
C9
  8
DIMNSIONS
  6
CONTINUOUS
 62
     7
 10
-400.0
 20
-270.00000000002763
 30
0.0
 11
-400.0
 21
-287.00000000002763
 31
0.0
  0
LINE
  5
CA
  8
DIMNSIONS
  6
CONTINUOUS
 62
     7
 10
-400.0
 20
-287.00000000002763
 30
0.0
 11
-400.0
 21
-262.00000000002763
 31
0.0
  0
LINE
  5
CB
  8
DIMNSIONS
  6
CONTINUOUS
 62
     7
 10
-400.0
 20
-287.00000000002763
 30
0.0
 11
-403.35019897575108
 21
-274.49688720705888
 31
0.0
  0
LINE
  5
CC
  8
DIMNSIONS
  6
CONTINUOUS
 62
     7
 10
-400.0
 20
-287.00000000002763
 30
0.0
 11
-396.6498010242488
 21
-274.49688720705888
 31
0.0
  0
LINE
  5
CD
  8
DIMNSIONS
  6
CONTINUOUS
 62
     7
 10
-400.0
 20
-270.00000000002763
 30
0.0
 11
-400.0
 21
-317.63888888888891
 31
0.0
  0
LINE
  5
CE
  8
DIMNSIONS
  6
CONTINUOUS
 62
     7
 10
-400.0
 20
-270.00000000002763
 30
0.0
 11
-396.6498010242488
 21
-282.50311279299638
 31
0.0
  0
LINE
  5
CF
  8
DIMNSIONS
  6
CONTINUOUS
 62
     7
 10
-400.0
 20
-270.00000000002763
 30
0.0
 11
-403.35019897575108
 21
-282.50311279299638
 31
0.0
  0
TEXT
  5
D0
  8
DIMNSIONS
 62
     7
 10
-404.96944444444449
 20
-317.63888888888891
 30
0.0
 40
13.57367621527778
  1
17
 50
90.0
 41
0.7
 11
-418.54312065972221
 21
-317.63888888888891
 31
0.0
 73
     3
  0
LINE
  5
D1
  8
DIMNSIONS
  6
CONTINUOUS
 62
     7
 10
-370.0
 20
-430.0
 30
0.0
 11
-410.0
 21
-430.0
 31
0.0
  0
LINE
  5
D2
  8
DIMNSIONS
  6
CONTINUOUS
 62
     7
 10
-370.0
 20
-385.0
 30
0.0
 11
-410.0
 21
-385.0
 31
0.0
  0
LINE
  5
D3
  8
DIMNSIONS
  6
CONTINUOUS
 62
     7
 10
-400.0
 20
-430.0
 30
0.0
 11
-400.0
 21
-385.0
 31
0.0
  0
LINE
  5
D4
  8
DIMNSIONS
  6
CONTINUOUS
 62
     7
 10
-400.0
 20
-430.0
 30
0.0
 11
-403.35019897575108
 21
-417.49688720703119
 31
0.0
  0
LINE
  5
D5
  8
DIMNSIONS
  6
CONTINUOUS
 62
     7
 10
-400.0
 20
-430.0
 30
0.0
 11
-396.6498010242488
 21
-417.49688720703119
 31
0.0
  0
LINE
  5
D6
  8
DIMNSIONS
  6
CONTINUOUS
 62
     7
 10
-400.0
 20
-385.0
 30
0.0
 11
-396.6498010242488
 21
-397.50311279296881
 31
0.0
  0
LINE
  5
D7
  8
DIMNSIONS
  6
CONTINUOUS
 62
     7
 10
-400.0
 20
-385.0
 30
0.0
 11
-403.35019897575108
 21
-397.50311279296881
 31
0.0
  0
TEXT
  5
D8
  8
DIMNSIONS
 62
     7
 10
-404.96944444444449
 20
-416.31944444444451
 30
0.0
 40
13.57367621527778
  1
45
 50
90.0
 41
0.7
 11
-418.54312065972221
 21
-416.31944444444451
 31
0.0
 73
     3
  0
LINE
  5
D9
  8
DIMNSIONS
  6
CONTINUOUS
 62
     7
 10
-360.0
 20
-440.0
 30
0.0
 11
-360.0
 21
-485.0
 31
0.0
  0
LINE
  5
DA
  8
DIMNSIONS
  6
CONTINUOUS
 62
     7
 10
123.0
 20
-440.0
 30
0.0
 11
123.0
 21
-485.0
 31
0.0
  0
LINE
  5
DB
  8
DIMNSIONS
  6
CONTINUOUS
 62
     7
 10
-360.0
 20
-475.0
 30
0.0
 11
123.0
 21
-475.0
 31
0.0
  0
LINE
  5
DC
  8
DIMNSIONS
  6
CONTINUOUS
 62
     7
 10
-360.0
 20
-475.0
 30
0.0
 11
-347.49688720703119
 21
-471.6498010242488
 31
0.0
  0
LINE
  5
DD
  8
DIMNSIONS
  6
CONTINUOUS
 62
     7
 10
-360.0
 20
-475.0
 30
0.0
 11
-347.49688720703119
 21
-478.35019897575108
 31
0.0
  0
LINE
  5
DE
  8
DIMNSIONS
  6
CONTINUOUS
 62
     7
 10
123.0
 20
-475.0
 30
0.0
 11
110.49688720703119
 21
-478.35019897575108
 31
0.0
  0
LINE
  5
DF
  8
DIMNSIONS
  6
CONTINUOUS
 62
     7
 10
123.0
 20
-475.0
 30
0.0
 11
110.49688720703119
 21
-471.6498010242488
 31
0.0
  0
TEXT
  5
E0
  8
DIMNSIONS
 62
     7
 10
-131.7291666666666
 20
-470.03055555555551
 30
0.0
 40
13.57367621527778
  1
483
 41
0.7
 11
-131.7291666666666
 21
-456.45687934027768
 31
0.0
 73
     3
  0
TEXT
  5
E1
  8
DATA
 62
     7
 10
233.5088757718411
 20
-556.27224306791788
 30
0.0
 40
12.21630859375
  1
Lexicon
 41
0.7
 11
233.5088757718411
 21
-544.05593447416788
 31
0.0
 73
     3
  0
TEXT
  5
E2
  8
DATA
 62
     7
 10
224.6132894288298
 20
-592.54228566917709
 30
0.0
 40
12.21630859375
  1
MX 200
 41
0.7
 11
224.6132894288298
 21
-580.3259770754272
 31
0.0
 73
     3
  0
TEXT
  5
E3
  8
DATA
 62
     7
 10
224.55324444368591
 20
-571.90237302062962
 30
0.0
 40
9.5015733506944446
  1
2ch マルチエフェクタ 
 41
0.7
 11
224.55324444368591
 21
-562.40079966993517
 31
0.0
 73
     3
  0
POLYLINE
  5
E4
  8
DATA
  6
CONTINUOUS
 62
     7
 66
     1
 10
0.0
 20
0.0
 30
0.0
 70
     1
  0
VERTEX
  5
887
  8
DATA
  6
CONTINUOUS
 62
     7
 10
-360.0
 20
-385.0
 30
0.0
  0
VERTEX
  5
888
  8
DATA
  6
CONTINUOUS
 62
     7
 10
123.0
 20
-385.0
 30
0.0
  0
VERTEX
  5
889
  8
DATA
  6
CONTINUOUS
 62
     7
 10
123.0
 20
-430.0
 30
0.0
  0
VERTEX
  5
88A
  8
DATA
  6
CONTINUOUS
 62
     7
 10
-360.0
 20
-430.0
 30
0.0
  0
SEQEND
  5
88B
  8
DATA
  6
CONTINUOUS
 62
     7
  0
LINE
  5
EB
  8
DATA
  6
CONTINUOUS
 62
     7
 10
-337.0
 20
-157.40000000002769
 30
0.0
 11
100.0
 21
-157.40000000002769
 31
0.0
  0
POLYLINE
  5
EC
  8
DATA
  6
CONTINUOUS
 62
     7
 66
     1
 10
0.0
 20
0.0
 30
0.0
  0
VERTEX
  5
88C
  8
DATA
  6
CONTINUOUS
 62
     7
 10
123.0
 20
-267.00000000002763
 30
0.0
  0
VERTEX
  5
88D
  8
DATA
  6
CONTINUOUS
 62
     7
 10
123.0
 20
-270.00000000002763
 30
0.0
  0
VERTEX
  5
88E
  8
DATA
  6
CONTINUOUS
 62
     7
 10
-360.0
 20
-270.00000000002763
 30
0.0
  0
VERTEX
  5
88F
  8
DATA
  6
CONTINUOUS
 62
     7
 10
-360.0
 20
-267.00000000002763
 30
0.0
  0
SEQEND
  5
890
  8
DATA
  6
CONTINUOUS
 62
     7
  0
POLYLINE
  5
F3
  8
DATA
  6
CONTINUOUS
 62
     7
 66
     1
 10
0.0
 20
0.0
 30
0.0
 70
     1
  0
VERTEX
  5
891
  8
DATA
  6
CONTINUOUS
 62
     7
 10
-360.00000000003519
 20
25.00000000000562
 30
0.0
  0
VERTEX
  5
892
  8
DATA
  6
CONTINUOUS
 62
     7
 10
122.9999999999648
 20
25.00000000000562
 30
0.0
  0
VERTEX
  5
893
  8
DATA
  6
CONTINUOUS
 62
     7
 10
122.9999999999648
 20
-19.99999999999439
 30
0.0
  0
VERTEX
  5
894
  8
DATA
  6
CONTINUOUS
 62
     7
 10
-360.00000000003519
 20
-19.99999999999439
 30
0.0
  0
SEQEND
  5
895
  8
DATA
  6
CONTINUOUS
 62
     7
  0
INSERT
  5
FA
  8
DATA
 62
     7
  2
RACK___
 10
-351.0
 20
-391.59999999999991
 30
0.0
  0
INSERT
  5
FB
  8
DATA
 62
     7
  2
RACK___
 10
-351.0
 20
-423.39999999999992
 30
0.0
  0
INSERT
  5
FC
  8
DATA
 62
     7
  2
RACK___
 10
114.0
 20
-391.59999999999991
 30
0.0
  0
INSERT
  5
FD
  8
DATA
 62
     7
  2
RACK___
 10
114.0
 20
-423.39999999999992
 30
0.0
  0
INSERT
  5
FE
  8
DATA
 62
     7
  2
____-20
 10
-331.19999999999999
 20
-394.80000000000001
 30
0.0
  0
INSERT
  5
FF
  8
DATA
 62
     7
  2
____-20
 10
-331.19999999999999
 20
-420.19999999999987
 30
0.0
  0
INSERT
  5
100
  8
DATA
 62
     7
  2
____-20
 10
94.199999999999989
 20
-394.80000000000001
 30
0.0
  0
INSERT
  5
101
  8
DATA
 62
     7
  2
____-20
 10
94.199999999999989
 20
-420.19999999999987
 30
0.0
  0
ARC
  5
102
  8
DATA
  6
CONTINUOUS
 62
     7
 10
-310.0
 20
-415.0
 30
0.0
 40
5.9000000000000163
 50
94.763950297846606
 51
85.236049702151149
  0
ARC
  5
103
  8
DATA
  6
CONTINUOUS
 62
     7
 10
-310.0
 20
-415.0
 30
0.0
 40
8.6000000000000139
 50
93.266295856749039
 51
86.733704143249398
  0
ARC
  5
104
  8
DATA
  6
CONTINUOUS
 62
     7
 10
-310.0
 20
-415.0
 30
0.0
 40
9.4599999999999582
 50
92.969080444413365
 51
87.030919555585285
  0
LINE
  5
105
  8
DATA
  6
CONTINUOUS
 62
     7
 10
-310.4899999999999
 20
-415.0
 30
0.0
 11
-310.4899999999999
 21
-405.04000000000002
 31
0.0
  0
LINE
  5
106
  8
DATA
  6
CONTINUOUS
 62
     7
 10
-309.50999999999988
 20
-415.0
 30
0.0
 11
-309.50999999999988
 21
-405.04000000000002
 31
0.0
  0
LINE
  5
107
  8
DATA
  6
CONTINUOUS
 62
     7
 10
-310.4899999999999
 20
-405.04000000000002
 30
0.0
 11
-309.50999999999988
 21
-405.04000000000002
 31
0.0
  0
LINE
  5
108
  8
DATA
  6
CONTINUOUS
 62
     7
 10
-310.4899999999999
 20
-415.0
 30
0.0
 11
-309.50999999999988
 21
-415.0
 31
0.0
  0
ARC
  5
109
  8
DATA
  6
CONTINUOUS
 62
     7
 10
-286.0
 20
-415.0
 30
0.0
 40
5.9000000000000163
 50
94.763950297846606
 51
85.236049702151149
  0
ARC
  5
10A
  8
DATA
  6
CONTINUOUS
 62
     7
 10
-286.0
 20
-415.0
 30
0.0
 40
8.6000000000000139
 50
93.266295856749039
 51
86.733704143249398
  0
ARC
  5
10B
  8
DATA
  6
CONTINUOUS
 62
     7
 10
-286.0
 20
-415.0
 30
0.0
 40
9.4599999999999582
 50
92.969080444413365
 51
87.030919555585285
  0
LINE
  5
10C
  8
DATA
  6
CONTINUOUS
 62
     7
 10
-286.4899999999999
 20
-415.0
 30
0.0
 11
-286.4899999999999
 21
-405.04000000000002
 31
0.0
  0
LINE
  5
10D
  8
DATA
  6
CONTINUOUS
 62
     7
 10
-285.50999999999988
 20
-415.0
 30
0.0
 11
-285.50999999999988
 21
-405.04000000000002
 31
0.0
  0
LINE
  5
10E
  8
DATA
  6
CONTINUOUS
 62
     7
 10
-286.4899999999999
 20
-405.04000000000002
 30
0.0
 11
-285.50999999999988
 21
-405.04000000000002
 31
0.0
  0
LINE
  5
10F
  8
DATA
  6
CONTINUOUS
 62
     7
 10
-286.4899999999999
 20
-415.0
 30
0.0
 11
-285.50999999999988
 21
-415.0
 31
0.0
  0
ARC
  5
110
  8
DATA
  6
CONTINUOUS
 62
     7
 10
-262.0
 20
-415.0
 30
0.0
 40
5.9000000000000163
 50
94.763950297846606
 51
85.236049702151149
  0
ARC
  5
111
  8
DATA
  6
CONTINUOUS
 62
     7
 10
-262.0
 20
-415.0
 30
0.0
 40
8.6000000000000139
 50
93.266295856749039
 51
86.733704143249398
  0
ARC
  5
112
  8
DATA
  6
CONTINUOUS
 62
     7
 10
-262.0
 20
-415.0
 30
0.0
 40
9.4599999999999582
 50
92.969080444413365
 51
87.030919555585285
  0
LINE
  5
113
  8
DATA
  6
CONTINUOUS
 62
     7
 10
-262.4899999999999
 20
-415.0
 30
0.0
 11
-262.4899999999999
 21
-405.04000000000002
 31
0.0
  0
LINE
  5
114
  8
DATA
  6
CONTINUOUS
 62
     7
 10
-261.50999999999988
 20
-415.0
 30
0.0
 11
-261.50999999999988
 21
-405.04000000000002
 31
0.0
  0
LINE
  5
115
  8
DATA
  6
CONTINUOUS
 62
     7
 10
-262.4899999999999
 20
-405.04000000000002
 30
0.0
 11
-261.50999999999988
 21
-405.04000000000002
 31
0.0
  0
LINE
  5
116
  8
DATA
  6
CONTINUOUS
 62
     7
 10
-262.4899999999999
 20
-415.0
 30
0.0
 11
-261.50999999999988
 21
-415.0
 31
0.0
  0
ARC
  5
117
  8
DATA
  6
CONTINUOUS
 62
     7
 10
-118.9757747003833
 20
-415.0
 30
0.0
 40
5.9000000000000163
 50
94.763950297846606
 51
85.236049702151149
  0
ARC
  5
118
  8
DATA
  6
CONTINUOUS
 62
     7
 10
-118.9757747003833
 20
-415.0
 30
0.0
 40
8.6000000000000139
 50
93.266295856749039
 51
86.733704143249398
  0
ARC
  5
119
  8
DATA
  6
CONTINUOUS
 62
     7
 10
-118.9757747003833
 20
-415.0
 30
0.0
 40
9.4599999999999582
 50
92.969080444413365
 51
87.030919555585285
  0
LINE
  5
11A
  8
DATA
  6
CONTINUOUS
 62
     7
 10
-119.46577470038319
 20
-415.0
 30
0.0
 11
-119.46577470038319
 21
-405.04000000000002
 31
0.0
  0
LINE
  5
11B
  8
DATA
  6
CONTINUOUS
 62
     7
 10
-118.4857747003832
 20
-415.0
 30
0.0
 11
-118.4857747003832
 21
-405.04000000000002
 31
0.0
  0
LINE
  5
11C
  8
DATA
  6
CONTINUOUS
 62
     7
 10
-119.46577470038319
 20
-405.04000000000002
 30
0.0
 11
-118.4857747003832
 21
-405.04000000000002
 31
0.0
  0
LINE
  5
11D
  8
DATA
  6
CONTINUOUS
 62
     7
 10
-119.46577470038319
 20
-415.0
 30
0.0
 11
-118.4857747003832
 21
-415.0
 31
0.0
  0
ARC
  5
11E
  8
DATA
  6
CONTINUOUS
 62
     7
 10
-94.975774700383326
 20
-415.0
 30
0.0
 40
5.9000000000000163
 50
94.763950297846606
 51
85.236049702151149
  0
ARC
  5
11F
  8
DATA
  6
CONTINUOUS
 62
     7
 10
-94.975774700383326
 20
-415.0
 30
0.0
 40
8.6000000000000139
 50
93.266295856749039
 51
86.733704143249398
  0
ARC
  5
120
  8
DATA
  6
CONTINUOUS
 62
     7
 10
-95.102754282943749
 20
-415.0
 30
0.0
 40
9.4599999999999582
 50
92.969080444413365
 51
86.260524799475164
  0
LINE
  5
121
  8
DATA
  6
CONTINUOUS
 62
     7
 10
-95.465774700383221
 20
-415.0
 30
0.0
 11
-95.465774700383221
 21
-405.04000000000002
 31
0.0
  0
LINE
  5
122
  8
DATA
  6
CONTINUOUS
 62
     7
 10
-94.485774700383203
 20
-415.0
 30
0.0
 11
-94.485774700383203
 21
-405.04000000000002
 31
0.0
  0
LINE
  5
123
  8
DATA
  6
CONTINUOUS
 62
     7
 10
-95.465774700383221
 20
-405.04000000000002
 30
0.0
 11
-94.485774700383203
 21
-405.04000000000002
 31
0.0
  0
LINE
  5
124
  8
DATA
  6
CONTINUOUS
 62
     7
 10
-95.465774700383221
 20
-415.0
 30
0.0
 11
-94.485774700383203
 21
-415.0
 31
0.0
  0
ARC
  5
125
  8
DATA
  6
CONTINUOUS
 62
     7
 10
-70.975774700383326
 20
-415.0
 30
0.0
 40
5.9000000000000163
 50
94.763950297846606
 51
85.236049702151149
  0
ARC
  5
126
  8
DATA
  6
CONTINUOUS
 62
     7
 10
-70.975774700383326
 20
-415.0
 30
0.0
 40
8.6000000000000139
 50
93.266295856749039
 51
86.733704143249398
  0
ARC
  5
127
  8
DATA
  6
CONTINUOUS
 62
     7
 10
-70.975774700383326
 20
-415.0
 30
0.0
 40
9.4599999999999582
 50
92.969080444413365
 51
87.030919555585285
  0
LINE
  5
128
  8
DATA
  6
CONTINUOUS
 62
     7
 10
-71.465774700383221
 20
-415.0
 30
0.0
 11
-71.465774700383221
 21
-405.04000000000002
 31
0.0
  0
LINE
  5
129
  8
DATA
  6
CONTINUOUS
 62
     7
 10
-70.485774700383203
 20
-415.0
 30
0.0
 11
-70.485774700383203
 21
-405.04000000000002
 31
0.0
  0
LINE
  5
12A
  8
DATA
  6
CONTINUOUS
 62
     7
 10
-71.465774700383221
 20
-405.04000000000002
 30
0.0
 11
-70.485774700383203
 21
-405.04000000000002
 31
0.0
  0
LINE
  5
12B
  8
DATA
  6
CONTINUOUS
 62
     7
 10
-71.465774700383221
 20
-415.0
 30
0.0
 11
-70.485774700383203
 21
-415.0
 31
0.0
  0
ARC
  5
12C
  8
DATA
  6
CONTINUOUS
 62
     7
 10
-27.366120741290899
 20
-415.0
 30
0.0
 40
5.9000000000000163
 50
94.763950297846606
 51
85.236049702151149
  0
ARC
  5
12D
  8
DATA
  6
CONTINUOUS
 62
     7
 10
-27.366120741290899
 20
-415.0
 30
0.0
 40
8.6000000000000139
 50
93.266295856749039
 51
86.733704143249398
  0
ARC
  5
12E
  8
DATA
  6
CONTINUOUS
 62
     7
 10
-27.366120741290899
 20
-415.0
 30
0.0
 40
9.4599999999999582
 50
92.969080444413365
 51
87.030919555585285
  0
LINE
  5
12F
  8
DATA
  6
CONTINUOUS
 62
     7
 10
-27.856120741290798
 20
-415.0
 30
0.0
 11
-27.856120741290798
 21
-405.04000000000002
 31
0.0
  0
LINE
  5
130
  8
DATA
  6
CONTINUOUS
 62
     7
 10
-26.87612074129078
 20
-415.0
 30
0.0
 11
-26.87612074129078
 21
-405.04000000000002
 31
0.0
  0
LINE
  5
131
  8
DATA
  6
CONTINUOUS
 62
     7
 10
-27.856120741290798
 20
-405.04000000000002
 30
0.0
 11
-26.87612074129078
 21
-405.04000000000002
 31
0.0
  0
LINE
  5
132
  8
DATA
  6
CONTINUOUS
 62
     7
 10
-27.856120741290798
 20
-415.0
 30
0.0
 11
-26.87612074129078
 21
-415.0
 31
0.0
  0
ARC
  5
133
  8
DATA
  6
CONTINUOUS
 62
     7
 10
-3.3661207412909131
 20
-415.0
 30
0.0
 40
5.9000000000000163
 50
94.763950297846606
 51
85.236049702151149
  0
ARC
  5
134
  8
DATA
  6
CONTINUOUS
 62
     7
 10
-3.3661207412909131
 20
-415.0
 30
0.0
 40
8.6000000000000139
 50
93.266295856749039
 51
86.733704143249398
  0
ARC
  5
135
  8
DATA
  6
CONTINUOUS
 62
     7
 10
-3.3661207412909131
 20
-415.0
 30
0.0
 40
9.4599999999999582
 50
92.969080444413365
 51
87.030919555585285
  0
LINE
  5
136
  8
DATA
  6
CONTINUOUS
 62
     7
 10
-3.8561207412908081
 20
-415.0
 30
0.0
 11
-3.8561207412908081
 21
-405.04000000000002
 31
0.0
  0
LINE
  5
137
  8
DATA
  6
CONTINUOUS
 62
     7
 10
-2.8761207412907899
 20
-415.0
 30
0.0
 11
-2.8761207412907899
 21
-405.04000000000002
 31
0.0
  0
LINE
  5
138
  8
DATA
  6
CONTINUOUS
 62
     7
 10
-3.8561207412908081
 20
-405.04000000000002
 30
0.0
 11
-2.8761207412907899
 21
-405.04000000000002
 31
0.0
  0
LINE
  5
139
  8
DATA
  6
CONTINUOUS
 62
     7
 10
-3.8561207412908081
 20
-415.0
 30
0.0
 11
-2.8761207412907899
 21
-415.0
 31
0.0
  0
ARC
  5
13A
  8
DATA
  6
CONTINUOUS
 62
     7
 10
20.633879258709101
 20
-415.0
 30
0.0
 40
5.9000000000000163
 50
94.763950297846606
 51
85.236049702151149
  0
ARC
  5
13B
  8
DATA
  6
CONTINUOUS
 62
     7
 10
20.633879258709101
 20
-415.0
 30
0.0
 40
8.6000000000000139
 50
93.266295856749039
 51
86.733704143249398
  0
ARC
  5
13C
  8
DATA
  6
CONTINUOUS
 62
     7
 10
20.633879258709101
 20
-415.0
 30
0.0
 40
9.4599999999999582
 50
92.969080444413365
 51
87.030919555585285
  0
LINE
  5
13D
  8
DATA
  6
CONTINUOUS
 62
     7
 10
20.143879258709202
 20
-415.0
 30
0.0
 11
20.143879258709202
 21
-405.04000000000002
 31
0.0
  0
LINE
  5
13E
  8
DATA
  6
CONTINUOUS
 62
     7
 10
21.123879258709231
 20
-415.0
 30
0.0
 11
21.123879258709231
 21
-405.04000000000002
 31
0.0
  0
LINE
  5
13F
  8
DATA
  6
CONTINUOUS
 62
     7
 10
20.143879258709202
 20
-405.04000000000002
 30
0.0
 11
21.123879258709231
 21
-405.04000000000002
 31
0.0
  0
LINE
  5
140
  8
DATA
  6
CONTINUOUS
 62
     7
 10
20.143879258709202
 20
-415.0
 30
0.0
 11
21.123879258709231
 21
-415.0
 31
0.0
  0
CIRCLE
  5
141
  8
DATA
  6
CONTINUOUS
 62
     7
 10
75.590323836487045
 20
-412.97056671385212
 30
0.0
 40
13.25
  0
CIRCLE
  5
142
  8
DATA
  6
CONTINUOUS
 62
     7
 10
75.590323836487045
 20
-412.97056671385212
 30
0.0
 40
13.75
  0
CIRCLE
  5
143
  8
DATA
  6
CONTINUOUS
 62
     7
 10
75.590323836487045
 20
-412.97056671385212
 30
0.0
 40
10.5
  0
INSERT
  5
144
  8
DATA
 62
     7
  2
____-20
 10
-106.0
 20
-389.6727651591433
 30
0.0
  0
INSERT
  5
145
  8
DATA
 62
     7
  2
____-20
 10
-106.0
 20
-425.3272348408567
 30
0.0
  0
POLYLINE
  5
146
  8
DATA
  6
CONTINUOUS
 62
     7
 66
     1
 10
0.0
 20
0.0
 30
0.0
 70
   129
  0
VERTEX
  5
896
  8
DATA
  6
CONTINUOUS
 62
     7
 10
53.799999999999962
 20
-394.72319840146372
 30
0.0
 42
-0.4142135623731189
  0
VERTEX
  5
897
  8
DATA
  6
CONTINUOUS
 62
     7
 10
54.499999999999957
 20
-394.02319840146367
 30
0.0
  0
VERTEX
  5
898
  8
DATA
  6
CONTINUOUS
 62
     7
 10
63.299999999999997
 20
-394.02319840146367
 30
0.0
 42
-0.4142135623730773
  0
VERTEX
  5
899
  8
DATA
  6
CONTINUOUS
 62
     7
 10
64.0
 20
-394.72319840146372
 30
0.0
  0
VERTEX
  5
89A
  8
DATA
  6
CONTINUOUS
 62
     7
 10
64.0
 20
-398.24319840146381
 30
0.0
 42
-0.4142135623730951
  0
VERTEX
  5
89B
  8
DATA
  6
CONTINUOUS
 62
     7
 10
63.299999999999997
 20
-398.9431984014638
 30
0.0
  0
VERTEX
  5
89C
  8
DATA
  6
CONTINUOUS
 62
     7
 10
54.499999999999957
 20
-398.9431984014638
 30
0.0
 42
-0.4142135623731011
  0
VERTEX
  5
89D
  8
DATA
  6
CONTINUOUS
 62
     7
 10
53.799999999999962
 20
-398.24319840146381
 30
0.0
  0
SEQEND
  5
89E
  8
DATA
  6
CONTINUOUS
 62
     7
  0
POLYLINE
  5
150
  8
DATA
  6
CONTINUOUS
 62
     7
 66
     1
 10
0.0
 20
0.0
 30
0.0
 70
   129
  0
VERTEX
  5
89F
  8
DATA
  6
CONTINUOUS
 62
     7
 10
52.784999999999968
 20
-393.68319840146381
 30
0.0
 42
-0.4142135623731189
  0
VERTEX
  5
8A0
  8
DATA
  6
CONTINUOUS
 62
     7
 10
53.484999999999971
 20
-392.98319840146382
 30
0.0
  0
VERTEX
  5
8A1
  8
DATA
  6
CONTINUOUS
 62
     7
 10
64.314999999999984
 20
-392.98319840146382
 30
0.0
 42
-0.4142135623730773
  0
VERTEX
  5
8A2
  8
DATA
  6
CONTINUOUS
 62
     7
 10
65.014999999999986
 20
-393.68319840146381
 30
0.0
  0
VERTEX
  5
8A3
  8
DATA
  6
CONTINUOUS
 62
     7
 10
65.014999999999986
 20
-399.28319840146378
 30
0.0
 42
-0.4142135623731189
  0
VERTEX
  5
8A4
  8
DATA
  6
CONTINUOUS
 62
     7
 10
64.314999999999984
 20
-399.98319840146382
 30
0.0
  0
VERTEX
  5
8A5
  8
DATA
  6
CONTINUOUS
 62
     7
 10
53.484999999999971
 20
-399.98319840146382
 30
0.0
 42
-0.4142135623730773
  0
VERTEX
  5
8A6
  8
DATA
  6
CONTINUOUS
 62
     7
 10
52.784999999999968
 20
-399.28319840146378
 30
0.0
  0
SEQEND
  5
8A7
  8
DATA
  6
CONTINUOUS
 62
     7
  0
POLYLINE
  5
15A
  8
DATA
  6
CONTINUOUS
 62
     7
 66
     1
 10
0.0
 20
0.0
 30
0.0
 70
     1
  0
VERTEX
  5
8A8
  8
DATA
  6
CONTINUOUS
 62
     7
 10
-54.469360104638099
 20
-404.49999999999989
 30
0.0
  0
VERTEX
  5
8A9
  8
DATA
  6
CONTINUOUS
 62
     7
 10
-43.869360104638083
 20
-404.49999999999989
 30
0.0
  0
VERTEX
  5
8AA
  8
DATA
  6
CONTINUOUS
 62
     7
 10
-43.869360104638083
 20
-425.49999999999989
 30
0.0
  0
VERTEX
  5
8AB
  8
DATA
  6
CONTINUOUS
 62
     7
 10
-54.469360104638099
 20
-425.49999999999989
 30
0.0
  0
SEQEND
  5
8AC
  8
DATA
  6
CONTINUOUS
 62
     7
  0
POLYLINE
  5
161
  8
DATA
  6
CONTINUOUS
 62
     7
 66
     1
 10
0.0
 20
0.0
 30
0.0
 70
   129
  0
VERTEX
  5
8AD
  8
DATA
  6
CONTINUOUS
 62
     7
 10
-55.669360104638088
 20
-403.80000000000013
 30
0.0
 42
-0.4142135623731189
  0
VERTEX
  5
8AE
  8
DATA
  6
CONTINUOUS
 62
     7
 10
-54.969360104638092
 20
-403.10000000000002
 30
0.0
  0
VERTEX
  5
8AF
  8
DATA
  6
CONTINUOUS
 62
     7
 10
-43.369360104638091
 20
-403.10000000000002
 30
0.0
 42
-0.4142135623730773
  0
VERTEX
  5
8B0
  8
DATA
  6
CONTINUOUS
 62
     7
 10
-42.669360104638088
 20
-403.80000000000013
 30
0.0
  0
VERTEX
  5
8B1
  8
DATA
  6
CONTINUOUS
 62
     7
 10
-42.669360104638088
 20
-426.0
 30
0.0
 42
-0.4142135623730951
  0
VERTEX
  5
8B2
  8
DATA
  6
CONTINUOUS
 62
     7
 10
-43.369360104638091
 20
-426.7000000000001
 30
0.0
  0
VERTEX
  5
8B3
  8
DATA
  6
CONTINUOUS
 62
     7
 10
-54.969360104638092
 20
-426.7000000000001
 30
0.0
 42
-0.4142135623731011
  0
VERTEX
  5
8B4
  8
DATA
  6
CONTINUOUS
 62
     7
 10
-55.669360104638088
 20
-426.0
 30
0.0
  0
SEQEND
  5
8B5
  8
DATA
  6
CONTINUOUS
 62
     7
  0
LINE
  5
16B
  8
DATA
  6
CONTINUOUS
 62
     7
 10
-321.5
 20
-428.0
 30
0.0
 11
-108.8284271247461
 21
-428.0
 31
0.0
  0
LINE
  5
16C
  8
DATA
  6
CONTINUOUS
 62
     7
 10
-103.1715728752538
 20
-428.0
 30
0.0
 11
82.959437710269626
 21
-428.0
 31
0.0
  0
LINE
  5
16D
  8
DATA
  6
CONTINUOUS
 62
     7
 10
-321.5
 20
-428.0
 30
0.0
 11
-321.5
 21
-391.49900602370042
 31
0.0
  0
LINE
  5
16E
  8
DATA
  6
CONTINUOUS
 62
     7
 10
-51.319360104638143
 20
-408.90000000000009
 30
0.0
 11
-49.169360104638137
 21
-405.90000000000009
 31
0.0
  0
LINE
  5
16F
  8
DATA
  6
CONTINUOUS
 62
     7
 10
-47.019360104638139
 20
-408.90000000000009
 30
0.0
 11
-49.169360104638137
 21
-405.90000000000009
 31
0.0
  0
LINE
  5
170
  8
DATA
  6
CONTINUOUS
 62
     7
 10
-47.019360104638139
 20
-408.90000000000009
 30
0.0
 11
-51.319360104638143
 21
-408.90000000000009
 31
0.0
  0
LINE
  5
171
  8
DATA
  6
CONTINUOUS
 62
     7
 10
-51.319360104638143
 20
-421.09999999999991
 30
0.0
 11
-49.169360104638137
 21
-424.0999999999998
 31
0.0
  0
LINE
  5
172
  8
DATA
  6
CONTINUOUS
 62
     7
 10
-47.019360104638139
 20
-421.09999999999991
 30
0.0
 11
-49.169360104638137
 21
-424.0999999999998
 31
0.0
  0
LINE
  5
173
  8
DATA
  6
CONTINUOUS
 62
     7
 10
-47.019360104638139
 20
-421.09999999999991
 30
0.0
 11
-51.319360104638143
 21
-421.09999999999991
 31
0.0
  0
POLYLINE
  5
174
  8
DATA
  6
CONTINUOUS
 62
     7
 66
     1
 10
0.0
 20
0.0
 30
0.0
 70
     1
  0
VERTEX
  5
8B6
  8
DATA
  6
CONTINUOUS
 62
     7
 10
-144.7696774449191
 20
-404.49999999999989
 30
0.0
  0
VERTEX
  5
8B7
  8
DATA
  6
CONTINUOUS
 62
     7
 10
-134.16967744491899
 20
-404.49999999999989
 30
0.0
  0
VERTEX
  5
8B8
  8
DATA
  6
CONTINUOUS
 62
     7
 10
-134.16967744491899
 20
-425.49999999999989
 30
0.0
  0
VERTEX
  5
8B9
  8
DATA
  6
CONTINUOUS
 62
     7
 10
-144.7696774449191
 20
-425.49999999999989
 30
0.0
  0
SEQEND
  5
8BA
  8
DATA
  6
CONTINUOUS
 62
     7
  0
POLYLINE
  5
17B
  8
DATA
  6
CONTINUOUS
 62
     7
 66
     1
 10
0.0
 20
0.0
 30
0.0
 70
   129
  0
VERTEX
  5
8BB
  8
DATA
  6
CONTINUOUS
 62
     7
 10
-145.969677444919
 20
-403.80000000000013
 30
0.0
 42
-0.4142135623731189
  0
VERTEX
  5
8BC
  8
DATA
  6
CONTINUOUS
 62
     7
 10
-145.2696774449191
 20
-403.10000000000002
 30
0.0
  0
VERTEX
  5
8BD
  8
DATA
  6
CONTINUOUS
 62
     7
 10
-133.66967744491899
 20
-403.10000000000002
 30
0.0
 42
-0.4142135623730713
  0
VERTEX
  5
8BE
  8
DATA
  6
CONTINUOUS
 62
     7
 10
-132.969677444919
 20
-403.80000000000013
 30
0.0
  0
VERTEX
  5
8BF
  8
DATA
  6
CONTINUOUS
 62
     7
 10
-132.969677444919
 20
-426.0
 30
0.0
 42
-0.4142135623730951
  0
VERTEX
  5
8C0
  8
DATA
  6
CONTINUOUS
 62
     7
 10
-133.66967744491899
 20
-426.7000000000001
 30
0.0
  0
VERTEX
  5
8C1
  8
DATA
  6
CONTINUOUS
 62
     7
 10
-145.2696774449191
 20
-426.7000000000001
 30
0.0
 42
-0.4142135623730951
  0
VERTEX
  5
8C2
  8
DATA
  6
CONTINUOUS
 62
     7
 10
-145.969677444919
 20
-426.0
 30
0.0
  0
SEQEND
  5
8C3
  8
DATA
  6
CONTINUOUS
 62
     7
  0
LINE
  5
185
  8
DATA
  6
CONTINUOUS
 62
     7
 10
-141.61967744491909
 20
-408.90000000000009
 30
0.0
 11
-139.46967744491911
 21
-405.90000000000009
 31
0.0
  0
LINE
  5
186
  8
DATA
  6
CONTINUOUS
 62
     7
 10
-137.31967744491911
 20
-408.90000000000009
 30
0.0
 11
-139.46967744491911
 21
-405.90000000000009
 31
0.0
  0
LINE
  5
187
  8
DATA
  6
CONTINUOUS
 62
     7
 10
-137.31967744491911
 20
-408.90000000000009
 30
0.0
 11
-141.61967744491909
 21
-408.90000000000009
 31
0.0
  0
LINE
  5
188
  8
DATA
  6
CONTINUOUS
 62
     7
 10
-141.61967744491909
 20
-421.09999999999991
 30
0.0
 11
-139.46967744491911
 21
-424.0999999999998
 31
0.0
  0
LINE
  5
189
  8
DATA
  6
CONTINUOUS
 62
     7
 10
-137.31967744491911
 20
-421.09999999999991
 30
0.0
 11
-139.46967744491911
 21
-424.0999999999998
 31
0.0
  0
LINE
  5
18A
  8
DATA
  6
CONTINUOUS
 62
     7
 10
-137.31967744491911
 20
-421.09999999999991
 30
0.0
 11
-141.61967744491909
 21
-421.09999999999991
 31
0.0
  0
TEXT
  5
18B
  8
DATA
 62
     7
 10
-358.80000000000001
 20
-412.80540026632423
 30
0.0
 40
4.072102864583333
  1
MX200
 41
0.7
 11
-358.80000000000001
 21
-408.73329740174091
 31
0.0
 73
     3
  0
TEXT
  5
18C
  8
DATA
 62
     7
 10
-345.07832222952601
 20
-410.35473859904749
 30
0.0
 40
2.1162109375
  1
Dual Reverb
 41
0.7
 11
-345.07832222952601
 21
-408.23852766154749
 31
0.0
 73
     3
  0
TEXT
  5
18D
  8
DATA
 62
     7
 10
-345.07832222952601
 20
-413.10473859904749
 30
0.0
 40
2.1162109375
  1
Effects Processor
 41
0.7
 11
-345.07832222952601
 21
-410.98852766154761
 31
0.0
 73
     3
  0
TEXT
  5
18E
  8
DATA
 62
     7
 10
-313.80000000000013
 20
-404.29413994994047
 30
0.0
 40
2.30859375
  1
input
 41
0.7
 11
-313.80000000000013
 21
-401.98554619994042
 31
0.0
 73
     3
  0
TEXT
  5
18F
  8
DATA
 62
     7
 10
-288.97893437987909
 20
-404.64525094584877
 30
0.0
 40
2.30859375
  1
Mix 1
 41
0.7
 11
-288.97893437987909
 21
-402.33665719584877
 31
0.0
 73
     3
  0
TEXT
  5
190
  8
DATA
 62
     7
 10
-265.62660769456818
 20
-404.73412250721191
 30
0.0
 40
2.30859375
  1
Mix 2
 41
0.7
 11
-265.62660769456818
 21
-402.42552875721191
 31
0.0
 73
     3
  0
LINE
  5
191
  8
DATA
  6
CONTINUOUS
 62
     7
 10
-321.5
 20
-391.49900602370042
 30
0.0
 11
-321.5
 21
-388.5
 31
0.0
  0
LINE
  5
192
  8
DATA
  6
CONTINUOUS
 62
     7
 10
-321.5
 20
-388.5
 30
0.0
 11
-108.8284271247461
 21
-388.5
 31
0.0
  0
LINE
  5
193
  8
DATA
  6
CONTINUOUS
 62
     7
 10
-103.1715728752538
 20
-388.5
 30
0.0
 11
87.0
 21
-388.5
 31
0.0
  0
LINE
  5
194
  8
DATA
  6
CONTINUOUS
 62
     7
 10
33.0
 20
-428.0
 30
0.0
 11
33.0
 21
-388.5
 31
0.0
  0
LINE
  5
195
  8
DATA
  6
CONTINUOUS
 62
     7
 10
-150.0
 20
-428.0
 30
0.0
 11
-150.0
 21
-388.44247021253648
 31
0.0
  0
POLYLINE
  5
196
  8
DATA
  6
CONTINUOUS
 62
     7
 66
     1
 10
0.0
 20
0.0
 30
0.0
 70
     1
  0
VERTEX
  5
8C4
  8
DATA
  6
CONTINUOUS
 62
     7
 10
-317.03794151453923
 20
-392.55000000000001
 30
0.0
  0
VERTEX
  5
8C5
  8
DATA
  6
CONTINUOUS
 62
     7
 10
-315.13794151453908
 20
-392.55000000000001
 30
0.0
  0
VERTEX
  5
8C6
  8
DATA
  6
CONTINUOUS
 62
     7
 10
-315.13794151453908
 20
-394.44999999999999
 30
0.0
  0
VERTEX
  5
8C7
  8
DATA
  6
CONTINUOUS
 62
     7
 10
-317.03794151453923
 20
-394.44999999999999
 30
0.0
  0
SEQEND
  5
8C8
  8
DATA
  6
CONTINUOUS
 62
     7
  0
POLYLINE
  5
19D
  8
DATA
  6
CONTINUOUS
 62
     7
 66
     1
 10
0.0
 20
0.0
 30
0.0
 70
     1
  0
VERTEX
  5
8C9
  8
DATA
  6
CONTINUOUS
 62
     7
 10
-317.037941514539
 20
-399.05000000000001
 30
0.0
  0
VERTEX
  5
8CA
  8
DATA
  6
CONTINUOUS
 62
     7
 10
-315.13794151453908
 20
-399.05000000000001
 30
0.0
  0
VERTEX
  5
8CB
  8
DATA
  6
CONTINUOUS
 62
     7
 10
-315.13794151453908
 20
-400.94999999999999
 30
0.0
  0
VERTEX
  5
8CC
  8
DATA
  6
CONTINUOUS
 62
     7
 10
-317.037941514539
 20
-400.94999999999999
 30
0.0
  0
SEQEND
  5
8CD
  8
DATA
  6
CONTINUOUS
 62
     7
  0
POLYLINE
  5
1A4
  8
DATA
  6
CONTINUOUS
 62
     7
 66
     1
 10
0.0
 20
0.0
 30
0.0
 70
     1
  0
VERTEX
  5
8CE
  8
DATA
  6
CONTINUOUS
 62
     7
 10
-313.03794151453923
 20
-392.55000000000001
 30
0.0
  0
VERTEX
  5
8CF
  8
DATA
  6
CONTINUOUS
 62
     7
 10
-311.13794151453908
 20
-392.55000000000001
 30
0.0
  0
VERTEX
  5
8D0
  8
DATA
  6
CONTINUOUS
 62
     7
 10
-311.13794151453908
 20
-394.44999999999999
 30
0.0
  0
VERTEX
  5
8D1
  8
DATA
  6
CONTINUOUS
 62
     7
 10
-313.03794151453923
 20
-394.44999999999999
 30
0.0
  0
SEQEND
  5
8D2
  8
DATA
  6
CONTINUOUS
 62
     7
  0
POLYLINE
  5
1AB
  8
DATA
  6
CONTINUOUS
 62
     7
 66
     1
 10
0.0
 20
0.0
 30
0.0
 70
     1
  0
VERTEX
  5
8D3
  8
DATA
  6
CONTINUOUS
 62
     7
 10
-313.037941514539
 20
-399.05000000000001
 30
0.0
  0
VERTEX
  5
8D4
  8
DATA
  6
CONTINUOUS
 62
     7
 10
-311.13794151453908
 20
-399.05000000000001
 30
0.0
  0
VERTEX
  5
8D5
  8
DATA
  6
CONTINUOUS
 62
     7
 10
-311.13794151453908
 20
-400.94999999999999
 30
0.0
  0
VERTEX
  5
8D6
  8
DATA
  6
CONTINUOUS
 62
     7
 10
-313.037941514539
 20
-400.94999999999999
 30
0.0
  0
SEQEND
  5
8D7
  8
DATA
  6
CONTINUOUS
 62
     7
  0
POLYLINE
  5
1B2
  8
DATA
  6
CONTINUOUS
 62
     7
 66
     1
 10
0.0
 20
0.0
 30
0.0
 70
     1
  0
VERTEX
  5
8D8
  8
DATA
  6
CONTINUOUS
 62
     7
 10
-309.03794151453923
 20
-392.55000000000001
 30
0.0
  0
VERTEX
  5
8D9
  8
DATA
  6
CONTINUOUS
 62
     7
 10
-307.13794151453908
 20
-392.55000000000001
 30
0.0
  0
VERTEX
  5
8DA
  8
DATA
  6
CONTINUOUS
 62
     7
 10
-307.13794151453908
 20
-394.44999999999999
 30
0.0
  0
VERTEX
  5
8DB
  8
DATA
  6
CONTINUOUS
 62
     7
 10
-309.03794151453923
 20
-394.44999999999999
 30
0.0
  0
SEQEND
  5
8DC
  8
DATA
  6
CONTINUOUS
 62
     7
  0
POLYLINE
  5
1B9
  8
DATA
  6
CONTINUOUS
 62
     7
 66
     1
 10
0.0
 20
0.0
 30
0.0
 70
     1
  0
VERTEX
  5
8DD
  8
DATA
  6
CONTINUOUS
 62
     7
 10
-309.037941514539
 20
-399.05000000000001
 30
0.0
  0
VERTEX
  5
8DE
  8
DATA
  6
CONTINUOUS
 62
     7
 10
-307.13794151453908
 20
-399.05000000000001
 30
0.0
  0
VERTEX
  5
8DF
  8
DATA
  6
CONTINUOUS
 62
     7
 10
-307.13794151453908
 20
-400.94999999999999
 30
0.0
  0
VERTEX
  5
8E0
  8
DATA
  6
CONTINUOUS
 62
     7
 10
-309.037941514539
 20
-400.94999999999999
 30
0.0
  0
SEQEND
  5
8E1
  8
DATA
  6
CONTINUOUS
 62
     7
  0
POLYLINE
  5
1C0
  8
DATA
  6
CONTINUOUS
 62
     7
 66
     1
 10
0.0
 20
0.0
 30
0.0
 70
     1
  0
VERTEX
  5
8E2
  8
DATA
  6
CONTINUOUS
 62
     7
 10
-305.03794151453923
 20
-392.55000000000001
 30
0.0
  0
VERTEX
  5
8E3
  8
DATA
  6
CONTINUOUS
 62
     7
 10
-303.13794151453908
 20
-392.55000000000001
 30
0.0
  0
VERTEX
  5
8E4
  8
DATA
  6
CONTINUOUS
 62
     7
 10
-303.13794151453908
 20
-394.44999999999999
 30
0.0
  0
VERTEX
  5
8E5
  8
DATA
  6
CONTINUOUS
 62
     7
 10
-305.03794151453923
 20
-394.44999999999999
 30
0.0
  0
SEQEND
  5
8E6
  8
DATA
  6
CONTINUOUS
 62
     7
  0
POLYLINE
  5
1C7
  8
DATA
  6
CONTINUOUS
 62
     7
 66
     1
 10
0.0
 20
0.0
 30
0.0
 70
     1
  0
VERTEX
  5
8E7
  8
DATA
  6
CONTINUOUS
 62
     7
 10
-305.037941514539
 20
-399.05000000000001
 30
0.0
  0
VERTEX
  5
8E8
  8
DATA
  6
CONTINUOUS
 62
     7
 10
-303.13794151453908
 20
-399.05000000000001
 30
0.0
  0
VERTEX
  5
8E9
  8
DATA
  6
CONTINUOUS
 62
     7
 10
-303.13794151453908
 20
-400.94999999999999
 30
0.0
  0
VERTEX
  5
8EA
  8
DATA
  6
CONTINUOUS
 62
     7
 10
-305.037941514539
 20
-400.94999999999999
 30
0.0
  0
SEQEND
  5
8EB
  8
DATA
  6
CONTINUOUS
 62
     7
  0
TEXT
  5
1CE
  8
DATA
 62
     7
 10
-319.67474491239591
 20
-394.59111513766351
 30
0.0
 40
2.30859375
  1
L
 41
0.7
 11
-319.67474491239591
 21
-392.28252138766351
 31
0.0
 73
     3
  0
TEXT
  5
1CF
  8
DATA
 62
     7
 10
-319.7282798998811
 20
-400.99413994994052
 30
0.0
 40
2.30859375
  1
R
 41
0.7
 11
-319.7282798998811
 21
-398.68554619994052
 31
0.0
 73
     3
  0
TEXT
  5
1D0
  8
DATA
 62
     7
 10
-317.9100947872472
 20
-397.50586005005943
 30
0.0
 40
1.5390625
  1
-24
 41
0.7
 11
-317.9100947872472
 21
-395.96679755005943
 31
0.0
 73
     3
  0
TEXT
  5
1D1
  8
DATA
 62
     7
 10
-313.54646501251489
 20
-397.55939503754462
 30
0.0
 40
1.5390625
  1
-12
 41
0.7
 11
-313.54646501251489
 21
-396.02033253754462
 31
0.0
 73
     3
  0
TEXT
  5
1D2
  8
DATA
 62
     7
 10
-309.04646501251489
 20
-397.48413994994058
 30
0.0
 40
1.5390625
  1
-6
 41
0.7
 11
-309.04646501251489
 21
-395.94507744994058
 31
0.0
 73
     3
  0
TEXT
  5
1D3
  8
DATA
 62
     7
 10
-304.52303630178642
 20
-397.45939503754482
 30
0.0
 40
1.5390625
  1
0
 41
0.7
 11
-304.52303630178642
 21
-395.92033253754482
 31
0.0
 73
     3
  0
POLYLINE
  5
1D4
  8
DATA
  6
CONTINUOUS
 62
     7
 66
     1
 10
0.0
 20
0.0
 30
0.0
 70
     1
  0
VERTEX
  5
8EC
  8
DATA
  6
CONTINUOUS
 62
     7
 10
-287.12278121418171
 20
-395.01910199174711
 30
0.0
  0
VERTEX
  5
8ED
  8
DATA
  6
CONTINUOUS
 62
     7
 10
-285.22278121418162
 20
-395.01910199174711
 30
0.0
  0
VERTEX
  5
8EE
  8
DATA
  6
CONTINUOUS
 62
     7
 10
-285.22278121418162
 20
-396.91910199174703
 30
0.0
  0
VERTEX
  5
8EF
  8
DATA
  6
CONTINUOUS
 62
     7
 10
-287.12278121418171
 20
-396.91910199174703
 30
0.0
  0
SEQEND
  5
8F0
  8
DATA
  6
CONTINUOUS
 62
     7
  0
POLYLINE
  5
1DB
  8
DATA
  6
CONTINUOUS
 62
     7
 66
     1
 10
0.0
 20
0.0
 30
0.0
 70
     1
  0
VERTEX
  5
8F1
  8
DATA
  6
CONTINUOUS
 62
     7
 10
-283.12278121418171
 20
-395.01910199174711
 30
0.0
  0
VERTEX
  5
8F2
  8
DATA
  6
CONTINUOUS
 62
     7
 10
-281.22278121418162
 20
-395.01910199174711
 30
0.0
  0
VERTEX
  5
8F3
  8
DATA
  6
CONTINUOUS
 62
     7
 10
-281.22278121418162
 20
-396.91910199174703
 30
0.0
  0
VERTEX
  5
8F4
  8
DATA
  6
CONTINUOUS
 62
     7
 10
-283.12278121418171
 20
-396.91910199174703
 30
0.0
  0
SEQEND
  5
8F5
  8
DATA
  6
CONTINUOUS
 62
     7
  0
POLYLINE
  5
1E2
  8
DATA
  6
CONTINUOUS
 62
     7
 66
     1
 10
0.0
 20
0.0
 30
0.0
 70
     1
  0
VERTEX
  5
8F6
  8
DATA
  6
CONTINUOUS
 62
     7
 10
-279.12278121418171
 20
-395.01910199174711
 30
0.0
  0
VERTEX
  5
8F7
  8
DATA
  6
CONTINUOUS
 62
     7
 10
-277.22278121418162
 20
-395.01910199174711
 30
0.0
  0
VERTEX
  5
8F8
  8
DATA
  6
CONTINUOUS
 62
     7
 10
-277.22278121418162
 20
-396.91910199174703
 30
0.0
  0
VERTEX
  5
8F9
  8
DATA
  6
CONTINUOUS
 62
     7
 10
-279.12278121418171
 20
-396.91910199174703
 30
0.0
  0
SEQEND
  5
8FA
  8
DATA
  6
CONTINUOUS
 62
     7
  0
POLYLINE
  5
1E9
  8
DATA
  6
CONTINUOUS
 62
     7
 66
     1
 10
0.0
 20
0.0
 30
0.0
 70
     1
  0
VERTEX
  5
8FB
  8
DATA
  6
CONTINUOUS
 62
     7
 10
-275.1227812141816
 20
-395.01910199174711
 30
0.0
  0
VERTEX
  5
8FC
  8
DATA
  6
CONTINUOUS
 62
     7
 10
-273.22278121418162
 20
-395.01910199174711
 30
0.0
  0
VERTEX
  5
8FD
  8
DATA
  6
CONTINUOUS
 62
     7
 10
-273.22278121418162
 20
-396.91910199174703
 30
0.0
  0
VERTEX
  5
8FE
  8
DATA
  6
CONTINUOUS
 62
     7
 10
-275.1227812141816
 20
-396.91910199174703
 30
0.0
  0
SEQEND
  5
8FF
  8
DATA
  6
CONTINUOUS
 62
     7
  0
POLYLINE
  5
1F0
  8
DATA
  6
CONTINUOUS
 62
     7
 66
     1
 10
0.0
 20
0.0
 30
0.0
 70
     1
  0
VERTEX
  5
900
  8
DATA
  6
CONTINUOUS
 62
     7
 10
-296.0803613643605
 20
-395.05000000000001
 30
0.0
  0
VERTEX
  5
901
  8
DATA
  6
CONTINUOUS
 62
     7
 10
-294.18036136436041
 20
-395.05000000000001
 30
0.0
  0
VERTEX
  5
902
  8
DATA
  6
CONTINUOUS
 62
     7
 10
-294.18036136436041
 20
-396.94999999999999
 30
0.0
  0
VERTEX
  5
903
  8
DATA
  6
CONTINUOUS
 62
     7
 10
-296.0803613643605
 20
-396.94999999999999
 30
0.0
  0
SEQEND
  5
904
  8
DATA
  6
CONTINUOUS
 62
     7
  0
POLYLINE
  5
1F7
  8
DATA
  6
CONTINUOUS
 62
     7
 66
     1
 10
0.0
 20
0.0
 30
0.0
 70
     1
  0
VERTEX
  5
905
  8
DATA
  6
CONTINUOUS
 62
     7
 10
-296.0803613643605
 20
-406.11018220017718
 30
0.0
  0
VERTEX
  5
906
  8
DATA
  6
CONTINUOUS
 62
     7
 10
-294.18036136436041
 20
-406.11018220017718
 30
0.0
  0
VERTEX
  5
907
  8
DATA
  6
CONTINUOUS
 62
     7
 10
-294.18036136436041
 20
-408.0101822001771
 30
0.0
  0
VERTEX
  5
908
  8
DATA
  6
CONTINUOUS
 62
     7
 10
-296.0803613643605
 20
-408.0101822001771
 30
0.0
  0
SEQEND
  5
909
  8
DATA
  6
CONTINUOUS
 62
     7
  0
POLYLINE
  5
1FE
  8
DATA
  6
CONTINUOUS
 62
     7
 66
     1
 10
0.0
 20
0.0
 30
0.0
 70
     1
  0
VERTEX
  5
90A
  8
DATA
  6
CONTINUOUS
 62
     7
 10
-271.09036136436038
 20
-406.11018220017718
 30
0.0
  0
VERTEX
  5
90B
  8
DATA
  6
CONTINUOUS
 62
     7
 10
-269.1903613643604
 20
-406.11018220017718
 30
0.0
  0
VERTEX
  5
90C
  8
DATA
  6
CONTINUOUS
 62
     7
 10
-269.1903613643604
 20
-408.0101822001771
 30
0.0
  0
VERTEX
  5
90D
  8
DATA
  6
CONTINUOUS
 62
     7
 10
-271.09036136436038
 20
-408.0101822001771
 30
0.0
  0
SEQEND
  5
90E
  8
DATA
  6
CONTINUOUS
 62
     7
  0
TEXT
  5
205
  8
DATA
 62
     7
 10
-267.26197819168459
 20
-391.87201455212249
 30
0.0
 40
2.30859375
  1
Routing
 41
0.7
 11
-267.26197819168459
 21
-389.56342080212249
 31
0.0
 73
     3
  0
TEXT
  5
206
  8
DATA
 62
     7
 10
-286.92193729918318
 20
-391.79382973352921
 30
0.0
 40
2.30859375
  1
1
 41
0.7
 11
-286.92193729918318
 21
-389.48523598352921
 31
0.0
 73
     3
  0
TEXT
  5
207
  8
DATA
 62
     7
 10
-282.9089437026729
 20
-391.79669180959172
 30
0.0
 40
2.30859375
  1
2
 41
0.7
 11
-282.9089437026729
 21
-389.48809805959172
 31
0.0
 73
     3
  0
TEXT
  5
208
  8
DATA
 62
     7
 10
-278.95038767779943
 20
-391.79433572222757
 30
0.0
 40
2.30859375
  1
3
 41
0.7
 11
-278.95038767779943
 21
-389.48574197222757
 31
0.0
 73
     3
  0
TEXT
  5
209
  8
DATA
 62
     7
 10
-274.95894370267303
 20
-391.77999999999997
 30
0.0
 40
2.30859375
  1
4
 41
0.7
 11
-274.95894370267303
 21
-389.47140624999997
 31
0.0
 73
     3
  0
TEXT
  5
20A
  8
DATA
 62
     7
 10
-299.7662681347486
 20
-391.54993035078638
 30
0.0
 40
2.30859375
  1
Digital
 41
0.7
 11
-299.7662681347486
 21
-389.24133660078638
 31
0.0
 73
     3
  0
TEXT
  5
20B
  8
DATA
 62
     7
 10
-299.7662681347486
 20
-394.54993035078638
 30
0.0
 40
2.30859375
  1
  in
 41
0.7
 11
-299.7662681347486
 21
-392.24133660078638
 31
0.0
 73
     3
  0
TEXT
  5
20C
  8
DATA
 62
     7
 10
-295.72521183742163
 20
-424.60401335188652
 30
0.0
 40
2.1162109375
  1
Dry
 41
0.7
 11
-295.72521183742163
 21
-422.48780241438652
 31
0.0
 73
     3
  0
TEXT
  5
20D
  8
DATA
 62
     7
 10
-279.54957632515692
 20
-424.92190075723249
 30
0.0
 40
2.1162109375
  1
Wet
 41
0.7
 11
-279.54957632515692
 21
-422.80568981973249
 31
0.0
 73
     3
  0
TEXT
  5
20E
  8
DATA
 62
     7
 10
-271.86591988868059
 20
-424.60401335188652
 30
0.0
 40
2.1162109375
  1
Dry
 41
0.7
 11
-271.86591988868059
 21
-422.48780241438652
 31
0.0
 73
     3
  0
TEXT
  5
20F
  8
DATA
 62
     7
 10
-255.69028437641609
 20
-424.92190075723249
 30
0.0
 40
2.1162109375
  1
Wet
 41
0.7
 11
-255.69028437641609
 21
-422.80568981973249
 31
0.0
 73
     3
  0
TEXT
  5
210
  8
DATA
 62
     7
 10
-320.18227881448132
 20
-388.1331635565561
 30
0.0
 40
2.30859375
  1
INPUT/ROUTING
 41
0.7
 11
-320.18227881448132
 21
-385.8245698065561
 31
0.0
 73
     3
  0
LINE
  5
211
  8
DATA
  6
CONTINUOUS
 62
     7
 10
-249.49999999999969
 20
-388.5
 30
0.0
 11
-249.49999999999969
 21
-428.0
 31
0.0
  0
LINE
  5
212
  8
DATA
  6
CONTINUOUS
 62
     7
 10
-199.74999999999989
 20
-428.0
 30
0.0
 11
-199.74999999999989
 21
-388.5
 31
0.0
  0
LINE
  5
213
  8
DATA
  6
CONTINUOUS
 62
     7
 10
-174.87499999999989
 20
-426.2000000000001
 30
0.0
 11
-174.87499999999989
 21
-391.5
 31
0.0
  0
LINE
  5
214
  8
DATA
  6
CONTINUOUS
 62
     7
 10
-224.6249999999998
 20
-426.2000000000001
 30
0.0
 11
-224.6249999999998
 21
-391.5
 31
0.0
  0
LINE
  5
215
  8
DATA
  6
CONTINUOUS
 62
     7
 10
-224.6249999999998
 20
-392.2000000000001
 30
0.0
 11
-224.6249999999998
 21
-391.5
 31
0.0
  0
POLYLINE
  5
216
  8
DATA
  6
CONTINUOUS
 62
     7
 66
     1
 10
0.0
 20
0.0
 30
0.0
 70
     1
  0
VERTEX
  5
90F
  8
DATA
  6
CONTINUOUS
 62
     7
 10
-246.9499999999997
 20
-423.94999999999987
 30
0.0
  0
VERTEX
  5
910
  8
DATA
  6
CONTINUOUS
 62
     7
 10
-245.0499999999997
 20
-423.94999999999987
 30
0.0
  0
VERTEX
  5
911
  8
DATA
  6
CONTINUOUS
 62
     7
 10
-245.0499999999997
 20
-425.85000000000002
 30
0.0
  0
VERTEX
  5
912
  8
DATA
  6
CONTINUOUS
 62
     7
 10
-246.9499999999997
 20
-425.85000000000002
 30
0.0
  0
SEQEND
  5
913
  8
DATA
  6
CONTINUOUS
 62
     7
  0
POLYLINE
  5
21D
  8
DATA
  6
CONTINUOUS
 62
     7
 66
     1
 10
0.0
 20
0.0
 30
0.0
 70
     1
  0
VERTEX
  5
914
  8
DATA
  6
CONTINUOUS
 62
     7
 10
-246.9499999999997
 20
-420.14999999999998
 30
0.0
  0
VERTEX
  5
915
  8
DATA
  6
CONTINUOUS
 62
     7
 10
-245.0499999999997
 20
-420.14999999999998
 30
0.0
  0
VERTEX
  5
916
  8
DATA
  6
CONTINUOUS
 62
     7
 10
-245.0499999999997
 20
-422.05000000000001
 30
0.0
  0
VERTEX
  5
917
  8
DATA
  6
CONTINUOUS
 62
     7
 10
-246.9499999999997
 20
-422.05000000000001
 30
0.0
  0
SEQEND
  5
918
  8
DATA
  6
CONTINUOUS
 62
     7
  0
POLYLINE
  5
224
  8
DATA
  6
CONTINUOUS
 62
     7
 66
     1
 10
0.0
 20
0.0
 30
0.0
 70
     1
  0
VERTEX
  5
919
  8
DATA
  6
CONTINUOUS
 62
     7
 10
-246.9499999999997
 20
-416.34999999999991
 30
0.0
  0
VERTEX
  5
91A
  8
DATA
  6
CONTINUOUS
 62
     7
 10
-245.0499999999997
 20
-416.34999999999991
 30
0.0
  0
VERTEX
  5
91B
  8
DATA
  6
CONTINUOUS
 62
     7
 10
-245.0499999999997
 20
-418.25
 30
0.0
  0
VERTEX
  5
91C
  8
DATA
  6
CONTINUOUS
 62
     7
 10
-246.9499999999997
 20
-418.25
 30
0.0
  0
SEQEND
  5
91D
  8
DATA
  6
CONTINUOUS
 62
     7
  0
POLYLINE
  5
22B
  8
DATA
  6
CONTINUOUS
 62
     7
 66
     1
 10
0.0
 20
0.0
 30
0.0
 70
     1
  0
VERTEX
  5
91E
  8
DATA
  6
CONTINUOUS
 62
     7
 10
-246.9499999999997
 20
-412.55000000000001
 30
0.0
  0
VERTEX
  5
91F
  8
DATA
  6
CONTINUOUS
 62
     7
 10
-245.0499999999997
 20
-412.55000000000001
 30
0.0
  0
VERTEX
  5
920
  8
DATA
  6
CONTINUOUS
 62
     7
 10
-245.0499999999997
 20
-414.44999999999987
 30
0.0
  0
VERTEX
  5
921
  8
DATA
  6
CONTINUOUS
 62
     7
 10
-246.9499999999997
 20
-414.44999999999987
 30
0.0
  0
SEQEND
  5
922
  8
DATA
  6
CONTINUOUS
 62
     7
  0
POLYLINE
  5
232
  8
DATA
  6
CONTINUOUS
 62
     7
 66
     1
 10
0.0
 20
0.0
 30
0.0
 70
     1
  0
VERTEX
  5
923
  8
DATA
  6
CONTINUOUS
 62
     7
 10
-246.9499999999997
 20
-408.75
 30
0.0
  0
VERTEX
  5
924
  8
DATA
  6
CONTINUOUS
 62
     7
 10
-245.0499999999997
 20
-408.75
 30
0.0
  0
VERTEX
  5
925
  8
DATA
  6
CONTINUOUS
 62
     7
 10
-245.0499999999997
 20
-410.64999999999992
 30
0.0
  0
VERTEX
  5
926
  8
DATA
  6
CONTINUOUS
 62
     7
 10
-246.9499999999997
 20
-410.64999999999992
 30
0.0
  0
SEQEND
  5
927
  8
DATA
  6
CONTINUOUS
 62
     7
  0
POLYLINE
  5
239
  8
DATA
  6
CONTINUOUS
 62
     7
 66
     1
 10
0.0
 20
0.0
 30
0.0
 70
     1
  0
VERTEX
  5
928
  8
DATA
  6
CONTINUOUS
 62
     7
 10
-246.9499999999997
 20
-404.94999999999999
 30
0.0
  0
VERTEX
  5
929
  8
DATA
  6
CONTINUOUS
 62
     7
 10
-245.0499999999997
 20
-404.94999999999999
 30
0.0
  0
VERTEX
  5
92A
  8
DATA
  6
CONTINUOUS
 62
     7
 10
-245.0499999999997
 20
-406.85000000000002
 30
0.0
  0
VERTEX
  5
92B
  8
DATA
  6
CONTINUOUS
 62
     7
 10
-246.9499999999997
 20
-406.85000000000002
 30
0.0
  0
SEQEND
  5
92C
  8
DATA
  6
CONTINUOUS
 62
     7
  0
POLYLINE
  5
240
  8
DATA
  6
CONTINUOUS
 62
     7
 66
     1
 10
0.0
 20
0.0
 30
0.0
 70
     1
  0
VERTEX
  5
92D
  8
DATA
  6
CONTINUOUS
 62
     7
 10
-246.9499999999997
 20
-401.14999999999992
 30
0.0
  0
VERTEX
  5
92E
  8
DATA
  6
CONTINUOUS
 62
     7
 10
-245.0499999999997
 20
-401.14999999999992
 30
0.0
  0
VERTEX
  5
92F
  8
DATA
  6
CONTINUOUS
 62
     7
 10
-245.0499999999997
 20
-403.0499999999999
 30
0.0
  0
VERTEX
  5
930
  8
DATA
  6
CONTINUOUS
 62
     7
 10
-246.9499999999997
 20
-403.0499999999999
 30
0.0
  0
SEQEND
  5
931
  8
DATA
  6
CONTINUOUS
 62
     7
  0
POLYLINE
  5
247
  8
DATA
  6
CONTINUOUS
 62
     7
 66
     1
 10
0.0
 20
0.0
 30
0.0
 70
     1
  0
VERTEX
  5
932
  8
DATA
  6
CONTINUOUS
 62
     7
 10
-246.9499999999997
 20
-397.35000000000008
 30
0.0
  0
VERTEX
  5
933
  8
DATA
  6
CONTINUOUS
 62
     7
 10
-245.0499999999997
 20
-397.35000000000008
 30
0.0
  0
VERTEX
  5
934
  8
DATA
  6
CONTINUOUS
 62
     7
 10
-245.0499999999997
 20
-399.25
 30
0.0
  0
VERTEX
  5
935
  8
DATA
  6
CONTINUOUS
 62
     7
 10
-246.9499999999997
 20
-399.25
 30
0.0
  0
SEQEND
  5
936
  8
DATA
  6
CONTINUOUS
 62
     7
  0
POLYLINE
  5
24E
  8
DATA
  6
CONTINUOUS
 62
     7
 66
     1
 10
0.0
 20
0.0
 30
0.0
 70
     1
  0
VERTEX
  5
937
  8
DATA
  6
CONTINUOUS
 62
     7
 10
-229.06999999999971
 20
-423.94999999999987
 30
0.0
  0
VERTEX
  5
938
  8
DATA
  6
CONTINUOUS
 62
     7
 10
-227.1699999999997
 20
-423.94999999999987
 30
0.0
  0
VERTEX
  5
939
  8
DATA
  6
CONTINUOUS
 62
     7
 10
-227.1699999999997
 20
-425.85000000000002
 30
0.0
  0
VERTEX
  5
93A
  8
DATA
  6
CONTINUOUS
 62
     7
 10
-229.06999999999971
 20
-425.85000000000002
 30
0.0
  0
SEQEND
  5
93B
  8
DATA
  6
CONTINUOUS
 62
     7
  0
POLYLINE
  5
255
  8
DATA
  6
CONTINUOUS
 62
     7
 66
     1
 10
0.0
 20
0.0
 30
0.0
 70
     1
  0
VERTEX
  5
93C
  8
DATA
  6
CONTINUOUS
 62
     7
 10
-229.06999999999971
 20
-420.14999999999998
 30
0.0
  0
VERTEX
  5
93D
  8
DATA
  6
CONTINUOUS
 62
     7
 10
-227.1699999999997
 20
-420.14999999999998
 30
0.0
  0
VERTEX
  5
93E
  8
DATA
  6
CONTINUOUS
 62
     7
 10
-227.1699999999997
 20
-422.05000000000001
 30
0.0
  0
VERTEX
  5
93F
  8
DATA
  6
CONTINUOUS
 62
     7
 10
-229.06999999999971
 20
-422.05000000000001
 30
0.0
  0
SEQEND
  5
940
  8
DATA
  6
CONTINUOUS
 62
     7
  0
POLYLINE
  5
25C
  8
DATA
  6
CONTINUOUS
 62
     7
 66
     1
 10
0.0
 20
0.0
 30
0.0
 70
     1
  0
VERTEX
  5
941
  8
DATA
  6
CONTINUOUS
 62
     7
 10
-229.06999999999971
 20
-416.34999999999991
 30
0.0
  0
VERTEX
  5
942
  8
DATA
  6
CONTINUOUS
 62
     7
 10
-227.1699999999997
 20
-416.34999999999991
 30
0.0
  0
VERTEX
  5
943
  8
DATA
  6
CONTINUOUS
 62
     7
 10
-227.1699999999997
 20
-418.25
 30
0.0
  0
VERTEX
  5
944
  8
DATA
  6
CONTINUOUS
 62
     7
 10
-229.06999999999971
 20
-418.25
 30
0.0
  0
SEQEND
  5
945
  8
DATA
  6
CONTINUOUS
 62
     7
  0
POLYLINE
  5
263
  8
DATA
  6
CONTINUOUS
 62
     7
 66
     1
 10
0.0
 20
0.0
 30
0.0
 70
     1
  0
VERTEX
  5
946
  8
DATA
  6
CONTINUOUS
 62
     7
 10
-229.06999999999971
 20
-412.55000000000001
 30
0.0
  0
VERTEX
  5
947
  8
DATA
  6
CONTINUOUS
 62
     7
 10
-227.1699999999997
 20
-412.55000000000001
 30
0.0
  0
VERTEX
  5
948
  8
DATA
  6
CONTINUOUS
 62
     7
 10
-227.1699999999997
 20
-414.44999999999987
 30
0.0
  0
VERTEX
  5
949
  8
DATA
  6
CONTINUOUS
 62
     7
 10
-229.06999999999971
 20
-414.44999999999987
 30
0.0
  0
SEQEND
  5
94A
  8
DATA
  6
CONTINUOUS
 62
     7
  0
POLYLINE
  5
26A
  8
DATA
  6
CONTINUOUS
 62
     7
 66
     1
 10
0.0
 20
0.0
 30
0.0
 70
     1
  0
VERTEX
  5
94B
  8
DATA
  6
CONTINUOUS
 62
     7
 10
-229.06999999999971
 20
-408.75
 30
0.0
  0
VERTEX
  5
94C
  8
DATA
  6
CONTINUOUS
 62
     7
 10
-227.1699999999997
 20
-408.75
 30
0.0
  0
VERTEX
  5
94D
  8
DATA
  6
CONTINUOUS
 62
     7
 10
-227.1699999999997
 20
-410.64999999999992
 30
0.0
  0
VERTEX
  5
94E
  8
DATA
  6
CONTINUOUS
 62
     7
 10
-229.06999999999971
 20
-410.64999999999992
 30
0.0
  0
SEQEND
  5
94F
  8
DATA
  6
CONTINUOUS
 62
     7
  0
POLYLINE
  5
271
  8
DATA
  6
CONTINUOUS
 62
     7
 66
     1
 10
0.0
 20
0.0
 30
0.0
 70
     1
  0
VERTEX
  5
950
  8
DATA
  6
CONTINUOUS
 62
     7
 10
-229.06999999999971
 20
-404.94999999999999
 30
0.0
  0
VERTEX
  5
951
  8
DATA
  6
CONTINUOUS
 62
     7
 10
-227.1699999999997
 20
-404.94999999999999
 30
0.0
  0
VERTEX
  5
952
  8
DATA
  6
CONTINUOUS
 62
     7
 10
-227.1699999999997
 20
-406.85000000000002
 30
0.0
  0
VERTEX
  5
953
  8
DATA
  6
CONTINUOUS
 62
     7
 10
-229.06999999999971
 20
-406.85000000000002
 30
0.0
  0
SEQEND
  5
954
  8
DATA
  6
CONTINUOUS
 62
     7
  0
POLYLINE
  5
278
  8
DATA
  6
CONTINUOUS
 62
     7
 66
     1
 10
0.0
 20
0.0
 30
0.0
 70
     1
  0
VERTEX
  5
955
  8
DATA
  6
CONTINUOUS
 62
     7
 10
-229.06999999999971
 20
-401.14999999999992
 30
0.0
  0
VERTEX
  5
956
  8
DATA
  6
CONTINUOUS
 62
     7
 10
-227.1699999999997
 20
-401.14999999999992
 30
0.0
  0
VERTEX
  5
957
  8
DATA
  6
CONTINUOUS
 62
     7
 10
-227.1699999999997
 20
-403.0499999999999
 30
0.0
  0
VERTEX
  5
958
  8
DATA
  6
CONTINUOUS
 62
     7
 10
-229.06999999999971
 20
-403.0499999999999
 30
0.0
  0
SEQEND
  5
959
  8
DATA
  6
CONTINUOUS
 62
     7
  0
POLYLINE
  5
27F
  8
DATA
  6
CONTINUOUS
 62
     7
 66
     1
 10
0.0
 20
0.0
 30
0.0
 70
     1
  0
VERTEX
  5
95A
  8
DATA
  6
CONTINUOUS
 62
     7
 10
-229.06999999999971
 20
-397.35000000000008
 30
0.0
  0
VERTEX
  5
95B
  8
DATA
  6
CONTINUOUS
 62
     7
 10
-227.1699999999997
 20
-397.35000000000008
 30
0.0
  0
VERTEX
  5
95C
  8
DATA
  6
CONTINUOUS
 62
     7
 10
-227.1699999999997
 20
-399.25
 30
0.0
  0
VERTEX
  5
95D
  8
DATA
  6
CONTINUOUS
 62
     7
 10
-229.06999999999971
 20
-399.25
 30
0.0
  0
SEQEND
  5
95E
  8
DATA
  6
CONTINUOUS
 62
     7
  0
TEXT
  5
286
  8
DATA
 62
     7
 10
-246.7500000103478
 20
-394.9014356835724
 30
0.0
 40
2.30859375
  1
1
 41
0.7
 11
-246.7500000103478
 21
-392.5928419335724
 31
0.0
 73
     3
  0
TEXT
  5
287
  8
DATA
 62
     7
 10
-228.87788099983899
 20
-394.91779614503218
 30
0.0
 40
2.30859375
  1
2
 41
0.7
 11
-228.87788099983899
 21
-392.60920239503218
 31
0.0
 73
     3
  0
TEXT
  5
288
  8
DATA
 62
     7
 10
-243.0365016146024
 20
-399.22937298174691
 30
0.0
 40
1.923828125
  1
Small Hall
 41
0.7
 11
-243.0365016146024
 21
-397.30554485674691
 31
0.0
 73
     3
  0
TEXT
  5
289
  8
DATA
 62
     7
 10
-242.67937298174701
 20
-403.02937298174692
 30
0.0
 40
1.923828125
  1
Large Hall
 41
0.7
 11
-242.67937298174701
 21
-401.10554485674692
 31
0.0
 73
     3
  0
TEXT
  5
28A
  8
DATA
 62
     7
 10
-243.66825080730121
 20
-406.83412540365049
 30
0.0
 40
1.923828125
  1
Small Plate
 41
0.7
 11
-243.66825080730121
 21
-404.91029727865049
 31
0.0
 73
     3
  0
TEXT
  5
28B
  8
DATA
 62
     7
 10
-243.66986813793969
 20
-410.55000000000001
 30
0.0
 40
1.923828125
  1
Large Plate
 41
0.7
 11
-243.66986813793969
 21
-408.62617187500001
 31
0.0
 73
     3
  0
TEXT
  5
28C
  8
DATA
 62
     7
 10
-239.5746205598434
 20
-414.48650161460228
 30
0.0
 40
1.923828125
  1
Room
 41
0.7
 11
-239.5746205598434
 21
-412.56267348960228
 31
0.0
 73
     3
  0
TEXT
  5
28D
  8
DATA
 62
     7
 10
-241.33174919269879
 20
-418.36587459634927
 30
0.0
 40
1.923828125
  1
Chamber
 41
0.7
 11
-241.33174919269879
 21
-416.44204647134939
 31
0.0
 73
     3
  0
TEXT
  5
28E
  8
DATA
 62
     7
 10
-240.10636975254221
 20
-422.03412540365048
 30
0.0
 40
1.923828125
  1
Gated
 41
0.7
 11
-240.10636975254221
 21
-420.11029727865059
 31
0.0
 73
     3
  0
TEXT
  5
28F
  8
DATA
 62
     7
 10
-241.19999999999999
 20
-425.52937298174692
 30
0.0
 40
1.923828125
  1
Reverse
 41
0.7
 11
-241.19999999999999
 21
-423.6055448567468
 31
0.0
 73
     3
  0
POLYLINE
  5
290
  8
DATA
  6
CONTINUOUS
 62
     7
 66
     1
 10
0.0
 20
0.0
 30
0.0
 70
     1
  0
VERTEX
  5
95F
  8
DATA
  6
CONTINUOUS
 62
     7
 10
-222.06999999999971
 20
-423.94999999999987
 30
0.0
  0
VERTEX
  5
960
  8
DATA
  6
CONTINUOUS
 62
     7
 10
-220.1699999999997
 20
-423.94999999999987
 30
0.0
  0
VERTEX
  5
961
  8
DATA
  6
CONTINUOUS
 62
     7
 10
-220.1699999999997
 20
-425.85000000000002
 30
0.0
  0
VERTEX
  5
962
  8
DATA
  6
CONTINUOUS
 62
     7
 10
-222.06999999999971
 20
-425.85000000000002
 30
0.0
  0
SEQEND
  5
963
  8
DATA
  6
CONTINUOUS
 62
     7
  0
POLYLINE
  5
297
  8
DATA
  6
CONTINUOUS
 62
     7
 66
     1
 10
0.0
 20
0.0
 30
0.0
 70
     1
  0
VERTEX
  5
964
  8
DATA
  6
CONTINUOUS
 62
     7
 10
-222.06999999999971
 20
-420.14999999999998
 30
0.0
  0
VERTEX
  5
965
  8
DATA
  6
CONTINUOUS
 62
     7
 10
-220.1699999999997
 20
-420.14999999999998
 30
0.0
  0
VERTEX
  5
966
  8
DATA
  6
CONTINUOUS
 62
     7
 10
-220.1699999999997
 20
-422.05000000000001
 30
0.0
  0
VERTEX
  5
967
  8
DATA
  6
CONTINUOUS
 62
     7
 10
-222.06999999999971
 20
-422.05000000000001
 30
0.0
  0
SEQEND
  5
968
  8
DATA
  6
CONTINUOUS
 62
     7
  0
POLYLINE
  5
29E
  8
DATA
  6
CONTINUOUS
 62
     7
 66
     1
 10
0.0
 20
0.0
 30
0.0
 70
     1
  0
VERTEX
  5
969
  8
DATA
  6
CONTINUOUS
 62
     7
 10
-222.06999999999971
 20
-416.34999999999991
 30
0.0
  0
VERTEX
  5
96A
  8
DATA
  6
CONTINUOUS
 62
     7
 10
-220.1699999999997
 20
-416.34999999999991
 30
0.0
  0
VERTEX
  5
96B
  8
DATA
  6
CONTINUOUS
 62
     7
 10
-220.1699999999997
 20
-418.25
 30
0.0
  0
VERTEX
  5
96C
  8
DATA
  6
CONTINUOUS
 62
     7
 10
-222.06999999999971
 20
-418.25
 30
0.0
  0
SEQEND
  5
96D
  8
DATA
  6
CONTINUOUS
 62
     7
  0
POLYLINE
  5
2A5
  8
DATA
  6
CONTINUOUS
 62
     7
 66
     1
 10
0.0
 20
0.0
 30
0.0
 70
     1
  0
VERTEX
  5
96E
  8
DATA
  6
CONTINUOUS
 62
     7
 10
-222.06999999999971
 20
-412.55000000000001
 30
0.0
  0
VERTEX
  5
96F
  8
DATA
  6
CONTINUOUS
 62
     7
 10
-220.1699999999997
 20
-412.55000000000001
 30
0.0
  0
VERTEX
  5
970
  8
DATA
  6
CONTINUOUS
 62
     7
 10
-220.1699999999997
 20
-414.44999999999987
 30
0.0
  0
VERTEX
  5
971
  8
DATA
  6
CONTINUOUS
 62
     7
 10
-222.06999999999971
 20
-414.44999999999987
 30
0.0
  0
SEQEND
  5
972
  8
DATA
  6
CONTINUOUS
 62
     7
  0
POLYLINE
  5
2AC
  8
DATA
  6
CONTINUOUS
 62
     7
 66
     1
 10
0.0
 20
0.0
 30
0.0
 70
     1
  0
VERTEX
  5
973
  8
DATA
  6
CONTINUOUS
 62
     7
 10
-222.06999999999971
 20
-408.75
 30
0.0
  0
VERTEX
  5
974
  8
DATA
  6
CONTINUOUS
 62
     7
 10
-220.1699999999997
 20
-408.75
 30
0.0
  0
VERTEX
  5
975
  8
DATA
  6
CONTINUOUS
 62
     7
 10
-220.1699999999997
 20
-410.64999999999992
 30
0.0
  0
VERTEX
  5
976
  8
DATA
  6
CONTINUOUS
 62
     7
 10
-222.06999999999971
 20
-410.64999999999992
 30
0.0
  0
SEQEND
  5
977
  8
DATA
  6
CONTINUOUS
 62
     7
  0
POLYLINE
  5
2B3
  8
DATA
  6
CONTINUOUS
 62
     7
 66
     1
 10
0.0
 20
0.0
 30
0.0
 70
     1
  0
VERTEX
  5
978
  8
DATA
  6
CONTINUOUS
 62
     7
 10
-222.06999999999971
 20
-404.94999999999999
 30
0.0
  0
VERTEX
  5
979
  8
DATA
  6
CONTINUOUS
 62
     7
 10
-220.1699999999997
 20
-404.94999999999999
 30
0.0
  0
VERTEX
  5
97A
  8
DATA
  6
CONTINUOUS
 62
     7
 10
-220.1699999999997
 20
-406.85000000000002
 30
0.0
  0
VERTEX
  5
97B
  8
DATA
  6
CONTINUOUS
 62
     7
 10
-222.06999999999971
 20
-406.85000000000002
 30
0.0
  0
SEQEND
  5
97C
  8
DATA
  6
CONTINUOUS
 62
     7
  0
POLYLINE
  5
2BA
  8
DATA
  6
CONTINUOUS
 62
     7
 66
     1
 10
0.0
 20
0.0
 30
0.0
 70
     1
  0
VERTEX
  5
97D
  8
DATA
  6
CONTINUOUS
 62
     7
 10
-222.06999999999971
 20
-401.14999999999992
 30
0.0
  0
VERTEX
  5
97E
  8
DATA
  6
CONTINUOUS
 62
     7
 10
-220.1699999999997
 20
-401.14999999999992
 30
0.0
  0
VERTEX
  5
97F
  8
DATA
  6
CONTINUOUS
 62
     7
 10
-220.1699999999997
 20
-403.0499999999999
 30
0.0
  0
VERTEX
  5
980
  8
DATA
  6
CONTINUOUS
 62
     7
 10
-222.06999999999971
 20
-403.0499999999999
 30
0.0
  0
SEQEND
  5
981
  8
DATA
  6
CONTINUOUS
 62
     7
  0
POLYLINE
  5
2C1
  8
DATA
  6
CONTINUOUS
 62
     7
 66
     1
 10
0.0
 20
0.0
 30
0.0
 70
     1
  0
VERTEX
  5
982
  8
DATA
  6
CONTINUOUS
 62
     7
 10
-222.06999999999971
 20
-397.35000000000008
 30
0.0
  0
VERTEX
  5
983
  8
DATA
  6
CONTINUOUS
 62
     7
 10
-220.1699999999997
 20
-397.35000000000008
 30
0.0
  0
VERTEX
  5
984
  8
DATA
  6
CONTINUOUS
 62
     7
 10
-220.1699999999997
 20
-399.25
 30
0.0
  0
VERTEX
  5
985
  8
DATA
  6
CONTINUOUS
 62
     7
 10
-222.06999999999971
 20
-399.25
 30
0.0
  0
SEQEND
  5
986
  8
DATA
  6
CONTINUOUS
 62
     7
  0
POLYLINE
  5
2C8
  8
DATA
  6
CONTINUOUS
 62
     7
 66
     1
 10
0.0
 20
0.0
 30
0.0
 70
     1
  0
VERTEX
  5
987
  8
DATA
  6
CONTINUOUS
 62
     7
 10
-204.18999999999971
 20
-423.94999999999987
 30
0.0
  0
VERTEX
  5
988
  8
DATA
  6
CONTINUOUS
 62
     7
 10
-202.28999999999971
 20
-423.94999999999987
 30
0.0
  0
VERTEX
  5
989
  8
DATA
  6
CONTINUOUS
 62
     7
 10
-202.28999999999971
 20
-425.85000000000002
 30
0.0
  0
VERTEX
  5
98A
  8
DATA
  6
CONTINUOUS
 62
     7
 10
-204.18999999999971
 20
-425.85000000000002
 30
0.0
  0
SEQEND
  5
98B
  8
DATA
  6
CONTINUOUS
 62
     7
  0
POLYLINE
  5
2CF
  8
DATA
  6
CONTINUOUS
 62
     7
 66
     1
 10
0.0
 20
0.0
 30
0.0
 70
     1
  0
VERTEX
  5
98C
  8
DATA
  6
CONTINUOUS
 62
     7
 10
-204.18999999999971
 20
-420.14999999999998
 30
0.0
  0
VERTEX
  5
98D
  8
DATA
  6
CONTINUOUS
 62
     7
 10
-202.28999999999971
 20
-420.14999999999998
 30
0.0
  0
VERTEX
  5
98E
  8
DATA
  6
CONTINUOUS
 62
     7
 10
-202.28999999999971
 20
-422.05000000000001
 30
0.0
  0
VERTEX
  5
98F
  8
DATA
  6
CONTINUOUS
 62
     7
 10
-204.18999999999971
 20
-422.05000000000001
 30
0.0
  0
SEQEND
  5
990
  8
DATA
  6
CONTINUOUS
 62
     7
  0
POLYLINE
  5
2D6
  8
DATA
  6
CONTINUOUS
 62
     7
 66
     1
 10
0.0
 20
0.0
 30
0.0
 70
     1
  0
VERTEX
  5
991
  8
DATA
  6
CONTINUOUS
 62
     7
 10
-204.18999999999971
 20
-416.34999999999991
 30
0.0
  0
VERTEX
  5
992
  8
DATA
  6
CONTINUOUS
 62
     7
 10
-202.28999999999971
 20
-416.34999999999991
 30
0.0
  0
VERTEX
  5
993
  8
DATA
  6
CONTINUOUS
 62
     7
 10
-202.28999999999971
 20
-418.25
 30
0.0
  0
VERTEX
  5
994
  8
DATA
  6
CONTINUOUS
 62
     7
 10
-204.18999999999971
 20
-418.25
 30
0.0
  0
SEQEND
  5
995
  8
DATA
  6
CONTINUOUS
 62
     7
  0
POLYLINE
  5
2DD
  8
DATA
  6
CONTINUOUS
 62
     7
 66
     1
 10
0.0
 20
0.0
 30
0.0
 70
     1
  0
VERTEX
  5
996
  8
DATA
  6
CONTINUOUS
 62
     7
 10
-204.18999999999971
 20
-412.55000000000001
 30
0.0
  0
VERTEX
  5
997
  8
DATA
  6
CONTINUOUS
 62
     7
 10
-202.28999999999971
 20
-412.55000000000001
 30
0.0
  0
VERTEX
  5
998
  8
DATA
  6
CONTINUOUS
 62
     7
 10
-202.28999999999971
 20
-414.44999999999987
 30
0.0
  0
VERTEX
  5
999
  8
DATA
  6
CONTINUOUS
 62
     7
 10
-204.18999999999971
 20
-414.44999999999987
 30
0.0
  0
SEQEND
  5
99A
  8
DATA
  6
CONTINUOUS
 62
     7
  0
POLYLINE
  5
2E4
  8
DATA
  6
CONTINUOUS
 62
     7
 66
     1
 10
0.0
 20
0.0
 30
0.0
 70
     1
  0
VERTEX
  5
99B
  8
DATA
  6
CONTINUOUS
 62
     7
 10
-204.18999999999971
 20
-408.75
 30
0.0
  0
VERTEX
  5
99C
  8
DATA
  6
CONTINUOUS
 62
     7
 10
-202.28999999999971
 20
-408.75
 30
0.0
  0
VERTEX
  5
99D
  8
DATA
  6
CONTINUOUS
 62
     7
 10
-202.28999999999971
 20
-410.64999999999992
 30
0.0
  0
VERTEX
  5
99E
  8
DATA
  6
CONTINUOUS
 62
     7
 10
-204.18999999999971
 20
-410.64999999999992
 30
0.0
  0
SEQEND
  5
99F
  8
DATA
  6
CONTINUOUS
 62
     7
  0
POLYLINE
  5
2EB
  8
DATA
  6
CONTINUOUS
 62
     7
 66
     1
 10
0.0
 20
0.0
 30
0.0
 70
     1
  0
VERTEX
  5
9A0
  8
DATA
  6
CONTINUOUS
 62
     7
 10
-204.18999999999971
 20
-404.94999999999999
 30
0.0
  0
VERTEX
  5
9A1
  8
DATA
  6
CONTINUOUS
 62
     7
 10
-202.28999999999971
 20
-404.94999999999999
 30
0.0
  0
VERTEX
  5
9A2
  8
DATA
  6
CONTINUOUS
 62
     7
 10
-202.28999999999971
 20
-406.85000000000002
 30
0.0
  0
VERTEX
  5
9A3
  8
DATA
  6
CONTINUOUS
 62
     7
 10
-204.18999999999971
 20
-406.85000000000002
 30
0.0
  0
SEQEND
  5
9A4
  8
DATA
  6
CONTINUOUS
 62
     7
  0
POLYLINE
  5
2F2
  8
DATA
  6
CONTINUOUS
 62
     7
 66
     1
 10
0.0
 20
0.0
 30
0.0
 70
     1
  0
VERTEX
  5
9A5
  8
DATA
  6
CONTINUOUS
 62
     7
 10
-204.18999999999971
 20
-401.14999999999992
 30
0.0
  0
VERTEX
  5
9A6
  8
DATA
  6
CONTINUOUS
 62
     7
 10
-202.28999999999971
 20
-401.14999999999992
 30
0.0
  0
VERTEX
  5
9A7
  8
DATA
  6
CONTINUOUS
 62
     7
 10
-202.28999999999971
 20
-403.0499999999999
 30
0.0
  0
VERTEX
  5
9A8
  8
DATA
  6
CONTINUOUS
 62
     7
 10
-204.18999999999971
 20
-403.0499999999999
 30
0.0
  0
SEQEND
  5
9A9
  8
DATA
  6
CONTINUOUS
 62
     7
  0
POLYLINE
  5
2F9
  8
DATA
  6
CONTINUOUS
 62
     7
 66
     1
 10
0.0
 20
0.0
 30
0.0
 70
     1
  0
VERTEX
  5
9AA
  8
DATA
  6
CONTINUOUS
 62
     7
 10
-204.18999999999971
 20
-397.35000000000008
 30
0.0
  0
VERTEX
  5
9AB
  8
DATA
  6
CONTINUOUS
 62
     7
 10
-202.28999999999971
 20
-397.35000000000008
 30
0.0
  0
VERTEX
  5
9AC
  8
DATA
  6
CONTINUOUS
 62
     7
 10
-202.28999999999971
 20
-399.25
 30
0.0
  0
VERTEX
  5
9AD
  8
DATA
  6
CONTINUOUS
 62
     7
 10
-204.18999999999971
 20
-399.25
 30
0.0
  0
SEQEND
  5
9AE
  8
DATA
  6
CONTINUOUS
 62
     7
  0
TEXT
  5
300
  8
DATA
 62
     7
 10
-221.87000001034781
 20
-394.9014356835724
 30
0.0
 40
2.30859375
  1
1
 41
0.7
 11
-221.87000001034781
 21
-392.5928419335724
 31
0.0
 73
     3
  0
TEXT
  5
301
  8
DATA
 62
     7
 10
-203.997880999839
 20
-394.91779614503218
 30
0.0
 40
2.30859375
  1
2
 41
0.7
 11
-203.997880999839
 21
-392.60920239503218
 31
0.0
 73
     3
  0
TEXT
  5
302
  8
DATA
 62
     7
 10
-218.23364187643369
 20
-399.22937298174691
 30
0.0
 40
1.923828125
  1
Vocal Hall
 41
0.7
 11
-218.23364187643369
 21
-397.30554485674691
 31
0.0
 73
     3
  0
TEXT
  5
303
  8
DATA
 62
     7
 10
-218.72505612372171
 20
-403.02937298174692
 30
0.0
 40
1.923828125
  1
Vocal Plate
 41
0.7
 11
-218.72505612372171
 21
-401.10554485674692
 31
0.0
 73
     3
  0
TEXT
  5
304
  8
DATA
 62
     7
 10
-217.55400661800149
 20
-406.83412540365049
 30
0.0
 40
1.923828125
  1
Drum Hall
 41
0.7
 11
-217.55400661800149
 21
-404.91029727865049
 31
0.0
 73
     3
  0
TEXT
  5
305
  8
DATA
 62
     7
 10
-218.0184655196274
 20
-410.55000000000001
 30
0.0
 40
1.923828125
  1
Drum Plate
 41
0.7
 11
-218.0184655196274
 21
-408.62617187500001
 31
0.0
 73
     3
  0
TEXT
  5
306
  8
DATA
 62
     7
 10
-217.24024920027401
 20
-414.48650161460228
 30
0.0
 40
1.923828125
  1
Ambience
 41
0.7
 11
-217.24024920027401
 21
-412.56267348960228
 31
0.0
 73
     3
  0
TEXT
  5
307
  8
DATA
 62
     7
 10
-215.834627098049
 20
-418.36587459634927
 30
0.0
 40
1.923828125
  1
Studio
 41
0.7
 11
-215.834627098049
 21
-416.44204647134939
 31
0.0
 73
     3
  0
TEXT
  5
308
  8
DATA
 62
     7
 10
-215.2263697525421
 20
-422.03412540365048
 30
0.0
 40
1.923828125
  1
Arene
 41
0.7
 11
-215.2263697525421
 21
-420.11029727865059
 31
0.0
 73
     3
  0
TEXT
  5
309
  8
DATA
 62
     7
 10
-215.93429869084389
 20
-425.52937298174692
 30
0.0
 40
1.923828125
  1
Spring
 41
0.7
 11
-215.93429869084389
 21
-423.6055448567468
 31
0.0
 73
     3
  0
POLYLINE
  5
30A
  8
DATA
  6
CONTINUOUS
 62
     7
 66
     1
 10
0.0
 20
0.0
 30
0.0
 70
     1
  0
VERTEX
  5
9AF
  8
DATA
  6
CONTINUOUS
 62
     7
 10
-197.18999999999971
 20
-423.94999999999987
 30
0.0
  0
VERTEX
  5
9B0
  8
DATA
  6
CONTINUOUS
 62
     7
 10
-195.28999999999971
 20
-423.94999999999987
 30
0.0
  0
VERTEX
  5
9B1
  8
DATA
  6
CONTINUOUS
 62
     7
 10
-195.28999999999971
 20
-425.85000000000002
 30
0.0
  0
VERTEX
  5
9B2
  8
DATA
  6
CONTINUOUS
 62
     7
 10
-197.18999999999971
 20
-425.85000000000002
 30
0.0
  0
SEQEND
  5
9B3
  8
DATA
  6
CONTINUOUS
 62
     7
  0
POLYLINE
  5
311
  8
DATA
  6
CONTINUOUS
 62
     7
 66
     1
 10
0.0
 20
0.0
 30
0.0
 70
     1
  0
VERTEX
  5
9B4
  8
DATA
  6
CONTINUOUS
 62
     7
 10
-197.18999999999971
 20
-420.14999999999998
 30
0.0
  0
VERTEX
  5
9B5
  8
DATA
  6
CONTINUOUS
 62
     7
 10
-195.28999999999971
 20
-420.14999999999998
 30
0.0
  0
VERTEX
  5
9B6
  8
DATA
  6
CONTINUOUS
 62
     7
 10
-195.28999999999971
 20
-422.05000000000001
 30
0.0
  0
VERTEX
  5
9B7
  8
DATA
  6
CONTINUOUS
 62
     7
 10
-197.18999999999971
 20
-422.05000000000001
 30
0.0
  0
SEQEND
  5
9B8
  8
DATA
  6
CONTINUOUS
 62
     7
  0
POLYLINE
  5
318
  8
DATA
  6
CONTINUOUS
 62
     7
 66
     1
 10
0.0
 20
0.0
 30
0.0
 70
     1
  0
VERTEX
  5
9B9
  8
DATA
  6
CONTINUOUS
 62
     7
 10
-197.18999999999971
 20
-416.34999999999991
 30
0.0
  0
VERTEX
  5
9BA
  8
DATA
  6
CONTINUOUS
 62
     7
 10
-195.28999999999971
 20
-416.34999999999991
 30
0.0
  0
VERTEX
  5
9BB
  8
DATA
  6
CONTINUOUS
 62
     7
 10
-195.28999999999971
 20
-418.25
 30
0.0
  0
VERTEX
  5
9BC
  8
DATA
  6
CONTINUOUS
 62
     7
 10
-197.18999999999971
 20
-418.25
 30
0.0
  0
SEQEND
  5
9BD
  8
DATA
  6
CONTINUOUS
 62
     7
  0
POLYLINE
  5
31F
  8
DATA
  6
CONTINUOUS
 62
     7
 66
     1
 10
0.0
 20
0.0
 30
0.0
 70
     1
  0
VERTEX
  5
9BE
  8
DATA
  6
CONTINUOUS
 62
     7
 10
-197.18999999999971
 20
-412.55000000000001
 30
0.0
  0
VERTEX
  5
9BF
  8
DATA
  6
CONTINUOUS
 62
     7
 10
-195.28999999999971
 20
-412.55000000000001
 30
0.0
  0
VERTEX
  5
9C0
  8
DATA
  6
CONTINUOUS
 62
     7
 10
-195.28999999999971
 20
-414.44999999999987
 30
0.0
  0
VERTEX
  5
9C1
  8
DATA
  6
CONTINUOUS
 62
     7
 10
-197.18999999999971
 20
-414.44999999999987
 30
0.0
  0
SEQEND
  5
9C2
  8
DATA
  6
CONTINUOUS
 62
     7
  0
POLYLINE
  5
326
  8
DATA
  6
CONTINUOUS
 62
     7
 66
     1
 10
0.0
 20
0.0
 30
0.0
 70
     1
  0
VERTEX
  5
9C3
  8
DATA
  6
CONTINUOUS
 62
     7
 10
-197.18999999999971
 20
-408.75
 30
0.0
  0
VERTEX
  5
9C4
  8
DATA
  6
CONTINUOUS
 62
     7
 10
-195.28999999999971
 20
-408.75
 30
0.0
  0
VERTEX
  5
9C5
  8
DATA
  6
CONTINUOUS
 62
     7
 10
-195.28999999999971
 20
-410.64999999999992
 30
0.0
  0
VERTEX
  5
9C6
  8
DATA
  6
CONTINUOUS
 62
     7
 10
-197.18999999999971
 20
-410.64999999999992
 30
0.0
  0
SEQEND
  5
9C7
  8
DATA
  6
CONTINUOUS
 62
     7
  0
POLYLINE
  5
32D
  8
DATA
  6
CONTINUOUS
 62
     7
 66
     1
 10
0.0
 20
0.0
 30
0.0
 70
     1
  0
VERTEX
  5
9C8
  8
DATA
  6
CONTINUOUS
 62
     7
 10
-197.18999999999971
 20
-404.94999999999999
 30
0.0
  0
VERTEX
  5
9C9
  8
DATA
  6
CONTINUOUS
 62
     7
 10
-195.28999999999971
 20
-404.94999999999999
 30
0.0
  0
VERTEX
  5
9CA
  8
DATA
  6
CONTINUOUS
 62
     7
 10
-195.28999999999971
 20
-406.85000000000002
 30
0.0
  0
VERTEX
  5
9CB
  8
DATA
  6
CONTINUOUS
 62
     7
 10
-197.18999999999971
 20
-406.85000000000002
 30
0.0
  0
SEQEND
  5
9CC
  8
DATA
  6
CONTINUOUS
 62
     7
  0
POLYLINE
  5
334
  8
DATA
  6
CONTINUOUS
 62
     7
 66
     1
 10
0.0
 20
0.0
 30
0.0
 70
     1
  0
VERTEX
  5
9CD
  8
DATA
  6
CONTINUOUS
 62
     7
 10
-197.18999999999971
 20
-401.14999999999992
 30
0.0
  0
VERTEX
  5
9CE
  8
DATA
  6
CONTINUOUS
 62
     7
 10
-195.28999999999971
 20
-401.14999999999992
 30
0.0
  0
VERTEX
  5
9CF
  8
DATA
  6
CONTINUOUS
 62
     7
 10
-195.28999999999971
 20
-403.0499999999999
 30
0.0
  0
VERTEX
  5
9D0
  8
DATA
  6
CONTINUOUS
 62
     7
 10
-197.18999999999971
 20
-403.0499999999999
 30
0.0
  0
SEQEND
  5
9D1
  8
DATA
  6
CONTINUOUS
 62
     7
  0
POLYLINE
  5
33B
  8
DATA
  6
CONTINUOUS
 62
     7
 66
     1
 10
0.0
 20
0.0
 30
0.0
 70
     1
  0
VERTEX
  5
9D2
  8
DATA
  6
CONTINUOUS
 62
     7
 10
-197.18999999999971
 20
-397.35000000000008
 30
0.0
  0
VERTEX
  5
9D3
  8
DATA
  6
CONTINUOUS
 62
     7
 10
-195.28999999999971
 20
-397.35000000000008
 30
0.0
  0
VERTEX
  5
9D4
  8
DATA
  6
CONTINUOUS
 62
     7
 10
-195.28999999999971
 20
-399.25
 30
0.0
  0
VERTEX
  5
9D5
  8
DATA
  6
CONTINUOUS
 62
     7
 10
-197.18999999999971
 20
-399.25
 30
0.0
  0
SEQEND
  5
9D6
  8
DATA
  6
CONTINUOUS
 62
     7
  0
POLYLINE
  5
342
  8
DATA
  6
CONTINUOUS
 62
     7
 66
     1
 10
0.0
 20
0.0
 30
0.0
 70
     1
  0
VERTEX
  5
9D7
  8
DATA
  6
CONTINUOUS
 62
     7
 10
-179.30999999999969
 20
-423.94999999999987
 30
0.0
  0
VERTEX
  5
9D8
  8
DATA
  6
CONTINUOUS
 62
     7
 10
-177.40999999999971
 20
-423.94999999999987
 30
0.0
  0
VERTEX
  5
9D9
  8
DATA
  6
CONTINUOUS
 62
     7
 10
-177.40999999999971
 20
-425.85000000000002
 30
0.0
  0
VERTEX
  5
9DA
  8
DATA
  6
CONTINUOUS
 62
     7
 10
-179.30999999999969
 20
-425.85000000000002
 30
0.0
  0
SEQEND
  5
9DB
  8
DATA
  6
CONTINUOUS
 62
     7
  0
POLYLINE
  5
349
  8
DATA
  6
CONTINUOUS
 62
     7
 66
     1
 10
0.0
 20
0.0
 30
0.0
 70
     1
  0
VERTEX
  5
9DC
  8
DATA
  6
CONTINUOUS
 62
     7
 10
-179.30999999999969
 20
-420.14999999999998
 30
0.0
  0
VERTEX
  5
9DD
  8
DATA
  6
CONTINUOUS
 62
     7
 10
-177.40999999999971
 20
-420.14999999999998
 30
0.0
  0
VERTEX
  5
9DE
  8
DATA
  6
CONTINUOUS
 62
     7
 10
-177.40999999999971
 20
-422.05000000000001
 30
0.0
  0
VERTEX
  5
9DF
  8
DATA
  6
CONTINUOUS
 62
     7
 10
-179.30999999999969
 20
-422.05000000000001
 30
0.0
  0
SEQEND
  5
9E0
  8
DATA
  6
CONTINUOUS
 62
     7
  0
POLYLINE
  5
350
  8
DATA
  6
CONTINUOUS
 62
     7
 66
     1
 10
0.0
 20
0.0
 30
0.0
 70
     1
  0
VERTEX
  5
9E1
  8
DATA
  6
CONTINUOUS
 62
     7
 10
-179.30999999999969
 20
-416.34999999999991
 30
0.0
  0
VERTEX
  5
9E2
  8
DATA
  6
CONTINUOUS
 62
     7
 10
-177.40999999999971
 20
-416.34999999999991
 30
0.0
  0
VERTEX
  5
9E3
  8
DATA
  6
CONTINUOUS
 62
     7
 10
-177.40999999999971
 20
-418.25
 30
0.0
  0
VERTEX
  5
9E4
  8
DATA
  6
CONTINUOUS
 62
     7
 10
-179.30999999999969
 20
-418.25
 30
0.0
  0
SEQEND
  5
9E5
  8
DATA
  6
CONTINUOUS
 62
     7
  0
POLYLINE
  5
357
  8
DATA
  6
CONTINUOUS
 62
     7
 66
     1
 10
0.0
 20
0.0
 30
0.0
 70
     1
  0
VERTEX
  5
9E6
  8
DATA
  6
CONTINUOUS
 62
     7
 10
-179.30999999999969
 20
-412.55000000000001
 30
0.0
  0
VERTEX
  5
9E7
  8
DATA
  6
CONTINUOUS
 62
     7
 10
-177.40999999999971
 20
-412.55000000000001
 30
0.0
  0
VERTEX
  5
9E8
  8
DATA
  6
CONTINUOUS
 62
     7
 10
-177.40999999999971
 20
-414.44999999999987
 30
0.0
  0
VERTEX
  5
9E9
  8
DATA
  6
CONTINUOUS
 62
     7
 10
-179.30999999999969
 20
-414.44999999999987
 30
0.0
  0
SEQEND
  5
9EA
  8
DATA
  6
CONTINUOUS
 62
     7
  0
POLYLINE
  5
35E
  8
DATA
  6
CONTINUOUS
 62
     7
 66
     1
 10
0.0
 20
0.0
 30
0.0
 70
     1
  0
VERTEX
  5
9EB
  8
DATA
  6
CONTINUOUS
 62
     7
 10
-179.30999999999969
 20
-408.75
 30
0.0
  0
VERTEX
  5
9EC
  8
DATA
  6
CONTINUOUS
 62
     7
 10
-177.40999999999971
 20
-408.75
 30
0.0
  0
VERTEX
  5
9ED
  8
DATA
  6
CONTINUOUS
 62
     7
 10
-177.40999999999971
 20
-410.64999999999992
 30
0.0
  0
VERTEX
  5
9EE
  8
DATA
  6
CONTINUOUS
 62
     7
 10
-179.30999999999969
 20
-410.64999999999992
 30
0.0
  0
SEQEND
  5
9EF
  8
DATA
  6
CONTINUOUS
 62
     7
  0
POLYLINE
  5
365
  8
DATA
  6
CONTINUOUS
 62
     7
 66
     1
 10
0.0
 20
0.0
 30
0.0
 70
     1
  0
VERTEX
  5
9F0
  8
DATA
  6
CONTINUOUS
 62
     7
 10
-179.30999999999969
 20
-404.94999999999999
 30
0.0
  0
VERTEX
  5
9F1
  8
DATA
  6
CONTINUOUS
 62
     7
 10
-177.40999999999971
 20
-404.94999999999999
 30
0.0
  0
VERTEX
  5
9F2
  8
DATA
  6
CONTINUOUS
 62
     7
 10
-177.40999999999971
 20
-406.85000000000002
 30
0.0
  0
VERTEX
  5
9F3
  8
DATA
  6
CONTINUOUS
 62
     7
 10
-179.30999999999969
 20
-406.85000000000002
 30
0.0
  0
SEQEND
  5
9F4
  8
DATA
  6
CONTINUOUS
 62
     7
  0
POLYLINE
  5
36C
  8
DATA
  6
CONTINUOUS
 62
     7
 66
     1
 10
0.0
 20
0.0
 30
0.0
 70
     1
  0
VERTEX
  5
9F5
  8
DATA
  6
CONTINUOUS
 62
     7
 10
-179.30999999999969
 20
-401.14999999999992
 30
0.0
  0
VERTEX
  5
9F6
  8
DATA
  6
CONTINUOUS
 62
     7
 10
-177.40999999999971
 20
-401.14999999999992
 30
0.0
  0
VERTEX
  5
9F7
  8
DATA
  6
CONTINUOUS
 62
     7
 10
-177.40999999999971
 20
-403.0499999999999
 30
0.0
  0
VERTEX
  5
9F8
  8
DATA
  6
CONTINUOUS
 62
     7
 10
-179.30999999999969
 20
-403.0499999999999
 30
0.0
  0
SEQEND
  5
9F9
  8
DATA
  6
CONTINUOUS
 62
     7
  0
POLYLINE
  5
373
  8
DATA
  6
CONTINUOUS
 62
     7
 66
     1
 10
0.0
 20
0.0
 30
0.0
 70
     1
  0
VERTEX
  5
9FA
  8
DATA
  6
CONTINUOUS
 62
     7
 10
-179.30999999999969
 20
-397.35000000000008
 30
0.0
  0
VERTEX
  5
9FB
  8
DATA
  6
CONTINUOUS
 62
     7
 10
-177.40999999999971
 20
-397.35000000000008
 30
0.0
  0
VERTEX
  5
9FC
  8
DATA
  6
CONTINUOUS
 62
     7
 10
-177.40999999999971
 20
-399.25
 30
0.0
  0
VERTEX
  5
9FD
  8
DATA
  6
CONTINUOUS
 62
     7
 10
-179.30999999999969
 20
-399.25
 30
0.0
  0
SEQEND
  5
9FE
  8
DATA
  6
CONTINUOUS
 62
     7
  0
TEXT
  5
37A
  8
DATA
 62
     7
 10
-196.99000001034781
 20
-394.9014356835724
 30
0.0
 40
2.30859375
  1
1
 41
0.7
 11
-196.99000001034781
 21
-392.5928419335724
 31
0.0
 73
     3
  0
TEXT
  5
37B
  8
DATA
 62
     7
 10
-179.117880999839
 20
-394.91779614503218
 30
0.0
 40
2.30859375
  1
2
 41
0.7
 11
-179.117880999839
 21
-392.60920239503218
 31
0.0
 73
     3
  0
TEXT
  5
37C
  8
DATA
 62
     7
 10
-194.77156086837411
 20
-399.23633667442567
 30
0.0
 40
1.923828125
  1
Studio Delay
 41
0.7
 11
-194.77156086837411
 21
-397.31250854942567
 31
0.0
 73
     3
  0
TEXT
  5
37D
  8
DATA
 62
     7
 10
-194.7757582463525
 20
-402.814372981747
 30
0.0
 40
1.7314453125
  1
Digital Delay
 41
0.7
 11
-194.7757582463525
 21
-401.082927669247
 31
0.0
 73
     3
  0
TEXT
  5
37E
  8
DATA
 62
     7
 10
-193.90825080730119
 20
-406.83412540365049
 30
0.0
 40
1.923828125
  1
Tape Delay
 41
0.7
 11
-193.90825080730119
 21
-404.91029727865049
 31
0.0
 73
     3
  0
TEXT
  5
37F
  8
DATA
 62
     7
 10
-193.36625340254531
 20
-410.55000000000001
 30
0.0
 40
1.923828125
  1
Pong Delay
 41
0.7
 11
-193.36625340254531
 21
-408.62617187500001
 31
0.0
 73
     3
  0
TEXT
  5
380
  8
DATA
 62
     7
 10
-192.81462055984341
 20
-414.41854977267798
 30
0.0
 40
1.923828125
  1
Mod Delay
 41
0.7
 11
-192.81462055984341
 21
-412.49472164767809
 31
0.0
 73
     3
  0
TEXT
  5
381
  8
DATA
 62
     7
 10
-194.10765287654741
 20
-418.16201907057638
 30
0.0
 40
1.923828125
  1
Reverse Dly
 41
0.7
 11
-194.10765287654741
 21
-416.23819094557638
 31
0.0
 73
     3
  0
TEXT
  5
382
  8
DATA
 62
     7
 10
-192.51817712023939
 20
-422.13412540365061
 30
0.0
 40
1.923828125
  1
De Esser
 41
0.7
 11
-192.51817712023939
 21
-420.21029727865061
 31
0.0
 73
     3
  0
TEXT
  5
383
  8
DATA
 62
     7
 10
-193.4079518419243
 20
-425.96913219136837
 30
0.0
 40
1.923828125
  1
Compressor
 41
0.7
 11
-193.4079518419243
 21
-424.04530406636837
 31
0.0
 73
     3
  0
POLYLINE
  5
384
  8
DATA
  6
CONTINUOUS
 62
     7
 66
     1
 10
0.0
 20
0.0
 30
0.0
 70
     1
  0
VERTEX
  5
9FF
  8
DATA
  6
CONTINUOUS
 62
     7
 10
-172.30999999999969
 20
-423.94999999999987
 30
0.0
  0
VERTEX
  5
A00
  8
DATA
  6
CONTINUOUS
 62
     7
 10
-170.40999999999971
 20
-423.94999999999987
 30
0.0
  0
VERTEX
  5
A01
  8
DATA
  6
CONTINUOUS
 62
     7
 10
-170.40999999999971
 20
-425.85000000000002
 30
0.0
  0
VERTEX
  5
A02
  8
DATA
  6
CONTINUOUS
 62
     7
 10
-172.30999999999969
 20
-425.85000000000002
 30
0.0
  0
SEQEND
  5
A03
  8
DATA
  6
CONTINUOUS
 62
     7
  0
POLYLINE
  5
38B
  8
DATA
  6
CONTINUOUS
 62
     7
 66
     1
 10
0.0
 20
0.0
 30
0.0
 70
     1
  0
VERTEX
  5
A04
  8
DATA
  6
CONTINUOUS
 62
     7
 10
-172.30999999999969
 20
-420.14999999999998
 30
0.0
  0
VERTEX
  5
A05
  8
DATA
  6
CONTINUOUS
 62
     7
 10
-170.40999999999971
 20
-420.14999999999998
 30
0.0
  0
VERTEX
  5
A06
  8
DATA
  6
CONTINUOUS
 62
     7
 10
-170.40999999999971
 20
-422.05000000000001
 30
0.0
  0
VERTEX
  5
A07
  8
DATA
  6
CONTINUOUS
 62
     7
 10
-172.30999999999969
 20
-422.05000000000001
 30
0.0
  0
SEQEND
  5
A08
  8
DATA
  6
CONTINUOUS
 62
     7
  0
POLYLINE
  5
392
  8
DATA
  6
CONTINUOUS
 62
     7
 66
     1
 10
0.0
 20
0.0
 30
0.0
 70
     1
  0
VERTEX
  5
A09
  8
DATA
  6
CONTINUOUS
 62
     7
 10
-172.30999999999969
 20
-416.34999999999991
 30
0.0
  0
VERTEX
  5
A0A
  8
DATA
  6
CONTINUOUS
 62
     7
 10
-170.40999999999971
 20
-416.34999999999991
 30
0.0
  0
VERTEX
  5
A0B
  8
DATA
  6
CONTINUOUS
 62
     7
 10
-170.40999999999971
 20
-418.25
 30
0.0
  0
VERTEX
  5
A0C
  8
DATA
  6
CONTINUOUS
 62
     7
 10
-172.30999999999969
 20
-418.25
 30
0.0
  0
SEQEND
  5
A0D
  8
DATA
  6
CONTINUOUS
 62
     7
  0
POLYLINE
  5
399
  8
DATA
  6
CONTINUOUS
 62
     7
 66
     1
 10
0.0
 20
0.0
 30
0.0
 70
     1
  0
VERTEX
  5
A0E
  8
DATA
  6
CONTINUOUS
 62
     7
 10
-172.30999999999969
 20
-412.55000000000001
 30
0.0
  0
VERTEX
  5
A0F
  8
DATA
  6
CONTINUOUS
 62
     7
 10
-170.40999999999971
 20
-412.55000000000001
 30
0.0
  0
VERTEX
  5
A10
  8
DATA
  6
CONTINUOUS
 62
     7
 10
-170.40999999999971
 20
-414.44999999999987
 30
0.0
  0
VERTEX
  5
A11
  8
DATA
  6
CONTINUOUS
 62
     7
 10
-172.30999999999969
 20
-414.44999999999987
 30
0.0
  0
SEQEND
  5
A12
  8
DATA
  6
CONTINUOUS
 62
     7
  0
POLYLINE
  5
3A0
  8
DATA
  6
CONTINUOUS
 62
     7
 66
     1
 10
0.0
 20
0.0
 30
0.0
 70
     1
  0
VERTEX
  5
A13
  8
DATA
  6
CONTINUOUS
 62
     7
 10
-172.30999999999969
 20
-408.75
 30
0.0
  0
VERTEX
  5
A14
  8
DATA
  6
CONTINUOUS
 62
     7
 10
-170.40999999999971
 20
-408.75
 30
0.0
  0
VERTEX
  5
A15
  8
DATA
  6
CONTINUOUS
 62
     7
 10
-170.40999999999971
 20
-410.64999999999992
 30
0.0
  0
VERTEX
  5
A16
  8
DATA
  6
CONTINUOUS
 62
     7
 10
-172.30999999999969
 20
-410.64999999999992
 30
0.0
  0
SEQEND
  5
A17
  8
DATA
  6
CONTINUOUS
 62
     7
  0
POLYLINE
  5
3A7
  8
DATA
  6
CONTINUOUS
 62
     7
 66
     1
 10
0.0
 20
0.0
 30
0.0
 70
     1
  0
VERTEX
  5
A18
  8
DATA
  6
CONTINUOUS
 62
     7
 10
-172.30999999999969
 20
-404.94999999999999
 30
0.0
  0
VERTEX
  5
A19
  8
DATA
  6
CONTINUOUS
 62
     7
 10
-170.40999999999971
 20
-404.94999999999999
 30
0.0
  0
VERTEX
  5
A1A
  8
DATA
  6
CONTINUOUS
 62
     7
 10
-170.40999999999971
 20
-406.85000000000002
 30
0.0
  0
VERTEX
  5
A1B
  8
DATA
  6
CONTINUOUS
 62
     7
 10
-172.30999999999969
 20
-406.85000000000002
 30
0.0
  0
SEQEND
  5
A1C
  8
DATA
  6
CONTINUOUS
 62
     7
  0
POLYLINE
  5
3AE
  8
DATA
  6
CONTINUOUS
 62
     7
 66
     1
 10
0.0
 20
0.0
 30
0.0
 70
     1
  0
VERTEX
  5
A1D
  8
DATA
  6
CONTINUOUS
 62
     7
 10
-172.30999999999969
 20
-401.14999999999992
 30
0.0
  0
VERTEX
  5
A1E
  8
DATA
  6
CONTINUOUS
 62
     7
 10
-170.40999999999971
 20
-401.14999999999992
 30
0.0
  0
VERTEX
  5
A1F
  8
DATA
  6
CONTINUOUS
 62
     7
 10
-170.40999999999971
 20
-403.0499999999999
 30
0.0
  0
VERTEX
  5
A20
  8
DATA
  6
CONTINUOUS
 62
     7
 10
-172.30999999999969
 20
-403.0499999999999
 30
0.0
  0
SEQEND
  5
A21
  8
DATA
  6
CONTINUOUS
 62
     7
  0
POLYLINE
  5
3B5
  8
DATA
  6
CONTINUOUS
 62
     7
 66
     1
 10
0.0
 20
0.0
 30
0.0
 70
     1
  0
VERTEX
  5
A22
  8
DATA
  6
CONTINUOUS
 62
     7
 10
-172.30999999999969
 20
-397.35000000000008
 30
0.0
  0
VERTEX
  5
A23
  8
DATA
  6
CONTINUOUS
 62
     7
 10
-170.40999999999971
 20
-397.35000000000008
 30
0.0
  0
VERTEX
  5
A24
  8
DATA
  6
CONTINUOUS
 62
     7
 10
-170.40999999999971
 20
-399.25
 30
0.0
  0
VERTEX
  5
A25
  8
DATA
  6
CONTINUOUS
 62
     7
 10
-172.30999999999969
 20
-399.25
 30
0.0
  0
SEQEND
  5
A26
  8
DATA
  6
CONTINUOUS
 62
     7
  0
POLYLINE
  5
3BC
  8
DATA
  6
CONTINUOUS
 62
     7
 66
     1
 10
0.0
 20
0.0
 30
0.0
 70
     1
  0
VERTEX
  5
A27
  8
DATA
  6
CONTINUOUS
 62
     7
 10
-154.42999999999981
 20
-423.94999999999987
 30
0.0
  0
VERTEX
  5
A28
  8
DATA
  6
CONTINUOUS
 62
     7
 10
-152.52999999999969
 20
-423.94999999999987
 30
0.0
  0
VERTEX
  5
A29
  8
DATA
  6
CONTINUOUS
 62
     7
 10
-152.52999999999969
 20
-425.85000000000002
 30
0.0
  0
VERTEX
  5
A2A
  8
DATA
  6
CONTINUOUS
 62
     7
 10
-154.42999999999981
 20
-425.85000000000002
 30
0.0
  0
SEQEND
  5
A2B
  8
DATA
  6
CONTINUOUS
 62
     7
  0
POLYLINE
  5
3C3
  8
DATA
  6
CONTINUOUS
 62
     7
 66
     1
 10
0.0
 20
0.0
 30
0.0
 70
     1
  0
VERTEX
  5
A2C
  8
DATA
  6
CONTINUOUS
 62
     7
 10
-154.42999999999981
 20
-420.14999999999998
 30
0.0
  0
VERTEX
  5
A2D
  8
DATA
  6
CONTINUOUS
 62
     7
 10
-152.52999999999969
 20
-420.14999999999998
 30
0.0
  0
VERTEX
  5
A2E
  8
DATA
  6
CONTINUOUS
 62
     7
 10
-152.52999999999969
 20
-422.05000000000001
 30
0.0
  0
VERTEX
  5
A2F
  8
DATA
  6
CONTINUOUS
 62
     7
 10
-154.42999999999981
 20
-422.05000000000001
 30
0.0
  0
SEQEND
  5
A30
  8
DATA
  6
CONTINUOUS
 62
     7
  0
POLYLINE
  5
3CA
  8
DATA
  6
CONTINUOUS
 62
     7
 66
     1
 10
0.0
 20
0.0
 30
0.0
 70
     1
  0
VERTEX
  5
A31
  8
DATA
  6
CONTINUOUS
 62
     7
 10
-154.42999999999981
 20
-416.34999999999991
 30
0.0
  0
VERTEX
  5
A32
  8
DATA
  6
CONTINUOUS
 62
     7
 10
-152.52999999999969
 20
-416.34999999999991
 30
0.0
  0
VERTEX
  5
A33
  8
DATA
  6
CONTINUOUS
 62
     7
 10
-152.52999999999969
 20
-418.25
 30
0.0
  0
VERTEX
  5
A34
  8
DATA
  6
CONTINUOUS
 62
     7
 10
-154.42999999999981
 20
-418.25
 30
0.0
  0
SEQEND
  5
A35
  8
DATA
  6
CONTINUOUS
 62
     7
  0
POLYLINE
  5
3D1
  8
DATA
  6
CONTINUOUS
 62
     7
 66
     1
 10
0.0
 20
0.0
 30
0.0
 70
     1
  0
VERTEX
  5
A36
  8
DATA
  6
CONTINUOUS
 62
     7
 10
-154.42999999999981
 20
-412.55000000000001
 30
0.0
  0
VERTEX
  5
A37
  8
DATA
  6
CONTINUOUS
 62
     7
 10
-152.52999999999969
 20
-412.55000000000001
 30
0.0
  0
VERTEX
  5
A38
  8
DATA
  6
CONTINUOUS
 62
     7
 10
-152.52999999999969
 20
-414.44999999999987
 30
0.0
  0
VERTEX
  5
A39
  8
DATA
  6
CONTINUOUS
 62
     7
 10
-154.42999999999981
 20
-414.44999999999987
 30
0.0
  0
SEQEND
  5
A3A
  8
DATA
  6
CONTINUOUS
 62
     7
  0
POLYLINE
  5
3D8
  8
DATA
  6
CONTINUOUS
 62
     7
 66
     1
 10
0.0
 20
0.0
 30
0.0
 70
     1
  0
VERTEX
  5
A3B
  8
DATA
  6
CONTINUOUS
 62
     7
 10
-154.42999999999981
 20
-408.75
 30
0.0
  0
VERTEX
  5
A3C
  8
DATA
  6
CONTINUOUS
 62
     7
 10
-152.52999999999969
 20
-408.75
 30
0.0
  0
VERTEX
  5
A3D
  8
DATA
  6
CONTINUOUS
 62
     7
 10
-152.52999999999969
 20
-410.64999999999992
 30
0.0
  0
VERTEX
  5
A3E
  8
DATA
  6
CONTINUOUS
 62
     7
 10
-154.42999999999981
 20
-410.64999999999992
 30
0.0
  0
SEQEND
  5
A3F
  8
DATA
  6
CONTINUOUS
 62
     7
  0
POLYLINE
  5
3DF
  8
DATA
  6
CONTINUOUS
 62
     7
 66
     1
 10
0.0
 20
0.0
 30
0.0
 70
     1
  0
VERTEX
  5
A40
  8
DATA
  6
CONTINUOUS
 62
     7
 10
-154.42999999999981
 20
-404.94999999999999
 30
0.0
  0
VERTEX
  5
A41
  8
DATA
  6
CONTINUOUS
 62
     7
 10
-152.52999999999969
 20
-404.94999999999999
 30
0.0
  0
VERTEX
  5
A42
  8
DATA
  6
CONTINUOUS
 62
     7
 10
-152.52999999999969
 20
-406.85000000000002
 30
0.0
  0
VERTEX
  5
A43
  8
DATA
  6
CONTINUOUS
 62
     7
 10
-154.42999999999981
 20
-406.85000000000002
 30
0.0
  0
SEQEND
  5
A44
  8
DATA
  6
CONTINUOUS
 62
     7
  0
POLYLINE
  5
3E6
  8
DATA
  6
CONTINUOUS
 62
     7
 66
     1
 10
0.0
 20
0.0
 30
0.0
 70
     1
  0
VERTEX
  5
A45
  8
DATA
  6
CONTINUOUS
 62
     7
 10
-154.42999999999981
 20
-401.14999999999992
 30
0.0
  0
VERTEX
  5
A46
  8
DATA
  6
CONTINUOUS
 62
     7
 10
-152.52999999999969
 20
-401.14999999999992
 30
0.0
  0
VERTEX
  5
A47
  8
DATA
  6
CONTINUOUS
 62
     7
 10
-152.52999999999969
 20
-403.0499999999999
 30
0.0
  0
VERTEX
  5
A48
  8
DATA
  6
CONTINUOUS
 62
     7
 10
-154.42999999999981
 20
-403.0499999999999
 30
0.0
  0
SEQEND
  5
A49
  8
DATA
  6
CONTINUOUS
 62
     7
  0
POLYLINE
  5
3ED
  8
DATA
  6
CONTINUOUS
 62
     7
 66
     1
 10
0.0
 20
0.0
 30
0.0
 70
     1
  0
VERTEX
  5
A4A
  8
DATA
  6
CONTINUOUS
 62
     7
 10
-154.42999999999981
 20
-397.35000000000008
 30
0.0
  0
VERTEX
  5
A4B
  8
DATA
  6
CONTINUOUS
 62
     7
 10
-152.52999999999969
 20
-397.35000000000008
 30
0.0
  0
VERTEX
  5
A4C
  8
DATA
  6
CONTINUOUS
 62
     7
 10
-152.52999999999969
 20
-399.25
 30
0.0
  0
VERTEX
  5
A4D
  8
DATA
  6
CONTINUOUS
 62
     7
 10
-154.42999999999981
 20
-399.25
 30
0.0
  0
SEQEND
  5
A4E
  8
DATA
  6
CONTINUOUS
 62
     7
  0
TEXT
  5
3F4
  8
DATA
 62
     7
 10
-172.11000001034779
 20
-394.9014356835724
 30
0.0
 40
2.30859375
  1
1
 41
0.7
 11
-172.11000001034779
 21
-392.5928419335724
 31
0.0
 73
     3
  0
TEXT
  5
3F5
  8
DATA
 62
     7
 10
-154.23788099983889
 20
-394.91779614503218
 30
0.0
 40
2.30859375
  1
2
 41
0.7
 11
-154.23788099983889
 21
-392.60920239503218
 31
0.0
 73
     3
  0
TEXT
  5
3F6
  8
DATA
 62
     7
 10
-166.1540908311006
 20
-399.09346929789842
 30
0.0
 40
1.923828125
  1
Chorus
 41
0.7
 11
-166.1540908311006
 21
-397.16964117289842
 31
0.0
 73
     3
  0
TEXT
  5
3F7
  8
DATA
 62
     7
 10
-166.27142113982271
 20
-402.96142113982262
 30
0.0
 40
1.923828125
  1
Flanger
 41
0.7
 11
-166.27142113982271
 21
-401.03759301482262
 31
0.0
 73
     3
  0
TEXT
  5
3F8
  8
DATA
 62
     7
 10
-165.94373108704681
 20
-406.73234712345271
 30
0.0
 40
1.923828125
  1
Phaser
 41
0.7
 11
-165.94373108704681
 21
-404.80851899845283
 31
0.0
 73
     3
  0
TEXT
  5
3F9
  8
DATA
 62
     7
 10
-169.36962734756119
 20
-410.68590368384861
 30
0.0
 40
1.923828125
  1
Tremolo/Pan
 41
0.7
 11
-169.36962734756119
 21
-408.76207555884872
 31
0.0
 73
     3
  0
TEXT
  5
3FA
  8
DATA
 62
     7
 10
-166.01919845675181
 20
-414.38650161460231
 30
0.0
 40
1.923828125
  1
Rotary
 41
0.7
 11
-166.01919845675181
 21
-412.46267348960242
 31
0.0
 73
     3
  0
TEXT
  5
3FB
  8
DATA
 62
     7
 10
-166.48789366692591
 20
-418.22997091250079
 30
0.0
 40
1.923828125
  1
Vibrato
 41
0.7
 11
-166.48789366692591
 21
-416.30614278750079
 31
0.0
 73
     3
  0
TEXT
  5
3FC
  8
DATA
 62
     7
 10
-169.23697316834679
 20
-421.93412540365051
 30
0.0
 40
1.923828125
  1
Pitch Shift
 41
0.7
 11
-169.23697316834679
 21
-420.01029727865051
 31
0.0
 73
     3
  0
TEXT
  5
3FD
  8
DATA
 62
     7
 10
-166.42409631615141
 20
-425.86913219136841
 30
0.0
 40
1.923828125
  1
Detune
 41
0.7
 11
-166.42409631615141
 21
-423.94530406636852
 31
0.0
 73
     3
  0
TEXT
  5
3FE
  8
DATA
 62
     7
 10
-248.20606334735169
 20
-388.2921266947032
 30
0.0
 40
2.30859375
  1
REVERB
 41
0.7
 11
-248.20606334735169
 21
-385.9835329447032
 31
0.0
 73
     3
  0
TEXT
  5
3FF
  8
DATA
 62
     7
 10
-198.05452489486231
 20
-388.2315158368379
 30
0.0
 40
2.30859375
  1
DELAY/EFFECTS
 41
0.7
 11
-198.05452489486231
 21
-385.9229220868379
 31
0.0
 73
     3
  0
TEXT
  5
400
  8
DATA
 62
     7
 10
-148.5848416316208
 20
-388.14665158956632
 30
0.0
 40
2.30859375
  1
PROCESSOR 1
 41
0.7
 11
-148.5848416316208
 21
-385.83805783956632
 31
0.0
 73
     3
  0
TEXT
  5
401
  8
DATA
 62
     7
 10
-56.58130432945152
 20
-388.23795033943321
 30
0.0
 40
2.30859375
  1
PROCESSOR 2
 41
0.7
 11
-56.58130432945152
 21
-385.9293565894331
 31
0.0
 73
     3
  0
TEXT
  5
402
  8
DATA
 62
     7
 10
34.70000000000001
 20
-387.9622359933457
 30
0.0
 40
2.30859375
  1
PROGRAM
 41
0.7
 11
34.70000000000001
 21
-385.6536422433457
 31
0.0
 73
     3
  0
TEXT
  5
403
  8
DATA
 62
     7
 10
-148.3853195464709
 20
-397.94148498882072
 30
0.0
 40
2.30859375
  1
Effect Select
 41
0.7
 11
-148.3853195464709
 21
-395.63289123882072
 31
0.0
 73
     3
  0
LINE
  5
404
  8
DATA
  6
CONTINUOUS
 62
     7
 10
-108.8284271247461
 20
-388.5
 30
0.0
 11
-108.5738340819679
 21
-388.5
 31
0.0
  0
LINE
  5
405
  8
DATA
  6
CONTINUOUS
 62
     7
 10
-103.1715728752538
 20
-388.5
 30
0.0
 11
-103.426165918032
 21
-388.5
 31
0.0
  0
LINE
  5
406
  8
DATA
  6
CONTINUOUS
 62
     7
 10
-108.8284271247461
 20
-428.0
 30
0.0
 11
-106.92537905966761
 21
-428.0
 31
0.0
  0
LINE
  5
407
  8
DATA
  6
CONTINUOUS
 62
     7
 10
-103.1715728752538
 20
-428.0
 30
0.0
 11
-105.06
 21
-428.0
 31
0.0
  0
POLYLINE
  5
408
  8
DATA
  6
CONTINUOUS
 62
     7
 66
     1
 10
0.0
 20
0.0
 30
0.0
 70
     1
  0
VERTEX
  5
A4F
  8
DATA
  6
CONTINUOUS
 62
     7
 10
-128.07066126857461
 20
-406.11018220017718
 30
0.0
  0
VERTEX
  5
A50
  8
DATA
  6
CONTINUOUS
 62
     7
 10
-126.17066126857451
 20
-406.11018220017718
 30
0.0
  0
VERTEX
  5
A51
  8
DATA
  6
CONTINUOUS
 62
     7
 10
-126.17066126857451
 20
-408.0101822001771
 30
0.0
  0
VERTEX
  5
A52
  8
DATA
  6
CONTINUOUS
 62
     7
 10
-128.07066126857461
 20
-408.0101822001771
 30
0.0
  0
SEQEND
  5
A53
  8
DATA
  6
CONTINUOUS
 62
     7
  0
POLYLINE
  5
40F
  8
DATA
  6
CONTINUOUS
 62
     7
 66
     1
 10
0.0
 20
0.0
 30
0.0
 70
     1
  0
VERTEX
  5
A54
  8
DATA
  6
CONTINUOUS
 62
     7
 10
-104.0706612685746
 20
-406.11018220017718
 30
0.0
  0
VERTEX
  5
A55
  8
DATA
  6
CONTINUOUS
 62
     7
 10
-102.17066126857451
 20
-406.11018220017718
 30
0.0
  0
VERTEX
  5
A56
  8
DATA
  6
CONTINUOUS
 62
     7
 10
-102.17066126857451
 20
-408.0101822001771
 30
0.0
  0
VERTEX
  5
A57
  8
DATA
  6
CONTINUOUS
 62
     7
 10
-104.0706612685746
 20
-408.0101822001771
 30
0.0
  0
SEQEND
  5
A58
  8
DATA
  6
CONTINUOUS
 62
     7
  0
POLYLINE
  5
416
  8
DATA
  6
CONTINUOUS
 62
     7
 66
     1
 10
0.0
 20
0.0
 30
0.0
 70
     1
  0
VERTEX
  5
A59
  8
DATA
  6
CONTINUOUS
 62
     7
 10
-80.09999999999998
 20
-406.09999999999991
 30
0.0
  0
VERTEX
  5
A5A
  8
DATA
  6
CONTINUOUS
 62
     7
 10
-78.199999999999903
 20
-406.09999999999991
 30
0.0
  0
VERTEX
  5
A5B
  8
DATA
  6
CONTINUOUS
 62
     7
 10
-78.199999999999903
 20
-408.0
 30
0.0
  0
VERTEX
  5
A5C
  8
DATA
  6
CONTINUOUS
 62
     7
 10
-80.09999999999998
 20
-408.0
 30
0.0
  0
SEQEND
  5
A5D
  8
DATA
  6
CONTINUOUS
 62
     7
  0
POLYLINE
  5
41D
  8
DATA
  6
CONTINUOUS
 62
     7
 66
     1
 10
0.0
 20
0.0
 30
0.0
 70
     1
  0
VERTEX
  5
A5E
  8
DATA
  6
CONTINUOUS
 62
     7
 10
-36.504402118666228
 20
-406.05000000000013
 30
0.0
  0
VERTEX
  5
A5F
  8
DATA
  6
CONTINUOUS
 62
     7
 10
-34.60440211866613
 20
-406.05000000000013
 30
0.0
  0
VERTEX
  5
A60
  8
DATA
  6
CONTINUOUS
 62
     7
 10
-34.60440211866613
 20
-407.9500000000001
 30
0.0
  0
VERTEX
  5
A61
  8
DATA
  6
CONTINUOUS
 62
     7
 10
-36.504402118666228
 20
-407.9500000000001
 30
0.0
  0
SEQEND
  5
A62
  8
DATA
  6
CONTINUOUS
 62
     7
  0
POLYLINE
  5
424
  8
DATA
  6
CONTINUOUS
 62
     7
 66
     1
 10
0.0
 20
0.0
 30
0.0
 70
     1
  0
VERTEX
  5
A63
  8
DATA
  6
CONTINUOUS
 62
     7
 10
-12.470079004030961
 20
-406.11018220017718
 30
0.0
  0
VERTEX
  5
A64
  8
DATA
  6
CONTINUOUS
 62
     7
 10
-10.570079004030861
 20
-406.11018220017718
 30
0.0
  0
VERTEX
  5
A65
  8
DATA
  6
CONTINUOUS
 62
     7
 10
-10.570079004030861
 20
-408.0101822001771
 30
0.0
  0
VERTEX
  5
A66
  8
DATA
  6
CONTINUOUS
 62
     7
 10
-12.470079004030961
 20
-408.0101822001771
 30
0.0
  0
SEQEND
  5
A67
  8
DATA
  6
CONTINUOUS
 62
     7
  0
POLYLINE
  5
42B
  8
DATA
  6
CONTINUOUS
 62
     7
 66
     1
 10
0.0
 20
0.0
 30
0.0
 70
     1
  0
VERTEX
  5
A68
  8
DATA
  6
CONTINUOUS
 62
     7
 10
11.529920995969039
 20
-406.11018220017718
 30
0.0
  0
VERTEX
  5
A69
  8
DATA
  6
CONTINUOUS
 62
     7
 10
13.42992099596913
 20
-406.11018220017718
 30
0.0
  0
VERTEX
  5
A6A
  8
DATA
  6
CONTINUOUS
 62
     7
 10
13.42992099596913
 20
-408.0101822001771
 30
0.0
  0
VERTEX
  5
A6B
  8
DATA
  6
CONTINUOUS
 62
     7
 10
11.529920995969039
 20
-408.0101822001771
 30
0.0
  0
SEQEND
  5
A6C
  8
DATA
  6
CONTINUOUS
 62
     7
  0
TEXT
  5
432
  8
DATA
 62
     7
 10
-125.7305745058558
 20
-404.67957510481853
 30
0.0
 40
2.30859375
  1
Pre Delay
 41
0.7
 11
-125.7305745058558
 21
-402.37098135481853
 31
0.0
 73
     3
  0
TEXT
  5
433
  8
DATA
 62
     7
 10
-98.671549970051885
 20
-404.59422501497409
 30
0.0
 40
2.30859375
  1
Decay
 41
0.7
 11
-98.671549970051885
 21
-402.28563126497397
 31
0.0
 73
     3
  0
TEXT
  5
434
  8
DATA
 62
     7
 10
-77.572399760414953
 20
-404.69422501497399
 30
0.0
 40
2.30859375
  1
Variation
 41
0.7
 11
-77.572399760414953
 21
-402.38563126497399
 31
0.0
 73
     3
  0
TEXT
  5
435
  8
DATA
 62
     7
 10
-94.092850727134987
 20
-391.77398433180491
 30
0.0
 40
2.30859375
  1
Tempo
 41
0.7
 11
-94.092850727134987
 21
-389.46539058180491
 31
0.0
 73
     3
  0
TEXT
  5
436
  8
DATA
 62
     7
 10
-77.536665020143815
 20
-391.82999999999998
 30
0.0
 40
2.30859375
  1
Bypass
 41
0.7
 11
-77.536665020143815
 21
-389.52140624999998
 31
0.0
 73
     3
  0
TEXT
  5
437
  8
DATA
 62
     7
 10
-2.92201300062924
 20
-391.66069452168432
 30
0.0
 40
2.30859375
  1
Tempo
 41
0.7
 11
-2.92201300062924
 21
-389.35210077168421
 31
0.0
 73
     3
  0
TEXT
  5
438
  8
DATA
 62
     7
 10
14.052936680214801
 20
-391.71671018987939
 30
0.0
 40
2.30859375
  1
Bypass
 41
0.7
 11
14.052936680214801
 21
-389.40811643987939
 31
0.0
 73
     3
  0
TEXT
  5
439
  8
DATA
 62
     7
 10
37.577638338891731
 20
-391.85495718701918
 30
0.0
 40
2.30859375
  1
Store
 41
0.7
 11
37.577638338891731
 21
-389.54636343701918
 31
0.0
 73
     3
  0
TEXT
  5
43A
  8
DATA
 62
     7
 10
52.793382746280187
 20
-391.85102108517191
 30
0.0
 40
2.30859375
  1
Audition
 41
0.7
 11
52.793382746280187
 21
-389.54242733517202
 31
0.0
 73
     3
  0
POLYLINE
  5
43B
  8
DATA
  6
CONTINUOUS
 62
     7
 66
     1
 10
0.0
 20
0.0
 30
0.0
 70
     1
  0
VERTEX
  5
A6D
  8
DATA
  6
CONTINUOUS
 62
     7
 10
54.549999999999997
 20
-395.08319840146379
 30
0.0
  0
VERTEX
  5
A6E
  8
DATA
  6
CONTINUOUS
 62
     7
 10
56.049999999999997
 20
-395.08319840146379
 30
0.0
  0
VERTEX
  5
A6F
  8
DATA
  6
CONTINUOUS
 62
     7
 10
56.049999999999997
 20
-397.8831984014638
 30
0.0
  0
VERTEX
  5
A70
  8
DATA
  6
CONTINUOUS
 62
     7
 10
54.549999999999997
 20
-397.8831984014638
 30
0.0
  0
SEQEND
  5
A71
  8
DATA
  6
CONTINUOUS
 62
     7
  0
POLYLINE
  5
442
  8
DATA
  6
CONTINUOUS
 62
     7
 66
     1
 10
0.0
 20
0.0
 30
0.0
 70
   129
  0
VERTEX
  5
A72
  8
DATA
  6
CONTINUOUS
 62
     7
 10
36.299999999999962
 20
-394.72319840146372
 30
0.0
 42
-0.4142135623731189
  0
VERTEX
  5
A73
  8
DATA
  6
CONTINUOUS
 62
     7
 10
36.999999999999972
 20
-394.02319840146367
 30
0.0
  0
VERTEX
  5
A74
  8
DATA
  6
CONTINUOUS
 62
     7
 10
45.799999999999997
 20
-394.02319840146367
 30
0.0
 42
-0.4142135623730773
  0
VERTEX
  5
A75
  8
DATA
  6
CONTINUOUS
 62
     7
 10
46.5
 20
-394.72319840146372
 30
0.0
  0
VERTEX
  5
A76
  8
DATA
  6
CONTINUOUS
 62
     7
 10
46.5
 20
-398.24319840146381
 30
0.0
 42
-0.4142135623730951
  0
VERTEX
  5
A77
  8
DATA
  6
CONTINUOUS
 62
     7
 10
45.799999999999997
 20
-398.9431984014638
 30
0.0
  0
VERTEX
  5
A78
  8
DATA
  6
CONTINUOUS
 62
     7
 10
36.999999999999972
 20
-398.9431984014638
 30
0.0
 42
-0.4142135623731011
  0
VERTEX
  5
A79
  8
DATA
  6
CONTINUOUS
 62
     7
 10
36.299999999999962
 20
-398.24319840146381
 30
0.0
  0
SEQEND
  5
A7A
  8
DATA
  6
CONTINUOUS
 62
     7
  0
POLYLINE
  5
44C
  8
DATA
  6
CONTINUOUS
 62
     7
 66
     1
 10
0.0
 20
0.0
 30
0.0
 70
   129
  0
VERTEX
  5
A7B
  8
DATA
  6
CONTINUOUS
 62
     7
 10
35.284999999999968
 20
-393.68319840146381
 30
0.0
 42
-0.4142135623731189
  0
VERTEX
  5
A7C
  8
DATA
  6
CONTINUOUS
 62
     7
 10
35.984999999999957
 20
-392.98319840146382
 30
0.0
  0
VERTEX
  5
A7D
  8
DATA
  6
CONTINUOUS
 62
     7
 10
46.814999999999984
 20
-392.98319840146382
 30
0.0
 42
-0.4142135623730773
  0
VERTEX
  5
A7E
  8
DATA
  6
CONTINUOUS
 62
     7
 10
47.514999999999993
 20
-393.68319840146381
 30
0.0
  0
VERTEX
  5
A7F
  8
DATA
  6
CONTINUOUS
 62
     7
 10
47.514999999999993
 20
-399.28319840146378
 30
0.0
 42
-0.4142135623731189
  0
VERTEX
  5
A80
  8
DATA
  6
CONTINUOUS
 62
     7
 10
46.814999999999984
 20
-399.98319840146382
 30
0.0
  0
VERTEX
  5
A81
  8
DATA
  6
CONTINUOUS
 62
     7
 10
35.984999999999957
 20
-399.98319840146382
 30
0.0
 42
-0.4142135623730773
  0
VERTEX
  5
A82
  8
DATA
  6
CONTINUOUS
 62
     7
 10
35.284999999999968
 20
-399.28319840146378
 30
0.0
  0
SEQEND
  5
A83
  8
DATA
  6
CONTINUOUS
 62
     7
  0
POLYLINE
  5
456
  8
DATA
  6
CONTINUOUS
 62
     7
 66
     1
 10
0.0
 20
0.0
 30
0.0
 70
     1
  0
VERTEX
  5
A84
  8
DATA
  6
CONTINUOUS
 62
     7
 10
37.049999999999997
 20
-395.08319840146379
 30
0.0
  0
VERTEX
  5
A85
  8
DATA
  6
CONTINUOUS
 62
     7
 10
38.549999999999997
 20
-395.08319840146379
 30
0.0
  0
VERTEX
  5
A86
  8
DATA
  6
CONTINUOUS
 62
     7
 10
38.549999999999997
 20
-397.8831984014638
 30
0.0
  0
VERTEX
  5
A87
  8
DATA
  6
CONTINUOUS
 62
     7
 10
37.049999999999997
 20
-397.8831984014638
 30
0.0
  0
SEQEND
  5
A88
  8
DATA
  6
CONTINUOUS
 62
     7
  0
POLYLINE
  5
45D
  8
DATA
  6
CONTINUOUS
 62
     7
 66
     1
 10
0.0
 20
0.0
 30
0.0
 70
   129
  0
VERTEX
  5
A89
  8
DATA
  6
CONTINUOUS
 62
     7
 10
13.299999999999949
 20
-394.72319840146372
 30
0.0
 42
-0.4142135623731189
  0
VERTEX
  5
A8A
  8
DATA
  6
CONTINUOUS
 62
     7
 10
13.99999999999995
 20
-394.02319840146367
 30
0.0
  0
VERTEX
  5
A8B
  8
DATA
  6
CONTINUOUS
 62
     7
 10
22.800000000000001
 20
-394.02319840146367
 30
0.0
 42
-0.4142135623730758
  0
VERTEX
  5
A8C
  8
DATA
  6
CONTINUOUS
 62
     7
 10
23.5
 20
-394.72319840146372
 30
0.0
  0
VERTEX
  5
A8D
  8
DATA
  6
CONTINUOUS
 62
     7
 10
23.5
 20
-398.24319840146381
 30
0.0
 42
-0.4142135623730951
  0
VERTEX
  5
A8E
  8
DATA
  6
CONTINUOUS
 62
     7
 10
22.800000000000001
 20
-398.9431984014638
 30
0.0
  0
VERTEX
  5
A8F
  8
DATA
  6
CONTINUOUS
 62
     7
 10
13.99999999999995
 20
-398.9431984014638
 30
0.0
 42
-0.4142135623730995
  0
VERTEX
  5
A90
  8
DATA
  6
CONTINUOUS
 62
     7
 10
13.299999999999949
 20
-398.24319840146381
 30
0.0
  0
SEQEND
  5
A91
  8
DATA
  6
CONTINUOUS
 62
     7
  0
POLYLINE
  5
467
  8
DATA
  6
CONTINUOUS
 62
     7
 66
     1
 10
0.0
 20
0.0
 30
0.0
 70
   129
  0
VERTEX
  5
A92
  8
DATA
  6
CONTINUOUS
 62
     7
 10
12.28499999999997
 20
-393.68319840146381
 30
0.0
 42
-0.4142135623731189
  0
VERTEX
  5
A93
  8
DATA
  6
CONTINUOUS
 62
     7
 10
12.984999999999969
 20
-392.98319840146382
 30
0.0
  0
VERTEX
  5
A94
  8
DATA
  6
CONTINUOUS
 62
     7
 10
23.814999999999991
 20
-392.98319840146382
 30
0.0
 42
-0.4142135623730758
  0
VERTEX
  5
A95
  8
DATA
  6
CONTINUOUS
 62
     7
 10
24.51499999999999
 20
-393.68319840146381
 30
0.0
  0
VERTEX
  5
A96
  8
DATA
  6
CONTINUOUS
 62
     7
 10
24.51499999999999
 20
-399.28319840146378
 30
0.0
 42
-0.4142135623731189
  0
VERTEX
  5
A97
  8
DATA
  6
CONTINUOUS
 62
     7
 10
23.814999999999991
 20
-399.98319840146382
 30
0.0
  0
VERTEX
  5
A98
  8
DATA
  6
CONTINUOUS
 62
     7
 10
12.984999999999969
 20
-399.98319840146382
 30
0.0
 42
-0.4142135623730758
  0
VERTEX
  5
A99
  8
DATA
  6
CONTINUOUS
 62
     7
 10
12.28499999999997
 20
-399.28319840146378
 30
0.0
  0
SEQEND
  5
A9A
  8
DATA
  6
CONTINUOUS
 62
     7
  0
POLYLINE
  5
471
  8
DATA
  6
CONTINUOUS
 62
     7
 66
     1
 10
0.0
 20
0.0
 30
0.0
 70
     1
  0
VERTEX
  5
A9B
  8
DATA
  6
CONTINUOUS
 62
     7
 10
14.04999999999999
 20
-395.08319840146379
 30
0.0
  0
VERTEX
  5
A9C
  8
DATA
  6
CONTINUOUS
 62
     7
 10
15.54999999999999
 20
-395.08319840146379
 30
0.0
  0
VERTEX
  5
A9D
  8
DATA
  6
CONTINUOUS
 62
     7
 10
15.54999999999999
 20
-397.8831984014638
 30
0.0
  0
VERTEX
  5
A9E
  8
DATA
  6
CONTINUOUS
 62
     7
 10
14.04999999999999
 20
-397.8831984014638
 30
0.0
  0
SEQEND
  5
A9F
  8
DATA
  6
CONTINUOUS
 62
     7
  0
POLYLINE
  5
478
  8
DATA
  6
CONTINUOUS
 62
     7
 66
     1
 10
0.0
 20
0.0
 30
0.0
 70
   129
  0
VERTEX
  5
AA0
  8
DATA
  6
CONTINUOUS
 62
     7
 10
-4.2000000000000446
 20
-394.72319840146372
 30
0.0
 42
-0.4142135623731189
  0
VERTEX
  5
AA1
  8
DATA
  6
CONTINUOUS
 62
     7
 10
-3.5000000000000449
 20
-394.02319840146367
 30
0.0
  0
VERTEX
  5
AA2
  8
DATA
  6
CONTINUOUS
 62
     7
 10
5.2999999999999989
 20
-394.02319840146367
 30
0.0
 42
-0.4142135623730761
  0
VERTEX
  5
AA3
  8
DATA
  6
CONTINUOUS
 62
     7
 10
6.0
 20
-394.72319840146372
 30
0.0
  0
VERTEX
  5
AA4
  8
DATA
  6
CONTINUOUS
 62
     7
 10
6.0
 20
-398.24319840146381
 30
0.0
 42
-0.4142135623730951
  0
VERTEX
  5
AA5
  8
DATA
  6
CONTINUOUS
 62
     7
 10
5.2999999999999989
 20
-398.9431984014638
 30
0.0
  0
VERTEX
  5
AA6
  8
DATA
  6
CONTINUOUS
 62
     7
 10
-3.5000000000000449
 20
-398.9431984014638
 30
0.0
 42
-0.4142135623730999
  0
VERTEX
  5
AA7
  8
DATA
  6
CONTINUOUS
 62
     7
 10
-4.2000000000000446
 20
-398.24319840146381
 30
0.0
  0
SEQEND
  5
AA8
  8
DATA
  6
CONTINUOUS
 62
     7
  0
POLYLINE
  5
482
  8
DATA
  6
CONTINUOUS
 62
     7
 66
     1
 10
0.0
 20
0.0
 30
0.0
 70
   129
  0
VERTEX
  5
AA9
  8
DATA
  6
CONTINUOUS
 62
     7
 10
-5.2150000000000309
 20
-393.68319840146381
 30
0.0
 42
-0.4142135623731189
  0
VERTEX
  5
AAA
  8
DATA
  6
CONTINUOUS
 62
     7
 10
-4.5150000000000308
 20
-392.98319840146382
 30
0.0
  0
VERTEX
  5
AAB
  8
DATA
  6
CONTINUOUS
 62
     7
 10
6.3149999999999853
 20
-392.98319840146382
 30
0.0
 42
-0.4142135623730761
  0
VERTEX
  5
AAC
  8
DATA
  6
CONTINUOUS
 62
     7
 10
7.0149999999999846
 20
-393.68319840146381
 30
0.0
  0
VERTEX
  5
AAD
  8
DATA
  6
CONTINUOUS
 62
     7
 10
7.0149999999999846
 20
-399.28319840146378
 30
0.0
 42
-0.4142135623731189
  0
VERTEX
  5
AAE
  8
DATA
  6
CONTINUOUS
 62
     7
 10
6.3149999999999853
 20
-399.98319840146382
 30
0.0
  0
VERTEX
  5
AAF
  8
DATA
  6
CONTINUOUS
 62
     7
 10
-4.5150000000000308
 20
-399.98319840146382
 30
0.0
 42
-0.4142135623730761
  0
VERTEX
  5
AB0
  8
DATA
  6
CONTINUOUS
 62
     7
 10
-5.2150000000000309
 20
-399.28319840146378
 30
0.0
  0
SEQEND
  5
AB1
  8
DATA
  6
CONTINUOUS
 62
     7
  0
POLYLINE
  5
48C
  8
DATA
  6
CONTINUOUS
 62
     7
 66
     1
 10
0.0
 20
0.0
 30
0.0
 70
     1
  0
VERTEX
  5
AB2
  8
DATA
  6
CONTINUOUS
 62
     7
 10
-3.450000000000002
 20
-395.08319840146379
 30
0.0
  0
VERTEX
  5
AB3
  8
DATA
  6
CONTINUOUS
 62
     7
 10
-1.950000000000002
 20
-395.08319840146379
 30
0.0
  0
VERTEX
  5
AB4
  8
DATA
  6
CONTINUOUS
 62
     7
 10
-1.950000000000002
 20
-397.8831984014638
 30
0.0
  0
VERTEX
  5
AB5
  8
DATA
  6
CONTINUOUS
 62
     7
 10
-3.450000000000002
 20
-397.8831984014638
 30
0.0
  0
SEQEND
  5
AB6
  8
DATA
  6
CONTINUOUS
 62
     7
  0
POLYLINE
  5
493
  8
DATA
  6
CONTINUOUS
 62
     7
 66
     1
 10
0.0
 20
0.0
 30
0.0
 70
   129
  0
VERTEX
  5
AB7
  8
DATA
  6
CONTINUOUS
 62
     7
 10
-78.200000000000031
 20
-394.72319840146372
 30
0.0
 42
-0.4142135623731189
  0
VERTEX
  5
AB8
  8
DATA
  6
CONTINUOUS
 62
     7
 10
-77.500000000000028
 20
-394.02319840146367
 30
0.0
  0
VERTEX
  5
AB9
  8
DATA
  6
CONTINUOUS
 62
     7
 10
-68.700000000000003
 20
-394.02319840146367
 30
0.0
 42
-0.4142135623730773
  0
VERTEX
  5
ABA
  8
DATA
  6
CONTINUOUS
 62
     7
 10
-68.0
 20
-394.72319840146372
 30
0.0
  0
VERTEX
  5
ABB
  8
DATA
  6
CONTINUOUS
 62
     7
 10
-68.0
 20
-398.24319840146381
 30
0.0
 42
-0.4142135623730951
  0
VERTEX
  5
ABC
  8
DATA
  6
CONTINUOUS
 62
     7
 10
-68.700000000000003
 20
-398.9431984014638
 30
0.0
  0
VERTEX
  5
ABD
  8
DATA
  6
CONTINUOUS
 62
     7
 10
-77.500000000000028
 20
-398.9431984014638
 30
0.0
 42
-0.4142135623731011
  0
VERTEX
  5
ABE
  8
DATA
  6
CONTINUOUS
 62
     7
 10
-78.200000000000031
 20
-398.24319840146381
 30
0.0
  0
SEQEND
  5
ABF
  8
DATA
  6
CONTINUOUS
 62
     7
  0
POLYLINE
  5
49D
  8
DATA
  6
CONTINUOUS
 62
     7
 66
     1
 10
0.0
 20
0.0
 30
0.0
 70
   129
  0
VERTEX
  5
AC0
  8
DATA
  6
CONTINUOUS
 62
     7
 10
-79.215000000000032
 20
-393.68319840146381
 30
0.0
 42
-0.4142135623731189
  0
VERTEX
  5
AC1
  8
DATA
  6
CONTINUOUS
 62
     7
 10
-78.515000000000029
 20
-392.98319840146382
 30
0.0
  0
VERTEX
  5
AC2
  8
DATA
  6
CONTINUOUS
 62
     7
 10
-67.685000000000016
 20
-392.98319840146382
 30
0.0
 42
-0.4142135623730773
  0
VERTEX
  5
AC3
  8
DATA
  6
CONTINUOUS
 62
     7
 10
-66.985000000000014
 20
-393.68319840146381
 30
0.0
  0
VERTEX
  5
AC4
  8
DATA
  6
CONTINUOUS
 62
     7
 10
-66.985000000000014
 20
-399.28319840146378
 30
0.0
 42
-0.4142135623731189
  0
VERTEX
  5
AC5
  8
DATA
  6
CONTINUOUS
 62
     7
 10
-67.685000000000016
 20
-399.98319840146382
 30
0.0
  0
VERTEX
  5
AC6
  8
DATA
  6
CONTINUOUS
 62
     7
 10
-78.515000000000029
 20
-399.98319840146382
 30
0.0
 42
-0.4142135623730773
  0
VERTEX
  5
AC7
  8
DATA
  6
CONTINUOUS
 62
     7
 10
-79.215000000000032
 20
-399.28319840146378
 30
0.0
  0
SEQEND
  5
AC8
  8
DATA
  6
CONTINUOUS
 62
     7
  0
POLYLINE
  5
4A7
  8
DATA
  6
CONTINUOUS
 62
     7
 66
     1
 10
0.0
 20
0.0
 30
0.0
 70
     1
  0
VERTEX
  5
AC9
  8
DATA
  6
CONTINUOUS
 62
     7
 10
-77.450000000000003
 20
-395.08319840146379
 30
0.0
  0
VERTEX
  5
ACA
  8
DATA
  6
CONTINUOUS
 62
     7
 10
-75.950000000000003
 20
-395.08319840146379
 30
0.0
  0
VERTEX
  5
ACB
  8
DATA
  6
CONTINUOUS
 62
     7
 10
-75.950000000000003
 20
-397.8831984014638
 30
0.0
  0
VERTEX
  5
ACC
  8
DATA
  6
CONTINUOUS
 62
     7
 10
-77.450000000000003
 20
-397.8831984014638
 30
0.0
  0
SEQEND
  5
ACD
  8
DATA
  6
CONTINUOUS
 62
     7
  0
POLYLINE
  5
4AE
  8
DATA
  6
CONTINUOUS
 62
     7
 66
     1
 10
0.0
 20
0.0
 30
0.0
 70
   129
  0
VERTEX
  5
ACE
  8
DATA
  6
CONTINUOUS
 62
     7
 10
-95.700000000000031
 20
-394.72319840146372
 30
0.0
 42
-0.4142135623731189
  0
VERTEX
  5
ACF
  8
DATA
  6
CONTINUOUS
 62
     7
 10
-95.000000000000057
 20
-394.02319840146367
 30
0.0
  0
VERTEX
  5
AD0
  8
DATA
  6
CONTINUOUS
 62
     7
 10
-86.200000000000003
 20
-394.02319840146367
 30
0.0
 42
-0.4142135623730773
  0
VERTEX
  5
AD1
  8
DATA
  6
CONTINUOUS
 62
     7
 10
-85.5
 20
-394.72319840146372
 30
0.0
  0
VERTEX
  5
AD2
  8
DATA
  6
CONTINUOUS
 62
     7
 10
-85.5
 20
-398.24319840146381
 30
0.0
 42
-0.4142135623730951
  0
VERTEX
  5
AD3
  8
DATA
  6
CONTINUOUS
 62
     7
 10
-86.200000000000003
 20
-398.9431984014638
 30
0.0
  0
VERTEX
  5
AD4
  8
DATA
  6
CONTINUOUS
 62
     7
 10
-95.000000000000057
 20
-398.9431984014638
 30
0.0
 42
-0.4142135623731011
  0
VERTEX
  5
AD5
  8
DATA
  6
CONTINUOUS
 62
     7
 10
-95.700000000000031
 20
-398.24319840146381
 30
0.0
  0
SEQEND
  5
AD6
  8
DATA
  6
CONTINUOUS
 62
     7
  0
POLYLINE
  5
4B8
  8
DATA
  6
CONTINUOUS
 62
     7
 66
     1
 10
0.0
 20
0.0
 30
0.0
 70
   129
  0
VERTEX
  5
AD7
  8
DATA
  6
CONTINUOUS
 62
     7
 10
-96.715000000000032
 20
-393.68319840146381
 30
0.0
 42
-0.4142135623731189
  0
VERTEX
  5
AD8
  8
DATA
  6
CONTINUOUS
 62
     7
 10
-96.015000000000043
 20
-392.98319840146382
 30
0.0
  0
VERTEX
  5
AD9
  8
DATA
  6
CONTINUOUS
 62
     7
 10
-85.185000000000016
 20
-392.98319840146382
 30
0.0
 42
-0.4142135623730773
  0
VERTEX
  5
ADA
  8
DATA
  6
CONTINUOUS
 62
     7
 10
-84.485000000000014
 20
-393.68319840146381
 30
0.0
  0
VERTEX
  5
ADB
  8
DATA
  6
CONTINUOUS
 62
     7
 10
-84.485000000000014
 20
-399.28319840146378
 30
0.0
 42
-0.4142135623731189
  0
VERTEX
  5
ADC
  8
DATA
  6
CONTINUOUS
 62
     7
 10
-85.185000000000016
 20
-399.98319840146382
 30
0.0
  0
VERTEX
  5
ADD
  8
DATA
  6
CONTINUOUS
 62
     7
 10
-96.015000000000043
 20
-399.98319840146382
 30
0.0
 42
-0.4142135623730773
  0
VERTEX
  5
ADE
  8
DATA
  6
CONTINUOUS
 62
     7
 10
-96.715000000000032
 20
-399.28319840146378
 30
0.0
  0
SEQEND
  5
ADF
  8
DATA
  6
CONTINUOUS
 62
     7
  0
POLYLINE
  5
4C2
  8
DATA
  6
CONTINUOUS
 62
     7
 66
     1
 10
0.0
 20
0.0
 30
0.0
 70
     1
  0
VERTEX
  5
AE0
  8
DATA
  6
CONTINUOUS
 62
     7
 10
-94.950000000000003
 20
-395.08319840146379
 30
0.0
  0
VERTEX
  5
AE1
  8
DATA
  6
CONTINUOUS
 62
     7
 10
-93.450000000000003
 20
-395.08319840146379
 30
0.0
  0
VERTEX
  5
AE2
  8
DATA
  6
CONTINUOUS
 62
     7
 10
-93.450000000000003
 20
-397.8831984014638
 30
0.0
  0
VERTEX
  5
AE3
  8
DATA
  6
CONTINUOUS
 62
     7
 10
-94.950000000000003
 20
-397.8831984014638
 30
0.0
  0
SEQEND
  5
AE4
  8
DATA
  6
CONTINUOUS
 62
     7
  0
POLYLINE
  5
4C9
  8
DATA
  6
CONTINUOUS
 62
     7
 66
     1
 10
0.0
 20
0.0
 30
0.0
 70
   129
  0
VERTEX
  5
AE5
  8
DATA
  6
CONTINUOUS
 62
     7
 10
-267.10000000000002
 20
-394.72319840146372
 30
0.0
 42
-0.4142135623731189
  0
VERTEX
  5
AE6
  8
DATA
  6
CONTINUOUS
 62
     7
 10
-266.40000000000009
 20
-394.02319840146367
 30
0.0
  0
VERTEX
  5
AE7
  8
DATA
  6
CONTINUOUS
 62
     7
 10
-257.60000000000002
 20
-394.02319840146367
 30
0.0
 42
-0.4142135623730713
  0
VERTEX
  5
AE8
  8
DATA
  6
CONTINUOUS
 62
     7
 10
-256.89999999999998
 20
-394.72319840146372
 30
0.0
  0
VERTEX
  5
AE9
  8
DATA
  6
CONTINUOUS
 62
     7
 10
-256.89999999999998
 20
-398.24319840146381
 30
0.0
 42
-0.4142135623730951
  0
VERTEX
  5
AEA
  8
DATA
  6
CONTINUOUS
 62
     7
 10
-257.60000000000002
 20
-398.9431984014638
 30
0.0
  0
VERTEX
  5
AEB
  8
DATA
  6
CONTINUOUS
 62
     7
 10
-266.40000000000009
 20
-398.9431984014638
 30
0.0
 42
-0.4142135623730951
  0
VERTEX
  5
AEC
  8
DATA
  6
CONTINUOUS
 62
     7
 10
-267.10000000000002
 20
-398.24319840146381
 30
0.0
  0
SEQEND
  5
AED
  8
DATA
  6
CONTINUOUS
 62
     7
  0
POLYLINE
  5
4D3
  8
DATA
  6
CONTINUOUS
 62
     7
 66
     1
 10
0.0
 20
0.0
 30
0.0
 70
   129
  0
VERTEX
  5
AEE
  8
DATA
  6
CONTINUOUS
 62
     7
 10
-268.11500000000001
 20
-393.68319840146381
 30
0.0
 42
-0.4142135623731189
  0
VERTEX
  5
AEF
  8
DATA
  6
CONTINUOUS
 62
     7
 10
-267.41500000000002
 20
-392.98319840146382
 30
0.0
  0
VERTEX
  5
AF0
  8
DATA
  6
CONTINUOUS
 62
     7
 10
-256.58500000000009
 20
-392.98319840146382
 30
0.0
 42
-0.4142135623730951
  0
VERTEX
  5
AF1
  8
DATA
  6
CONTINUOUS
 62
     7
 10
-255.88499999999999
 20
-393.68319840146381
 30
0.0
  0
VERTEX
  5
AF2
  8
DATA
  6
CONTINUOUS
 62
     7
 10
-255.88499999999999
 20
-399.28319840146378
 30
0.0
 42
-0.4142135623730951
  0
VERTEX
  5
AF3
  8
DATA
  6
CONTINUOUS
 62
     7
 10
-256.58500000000009
 20
-399.98319840146382
 30
0.0
  0
VERTEX
  5
AF4
  8
DATA
  6
CONTINUOUS
 62
     7
 10
-267.41500000000002
 20
-399.98319840146382
 30
0.0
 42
-0.4142135623730713
  0
VERTEX
  5
AF5
  8
DATA
  6
CONTINUOUS
 62
     7
 10
-268.11500000000001
 20
-399.28319840146378
 30
0.0
  0
SEQEND
  5
AF6
  8
DATA
  6
CONTINUOUS
 62
     7
  0
POLYLINE
  5
4DD
  8
DATA
  6
CONTINUOUS
 62
     7
 66
     1
 10
0.0
 20
0.0
 30
0.0
 70
     1
  0
VERTEX
  5
AF7
  8
DATA
  6
CONTINUOUS
 62
     7
 10
-266.35000000000002
 20
-395.08319840146379
 30
0.0
  0
VERTEX
  5
AF8
  8
DATA
  6
CONTINUOUS
 62
     7
 10
-264.85000000000002
 20
-395.08319840146379
 30
0.0
  0
VERTEX
  5
AF9
  8
DATA
  6
CONTINUOUS
 62
     7
 10
-264.85000000000002
 20
-397.8831984014638
 30
0.0
  0
VERTEX
  5
AFA
  8
DATA
  6
CONTINUOUS
 62
     7
 10
-266.35000000000002
 20
-397.8831984014638
 30
0.0
  0
SEQEND
  5
AFB
  8
DATA
  6
CONTINUOUS
 62
     7
  0
TEXT
  5
4E4
  8
DATA
 62
     7
 10
-125.8203662267571
 20
-427.36500000000001
 30
0.0
 40
2.1162109375
  1
Time/Speed
 41
0.7
 11
-125.8203662267571
 21
-425.24878906250001
 31
0.0
 73
     3
  0
TEXT
  5
4E5
  8
DATA
 62
     7
 10
-101.6458799489825
 20
-427.41545778344641
 30
0.0
 40
2.1162109375
  1
Fback/Depth
 41
0.7
 11
-101.6458799489825
 21
-425.2992468459463
 31
0.0
 73
     3
  0
TEXT
  5
4E6
  8
DATA
 62
     7
 10
-77.052288917231934
 20
-427.38353509297178
 30
0.0
 40
2.1162109375
  1
Variation
 41
0.7
 11
-77.052288917231934
 21
-425.26732415547178
 31
0.0
 73
     3
  0
TEXT
  5
4E7
  8
DATA
 62
     7
 10
-34.210366226757131
 20
-427.36500000000001
 30
0.0
 40
2.1162109375
  1
Time/Speed
 41
0.7
 11
-34.210366226757131
 21
-425.24878906250001
 31
0.0
 73
     3
  0
TEXT
  5
4E8
  8
DATA
 62
     7
 10
-10.03587994898254
 20
-427.41545778344641
 30
0.0
 40
2.1162109375
  1
Fback/Depth
 41
0.7
 11
-10.03587994898254
 21
-425.2992468459463
 31
0.0
 73
     3
  0
TEXT
  5
4E9
  8
DATA
 62
     7
 10
14.55771108276806
 20
-427.38353509297178
 30
0.0
 40
2.1162109375
  1
Variation
 41
0.7
 11
14.55771108276806
 21
-425.26732415547178
 31
0.0
 73
     3
  0
TEXT
  5
4EA
  8
DATA
 62
     7
 10
-34.12057450585587
 20
-404.67957510481853
 30
0.0
 40
2.30859375
  1
Pre Delay
 41
0.7
 11
-34.12057450585587
 21
-402.37098135481853
 31
0.0
 73
     3
  0
TEXT
  5
4EB
  8
DATA
 62
     7
 10
-7.0615499700518711
 20
-404.59422501497409
 30
0.0
 40
2.30859375
  1
Decay
 41
0.7
 11
-7.0615499700518711
 21
-402.28563126497397
 31
0.0
 73
     3
  0
TEXT
  5
4EC
  8
DATA
 62
     7
 10
14.03760023958503
 20
-404.69422501497399
 30
0.0
 40
2.30859375
  1
Variation
 41
0.7
 11
14.03760023958503
 21
-402.38563126497399
 31
0.0
 73
     3
  0
ARC
  5
4ED
  8
DATA
  6
CONTINUOUS
 62
     7
 10
75.590323836487229
 20
-412.97056671385212
 30
0.0
 40
15.35000000000017
 50
142.4740619479031
 51
217.52593805209719
  0
LINE
  5
4EE
  8
DATA
  6
CONTINUOUS
 62
     7
 10
35.0
 20
-403.62056671385221
 30
0.0
 11
35.0
 21
-422.32056671385209
 31
0.0
  0
LINE
  5
4EF
  8
DATA
  6
CONTINUOUS
 62
     7
 10
63.416581601660468
 20
-403.62056671385221
 30
0.0
 11
35.0
 21
-403.62056671385221
 31
0.0
  0
LINE
  5
4F0
  8
DATA
  6
CONTINUOUS
 62
     7
 10
63.416581601660553
 20
-422.32056671385209
 30
0.0
 11
35.0
 21
-422.32056671385209
 31
0.0
  0
TEXT
  5
4F1
  8
DATA
 62
     7
 10
35.399999913904402
 20
-426.25039978587262
 30
0.0
 40
2.30859375
  1
User Progran
 41
0.7
 11
35.399999913904402
 21
-423.9418060358725
 31
0.0
 73
     3
  0
LINE
  5
4F2
  8
DATA
  6
CONTINUOUS
 62
     7
 10
53.650000000000013
 20
-425.29032383648689
 30
0.0
 11
56.5
 21
-425.29032383648689
 31
0.0
  0
LINE
  5
4F3
  8
DATA
  6
CONTINUOUS
 62
     7
 10
56.5
 20
-425.29032383648689
 30
0.0
 11
56.5
 21
-424.04032383648689
 31
0.0
  0
TEXT
  5
4F4
  8
DATA
 62
     7
 10
67.610930055091217
 20
-395.9553088120029
 30
0.0
 40
2.1162109375
  1
Push to Load
 41
0.7
 11
67.610930055091217
 21
-393.8390978745029
 31
0.0
 73
     3
  0
LINE
  5
4F5
  8
DATA
  6
CONTINUOUS
 62
     7
 10
-249.49999999999969
 20
-388.5
 30
0.0
 11
-249.49999999999969
 21
-387.0
 31
0.0
  0
LINE
  5
4F6
  8
DATA
  6
CONTINUOUS
 62
     7
 10
-293.80000000000001
 20
-388.5
 30
0.0
 11
-291.20192378864681
 21
-387.0
 31
0.0
  0
LINE
  5
4F7
  8
DATA
  6
CONTINUOUS
 62
     7
 10
-291.20192378864681
 20
-387.0
 30
0.0
 11
-249.5
 21
-387.0
 31
0.0
  0
LINE
  5
4F8
  8
DATA
  6
CONTINUOUS
 62
     7
 10
-199.74999999999989
 20
-388.5
 30
0.0
 11
-199.74999999999989
 21
-387.0
 31
0.0
  0
LINE
  5
4F9
  8
DATA
  6
CONTINUOUS
 62
     7
 10
-234.59999999999999
 20
-388.5
 30
0.0
 11
-232.00192378864659
 21
-387.0
 31
0.0
  0
LINE
  5
4FA
  8
DATA
  6
CONTINUOUS
 62
     7
 10
-199.74999999999989
 20
-387.0
 30
0.0
 11
-232.00192378864651
 21
-387.0
 31
0.0
  0
LINE
  5
4FB
  8
DATA
  6
CONTINUOUS
 62
     7
 10
-150.0
 20
-388.5
 30
0.0
 11
-150.0
 21
-387.0
 31
0.0
  0
LINE
  5
4FC
  8
DATA
  6
CONTINUOUS
 62
     7
 10
-169.90000000000001
 20
-388.5
 30
0.0
 11
-167.30192378864669
 21
-387.0
 31
0.0
  0
LINE
  5
4FD
  8
DATA
  6
CONTINUOUS
 62
     7
 10
-150.0
 20
-387.0
 30
0.0
 11
-167.3019237886466
 21
-387.0
 31
0.0
  0
LINE
  5
4FE
  8
DATA
  6
CONTINUOUS
 62
     7
 10
-128.30000000000001
 20
-388.5
 30
0.0
 11
-125.7019237886467
 21
-387.0
 31
0.0
  0
LINE
  5
4FF
  8
DATA
  6
CONTINUOUS
 62
     7
 10
-58.594155018709699
 20
-387.0
 30
0.0
 11
-103.1715728752538
 21
-387.0
 31
0.0
  0
LINE
  5
500
  8
DATA
  6
CONTINUOUS
 62
     7
 10
-108.8284271247461
 20
-387.0
 30
0.0
 11
-125.7019237886467
 21
-387.0
 31
0.0
  0
LINE
  5
501
  8
DATA
  6
CONTINUOUS
 62
     7
 10
-37.799999999999997
 20
-388.5
 30
0.0
 11
-35.201923788646731
 21
-387.0
 31
0.0
  0
LINE
  5
502
  8
DATA
  6
CONTINUOUS
 62
     7
 10
33.0
 20
-388.5
 30
0.0
 11
33.0
 21
-387.0
 31
0.0
  0
LINE
  5
503
  8
DATA
  6
CONTINUOUS
 62
     7
 10
33.0
 20
-387.0
 30
0.0
 11
-35.201923788646738
 21
-387.0
 31
0.0
  0
ARC
  5
504
  8
DATA
  6
CONTINUOUS
 62
     7
 10
75.522580959121555
 20
-412.97056671385189
 30
0.0
 40
16.76874185023642
 50
296.32710310415661
 51
46.807380310090437
  0
LINE
  5
505
  8
DATA
  6
CONTINUOUS
 62
     7
 10
87.0
 20
-400.7452014677765
 30
0.0
 11
87.0
 21
-388.5
 31
0.0
  0
LINE
  5
506
  8
DATA
  6
CONTINUOUS
 62
     7
 10
87.0
 20
-388.5
 30
0.0
 11
87.0
 21
-387.0
 31
0.0
  0
LINE
  5
507
  8
DATA
  6
CONTINUOUS
 62
     7
 10
52.600000000000001
 20
-388.5
 30
0.0
 11
55.198076211353332
 21
-387.0
 31
0.0
  0
LINE
  5
508
  8
DATA
  6
CONTINUOUS
 62
     7
 10
87.0
 20
-387.0
 30
0.0
 11
55.198076211353282
 21
-387.0
 31
0.0
  0
LINE
  5
509
  8
DATA
  6
CONTINUOUS
 62
     7
 10
-103.1715728752538
 20
-387.0
 30
0.0
 11
-105.08
 21
-387.0
 31
0.0
  0
LINE
  5
50A
  8
DATA
  6
CONTINUOUS
 62
     7
 10
-108.8284271247461
 20
-387.0
 30
0.0
 11
-106.92537905966761
 21
-387.0
 31
0.0
  0
LINE
  5
50B
  8
DATA
  6
CONTINUOUS
 62
     7
 10
-360.0
 20
-267.00000000002763
 30
0.0
 11
123.0
 21
-267.00000000002763
 31
0.0
  0
LINE
  5
50C
  8
DATA
  6
CONTINUOUS
 62
     7
 10
-337.0
 20
-267.00000000002763
 30
0.0
 11
-337.0
 21
-157.40000000002769
 31
0.0
  0
LINE
  5
50D
  8
DATA
  6
CONTINUOUS
 62
     7
 10
100.0
 20
-267.00000000002763
 30
0.0
 11
100.0
 21
-157.40000000002769
 31
0.0
  0
LINE
  5
50E
  8
DATA
  6
CONTINUOUS
 62
     7
 10
12.0
 20
-265.00000000002763
 30
0.0
 11
-10.0
 21
-265.00000000002763
 31
0.0
  0
LINE
  5
50F
  8
DATA
  6
CONTINUOUS
 62
     7
 10
-99.0
 20
-265.00000000002763
 30
0.0
 11
-121.0
 21
-265.00000000002763
 31
0.0
  0
LINE
  5
510
  8
DATA
  6
CONTINUOUS
 62
     7
 10
-212.0
 20
-265.00000000002763
 30
0.0
 11
-234.0
 21
-265.00000000002763
 31
0.0
  0
LINE
  5
511
  8
DATA
  6
CONTINUOUS
 62
     7
 10
-234.0
 20
-265.00000000002763
 30
0.0
 11
-234.0
 21
-267.00000000002763
 31
0.0
  0
LINE
  5
512
  8
DATA
  6
CONTINUOUS
 62
     7
 10
-212.0
 20
-265.00000000002763
 30
0.0
 11
-212.0
 21
-267.00000000002763
 31
0.0
  0
LINE
  5
513
  8
DATA
  6
CONTINUOUS
 62
     7
 10
-121.0
 20
-265.00000000002763
 30
0.0
 11
-121.0
 21
-267.00000000002763
 31
0.0
  0
LINE
  5
514
  8
DATA
  6
CONTINUOUS
 62
     7
 10
-99.0
 20
-265.00000000002763
 30
0.0
 11
-99.0
 21
-267.00000000002763
 31
0.0
  0
LINE
  5
515
  8
DATA
  6
CONTINUOUS
 62
     7
 10
-10.0
 20
-265.00000000002763
 30
0.0
 11
-10.0
 21
-267.00000000002763
 31
0.0
  0
LINE
  5
516
  8
DATA
  6
CONTINUOUS
 62
     7
 10
12.0
 20
-265.00000000002763
 30
0.0
 11
12.0
 21
-267.00000000002763
 31
0.0
  0
ARC
  5
517
  8
DATA
  6
CONTINUOUS
 62
     7
 10
93.918161764705872
 20
-248.00000000002771
 30
0.0
 40
8.5918382352941087
 50
337.05141662194109
 51
22.94858337805897
  0
LINE
  5
518
  8
DATA
  6
CONTINUOUS
 62
     7
 10
101.8299999999999
 20
-244.65000000002769
 30
0.0
 11
100.0
 21
-244.65000000002769
 31
0.0
  0
LINE
  5
519
  8
DATA
  6
CONTINUOUS
 62
     7
 10
101.8299999999999
 20
-251.35000000002771
 30
0.0
 11
100.0
 21
-251.35000000002771
 31
0.0
  0
ARC
  5
51A
  8
DATA
  6
CONTINUOUS
 62
     7
 10
93.918161764705872
 20
-178.50000000002771
 30
0.0
 40
8.5918382352941087
 50
337.05141662194109
 51
22.94858337805897
  0
LINE
  5
51B
  8
DATA
  6
CONTINUOUS
 62
     7
 10
101.8299999999999
 20
-175.15000000002769
 30
0.0
 11
100.0
 21
-175.15000000002769
 31
0.0
  0
LINE
  5
51C
  8
DATA
  6
CONTINUOUS
 62
     7
 10
101.8299999999999
 20
-181.85000000002771
 30
0.0
 11
100.0
 21
-181.85000000002771
 31
0.0
  0
ARC
  5
51D
  8
DATA
  6
CONTINUOUS
 62
     7
 10
-330.91816176470593
 20
-248.00000000002771
 30
0.0
 40
8.5918382352941212
 50
157.05141662194109
 51
202.94858337805891
  0
LINE
  5
51E
  8
DATA
  6
CONTINUOUS
 62
     7
 10
-338.82999999999998
 20
-244.65000000002769
 30
0.0
 11
-337.0
 21
-244.65000000002769
 31
0.0
  0
LINE
  5
51F
  8
DATA
  6
CONTINUOUS
 62
     7
 10
-338.82999999999998
 20
-251.35000000002771
 30
0.0
 11
-337.0
 21
-251.35000000002771
 31
0.0
  0
ARC
  5
520
  8
DATA
  6
CONTINUOUS
 62
     7
 10
-330.91816176470593
 20
-178.50000000002771
 30
0.0
 40
8.5918382352941212
 50
157.05141662194109
 51
202.94858337805891
  0
LINE
  5
521
  8
DATA
  6
CONTINUOUS
 62
     7
 10
-338.82999999999998
 20
-175.15000000002769
 30
0.0
 11
-337.0
 21
-175.15000000002769
 31
0.0
  0
LINE
  5
522
  8
DATA
  6
CONTINUOUS
 62
     7
 10
-338.82999999999998
 20
-181.85000000002771
 30
0.0
 11
-337.0
 21
-181.85000000002771
 31
0.0
  0
LINE
  5
523
  8
DATA
  6
CONTINUOUS
 62
     7
 10
99.99881961812963
 20
25.00000000000562
 30
0.0
 11
99.99881961812963
 21
-19.99999999999439
 31
0.0
  0
LINE
  5
524
  8
DATA
  6
CONTINUOUS
 62
     7
 10
-337.00118038187043
 20
25.00000000000562
 30
0.0
 11
-337.00118038187043
 21
-19.99999999999439
 31
0.0
  0
INSERT
  5
525
  8
DATA
 62
     7
  2
RACK___
 10
113.9999999999648
 20
-13.399999999994421
 30
0.0
 50
180.0
  0
INSERT
  5
526
  8
DATA
 62
     7
  2
RACK___
 10
113.9999999999648
 20
18.400000000005651
 30
0.0
 50
180.0
  0
INSERT
  5
527
  8
DATA
 62
     7
  2
RACK___
 10
-351.00000000003519
 20
-13.399999999994421
 30
0.0
 50
180.0
  0
INSERT
  5
528
  8
DATA
 62
     7
  2
RACK___
 10
-351.00000000003519
 20
18.400000000005651
 30
0.0
 50
180.0
  0
LINE
  5
529
  8
DATA
  6
CONTINUOUS
 62
     7
 10
93.49881961812963
 20
22.00000000000562
 30
0.0
 11
93.49881961812963
 21
-13.49999999999438
 31
0.0
  0
LINE
  5
52A
  8
DATA
  6
CONTINUOUS
 62
     7
 10
93.49881961812963
 20
-13.49999999999438
 30
0.0
 11
-330.50118038187031
 21
-13.49999999999438
 31
0.0
  0
LINE
  5
52B
  8
DATA
  6
CONTINUOUS
 62
     7
 10
-337.00118038187043
 20
25.00000000000562
 30
0.0
 11
-337.00118038187043
 21
-13.49999999999438
 31
0.0
  0
LINE
  5
52C
  8
DATA
  6
CONTINUOUS
 62
     7
 10
-330.50118038187031
 20
22.00000000000562
 30
0.0
 11
-330.50118038187031
 21
-13.49999999999438
 31
0.0
  0
LINE
  5
52D
  8
DATA
  6
CONTINUOUS
 62
     7
 10
-330.50118038187031
 20
-13.49999999999438
 30
0.0
 11
-337.00118038187043
 21
-19.99999999999439
 31
0.0
  0
LINE
  5
52E
  8
DATA
  6
CONTINUOUS
 62
     7
 10
93.49881961812963
 20
-13.49999999999438
 30
0.0
 11
99.99881961812963
 21
-19.99999999999439
 31
0.0
  0
ARC
  5
52F
  8
DATA
  6
CONTINUOUS
 62
     7
 10
96.498819618129644
 20
22.00000000000562
 30
0.0
 40
3.0
 50
90.0
 51
180.0
  0
ARC
  5
530
  8
DATA
  6
CONTINUOUS
 62
     7
 10
-333.50118038187031
 20
22.00000000000562
 30
0.0
 40
3.0
 50
0.0
 51
90.0
  0
CIRCLE
  5
531
  8
DATA
  6
CONTINUOUS
 62
     7
 10
-304.00118038187043
 20
11.50000000000562
 30
0.0
 40
5.3000000000000114
  0
CIRCLE
  5
532
  8
DATA
  6
CONTINUOUS
 62
     7
 10
-304.00118038187043
 20
11.50000000000562
 30
0.0
 40
3.25
  0
CIRCLE
  5
533
  8
DATA
  6
CONTINUOUS
 62
     7
 10
-304.00118038187043
 20
11.50000000000562
 30
0.0
 40
8.6499999999999773
  0
POLYLINE
  5
534
  8
DATA
  6
CONTINUOUS
 62
     7
 66
     1
 10
0.0
 20
0.0
 30
0.0
 70
     1
  0
VERTEX
  5
AFC
  8
DATA
  6
CONTINUOUS
 62
     7
 10
-296.04214050175051
 20
8.1123482784346841
 30
0.0
  0
VERTEX
  5
AFD
  8
DATA
  6
CONTINUOUS
 62
     7
 10
-297.0878679917559
 20
16.698904865137401
 30
0.0
  0
VERTEX
  5
AFE
  8
DATA
  6
CONTINUOUS
 62
     7
 10
-305.04690787187582
 20
20.08655658670833
 30
0.0
  0
VERTEX
  5
AFF
  8
DATA
  6
CONTINUOUS
 62
     7
 10
-311.96022026199017
 20
14.88765172157656
 30
0.0
  0
VERTEX
  5
B00
  8
DATA
  6
CONTINUOUS
 62
     7
 10
-310.9144927719849
 20
6.3010951348738313
 30
0.0
  0
VERTEX
  5
B01
  8
DATA
  6
CONTINUOUS
 62
     7
 10
-302.95545289186481
 20
2.9134434133028981
 30
0.0
  0
SEQEND
  5
B02
  8
DATA
  6
CONTINUOUS
 62
     7
  0
CIRCLE
  5
53D
  8
DATA
  6
CONTINUOUS
 62
     7
 10
-281.00118038187043
 20
11.50000000000562
 30
0.0
 40
5.3000000000000114
  0
CIRCLE
  5
53E
  8
DATA
  6
CONTINUOUS
 62
     7
 10
-281.00118038187043
 20
11.50000000000562
 30
0.0
 40
3.25
  0
CIRCLE
  5
53F
  8
DATA
  6
CONTINUOUS
 62
     7
 10
-281.00118038187043
 20
11.50000000000562
 30
0.0
 40
8.6499999999999773
  0
POLYLINE
  5
540
  8
DATA
  6
CONTINUOUS
 62
     7
 66
     1
 10
0.0
 20
0.0
 30
0.0
 70
     1
  0
VERTEX
  5
B03
  8
DATA
  6
CONTINUOUS
 62
     7
 10
-273.04214050175051
 20
8.1123482784346841
 30
0.0
  0
VERTEX
  5
B04
  8
DATA
  6
CONTINUOUS
 62
     7
 10
-274.0878679917559
 20
16.698904865137401
 30
0.0
  0
VERTEX
  5
B05
  8
DATA
  6
CONTINUOUS
 62
     7
 10
-282.04690787187582
 20
20.08655658670833
 30
0.0
  0
VERTEX
  5
B06
  8
DATA
  6
CONTINUOUS
 62
     7
 10
-288.96022026199017
 20
14.88765172157656
 30
0.0
  0
VERTEX
  5
B07
  8
DATA
  6
CONTINUOUS
 62
     7
 10
-287.9144927719849
 20
6.3010951348738313
 30
0.0
  0
VERTEX
  5
B08
  8
DATA
  6
CONTINUOUS
 62
     7
 10
-279.95545289186481
 20
2.9134434133028981
 30
0.0
  0
SEQEND
  5
B09
  8
DATA
  6
CONTINUOUS
 62
     7
  0
CIRCLE
  5
549
  8
DATA
  6
CONTINUOUS
 62
     7
 10
-251.0011803818704
 20
11.50000000000562
 30
0.0
 40
5.3000000000000114
  0
CIRCLE
  5
54A
  8
DATA
  6
CONTINUOUS
 62
     7
 10
-251.0011803818704
 20
11.50000000000562
 30
0.0
 40
3.25
  0
CIRCLE
  5
54B
  8
DATA
  6
CONTINUOUS
 62
     7
 10
-251.0011803818704
 20
11.50000000000562
 30
0.0
 40
8.6499999999999773
  0
POLYLINE
  5
54C
  8
DATA
  6
CONTINUOUS
 62
     7
 66
     1
 10
0.0
 20
0.0
 30
0.0
 70
     1
  0
VERTEX
  5
B0A
  8
DATA
  6
CONTINUOUS
 62
     7
 10
-243.0421405017504
 20
8.1123482784346841
 30
0.0
  0
VERTEX
  5
B0B
  8
DATA
  6
CONTINUOUS
 62
     7
 10
-244.08786799175601
 20
16.698904865137401
 30
0.0
  0
VERTEX
  5
B0C
  8
DATA
  6
CONTINUOUS
 62
     7
 10
-252.04690787187579
 20
20.08655658670833
 30
0.0
  0
VERTEX
  5
B0D
  8
DATA
  6
CONTINUOUS
 62
     7
 10
-258.96022026199017
 20
14.88765172157656
 30
0.0
  0
VERTEX
  5
B0E
  8
DATA
  6
CONTINUOUS
 62
     7
 10
-257.91449277198478
 20
6.3010951348738313
 30
0.0
  0
VERTEX
  5
B0F
  8
DATA
  6
CONTINUOUS
 62
     7
 10
-249.95545289186489
 20
2.9134434133028981
 30
0.0
  0
SEQEND
  5
B10
  8
DATA
  6
CONTINUOUS
 62
     7
  0
CIRCLE
  5
555
  8
DATA
  6
CONTINUOUS
 62
     7
 10
-228.0011803818704
 20
11.50000000000562
 30
0.0
 40
5.3000000000000114
  0
CIRCLE
  5
556
  8
DATA
  6
CONTINUOUS
 62
     7
 10
-228.0011803818704
 20
11.50000000000562
 30
0.0
 40
3.25
  0
CIRCLE
  5
557
  8
DATA
  6
CONTINUOUS
 62
     7
 10
-228.0011803818704
 20
11.50000000000562
 30
0.0
 40
8.6500000000000057
  0
POLYLINE
  5
558
  8
DATA
  6
CONTINUOUS
 62
     7
 66
     1
 10
0.0
 20
0.0
 30
0.0
 70
     1
  0
VERTEX
  5
B11
  8
DATA
  6
CONTINUOUS
 62
     7
 10
-220.0421405017504
 20
8.1123482784346841
 30
0.0
  0
VERTEX
  5
B12
  8
DATA
  6
CONTINUOUS
 62
     7
 10
-221.08786799175601
 20
16.698904865137401
 30
0.0
  0
VERTEX
  5
B13
  8
DATA
  6
CONTINUOUS
 62
     7
 10
-229.04690787187579
 20
20.08655658670833
 30
0.0
  0
VERTEX
  5
B14
  8
DATA
  6
CONTINUOUS
 62
     7
 10
-235.9602202619902
 20
14.88765172157656
 30
0.0
  0
VERTEX
  5
B15
  8
DATA
  6
CONTINUOUS
 62
     7
 10
-234.91449277198481
 20
6.3010951348738313
 30
0.0
  0
VERTEX
  5
B16
  8
DATA
  6
CONTINUOUS
 62
     7
 10
-226.95545289186489
 20
2.9134434133028981
 30
0.0
  0
SEQEND
  5
B17
  8
DATA
  6
CONTINUOUS
 62
     7
  0
LINE
  5
561
  8
DATA
  6
CONTINUOUS
 62
     7
 10
-266.50118038187043
 20
-8.4999999999943832
 30
0.0
 11
-319.50118038187043
 21
-8.4999999999943832
 31
0.0
  0
LINE
  5
562
  8
DATA
  6
CONTINUOUS
 62
     7
 10
-266.50118038187043
 20
22.00000000000562
 30
0.0
 11
-319.50118038187043
 21
22.00000000000562
 31
0.0
  0
LINE
  5
563
  8
DATA
  6
CONTINUOUS
 62
     7
 10
-213.5011803818704
 20
-8.4999999999943832
 30
0.0
 11
-213.5011803818704
 21
22.00000000000562
 31
0.0
  0
LINE
  5
564
  8
DATA
  6
CONTINUOUS
 62
     7
 10
-266.50118038187043
 20
-8.4999999999943832
 30
0.0
 11
-266.50118038187043
 21
22.00000000000562
 31
0.0
  0
LINE
  5
565
  8
DATA
  6
CONTINUOUS
 62
     7
 10
-319.50118038187043
 20
-8.4999999999943832
 30
0.0
 11
-319.50118038187043
 21
22.00000000000562
 31
0.0
  0
LINE
  5
566
  8
DATA
  6
CONTINUOUS
 62
     7
 10
-266.50118038187043
 20
22.00000000000562
 30
0.0
 11
-213.5011803818704
 21
22.00000000000562
 31
0.0
  0
LINE
  5
567
  8
DATA
  6
CONTINUOUS
 62
     7
 10
-213.5011803818704
 20
-8.4999999999943832
 30
0.0
 11
-266.50118038187043
 21
-8.4999999999943832
 31
0.0
  0
CIRCLE
  5
568
  8
DATA
  6
CONTINUOUS
 62
     7
 10
-12.00118038187037
 20
11.50000000000562
 30
0.0
 40
5.3000000000000087
  0
CIRCLE
  5
569
  8
DATA
  6
CONTINUOUS
 62
     7
 10
-12.00118038187037
 20
11.50000000000562
 30
0.0
 40
3.25
  0
CIRCLE
  5
56A
  8
DATA
  6
CONTINUOUS
 62
     7
 10
-12.00118038187037
 20
11.50000000000562
 30
0.0
 40
8.6500000000000057
  0
POLYLINE
  5
56B
  8
DATA
  6
CONTINUOUS
 62
     7
 66
     1
 10
0.0
 20
0.0
 30
0.0
 70
     1
  0
VERTEX
  5
B18
  8
DATA
  6
CONTINUOUS
 62
     7
 10
-4.0421405017505059
 20
8.1123482784346841
 30
0.0
  0
VERTEX
  5
B19
  8
DATA
  6
CONTINUOUS
 62
     7
 10
-5.0878679917559246
 20
16.698904865137401
 30
0.0
  0
VERTEX
  5
B1A
  8
DATA
  6
CONTINUOUS
 62
     7
 10
-13.04690787187579
 20
20.08655658670833
 30
0.0
  0
VERTEX
  5
B1B
  8
DATA
  6
CONTINUOUS
 62
     7
 10
-19.96022026199023
 20
14.88765172157656
 30
0.0
  0
VERTEX
  5
B1C
  8
DATA
  6
CONTINUOUS
 62
     7
 10
-18.914492771984801
 20
6.3010951348738313
 30
0.0
  0
VERTEX
  5
B1D
  8
DATA
  6
CONTINUOUS
 62
     7
 10
-10.95545289186494
 20
2.9134434133028981
 30
0.0
  0
SEQEND
  5
B1E
  8
DATA
  6
CONTINUOUS
 62
     7
  0
POLYLINE
  5
574
  8
DATA
  6
CONTINUOUS
 62
     7
 66
     1
 10
0.0
 20
0.0
 30
0.0
 70
     1
  0
VERTEX
  5
B1F
  8
DATA
  6
CONTINUOUS
 62
     7
 10
48.24881961812963
 20
17.115726343224111
 30
0.0
  0
VERTEX
  5
B20
  8
DATA
  6
CONTINUOUS
 62
     7
 10
56.99881961812963
 20
17.115726343224111
 30
0.0
  0
VERTEX
  5
B21
  8
DATA
  6
CONTINUOUS
 62
     7
 10
56.99881961812963
 20
6.1157263432241091
 30
0.0
  0
VERTEX
  5
B22
  8
DATA
  6
CONTINUOUS
 62
     7
 10
48.24881961812963
 20
6.1157263432241091
 30
0.0
  0
SEQEND
  5
B23
  8
DATA
  6
CONTINUOUS
 62
     7
  0
CIRCLE
  5
57B
  8
DATA
  6
CONTINUOUS
 62
     7
 10
52.62381961812963
 20
10.515100047143109
 30
0.0
 40
3.1999999999999882
  0
CIRCLE
  5
57C
  8
DATA
  6
CONTINUOUS
 62
     7
 10
52.62381961812963
 20
10.515100047143109
 30
0.0
 40
1.149999999999977
  0
CIRCLE
  5
57D
  8
DATA
  6
CONTINUOUS
 62
     7
 10
-101.0011803818704
 20
-2.4999999999943858
 30
0.0
 40
4.1500000000000048
  0
CIRCLE
  5
57E
  8
DATA
  6
CONTINUOUS
 62
     7
 10
-101.0011803818704
 20
12.00000000000562
 30
0.0
 40
4.1500000000000048
  0
CIRCLE
  5
57F
  8
DATA
  6
CONTINUOUS
 62
     7
 10
-101.0011803818704
 20
-2.4999999999943858
 30
0.0
 40
1.699999999999988
  0
CIRCLE
  5
580
  8
DATA
  6
CONTINUOUS
 62
     7
 10
-101.0011803818704
 20
12.00000000000562
 30
0.0
 40
1.699999999999988
  0
CIRCLE
  5
581
  8
DATA
  6
CONTINUOUS
 62
     7
 10
-110.0011803818703
 20
4.7500000000056088
 30
0.0
 40
2.5999999999999939
  0
POLYLINE
  5
582
  8
DATA
  6
CONTINUOUS
 62
     7
 66
     1
 10
0.0
 20
0.0
 30
0.0
 70
     1
  0
VERTEX
  5
B24
  8
DATA
  6
CONTINUOUS
 62
     7
 10
-87.226180381870336
 20
19.00000000000562
 30
0.0
  0
VERTEX
  5
B25
  8
DATA
  6
CONTINUOUS
 62
     7
 10
-74.776180381870347
 20
19.00000000000562
 30
0.0
  0
VERTEX
  5
B26
  8
DATA
  6
CONTINUOUS
 62
     7
 10
-74.776180381870347
 20
7.5000000000056142
 30
0.0
  0
VERTEX
  5
B27
  8
DATA
  6
CONTINUOUS
 62
     7
 10
-87.226180381870336
 20
7.5000000000056142
 30
0.0
  0
SEQEND
  5
B28
  8
DATA
  6
CONTINUOUS
 62
     7
  0
LINE
  5
589
  8
DATA
  6
CONTINUOUS
 62
     7
 10
-76.651180381870347
 20
17.57500000000562
 30
0.0
 11
-76.651180381870347
 21
10.62500000000562
 31
0.0
  0
LINE
  5
58A
  8
DATA
  6
CONTINUOUS
 62
     7
 10
-85.351180381870378
 20
17.57500000000562
 30
0.0
 11
-85.351180381870378
 21
13.25000000000562
 31
0.0
  0
LINE
  5
58B
  8
DATA
  6
CONTINUOUS
 62
     7
 10
-83.651180381870347
 20
8.9250000000056318
 30
0.0
 11
-78.351180381870293
 21
8.9250000000056318
 31
0.0
  0
LINE
  5
58C
  8
DATA
  6
CONTINUOUS
 62
     7
 10
-76.651180381870347
 20
17.57500000000562
 30
0.0
 11
-85.351180381870378
 21
17.57500000000562
 31
0.0
  0
POLYLINE
  5
58D
  8
DATA
  6
CONTINUOUS
 62
     7
 66
     1
 10
0.0
 20
0.0
 30
0.0
 70
     1
  0
VERTEX
  5
B29
  8
DATA
  6
CONTINUOUS
 62
     7
 10
-83.901180381870404
 20
14.85000000000562
 30
0.0
  0
VERTEX
  5
B2A
  8
DATA
  6
CONTINUOUS
 62
     7
 10
-78.101180381870378
 20
14.85000000000562
 30
0.0
  0
VERTEX
  5
B2B
  8
DATA
  6
CONTINUOUS
 62
     7
 10
-78.101180381870378
 20
11.650000000005621
 30
0.0
  0
VERTEX
  5
B2C
  8
DATA
  6
CONTINUOUS
 62
     7
 10
-83.901180381870404
 20
11.650000000005621
 30
0.0
  0
SEQEND
  5
B2D
  8
DATA
  6
CONTINUOUS
 62
     7
  0
LINE
  5
594
  8
DATA
  6
CONTINUOUS
 62
     7
 10
-76.651180381870347
 20
10.625000000005629
 30
0.0
 11
-78.35118038187035
 21
8.9250000000056318
 31
0.0
  0
LINE
  5
595
  8
DATA
  6
CONTINUOUS
 62
     7
 10
-85.351180381870336
 20
10.625000000005629
 30
0.0
 11
-83.651180381870347
 21
8.9250000000056318
 31
0.0
  0
LINE
  5
596
  8
DATA
  6
CONTINUOUS
 62
     7
 10
-85.351180381870336
 20
10.625000000005629
 30
0.0
 11
-85.351180381870336
 21
13.25000000000562
 31
0.0
  0
TEXT
  5
597
  8
DATA
 62
     7
 10
57.016394013830777
 20
-0.4587715079846686
 30
0.0
 40
2.693359375
  1
POWER
 50
180.0
 41
0.7
 11
57.016394013830777
 21
-3.152130882984669
 31
0.0
 73
     3
  0
TEXT
  5
598
  8
DATA
 62
     7
 10
70.903316280102729
 20
9.4202773267242321
 30
0.0
 40
2.30859375
  1
9VAC～
 50
180.0
 41
0.7
 11
70.903316280102729
 21
7.1116835767242321
 31
0.0
 73
     3
  0
TEXT
  5
599
  8
DATA
 62
     7
 10
70.903316280102729
 20
12.42027732672423
 30
0.0
 40
2.30859375
  1
 1.3A
 50
180.0
 41
0.7
 11
70.903316280102729
 21
10.11168357672423
 31
0.0
 73
     3
  0
TEXT
  5
59A
  8
DATA
 62
     7
 10
70.903316280102729
 20
15.42027732672423
 30
0.0
 40
2.30859375
  1
50-60Hz
 50
180.0
 41
0.7
 11
70.903316280102729
 21
13.11168357672423
 31
0.0
 73
     3
  0
TEXT
  5
59B
  8
DATA
 62
     7
 10
-299.69232525532669
 20
-3.8861734016993839
 30
0.0
 40
2.693359375
  1
RIGHT
 50
180.0
 41
0.7
 11
-299.69232525532669
 21
-6.5795327766993852
 31
0.0
 73
     3
  0
TEXT
  5
59C
  8
DATA
 62
     7
 10
-275.9880644152596
 20
-3.8861734016993839
 30
0.0
 40
2.693359375
  1
 LEFT
 50
180.0
 41
0.7
 11
-275.9880644152596
 21
-6.5795327766993852
 31
0.0
 73
     3
  0
TEXT
  5
59D
  8
DATA
 62
     7
 10
-275.9880644152596
 20
-0.3861734016993852
 30
0.0
 40
2.693359375
  1
(MONO)
 50
180.0
 41
0.7
 11
-275.9880644152596
 21
-3.0795327766993852
 31
0.0
 73
     3
  0
TEXT
  5
59E
  8
DATA
 62
     7
 10
-246.69232525532669
 20
-3.8861734016993839
 30
0.0
 40
2.693359375
  1
RIGHT
 50
180.0
 41
0.7
 11
-246.69232525532669
 21
-6.5795327766993852
 31
0.0
 73
     3
  0
TEXT
  5
59F
  8
DATA
 62
     7
 10
-222.9880644152596
 20
-3.8861734016993839
 30
0.0
 40
2.693359375
  1
 LEFT
 50
180.0
 41
0.7
 11
-222.9880644152596
 21
-6.5795327766993852
 31
0.0
 73
     3
  0
TEXT
  5
5A0
  8
DATA
 62
     7
 10
-222.9880644152596
 20
-0.3861734016993852
 30
0.0
 40
2.693359375
  1
(MONO)
 50
180.0
 41
0.7
 11
-222.9880644152596
 21
-3.0795327766993852
 31
0.0
 73
     3
  0
TEXT
  5
5A1
  8
DATA
 62
     7
 10
-268.20118038187042
 20
-9.2776517215653058
 30
0.0
 40
2.693359375
  1
ANALOG INPUT
 50
180.0
 41
0.7
 11
-268.20118038187042
 21
-11.9710110965653
 31
0.0
 73
     3
  0
TEXT
  5
5A2
  8
DATA
 62
     7
 10
-215.20118038187039
 20
-9.2776517215653058
 30
0.0
 40
2.693359375
  1
ANALOG OUTPUT
 50
180.0
 41
0.7
 11
-215.20118038187039
 21
-11.9710110965653
 31
0.0
 73
     3
  0
LINE
  5
5A3
  8
DATA
  6
CONTINUOUS
 62
     7
 10
-319.50118038187043
 20
-12.087651721565299
 30
0.0
 11
-293.58883210344118
 21
-12.087651721565299
 31
0.0
  0
LINE
  5
5A4
  8
DATA
  6
CONTINUOUS
 62
     7
 10
-266.50118038187043
 20
-12.087651721565299
 30
0.0
 11
-242.3888321034413
 21
-12.087651721565299
 31
0.0
  0
LINE
  5
5A5
  8
DATA
  6
CONTINUOUS
 62
     7
 10
-266.50118038187043
 20
-8.4999999999943832
 30
0.0
 11
-266.50118038187043
 21
-12.087651721565299
 31
0.0
  0
LINE
  5
5A6
  8
DATA
  6
CONTINUOUS
 62
     7
 10
-319.50118038187043
 20
-8.4999999999943832
 30
0.0
 11
-319.50118038187043
 21
-12.087651721565299
 31
0.0
  0
LINE
  5
5A7
  8
DATA
  6
CONTINUOUS
 62
     7
 10
-290.00118038187043
 20
-8.4999999999943832
 30
0.0
 11
-293.58883210344118
 21
-12.087651721565299
 31
0.0
  0
LINE
  5
5A8
  8
DATA
  6
CONTINUOUS
 62
     7
 10
-238.80118038187041
 20
-8.4999999999943832
 30
0.0
 11
-242.3888321034413
 21
-12.087651721565299
 31
0.0
  0
TEXT
  5
5A9
  8
DATA
 62
     7
 10
-96.446085659878662
 20
-8.0377058484177208
 30
0.0
 40
2.693359375
  1
S/PDIF
 50
180.0
 41
0.7
 11
-96.446085659878662
 21
-10.731065223417721
 31
0.0
 73
     3
  0
TEXT
  5
5AA
  8
DATA
 62
     7
 10
-109.26123450872269
 20
-2.9802667411266599
 30
0.0
 40
2.693359375
  1
IN
 50
180.0
 41
0.7
 11
-109.26123450872269
 21
-5.6736261161266599
 31
0.0
 73
     3
  0
TEXT
  5
5AB
  8
DATA
 62
     7
 10
-109.2962209770096
 20
12.149760322299541
 30
0.0
 40
2.693359375
  1
OUT
 50
180.0
 41
0.7
 11
-109.2962209770096
 21
9.4564009472995423
 31
0.0
 73
     3
  0
POLYLINE
  5
5AC
  8
DATA
  6
CONTINUOUS
 62
     7
 66
     1
 10
0.0
 20
0.0
 30
0.0
  0
VERTEX
  5
B2E
  8
DATA
  6
CONTINUOUS
 62
     7
 10
-110.2511803818703
 20
5.0000000000056088
 30
0.0
  0
VERTEX
  5
B2F
  8
DATA
  6
CONTINUOUS
 62
     7
 10
-110.2511803818703
 20
6.7500000000056124
 30
0.0
  0
VERTEX
  5
B30
  8
DATA
  6
CONTINUOUS
 62
     7
 10
-109.7511803818703
 20
6.7500000000056124
 30
0.0
  0
VERTEX
  5
B31
  8
DATA
  6
CONTINUOUS
 62
     7
 10
-109.7511803818703
 20
5.0000000000056088
 30
0.0
  0
SEQEND
  5
B32
  8
DATA
  6
CONTINUOUS
 62
     7
  0
POLYLINE
  5
5B3
  8
DATA
  6
CONTINUOUS
 62
     7
 66
     1
 10
0.0
 20
0.0
 30
0.0
  0
VERTEX
  5
B33
  8
DATA
  6
CONTINUOUS
 62
     7
 10
-110.2511803818703
 20
4.5000000000056088
 30
0.0
  0
VERTEX
  5
B34
  8
DATA
  6
CONTINUOUS
 62
     7
 10
-110.2511803818703
 20
2.7500000000056111
 30
0.0
  0
VERTEX
  5
B35
  8
DATA
  6
CONTINUOUS
 62
     7
 10
-109.7511803818703
 20
2.7500000000056111
 30
0.0
  0
VERTEX
  5
B36
  8
DATA
  6
CONTINUOUS
 62
     7
 10
-109.7511803818703
 20
4.5000000000056088
 30
0.0
  0
SEQEND
  5
B37
  8
DATA
  6
CONTINUOUS
 62
     7
  0
POLYLINE
  5
5BA
  8
DATA
  6
CONTINUOUS
 62
     7
 66
     1
 10
0.0
 20
0.0
 30
0.0
  0
VERTEX
  5
B38
  8
DATA
  6
CONTINUOUS
 62
     7
 10
-109.7511803818703
 20
5.0000000000056088
 30
0.0
  0
VERTEX
  5
B39
  8
DATA
  6
CONTINUOUS
 62
     7
 10
-108.0011803818703
 20
5.0000000000056088
 30
0.0
  0
VERTEX
  5
B3A
  8
DATA
  6
CONTINUOUS
 62
     7
 10
-108.0011803818703
 20
4.5000000000056088
 30
0.0
  0
VERTEX
  5
B3B
  8
DATA
  6
CONTINUOUS
 62
     7
 10
-109.7511803818703
 20
4.5000000000056088
 30
0.0
  0
SEQEND
  5
B3C
  8
DATA
  6
CONTINUOUS
 62
     7
  0
POLYLINE
  5
5C1
  8
DATA
  6
CONTINUOUS
 62
     7
 66
     1
 10
0.0
 20
0.0
 30
0.0
  0
VERTEX
  5
B3D
  8
DATA
  6
CONTINUOUS
 62
     7
 10
-110.2511803818703
 20
5.0000000000056088
 30
0.0
  0
VERTEX
  5
B3E
  8
DATA
  6
CONTINUOUS
 62
     7
 10
-112.0011803818703
 20
5.0000000000056088
 30
0.0
  0
VERTEX
  5
B3F
  8
DATA
  6
CONTINUOUS
 62
     7
 10
-112.0011803818703
 20
4.5000000000056088
 30
0.0
  0
VERTEX
  5
B40
  8
DATA
  6
CONTINUOUS
 62
     7
 10
-110.2511803818703
 20
4.5000000000056088
 30
0.0
  0
SEQEND
  5
B41
  8
DATA
  6
CONTINUOUS
 62
     7
  0
TEXT
  5
5C8
  8
DATA
 62
     7
 10
-78.363075837362274
 20
2.027184634499215
 30
0.0
 40
2.693359375
  1
USB
 50
180.0
 41
0.7
 11
-78.363075837362274
 21
-0.6661747405007849
 31
0.0
 73
     3
  0
TEXT
  5
5C9
  8
DATA
 62
     7
 10
-5.8294167795800398
 20
-7.5173244336943528
 30
0.0
 40
2.30859375
  1
FOOTSWITCH
 50
180.0
 41
0.7
 11
-5.8294167795800398
 21
-9.8259181836943537
 31
0.0
 73
     3
  0
TEXT
  5
5CA
  8
DATA
 62
     7
 10
-5.8294167795800398
 20
-4.517324433694351
 30
0.0
 40
2.30859375
  1
 T-BYP 2
 50
180.0
 41
0.7
 11
-5.8294167795800398
 21
-6.825918183694351
 31
0.0
 73
     3
  0
TEXT
  5
5CB
  8
DATA
 62
     7
 10
-5.8294167795800398
 20
-1.517324433694351
 30
0.0
 40
2.30859375
  1
 R-BYP 1
 50
180.0
 41
0.7
 11
-5.8294167795800398
 21
-3.825918183694351
 31
0.0
 73
     3
  0
TEXT
  5
5CC
  8
DATA
 62
     7
 10
-5.8294167795800398
 20
1.4826755663056479
 30
0.0
 40
2.30859375
  1
  S-GND
 50
180.0
 41
0.7
 11
-5.8294167795800398
 21
-0.8259181836943518
 31
0.0
 73
     3
  0
POLYLINE
  5
5CD
  8
DATA
  6
CONTINUOUS
 62
     7
 66
     1
 10
0.0
 20
0.0
 30
0.0
 70
     1
  0
VERTEX
  5
B42
  8
DATA
  6
CONTINUOUS
 62
     7
 10
-68.001180381870356
 20
22.00000000000562
 30
0.0
  0
VERTEX
  5
B43
  8
DATA
  6
CONTINUOUS
 62
     7
 10
-24.001180381870309
 20
22.00000000000562
 30
0.0
  0
VERTEX
  5
B44
  8
DATA
  6
CONTINUOUS
 62
     7
 10
-24.001180381870309
 20
-8.4999999999943832
 30
0.0
  0
VERTEX
  5
B45
  8
DATA
  6
CONTINUOUS
 62
     7
 10
-68.001180381870356
 20
-8.4999999999943832
 30
0.0
  0
SEQEND
  5
B46
  8
DATA
  6
CONTINUOUS
 62
     7
  0
TEXT
  5
5D4
  8
DATA
 62
     7
 10
-50.416323420262451
 20
-3.0776517215653221
 30
0.0
 40
2.693359375
  1
OUT/THRU
 50
180.0
 41
0.7
 11
-50.416323420262451
 21
-5.7710110965653216
 31
0.0
 73
     3
  0
TEXT
  5
5D5
  8
DATA
 62
     7
 10
-33.031466458654513
 20
-3.221080413826646
 30
0.0
 40
2.693359375
  1
IN
 50
180.0
 41
0.7
 11
-33.031466458654513
 21
-5.9144397888266456
 31
0.0
 73
     3
  0
TEXT
  5
5D6
  8
DATA
 62
     7
 10
-25.253490996227331
 20
-8.9493660676959799
 30
0.0
 40
2.693359375
  1
MIDI
 50
180.0
 41
0.7
 11
-25.253490996227331
 21
-11.64272544269598
 31
0.0
 73
     3
  0
LINE
  5
5D7
  8
DATA
  6
CONTINUOUS
 62
     7
 10
-68.001180381870356
 20
-8.4999999999943832
 30
0.0
 11
-68.001180381870356
 21
-12.087651721565299
 31
0.0
  0
LINE
  5
5D8
  8
DATA
  6
CONTINUOUS
 62
     7
 10
-33.101180381870371
 20
-8.4999999999943832
 30
0.0
 11
-36.688832103441257
 21
-12.087651721565299
 31
0.0
  0
LINE
  5
5D9
  8
DATA
  6
CONTINUOUS
 62
     7
 10
-68.001180381870356
 20
-12.087651721565299
 30
0.0
 11
-36.688832103441257
 21
-12.087651721565299
 31
0.0
  0
CIRCLE
  5
5DA
  8
DATA
  6
CONTINUOUS
 62
     7
 10
-34.77371612741161
 20
8.3013130271359223
 30
0.0
 40
8.2500000000000071
  0
CIRCLE
  5
5DB
  8
DATA
  6
CONTINUOUS
 62
     7
 10
-34.770312663730948
 20
8.4368388880234786
 30
0.0
 40
6.9000000000000021
  0
CIRCLE
  5
5DC
  8
DATA
  6
CONTINUOUS
 62
     7
 10
-32.183229437856681
 20
8.4813766502018293
 30
0.0
 40
0.5519621081381715
  0
CIRCLE
  5
5DD
  8
DATA
  6
CONTINUOUS
 62
     7
 10
-33.202012697260223
 20
10.23455897185041
 30
0.0
 40
0.5522307728991206
  0
CIRCLE
  5
5DE
  8
DATA
  6
CONTINUOUS
 62
     7
 10
-35.021274991271873
 20
11.220412704366099
 30
0.0
 40
0.5505590016105373
  0
CIRCLE
  5
5DF
  8
DATA
  6
CONTINUOUS
 62
     7
 10
-36.880175747653702
 20
10.23020933219771
 30
0.0
 40
0.5526399569132444
  0
CIRCLE
  5
5E0
  8
DATA
  6
CONTINUOUS
 62
     7
 10
-37.92649933040488
 20
8.4936669653399868
 30
0.0
 40
0.5441980039814448
  0
POLYLINE
  5
5E1
  8
DATA
  6
CONTINUOUS
 62
     7
 66
     1
 10
0.0
 20
0.0
 30
0.0
  0
VERTEX
  5
B47
  8
DATA
  6
CONTINUOUS
 62
     7
 10
-35.351235932777151
 20
10.779684907039689
 30
0.0
  0
VERTEX
  5
B48
  8
DATA
  6
CONTINUOUS
 62
     7
 10
-35.351235932777151
 20
9.9003156342456222
 30
0.0
  0
VERTEX
  5
B49
  8
DATA
  6
CONTINUOUS
 62
     7
 10
-34.669257587534972
 20
9.9003156342456222
 30
0.0
  0
VERTEX
  5
B4A
  8
DATA
  6
CONTINUOUS
 62
     7
 10
-34.669257587534972
 20
10.79709372094856
 30
0.0
  0
SEQEND
  5
B4B
  8
DATA
  6
CONTINUOUS
 62
     7
  0
POLYLINE
  5
5E8
  8
DATA
  6
CONTINUOUS
 62
     7
 66
     1
 10
0.0
 20
0.0
 30
0.0
  0
VERTEX
  5
B4C
  8
DATA
  6
CONTINUOUS
 62
     7
 10
-35.351235932777151
 20
11.66114050169249
 30
0.0
  0
VERTEX
  5
B4D
  8
DATA
  6
CONTINUOUS
 62
     7
 10
-35.351235932777151
 20
12.51827101030371
 30
0.0
  0
VERTEX
  5
B4E
  8
DATA
  6
CONTINUOUS
 62
     7
 10
-34.669257587534972
 20
12.51827101030371
 30
0.0
  0
VERTEX
  5
B4F
  8
DATA
  6
CONTINUOUS
 62
     7
 10
-34.669257587534972
 20
11.643731687783649
 30
0.0
  0
SEQEND
  5
B50
  8
DATA
  6
CONTINUOUS
 62
     7
  0
POLYLINE
  5
5EF
  8
DATA
  6
CONTINUOUS
 62
     7
 66
     1
 10
0.0
 20
0.0
 30
0.0
  0
VERTEX
  5
B51
  8
DATA
  6
CONTINUOUS
 62
     7
 10
-36.825209840848572
 20
9.6803096403530944
 30
0.0
  0
VERTEX
  5
B52
  8
DATA
  6
CONTINUOUS
 62
     7
 10
-36.209266443275233
 20
9.0643662427799168
 30
0.0
  0
VERTEX
  5
B53
  8
DATA
  6
CONTINUOUS
 62
     7
 10
-35.7252721855711
 20
9.5483605004840442
 30
0.0
  0
VERTEX
  5
B54
  8
DATA
  6
CONTINUOUS
 62
     7
 10
-36.332585259461702
 20
10.15567357437444
 30
0.0
  0
SEQEND
  5
B55
  8
DATA
  6
CONTINUOUS
 62
     7
  0
POLYLINE
  5
5F6
  8
DATA
  6
CONTINUOUS
 62
     7
 66
     1
 10
0.0
 20
0.0
 30
0.0
  0
VERTEX
  5
B56
  8
DATA
  6
CONTINUOUS
 62
     7
 10
-37.430075439455443
 20
10.285175238959731
 30
0.0
  0
VERTEX
  5
B57
  8
DATA
  6
CONTINUOUS
 62
     7
 10
-38.057217391463091
 20
10.912317190967221
 30
0.0
  0
VERTEX
  5
B58
  8
DATA
  6
CONTINUOUS
 62
     7
 10
-37.573223133758972
 20
11.39631144867135
 30
0.0
  0
VERTEX
  5
B59
  8
DATA
  6
CONTINUOUS
 62
     7
 10
-36.95471150546328
 20
10.777799820375851
 30
0.0
  0
SEQEND
  5
B5A
  8
DATA
  6
CONTINUOUS
 62
     7
  0
POLYLINE
  5
5FD
  8
DATA
  6
CONTINUOUS
 62
     7
 66
     1
 10
0.0
 20
0.0
 30
0.0
  0
VERTEX
  5
B5B
  8
DATA
  6
CONTINUOUS
 62
     7
 10
-33.147468567336887
 20
10.784089466414279
 30
0.0
  0
VERTEX
  5
B5C
  8
DATA
  6
CONTINUOUS
 62
     7
 10
-32.535221870806247
 20
11.39631144867135
 30
0.0
  0
VERTEX
  5
B5D
  8
DATA
  6
CONTINUOUS
 62
     7
 10
-32.051227613102157
 20
10.912317190967221
 30
0.0
  0
VERTEX
  5
B5E
  8
DATA
  6
CONTINUOUS
 62
     7
 10
-32.654792004523891
 20
10.308777163344519
 30
0.0
  0
SEQEND
  5
B5F
  8
DATA
  6
CONTINUOUS
 62
     7
  0
POLYLINE
  5
604
  8
DATA
  6
CONTINUOUS
 62
     7
 66
     1
 10
0.0
 20
0.0
 30
0.0
  0
VERTEX
  5
B60
  8
DATA
  6
CONTINUOUS
 62
     7
 10
-33.751545393177878
 20
10.18003702505748
 30
0.0
  0
VERTEX
  5
B61
  8
DATA
  6
CONTINUOUS
 62
     7
 10
-34.383247417368921
 20
9.5483605004840442
 30
0.0
  0
VERTEX
  5
B62
  8
DATA
  6
CONTINUOUS
 62
     7
 10
-33.899253159664831
 20
9.0643662427799168
 30
0.0
  0
VERTEX
  5
B63
  8
DATA
  6
CONTINUOUS
 62
     7
 10
-33.276252978539283
 20
9.6873412755510842
 30
0.0
  0
SEQEND
  5
B64
  8
DATA
  6
CONTINUOUS
 62
     7
  0
POLYLINE
  5
60B
  8
DATA
  6
CONTINUOUS
 62
     7
 66
     1
 10
0.0
 20
0.0
 30
0.0
  0
VERTEX
  5
B65
  8
DATA
  6
CONTINUOUS
 62
     7
 10
-37.862552264643618
 20
7.9532391345373581
 30
0.0
  0
VERTEX
  5
B66
  8
DATA
  6
CONTINUOUS
 62
     7
 10
-37.221267999996797
 20
7.3042921804697158
 30
0.0
  0
VERTEX
  5
B67
  8
DATA
  6
CONTINUOUS
 62
     7
 10
-36.737273742293297
 20
7.7882864381738433
 30
0.0
  0
VERTEX
  5
B68
  8
DATA
  6
CONTINUOUS
 62
     7
 10
-37.386094763092501
 20
8.4295236013477304
 30
0.0
  0
SEQEND
  5
B69
  8
DATA
  6
CONTINUOUS
 62
     7
  0
POLYLINE
  5
612
  8
DATA
  6
CONTINUOUS
 62
     7
 66
     1
 10
0.0
 20
0.0
 30
0.0
  0
VERTEX
  5
B6A
  8
DATA
  6
CONTINUOUS
 62
     7
 10
-38.466129501793148
 20
8.5640285007920536
 30
0.0
  0
VERTEX
  5
B6B
  8
DATA
  6
CONTINUOUS
 62
     7
 10
-39.069218948184727
 20
9.1743242476894302
 30
0.0
  0
VERTEX
  5
B6C
  8
DATA
  6
CONTINUOUS
 62
     7
 10
-38.607231211138192
 20
9.6363865831119924
 30
0.0
  0
VERTEX
  5
B6D
  8
DATA
  6
CONTINUOUS
 62
     7
 10
-37.996991787969513
 20
9.033280049837904
 30
0.0
  0
SEQEND
  5
B6E
  8
DATA
  6
CONTINUOUS
 62
     7
  0
POLYLINE
  5
619
  8
DATA
  6
CONTINUOUS
 62
     7
 66
     1
 10
0.0
 20
0.0
 30
0.0
  0
VERTEX
  5
B6F
  8
DATA
  6
CONTINUOUS
 62
     7
 10
-32.109221171441703
 20
9.0283546619503632
 30
0.0
  0
VERTEX
  5
B70
  8
DATA
  6
CONTINUOUS
 62
     7
 10
-31.501213793427091
 20
9.6363865831119924
 30
0.0
  0
VERTEX
  5
B71
  8
DATA
  6
CONTINUOUS
 62
     7
 10
-31.017219535722969
 20
9.1743242476894302
 30
0.0
  0
VERTEX
  5
B72
  8
DATA
  6
CONTINUOUS
 62
     7
 10
-31.635398750902478
 20
8.5487836766598821
 30
0.0
  0
SEQEND
  5
B73
  8
DATA
  6
CONTINUOUS
 62
     7
  0
POLYLINE
  5
620
  8
DATA
  6
CONTINUOUS
 62
     7
 66
     1
 10
0.0
 20
0.0
 30
0.0
  0
VERTEX
  5
B74
  8
DATA
  6
CONTINUOUS
 62
     7
 10
-32.730204461763087
 20
8.407346304689403
 30
0.0
  0
VERTEX
  5
B75
  8
DATA
  6
CONTINUOUS
 62
     7
 10
-33.349239339989737
 20
7.7882864381738433
 30
0.0
  0
VERTEX
  5
B76
  8
DATA
  6
CONTINUOUS
 62
     7
 10
-32.865245082286272
 20
7.3042921804697158
 30
0.0
  0
VERTEX
  5
B77
  8
DATA
  6
CONTINUOUS
 62
     7
 10
-32.244146944335803
 20
7.9327864331697109
 30
0.0
  0
SEQEND
  5
B78
  8
DATA
  6
CONTINUOUS
 62
     7
  0
POLYLINE
  5
627
  8
DATA
  6
CONTINUOUS
 62
     7
 66
     1
 10
0.0
 20
0.0
 30
0.0
  0
VERTEX
  5
B79
  8
DATA
  6
CONTINUOUS
 62
     7
 10
-36.201180381870358
 20
2.891629015068514
 30
0.0
  0
VERTEX
  5
B7A
  8
DATA
  6
CONTINUOUS
 62
     7
 10
-36.201180381870358
 20
4.5529028918745196
 30
0.0
  0
VERTEX
  5
B7B
  8
DATA
  6
CONTINUOUS
 62
     7
 10
-33.801180381870353
 20
4.5529028918745196
 30
0.0
  0
VERTEX
  5
B7C
  8
DATA
  6
CONTINUOUS
 62
     7
 10
-33.801180381870353
 20
2.891629015068514
 30
0.0
  0
SEQEND
  5
B7D
  8
DATA
  6
CONTINUOUS
 62
     7
  0
ARC
  5
62E
  8
DATA
  6
CONTINUOUS
 62
     7
 10
-35.00118038187037
 20
8.0123482784346916
 30
0.0
 40
5.2594453865601798
 50
283.18882270300429
 51
256.81117729699611
  0
CIRCLE
  5
62F
  8
DATA
  6
CONTINUOUS
 62
     7
 10
-56.773716127411603
 20
8.3013130271359223
 30
0.0
 40
8.2500000000000071
  0
CIRCLE
  5
630
  8
DATA
  6
CONTINUOUS
 62
     7
 10
-56.770312663730948
 20
8.4368388880234786
 30
0.0
 40
6.9000000000000021
  0
CIRCLE
  5
631
  8
DATA
  6
CONTINUOUS
 62
     7
 10
-54.183229437856681
 20
8.4813766502018293
 30
0.0
 40
0.5519621081381715
  0
CIRCLE
  5
632
  8
DATA
  6
CONTINUOUS
 62
     7
 10
-55.202012697260223
 20
10.23455897185041
 30
0.0
 40
0.5522307728991206
  0
CIRCLE
  5
633
  8
DATA
  6
CONTINUOUS
 62
     7
 10
-57.021274991271859
 20
11.220412704366099
 30
0.0
 40
0.5505590016105373
  0
CIRCLE
  5
634
  8
DATA
  6
CONTINUOUS
 62
     7
 10
-58.880175747653702
 20
10.23020933219771
 30
0.0
 40
0.5526399569132444
  0
CIRCLE
  5
635
  8
DATA
  6
CONTINUOUS
 62
     7
 10
-59.92649933040488
 20
8.4936669653399868
 30
0.0
 40
0.5441980039814448
  0
POLYLINE
  5
636
  8
DATA
  6
CONTINUOUS
 62
     7
 66
     1
 10
0.0
 20
0.0
 30
0.0
  0
VERTEX
  5
B7E
  8
DATA
  6
CONTINUOUS
 62
     7
 10
-57.351235932777129
 20
10.779684907039689
 30
0.0
  0
VERTEX
  5
B7F
  8
DATA
  6
CONTINUOUS
 62
     7
 10
-57.351235932777129
 20
9.9003156342456222
 30
0.0
  0
VERTEX
  5
B80
  8
DATA
  6
CONTINUOUS
 62
     7
 10
-56.669257587534958
 20
9.9003156342456222
 30
0.0
  0
VERTEX
  5
B81
  8
DATA
  6
CONTINUOUS
 62
     7
 10
-56.669257587534958
 20
10.79709372094856
 30
0.0
  0
SEQEND
  5
B82
  8
DATA
  6
CONTINUOUS
 62
     7
  0
POLYLINE
  5
63D
  8
DATA
  6
CONTINUOUS
 62
     7
 66
     1
 10
0.0
 20
0.0
 30
0.0
  0
VERTEX
  5
B83
  8
DATA
  6
CONTINUOUS
 62
     7
 10
-57.351235932777129
 20
11.66114050169249
 30
0.0
  0
VERTEX
  5
B84
  8
DATA
  6
CONTINUOUS
 62
     7
 10
-57.351235932777129
 20
12.51827101030371
 30
0.0
  0
VERTEX
  5
B85
  8
DATA
  6
CONTINUOUS
 62
     7
 10
-56.669257587534958
 20
12.51827101030371
 30
0.0
  0
VERTEX
  5
B86
  8
DATA
  6
CONTINUOUS
 62
     7
 10
-56.669257587534958
 20
11.643731687783649
 30
0.0
  0
SEQEND
  5
B87
  8
DATA
  6
CONTINUOUS
 62
     7
  0
POLYLINE
  5
644
  8
DATA
  6
CONTINUOUS
 62
     7
 66
     1
 10
0.0
 20
0.0
 30
0.0
  0
VERTEX
  5
B88
  8
DATA
  6
CONTINUOUS
 62
     7
 10
-58.825209840848572
 20
9.6803096403530944
 30
0.0
  0
VERTEX
  5
B89
  8
DATA
  6
CONTINUOUS
 62
     7
 10
-58.209266443275219
 20
9.0643662427799168
 30
0.0
  0
VERTEX
  5
B8A
  8
DATA
  6
CONTINUOUS
 62
     7
 10
-57.7252721855711
 20
9.5483605004840442
 30
0.0
  0
VERTEX
  5
B8B
  8
DATA
  6
CONTINUOUS
 62
     7
 10
-58.332585259461702
 20
10.15567357437444
 30
0.0
  0
SEQEND
  5
B8C
  8
DATA
  6
CONTINUOUS
 62
     7
  0
POLYLINE
  5
64B
  8
DATA
  6
CONTINUOUS
 62
     7
 66
     1
 10
0.0
 20
0.0
 30
0.0
  0
VERTEX
  5
B8D
  8
DATA
  6
CONTINUOUS
 62
     7
 10
-59.430075439455443
 20
10.285175238959731
 30
0.0
  0
VERTEX
  5
B8E
  8
DATA
  6
CONTINUOUS
 62
     7
 10
-60.057217391463091
 20
10.912317190967221
 30
0.0
  0
VERTEX
  5
B8F
  8
DATA
  6
CONTINUOUS
 62
     7
 10
-59.573223133758972
 20
11.39631144867135
 30
0.0
  0
VERTEX
  5
B90
  8
DATA
  6
CONTINUOUS
 62
     7
 10
-58.95471150546328
 20
10.777799820375851
 30
0.0
  0
SEQEND
  5
B91
  8
DATA
  6
CONTINUOUS
 62
     7
  0
POLYLINE
  5
652
  8
DATA
  6
CONTINUOUS
 62
     7
 66
     1
 10
0.0
 20
0.0
 30
0.0
  0
VERTEX
  5
B92
  8
DATA
  6
CONTINUOUS
 62
     7
 10
-55.147468567336887
 20
10.784089466414279
 30
0.0
  0
VERTEX
  5
B93
  8
DATA
  6
CONTINUOUS
 62
     7
 10
-54.535221870806261
 20
11.39631144867135
 30
0.0
  0
VERTEX
  5
B94
  8
DATA
  6
CONTINUOUS
 62
     7
 10
-54.051227613102157
 20
10.912317190967221
 30
0.0
  0
VERTEX
  5
B95
  8
DATA
  6
CONTINUOUS
 62
     7
 10
-54.654792004523891
 20
10.308777163344519
 30
0.0
  0
SEQEND
  5
B96
  8
DATA
  6
CONTINUOUS
 62
     7
  0
POLYLINE
  5
659
  8
DATA
  6
CONTINUOUS
 62
     7
 66
     1
 10
0.0
 20
0.0
 30
0.0
  0
VERTEX
  5
B97
  8
DATA
  6
CONTINUOUS
 62
     7
 10
-55.751545393177878
 20
10.18003702505748
 30
0.0
  0
VERTEX
  5
B98
  8
DATA
  6
CONTINUOUS
 62
     7
 10
-56.383247417368921
 20
9.5483605004840442
 30
0.0
  0
VERTEX
  5
B99
  8
DATA
  6
CONTINUOUS
 62
     7
 10
-55.899253159664823
 20
9.0643662427799168
 30
0.0
  0
VERTEX
  5
B9A
  8
DATA
  6
CONTINUOUS
 62
     7
 10
-55.276252978539283
 20
9.6873412755510842
 30
0.0
  0
SEQEND
  5
B9B
  8
DATA
  6
CONTINUOUS
 62
     7
  0
POLYLINE
  5
660
  8
DATA
  6
CONTINUOUS
 62
     7
 66
     1
 10
0.0
 20
0.0
 30
0.0
  0
VERTEX
  5
B9C
  8
DATA
  6
CONTINUOUS
 62
     7
 10
-59.862552264643611
 20
7.9532391345373581
 30
0.0
  0
VERTEX
  5
B9D
  8
DATA
  6
CONTINUOUS
 62
     7
 10
-59.221267999996797
 20
7.3042921804697158
 30
0.0
  0
VERTEX
  5
B9E
  8
DATA
  6
CONTINUOUS
 62
     7
 10
-58.73727374229329
 20
7.7882864381738433
 30
0.0
  0
VERTEX
  5
B9F
  8
DATA
  6
CONTINUOUS
 62
     7
 10
-59.386094763092501
 20
8.4295236013477304
 30
0.0
  0
SEQEND
  5
BA0
  8
DATA
  6
CONTINUOUS
 62
     7
  0
POLYLINE
  5
667
  8
DATA
  6
CONTINUOUS
 62
     7
 66
     1
 10
0.0
 20
0.0
 30
0.0
  0
VERTEX
  5
BA1
  8
DATA
  6
CONTINUOUS
 62
     7
 10
-60.466129501793127
 20
8.5640285007920536
 30
0.0
  0
VERTEX
  5
BA2
  8
DATA
  6
CONTINUOUS
 62
     7
 10
-61.069218948184727
 20
9.1743242476894302
 30
0.0
  0
VERTEX
  5
BA3
  8
DATA
  6
CONTINUOUS
 62
     7
 10
-60.607231211138178
 20
9.6363865831119924
 30
0.0
  0
VERTEX
  5
BA4
  8
DATA
  6
CONTINUOUS
 62
     7
 10
-59.996991787969513
 20
9.033280049837904
 30
0.0
  0
SEQEND
  5
BA5
  8
DATA
  6
CONTINUOUS
 62
     7
  0
POLYLINE
  5
66E
  8
DATA
  6
CONTINUOUS
 62
     7
 66
     1
 10
0.0
 20
0.0
 30
0.0
  0
VERTEX
  5
BA6
  8
DATA
  6
CONTINUOUS
 62
     7
 10
-54.10922117144171
 20
9.0283546619503632
 30
0.0
  0
VERTEX
  5
BA7
  8
DATA
  6
CONTINUOUS
 62
     7
 10
-53.501213793427098
 20
9.6363865831119924
 30
0.0
  0
VERTEX
  5
BA8
  8
DATA
  6
CONTINUOUS
 62
     7
 10
-53.017219535722973
 20
9.1743242476894302
 30
0.0
  0
VERTEX
  5
BA9
  8
DATA
  6
CONTINUOUS
 62
     7
 10
-53.635398750902482
 20
8.5487836766598821
 30
0.0
  0
SEQEND
  5
BAA
  8
DATA
  6
CONTINUOUS
 62
     7
  0
POLYLINE
  5
675
  8
DATA
  6
CONTINUOUS
 62
     7
 66
     1
 10
0.0
 20
0.0
 30
0.0
  0
VERTEX
  5
BAB
  8
DATA
  6
CONTINUOUS
 62
     7
 10
-54.730204461763101
 20
8.407346304689403
 30
0.0
  0
VERTEX
  5
BAC
  8
DATA
  6
CONTINUOUS
 62
     7
 10
-55.349239339989737
 20
7.7882864381738433
 30
0.0
  0
VERTEX
  5
BAD
  8
DATA
  6
CONTINUOUS
 62
     7
 10
-54.865245082286258
 20
7.3042921804697158
 30
0.0
  0
VERTEX
  5
BAE
  8
DATA
  6
CONTINUOUS
 62
     7
 10
-54.244146944335789
 20
7.9327864331697109
 30
0.0
  0
SEQEND
  5
BAF
  8
DATA
  6
CONTINUOUS
 62
     7
  0
POLYLINE
  5
67C
  8
DATA
  6
CONTINUOUS
 62
     7
 66
     1
 10
0.0
 20
0.0
 30
0.0
  0
VERTEX
  5
BB0
  8
DATA
  6
CONTINUOUS
 62
     7
 10
-58.201180381870358
 20
2.891629015068514
 30
0.0
  0
VERTEX
  5
BB1
  8
DATA
  6
CONTINUOUS
 62
     7
 10
-58.201180381870358
 20
4.5529028918745196
 30
0.0
  0
VERTEX
  5
BB2
  8
DATA
  6
CONTINUOUS
 62
     7
 10
-55.801180381870353
 20
4.5529028918745196
 30
0.0
  0
VERTEX
  5
BB3
  8
DATA
  6
CONTINUOUS
 62
     7
 10
-55.801180381870353
 20
2.891629015068514
 30
0.0
  0
SEQEND
  5
BB4
  8
DATA
  6
CONTINUOUS
 62
     7
  0
ARC
  5
683
  8
DATA
  6
CONTINUOUS
 62
     7
 10
-57.001180381870363
 20
8.0123482784346916
 30
0.0
 40
5.2594453865601798
 50
283.18882270300429
 51
256.81117729699611
  0
CIRCLE
  5
684
  8
DATA
  6
CONTINUOUS
 62
     7
 10
-42.438205134469122
 20
15.993764827885959
 30
0.0
 40
2.340000000000003
  0
POLYLINE
  5
685
  8
DATA
  6
CONTINUOUS
 62
     7
 66
     1
 10
0.0
 20
0.0
 30
0.0
  0
VERTEX
  5
BB5
  8
DATA
  6
CONTINUOUS
 62
     7
 10
-42.663205134469123
 20
16.218764827885948
 30
0.0
  0
VERTEX
  5
BB6
  8
DATA
  6
CONTINUOUS
 62
     7
 10
-42.663205134469123
 20
17.793764827885958
 30
0.0
  0
VERTEX
  5
BB7
  8
DATA
  6
CONTINUOUS
 62
     7
 10
-42.213205134469142
 20
17.793764827885958
 30
0.0
  0
VERTEX
  5
BB8
  8
DATA
  6
CONTINUOUS
 62
     7
 10
-42.213205134469142
 20
16.218764827885948
 30
0.0
  0
SEQEND
  5
BB9
  8
DATA
  6
CONTINUOUS
 62
     7
  0
POLYLINE
  5
68C
  8
DATA
  6
CONTINUOUS
 62
     7
 66
     1
 10
0.0
 20
0.0
 30
0.0
  0
VERTEX
  5
BBA
  8
DATA
  6
CONTINUOUS
 62
     7
 10
-42.663205134469123
 20
15.76876482788597
 30
0.0
  0
VERTEX
  5
BBB
  8
DATA
  6
CONTINUOUS
 62
     7
 10
-42.663205134469123
 20
14.19376482788596
 30
0.0
  0
VERTEX
  5
BBC
  8
DATA
  6
CONTINUOUS
 62
     7
 10
-42.213205134469142
 20
14.19376482788596
 30
0.0
  0
VERTEX
  5
BBD
  8
DATA
  6
CONTINUOUS
 62
     7
 10
-42.213205134469142
 20
15.76876482788597
 30
0.0
  0
SEQEND
  5
BBE
  8
DATA
  6
CONTINUOUS
 62
     7
  0
POLYLINE
  5
693
  8
DATA
  6
CONTINUOUS
 62
     7
 66
     1
 10
0.0
 20
0.0
 30
0.0
  0
VERTEX
  5
BBF
  8
DATA
  6
CONTINUOUS
 62
     7
 10
-42.213205134469142
 20
16.218764827885948
 30
0.0
  0
VERTEX
  5
BC0
  8
DATA
  6
CONTINUOUS
 62
     7
 10
-40.638205134469132
 20
16.218764827885948
 30
0.0
  0
VERTEX
  5
BC1
  8
DATA
  6
CONTINUOUS
 62
     7
 10
-40.638205134469132
 20
15.76876482788597
 30
0.0
  0
VERTEX
  5
BC2
  8
DATA
  6
CONTINUOUS
 62
     7
 10
-42.213205134469142
 20
15.76876482788597
 30
0.0
  0
SEQEND
  5
BC3
  8
DATA
  6
CONTINUOUS
 62
     7
  0
POLYLINE
  5
69A
  8
DATA
  6
CONTINUOUS
 62
     7
 66
     1
 10
0.0
 20
0.0
 30
0.0
  0
VERTEX
  5
BC4
  8
DATA
  6
CONTINUOUS
 62
     7
 10
-42.663205134469123
 20
16.218764827885948
 30
0.0
  0
VERTEX
  5
BC5
  8
DATA
  6
CONTINUOUS
 62
     7
 10
-44.238205134469148
 20
16.218764827885948
 30
0.0
  0
VERTEX
  5
BC6
  8
DATA
  6
CONTINUOUS
 62
     7
 10
-44.238205134469148
 20
15.76876482788597
 30
0.0
  0
VERTEX
  5
BC7
  8
DATA
  6
CONTINUOUS
 62
     7
 10
-42.663205134469123
 20
15.76876482788597
 30
0.0
  0
SEQEND
  5
BC8
  8
DATA
  6
CONTINUOUS
 62
     7
  0
CIRCLE
  5
6A1
  8
DATA
  6
CONTINUOUS
 62
     7
 10
-64.356788585018393
 20
15.993764827885959
 30
0.0
 40
2.340000000000003
  0
POLYLINE
  5
6A2
  8
DATA
  6
CONTINUOUS
 62
     7
 66
     1
 10
0.0
 20
0.0
 30
0.0
  0
VERTEX
  5
BC9
  8
DATA
  6
CONTINUOUS
 62
     7
 10
-64.581788585018387
 20
16.218764827885948
 30
0.0
  0
VERTEX
  5
BCA
  8
DATA
  6
CONTINUOUS
 62
     7
 10
-64.581788585018387
 20
17.793764827885958
 30
0.0
  0
VERTEX
  5
BCB
  8
DATA
  6
CONTINUOUS
 62
     7
 10
-64.131788585018398
 20
17.793764827885958
 30
0.0
  0
VERTEX
  5
BCC
  8
DATA
  6
CONTINUOUS
 62
     7
 10
-64.131788585018398
 20
16.218764827885948
 30
0.0
  0
SEQEND
  5
BCD
  8
DATA
  6
CONTINUOUS
 62
     7
  0
POLYLINE
  5
6A9
  8
DATA
  6
CONTINUOUS
 62
     7
 66
     1
 10
0.0
 20
0.0
 30
0.0
  0
VERTEX
  5
BCE
  8
DATA
  6
CONTINUOUS
 62
     7
 10
-64.581788585018387
 20
15.76876482788597
 30
0.0
  0
VERTEX
  5
BCF
  8
DATA
  6
CONTINUOUS
 62
     7
 10
-64.581788585018387
 20
14.19376482788596
 30
0.0
  0
VERTEX
  5
BD0
  8
DATA
  6
CONTINUOUS
 62
     7
 10
-64.131788585018398
 20
14.19376482788596
 30
0.0
  0
VERTEX
  5
BD1
  8
DATA
  6
CONTINUOUS
 62
     7
 10
-64.131788585018398
 20
15.76876482788597
 30
0.0
  0
SEQEND
  5
BD2
  8
DATA
  6
CONTINUOUS
 62
     7
  0
POLYLINE
  5
6B0
  8
DATA
  6
CONTINUOUS
 62
     7
 66
     1
 10
0.0
 20
0.0
 30
0.0
  0
VERTEX
  5
BD3
  8
DATA
  6
CONTINUOUS
 62
     7
 10
-64.131788585018398
 20
16.218764827885948
 30
0.0
  0
VERTEX
  5
BD4
  8
DATA
  6
CONTINUOUS
 62
     7
 10
-62.556788585018388
 20
16.218764827885948
 30
0.0
  0
VERTEX
  5
BD5
  8
DATA
  6
CONTINUOUS
 62
     7
 10
-62.556788585018388
 20
15.76876482788597
 30
0.0
  0
VERTEX
  5
BD6
  8
DATA
  6
CONTINUOUS
 62
     7
 10
-64.131788585018398
 20
15.76876482788597
 30
0.0
  0
SEQEND
  5
BD7
  8
DATA
  6
CONTINUOUS
 62
     7
  0
POLYLINE
  5
6B7
  8
DATA
  6
CONTINUOUS
 62
     7
 66
     1
 10
0.0
 20
0.0
 30
0.0
  0
VERTEX
  5
BD8
  8
DATA
  6
CONTINUOUS
 62
     7
 10
-64.581788585018387
 20
16.218764827885948
 30
0.0
  0
VERTEX
  5
BD9
  8
DATA
  6
CONTINUOUS
 62
     7
 10
-66.15678858501839
 20
16.218764827885948
 30
0.0
  0
VERTEX
  5
BDA
  8
DATA
  6
CONTINUOUS
 62
     7
 10
-66.15678858501839
 20
15.76876482788597
 30
0.0
  0
VERTEX
  5
BDB
  8
DATA
  6
CONTINUOUS
 62
     7
 10
-64.581788585018387
 20
15.76876482788597
 30
0.0
  0
SEQEND
  5
BDC
  8
DATA
  6
CONTINUOUS
 62
     7
  0
ARC
  5
6BE
  8
DATA
  6
CONTINUOUS
 62
     7
 10
-330.91698138290587
 20
19.497651721576531
 30
0.0
 40
8.5918382352941212
 50
157.05141662194109
 51
202.94858337805891
  0
LINE
  5
6BF
  8
DATA
  6
CONTINUOUS
 62
     7
 10
-338.82881961819999
 20
22.847651721576561
 30
0.0
 11
-336.9988196182
 21
22.847651721576561
 31
0.0
  0
LINE
  5
6C0
  8
DATA
  6
CONTINUOUS
 62
     7
 10
-338.82881961819999
 20
16.147651721576519
 30
0.0
 11
-336.9988196182
 21
16.147651721576519
 31
0.0
  0
ARC
  5
6C1
  8
DATA
  6
CONTINUOUS
 62
     7
 10
93.916981382835488
 20
19.497651721576531
 30
0.0
 40
8.5918382352941212
 50
337.05141662194109
 51
22.948583378058931
  0
LINE
  5
6C2
  8
DATA
  6
CONTINUOUS
 62
     7
 10
101.8288196181296
 20
22.847651721576561
 30
0.0
 11
99.99881961812963
 21
22.847651721576561
 31
0.0
  0
LINE
  5
6C3
  8
DATA
  6
CONTINUOUS
 62
     7
 10
101.8288196181296
 20
16.147651721576519
 30
0.0
 11
99.99881961812963
 21
16.147651721576519
 31
0.0
  0
LINE
  5
6C4
  8
DATA
  6
CONTINUOUS
 62
     7
 10
-105.1523607636704
 20
-152.90000000002769
 30
0.0
 11
-96.852360763670362
 21
-152.90000000002769
 31
0.0
  0
LINE
  5
6C5
  8
DATA
  6
CONTINUOUS
 62
     7
 10
-105.1523607636704
 20
-152.90000000002769
 30
0.0
 11
-105.1523607636704
 21
-157.40000000002769
 31
0.0
  0
LINE
  5
6C6
  8
DATA
  6
CONTINUOUS
 62
     7
 10
-96.852360763670362
 20
-152.90000000002769
 30
0.0
 11
-96.852360763670362
 21
-157.40000000002769
 31
0.0
  0
LINE
  5
6C7
  8
DATA
  6
CONTINUOUS
 62
     7
 10
-309.30236076367038
 20
-150.90000000002769
 30
0.0
 11
-298.70236076367041
 21
-150.90000000002769
 31
0.0
  0
LINE
  5
6C8
  8
DATA
  6
CONTINUOUS
 62
     7
 10
-311.96140064379023
 20
-153.90000000002769
 30
0.0
 11
-296.04332088355051
 21
-153.90000000002769
 31
0.0
  0
LINE
  5
6C9
  8
DATA
  6
CONTINUOUS
 62
     7
 10
-309.30236076367038
 20
-150.90000000002769
 30
0.0
 11
-309.30236076367038
 21
-153.90000000002769
 31
0.0
  0
LINE
  5
6CA
  8
DATA
  6
CONTINUOUS
 62
     7
 10
-298.70236076367041
 20
-150.90000000002769
 30
0.0
 11
-298.70236076367041
 21
-153.90000000002769
 31
0.0
  0
LINE
  5
6CB
  8
DATA
  6
CONTINUOUS
 62
     7
 10
-311.96140064379023
 20
-153.90000000002769
 30
0.0
 11
-311.96140064379023
 21
-157.40000000002769
 31
0.0
  0
LINE
  5
6CC
  8
DATA
  6
CONTINUOUS
 62
     7
 10
-296.04332088355051
 20
-153.90000000002769
 30
0.0
 11
-296.04332088355051
 21
-157.40000000002769
 31
0.0
  0
LINE
  5
6CD
  8
DATA
  6
CONTINUOUS
 62
     7
 10
-310.91567315378478
 20
-153.90000000002769
 30
0.0
 11
-310.91567315378478
 21
-157.40000000002769
 31
0.0
  0
LINE
  5
6CE
  8
DATA
  6
CONTINUOUS
 62
     7
 10
-302.95663327366492
 20
-153.90000000002769
 30
0.0
 11
-302.95663327366492
 21
-157.40000000002769
 31
0.0
  0
LINE
  5
6CF
  8
DATA
  6
CONTINUOUS
 62
     7
 10
-286.30236076367038
 20
-150.90000000002769
 30
0.0
 11
-275.70236076367041
 21
-150.90000000002769
 31
0.0
  0
LINE
  5
6D0
  8
DATA
  6
CONTINUOUS
 62
     7
 10
-288.96140064379023
 20
-153.90000000002769
 30
0.0
 11
-273.04332088355039
 21
-153.90000000002769
 31
0.0
  0
LINE
  5
6D1
  8
DATA
  6
CONTINUOUS
 62
     7
 10
-286.30236076367038
 20
-150.90000000002769
 30
0.0
 11
-286.30236076367038
 21
-153.90000000002769
 31
0.0
  0
LINE
  5
6D2
  8
DATA
  6
CONTINUOUS
 62
     7
 10
-275.70236076367041
 20
-150.90000000002769
 30
0.0
 11
-275.70236076367041
 21
-153.90000000002769
 31
0.0
  0
LINE
  5
6D3
  8
DATA
  6
CONTINUOUS
 62
     7
 10
-288.96140064379023
 20
-153.90000000002769
 30
0.0
 11
-288.96140064379023
 21
-157.40000000002769
 31
0.0
  0
LINE
  5
6D4
  8
DATA
  6
CONTINUOUS
 62
     7
 10
-273.04332088355039
 20
-153.90000000002769
 30
0.0
 11
-273.04332088355039
 21
-157.40000000002769
 31
0.0
  0
LINE
  5
6D5
  8
DATA
  6
CONTINUOUS
 62
     7
 10
-287.91567315378489
 20
-153.90000000002769
 30
0.0
 11
-287.91567315378489
 21
-157.40000000002769
 31
0.0
  0
LINE
  5
6D6
  8
DATA
  6
CONTINUOUS
 62
     7
 10
-279.95663327366492
 20
-153.90000000002769
 30
0.0
 11
-279.95663327366492
 21
-157.40000000002769
 31
0.0
  0
LINE
  5
6D7
  8
DATA
  6
CONTINUOUS
 62
     7
 10
-256.30236076367038
 20
-150.90000000002769
 30
0.0
 11
-245.70236076367041
 21
-150.90000000002769
 31
0.0
  0
LINE
  5
6D8
  8
DATA
  6
CONTINUOUS
 62
     7
 10
-258.96140064379023
 20
-153.90000000002769
 30
0.0
 11
-243.04332088355051
 21
-153.90000000002769
 31
0.0
  0
LINE
  5
6D9
  8
DATA
  6
CONTINUOUS
 62
     7
 10
-256.30236076367038
 20
-150.90000000002769
 30
0.0
 11
-256.30236076367038
 21
-153.90000000002769
 31
0.0
  0
LINE
  5
6DA
  8
DATA
  6
CONTINUOUS
 62
     7
 10
-245.70236076367041
 20
-150.90000000002769
 30
0.0
 11
-245.70236076367041
 21
-153.90000000002769
 31
0.0
  0
LINE
  5
6DB
  8
DATA
  6
CONTINUOUS
 62
     7
 10
-258.96140064379023
 20
-153.90000000002769
 30
0.0
 11
-258.96140064379023
 21
-157.40000000002769
 31
0.0
  0
LINE
  5
6DC
  8
DATA
  6
CONTINUOUS
 62
     7
 10
-243.04332088355051
 20
-153.90000000002769
 30
0.0
 11
-243.04332088355051
 21
-157.40000000002769
 31
0.0
  0
LINE
  5
6DD
  8
DATA
  6
CONTINUOUS
 62
     7
 10
-257.91567315378478
 20
-153.90000000002769
 30
0.0
 11
-257.91567315378478
 21
-157.40000000002769
 31
0.0
  0
LINE
  5
6DE
  8
DATA
  6
CONTINUOUS
 62
     7
 10
-249.95663327366489
 20
-153.90000000002769
 30
0.0
 11
-249.95663327366489
 21
-157.40000000002769
 31
0.0
  0
LINE
  5
6DF
  8
DATA
  6
CONTINUOUS
 62
     7
 10
-233.30236076367041
 20
-150.90000000002769
 30
0.0
 11
-222.70236076367041
 21
-150.90000000002769
 31
0.0
  0
LINE
  5
6E0
  8
DATA
  6
CONTINUOUS
 62
     7
 10
-235.96140064379031
 20
-153.90000000002769
 30
0.0
 11
-220.04332088355051
 21
-153.90000000002769
 31
0.0
  0
LINE
  5
6E1
  8
DATA
  6
CONTINUOUS
 62
     7
 10
-233.30236076367041
 20
-150.90000000002769
 30
0.0
 11
-233.30236076367041
 21
-153.90000000002769
 31
0.0
  0
LINE
  5
6E2
  8
DATA
  6
CONTINUOUS
 62
     7
 10
-222.70236076367041
 20
-150.90000000002769
 30
0.0
 11
-222.70236076367041
 21
-153.90000000002769
 31
0.0
  0
LINE
  5
6E3
  8
DATA
  6
CONTINUOUS
 62
     7
 10
-235.96140064379031
 20
-153.90000000002769
 30
0.0
 11
-235.96140064379031
 21
-157.40000000002769
 31
0.0
  0
LINE
  5
6E4
  8
DATA
  6
CONTINUOUS
 62
     7
 10
-220.04332088355051
 20
-153.90000000002769
 30
0.0
 11
-220.04332088355051
 21
-157.40000000002769
 31
0.0
  0
LINE
  5
6E5
  8
DATA
  6
CONTINUOUS
 62
     7
 10
-234.91567315378481
 20
-153.90000000002769
 30
0.0
 11
-234.91567315378481
 21
-157.40000000002769
 31
0.0
  0
LINE
  5
6E6
  8
DATA
  6
CONTINUOUS
 62
     7
 10
-226.95663327366489
 20
-153.90000000002769
 30
0.0
 11
-226.95663327366489
 21
-157.40000000002769
 31
0.0
  0
LINE
  5
6E7
  8
DATA
  6
CONTINUOUS
 62
     7
 10
-17.302360763670379
 20
-150.90000000002769
 30
0.0
 11
-6.702360763670355
 21
-150.90000000002769
 31
0.0
  0
LINE
  5
6E8
  8
DATA
  6
CONTINUOUS
 62
     7
 10
-19.961400643790231
 20
-153.90000000002769
 30
0.0
 11
-4.043320883550507
 21
-153.90000000002769
 31
0.0
  0
LINE
  5
6E9
  8
DATA
  6
CONTINUOUS
 62
     7
 10
-17.302360763670379
 20
-150.90000000002769
 30
0.0
 11
-17.302360763670379
 21
-153.90000000002769
 31
0.0
  0
LINE
  5
6EA
  8
DATA
  6
CONTINUOUS
 62
     7
 10
-6.702360763670355
 20
-150.90000000002769
 30
0.0
 11
-6.702360763670355
 21
-153.90000000002769
 31
0.0
  0
LINE
  5
6EB
  8
DATA
  6
CONTINUOUS
 62
     7
 10
-19.961400643790231
 20
-153.90000000002769
 30
0.0
 11
-19.961400643790231
 21
-157.40000000002769
 31
0.0
  0
LINE
  5
6EC
  8
DATA
  6
CONTINUOUS
 62
     7
 10
-4.043320883550507
 20
-153.90000000002769
 30
0.0
 11
-4.043320883550507
 21
-157.40000000002769
 31
0.0
  0
LINE
  5
6ED
  8
DATA
  6
CONTINUOUS
 62
     7
 10
-18.915673153784841
 20
-153.90000000002769
 30
0.0
 11
-18.915673153784841
 21
-157.40000000002769
 31
0.0
  0
LINE
  5
6EE
  8
DATA
  6
CONTINUOUS
 62
     7
 10
-10.95663327366492
 20
-153.90000000002769
 30
0.0
 11
-10.95663327366492
 21
-157.40000000002769
 31
0.0
  0
LINE
  5
6EF
  8
DATA
  6
CONTINUOUS
 62
     7
 10
-95.592754282943588
 20
-405.5526987980694
 30
0.0
 11
-95.465774700383221
 21
-405.5461127906874
 31
0.0
  0
ARC
  5
6F0
  8
DATA
  6
CONTINUOUS
 62
     7
 10
75.590323836487045
 20
-208.37453423789341
 30
0.0
 40
78.625465762134198
 50
262.32553510977482
 51
277.67446489022512
  0
LINE
  5
6F1
  8
DATA
  6
CONTINUOUS
 62
     7
 10
64.0
 20
-271.00000000002763
 30
0.0
 11
88.840323836487045
 21
-271.00000000002763
 31
0.0
  0
LINE
  5
6F2
  8
DATA
  6
CONTINUOUS
 62
     7
 10
88.840323836487045
 20
-271.00000000002763
 30
0.0
 11
88.840323836487045
 21
-270.00000000002763
 31
0.0
  0
LINE
  5
6F3
  8
DATA
  6
CONTINUOUS
 62
     7
 10
65.090323836487045
 20
-286.29573716952518
 30
0.0
 11
64.090323836487073
 21
-274.16016837346137
 31
0.0
  0
LINE
  5
6F4
  8
DATA
  6
CONTINUOUS
 62
     7
 10
86.090323836487045
 20
-286.29573716952518
 30
0.0
 11
87.090323836487059
 21
-274.16016837346137
 31
0.0
  0
ARC
  5
6F5
  8
DATA
  6
CONTINUOUS
 62
     7
 10
57.384163210031929
 20
-275.80919412344332
 30
0.0
 40
6.9059305145592162
 50
13.81478250112591
 51
28.631957943114831
  0
ARC
  5
6F6
  8
DATA
  6
CONTINUOUS
 62
     7
 10
93.796484462942146
 20
-275.80919412344332
 30
0.0
 40
6.9059305145591567
 50
135.8622241500417
 51
166.1852174988741
  0
LINE
  5
6F7
  8
DATA
  6
CONTINUOUS
 62
     7
 10
-310.49159539044649
 20
-285.17600103009568
 30
0.0
 11
-310.49159539044649
 21
-270.00000000002763
 31
0.0
  0
LINE
  5
6F8
  8
DATA
  6
CONTINUOUS
 62
     7
 10
-309.51159539044647
 20
-285.17600103009568
 30
0.0
 11
-309.51159539044647
 21
-270.00000000002763
 31
0.0
  0
LINE
  5
6F9
  8
DATA
  6
CONTINUOUS
 62
     7
 10
-310.49159539044649
 20
-285.68600103009572
 30
0.0
 11
-309.51159539044647
 21
-285.68600103009572
 31
0.0
  0
LINE
  5
6FA
  8
DATA
  6
CONTINUOUS
 62
     7
 10
-310.49159539044649
 20
-285.17600103009568
 30
0.0
 11
-310.49159539044649
 21
-285.68600103009572
 31
0.0
  0
LINE
  5
6FB
  8
DATA
  6
CONTINUOUS
 62
     7
 10
-309.51159539044647
 20
-285.17600103009568
 30
0.0
 11
-309.51159539044647
 21
-285.68600103009572
 31
0.0
  0
ARC
  5
6FC
  8
DATA
  6
CONTINUOUS
 62
     7
 10
-320.30161298407398
 20
-273.4010309180203
 30
0.0
 40
3.8032193044035112
 50
358.3346968230494
 51
63.412325756786863
  0
ARC
  5
6FD
  8
DATA
  6
CONTINUOUS
 62
     7
 10
-299.70157779681892
 20
-273.4010309180203
 30
0.0
 40
3.803219304403521
 50
116.5876742432131
 51
181.6653031769506
  0
ARC
  5
6FE
  8
DATA
  6
CONTINUOUS
 62
     7
 10
-310.00152172079652
 20
-252.32542360419211
 30
0.0
 40
32.850577425986252
 50
259.6102722946822
 51
269.14521458219463
  0
ARC
  5
6FF
  8
DATA
  6
CONTINUOUS
 62
     7
 10
-310.00152172079652
 20
-252.32542360419211
 30
0.0
 40
32.850577425986273
 50
270.85452840986238
 51
280.38972770531791
  0
LINE
  5
700
  8
DATA
  6
CONTINUOUS
 62
     7
 10
-315.92588691363829
 20
-284.63737703140788
 30
0.0
 11
-316.49999999999989
 21
-273.51155601339121
 31
0.0
  0
LINE
  5
701
  8
DATA
  6
CONTINUOUS
 62
     7
 10
-304.07715652795463
 20
-284.63737703140788
 30
0.0
 11
-303.50319078089308
 21
-273.51155601339121
 31
0.0
  0
LINE
  5
702
  8
DATA
  6
CONTINUOUS
 62
     7
 10
-286.49159539044649
 20
-285.17600103009568
 30
0.0
 11
-286.49159539044649
 21
-270.00000000002763
 31
0.0
  0
LINE
  5
703
  8
DATA
  6
CONTINUOUS
 62
     7
 10
-285.51159539044647
 20
-285.17600103009568
 30
0.0
 11
-285.51159539044647
 21
-270.00000000002763
 31
0.0
  0
LINE
  5
704
  8
DATA
  6
CONTINUOUS
 62
     7
 10
-286.49159539044649
 20
-285.68600103009572
 30
0.0
 11
-285.51159539044647
 21
-285.68600103009572
 31
0.0
  0
LINE
  5
705
  8
DATA
  6
CONTINUOUS
 62
     7
 10
-286.49159539044649
 20
-285.17600103009568
 30
0.0
 11
-286.49159539044649
 21
-285.68600103009572
 31
0.0
  0
LINE
  5
706
  8
DATA
  6
CONTINUOUS
 62
     7
 10
-285.51159539044647
 20
-285.17600103009568
 30
0.0
 11
-285.51159539044647
 21
-285.68600103009572
 31
0.0
  0
ARC
  5
707
  8
DATA
  6
CONTINUOUS
 62
     7
 10
-296.30161298407398
 20
-273.4010309180203
 30
0.0
 40
3.8032193044035112
 50
358.3346968230494
 51
63.412325756786863
  0
ARC
  5
708
  8
DATA
  6
CONTINUOUS
 62
     7
 10
-275.70157779681898
 20
-273.4010309180203
 30
0.0
 40
3.803219304403521
 50
116.5876742432131
 51
181.6653031769506
  0
ARC
  5
709
  8
DATA
  6
CONTINUOUS
 62
     7
 10
-286.00152172079652
 20
-252.32542360419211
 30
0.0
 40
32.850577425986252
 50
259.6102722946822
 51
269.14521458219463
  0
ARC
  5
70A
  8
DATA
  6
CONTINUOUS
 62
     7
 10
-286.00152172079652
 20
-252.32542360419211
 30
0.0
 40
32.850577425986273
 50
270.85452840986238
 51
280.38972770531791
  0
LINE
  5
70B
  8
DATA
  6
CONTINUOUS
 62
     7
 10
-291.92588691363829
 20
-284.63737703140788
 30
0.0
 11
-292.49999999999989
 21
-273.51155601339121
 31
0.0
  0
LINE
  5
70C
  8
DATA
  6
CONTINUOUS
 62
     7
 10
-280.07715652795463
 20
-284.63737703140788
 30
0.0
 11
-279.50319078089308
 21
-273.51155601339121
 31
0.0
  0
LINE
  5
70D
  8
DATA
  6
CONTINUOUS
 62
     7
 10
-262.49159539044649
 20
-285.17600103009568
 30
0.0
 11
-262.49159539044649
 21
-272.50000000002763
 31
0.0
  0
LINE
  5
70E
  8
DATA
  6
CONTINUOUS
 62
     7
 10
-261.51159539044647
 20
-285.17600103009568
 30
0.0
 11
-261.51159539044647
 21
-272.50000000002763
 31
0.0
  0
LINE
  5
70F
  8
DATA
  6
CONTINUOUS
 62
     7
 10
-262.49159539044649
 20
-285.68600103009572
 30
0.0
 11
-261.51159539044647
 21
-285.68600103009572
 31
0.0
  0
LINE
  5
710
  8
DATA
  6
CONTINUOUS
 62
     7
 10
-262.49159539044649
 20
-285.17600103009568
 30
0.0
 11
-262.49159539044649
 21
-285.68600103009572
 31
0.0
  0
LINE
  5
711
  8
DATA
  6
CONTINUOUS
 62
     7
 10
-261.51159539044647
 20
-285.17600103009568
 30
0.0
 11
-261.51159539044647
 21
-285.68600103009572
 31
0.0
  0
ARC
  5
712
  8
DATA
  6
CONTINUOUS
 62
     7
 10
-272.30161298407398
 20
-273.4010309180203
 30
0.0
 40
3.8032193044035112
 50
358.3346968230494
 51
63.412325756786863
  0
ARC
  5
713
  8
DATA
  6
CONTINUOUS
 62
     7
 10
-251.70157779681901
 20
-273.4010309180203
 30
0.0
 40
3.803219304403521
 50
116.5876742432131
 51
181.6653031769506
  0
ARC
  5
714
  8
DATA
  6
CONTINUOUS
 62
     7
 10
-262.0015217207964
 20
-252.32542360419211
 30
0.0
 40
32.850577425986252
 50
259.6102722946822
 51
269.14521458219463
  0
ARC
  5
715
  8
DATA
  6
CONTINUOUS
 62
     7
 10
-262.0015217207964
 20
-252.32542360419211
 30
0.0
 40
32.850577425986273
 50
270.85452840986238
 51
280.38972770531791
  0
LINE
  5
716
  8
DATA
  6
CONTINUOUS
 62
     7
 10
-267.92588691363829
 20
-284.63737703140788
 30
0.0
 11
-268.49999999999989
 21
-273.51155601339121
 31
0.0
  0
LINE
  5
717
  8
DATA
  6
CONTINUOUS
 62
     7
 10
-256.07715652795463
 20
-284.63737703140788
 30
0.0
 11
-255.50319078089311
 21
-273.51155601339121
 31
0.0
  0
LINE
  5
718
  8
DATA
  6
CONTINUOUS
 62
     7
 10
-119.49159539044651
 20
-285.17600103009568
 30
0.0
 11
-119.49159539044651
 21
-270.00000000002763
 31
0.0
  0
LINE
  5
719
  8
DATA
  6
CONTINUOUS
 62
     7
 10
-118.5115953904465
 20
-285.17600103009568
 30
0.0
 11
-118.5115953904465
 21
-270.00000000002763
 31
0.0
  0
LINE
  5
71A
  8
DATA
  6
CONTINUOUS
 62
     7
 10
-119.49159539044651
 20
-285.68600103009572
 30
0.0
 11
-118.5115953904465
 21
-285.68600103009572
 31
0.0
  0
LINE
  5
71B
  8
DATA
  6
CONTINUOUS
 62
     7
 10
-119.49159539044651
 20
-285.17600103009568
 30
0.0
 11
-119.49159539044651
 21
-285.68600103009572
 31
0.0
  0
LINE
  5
71C
  8
DATA
  6
CONTINUOUS
 62
     7
 10
-118.5115953904465
 20
-285.17600103009568
 30
0.0
 11
-118.5115953904465
 21
-285.68600103009572
 31
0.0
  0
ARC
  5
71D
  8
DATA
  6
CONTINUOUS
 62
     7
 10
-129.30161298407401
 20
-273.4010309180203
 30
0.0
 40
3.8032193044035112
 50
358.3346968230494
 51
63.412325756786863
  0
ARC
  5
71E
  8
DATA
  6
CONTINUOUS
 62
     7
 10
-108.701577796819
 20
-273.4010309180203
 30
0.0
 40
3.803219304403521
 50
116.5876742432131
 51
181.6653031769506
  0
ARC
  5
71F
  8
DATA
  6
CONTINUOUS
 62
     7
 10
-119.0015217207964
 20
-252.32542360419211
 30
0.0
 40
32.850577425986252
 50
259.6102722946822
 51
269.14521458219463
  0
ARC
  5
720
  8
DATA
  6
CONTINUOUS
 62
     7
 10
-119.0015217207964
 20
-252.32542360419211
 30
0.0
 40
32.850577425986273
 50
270.85452840986238
 51
280.38972770531791
  0
LINE
  5
721
  8
DATA
  6
CONTINUOUS
 62
     7
 10
-124.92588691363819
 20
-284.63737703140788
 30
0.0
 11
-125.4999999999999
 21
-273.51155601339121
 31
0.0
  0
LINE
  5
722
  8
DATA
  6
CONTINUOUS
 62
     7
 10
-113.0771565279546
 20
-284.63737703140788
 30
0.0
 11
-112.50319078089311
 21
-273.51155601339121
 31
0.0
  0
LINE
  5
723
  8
DATA
  6
CONTINUOUS
 62
     7
 10
-95.491595390446506
 20
-285.17600103009568
 30
0.0
 11
-95.491595390446506
 21
-272.50000000002763
 31
0.0
  0
LINE
  5
724
  8
DATA
  6
CONTINUOUS
 62
     7
 10
-94.511595390446487
 20
-285.17600103009568
 30
0.0
 11
-94.511595390446487
 21
-272.50000000002763
 31
0.0
  0
LINE
  5
725
  8
DATA
  6
CONTINUOUS
 62
     7
 10
-95.491595390446506
 20
-285.68600103009572
 30
0.0
 11
-94.511595390446487
 21
-285.68600103009572
 31
0.0
  0
LINE
  5
726
  8
DATA
  6
CONTINUOUS
 62
     7
 10
-95.491595390446506
 20
-285.17600103009568
 30
0.0
 11
-95.491595390446506
 21
-285.68600103009572
 31
0.0
  0
LINE
  5
727
  8
DATA
  6
CONTINUOUS
 62
     7
 10
-94.511595390446487
 20
-285.17600103009568
 30
0.0
 11
-94.511595390446487
 21
-285.68600103009572
 31
0.0
  0
ARC
  5
728
  8
DATA
  6
CONTINUOUS
 62
     7
 10
-105.301612984074
 20
-273.4010309180203
 30
0.0
 40
3.8032193044035112
 50
358.3346968230494
 51
56.455264211484689
  0
ARC
  5
729
  8
DATA
  6
CONTINUOUS
 62
     7
 10
-84.701577796818981
 20
-273.4010309180203
 30
0.0
 40
3.803219304403513
 50
166.29560380251311
 51
181.6653031769506
  0
ARC
  5
72A
  8
DATA
  6
CONTINUOUS
 62
     7
 10
-95.001521720796447
 20
-252.32542360419211
 30
0.0
 40
32.850577425986252
 50
259.6102722946822
 51
269.14521458219463
  0
ARC
  5
72B
  8
DATA
  6
CONTINUOUS
 62
     7
 10
-95.001521720796447
 20
-252.32542360419211
 30
0.0
 40
32.850577425986273
 50
270.85452840986238
 51
280.38972770531791
  0
LINE
  5
72C
  8
DATA
  6
CONTINUOUS
 62
     7
 10
-100.92588691363819
 20
-284.63737703140788
 30
0.0
 11
-101.4999999999999
 21
-273.51155601339121
 31
0.0
  0
LINE
  5
72D
  8
DATA
  6
CONTINUOUS
 62
     7
 10
-89.077156527954614
 20
-284.63737703140788
 30
0.0
 11
-88.503190780893092
 21
-273.51155601339121
 31
0.0
  0
LINE
  5
72E
  8
DATA
  6
CONTINUOUS
 62
     7
 10
-71.491595390446477
 20
-285.17600103009568
 30
0.0
 11
-71.491595390446477
 21
-272.50000000002763
 31
0.0
  0
LINE
  5
72F
  8
DATA
  6
CONTINUOUS
 62
     7
 10
-70.511595390446473
 20
-285.17600103009568
 30
0.0
 11
-70.511595390446473
 21
-272.50000000002763
 31
0.0
  0
LINE
  5
730
  8
DATA
  6
CONTINUOUS
 62
     7
 10
-71.491595390446477
 20
-285.68600103009572
 30
0.0
 11
-70.511595390446473
 21
-285.68600103009572
 31
0.0
  0
LINE
  5
731
  8
DATA
  6
CONTINUOUS
 62
     7
 10
-71.491595390446477
 20
-285.17600103009568
 30
0.0
 11
-71.491595390446477
 21
-285.68600103009572
 31
0.0
  0
LINE
  5
732
  8
DATA
  6
CONTINUOUS
 62
     7
 10
-70.511595390446473
 20
-285.17600103009568
 30
0.0
 11
-70.511595390446473
 21
-285.68600103009572
 31
0.0
  0
ARC
  5
733
  8
DATA
  6
CONTINUOUS
 62
     7
 10
-81.301612984073984
 20
-273.4010309180203
 30
0.0
 40
3.8032193044035112
 50
358.3346968230494
 51
13.70439619748686
  0
ARC
  5
734
  8
DATA
  6
CONTINUOUS
 62
     7
 10
-81.301612984073984
 20
-273.4010309180203
 30
0.0
 40
3.8032193044035081
 50
35.360887835555737
 51
63.412325756786842
  0
ARC
  5
735
  8
DATA
  6
CONTINUOUS
 62
     7
 10
-60.701577796818981
 20
-273.4010309180203
 30
0.0
 40
3.803219304403521
 50
116.5876742432131
 51
181.6653031769506
  0
ARC
  5
736
  8
DATA
  6
CONTINUOUS
 62
     7
 10
-71.001521720796447
 20
-252.32542360419211
 30
0.0
 40
32.850577425986252
 50
259.6102722946822
 51
269.14521458219463
  0
ARC
  5
737
  8
DATA
  6
CONTINUOUS
 62
     7
 10
-71.001521720796447
 20
-252.32542360419211
 30
0.0
 40
32.850577425986273
 50
270.85452840986238
 51
280.38972770531791
  0
LINE
  5
738
  8
DATA
  6
CONTINUOUS
 62
     7
 10
-76.925886913638223
 20
-284.63737703140788
 30
0.0
 11
-77.499999999999872
 21
-273.51155601339121
 31
0.0
  0
LINE
  5
739
  8
DATA
  6
CONTINUOUS
 62
     7
 10
-65.077156527954642
 20
-284.63737703140788
 30
0.0
 11
-64.503190780893064
 21
-273.51155601339121
 31
0.0
  0
LINE
  5
73A
  8
DATA
  6
CONTINUOUS
 62
     7
 10
-27.89159539044649
 20
-285.17600103009568
 30
0.0
 11
-27.89159539044649
 21
-270.00000000002763
 31
0.0
  0
LINE
  5
73B
  8
DATA
  6
CONTINUOUS
 62
     7
 10
-26.911595390446472
 20
-285.17600103009568
 30
0.0
 11
-26.911595390446472
 21
-270.00000000002763
 31
0.0
  0
LINE
  5
73C
  8
DATA
  6
CONTINUOUS
 62
     7
 10
-27.89159539044649
 20
-285.68600103009572
 30
0.0
 11
-26.911595390446472
 21
-285.68600103009572
 31
0.0
  0
LINE
  5
73D
  8
DATA
  6
CONTINUOUS
 62
     7
 10
-27.89159539044649
 20
-285.17600103009568
 30
0.0
 11
-27.89159539044649
 21
-285.68600103009572
 31
0.0
  0
LINE
  5
73E
  8
DATA
  6
CONTINUOUS
 62
     7
 10
-26.911595390446472
 20
-285.17600103009568
 30
0.0
 11
-26.911595390446472
 21
-285.68600103009572
 31
0.0
  0
ARC
  5
73F
  8
DATA
  6
CONTINUOUS
 62
     7
 10
-37.701612984073982
 20
-273.4010309180203
 30
0.0
 40
3.8032193044035112
 50
358.3346968230494
 51
63.412325756786863
  0
ARC
  5
740
  8
DATA
  6
CONTINUOUS
 62
     7
 10
-17.101577796818979
 20
-273.4010309180203
 30
0.0
 40
3.803219304403521
 50
116.5876742432131
 51
181.6653031769506
  0
ARC
  5
741
  8
DATA
  6
CONTINUOUS
 62
     7
 10
-27.40152172079646
 20
-252.32542360419211
 30
0.0
 40
32.850577425986252
 50
259.6102722946822
 51
269.14521458219463
  0
ARC
  5
742
  8
DATA
  6
CONTINUOUS
 62
     7
 10
-27.40152172079646
 20
-252.32542360419211
 30
0.0
 40
32.850577425986273
 50
270.85452840986238
 51
280.38972770531791
  0
LINE
  5
743
  8
DATA
  6
CONTINUOUS
 62
     7
 10
-33.325886913638243
 20
-284.63737703140788
 30
0.0
 11
-33.899999999999892
 21
-273.51155601339121
 31
0.0
  0
LINE
  5
744
  8
DATA
  6
CONTINUOUS
 62
     7
 10
-21.47715652795463
 20
-284.63737703140788
 30
0.0
 11
-20.90319078089308
 21
-273.51155601339121
 31
0.0
  0
LINE
  5
745
  8
DATA
  6
CONTINUOUS
 62
     7
 10
-3.891595390446497
 20
-285.17600103009568
 30
0.0
 11
-3.891595390446497
 21
-272.50000000002763
 31
0.0
  0
LINE
  5
746
  8
DATA
  6
CONTINUOUS
 62
     7
 10
-2.911595390446478
 20
-285.17600103009568
 30
0.0
 11
-2.911595390446478
 21
-272.50000000002763
 31
0.0
  0
LINE
  5
747
  8
DATA
  6
CONTINUOUS
 62
     7
 10
-3.891595390446497
 20
-285.68600103009572
 30
0.0
 11
-2.911595390446478
 21
-285.68600103009572
 31
0.0
  0
LINE
  5
748
  8
DATA
  6
CONTINUOUS
 62
     7
 10
-3.891595390446497
 20
-285.17600103009568
 30
0.0
 11
-3.891595390446497
 21
-285.68600103009572
 31
0.0
  0
LINE
  5
749
  8
DATA
  6
CONTINUOUS
 62
     7
 10
-2.911595390446478
 20
-285.17600103009568
 30
0.0
 11
-2.911595390446478
 21
-285.68600103009572
 31
0.0
  0
ARC
  5
74A
  8
DATA
  6
CONTINUOUS
 62
     7
 10
-13.701612984073989
 20
-273.4010309180203
 30
0.0
 40
3.8032193044035112
 50
358.3346968230494
 51
63.412325756786863
  0
ARC
  5
74B
  8
DATA
  6
CONTINUOUS
 62
     7
 10
6.8984222031810116
 20
-273.4010309180203
 30
0.0
 40
3.8032193044035369
 50
166.2956038025132
 51
181.6653031769506
  0
ARC
  5
74C
  8
DATA
  6
CONTINUOUS
 62
     7
 10
-3.4015217207964659
 20
-252.32542360419211
 30
0.0
 40
32.850577425986252
 50
259.6102722946822
 51
269.14521458219463
  0
ARC
  5
74D
  8
DATA
  6
CONTINUOUS
 62
     7
 10
-3.4015217207964659
 20
-252.32542360419211
 30
0.0
 40
32.850577425986273
 50
270.85452840986238
 51
280.38972770531791
  0
LINE
  5
74E
  8
DATA
  6
CONTINUOUS
 62
     7
 10
-9.3258869136382412
 20
-284.63737703140788
 30
0.0
 11
-9.8999999999998902
 21
-273.51155601339121
 31
0.0
  0
LINE
  5
74F
  8
DATA
  6
CONTINUOUS
 62
     7
 10
2.5228434720453659
 20
-284.63737703140788
 30
0.0
 11
3.0968092191069161
 21
-273.51155601339121
 31
0.0
  0
LINE
  5
750
  8
DATA
  6
CONTINUOUS
 62
     7
 10
20.108404609553499
 20
-285.17600103009568
 30
0.0
 11
20.108404609553499
 21
-272.50000000002763
 31
0.0
  0
LINE
  5
751
  8
DATA
  6
CONTINUOUS
 62
     7
 10
21.088404609553521
 20
-285.17600103009568
 30
0.0
 11
21.088404609553521
 21
-272.50000000002763
 31
0.0
  0
LINE
  5
752
  8
DATA
  6
CONTINUOUS
 62
     7
 10
20.108404609553499
 20
-285.68600103009572
 30
0.0
 11
21.088404609553521
 21
-285.68600103009572
 31
0.0
  0
LINE
  5
753
  8
DATA
  6
CONTINUOUS
 62
     7
 10
20.108404609553499
 20
-285.17600103009568
 30
0.0
 11
20.108404609553499
 21
-285.68600103009572
 31
0.0
  0
LINE
  5
754
  8
DATA
  6
CONTINUOUS
 62
     7
 10
21.088404609553521
 20
-285.17600103009568
 30
0.0
 11
21.088404609553521
 21
-285.68600103009572
 31
0.0
  0
ARC
  5
755
  8
DATA
  6
CONTINUOUS
 62
     7
 10
10.298387015926011
 20
-273.4010309180203
 30
0.0
 40
3.8032193044035112
 50
358.3346968230494
 51
13.70439619748686
  0
ARC
  5
756
  8
DATA
  6
CONTINUOUS
 62
     7
 10
10.298387015926011
 20
-273.4010309180203
 30
0.0
 40
3.8032193044035192
 50
37.886431935105001
 51
63.412325756786899
  0
ARC
  5
757
  8
DATA
  6
CONTINUOUS
 62
     7
 10
30.89842220318101
 20
-273.4010309180203
 30
0.0
 40
3.803219304403521
 50
116.5876742432131
 51
181.6653031769506
  0
ARC
  5
758
  8
DATA
  6
CONTINUOUS
 62
     7
 10
20.59847827920354
 20
-252.32542360419211
 30
0.0
 40
32.850577425986252
 50
259.6102722946822
 51
269.14521458219463
  0
ARC
  5
759
  8
DATA
  6
CONTINUOUS
 62
     7
 10
20.59847827920354
 20
-252.32542360419211
 30
0.0
 40
32.850577425986273
 50
270.85452840986238
 51
280.38972770531791
  0
LINE
  5
75A
  8
DATA
  6
CONTINUOUS
 62
     7
 10
14.67411308636175
 20
-284.63737703140788
 30
0.0
 11
14.100000000000099
 21
-273.51155601339121
 31
0.0
  0
LINE
  5
75B
  8
DATA
  6
CONTINUOUS
 62
     7
 10
26.52284347204537
 20
-284.63737703140788
 30
0.0
 11
27.09680921910692
 21
-273.51155601339121
 31
0.0
  0
LINE
  5
75C
  8
DATA
  6
CONTINUOUS
 62
     7
 10
91.400000000000034
 20
-273.00000000002763
 30
0.0
 11
96.999999999999943
 21
-273.00000000002763
 31
0.0
  0
LINE
  5
75D
  8
DATA
  6
CONTINUOUS
 62
     7
 10
-108.7999999999999
 20
-273.00000000002763
 30
0.0
 11
-103.2
 21
-273.00000000002763
 31
0.0
  0
LINE
  5
75E
  8
DATA
  6
CONTINUOUS
 62
     7
 10
-334.02842712475149
 20
-273.00000000002763
 30
0.0
 11
-328.37334119497342
 21
-273.00000000002763
 31
0.0
  0
LINE
  5
75F
  8
DATA
  6
CONTINUOUS
 62
     7
 10
-334.02842712475149
 20
-273.00000000002763
 30
0.0
 11
-334.02842712475149
 21
-269.95000000002761
 31
0.0
  0
LINE
  5
760
  8
DATA
  6
CONTINUOUS
 62
     7
 10
-328.37334119497342
 20
-273.00000000002763
 30
0.0
 11
-328.37334119497342
 21
-270.00000000002763
 31
0.0
  0
LINE
  5
761
  8
DATA
  6
CONTINUOUS
 62
     7
 10
-108.7999999999999
 20
-273.00000000002763
 30
0.0
 11
-108.7999999999999
 21
-270.00000000002763
 31
0.0
  0
LINE
  5
762
  8
DATA
  6
CONTINUOUS
 62
     7
 10
-103.2
 20
-273.00000000002763
 30
0.0
 11
-103.2
 21
-270.23122020717977
 31
0.0
  0
LINE
  5
763
  8
DATA
  6
CONTINUOUS
 62
     7
 10
91.400000000000034
 20
-273.00000000002763
 30
0.0
 11
91.400000000000034
 21
-270.00000000002763
 31
0.0
  0
LINE
  5
764
  8
DATA
  6
CONTINUOUS
 62
     7
 10
96.999999999999943
 20
-273.00000000002763
 30
0.0
 11
96.999999999999943
 21
-270.00000000002763
 31
0.0
  0
LINE
  5
765
  8
DATA
  6
CONTINUOUS
 62
     7
 10
-144.7696774449191
 20
-273.10000000002759
 30
0.0
 11
-144.7696774449191
 21
-270.00000000002763
 31
0.0
  0
LINE
  5
766
  8
DATA
  6
CONTINUOUS
 62
     7
 10
-134.16967744491899
 20
-273.10000000002759
 30
0.0
 11
-134.16967744491899
 21
-270.00000000002763
 31
0.0
  0
LINE
  5
767
  8
DATA
  6
CONTINUOUS
 62
     7
 10
-54.469360104638099
 20
-273.10000000002759
 30
0.0
 11
-54.469360104638099
 21
-270.00000000002763
 31
0.0
  0
LINE
  5
768
  8
DATA
  6
CONTINUOUS
 62
     7
 10
-43.869360104638083
 20
-273.10000000002759
 30
0.0
 11
-43.869360104638083
 21
-270.00000000002763
 31
0.0
  0
LINE
  5
769
  8
DATA
  6
CONTINUOUS
 62
     7
 10
-267.10000000000002
 20
-272.50000000002763
 30
0.0
 11
-267.10000000000002
 21
-270.00000000002763
 31
0.0
  0
LINE
  5
76A
  8
DATA
  6
CONTINUOUS
 62
     7
 10
-256.89999999999998
 20
-272.50000000002763
 30
0.0
 11
-256.89999999999998
 21
-270.00000000002763
 31
0.0
  0
LINE
  5
76B
  8
DATA
  6
CONTINUOUS
 62
     7
 10
-267.10000000000002
 20
-272.50000000002763
 30
0.0
 11
-256.89999999999998
 21
-272.50000000002763
 31
0.0
  0
LINE
  5
76C
  8
DATA
  6
CONTINUOUS
 62
     7
 10
-68.0
 20
-272.50000000002763
 30
0.0
 11
-78.200000000000031
 21
-272.50000000002763
 31
0.0
  0
LINE
  5
76D
  8
DATA
  6
CONTINUOUS
 62
     7
 10
-85.5
 20
-272.50000000002763
 30
0.0
 11
-95.700000000000031
 21
-272.50000000002763
 31
0.0
  0
LINE
  5
76E
  8
DATA
  6
CONTINUOUS
 62
     7
 10
-85.5
 20
-272.50000000002763
 30
0.0
 11
-85.5
 21
-270.00000000002763
 31
0.0
  0
LINE
  5
76F
  8
DATA
  6
CONTINUOUS
 62
     7
 10
-95.700000000000031
 20
-272.50000000002763
 30
0.0
 11
-95.700000000000031
 21
-270.00000000002763
 31
0.0
  0
LINE
  5
770
  8
DATA
  6
CONTINUOUS
 62
     7
 10
-78.200000000000031
 20
-272.50000000002763
 30
0.0
 11
-78.200000000000031
 21
-270.00000000002763
 31
0.0
  0
LINE
  5
771
  8
DATA
  6
CONTINUOUS
 62
     7
 10
-68.0
 20
-272.50000000002763
 30
0.0
 11
-68.0
 21
-270.00000000002763
 31
0.0
  0
LINE
  5
772
  8
DATA
  6
CONTINUOUS
 62
     7
 10
53.799999999999962
 20
-272.50000000002763
 30
0.0
 11
64.0
 21
-272.50000000002763
 31
0.0
  0
LINE
  5
773
  8
DATA
  6
CONTINUOUS
 62
     7
 10
36.299999999999962
 20
-272.50000000002763
 30
0.0
 11
46.5
 21
-272.50000000002763
 31
0.0
  0
LINE
  5
774
  8
DATA
  6
CONTINUOUS
 62
     7
 10
13.299999999999949
 20
-272.50000000002763
 30
0.0
 11
23.5
 21
-272.50000000002763
 31
0.0
  0
LINE
  5
775
  8
DATA
  6
CONTINUOUS
 62
     7
 10
6.0
 20
-272.50000000002763
 30
0.0
 11
-4.2000000000000446
 21
-272.50000000002763
 31
0.0
  0
LINE
  5
776
  8
DATA
  6
CONTINUOUS
 62
     7
 10
46.5
 20
-272.50000000002763
 30
0.0
 11
46.5
 21
-270.00000000002763
 31
0.0
  0
LINE
  5
777
  8
DATA
  6
CONTINUOUS
 62
     7
 10
36.299999999999962
 20
-272.50000000002763
 30
0.0
 11
36.299999999999962
 21
-270.00000000002763
 31
0.0
  0
LINE
  5
778
  8
DATA
  6
CONTINUOUS
 62
     7
 10
53.799999999999962
 20
-272.50000000002763
 30
0.0
 11
53.799999999999962
 21
-270.00000000002763
 31
0.0
  0
LINE
  5
779
  8
DATA
  6
CONTINUOUS
 62
     7
 10
64.0
 20
-272.50000000002763
 30
0.0
 11
64.0
 21
-270.00000000002763
 31
0.0
  0
LINE
  5
77A
  8
DATA
  6
CONTINUOUS
 62
     7
 10
13.299999999999949
 20
-272.50000000002763
 30
0.0
 11
13.299999999999949
 21
-270.00000000002763
 31
0.0
  0
LINE
  5
77B
  8
DATA
  6
CONTINUOUS
 62
     7
 10
23.5
 20
-272.50000000002763
 30
0.0
 11
23.5
 21
-270.00000000002763
 31
0.0
  0
LINE
  5
77C
  8
DATA
  6
CONTINUOUS
 62
     7
 10
6.0
 20
-272.50000000002763
 30
0.0
 11
6.0
 21
-270.00000000002763
 31
0.0
  0
LINE
  5
77D
  8
DATA
  6
CONTINUOUS
 62
     7
 10
-4.2000000000000446
 20
-272.50000000002763
 30
0.0
 11
-4.2000000000000446
 21
-270.00000000002763
 31
0.0
  0
LINE
  5
77E
  8
DATA
  6
CONTINUOUS
 62
     7
 10
-54.469360104638099
 20
-273.10000000002759
 30
0.0
 11
-43.79999999999999
 21
-273.10000000002759
 31
0.0
  0
LINE
  5
77F
  8
DATA
  6
CONTINUOUS
 62
     7
 10
-144.7696774449191
 20
-273.10000000002759
 30
0.0
 11
-134.16967744491899
 21
-273.10000000002759
 31
0.0
  0
LINE
  5
780
  8
DATA
  6
CONTINUOUS
 62
     7
 10
-103.2
 20
-270.23122020717977
 30
0.0
 11
-103.2
 21
-270.00000000002763
 31
0.0
  0
POLYLINE
  5
781
  8
DATA
  6
CONTINUOUS
 62
     7
 66
     1
 10
0.0
 20
0.0
 30
0.0
 70
     1
  0
VERTEX
  5
BDD
  8
DATA
  6
CONTINUOUS
 62
     7
 10
220.0
 20
-385.0
 30
0.0
  0
VERTEX
  5
BDE
  8
DATA
  6
CONTINUOUS
 62
     7
 10
333.0
 20
-385.0
 30
0.0
  0
VERTEX
  5
BDF
  8
DATA
  6
CONTINUOUS
 62
     7
 10
333.0
 20
-430.0
 30
0.0
  0
VERTEX
  5
BE0
  8
DATA
  6
CONTINUOUS
 62
     7
 10
220.0
 20
-430.0
 30
0.0
  0
SEQEND
  5
BE1
  8
DATA
  6
CONTINUOUS
 62
     7
  0
LINE
  5
788
  8
DATA
  6
CONTINUOUS
 62
     7
 10
223.0
 20
-430.0
 30
0.0
 11
223.0
 21
-385.0
 31
0.0
  0
CIRCLE
  5
789
  8
DATA
  6
CONTINUOUS
 62
     7
 10
242.0
 20
-424.5
 30
0.0
 40
3.3499999999999939
  0
POLYLINE
  5
78A
  8
DATA
  6
CONTINUOUS
 62
     7
 66
     1
 10
0.0
 20
0.0
 30
0.0
  0
VERTEX
  5
BE2
  8
DATA
  6
CONTINUOUS
 62
     7
 10
242.5
 20
-424.0
 30
0.0
  0
VERTEX
  5
BE3
  8
DATA
  6
CONTINUOUS
 62
     7
 10
242.5
 20
-422.14999999999992
 30
0.0
  0
VERTEX
  5
BE4
  8
DATA
  6
CONTINUOUS
 62
     7
 10
241.5
 20
-422.14999999999992
 30
0.0
  0
VERTEX
  5
BE5
  8
DATA
  6
CONTINUOUS
 62
     7
 10
241.5
 20
-424.0
 30
0.0
  0
SEQEND
  5
BE6
  8
DATA
  6
CONTINUOUS
 62
     7
  0
POLYLINE
  5
791
  8
DATA
  6
CONTINUOUS
 62
     7
 66
     1
 10
0.0
 20
0.0
 30
0.0
  0
VERTEX
  5
BE7
  8
DATA
  6
CONTINUOUS
 62
     7
 10
241.5
 20
-425.0
 30
0.0
  0
VERTEX
  5
BE8
  8
DATA
  6
CONTINUOUS
 62
     7
 10
241.5
 20
-426.85000000000002
 30
0.0
  0
VERTEX
  5
BE9
  8
DATA
  6
CONTINUOUS
 62
     7
 10
242.5
 20
-426.85000000000002
 30
0.0
  0
VERTEX
  5
BEA
  8
DATA
  6
CONTINUOUS
 62
     7
 10
242.5
 20
-425.0
 30
0.0
  0
SEQEND
  5
BEB
  8
DATA
  6
CONTINUOUS
 62
     7
  0
POLYLINE
  5
798
  8
DATA
  6
CONTINUOUS
 62
     7
 66
     1
 10
0.0
 20
0.0
 30
0.0
  0
VERTEX
  5
BEC
  8
DATA
  6
CONTINUOUS
 62
     7
 10
242.5
 20
-425.0
 30
0.0
  0
VERTEX
  5
BED
  8
DATA
  6
CONTINUOUS
 62
     7
 10
244.34999999999999
 20
-425.0
 30
0.0
  0
VERTEX
  5
BEE
  8
DATA
  6
CONTINUOUS
 62
     7
 10
244.34999999999999
 20
-424.0
 30
0.0
  0
VERTEX
  5
BEF
  8
DATA
  6
CONTINUOUS
 62
     7
 10
242.5
 20
-424.0
 30
0.0
  0
SEQEND
  5
BF0
  8
DATA
  6
CONTINUOUS
 62
     7
  0
POLYLINE
  5
79F
  8
DATA
  6
CONTINUOUS
 62
     7
 66
     1
 10
0.0
 20
0.0
 30
0.0
  0
VERTEX
  5
BF1
  8
DATA
  6
CONTINUOUS
 62
     7
 10
241.5
 20
-425.0
 30
0.0
  0
VERTEX
  5
BF2
  8
DATA
  6
CONTINUOUS
 62
     7
 10
239.65000000000001
 20
-425.0
 30
0.0
  0
VERTEX
  5
BF3
  8
DATA
  6
CONTINUOUS
 62
     7
 10
239.65000000000001
 20
-424.0
 30
0.0
  0
VERTEX
  5
BF4
  8
DATA
  6
CONTINUOUS
 62
     7
 10
241.5
 20
-424.0
 30
0.0
  0
SEQEND
  5
BF5
  8
DATA
  6
CONTINUOUS
 62
     7
  0
CIRCLE
  5
7A6
  8
DATA
  6
CONTINUOUS
 62
     7
 10
311.5
 20
-424.5
 30
0.0
 40
3.3500000000000218
  0
POLYLINE
  5
7A7
  8
DATA
  6
CONTINUOUS
 62
     7
 66
     1
 10
0.0
 20
0.0
 30
0.0
  0
VERTEX
  5
BF6
  8
DATA
  6
CONTINUOUS
 62
     7
 10
312.0
 20
-424.0
 30
0.0
  0
VERTEX
  5
BF7
  8
DATA
  6
CONTINUOUS
 62
     7
 10
312.0
 20
-422.14999999999992
 30
0.0
  0
VERTEX
  5
BF8
  8
DATA
  6
CONTINUOUS
 62
     7
 10
311.0
 20
-422.14999999999992
 30
0.0
  0
VERTEX
  5
BF9
  8
DATA
  6
CONTINUOUS
 62
     7
 10
311.0
 20
-424.0
 30
0.0
  0
SEQEND
  5
BFA
  8
DATA
  6
CONTINUOUS
 62
     7
  0
POLYLINE
  5
7AE
  8
DATA
  6
CONTINUOUS
 62
     7
 66
     1
 10
0.0
 20
0.0
 30
0.0
  0
VERTEX
  5
BFB
  8
DATA
  6
CONTINUOUS
 62
     7
 10
311.0
 20
-425.0
 30
0.0
  0
VERTEX
  5
BFC
  8
DATA
  6
CONTINUOUS
 62
     7
 10
311.0
 20
-426.85000000000002
 30
0.0
  0
VERTEX
  5
BFD
  8
DATA
  6
CONTINUOUS
 62
     7
 10
312.0
 20
-426.85000000000002
 30
0.0
  0
VERTEX
  5
BFE
  8
DATA
  6
CONTINUOUS
 62
     7
 10
312.0
 20
-425.0
 30
0.0
  0
SEQEND
  5
BFF
  8
DATA
  6
CONTINUOUS
 62
     7
  0
POLYLINE
  5
7B5
  8
DATA
  6
CONTINUOUS
 62
     7
 66
     1
 10
0.0
 20
0.0
 30
0.0
  0
VERTEX
  5
C00
  8
DATA
  6
CONTINUOUS
 62
     7
 10
312.0
 20
-425.0
 30
0.0
  0
VERTEX
  5
C01
  8
DATA
  6
CONTINUOUS
 62
     7
 10
313.85000000000002
 20
-425.0
 30
0.0
  0
VERTEX
  5
C02
  8
DATA
  6
CONTINUOUS
 62
     7
 10
313.85000000000002
 20
-424.0
 30
0.0
  0
VERTEX
  5
C03
  8
DATA
  6
CONTINUOUS
 62
     7
 10
312.0
 20
-424.0
 30
0.0
  0
SEQEND
  5
C04
  8
DATA
  6
CONTINUOUS
 62
     7
  0
POLYLINE
  5
7BC
  8
DATA
  6
CONTINUOUS
 62
     7
 66
     1
 10
0.0
 20
0.0
 30
0.0
  0
VERTEX
  5
C05
  8
DATA
  6
CONTINUOUS
 62
     7
 10
311.0
 20
-425.0
 30
0.0
  0
VERTEX
  5
C06
  8
DATA
  6
CONTINUOUS
 62
     7
 10
309.14999999999998
 20
-425.0
 30
0.0
  0
VERTEX
  5
C07
  8
DATA
  6
CONTINUOUS
 62
     7
 10
309.14999999999998
 20
-424.0
 30
0.0
  0
VERTEX
  5
C08
  8
DATA
  6
CONTINUOUS
 62
     7
 10
311.0
 20
-424.0
 30
0.0
  0
SEQEND
  5
C09
  8
DATA
  6
CONTINUOUS
 62
     7
  0
ARC
  5
7C3
  8
DATA
  6
CONTINUOUS
 62
     7
 10
281.623231361649
 20
-412.97079674503198
 30
0.0
 40
78.625465762134283
 50
172.32553510977479
 51
187.67446489022529
  0
LINE
  5
7C4
  8
DATA
  6
CONTINUOUS
 62
     7
 10
218.99776559951471
 20
-401.3804729085449
 30
0.0
 11
218.99776559951471
 21
-417.39999999999992
 31
0.0
  0
LINE
  5
7C5
  8
DATA
  6
CONTINUOUS
 62
     7
 10
218.99776559951471
 20
-423.02842712474592
 30
0.0
 11
218.99776559951471
 21
-426.22079674503198
 31
0.0
  0
LINE
  5
7C6
  8
DATA
  6
CONTINUOUS
 62
     7
 10
218.99776559951471
 20
-426.22079674503198
 30
0.0
 11
219.99776559951479
 21
-426.22079674503198
 31
0.0
  0
LINE
  5
7C7
  8
DATA
  6
CONTINUOUS
 62
     7
 10
203.70202843001721
 20
-402.47079674503198
 30
0.0
 11
215.8375972260809
 21
-401.47079674503198
 31
0.0
  0
LINE
  5
7C8
  8
DATA
  6
CONTINUOUS
 62
     7
 10
203.70202843001721
 20
-423.47079674503198
 30
0.0
 11
215.8375972260809
 21
-424.47079674503198
 31
0.0
  0
ARC
  5
7C9
  8
DATA
  6
CONTINUOUS
 62
     7
 10
214.1885714760991
 20
-431.17695737148722
 30
0.0
 40
6.9059305145591372
 50
45.862224150041499
 51
76.185217498874081
  0
LINE
  5
7CA
  8
DATA
  6
CONTINUOUS
 62
     7
 10
215.8375972260809
 20
-401.47079674503198
 30
0.0
 11
215.8375972260809
 21
-424.47079674503249
 31
0.0
  0
LINE
  5
7CB
  8
DATA
  6
CONTINUOUS
 62
     7
 10
218.99776559951471
 20
-399.72079674503249
 30
0.0
 11
219.99776559951479
 21
-399.72079674503249
 31
0.0
  0
ARC
  5
7CC
  8
DATA
  6
CONTINUOUS
 62
     7
 10
214.1885714760991
 20
-394.76463611857753
 30
0.0
 40
6.9059305145592083
 50
283.81478250112599
 51
314.13777584995847
  0
LINE
  5
7CD
  8
DATA
  6
CONTINUOUS
 62
     7
 10
218.99776559951471
 20
-401.3804729085449
 30
0.0
 11
218.99776559951471
 21
-399.72079674503112
 31
0.0
  0
LINE
  5
7CE
  8
DATA
  6
CONTINUOUS
 62
     7
 10
219.99776559951479
 20
-399.72079674503249
 30
0.0
 11
220.0
 21
-399.72079674503249
 31
0.0
  0
LINE
  5
7CF
  8
DATA
  6
CONTINUOUS
 62
     7
 10
219.99776559951479
 20
-426.22079674503198
 30
0.0
 11
220.0
 21
-426.22079674503198
 31
0.0
  0
LINE
  5
7D0
  8
DATA
  6
CONTINUOUS
 62
     7
 10
217.02000000000001
 20
-397.62842712474588
 30
0.0
 11
217.02000000000001
 21
-391.97334119498112
 31
0.0
  0
LINE
  5
7D1
  8
DATA
  6
CONTINUOUS
 62
     7
 10
217.02000000000001
 20
-423.02842712474592
 30
0.0
 11
217.02000000000001
 21
-417.39999999999992
 31
0.0
  0
LINE
  5
7D2
  8
DATA
  6
CONTINUOUS
 62
     7
 10
217.02000000000001
 20
-417.39999999999992
 30
0.0
 11
220.0
 21
-417.39999999999992
 31
0.0
  0
LINE
  5
7D3
  8
DATA
  6
CONTINUOUS
 62
     7
 10
217.02000000000001
 20
-423.02842712474592
 30
0.0
 11
220.0
 21
-423.02842712474592
 31
0.0
  0
LINE
  5
7D4
  8
DATA
  6
CONTINUOUS
 62
     7
 10
217.02000000000001
 20
-391.97334119498112
 30
0.0
 11
220.0
 21
-391.97334119498112
 31
0.0
  0
LINE
  5
7D5
  8
DATA
  6
CONTINUOUS
 62
     7
 10
217.02000000000001
 20
-397.62842712474588
 30
0.0
 11
220.0
 21
-397.62842712474588
 31
0.0
  0
LINE
  5
7D6
  8
DATA
  6
CONTINUOUS
 62
     7
 10
339.5012919935993
 20
-411.19999999999999
 30
0.0
 11
339.5012919935993
 21
-421.7999999999999
 31
0.0
  0
LINE
  5
7D7
  8
DATA
  6
CONTINUOUS
 62
     7
 10
336.5012919935993
 20
-408.5409601198802
 30
0.0
 11
336.5012919935993
 21
-424.4590398801198
 31
0.0
  0
LINE
  5
7D8
  8
DATA
  6
CONTINUOUS
 62
     7
 10
339.5012919935993
 20
-411.19999999999999
 30
0.0
 11
336.5012919935993
 21
-411.19999999999999
 31
0.0
  0
LINE
  5
7D9
  8
DATA
  6
CONTINUOUS
 62
     7
 10
339.5012919935993
 20
-421.7999999999999
 30
0.0
 11
336.5012919935993
 21
-421.7999999999999
 31
0.0
  0
LINE
  5
7DA
  8
DATA
  6
CONTINUOUS
 62
     7
 10
336.5012919935993
 20
-408.5409601198802
 30
0.0
 11
333.0012919935993
 21
-408.5409601198802
 31
0.0
  0
LINE
  5
7DB
  8
DATA
  6
CONTINUOUS
 62
     7
 10
336.5012919935993
 20
-424.4590398801198
 30
0.0
 11
333.0012919935993
 21
-424.4590398801198
 31
0.0
  0
LINE
  5
7DC
  8
DATA
  6
CONTINUOUS
 62
     7
 10
333.0
 20
-398.35000000000002
 30
0.0
 11
337.5
 21
-398.35000000000002
 31
0.0
  0
LINE
  5
7DD
  8
DATA
  6
CONTINUOUS
 62
     7
 10
337.5
 20
-406.64999999999992
 30
0.0
 11
333.0
 21
-406.64999999999992
 31
0.0
  0
LINE
  5
7DE
  8
DATA
  6
CONTINUOUS
 62
     7
 10
337.5
 20
-406.64999999999992
 30
0.0
 11
337.5
 21
-398.35000000000002
 31
0.0
  0
LINE
  5
7DF
  8
DATA
  6
CONTINUOUS
 62
     7
 10
217.02000000000001
 20
-386.84433803439703
 30
0.0
 11
220.0
 21
-386.84433803439703
 31
0.0
  0
LINE
  5
7E0
  8
DATA
  6
CONTINUOUS
 62
     7
 10
217.02000000000001
 20
-386.84433803439703
 30
0.0
 11
217.02000000000001
 21
-391.97334119498112
 31
0.0
  0
TEXT
  5
7E1
  8
DATA
 62
     7
 10
-57.99709052858865
 20
-397.94148498882072
 30
0.0
 40
2.30859375
  1
Effect Select
 41
0.7
 11
-57.99709052858865
 21
-395.63289123882072
 31
0.0
 73
     3
  0
LINE
  5
7E2
  8
DATA
  6
CONTINUOUS
 62
     7
 10
-58.594155018709699
 20
-388.5
 30
0.0
 11
-58.594155018709699
 21
-428.0
 31
0.0
  0
LINE
  5
7E3
  8
DATA
  6
CONTINUOUS
 62
     7
 10
-58.594155018709699
 20
-388.5
 30
0.0
 11
-58.594155018709699
 21
-387.0
 31
0.0
  0
ENDSEC
  0
EOF
