  0
SECTION
  2
HEADER
  9
$ACADVER
  1
AC1009
  9
$INSBASE
 10
0.0
 20
0.0
 30
0.0
  9
$EXTMIN
 10
-350.02746372486848
 20
-533.98230819777791
 30
-0.0015258207003583
  9
$EXTMAX
 10
550.02746791582013
 20
804.16801378504158
 30
0.0000000349246037
  9
$LIMMIN
 10
0.0
 20
0.0
  9
$LIMMAX
 10
0.0
 20
0.0
  9
$ORTHOMODE
 70
     0
  9
$REGENMODE
 70
     1
  9
$FILLMODE
 70
     1
  9
$QTEXTMODE
 70
     0
  9
$MIRRTEXT
 70
     1
  9
$DRAGMODE
 70
     2
  9
$LTSCALE
 40
25.399999999999999
  9
$OSMODE
 70
   231
  9
$ATTMODE
 70
     1
  9
$TEXTSIZE
 40
0.0
  9
$TRACEWID
 40
1.0
  9
$TEXTSTYLE
  7
STANDARD
  9
$CLAYER
  8
DATA
  9
$CELTYPE
  6
BYLAYER
  9
$CECOLOR
 62
   256
  9
$DIMSCALE
 40
1.0
  9
$DIMASZ
 40
0.18
  9
$DIMEXO
 40
0.0625
  9
$DIMDLI
 40
0.38
  9
$DIMRND
 40
0.0
  9
$DIMDLE
 40
0.0
  9
$DIMEXE
 40
0.18
  9
$DIMTP
 40
0.0
  9
$DIMTM
 40
0.0
  9
$DIMTXT
 40
0.18
  9
$DIMCEN
 40
0.09
  9
$DIMTSZ
 40
0.0
  9
$DIMTOL
 70
     0
  9
$DIMLIM
 70
     0
  9
$DIMTIH
 70
     1
  9
$DIMTOH
 70
     1
  9
$DIMSE1
 70
     0
  9
$DIMSE2
 70
     0
  9
$DIMTAD
 70
     0
  9
$DIMZIN
 70
     0
  9
$DIMBLK
  1

  9
$DIMASO
 70
     1
  9
$DIMSHO
 70
     1
  9
$DIMPOST
  1

  9
$DIMAPOST
  1

  9
$DIMALT
 70
     0
  9
$DIMALTD
 70
     2
  9
$DIMALTF
 40
25.399999999999999
  9
$DIMLFAC
 40
1.0
  9
$DIMTOFL
 70
     0
  9
$DIMTVP
 40
0.0
  9
$DIMTIX
 70
     0
  9
$DIMSOXD
 70
     0
  9
$DIMSAH
 70
     0
  9
$DIMBLK1
  1

  9
$DIMBLK2
  1

  9
$DIMSTYLE
  2
STANDARD
  9
$DIMCLRD
 70
     0
  9
$DIMCLRE
 70
     0
  9
$DIMCLRT
 70
     0
  9
$DIMTFAC
 40
1.0
  9
$DIMGAP
 40
0.09
  9
$LUNITS
 70
     2
  9
$LUPREC
 70
     4
  9
$SKETCHINC
 40
0.1
  9
$FILLETRAD
 40
0.0
  9
$AUNITS
 70
     0
  9
$AUPREC
 70
     0
  9
$MENU
  1
acad
  9
$ELEVATION
 40
0.0
  9
$PELEVATION
 40
0.0
  9
$THICKNESS
 40
0.0
  9
$LIMCHECK
 70
     0
  9
$BLIPMODE
 70
     0
  9
$CHAMFERA
 40
0.0
  9
$CHAMFERB
 40
0.0
  9
$SKPOLY
 70
     0
  9
$TDCREATE
 40
2455398.5797800929
  9
$TDUPDATE
 40
2455398.5801904281
  9
$TDINDWG
 40
0.0002807407
  9
$TDUSRTIMER
 40
0.0002805556
  9
$USRTIMER
 70
     1
  9
$ANGBASE
 50
0.0
  9
$ANGDIR
 70
     0
  9
$PDMODE
 70
     1
  9
$PDSIZE
 40
-2.0
  9
$PLINEWID
 40
0.0
  9
$COORDS
 70
     0
  9
$SPLFRAME
 70
     0
  9
$SPLINETYPE
 70
     6
  9
$SPLINESEGS
 70
     8
  9
$ATTDIA
 70
     0
  9
$ATTREQ
 70
     1
  9
$HANDLING
 70
     1
  9
$HANDSEED
  5
7B8
  9
$SURFTAB1
 70
     6
  9
$SURFTAB2
 70
     6
  9
$SURFTYPE
 70
     6
  9
$SURFU
 70
     6
  9
$SURFV
 70
     6
  9
$UCSNAME
  2

  9
$UCSORG
 10
0.0
 20
0.0
 30
0.0
  9
$UCSXDIR
 10
1.0
 20
0.0
 30
0.0
  9
$UCSYDIR
 10
0.0
 20
1.0
 30
0.0
  9
$PUCSNAME
  2

  9
$PUCSORG
 10
0.0
 20
0.0
 30
0.0
  9
$PUCSXDIR
 10
1.0
 20
0.0
 30
0.0
  9
$PUCSYDIR
 10
0.0
 20
1.0
 30
0.0
  9
$USERI1
 70
     0
  9
$USERI2
 70
     0
  9
$USERI3
 70
     0
  9
$USERI4
 70
     0
  9
$USERI5
 70
     0
  9
$USERR1
 40
0.0
  9
$USERR2
 40
0.0
  9
$USERR3
 40
0.0
  9
$USERR4
 40
0.0
  9
$USERR5
 40
0.0
  9
$WORLDVIEW
 70
     1
  9
$SHADEDGE
 70
     3
  9
$SHADEDIF
 70
    70
  9
$TILEMODE
 70
     1
  9
$MAXACTVP
 70
    64
  9
$PLIMCHECK
 70
     0
  9
$PEXTMIN
 10
1.0000000000000000E+020
 20
1.0000000000000000E+020
 30
1.0000000000000000E+020
  9
$PEXTMAX
 10
-1.0000000000000000E+020
 20
-1.0000000000000000E+020
 30
-1.0000000000000000E+020
  9
$PLIMMIN
 10
0.0
 20
0.0
  9
$PLIMMAX
 10
12.0
 20
9.0
  9
$UNITMODE
 70
     0
  9
$VISRETAIN
 70
     0
  9
$PLINEGEN
 70
     1
  9
$PSLTSCALE
 70
     0
  0
ENDSEC
  0
SECTION
  2
TABLES
  0
TABLE
  2
VPORT
 70
     1
  0
VPORT
  2
*ACTIVE
 70
     0
 10
0.0
 20
0.0
 11
1.0
 21
1.0
 12
100.00000209547569
 22
135.09285279363189
 13
0.0
 23
0.0
 14
1.0
 24
1.0
 15
0.0
 25
0.0
 16
0.0
 26
0.0
 36
1.0
 17
0.0
 27
0.0
 37
0.0
 40
1348.0381322437761
 41
1.969173859432799
 42
50.0
 43
0.0
 44
0.0
 50
0.0
 51
0.0
 71
     0
 72
  2000
 73
     1
 74
     1
 75
     0
 76
     0
 77
     0
 78
     0
  0
ENDTAB
  0
TABLE
  2
LTYPE
 70
    11
  0
LTYPE
  2
CONTINUOUS
 70
     0
  3
Solid line
 72
    65
 73
     0
 40
0.0
  0
ENDTAB
  0
TABLE
  2
LAYER
 70
     6
  0
LAYER
  2
0
 70
     0
 62
     7
  6
CONTINUOUS
  0
LAYER
  2
DATA
 70
     0
 62
     7
  6
CONTINUOUS
  0
LAYER
  2
HIBINO-BASE
 70
     0
 62
     7
  6
CONTINUOUS
  0
LAYER
  2
SPEC
 70
     0
 62
     7
  6
CONTINUOUS
  0
LAYER
  2
DIMNSIONS
 70
     0
 62
     7
  6
CONTINUOUS
  0
ENDTAB
  0
TABLE
  2
STYLE
 70
     3
  0
STYLE
  2
STANDARD
 70
     0
 40
0.0
 41
1.0
 50
0.0
 71
     0
 42
0.0
  3
txt
  4
BIGFONT.SHX
  0
ENDTAB
  0
TABLE
  2
VIEW
 70
     0
  0
ENDTAB
  0
TABLE
  2
UCS
 70
     0
  0
ENDTAB
  0
TABLE
  2
APPID
 70
     3
  0
APPID
  2
ACAD
 70
     0
  0
APPID
  2
ACADANNOTATIVE
 70
     0
  0
APPID
  2
ACAD_MLEADERVER
 70
     0
  0
ENDTAB
  0
TABLE
  2
DIMSTYLE
 70
     2
  0
DIMSTYLE
  2
STANDARD
 70
     0
  3

  4

  5

  6

  7

 40
1.0
 41
0.18
 42
0.0625
 43
0.38
 44
0.18
 45
0.0
 46
0.0
 47
0.0
 48
0.0
140
0.18
141
0.09
142
0.0
143
25.399999999999999
144
1.0
145
0.0
146
1.0
147
0.09
 71
     0
 72
     0
 73
     1
 74
     1
 75
     0
 76
     0
 77
     0
 78
     0
170
     0
171
     2
172
     0
173
     0
174
     0
175
     0
176
     0
177
     0
178
     0
  0
ENDTAB
  0
ENDSEC
  0
SECTION
  2
BLOCKS
  0
BLOCK
  8
0
  2
$MODEL_SPACE
 70
     0
 10
0.0
 20
0.0
 30
0.0
  3
$MODEL_SPACE
  1

  0
ENDBLK
  5
60C
  8
0
  0
BLOCK
 67
     1
  8
0
  2
$PAPER_SPACE
 70
     0
 10
0.0
 20
0.0
 30
0.0
  3
$PAPER_SPACE
  1

  0
ENDBLK
  5
608
 67
     1
  8
0
  0
ENDSEC
  0
SECTION
  2
ENTITIES
  0
LINE
  5
2D
  8
HIBINO-BASE
  6
CONTINUOUS
 62
     7
 10
-350.0
 20
804.12725999999986
 30
0.0
 11
549.99999999999989
 21
804.12725999999986
 31
0.0
  0
LINE
  5
2E
  8
HIBINO-BASE
  6
CONTINUOUS
 62
     7
 10
549.99999999999989
 20
-495.87273999999991
 30
0.0
 11
-350.0
 21
-495.87273999999991
 31
0.0
  0
LINE
  5
2F
  8
HIBINO-BASE
  6
CONTINUOUS
 62
     7
 10
-350.0
 20
-495.87273999999991
 30
0.0
 11
-350.0
 21
804.12725999999986
 31
0.0
  0
TEXT
  5
30
  8
HIBINO-BASE
 62
     7
 10
-314.07999999999993
 20
-527.91612899999984
 30
0.0
 40
18.00022089843749
  1
Hibino Corporation
 41
0.7
 11
-314.07999999999993
 21
-509.91590810156231
 31
0.0
 73
     3
  0
LINE
  5
31
  8
HIBINO-BASE
  6
CONTINUOUS
 62
     7
 10
549.99999999999989
 20
804.12725999999986
 30
0.0
 11
549.99999999999989
 21
-495.87273999999991
 31
0.0
  0
LINE
  5
32
  8
HIBINO-BASE
  6
CONTINUOUS
 62
     7
 10
100.0
 20
-383.37274000000002
 30
0.0
 11
549.99999999999989
 21
-383.37274000000002
 31
0.0
  0
LINE
  5
33
  8
HIBINO-BASE
  6
CONTINUOUS
 62
     7
 10
100.0
 20
-495.87273999999991
 30
0.0
 11
100.0
 21
-383.37274000000002
 31
0.0
  0
TEXT
  5
34
  8
HIBINO-BASE
 62
     7
 10
104.5
 20
-395.91620666666671
 30
0.0
 40
8.1442057291666661
  1
NOTE
 41
0.7
 11
104.5
 21
-387.77200093750002
 31
0.0
 73
     3
  0
LINE
  5
35
  8
HIBINO-BASE
  6
CONTINUOUS
 62
     7
 10
275.0
 20
-495.87273999999991
 30
0.0
 11
275.0
 21
-383.37274000000002
 31
0.0
  0
TEXT
  5
36
  8
HIBINO-BASE
 62
     7
 10
279.5
 20
-395.91620666666671
 30
0.0
 40
8.1442057291666661
  1
TITLE
 41
0.7
 11
279.5
 21
-387.77200093750002
 31
0.0
 73
     3
  0
TEXT
  5
37
  8
HIBINO-BASE
 62
     7
 10
350.34195
 20
-527.91612899999984
 30
0.0
 40
18.00022089843749
  1
ヒビノ株式会社
 41
0.7
 11
350.34195
 21
-509.91590810156231
 31
0.0
 73
     3
  0
LINE
  5
38
  8
HIBINO-BASE
  6
CONTINUOUS
 62
     7
 10
100.0
 20
-445.87273999999991
 30
0.0
 11
549.99999999999989
 21
-445.87273999999991
 31
0.0
  0
TEXT
  5
39
  8
HIBINO-BASE
 62
     7
 10
342.0
 20
-458.13460666666663
 30
0.0
 40
8.1442057291666661
  1
DRAWN
 41
0.7
 11
342.0
 21
-449.9904009375
 31
0.0
 73
     3
  0
TEXT
  5
3A
  8
HIBINO-BASE
 62
     7
 10
217.0
 20
-458.13460666666663
 30
0.0
 40
8.1442057291666661
  1
DATE
 41
0.7
 11
217.0
 21
-449.9904009375
 31
0.0
 73
     3
  0
TEXT
  5
3B
  8
HIBINO-BASE
 62
     7
 10
167.0
 20
-458.13460666666663
 30
0.0
 40
8.1442057291666661
  1
SCALE
 41
0.7
 11
167.0
 21
-449.9904009375
 31
0.0
 73
     3
  0
TEXT
  5
3C
  8
HIBINO-BASE
 62
     7
 10
279.5
 20
-458.13460666666663
 30
0.0
 40
8.1442057291666661
  1
DESIGN
 41
0.7
 11
279.5
 21
-449.9904009375
 31
0.0
 73
     3
  0
TEXT
  5
3D
  8
HIBINO-BASE
 62
     7
 10
467.0
 20
-458.13460666666663
 30
0.0
 40
8.1442057291666661
  1
DRAWING NO.
 41
0.7
 11
467.0
 21
-449.9904009375
 31
0.0
 73
     3
  0
TEXT
  5
3E
  8
HIBINO-BASE
 62
     7
 10
404.49999999999989
 20
-458.13460666666663
 30
0.0
 40
8.1442057291666661
  1
CHECK
 41
0.7
 11
404.49999999999989
 21
-449.9904009375
 31
0.0
 73
     3
  0
LINE
  5
3F
  8
HIBINO-BASE
  6
CONTINUOUS
 62
     7
 10
171.875
 20
-489.62273999999991
 30
0.0
 11
190.625
 21
-470.87273999999991
 31
0.0
  0
TEXT
  5
40
  8
HIBINO-BASE
 62
     7
 10
168.75
 20
-476.41745666666651
 30
0.0
 40
8.1442057291666661
  1
1
 41
0.7
 11
168.75
 21
-468.27325093749982
 31
0.0
 73
     3
  0
LINE
  5
41
  8
HIBINO-BASE
  6
CONTINUOUS
 62
     7
 10
162.5
 20
-495.87273999999991
 30
0.0
 11
162.5
 21
-445.87273999999991
 31
0.0
  0
LINE
  5
42
  8
HIBINO-BASE
  6
CONTINUOUS
 62
     7
 10
212.5
 20
-495.87273999999991
 30
0.0
 11
212.5
 21
-445.87273999999991
 31
0.0
  0
LINE
  5
43
  8
HIBINO-BASE
  6
CONTINUOUS
 62
     7
 10
337.5
 20
-445.87273999999991
 30
0.0
 11
337.5
 21
-495.87273999999991
 31
0.0
  0
LINE
  5
44
  8
HIBINO-BASE
  6
CONTINUOUS
 62
     7
 10
462.5
 20
-445.87273999999991
 30
0.0
 11
462.5
 21
-495.87273999999991
 31
0.0
  0
LINE
  5
45
  8
HIBINO-BASE
  6
CONTINUOUS
 62
     7
 10
400.0
 20
-495.87273999999991
 30
0.0
 11
400.0
 21
-445.87273999999991
 31
0.0
  0
TEXT
  5
46
  8
HIBINO-BASE
 62
     7
 10
216.78270000000001
 20
-481.55450666666661
 30
0.0
 40
8.1442057291666661
  1
'10.07.
 41
0.7
 11
216.78270000000001
 21
-473.41030093749993
 31
0.0
 73
     3
  0
TEXT
  5
47
  8
HIBINO-BASE
 62
     7
 10
187.5
 20
-485.79245666666651
 30
0.0
 40
8.1442057291666661
  1
5
 41
0.7
 11
187.5
 21
-477.64825093749982
 31
0.0
 73
     3
  0
TEXT
  5
48
  8
HIBINO-BASE
 62
     7
 10
119.4166666666667
 20
-485.99274000000008
 30
0.0
 40
16.288411458333329
  1
A4
 41
0.7
 11
119.4166666666667
 21
-469.70432854166671
 31
0.0
 73
     3
  0
TEXT
  5
49
  8
HIBINO-BASE
 62
     7
 10
104.7916666666666
 20
-458.97001499999971
 30
0.0
 40
8.1442057291666661
  1
PAPER SIZE
 41
0.7
 11
104.7916666666666
 21
-450.82580927083308
 31
0.0
 73
     3
  0
TEXT
  5
4A
  8
HIBINO-BASE
 62
     7
 10
345.02905005517312
 20
-481.55450666666661
 30
0.0
 40
8.1442057291666661
  1
T.Ootake
 41
0.7
 11
345.02905005517312
 21
-473.41030093749993
 31
0.0
 73
     3
  0
LINE
  5
4B
  8
SPEC
  6
CONTINUOUS
 62
     7
 10
-312.5
 20
754.12725999999998
 30
0.0
 11
425.0
 21
754.12725999999998
 31
0.0
  0
LINE
  5
4C
  8
SPEC
  6
CONTINUOUS
 62
     7
 10
-312.5
 20
735.37725999999998
 30
0.0
 11
425.0
 21
735.37725999999998
 31
0.0
  0
LINE
  5
4D
  8
SPEC
  6
CONTINUOUS
 62
     7
 10
-312.5
 20
679.12725999999998
 30
0.0
 11
425.0
 21
679.12725999999998
 31
0.0
  0
LINE
  5
4E
  8
SPEC
  6
CONTINUOUS
 62
     7
 10
-150.0
 20
697.87725999999998
 30
0.0
 11
425.0
 21
697.87725999999998
 31
0.0
  0
LINE
  5
4F
  8
SPEC
  6
CONTINUOUS
 62
     7
 10
-150.0
 20
660.37725999999998
 30
0.0
 11
425.0
 21
660.37725999999998
 31
0.0
  0
LINE
  5
50
  8
SPEC
  6
CONTINUOUS
 62
     7
 10
-312.5
 20
622.87725999999998
 30
0.0
 11
425.0
 21
622.87725999999998
 31
0.0
  0
LINE
  5
51
  8
SPEC
  6
CONTINUOUS
 62
     7
 10
-150.0
 20
641.62725999999998
 30
0.0
 11
425.0
 21
641.62725999999998
 31
0.0
  0
LINE
  5
52
  8
SPEC
  6
CONTINUOUS
 62
     7
 10
-150.0
 20
604.12725999999998
 30
0.0
 11
425.0
 21
604.12725999999998
 31
0.0
  0
LINE
  5
53
  8
SPEC
  6
CONTINUOUS
 62
     7
 10
-150.0
 20
585.37725999999998
 30
0.0
 11
425.0
 21
585.37725999999998
 31
0.0
  0
LINE
  5
54
  8
SPEC
  6
CONTINUOUS
 62
     7
 10
-150.0
 20
716.62725999999998
 30
0.0
 11
425.0
 21
716.62725999999998
 31
0.0
  0
TEXT
  5
55
  8
SPEC
 62
     7
 10
-145.31178086753539
 20
740.25796366232339
 30
0.0
 40
9.5015562499999984
  1
4
 41
0.7
 11
-145.31178086753539
 21
749.7595199123233
 31
0.0
 73
     3
  0
LINE
  5
56
  8
SPEC
  6
CONTINUOUS
 62
     7
 10
-312.5
 20
754.12725999999998
 30
0.0
 11
-312.5
 21
397.87725999999992
 31
0.0
  0
TEXT
  5
57
  8
SPEC
 62
     7
 10
-306.25
 20
761.09361000000013
 30
0.0
 40
12.21630859375
  1
仕様
 41
0.7
 11
-306.25
 21
773.30991859375013
 31
0.0
 73
     3
  0
LINE
  5
58
  8
SPEC
  6
CONTINUOUS
 62
     7
 10
-150.0
 20
754.12725999999998
 30
0.0
 11
-150.0
 21
397.87725999999992
 31
0.0
  0
LINE
  5
59
  8
SPEC
  6
CONTINUOUS
 62
     7
 10
425.0
 20
754.12725999999998
 30
0.0
 11
425.0
 21
397.87725999999992
 31
0.0
  0
TEXT
  5
5A
  8
SPEC
 62
     7
 10
-308.69987750099529
 20
740.79766794660975
 30
0.0
 40
9.5015562499999984
  1
チャンネル数
 41
0.7
 11
-308.69987750099529
 21
750.29922419660966
 31
0.0
 73
     3
  0
TEXT
  5
5B
  8
SPEC
 62
     7
 10
-308.67047576749462
 20
720.56686799999966
 30
0.0
 40
9.5015562499999984
  1
デジタル入出力
 41
0.7
 11
-308.67047576749462
 21
730.06842424999979
 31
0.0
 73
     3
  0
TEXT
  5
5C
  8
SPEC
 62
     7
 10
-145.6870518335262
 20
721.41519585603203
 30
0.0
 40
9.5015562499999984
  1
端子・形式 RCA:S/PDIF,24bit
 41
0.7
 11
-145.6870518335262
 21
730.91675210603205
 31
0.0
 73
     3
  0
TEXT
  5
5D
  8
SPEC
 62
     7
 10
-145.6674829426959
 20
702.38466210844535
 30
0.0
 40
9.5015562499999984
  1
サンプリングレート 48kHz/44.1kHz
 41
0.7
 11
-145.6674829426959
 21
711.88621835844549
 31
0.0
 73
     3
  0
TEXT
  5
5E
  8
SPEC
 62
     7
 10
-145.5
 20
683.95395574769304
 30
0.0
 40
9.5015562499999984
  1
周波数特性 10Hz～22kHz(\U+00B10.5dB),@48kHz
 41
0.7
 11
-145.5
 21
693.45551199769307
 31
0.0
 73
     3
  0
TEXT
  5
5F
  8
SPEC
 62
     7
 10
-308.70645791567728
 20
664.31686799999966
 30
0.0
 40
9.5015562499999984
  1
アナログ入力
 41
0.7
 11
-308.70645791567728
 21
673.81842424999979
 31
0.0
 73
     3
  0
TEXT
  5
60
  8
SPEC
 62
     7
 10
-145.69213193466939
 20
664.98932977134325
 30
0.0
 40
9.5015562499999984
  1
端子・形式 XLR,バランス
 41
0.7
 11
-145.69213193466939
 21
674.49088602134316
 31
0.0
 73
     3
  0
TEXT
  5
61
  8
SPEC
 62
     7
 10
-146.1216329956371
 20
646.31282759476426
 30
0.0
 40
9.5015562499999984
  1
インピーダンス 50k\U+03A9(バランス)
 41
0.7
 11
-146.1216329956371
 21
655.81438384476439
 31
0.0
 73
     3
  0
TEXT
  5
62
  8
SPEC
 62
     7
 10
-145.5
 20
628.4126547229265
 30
0.0
 40
9.5015562499999984
  1
最大レベル +24dBu
 41
0.7
 11
-145.5
 21
637.91421097292653
 31
0.0
 73
     3
  0
TEXT
  5
63
  8
SPEC
 62
     7
 10
-308.08840623318969
 20
552.81081760449865
 30
0.0
 40
9.5015562499999984
  1
周波数特性
 41
0.7
 11
-308.08840623318969
 21
562.31237385449879
 31
0.0
 73
     3
  0
LINE
  5
64
  8
SPEC
  6
CONTINUOUS
 62
     7
 10
-312.5
 20
566.62725999999998
 30
0.0
 11
425.0
 21
566.62725999999998
 31
0.0
  0
LINE
  5
65
  8
SPEC
  6
CONTINUOUS
 62
     7
 10
-312.5
 20
547.87725999999998
 30
0.0
 11
425.0
 21
547.87725999999998
 31
0.0
  0
LINE
  5
66
  8
SPEC
  6
CONTINUOUS
 62
     7
 10
-312.5
 20
529.12725999999998
 30
0.0
 11
425.0
 21
529.12725999999998
 31
0.0
  0
LINE
  5
67
  8
SPEC
  6
CONTINUOUS
 62
     7
 10
-312.5
 20
510.37725999999992
 30
0.0
 11
425.0
 21
510.37725999999992
 31
0.0
  0
LINE
  5
68
  8
SPEC
  6
CONTINUOUS
 62
     7
 10
-312.5
 20
491.62725999999992
 30
0.0
 11
425.0
 21
491.62725999999992
 31
0.0
  0
LINE
  5
69
  8
SPEC
  6
CONTINUOUS
 62
     7
 10
-312.5
 20
472.87725999999992
 30
0.0
 11
425.0
 21
472.87725999999992
 31
0.0
  0
LINE
  5
6A
  8
SPEC
  6
CONTINUOUS
 62
     7
 10
-312.5
 20
454.12725999999992
 30
0.0
 11
425.0
 21
454.12725999999992
 31
0.0
  0
LINE
  5
6B
  8
SPEC
  6
CONTINUOUS
 62
     7
 10
-312.5
 20
435.37725999999992
 30
0.0
 11
425.0
 21
435.37725999999992
 31
0.0
  0
LINE
  5
6C
  8
SPEC
  6
CONTINUOUS
 62
     7
 10
-312.5
 20
416.62725999999992
 30
0.0
 11
425.0
 21
416.62725999999992
 31
0.0
  0
LINE
  5
6D
  8
SPEC
  6
CONTINUOUS
 62
     7
 10
-312.5
 20
397.87725999999992
 30
0.0
 11
425.0
 21
397.87725999999992
 31
0.0
  0
TEXT
  5
6E
  8
SPEC
 62
     7
 10
-308.77050250292689
 20
609.24201596619605
 30
0.0
 40
9.5015562499999984
  1
アナログ出力
 41
0.7
 11
-308.77050250292689
 21
618.74357221619618
 31
0.0
 73
     3
  0
TEXT
  5
6F
  8
SPEC
 62
     7
 10
-309.01738785555477
 20
534.02952919026916
 30
0.0
 40
9.5015562499999984
  1
ダイナミックレンジ
 41
0.7
 11
-309.01738785555477
 21
543.53108544026918
 31
0.0
 73
     3
  0
TEXT
  5
70
  8
SPEC
 62
     7
 10
-308.0463999104087
 20
514.73880703271141
 30
0.0
 40
9.5015562499999984
  1
THD+N
 41
0.7
 11
-308.0463999104087
 21
524.24036328271143
 31
0.0
 73
     3
  0
TEXT
  5
71
  8
SPEC
 62
     7
 10
-308.87466778363017
 20
497.25789238168488
 30
0.0
 40
9.5015562499999984
  1
クロストーク
 41
0.7
 11
-308.87466778363017
 21
506.7594486316849
 31
0.0
 73
     3
  0
TEXT
  5
72
  8
SPEC
 62
     7
 10
-307.54452434734452
 20
477.42416887020721
 30
0.0
 40
9.5015562499999984
  1
A/D-D/A変換
 41
0.7
 11
-307.54452434734452
 21
486.92572512020718
 31
0.0
 73
     3
  0
TEXT
  5
73
  8
SPEC
 62
     7
 10
-145.94041150539979
 20
552.40408334053325
 30
0.0
 40
9.5015562499999984
  1
10Hz～20kHz(+0dB/-0.5dB)
 41
0.7
 11
-145.94041150539979
 21
561.90563959053327
 31
0.0
 73
     3
  0
TEXT
  5
74
  8
SPEC
 62
     7
 10
-145.5
 20
533.06686799999977
 30
0.0
 40
9.5015562499999984
  1
109dB(Aウェイト)
 41
0.7
 11
-145.5
 21
542.56842424999991
 31
0.0
 73
     3
  0
TEXT
  5
75
  8
SPEC
 62
     7
 10
-145.2052282837592
 20
514.90641143248138
 30
0.0
 40
9.5015562499999984
  1
0.0019%%%以下(代表値：20Hz～20kHz)
 41
0.7
 11
-145.2052282837592
 21
524.40796768248151
 31
0.0
 73
     3
  0
TEXT
  5
76
  8
SPEC
 62
     7
 10
-145.2052282837592
 20
495.86163971624069
 30
0.0
 40
9.5015562499999984
  1
-80dB以下(代表値：20Hz～20kHz)
 41
0.7
 11
-145.2052282837592
 21
505.36319596624071
 31
0.0
 73
     3
  0
TEXT
  5
77
  8
SPEC
 62
     7
 10
-145.3520298113863
 20
476.96483818861373
 30
0.0
 40
9.5015562499999984
  1
24bit,48/44.1kHz,128倍オーバーサンプリング
 41
0.7
 11
-145.3520298113863
 21
486.46639443861358
 31
0.0
 73
     3
  0
TEXT
  5
78
  8
SPEC
 62
     7
 10
-308.34931030248117
 20
459.07498175612278
 30
0.0
 40
9.5015733506944446
  1
電源
 41
0.7
 11
-308.34931030248117
 21
468.5765551068173
 31
0.0
 73
     3
  0
TEXT
  5
79
  8
SPEC
 62
     7
 10
-145.10519420227621
 20
458.6160006405903
 30
0.0
 40
9.5015733506944446
  1
AC100V,50/60Hz
 41
0.7
 11
-145.10519420227621
 21
468.11757399128481
 31
0.0
 73
     3
  0
TEXT
  5
7A
  8
SPEC
 62
     7
 10
-308.19102712216909
 20
440.36500790219071
 30
0.0
 40
9.5015733506944446
  1
消費電力
 41
0.7
 11
-308.19102712216909
 21
449.86658125288528
 31
0.0
 73
     3
  0
TEXT
  5
7B
  8
SPEC
 62
     7
 10
-146.04922285145199
 20
439.93917574895391
 30
0.0
 40
9.5015733506944446
  1
18W
 41
0.7
 11
-146.04922285145199
 21
449.44074909964837
 31
0.0
 73
     3
  0
TEXT
  5
7C
  8
SPEC
 62
     7
 10
-308.31013809748521
 20
421.95349732326918
 30
0.0
 40
9.5015733506944446
  1
寸法　
 41
0.7
 11
-308.31013809748521
 21
431.45507067396358
 31
0.0
 73
     3
  0
TEXT
  5
7D
  8
SPEC
 62
     7
 10
-145.30266640465911
 20
421.02397738157521
 30
0.0
 40
9.5015733506944446
  1
483(W)X45(H)X163(D)mm（突起部含まず）
 41
0.7
 11
-145.30266640465911
 21
430.52555073226972
 31
0.0
 73
     3
  0
TEXT
  5
7E
  8
SPEC
 62
     7
 10
-308.11494513344189
 20
403.46166895866031
 30
0.0
 40
9.5015733506944464
  1
重量
 41
0.7
 11
-308.11494513344189
 21
412.96324230935471
 31
0.0
 73
     3
  0
TEXT
  5
7F
  8
SPEC
 62
     7
 10
-145.61516923398159
 20
403.03581074422863
 30
0.0
 40
9.5015733506944464
  1
約2.6kg
 41
0.7
 11
-145.61516923398159
 21
412.53738409492303
 31
0.0
 73
     3
  0
TEXT
  5
80
  8
SPEC
 62
     7
 10
-145.69213193466939
 20
608.73932977134325
 30
0.0
 40
9.5015562499999984
  1
端子・形式 XLR,バランス
 41
0.7
 11
-145.69213193466939
 21
618.24088602134316
 31
0.0
 73
     3
  0
TEXT
  5
81
  8
SPEC
 62
     7
 10
-146.1216329956371
 20
590.06282759476426
 30
0.0
 40
9.5015562499999984
  1
インピーダンス 2k\U+03A9(バランス)
 41
0.7
 11
-146.1216329956371
 21
599.56438384476439
 31
0.0
 73
     3
  0
TEXT
  5
82
  8
SPEC
 62
     7
 10
-145.5
 20
572.1626547229265
 30
0.0
 40
9.5015562499999984
  1
最大レベル +24dBu
 41
0.7
 11
-145.5
 21
581.66421097292653
 31
0.0
 73
     3
  0
TEXT
  5
83
  8
DIMNSIONS
 62
     7
 10
-0.0000000000000149
 20
-434.52528999999993
 30
0.0
 40
12.21630859375
  1
(単位：mm)
 41
0.7
 11
-0.0000000000000142
 21
-422.30898140624993
 31
0.0
 73
     3
  0
LINE
  5
84
  8
DIMNSIONS
  6
CONTINUOUS
 62
     7
 10
-245.0
 20
-220.0
 30
0.0
 11
-290.0
 21
-220.0
 31
0.0
  0
LINE
  5
85
  8
DIMNSIONS
  6
CONTINUOUS
 62
     7
 10
-245.0
 20
-175.0
 30
0.0
 11
-290.0
 21
-175.0
 31
0.0
  0
LINE
  5
86
  8
DIMNSIONS
  6
CONTINUOUS
 62
     7
 10
-280.0
 20
-220.0
 30
0.0
 11
-280.0
 21
-175.0
 31
0.0
  0
LINE
  5
87
  8
DIMNSIONS
  6
CONTINUOUS
 62
     7
 10
-280.0
 20
-220.0
 30
0.0
 11
-283.3501989757512
 21
-207.49688720703119
 31
0.0
  0
LINE
  5
88
  8
DIMNSIONS
  6
CONTINUOUS
 62
     7
 10
-280.0
 20
-220.0
 30
0.0
 11
-276.6498010242488
 21
-207.49688720703119
 31
0.0
  0
LINE
  5
89
  8
DIMNSIONS
  6
CONTINUOUS
 62
     7
 10
-280.0
 20
-175.0
 30
0.0
 11
-276.6498010242488
 21
-187.50311279296869
 31
0.0
  0
LINE
  5
8A
  8
DIMNSIONS
  6
CONTINUOUS
 62
     7
 10
-280.0
 20
-175.0
 30
0.0
 11
-283.3501989757512
 21
-187.50311279296869
 31
0.0
  0
TEXT
  5
8B
  8
DIMNSIONS
 62
     7
 10
-284.96944444444449
 20
-206.3194444444444
 30
0.0
 40
13.57367621527778
  1
45
 50
90.0
 41
0.7
 11
-298.54312065972232
 21
-206.3194444444444
 31
0.0
 73
     3
  0
LINE
  5
8C
  8
DIMNSIONS
  6
CONTINUOUS
 62
     7
 10
-240.0
 20
-230.0
 30
0.0
 11
-240.0
 21
-270.0
 31
0.0
  0
LINE
  5
8D
  8
DIMNSIONS
  6
CONTINUOUS
 62
     7
 10
243.0
 20
-230.0
 30
0.0
 11
243.0
 21
-270.0
 31
0.0
  0
LINE
  5
8E
  8
DIMNSIONS
  6
CONTINUOUS
 62
     7
 10
-240.0
 20
-260.0
 30
0.0
 11
243.0
 21
-260.0
 31
0.0
  0
LINE
  5
8F
  8
DIMNSIONS
  6
CONTINUOUS
 62
     7
 10
-240.0
 20
-260.0
 30
0.0
 11
-227.49688720703131
 21
-256.6498010242488
 31
0.0
  0
LINE
  5
90
  8
DIMNSIONS
  6
CONTINUOUS
 62
     7
 10
-240.0
 20
-260.0
 30
0.0
 11
-227.49688720703131
 21
-263.3501989757512
 31
0.0
  0
LINE
  5
91
  8
DIMNSIONS
  6
CONTINUOUS
 62
     7
 10
243.0
 20
-260.0
 30
0.0
 11
230.49688720703119
 21
-263.3501989757512
 31
0.0
  0
LINE
  5
92
  8
DIMNSIONS
  6
CONTINUOUS
 62
     7
 10
243.0
 20
-260.0
 30
0.0
 11
230.49688720703119
 21
-256.6498010242488
 31
0.0
  0
TEXT
  5
93
  8
DIMNSIONS
 62
     7
 10
-11.729166666666689
 20
-255.03055555555551
 30
0.0
 40
13.57367621527778
  1
483
 41
0.7
 11
-11.729166666666689
 21
-241.45687934027771
 31
0.0
 73
     3
  0
LINE
  5
94
  8
DIMNSIONS
  6
CONTINUOUS
 62
     7
 10
-185.9497178224907
 20
-137.0
 30
0.0
 11
-290.0
 21
-137.0
 31
0.0
  0
LINE
  5
95
  8
DIMNSIONS
  6
CONTINUOUS
 62
     7
 10
-250.0
 20
-120.0
 30
0.0
 11
-290.0
 21
-120.0
 31
0.0
  0
LINE
  5
96
  8
DIMNSIONS
  6
CONTINUOUS
 62
     7
 10
-280.0
 20
-120.0
 30
0.0
 11
-280.0
 21
-137.0
 31
0.0
  0
LINE
  5
97
  8
DIMNSIONS
  6
CONTINUOUS
 62
     7
 10
-280.0
 20
-137.0
 30
0.0
 11
-280.0
 21
-162.0
 31
0.0
  0
LINE
  5
98
  8
DIMNSIONS
  6
CONTINUOUS
 62
     7
 10
-280.0
 20
-137.0
 30
0.0
 11
-276.6498010242488
 21
-149.50311279296869
 31
0.0
  0
LINE
  5
99
  8
DIMNSIONS
  6
CONTINUOUS
 62
     7
 10
-280.0
 20
-137.0
 30
0.0
 11
-283.3501989757512
 21
-149.50311279296869
 31
0.0
  0
LINE
  5
9A
  8
DIMNSIONS
  6
CONTINUOUS
 62
     7
 10
-280.0
 20
-120.0
 30
0.0
 11
-280.0
 21
-95.0
 31
0.0
  0
LINE
  5
9B
  8
DIMNSIONS
  6
CONTINUOUS
 62
     7
 10
-280.0
 20
-120.0
 30
0.0
 11
-283.3501989757512
 21
-107.49688720703119
 31
0.0
  0
LINE
  5
9C
  8
DIMNSIONS
  6
CONTINUOUS
 62
     7
 10
-280.0
 20
-120.0
 30
0.0
 11
-276.6498010242488
 21
-107.49688720703119
 31
0.0
  0
TEXT
  5
9D
  8
DIMNSIONS
 62
     7
 10
-284.96944444444449
 20
-137.3194444444444
 30
0.0
 40
13.57367621527778
  1
17
 50
90.0
 41
0.7
 11
-298.54312065972232
 21
-137.3194444444444
 31
0.0
 73
     3
  0
LINE
  5
9E
  8
DIMNSIONS
  6
CONTINUOUS
 62
     7
 10
-250.0
 20
-120.0
 30
0.0
 11
-265.0
 21
-120.0
 31
0.0
  0
LINE
  5
9F
  8
DIMNSIONS
  6
CONTINUOUS
 62
     7
 10
-250.0
 20
-116.0
 30
0.0
 11
-265.0
 21
-116.0
 31
0.0
  0
LINE
  5
A0
  8
DIMNSIONS
  6
CONTINUOUS
 62
     7
 10
-255.0
 20
-116.0
 30
0.0
 11
-255.0
 21
-120.0
 31
0.0
  0
LINE
  5
A1
  8
DIMNSIONS
  6
CONTINUOUS
 62
     7
 10
-255.0
 20
-120.0
 30
0.0
 11
-255.0
 21
-145.0
 31
0.0
  0
LINE
  5
A2
  8
DIMNSIONS
  6
CONTINUOUS
 62
     7
 10
-255.0
 20
-120.0
 30
0.0
 11
-251.6498010242488
 21
-132.50311279296881
 31
0.0
  0
LINE
  5
A3
  8
DIMNSIONS
  6
CONTINUOUS
 62
     7
 10
-255.0
 20
-120.0
 30
0.0
 11
-258.3501989757512
 21
-132.50311279296881
 31
0.0
  0
LINE
  5
A4
  8
DIMNSIONS
  6
CONTINUOUS
 62
     7
 10
-255.0
 20
-116.0
 30
0.0
 11
-255.0
 21
-91.180555555555543
 31
0.0
  0
LINE
  5
A5
  8
DIMNSIONS
  6
CONTINUOUS
 62
     7
 10
-255.0
 20
-116.0
 30
0.0
 11
-258.3501989757512
 21
-103.49688720703119
 31
0.0
  0
LINE
  5
A6
  8
DIMNSIONS
  6
CONTINUOUS
 62
     7
 10
-255.0
 20
-116.0
 30
0.0
 11
-251.6498010242488
 21
-103.49688720703119
 31
0.0
  0
TEXT
  5
A7
  8
DIMNSIONS
 62
     7
 10
-259.96944444444449
 20
-100.0
 30
0.0
 40
13.57367621527778
  1
4
 50
90.0
 41
0.7
 11
-273.54312065972232
 21
-100.0
 31
0.0
 73
     3
  0
LINE
  5
A8
  8
DIMNSIONS
  6
CONTINUOUS
 62
     7
 10
-250.0
 20
-120.0
 30
0.0
 11
-290.0
 21
-120.0
 31
0.0
  0
LINE
  5
A9
  8
DIMNSIONS
  6
CONTINUOUS
 62
     7
 10
-227.0
 20
43.0
 30
0.0
 11
-290.0
 21
43.0
 31
0.0
  0
LINE
  5
AA
  8
DIMNSIONS
  6
CONTINUOUS
 62
     7
 10
-280.0
 20
-120.0
 30
0.0
 11
-280.0
 21
43.0
 31
0.0
  0
LINE
  5
AB
  8
DIMNSIONS
  6
CONTINUOUS
 62
     7
 10
-280.0
 20
-120.0
 30
0.0
 11
-283.3501989757512
 21
-107.49688720703119
 31
0.0
  0
LINE
  5
AC
  8
DIMNSIONS
  6
CONTINUOUS
 62
     7
 10
-280.0
 20
-120.0
 30
0.0
 11
-276.6498010242488
 21
-107.49688720703119
 31
0.0
  0
LINE
  5
AD
  8
DIMNSIONS
  6
CONTINUOUS
 62
     7
 10
-280.0
 20
43.0
 30
0.0
 11
-276.6498010242488
 21
30.49688720703125
 31
0.0
  0
LINE
  5
AE
  8
DIMNSIONS
  6
CONTINUOUS
 62
     7
 10
-280.0
 20
43.0
 30
0.0
 11
-283.3501989757512
 21
30.49688720703125
 31
0.0
  0
TEXT
  5
AF
  8
DIMNSIONS
 62
     7
 10
-284.96944444444449
 20
-51.729166666666693
 30
0.0
 40
13.57367621527778
  1
163
 50
90.0
 41
0.7
 11
-298.54312065972232
 21
-51.729166666666693
 31
0.0
 73
     3
  0
LINE
  5
B0
  8
DIMNSIONS
  6
CONTINUOUS
 62
     7
 10
-227.0
 20
43.0
 30
0.0
 11
-290.0
 21
43.0
 31
0.0
  0
LINE
  5
B1
  8
DIMNSIONS
  6
CONTINUOUS
 62
     7
 10
82.499999999999915
 20
49.0
 30
0.0
 11
-290.0
 21
49.0
 31
0.0
  0
LINE
  5
B2
  8
DIMNSIONS
  6
CONTINUOUS
 62
     7
 10
-280.0
 20
49.0
 30
0.0
 11
-280.0
 21
43.0
 31
0.0
  0
LINE
  5
B3
  8
DIMNSIONS
  6
CONTINUOUS
 62
     7
 10
-280.0
 20
43.0
 30
0.0
 11
-280.0
 21
18.0
 31
0.0
  0
LINE
  5
B4
  8
DIMNSIONS
  6
CONTINUOUS
 62
     7
 10
-280.0
 20
43.0
 30
0.0
 11
-276.6498010242488
 21
30.49688720703125
 31
0.0
  0
LINE
  5
B5
  8
DIMNSIONS
  6
CONTINUOUS
 62
     7
 10
-280.0
 20
43.0
 30
0.0
 11
-283.3501989757512
 21
30.49688720703125
 31
0.0
  0
LINE
  5
B6
  8
DIMNSIONS
  6
CONTINUOUS
 62
     7
 10
-280.0
 20
49.0
 30
0.0
 11
-280.0
 21
73.819444444444457
 31
0.0
  0
LINE
  5
B7
  8
DIMNSIONS
  6
CONTINUOUS
 62
     7
 10
-280.0
 20
49.0
 30
0.0
 11
-283.3501989757512
 21
61.50311279296875
 31
0.0
  0
LINE
  5
B8
  8
DIMNSIONS
  6
CONTINUOUS
 62
     7
 10
-280.0
 20
49.0
 30
0.0
 11
-276.6498010242488
 21
61.50311279296875
 31
0.0
  0
TEXT
  5
B9
  8
DIMNSIONS
 62
     7
 10
-284.96944444444449
 20
65.000000000000014
 30
0.0
 40
13.57367621527778
  1
6
 50
90.0
 41
0.7
 11
-298.54312065972232
 21
65.000000000000014
 31
0.0
 73
     3
  0
LINE
  5
BA
  8
DIMNSIONS
  6
CONTINUOUS
 62
     7
 10
-217.0
 20
53.0
 30
0.0
 11
-217.0
 21
80.0
 31
0.0
  0
LINE
  5
BB
  8
DIMNSIONS
  6
CONTINUOUS
 62
     7
 10
220.0
 20
53.0
 30
0.0
 11
220.0
 21
80.0
 31
0.0
  0
LINE
  5
BC
  8
DIMNSIONS
  6
CONTINUOUS
 62
     7
 10
-217.0
 20
70.0
 30
0.0
 11
220.0
 21
70.0
 31
0.0
  0
LINE
  5
BD
  8
DIMNSIONS
  6
CONTINUOUS
 62
     7
 10
-217.0
 20
70.0
 30
0.0
 11
-204.49688720703119
 21
73.350198975751212
 31
0.0
  0
LINE
  5
BE
  8
DIMNSIONS
  6
CONTINUOUS
 62
     7
 10
-217.0
 20
70.0
 30
0.0
 11
-204.49688720703119
 21
66.649801024248788
 31
0.0
  0
LINE
  5
BF
  8
DIMNSIONS
  6
CONTINUOUS
 62
     7
 10
220.0
 20
70.0
 30
0.0
 11
207.49688720703119
 21
66.649801024248774
 31
0.0
  0
LINE
  5
C0
  8
DIMNSIONS
  6
CONTINUOUS
 62
     7
 10
220.0
 20
70.0
 30
0.0
 11
207.49688720703119
 21
73.350198975751212
 31
0.0
  0
TEXT
  5
C1
  8
DIMNSIONS
 62
     7
 10
-11.72916666666665
 20
74.969444444444434
 30
0.0
 40
13.57367621527778
  1
437
 41
0.7
 11
-11.72916666666665
 21
88.543120659722206
 31
0.0
 73
     3
  0
LINE
  5
C2
  8
DIMNSIONS
  6
CONTINUOUS
 62
     7
 10
-219.5
 20
39.499999999999993
 30
0.0
 11
-219.5
 21
110.0
 31
0.0
  0
LINE
  5
C3
  8
DIMNSIONS
  6
CONTINUOUS
 62
     7
 10
222.5
 20
39.499999999999993
 30
0.0
 11
222.5
 21
110.0
 31
0.0
  0
LINE
  5
C4
  8
DIMNSIONS
  6
CONTINUOUS
 62
     7
 10
-219.5
 20
100.0
 30
0.0
 11
222.5
 21
100.0
 31
0.0
  0
LINE
  5
C5
  8
DIMNSIONS
  6
CONTINUOUS
 62
     7
 10
-219.5
 20
100.0
 30
0.0
 11
-206.99688720703119
 21
103.3501989757512
 31
0.0
  0
LINE
  5
C6
  8
DIMNSIONS
  6
CONTINUOUS
 62
     7
 10
-219.5
 20
100.0
 30
0.0
 11
-206.99688720703119
 21
96.649801024248788
 31
0.0
  0
LINE
  5
C7
  8
DIMNSIONS
  6
CONTINUOUS
 62
     7
 10
222.5
 20
100.0
 30
0.0
 11
209.99688720703119
 21
96.649801024248774
 31
0.0
  0
LINE
  5
C8
  8
DIMNSIONS
  6
CONTINUOUS
 62
     7
 10
222.5
 20
100.0
 30
0.0
 11
209.99688720703119
 21
103.3501989757512
 31
0.0
  0
TEXT
  5
C9
  8
DIMNSIONS
 62
     7
 10
-11.729166666666689
 20
104.96944444444441
 30
0.0
 40
13.57367621527778
  1
442
 41
0.7
 11
-11.729166666666689
 21
118.54312065972221
 31
0.0
 73
     3
  0
TEXT
  5
CA
  8
DATA
 62
     7
 10
350.0
 20
-440.2182899999998
 30
0.0
 40
12.21630859375
  1
MX400XL
 41
0.7
 11
350.0
 21
-428.00198140624991
 31
0.0
 73
     3
  0
TEXT
  5
CB
  8
DATA
 62
     7
 10
350.0
 20
-403.9682899999998
 30
0.0
 40
12.21630859375
  1
Lexicon
 41
0.7
 11
350.0
 21
-391.75198140624991
 31
0.0
 73
     3
  0
TEXT
  5
CC
  8
DATA
 62
     7
 10
-300.0
 20
-474.68273999999991
 30
0.0
 40
8.1442057291666661
  1
仕様および外観は予告なく変更されることがありますので、ご了承ください。
 41
0.7
 11
-300.0
 21
-466.53853427083322
 31
0.0
 73
     3
  0
LINE
  5
CD
  8
DATA
  6
CONTINUOUS
 62
     7
 10
-240.0
 20
-220.0
 30
0.0
 11
-240.0
 21
-175.0
 31
0.0
  0
LINE
  5
CE
  8
DATA
  6
CONTINUOUS
 62
     7
 10
243.0
 20
-220.0
 30
0.0
 11
-240.0
 21
-220.0
 31
0.0
  0
LINE
  5
CF
  8
DATA
  6
CONTINUOUS
 62
     7
 10
243.0
 20
-175.0
 30
0.0
 11
243.0
 21
-220.0
 31
0.0
  0
LINE
  5
D0
  8
DATA
  6
CONTINUOUS
 62
     7
 10
-240.0
 20
-175.0
 30
0.0
 11
243.0
 21
-175.0
 31
0.0
  0
ARC
  5
D1
  8
DATA
  6
CONTINUOUS
 62
     7
 10
-233.2999999999999
 20
-181.59999999999999
 30
0.0
 40
3.1999999999999882
 50
90.000000000002018
 51
269.99999999999801
  0
ARC
  5
D2
  8
DATA
  6
CONTINUOUS
 62
     7
 10
-228.69999999999999
 20
-181.59999999999999
 30
0.0
 40
3.1999999999999882
 50
270.0
 51
90.0
  0
LINE
  5
D3
  8
DATA
  6
CONTINUOUS
 62
     7
 10
-228.69999999999999
 20
-178.40000000000001
 30
0.0
 11
-233.34999999999999
 21
-178.40000000000001
 31
0.0
  0
LINE
  5
D4
  8
DATA
  6
CONTINUOUS
 62
     7
 10
-233.30000000000001
 20
-184.80000000000001
 30
0.0
 11
-228.69999999999999
 21
-184.80000000000001
 31
0.0
  0
ARC
  5
D5
  8
DATA
  6
CONTINUOUS
 62
     7
 10
-233.2999999999999
 20
-213.40000000000001
 30
0.0
 40
3.1999999999999882
 50
90.000000000002018
 51
269.99999999999801
  0
ARC
  5
D6
  8
DATA
  6
CONTINUOUS
 62
     7
 10
-228.69999999999999
 20
-213.40000000000001
 30
0.0
 40
3.1999999999999882
 50
270.0
 51
90.0
  0
LINE
  5
D7
  8
DATA
  6
CONTINUOUS
 62
     7
 10
-228.69999999999999
 20
-210.19999999999999
 30
0.0
 11
-233.34999999999999
 21
-210.19999999999999
 31
0.0
  0
LINE
  5
D8
  8
DATA
  6
CONTINUOUS
 62
     7
 10
-233.30000000000001
 20
-216.59999999999999
 30
0.0
 11
-228.69999999999999
 21
-216.59999999999999
 31
0.0
  0
ARC
  5
D9
  8
DATA
  6
CONTINUOUS
 62
     7
 10
231.7000000000001
 20
-181.59999999999999
 30
0.0
 40
3.1999999999999882
 50
90.000000000002018
 51
269.99999999999801
  0
ARC
  5
DA
  8
DATA
  6
CONTINUOUS
 62
     7
 10
236.30000000000001
 20
-181.59999999999999
 30
0.0
 40
3.1999999999999882
 50
270.0
 51
90.0
  0
LINE
  5
DB
  8
DATA
  6
CONTINUOUS
 62
     7
 10
236.30000000000001
 20
-178.40000000000001
 30
0.0
 11
231.65000000000001
 21
-178.40000000000001
 31
0.0
  0
LINE
  5
DC
  8
DATA
  6
CONTINUOUS
 62
     7
 10
231.7000000000001
 20
-184.80000000000001
 30
0.0
 11
236.30000000000001
 21
-184.80000000000001
 31
0.0
  0
ARC
  5
DD
  8
DATA
  6
CONTINUOUS
 62
     7
 10
231.7000000000001
 20
-213.40000000000001
 30
0.0
 40
3.1999999999999882
 50
90.000000000002018
 51
269.99999999999801
  0
ARC
  5
DE
  8
DATA
  6
CONTINUOUS
 62
     7
 10
236.30000000000001
 20
-213.40000000000001
 30
0.0
 40
3.1999999999999882
 50
270.0
 51
90.0
  0
LINE
  5
DF
  8
DATA
  6
CONTINUOUS
 62
     7
 10
236.30000000000001
 20
-210.19999999999999
 30
0.0
 11
231.65000000000001
 21
-210.19999999999999
 31
0.0
  0
LINE
  5
E0
  8
DATA
  6
CONTINUOUS
 62
     7
 10
231.7000000000001
 20
-216.59999999999999
 30
0.0
 11
236.30000000000001
 21
-216.59999999999999
 31
0.0
  0
CIRCLE
  5
E1
  8
DATA
  6
CONTINUOUS
 62
     7
 10
-211.5
 20
-185.5
 30
0.0
 40
2.75
  0
CIRCLE
  5
E2
  8
DATA
  6
CONTINUOUS
 62
     7
 10
-211.5
 20
-209.5
 30
0.0
 40
2.75
  0
CIRCLE
  5
E3
  8
DATA
  6
CONTINUOUS
 62
     7
 10
214.5
 20
-185.5
 30
0.0
 40
2.75
  0
CIRCLE
  5
E4
  8
DATA
  6
CONTINUOUS
 62
     7
 10
214.5
 20
-209.5
 30
0.0
 40
2.75
  0
CIRCLE
  5
E5
  8
DATA
  6
CONTINUOUS
 62
     7
 10
-22.500000000000028
 20
-215.25
 30
0.0
 40
2.75
  0
CIRCLE
  5
E6
  8
DATA
  6
CONTINUOUS
 62
     7
 10
-22.500000000000028
 20
-179.75
 30
0.0
 40
2.75
  0
CIRCLE
  5
E7
  8
DATA
  6
CONTINUOUS
 62
     7
 10
-176.0
 20
-203.5
 30
0.0
 40
9.5
  0
CIRCLE
  5
E8
  8
DATA
  6
CONTINUOUS
 62
     7
 10
-176.0
 20
-203.5
 30
0.0
 40
8.6499999999999773
  0
CIRCLE
  5
E9
  8
DATA
  6
CONTINUOUS
 62
     7
 10
-176.0
 20
-203.5
 30
0.0
 40
6.0
  0
LINE
  5
EA
  8
DATA
  6
CONTINUOUS
 62
     7
 10
-176.0
 20
-203.5
 30
0.0
 11
-181.52970846890531
 21
-210.15167830317591
 31
0.0
  0
POLYLINE
  5
EB
  8
DATA
  6
CONTINUOUS
 62
     7
 66
     1
 10
0.0
 20
0.0
 30
0.0
 70
     1
  0
VERTEX
  5
639
  8
DATA
  6
CONTINUOUS
 62
     7
 10
-182.09999999999999
 20
-182.15000000000001
 30
0.0
  0
VERTEX
  5
63A
  8
DATA
  6
CONTINUOUS
 62
     7
 10
-180.40000000000001
 20
-182.15000000000001
 30
0.0
  0
VERTEX
  5
63B
  8
DATA
  6
CONTINUOUS
 62
     7
 10
-180.40000000000001
 20
-183.84999999999999
 30
0.0
  0
VERTEX
  5
63C
  8
DATA
  6
CONTINUOUS
 62
     7
 10
-182.09999999999999
 20
-183.84999999999999
 30
0.0
  0
SEQEND
  5
63D
  8
DATA
  6
CONTINUOUS
 62
     7
  0
POLYLINE
  5
F2
  8
DATA
  6
CONTINUOUS
 62
     7
 66
     1
 10
0.0
 20
0.0
 30
0.0
 70
     1
  0
VERTEX
  5
63E
  8
DATA
  6
CONTINUOUS
 62
     7
 10
-178.59999999999999
 20
-182.15000000000001
 30
0.0
  0
VERTEX
  5
63F
  8
DATA
  6
CONTINUOUS
 62
     7
 10
-176.90000000000001
 20
-182.15000000000001
 30
0.0
  0
VERTEX
  5
640
  8
DATA
  6
CONTINUOUS
 62
     7
 10
-176.90000000000001
 20
-183.84999999999999
 30
0.0
  0
VERTEX
  5
641
  8
DATA
  6
CONTINUOUS
 62
     7
 10
-178.59999999999999
 20
-183.84999999999999
 30
0.0
  0
SEQEND
  5
642
  8
DATA
  6
CONTINUOUS
 62
     7
  0
POLYLINE
  5
F9
  8
DATA
  6
CONTINUOUS
 62
     7
 66
     1
 10
0.0
 20
0.0
 30
0.0
 70
     1
  0
VERTEX
  5
643
  8
DATA
  6
CONTINUOUS
 62
     7
 10
-175.09999999999999
 20
-182.15000000000001
 30
0.0
  0
VERTEX
  5
644
  8
DATA
  6
CONTINUOUS
 62
     7
 10
-173.40000000000001
 20
-182.15000000000001
 30
0.0
  0
VERTEX
  5
645
  8
DATA
  6
CONTINUOUS
 62
     7
 10
-173.40000000000001
 20
-183.84999999999999
 30
0.0
  0
VERTEX
  5
646
  8
DATA
  6
CONTINUOUS
 62
     7
 10
-175.09999999999999
 20
-183.84999999999999
 30
0.0
  0
SEQEND
  5
647
  8
DATA
  6
CONTINUOUS
 62
     7
  0
POLYLINE
  5
100
  8
DATA
  6
CONTINUOUS
 62
     7
 66
     1
 10
0.0
 20
0.0
 30
0.0
 70
     1
  0
VERTEX
  5
648
  8
DATA
  6
CONTINUOUS
 62
     7
 10
-171.59999999999999
 20
-182.15000000000001
 30
0.0
  0
VERTEX
  5
649
  8
DATA
  6
CONTINUOUS
 62
     7
 10
-169.90000000000001
 20
-182.15000000000001
 30
0.0
  0
VERTEX
  5
64A
  8
DATA
  6
CONTINUOUS
 62
     7
 10
-169.90000000000001
 20
-183.84999999999999
 30
0.0
  0
VERTEX
  5
64B
  8
DATA
  6
CONTINUOUS
 62
     7
 10
-171.59999999999999
 20
-183.84999999999999
 30
0.0
  0
SEQEND
  5
64C
  8
DATA
  6
CONTINUOUS
 62
     7
  0
POLYLINE
  5
107
  8
DATA
  6
CONTINUOUS
 62
     7
 66
     1
 10
0.0
 20
0.0
 30
0.0
 70
     1
  0
VERTEX
  5
64D
  8
DATA
  6
CONTINUOUS
 62
     7
 10
-182.09999999999999
 20
-188.65000000000001
 30
0.0
  0
VERTEX
  5
64E
  8
DATA
  6
CONTINUOUS
 62
     7
 10
-180.40000000000001
 20
-188.65000000000001
 30
0.0
  0
VERTEX
  5
64F
  8
DATA
  6
CONTINUOUS
 62
     7
 10
-180.40000000000001
 20
-190.34999999999999
 30
0.0
  0
VERTEX
  5
650
  8
DATA
  6
CONTINUOUS
 62
     7
 10
-182.09999999999999
 20
-190.34999999999999
 30
0.0
  0
SEQEND
  5
651
  8
DATA
  6
CONTINUOUS
 62
     7
  0
POLYLINE
  5
10E
  8
DATA
  6
CONTINUOUS
 62
     7
 66
     1
 10
0.0
 20
0.0
 30
0.0
 70
     1
  0
VERTEX
  5
652
  8
DATA
  6
CONTINUOUS
 62
     7
 10
-178.59999999999999
 20
-188.65000000000001
 30
0.0
  0
VERTEX
  5
653
  8
DATA
  6
CONTINUOUS
 62
     7
 10
-176.90000000000001
 20
-188.65000000000001
 30
0.0
  0
VERTEX
  5
654
  8
DATA
  6
CONTINUOUS
 62
     7
 10
-176.90000000000001
 20
-190.34999999999999
 30
0.0
  0
VERTEX
  5
655
  8
DATA
  6
CONTINUOUS
 62
     7
 10
-178.59999999999999
 20
-190.34999999999999
 30
0.0
  0
SEQEND
  5
656
  8
DATA
  6
CONTINUOUS
 62
     7
  0
POLYLINE
  5
115
  8
DATA
  6
CONTINUOUS
 62
     7
 66
     1
 10
0.0
 20
0.0
 30
0.0
 70
     1
  0
VERTEX
  5
657
  8
DATA
  6
CONTINUOUS
 62
     7
 10
-175.09999999999999
 20
-188.65000000000001
 30
0.0
  0
VERTEX
  5
658
  8
DATA
  6
CONTINUOUS
 62
     7
 10
-173.40000000000001
 20
-188.65000000000001
 30
0.0
  0
VERTEX
  5
659
  8
DATA
  6
CONTINUOUS
 62
     7
 10
-173.40000000000001
 20
-190.34999999999999
 30
0.0
  0
VERTEX
  5
65A
  8
DATA
  6
CONTINUOUS
 62
     7
 10
-175.09999999999999
 20
-190.34999999999999
 30
0.0
  0
SEQEND
  5
65B
  8
DATA
  6
CONTINUOUS
 62
     7
  0
POLYLINE
  5
11C
  8
DATA
  6
CONTINUOUS
 62
     7
 66
     1
 10
0.0
 20
0.0
 30
0.0
 70
     1
  0
VERTEX
  5
65C
  8
DATA
  6
CONTINUOUS
 62
     7
 10
-171.59999999999999
 20
-188.65000000000001
 30
0.0
  0
VERTEX
  5
65D
  8
DATA
  6
CONTINUOUS
 62
     7
 10
-169.90000000000001
 20
-188.65000000000001
 30
0.0
  0
VERTEX
  5
65E
  8
DATA
  6
CONTINUOUS
 62
     7
 10
-169.90000000000001
 20
-190.34999999999999
 30
0.0
  0
VERTEX
  5
65F
  8
DATA
  6
CONTINUOUS
 62
     7
 10
-171.59999999999999
 20
-190.34999999999999
 30
0.0
  0
SEQEND
  5
660
  8
DATA
  6
CONTINUOUS
 62
     7
  0
TEXT
  5
123
  8
DATA
 62
     7
 10
-184.9753978774136
 20
-184.50022444166351
 30
0.0
 40
2.7147352430555549
  1
L
 41
0.7
 11
-184.9753978774136
 21
-181.78548919860799
 31
0.0
 73
     3
  0
TEXT
  5
124
  8
DATA
 62
     7
 10
-184.9753978774136
 20
-190.7728718422733
 30
0.0
 40
2.7147352430555549
  1
R
 41
0.7
 11
-184.9753978774136
 21
-188.0581365992177
 31
0.0
 73
     3
  0
TEXT
  5
125
  8
DATA
 62
     7
 10
-182.74672463555271
 20
-186.85839142122529
 30
0.0
 40
1.357367621527777
  1
-24
 41
0.7
 11
-182.74672463555271
 21
-185.50102379969761
 31
0.0
 73
     3
  0
TEXT
  5
126
  8
DATA
 62
     7
 10
-179.24672463555271
 20
-186.85839142122529
 30
0.0
 40
1.357367621527777
  1
-12
 41
0.7
 11
-179.24672463555271
 21
-185.50102379969761
 31
0.0
 73
     3
  0
TEXT
  5
127
  8
DATA
 62
     7
 10
-175.1259689924629
 20
-186.85839142122529
 30
0.0
 40
1.357367621527777
  1
-6
 41
0.7
 11
-175.1259689924629
 21
-185.50102379969761
 31
0.0
 73
     3
  0
TEXT
  5
128
  8
DATA
 62
     7
 10
-171.20124144719099
 20
-186.85839142122529
 30
0.0
 40
1.357367621527777
  1
0
 41
0.7
 11
-171.20124144719099
 21
-185.50102379969761
 31
0.0
 73
     3
  0
TEXT
  5
129
  8
DATA
 62
     7
 10
-182.15480532585099
 20
-193.52986657871361
 30
0.0
 40
2.7147352430555549
  1
Input A
 41
0.7
 11
-182.15480532585099
 21
-190.81513133565809
 31
0.0
 73
     3
  0
CIRCLE
  5
12A
  8
DATA
  6
CONTINUOUS
 62
     7
 10
-150.5
 20
-203.5
 30
0.0
 40
9.5
  0
CIRCLE
  5
12B
  8
DATA
  6
CONTINUOUS
 62
     7
 10
-150.5
 20
-203.5
 30
0.0
 40
8.6499999999999773
  0
CIRCLE
  5
12C
  8
DATA
  6
CONTINUOUS
 62
     7
 10
-150.5
 20
-203.5
 30
0.0
 40
6.0
  0
LINE
  5
12D
  8
DATA
  6
CONTINUOUS
 62
     7
 10
-150.5
 20
-203.5
 30
0.0
 11
-156.0297084689052
 21
-210.15167830317591
 31
0.0
  0
POLYLINE
  5
12E
  8
DATA
  6
CONTINUOUS
 62
     7
 66
     1
 10
0.0
 20
0.0
 30
0.0
 70
     1
  0
VERTEX
  5
661
  8
DATA
  6
CONTINUOUS
 62
     7
 10
-156.59999999999999
 20
-182.15000000000001
 30
0.0
  0
VERTEX
  5
662
  8
DATA
  6
CONTINUOUS
 62
     7
 10
-154.89999999999989
 20
-182.15000000000001
 30
0.0
  0
VERTEX
  5
663
  8
DATA
  6
CONTINUOUS
 62
     7
 10
-154.89999999999989
 20
-183.84999999999999
 30
0.0
  0
VERTEX
  5
664
  8
DATA
  6
CONTINUOUS
 62
     7
 10
-156.59999999999999
 20
-183.84999999999999
 30
0.0
  0
SEQEND
  5
665
  8
DATA
  6
CONTINUOUS
 62
     7
  0
POLYLINE
  5
135
  8
DATA
  6
CONTINUOUS
 62
     7
 66
     1
 10
0.0
 20
0.0
 30
0.0
 70
     1
  0
VERTEX
  5
666
  8
DATA
  6
CONTINUOUS
 62
     7
 10
-153.09999999999999
 20
-182.15000000000001
 30
0.0
  0
VERTEX
  5
667
  8
DATA
  6
CONTINUOUS
 62
     7
 10
-151.40000000000001
 20
-182.15000000000001
 30
0.0
  0
VERTEX
  5
668
  8
DATA
  6
CONTINUOUS
 62
     7
 10
-151.40000000000001
 20
-183.84999999999999
 30
0.0
  0
VERTEX
  5
669
  8
DATA
  6
CONTINUOUS
 62
     7
 10
-153.09999999999999
 20
-183.84999999999999
 30
0.0
  0
SEQEND
  5
66A
  8
DATA
  6
CONTINUOUS
 62
     7
  0
POLYLINE
  5
13C
  8
DATA
  6
CONTINUOUS
 62
     7
 66
     1
 10
0.0
 20
0.0
 30
0.0
 70
     1
  0
VERTEX
  5
66B
  8
DATA
  6
CONTINUOUS
 62
     7
 10
-149.59999999999999
 20
-182.15000000000001
 30
0.0
  0
VERTEX
  5
66C
  8
DATA
  6
CONTINUOUS
 62
     7
 10
-147.90000000000001
 20
-182.15000000000001
 30
0.0
  0
VERTEX
  5
66D
  8
DATA
  6
CONTINUOUS
 62
     7
 10
-147.90000000000001
 20
-183.84999999999999
 30
0.0
  0
VERTEX
  5
66E
  8
DATA
  6
CONTINUOUS
 62
     7
 10
-149.59999999999999
 20
-183.84999999999999
 30
0.0
  0
SEQEND
  5
66F
  8
DATA
  6
CONTINUOUS
 62
     7
  0
POLYLINE
  5
143
  8
DATA
  6
CONTINUOUS
 62
     7
 66
     1
 10
0.0
 20
0.0
 30
0.0
 70
     1
  0
VERTEX
  5
670
  8
DATA
  6
CONTINUOUS
 62
     7
 10
-146.09999999999999
 20
-182.15000000000001
 30
0.0
  0
VERTEX
  5
671
  8
DATA
  6
CONTINUOUS
 62
     7
 10
-144.40000000000001
 20
-182.15000000000001
 30
0.0
  0
VERTEX
  5
672
  8
DATA
  6
CONTINUOUS
 62
     7
 10
-144.40000000000001
 20
-183.84999999999999
 30
0.0
  0
VERTEX
  5
673
  8
DATA
  6
CONTINUOUS
 62
     7
 10
-146.09999999999999
 20
-183.84999999999999
 30
0.0
  0
SEQEND
  5
674
  8
DATA
  6
CONTINUOUS
 62
     7
  0
POLYLINE
  5
14A
  8
DATA
  6
CONTINUOUS
 62
     7
 66
     1
 10
0.0
 20
0.0
 30
0.0
 70
     1
  0
VERTEX
  5
675
  8
DATA
  6
CONTINUOUS
 62
     7
 10
-156.59999999999999
 20
-188.65000000000001
 30
0.0
  0
VERTEX
  5
676
  8
DATA
  6
CONTINUOUS
 62
     7
 10
-154.90000000000001
 20
-188.65000000000001
 30
0.0
  0
VERTEX
  5
677
  8
DATA
  6
CONTINUOUS
 62
     7
 10
-154.90000000000001
 20
-190.34999999999999
 30
0.0
  0
VERTEX
  5
678
  8
DATA
  6
CONTINUOUS
 62
     7
 10
-156.59999999999999
 20
-190.34999999999999
 30
0.0
  0
SEQEND
  5
679
  8
DATA
  6
CONTINUOUS
 62
     7
  0
POLYLINE
  5
151
  8
DATA
  6
CONTINUOUS
 62
     7
 66
     1
 10
0.0
 20
0.0
 30
0.0
 70
     1
  0
VERTEX
  5
67A
  8
DATA
  6
CONTINUOUS
 62
     7
 10
-153.09999999999999
 20
-188.65000000000001
 30
0.0
  0
VERTEX
  5
67B
  8
DATA
  6
CONTINUOUS
 62
     7
 10
-151.40000000000001
 20
-188.65000000000001
 30
0.0
  0
VERTEX
  5
67C
  8
DATA
  6
CONTINUOUS
 62
     7
 10
-151.40000000000001
 20
-190.34999999999999
 30
0.0
  0
VERTEX
  5
67D
  8
DATA
  6
CONTINUOUS
 62
     7
 10
-153.09999999999999
 20
-190.34999999999999
 30
0.0
  0
SEQEND
  5
67E
  8
DATA
  6
CONTINUOUS
 62
     7
  0
POLYLINE
  5
158
  8
DATA
  6
CONTINUOUS
 62
     7
 66
     1
 10
0.0
 20
0.0
 30
0.0
 70
     1
  0
VERTEX
  5
67F
  8
DATA
  6
CONTINUOUS
 62
     7
 10
-149.59999999999999
 20
-188.65000000000001
 30
0.0
  0
VERTEX
  5
680
  8
DATA
  6
CONTINUOUS
 62
     7
 10
-147.90000000000001
 20
-188.65000000000001
 30
0.0
  0
VERTEX
  5
681
  8
DATA
  6
CONTINUOUS
 62
     7
 10
-147.90000000000001
 20
-190.34999999999999
 30
0.0
  0
VERTEX
  5
682
  8
DATA
  6
CONTINUOUS
 62
     7
 10
-149.59999999999999
 20
-190.34999999999999
 30
0.0
  0
SEQEND
  5
683
  8
DATA
  6
CONTINUOUS
 62
     7
  0
POLYLINE
  5
15F
  8
DATA
  6
CONTINUOUS
 62
     7
 66
     1
 10
0.0
 20
0.0
 30
0.0
 70
     1
  0
VERTEX
  5
684
  8
DATA
  6
CONTINUOUS
 62
     7
 10
-146.09999999999999
 20
-188.65000000000001
 30
0.0
  0
VERTEX
  5
685
  8
DATA
  6
CONTINUOUS
 62
     7
 10
-144.40000000000001
 20
-188.65000000000001
 30
0.0
  0
VERTEX
  5
686
  8
DATA
  6
CONTINUOUS
 62
     7
 10
-144.40000000000001
 20
-190.34999999999999
 30
0.0
  0
VERTEX
  5
687
  8
DATA
  6
CONTINUOUS
 62
     7
 10
-146.09999999999999
 20
-190.34999999999999
 30
0.0
  0
SEQEND
  5
688
  8
DATA
  6
CONTINUOUS
 62
     7
  0
TEXT
  5
166
  8
DATA
 62
     7
 10
-159.4753978774136
 20
-184.50022444166351
 30
0.0
 40
2.7147352430555549
  1
L
 41
0.7
 11
-159.4753978774136
 21
-181.78548919860799
 31
0.0
 73
     3
  0
TEXT
  5
167
  8
DATA
 62
     7
 10
-159.4753978774136
 20
-190.7728718422733
 30
0.0
 40
2.7147352430555549
  1
R
 41
0.7
 11
-159.4753978774136
 21
-188.0581365992177
 31
0.0
 73
     3
  0
TEXT
  5
168
  8
DATA
 62
     7
 10
-157.24672463555271
 20
-186.85839142122529
 30
0.0
 40
1.357367621527777
  1
-24
 41
0.7
 11
-157.24672463555271
 21
-185.50102379969761
 31
0.0
 73
     3
  0
TEXT
  5
169
  8
DATA
 62
     7
 10
-153.74672463555271
 20
-186.85839142122529
 30
0.0
 40
1.357367621527777
  1
-12
 41
0.7
 11
-153.74672463555271
 21
-185.50102379969761
 31
0.0
 73
     3
  0
TEXT
  5
16A
  8
DATA
 62
     7
 10
-149.6259689924629
 20
-186.85839142122529
 30
0.0
 40
1.357367621527777
  1
-6
 41
0.7
 11
-149.6259689924629
 21
-185.50102379969761
 31
0.0
 73
     3
  0
TEXT
  5
16B
  8
DATA
 62
     7
 10
-145.70124144719099
 20
-186.85839142122529
 30
0.0
 40
1.357367621527777
  1
0
 41
0.7
 11
-145.70124144719099
 21
-185.50102379969761
 31
0.0
 73
     3
  0
TEXT
  5
16C
  8
DATA
 62
     7
 10
-156.65480532585099
 20
-193.52986657871361
 30
0.0
 40
2.7147352430555549
  1
Input B
 41
0.7
 11
-156.65480532585099
 21
-190.81513133565809
 31
0.0
 73
     3
  0
TEXT
  5
16D
  8
DATA
 62
     7
 10
-167.3049979718291
 20
-197.89552699476559
 30
0.0
 40
2.7147352430555549
  1
Level
 41
0.7
 11
-167.3049979718291
 21
-195.1807917517101
 31
0.0
 73
     3
  0
CIRCLE
  5
16E
  8
DATA
  6
CONTINUOUS
 62
     7
 10
-6.0000000000000142
 20
-203.5
 30
0.0
 40
13.0
  0
CIRCLE
  5
16F
  8
DATA
  6
CONTINUOUS
 62
     7
 10
160.0
 20
-203.5
 30
0.0
 40
13.0
  0
CIRCLE
  5
170
  8
DATA
  6
CONTINUOUS
 62
     7
 10
25.999999999999989
 20
-203.5
 30
0.0
 40
8.5
  0
CIRCLE
  5
171
  8
DATA
  6
CONTINUOUS
 62
     7
 10
46.999999999999993
 20
-203.5
 30
0.0
 40
8.5
  0
CIRCLE
  5
172
  8
DATA
  6
CONTINUOUS
 62
     7
 10
67.999999999999986
 20
-203.5
 30
0.0
 40
8.5
  0
LINE
  5
173
  8
DATA
  6
CONTINUOUS
 62
     7
 10
203.0
 20
-186.5
 30
0.0
 11
203.0
 21
-208.5
 31
0.0
  0
LINE
  5
174
  8
DATA
  6
CONTINUOUS
 62
     7
 10
187.0
 20
-186.5
 30
0.0
 11
187.0
 21
-208.5
 31
0.0
  0
LINE
  5
175
  8
DATA
  6
CONTINUOUS
 62
     7
 10
203.0
 20
-186.5
 30
0.0
 11
187.0
 21
-186.5
 31
0.0
  0
LINE
  5
176
  8
DATA
  6
CONTINUOUS
 62
     7
 10
203.0
 20
-208.5
 30
0.0
 11
187.0
 21
-208.5
 31
0.0
  0
POLYLINE
  5
177
  8
DATA
  6
CONTINUOUS
 62
     7
 66
     1
 10
0.0
 20
0.0
 30
0.0
 70
     1
  0
VERTEX
  5
689
  8
DATA
  6
CONTINUOUS
 62
     7
 10
189.5
 20
-189.94999999999999
 30
0.0
  0
VERTEX
  5
68A
  8
DATA
  6
CONTINUOUS
 62
     7
 10
200.5
 20
-189.94999999999999
 30
0.0
  0
VERTEX
  5
68B
  8
DATA
  6
CONTINUOUS
 62
     7
 10
200.5
 20
-204.94999999999999
 30
0.0
  0
VERTEX
  5
68C
  8
DATA
  6
CONTINUOUS
 62
     7
 10
189.5
 20
-204.94999999999999
 30
0.0
  0
SEQEND
  5
68D
  8
DATA
  6
CONTINUOUS
 62
     7
  0
CIRCLE
  5
17E
  8
DATA
  6
CONTINUOUS
 62
     7
 10
-6.0000000000000142
 20
-203.5
 30
0.0
 40
10.5
  0
CIRCLE
  5
17F
  8
DATA
  6
CONTINUOUS
 62
     7
 10
160.0
 20
-203.5
 30
0.0
 40
10.5
  0
CIRCLE
  5
180
  8
DATA
  6
CONTINUOUS
 62
     7
 10
25.999999999999989
 20
-203.5
 30
0.0
 40
6.0
  0
CIRCLE
  5
181
  8
DATA
  6
CONTINUOUS
 62
     7
 10
46.999999999999993
 20
-203.5
 30
0.0
 40
6.0
  0
CIRCLE
  5
182
  8
DATA
  6
CONTINUOUS
 62
     7
 10
67.999999999999986
 20
-203.5
 30
0.0
 40
6.0
  0
LINE
  5
183
  8
DATA
  6
CONTINUOUS
 62
     7
 10
118.0
 20
-213.0
 30
0.0
 11
118.0
 21
-194.0
 31
0.0
  0
LINE
  5
184
  8
DATA
  6
CONTINUOUS
 62
     7
 10
147.36475702629639
 20
-213.0
 30
0.0
 11
118.0
 21
-213.0
 31
0.0
  0
LINE
  5
185
  8
DATA
  6
CONTINUOUS
 62
     7
 10
118.0
 20
-194.0
 30
0.0
 11
147.36475702629639
 21
-194.0
 31
0.0
  0
ARC
  5
186
  8
DATA
  6
CONTINUOUS
 62
     7
 10
159.5428571428572
 20
-203.5
 30
0.0
 40
14.642857142857199
 50
143.5344303990818
 51
216.4655696009182
  0
ARC
  5
187
  8
DATA
  6
CONTINUOUS
 62
     7
 10
147.36475702629639
 20
-194.5
 30
0.0
 40
0.4999999999999665
 50
323.53443039907683
 51
90.0
  0
ARC
  5
188
  8
DATA
  6
CONTINUOUS
 62
     7
 10
147.36475702629639
 20
-212.50000000000011
 30
0.0
 40
0.4999999999999433
 50
270.0
 51
36.465569600923288
  0
TEXT
  5
189
  8
DATA
 62
     7
 10
189.68798895944479
 20
-184.3883144682797
 30
0.0
 40
3.2576822916666659
  1
Power
 41
0.7
 11
189.68798895944479
 21
-181.13063217661301
 31
0.0
 73
     3
  0
TEXT
  5
18A
  8
DATA
 62
     7
 10
130.10292414085851
 20
-184.49060399441109
 30
0.0
 40
3.2576822916666659
  1
Program/Load
 41
0.7
 11
130.10292414085851
 21
-181.23292170274439
 31
0.0
 73
     3
  0
TEXT
  5
18B
  8
DATA
 62
     7
 10
148.1453703583029
 20
-187.5595862549394
 30
0.0
 40
1.6288411458333329
  1
(Push)
 41
0.7
 11
148.1453703583029
 21
-185.93074510910611
 31
0.0
 73
     3
  0
POLYLINE
  5
18C
  8
DATA
  6
CONTINUOUS
 62
     7
 66
     1
 10
0.0
 20
0.0
 30
0.0
 70
     1
  0
VERTEX
  5
68E
  8
DATA
  6
CONTINUOUS
 62
     7
 10
93.999999999999986
 20
-206.96614554541131
 30
0.0
  0
VERTEX
  5
68F
  8
DATA
  6
CONTINUOUS
 62
     7
 10
104.0
 20
-206.96614554541131
 30
0.0
  0
VERTEX
  5
690
  8
DATA
  6
CONTINUOUS
 62
     7
 10
104.0
 20
-211.96614554541139
 30
0.0
  0
VERTEX
  5
691
  8
DATA
  6
CONTINUOUS
 62
     7
 10
93.999999999999986
 20
-211.96614554541139
 30
0.0
  0
SEQEND
  5
692
  8
DATA
  6
CONTINUOUS
 62
     7
  0
TEXT
  5
193
  8
DATA
 62
     7
 10
95.341838386415077
 20
-184.99967677282979
 30
0.0
 40
2.1717881944444439
  1
Store
 41
0.7
 11
95.341838386415077
 21
-182.8278885783854
 31
0.0
 73
     3
  0
TEXT
  5
194
  8
DATA
 62
     7
 10
94.712023987966589
 20
-195.40970328733721
 30
0.0
 40
2.1717881944444439
  1
System
 41
0.7
 11
94.712023987966589
 21
-193.23791509289279
 31
0.0
 73
     3
  0
TEXT
  5
195
  8
DATA
 62
     7
 10
94.862738766696637
 20
-206.15937664606949
 30
0.0
 40
2.1717881944444439
  1
Bypass
 41
0.7
 11
94.862738766696637
 21
-203.98758845162499
 31
0.0
 73
     3
  0
POLYLINE
  5
196
  8
DATA
  6
CONTINUOUS
 62
     7
 66
     1
 10
0.0
 20
0.0
 30
0.0
 70
     1
  0
VERTEX
  5
693
  8
DATA
  6
CONTINUOUS
 62
     7
 10
94.626676039055468
 20
-207.7661455454114
 30
0.0
  0
VERTEX
  5
694
  8
DATA
  6
CONTINUOUS
 62
     7
 10
96.426676039055494
 20
-207.7661455454114
 30
0.0
  0
VERTEX
  5
695
  8
DATA
  6
CONTINUOUS
 62
     7
 10
96.426676039055494
 20
-211.16614554541141
 30
0.0
  0
VERTEX
  5
696
  8
DATA
  6
CONTINUOUS
 62
     7
 10
94.626676039055468
 20
-211.16614554541141
 30
0.0
  0
SEQEND
  5
697
  8
DATA
  6
CONTINUOUS
 62
     7
  0
POLYLINE
  5
19D
  8
DATA
  6
CONTINUOUS
 62
     7
 66
     1
 10
0.0
 20
0.0
 30
0.0
 70
     1
  0
VERTEX
  5
698
  8
DATA
  6
CONTINUOUS
 62
     7
 10
93.999999999999986
 20
-196.46614554541131
 30
0.0
  0
VERTEX
  5
699
  8
DATA
  6
CONTINUOUS
 62
     7
 10
104.0
 20
-196.46614554541131
 30
0.0
  0
VERTEX
  5
69A
  8
DATA
  6
CONTINUOUS
 62
     7
 10
104.0
 20
-201.46614554541139
 30
0.0
  0
VERTEX
  5
69B
  8
DATA
  6
CONTINUOUS
 62
     7
 10
93.999999999999986
 20
-201.46614554541139
 30
0.0
  0
SEQEND
  5
69C
  8
DATA
  6
CONTINUOUS
 62
     7
  0
POLYLINE
  5
1A4
  8
DATA
  6
CONTINUOUS
 62
     7
 66
     1
 10
0.0
 20
0.0
 30
0.0
 70
     1
  0
VERTEX
  5
69D
  8
DATA
  6
CONTINUOUS
 62
     7
 10
94.626676039055468
 20
-197.2661455454114
 30
0.0
  0
VERTEX
  5
69E
  8
DATA
  6
CONTINUOUS
 62
     7
 10
96.426676039055494
 20
-197.2661455454114
 30
0.0
  0
VERTEX
  5
69F
  8
DATA
  6
CONTINUOUS
 62
     7
 10
96.426676039055494
 20
-200.66614554541141
 30
0.0
  0
VERTEX
  5
6A0
  8
DATA
  6
CONTINUOUS
 62
     7
 10
94.626676039055468
 20
-200.66614554541141
 30
0.0
  0
SEQEND
  5
6A1
  8
DATA
  6
CONTINUOUS
 62
     7
  0
POLYLINE
  5
1AB
  8
DATA
  6
CONTINUOUS
 62
     7
 66
     1
 10
0.0
 20
0.0
 30
0.0
 70
     1
  0
VERTEX
  5
6A2
  8
DATA
  6
CONTINUOUS
 62
     7
 10
93.999999999999986
 20
-185.96614554541139
 30
0.0
  0
VERTEX
  5
6A3
  8
DATA
  6
CONTINUOUS
 62
     7
 10
104.0
 20
-185.96614554541139
 30
0.0
  0
VERTEX
  5
6A4
  8
DATA
  6
CONTINUOUS
 62
     7
 10
104.0
 20
-190.96614554541131
 30
0.0
  0
VERTEX
  5
6A5
  8
DATA
  6
CONTINUOUS
 62
     7
 10
93.999999999999986
 20
-190.96614554541131
 30
0.0
  0
SEQEND
  5
6A6
  8
DATA
  6
CONTINUOUS
 62
     7
  0
POLYLINE
  5
1B2
  8
DATA
  6
CONTINUOUS
 62
     7
 66
     1
 10
0.0
 20
0.0
 30
0.0
 70
     1
  0
VERTEX
  5
6A7
  8
DATA
  6
CONTINUOUS
 62
     7
 10
94.626676039055468
 20
-186.7661455454114
 30
0.0
  0
VERTEX
  5
6A8
  8
DATA
  6
CONTINUOUS
 62
     7
 10
96.426676039055494
 20
-186.7661455454114
 30
0.0
  0
VERTEX
  5
6A9
  8
DATA
  6
CONTINUOUS
 62
     7
 10
96.426676039055494
 20
-190.16614554541141
 30
0.0
  0
VERTEX
  5
6AA
  8
DATA
  6
CONTINUOUS
 62
     7
 10
94.626676039055468
 20
-190.16614554541141
 30
0.0
  0
SEQEND
  5
6AB
  8
DATA
  6
CONTINUOUS
 62
     7
  0
POLYLINE
  5
1B9
  8
DATA
  6
CONTINUOUS
 62
     7
 66
     1
 10
0.0
 20
0.0
 30
0.0
 70
     1
  0
VERTEX
  5
6AC
  8
DATA
  6
CONTINUOUS
 62
     7
 10
111.84999999999999
 20
-196.26920676896469
 30
0.0
  0
VERTEX
  5
6AD
  8
DATA
  6
CONTINUOUS
 62
     7
 10
113.55
 20
-196.26920676896469
 30
0.0
  0
VERTEX
  5
6AE
  8
DATA
  6
CONTINUOUS
 62
     7
 10
113.55
 20
-197.96920676896471
 30
0.0
  0
VERTEX
  5
6AF
  8
DATA
  6
CONTINUOUS
 62
     7
 10
111.84999999999999
 20
-197.96920676896471
 30
0.0
  0
SEQEND
  5
6B0
  8
DATA
  6
CONTINUOUS
 62
     7
  0
TEXT
  5
1C0
  8
DATA
 62
     7
 10
110.68356805183871
 20
-195.55932364264859
 30
0.0
 40
1.6288411458333329
  1
User
 41
0.7
 11
110.68356805183871
 21
-193.9304824968153
 31
0.0
 73
     3
  0
POLYLINE
  5
1C1
  8
DATA
  6
CONTINUOUS
 62
     7
 66
     1
 10
0.0
 20
0.0
 30
0.0
 70
     1
  0
VERTEX
  5
6B1
  8
DATA
  6
CONTINUOUS
 62
     7
 10
111.84999999999999
 20
-209.62801030922179
 30
0.0
  0
VERTEX
  5
6B2
  8
DATA
  6
CONTINUOUS
 62
     7
 10
113.55
 20
-209.62801030922179
 30
0.0
  0
VERTEX
  5
6B3
  8
DATA
  6
CONTINUOUS
 62
     7
 10
113.55
 20
-211.3280103092219
 30
0.0
  0
VERTEX
  5
6B4
  8
DATA
  6
CONTINUOUS
 62
     7
 10
111.84999999999999
 20
-211.3280103092219
 30
0.0
  0
SEQEND
  5
6B5
  8
DATA
  6
CONTINUOUS
 62
     7
  0
TEXT
  5
1C8
  8
DATA
 62
     7
 10
109.18356805183871
 20
-208.91812718290581
 30
0.0
 40
1.6288411458333329
  1
Factorv
 41
0.7
 11
109.18356805183871
 21
-207.2892860370724
 31
0.0
 73
     3
  0
TEXT
  5
1C9
  8
DATA
 62
     7
 10
25.348883665252249
 20
-216.4285995574414
 30
0.0
 40
2.1717881944444439
  1
A
 41
0.7
 11
25.348883665252249
 21
-214.25681136299701
 31
0.0
 73
     3
  0
TEXT
  5
1CA
  8
DATA
 62
     7
 10
46.348883665252238
 20
-216.4285995574414
 30
0.0
 40
2.1717881944444439
  1
B
 41
0.7
 11
46.348883665252238
 21
-214.25681136299701
 31
0.0
 73
     3
  0
TEXT
  5
1CB
  8
DATA
 62
     7
 10
67.348883665252245
 20
-216.4285995574414
 30
0.0
 40
2.1717881944444439
  1
C
 41
0.7
 11
67.348883665252245
 21
-214.25681136299701
 31
0.0
 73
     3
  0
TEXT
  5
1CC
  8
DATA
 62
     7
 10
-17.633479471681031
 20
-184.49060399441109
 30
0.0
 40
3.2576822916666659
  1
Page/Select
 41
0.7
 11
-17.633479471681031
 21
-181.23292170274439
 31
0.0
 73
     3
  0
TEXT
  5
1CD
  8
DATA
 62
     7
 10
-1.319533901451307
 20
-187.5595862549394
 30
0.0
 40
1.6288411458333329
  1
(Push)
 41
0.7
 11
-1.319533901451307
 21
-185.93074510910611
 31
0.0
 73
     3
  0
TEXT
  5
1CE
  8
DATA
 62
     7
 10
9.3152446803866855
 20
-186.0518350776965
 30
0.0
 40
2.1717881944444439
  1
Exit
 41
0.7
 11
9.3152446803866855
 21
-183.88004688325211
 31
0.0
 73
     3
  0
POLYLINE
  5
1CF
  8
DATA
  6
CONTINUOUS
 62
     7
 66
     1
 10
0.0
 20
0.0
 30
0.0
 70
     1
  0
VERTEX
  5
6B6
  8
DATA
  6
CONTINUOUS
 62
     7
 10
7.2499999999999867
 20
-187.0183038502781
 30
0.0
  0
VERTEX
  5
6B7
  8
DATA
  6
CONTINUOUS
 62
     7
 10
17.249999999999979
 20
-187.0183038502781
 30
0.0
  0
VERTEX
  5
6B8
  8
DATA
  6
CONTINUOUS
 62
     7
 10
17.249999999999979
 20
-192.0183038502781
 30
0.0
  0
VERTEX
  5
6B9
  8
DATA
  6
CONTINUOUS
 62
     7
 10
7.2499999999999867
 20
-192.0183038502781
 30
0.0
  0
SEQEND
  5
6BA
  8
DATA
  6
CONTINUOUS
 62
     7
  0
POLYLINE
  5
1D6
  8
DATA
  6
CONTINUOUS
 62
     7
 66
     1
 10
0.0
 20
0.0
 30
0.0
 70
     1
  0
VERTEX
  5
6BB
  8
DATA
  6
CONTINUOUS
 62
     7
 10
7.8766760390554671
 20
-187.81830385027811
 30
0.0
  0
VERTEX
  5
6BC
  8
DATA
  6
CONTINUOUS
 62
     7
 10
9.6766760390554794
 20
-187.81830385027811
 30
0.0
  0
VERTEX
  5
6BD
  8
DATA
  6
CONTINUOUS
 62
     7
 10
9.6766760390554794
 20
-191.21830385027809
 30
0.0
  0
VERTEX
  5
6BE
  8
DATA
  6
CONTINUOUS
 62
     7
 10
7.8766760390554671
 20
-191.21830385027809
 30
0.0
  0
SEQEND
  5
6BF
  8
DATA
  6
CONTINUOUS
 62
     7
  0
TEXT
  5
1DD
  8
DATA
 62
     7
 10
32.871931062799497
 20
-186.0518350776965
 30
0.0
 40
2.1717881944444439
  1
Tempo
 41
0.7
 11
32.871931062799497
 21
-183.88004688325211
 31
0.0
 73
     3
  0
POLYLINE
  5
1DE
  8
DATA
  6
CONTINUOUS
 62
     7
 66
     1
 10
0.0
 20
0.0
 30
0.0
 70
     1
  0
VERTEX
  5
6C0
  8
DATA
  6
CONTINUOUS
 62
     7
 10
31.499999999999989
 20
-187.0183038502781
 30
0.0
  0
VERTEX
  5
6C1
  8
DATA
  6
CONTINUOUS
 62
     7
 10
41.499999999999993
 20
-187.0183038502781
 30
0.0
  0
VERTEX
  5
6C2
  8
DATA
  6
CONTINUOUS
 62
     7
 10
41.499999999999993
 20
-192.0183038502781
 30
0.0
  0
VERTEX
  5
6C3
  8
DATA
  6
CONTINUOUS
 62
     7
 10
31.499999999999989
 20
-192.0183038502781
 30
0.0
  0
SEQEND
  5
6C4
  8
DATA
  6
CONTINUOUS
 62
     7
  0
POLYLINE
  5
1E5
  8
DATA
  6
CONTINUOUS
 62
     7
 66
     1
 10
0.0
 20
0.0
 30
0.0
 70
     1
  0
VERTEX
  5
6C5
  8
DATA
  6
CONTINUOUS
 62
     7
 10
32.126676039055468
 20
-187.81830385027811
 30
0.0
  0
VERTEX
  5
6C6
  8
DATA
  6
CONTINUOUS
 62
     7
 10
33.926676039055479
 20
-187.81830385027811
 30
0.0
  0
VERTEX
  5
6C7
  8
DATA
  6
CONTINUOUS
 62
     7
 10
33.926676039055479
 20
-191.21830385027809
 30
0.0
  0
VERTEX
  5
6C8
  8
DATA
  6
CONTINUOUS
 62
     7
 10
32.126676039055468
 20
-191.21830385027809
 30
0.0
  0
SEQEND
  5
6C9
  8
DATA
  6
CONTINUOUS
 62
     7
  0
TEXT
  5
1EC
  8
DATA
 62
     7
 10
53.254988599754341
 20
-186.0518350776965
 30
0.0
 40
2.1717881944444439
  1
Bypass
 41
0.7
 11
53.254988599754341
 21
-183.88004688325211
 31
0.0
 73
     3
  0
POLYLINE
  5
1ED
  8
DATA
  6
CONTINUOUS
 62
     7
 66
     1
 10
0.0
 20
0.0
 30
0.0
 70
     1
  0
VERTEX
  5
6CA
  8
DATA
  6
CONTINUOUS
 62
     7
 10
52.517774188271112
 20
-187.0183038502781
 30
0.0
  0
VERTEX
  5
6CB
  8
DATA
  6
CONTINUOUS
 62
     7
 10
62.51777418827119
 20
-187.0183038502781
 30
0.0
  0
VERTEX
  5
6CC
  8
DATA
  6
CONTINUOUS
 62
     7
 10
62.51777418827119
 20
-192.0183038502781
 30
0.0
  0
VERTEX
  5
6CD
  8
DATA
  6
CONTINUOUS
 62
     7
 10
52.517774188271112
 20
-192.0183038502781
 30
0.0
  0
SEQEND
  5
6CE
  8
DATA
  6
CONTINUOUS
 62
     7
  0
POLYLINE
  5
1F4
  8
DATA
  6
CONTINUOUS
 62
     7
 66
     1
 10
0.0
 20
0.0
 30
0.0
 70
     1
  0
VERTEX
  5
6CF
  8
DATA
  6
CONTINUOUS
 62
     7
 10
53.144450227326587
 20
-187.81830385027811
 30
0.0
  0
VERTEX
  5
6D0
  8
DATA
  6
CONTINUOUS
 62
     7
 10
54.944450227326612
 20
-187.81830385027811
 30
0.0
  0
VERTEX
  5
6D1
  8
DATA
  6
CONTINUOUS
 62
     7
 10
54.944450227326612
 20
-191.21830385027809
 30
0.0
  0
VERTEX
  5
6D2
  8
DATA
  6
CONTINUOUS
 62
     7
 10
53.144450227326587
 20
-191.21830385027809
 30
0.0
  0
SEQEND
  5
6D3
  8
DATA
  6
CONTINUOUS
 62
     7
  0
LINE
  5
1FB
  8
DATA
  6
CONTINUOUS
 62
     7
 10
-126.0
 20
-215.0
 30
0.0
 11
-126.0
 21
-188.0
 31
0.0
  0
LINE
  5
1FC
  8
DATA
  6
CONTINUOUS
 62
     7
 10
-28.000000000000011
 20
-215.0
 30
0.0
 11
-28.000000000000011
 21
-188.0
 31
0.0
  0
LINE
  5
1FD
  8
DATA
  6
CONTINUOUS
 62
     7
 10
-126.0
 20
-220.0
 30
0.0
 11
-28.000000000000011
 21
-220.0
 31
0.0
  0
LINE
  5
1FE
  8
DATA
  6
CONTINUOUS
 62
     7
 10
-126.0
 20
-215.0
 30
0.0
 11
-25.238612787525849
 21
-215.0
 31
0.0
  0
LINE
  5
1FF
  8
DATA
  6
CONTINUOUS
 62
     7
 10
-19.761387212474201
 20
-215.0
 30
0.0
 11
-18.080233171426091
 21
-215.0
 31
0.0
  0
LINE
  5
200
  8
DATA
  6
CONTINUOUS
 62
     7
 10
-126.0
 20
-188.0
 30
0.0
 11
-13.36372768818854
 21
-188.0
 31
0.0
  0
LINE
  5
201
  8
DATA
  6
CONTINUOUS
 62
     7
 10
-98.0
 20
-215.0
 30
0.0
 11
-98.0
 21
-188.0
 31
0.0
  0
POLYLINE
  5
202
  8
DATA
  6
CONTINUOUS
 62
     7
 66
     1
 10
0.0
 20
0.0
 30
0.0
 70
     1
  0
VERTEX
  5
6D4
  8
DATA
  6
CONTINUOUS
 62
     7
 10
-120.84999999999999
 20
-190.69409899751801
 30
0.0
  0
VERTEX
  5
6D5
  8
DATA
  6
CONTINUOUS
 62
     7
 10
-119.15000000000001
 20
-190.69409899751801
 30
0.0
  0
VERTEX
  5
6D6
  8
DATA
  6
CONTINUOUS
 62
     7
 10
-119.15000000000001
 20
-192.394098997518
 30
0.0
  0
VERTEX
  5
6D7
  8
DATA
  6
CONTINUOUS
 62
     7
 10
-120.84999999999999
 20
-192.394098997518
 30
0.0
  0
SEQEND
  5
6D8
  8
DATA
  6
CONTINUOUS
 62
     7
  0
POLYLINE
  5
209
  8
DATA
  6
CONTINUOUS
 62
     7
 66
     1
 10
0.0
 20
0.0
 30
0.0
 70
     1
  0
VERTEX
  5
6D9
  8
DATA
  6
CONTINUOUS
 62
     7
 10
-120.84999999999999
 20
-194.69409899751801
 30
0.0
  0
VERTEX
  5
6DA
  8
DATA
  6
CONTINUOUS
 62
     7
 10
-119.15000000000001
 20
-194.69409899751801
 30
0.0
  0
VERTEX
  5
6DB
  8
DATA
  6
CONTINUOUS
 62
     7
 10
-119.15000000000001
 20
-196.394098997518
 30
0.0
  0
VERTEX
  5
6DC
  8
DATA
  6
CONTINUOUS
 62
     7
 10
-120.84999999999999
 20
-196.394098997518
 30
0.0
  0
SEQEND
  5
6DD
  8
DATA
  6
CONTINUOUS
 62
     7
  0
POLYLINE
  5
210
  8
DATA
  6
CONTINUOUS
 62
     7
 66
     1
 10
0.0
 20
0.0
 30
0.0
 70
     1
  0
VERTEX
  5
6DE
  8
DATA
  6
CONTINUOUS
 62
     7
 10
-120.84999999999999
 20
-198.69409899751801
 30
0.0
  0
VERTEX
  5
6DF
  8
DATA
  6
CONTINUOUS
 62
     7
 10
-119.15000000000001
 20
-198.69409899751801
 30
0.0
  0
VERTEX
  5
6E0
  8
DATA
  6
CONTINUOUS
 62
     7
 10
-119.15000000000001
 20
-200.394098997518
 30
0.0
  0
VERTEX
  5
6E1
  8
DATA
  6
CONTINUOUS
 62
     7
 10
-120.84999999999999
 20
-200.394098997518
 30
0.0
  0
SEQEND
  5
6E2
  8
DATA
  6
CONTINUOUS
 62
     7
  0
POLYLINE
  5
217
  8
DATA
  6
CONTINUOUS
 62
     7
 66
     1
 10
0.0
 20
0.0
 30
0.0
 70
     1
  0
VERTEX
  5
6E3
  8
DATA
  6
CONTINUOUS
 62
     7
 10
-120.84999999999999
 20
-202.69409899751801
 30
0.0
  0
VERTEX
  5
6E4
  8
DATA
  6
CONTINUOUS
 62
     7
 10
-119.15000000000001
 20
-202.69409899751801
 30
0.0
  0
VERTEX
  5
6E5
  8
DATA
  6
CONTINUOUS
 62
     7
 10
-119.15000000000001
 20
-204.39409899751811
 30
0.0
  0
VERTEX
  5
6E6
  8
DATA
  6
CONTINUOUS
 62
     7
 10
-120.84999999999999
 20
-204.39409899751811
 30
0.0
  0
SEQEND
  5
6E7
  8
DATA
  6
CONTINUOUS
 62
     7
  0
POLYLINE
  5
21E
  8
DATA
  6
CONTINUOUS
 62
     7
 66
     1
 10
0.0
 20
0.0
 30
0.0
 70
     1
  0
VERTEX
  5
6E8
  8
DATA
  6
CONTINUOUS
 62
     7
 10
-120.84999999999999
 20
-206.69409899751801
 30
0.0
  0
VERTEX
  5
6E9
  8
DATA
  6
CONTINUOUS
 62
     7
 10
-119.15000000000001
 20
-206.69409899751801
 30
0.0
  0
VERTEX
  5
6EA
  8
DATA
  6
CONTINUOUS
 62
     7
 10
-119.15000000000001
 20
-208.39409899751811
 30
0.0
  0
VERTEX
  5
6EB
  8
DATA
  6
CONTINUOUS
 62
     7
 10
-120.84999999999999
 20
-208.39409899751811
 30
0.0
  0
SEQEND
  5
6EC
  8
DATA
  6
CONTINUOUS
 62
     7
  0
POLYLINE
  5
225
  8
DATA
  6
CONTINUOUS
 62
     7
 66
     1
 10
0.0
 20
0.0
 30
0.0
 70
     1
  0
VERTEX
  5
6ED
  8
DATA
  6
CONTINUOUS
 62
     7
 10
-120.84999999999999
 20
-210.69409899751801
 30
0.0
  0
VERTEX
  5
6EE
  8
DATA
  6
CONTINUOUS
 62
     7
 10
-119.15000000000001
 20
-210.69409899751801
 30
0.0
  0
VERTEX
  5
6EF
  8
DATA
  6
CONTINUOUS
 62
     7
 10
-119.15000000000001
 20
-212.39409899751811
 30
0.0
  0
VERTEX
  5
6F0
  8
DATA
  6
CONTINUOUS
 62
     7
 10
-120.84999999999999
 20
-212.39409899751811
 30
0.0
  0
SEQEND
  5
6F1
  8
DATA
  6
CONTINUOUS
 62
     7
  0
TEXT
  5
22C
  8
DATA
 62
     7
 10
-117.55945223706659
 20
-192.2133328138251
 30
0.0
 40
1.4931043836805551
  1
Surround
 41
0.7
 11
-117.55945223706659
 21
-190.7202284301446
 31
0.0
 73
     3
  0
TEXT
  5
22D
  8
DATA
 62
     7
 10
-117.55945223706659
 20
-196.2133328138251
 30
0.0
 40
1.4931043836805551
  1
Stereo
 41
0.7
 11
-117.55945223706659
 21
-194.7202284301446
 31
0.0
 73
     3
  0
TEXT
  5
22E
  8
DATA
 62
     7
 10
-117.55945223706659
 20
-200.2133328138251
 30
0.0
 40
1.4931043836805551
  1
A
 41
0.7
 11
-117.55945223706659
 21
-198.7202284301446
 31
0.0
 73
     3
  0
TEXT
  5
22F
  8
DATA
 62
     7
 10
-117.55945223706659
 20
-204.2133328138251
 30
0.0
 40
1.4931043836805551
  1
B
 41
0.7
 11
-117.55945223706659
 21
-202.7202284301446
 31
0.0
 73
     3
  0
TEXT
  5
230
  8
DATA
 62
     7
 10
-117.55945223706659
 20
-208.2133328138251
 30
0.0
 40
1.4931043836805551
  1
S/PDIF
 41
0.7
 11
-117.55945223706659
 21
-206.7202284301446
 31
0.0
 73
     3
  0
TEXT
  5
231
  8
DATA
 62
     7
 10
-117.55945223706659
 20
-212.2133328138251
 30
0.0
 40
1.4931043836805551
  1
USB
 41
0.7
 11
-117.55945223706659
 21
-210.7202284301446
 31
0.0
 73
     3
  0
TEXT
  5
232
  8
DATA
 62
     7
 10
-115.63776491727251
 20
-202.1147847461433
 30
0.0
 40
1.4931043836805551
  1
Dual Stereo
 41
0.7
 11
-115.63776491727251
 21
-200.6216803624628
 31
0.0
 73
     3
  0
TEXT
  5
233
  8
DATA
 62
     7
 10
-110.0957505450229
 20
-210.2133328138251
 30
0.0
 40
1.4931043836805551
  1
Lock
 41
0.7
 11
-110.0957505450229
 21
-208.7202284301446
 31
0.0
 73
     3
  0
LINE
  5
234
  8
DATA
  6
CONTINUOUS
 62
     7
 10
-122.55
 20
-205.54409899751801
 30
0.0
 11
-100.34999999999999
 21
-205.54409899751801
 31
0.0
  0
LINE
  5
235
  8
DATA
  6
CONTINUOUS
 62
     7
 10
-122.55
 20
-213.54409899751801
 30
0.0
 11
-100.34999999999999
 21
-213.54409899751801
 31
0.0
  0
LINE
  5
236
  8
DATA
  6
CONTINUOUS
 62
     7
 10
-123.05
 20
-213.04409899751801
 30
0.0
 11
-123.05
 21
-206.04409899751801
 31
0.0
  0
LINE
  5
237
  8
DATA
  6
CONTINUOUS
 62
     7
 10
-99.850000000000023
 20
-206.04409899751801
 30
0.0
 11
-99.850000000000023
 21
-213.04409899751801
 31
0.0
  0
ARC
  5
238
  8
DATA
  6
CONTINUOUS
 62
     7
 10
-122.55
 20
-206.04409899751801
 30
0.0
 40
0.5
 50
90.0
 51
180.0
  0
ARC
  5
239
  8
DATA
  6
CONTINUOUS
 62
     7
 10
-122.55
 20
-213.04409899751801
 30
0.0
 40
0.5
 50
180.0
 51
270.0
  0
ARC
  5
23A
  8
DATA
  6
CONTINUOUS
 62
     7
 10
-100.34999999999999
 20
-206.04409899751801
 30
0.0
 40
0.5
 50
0.0
 51
90.0
  0
ARC
  5
23B
  8
DATA
  6
CONTINUOUS
 62
     7
 10
-100.34999999999999
 20
-213.04409899751801
 30
0.0
 40
0.5
 50
270.0
 51
0.0
  0
LINE
  5
23C
  8
DATA
  6
CONTINUOUS
 62
     7
 10
-191.5
 20
-217.5
 30
0.0
 11
-191.5
 21
-179.5
 31
0.0
  0
LINE
  5
23D
  8
DATA
  6
CONTINUOUS
 62
     7
 10
171.76415690430011
 20
-179.5
 30
0.0
 11
171.76415690430011
 21
-193.3380590793887
 31
0.0
  0
LINE
  5
23E
  8
DATA
  6
CONTINUOUS
 62
     7
 10
91.499999999999986
 20
-179.5
 30
0.0
 11
91.499999999999986
 21
-217.5
 31
0.0
  0
LINE
  5
23F
  8
DATA
  6
CONTINUOUS
 62
     7
 10
-134.0
 20
-217.5
 30
0.0
 11
-134.0
 21
-179.5
 31
0.0
  0
LINE
  5
240
  8
DATA
  6
CONTINUOUS
 62
     7
 10
165.61950260401079
 20
-217.5
 30
0.0
 11
-20.918861169915839
 21
-217.5
 31
0.0
  0
LINE
  5
241
  8
DATA
  6
CONTINUOUS
 62
     7
 10
-24.081138830084239
 20
-217.5
 30
0.0
 11
-191.5
 21
-217.5
 31
0.0
  0
LINE
  5
242
  8
DATA
  6
CONTINUOUS
 62
     7
 10
-191.5
 20
-179.5
 30
0.0
 11
-25.238612787525842
 21
-179.5
 31
0.0
  0
LINE
  5
243
  8
DATA
  6
CONTINUOUS
 62
     7
 10
-19.76138721247419
 20
-179.5
 30
0.0
 11
171.76415690430011
 21
-179.5
 31
0.0
  0
ARC
  5
244
  8
DATA
  6
CONTINUOUS
 62
     7
 10
160.6058912152894
 20
-203.36268410047779
 30
0.0
 40
14.999999999999989
 50
289.52637552787252
 51
41.93663515354865
  0
TEXT
  5
245
  8
DATA
 62
     7
 10
-191.40000000000001
 20
-178.92171342102759
 30
0.0
 40
2.7147352430555549
  1
INPUT CONTROL
 41
0.7
 11
-191.40000000000001
 21
-176.2069781779721
 31
0.0
 73
     3
  0
TEXT
  5
246
  8
DATA
 62
     7
 10
-132.84109050452469
 20
-178.92171342102759
 30
0.0
 40
2.7147352430555549
  1
EDIT
 41
0.7
 11
-132.84109050452469
 21
-176.2069781779721
 31
0.0
 73
     3
  0
TEXT
  5
247
  8
DATA
 62
     7
 10
92.502337464640789
 20
-178.92171342102759
 30
0.0
 40
2.7147352430555549
  1
PROGRAM
 41
0.7
 11
92.502337464640789
 21
-176.2069781779721
 31
0.0
 73
     3
  0
CIRCLE
  5
248
  8
DATA
  6
CONTINUOUS
 62
     7
 10
-6.0000000000000142
 20
-203.5
 30
0.0
 40
13.5
  0
CIRCLE
  5
249
  8
DATA
  6
CONTINUOUS
 62
     7
 10
160.0
 20
-203.5
 30
0.0
 40
13.5
  0
CIRCLE
  5
24A
  8
DATA
  6
CONTINUOUS
 62
     7
 10
25.999999999999989
 20
-203.5
 30
0.0
 40
9.0
  0
CIRCLE
  5
24B
  8
DATA
  6
CONTINUOUS
 62
     7
 10
46.999999999999993
 20
-203.5
 30
0.0
 40
9.0
  0
CIRCLE
  5
24C
  8
DATA
  6
CONTINUOUS
 62
     7
 10
67.999999999999986
 20
-203.5
 30
0.0
 40
9.0
  0
LINE
  5
24D
  8
DATA
  6
CONTINUOUS
 62
     7
 10
-240.0
 20
-120.0
 30
0.0
 11
-240.0
 21
-116.0
 31
0.0
  0
LINE
  5
24E
  8
DATA
  6
CONTINUOUS
 62
     7
 10
243.0
 20
-120.0
 30
0.0
 11
-240.0
 21
-120.0
 31
0.0
  0
LINE
  5
24F
  8
DATA
  6
CONTINUOUS
 62
     7
 10
243.0
 20
-116.0
 30
0.0
 11
243.0
 21
-120.0
 31
0.0
  0
LINE
  5
250
  8
DATA
  6
CONTINUOUS
 62
     7
 10
-217.0
 20
43.0
 30
0.0
 11
220.0
 21
43.0
 31
0.0
  0
LINE
  5
251
  8
DATA
  6
CONTINUOUS
 62
     7
 10
-214.25
 20
-123.5
 30
0.0
 11
-214.25
 21
-120.0
 31
0.0
  0
LINE
  5
252
  8
DATA
  6
CONTINUOUS
 62
     7
 10
-208.75
 20
-123.5
 30
0.0
 11
-208.75
 21
-120.0
 31
0.0
  0
LINE
  5
253
  8
DATA
  6
CONTINUOUS
 62
     7
 10
211.75
 20
-123.5
 30
0.0
 11
211.75
 21
-120.0
 31
0.0
  0
LINE
  5
254
  8
DATA
  6
CONTINUOUS
 62
     7
 10
217.25
 20
-123.5
 30
0.0
 11
217.25
 21
-120.0
 31
0.0
  0
LINE
  5
255
  8
DATA
  6
CONTINUOUS
 62
     7
 10
217.25
 20
-123.5
 30
0.0
 11
211.75
 21
-123.5
 31
0.0
  0
LINE
  5
256
  8
DATA
  6
CONTINUOUS
 62
     7
 10
-208.75
 20
-123.5
 30
0.0
 11
-214.25
 21
-123.5
 31
0.0
  0
LINE
  5
257
  8
DATA
  6
CONTINUOUS
 62
     7
 10
-183.1819841619571
 20
-121.9840655493438
 30
0.0
 11
-184.65000000000001
 21
-120.1559703548
 31
0.0
  0
LINE
  5
258
  8
DATA
  6
CONTINUOUS
 62
     7
 10
-182.02331980023931
 20
-136.40950295028321
 30
0.0
 11
-182.52346523742449
 21
-123.74409464001489
 31
0.0
  0
ARC
  5
259
  8
DATA
  6
CONTINUOUS
 62
     7
 10
-185.5211288872909
 20
-123.86246964696061
 30
0.0
 40
2.999999999999968
 50
2.261383172299821
 51
38.765519904462181
  0
LINE
  5
25A
  8
DATA
  6
CONTINUOUS
 62
     7
 10
-168.81801583804281
 20
-121.9840655493438
 30
0.0
 11
-167.34999999999999
 21
-120.1559703548
 31
0.0
  0
ARC
  5
25B
  8
DATA
  6
CONTINUOUS
 62
     7
 10
-166.47887111270899
 20
-123.86246964696061
 30
0.0
 40
3.0000000000000222
 50
141.2344800955378
 51
177.73861682770021
  0
LINE
  5
25C
  8
DATA
  6
CONTINUOUS
 62
     7
 10
-169.97668019976081
 20
-136.409502950285
 30
0.0
 11
-169.4765347625754
 21
-123.74409464001489
 31
0.0
  0
LINE
  5
25D
  8
DATA
  6
CONTINUOUS
 62
     7
 10
-182.02331980024641
 20
-136.4095029501037
 30
0.0
 11
-169.97668019975359
 21
-136.4095029501037
 31
0.0
  0
ARC
  5
25E
  8
DATA
  6
CONTINUOUS
 62
     7
 10
-176.0
 20
-105.9866868166372
 30
0.0
 40
31.013353944820999
 50
258.80101488764592
 51
281.19898511235419
  0
LINE
  5
25F
  8
DATA
  6
CONTINUOUS
 62
     7
 10
-184.65000000000001
 20
-120.1559703548
 30
0.0
 11
-184.65000000000001
 21
-120.0
 31
0.0
  0
LINE
  5
260
  8
DATA
  6
CONTINUOUS
 62
     7
 10
-167.34999999999999
 20
-120.1559703548
 30
0.0
 11
-167.34999999999999
 21
-120.0
 31
0.0
  0
LINE
  5
261
  8
DATA
  6
CONTINUOUS
 62
     7
 10
-157.68198416195719
 20
-121.9840655493438
 30
0.0
 11
-159.14999999999989
 21
-120.1559703548
 31
0.0
  0
LINE
  5
262
  8
DATA
  6
CONTINUOUS
 62
     7
 10
-156.52331980023931
 20
-136.40950295028321
 30
0.0
 11
-157.0234652374246
 21
-123.74409464001489
 31
0.0
  0
ARC
  5
263
  8
DATA
  6
CONTINUOUS
 62
     7
 10
-160.02112888729101
 20
-123.86246964696061
 30
0.0
 40
2.999999999999968
 50
2.261383172299821
 51
38.765519904462181
  0
LINE
  5
264
  8
DATA
  6
CONTINUOUS
 62
     7
 10
-143.31801583804281
 20
-121.9840655493438
 30
0.0
 11
-141.84999999999999
 21
-120.1559703548
 31
0.0
  0
ARC
  5
265
  8
DATA
  6
CONTINUOUS
 62
     7
 10
-140.97887111270899
 20
-123.86246964696061
 30
0.0
 40
3.0000000000000222
 50
141.2344800955378
 51
177.73861682770021
  0
LINE
  5
266
  8
DATA
  6
CONTINUOUS
 62
     7
 10
-144.47668019976081
 20
-136.409502950285
 30
0.0
 11
-143.9765347625754
 21
-123.74409464001489
 31
0.0
  0
LINE
  5
267
  8
DATA
  6
CONTINUOUS
 62
     7
 10
-156.5233198002463
 20
-136.4095029501037
 30
0.0
 11
-144.47668019975359
 21
-136.4095029501037
 31
0.0
  0
ARC
  5
268
  8
DATA
  6
CONTINUOUS
 62
     7
 10
-150.5
 20
-105.9866868166372
 30
0.0
 40
31.013353944820999
 50
258.80101488764592
 51
281.19898511235419
  0
LINE
  5
269
  8
DATA
  6
CONTINUOUS
 62
     7
 10
-159.14999999999989
 20
-120.1559703548
 30
0.0
 11
-159.14999999999989
 21
-120.0
 31
0.0
  0
LINE
  5
26A
  8
DATA
  6
CONTINUOUS
 62
     7
 10
-141.84999999999999
 20
-120.1559703548
 30
0.0
 11
-141.84999999999999
 21
-120.0
 31
0.0
  0
LINE
  5
26B
  8
DATA
  6
CONTINUOUS
 62
     7
 10
18.8180158380428
 20
-121.9840655493438
 30
0.0
 11
17.350000000000009
 21
-120.1559703548
 31
0.0
  0
LINE
  5
26C
  8
DATA
  6
CONTINUOUS
 62
     7
 10
19.976680199760711
 20
-136.40950295028321
 30
0.0
 11
19.47653476257544
 21
-123.74409464001489
 31
0.0
  0
ARC
  5
26D
  8
DATA
  6
CONTINUOUS
 62
     7
 10
16.478871112709019
 20
-123.86246964696061
 30
0.0
 40
2.999999999999968
 50
2.261383172299821
 51
38.765519904462181
  0
ARC
  5
26E
  8
DATA
  6
CONTINUOUS
 62
     7
 10
35.521128887290942
 20
-123.86246964696061
 30
0.0
 40
3.000000000000008
 50
152.98932176970189
 51
177.73861682770021
  0
LINE
  5
26F
  8
DATA
  6
CONTINUOUS
 62
     7
 10
32.023319800239207
 20
-136.409502950285
 30
0.0
 11
32.523465237424531
 21
-123.74409464001489
 31
0.0
  0
LINE
  5
270
  8
DATA
  6
CONTINUOUS
 62
     7
 10
19.976680199753648
 20
-136.4095029501037
 30
0.0
 11
32.023319800246369
 21
-136.4095029501037
 31
0.0
  0
ARC
  5
271
  8
DATA
  6
CONTINUOUS
 62
     7
 10
25.999999999999989
 20
-105.9866868166372
 30
0.0
 40
31.013353944820999
 50
258.80101488764592
 51
281.19898511235419
  0
LINE
  5
272
  8
DATA
  6
CONTINUOUS
 62
     7
 10
17.350000000000009
 20
-120.1559703548
 30
0.0
 11
17.350000000000009
 21
-120.0
 31
0.0
  0
LINE
  5
273
  8
DATA
  6
CONTINUOUS
 62
     7
 10
40.976680199760708
 20
-136.40950295028321
 30
0.0
 11
40.476534762575433
 21
-123.74409464001489
 31
0.0
  0
ARC
  5
274
  8
DATA
  6
CONTINUOUS
 62
     7
 10
37.478871112709029
 20
-123.86246964696061
 30
0.0
 40
2.999999999999968
 50
2.261383172299821
 51
27.01067823029981
  0
ARC
  5
275
  8
DATA
  6
CONTINUOUS
 62
     7
 10
56.521128887290928
 20
-123.86246964696061
 30
0.0
 40
3.0000000000000151
 50
152.98932176970189
 51
177.73861682770021
  0
LINE
  5
276
  8
DATA
  6
CONTINUOUS
 62
     7
 10
53.023319800239207
 20
-136.409502950285
 30
0.0
 11
53.523465237424539
 21
-123.74409464001489
 31
0.0
  0
LINE
  5
277
  8
DATA
  6
CONTINUOUS
 62
     7
 10
40.976680199753652
 20
-136.4095029501037
 30
0.0
 11
53.023319800246362
 21
-136.4095029501037
 31
0.0
  0
ARC
  5
278
  8
DATA
  6
CONTINUOUS
 62
     7
 10
46.999999999999993
 20
-105.9866868166372
 30
0.0
 40
31.013353944820999
 50
258.80101488764592
 51
281.19898511235419
  0
LINE
  5
279
  8
DATA
  6
CONTINUOUS
 62
     7
 10
61.976680199760708
 20
-136.40950295028321
 30
0.0
 11
61.476534762575433
 21
-123.74409464001489
 31
0.0
  0
ARC
  5
27A
  8
DATA
  6
CONTINUOUS
 62
     7
 10
58.478871112709029
 20
-123.86246964696061
 30
0.0
 40
2.999999999999968
 50
2.261383172299821
 51
27.010678230298591
  0
LINE
  5
27B
  8
DATA
  6
CONTINUOUS
 62
     7
 10
75.181984161957175
 20
-121.9840655493438
 30
0.0
 11
76.649999999999977
 21
-120.1559703548
 31
0.0
  0
ARC
  5
27C
  8
DATA
  6
CONTINUOUS
 62
     7
 10
77.521128887290942
 20
-123.86246964696061
 30
0.0
 40
3.0000000000000222
 50
141.2344800955378
 51
177.73861682770021
  0
LINE
  5
27D
  8
DATA
  6
CONTINUOUS
 62
     7
 10
74.023319800239193
 20
-136.409502950285
 30
0.0
 11
74.523465237424531
 21
-123.74409464001489
 31
0.0
  0
LINE
  5
27E
  8
DATA
  6
CONTINUOUS
 62
     7
 10
61.976680199753659
 20
-136.4095029501037
 30
0.0
 11
74.023319800246369
 21
-136.4095029501037
 31
0.0
  0
ARC
  5
27F
  8
DATA
  6
CONTINUOUS
 62
     7
 10
67.999999999999986
 20
-105.9866868166372
 30
0.0
 40
31.013353944820999
 50
258.80101488764592
 51
281.19898511235419
  0
LINE
  5
280
  8
DATA
  6
CONTINUOUS
 62
     7
 10
76.649999999999977
 20
-120.1559703548
 30
0.0
 11
76.649999999999977
 21
-120.0
 31
0.0
  0
LINE
  5
281
  8
DATA
  6
CONTINUOUS
 62
     7
 10
4.4999999999999849
 20
-136.4095029501037
 30
0.0
 11
-16.5
 21
-136.4095029501037
 31
0.0
  0
LINE
  5
282
  8
DATA
  6
CONTINUOUS
 62
     7
 10
-16.500000000000021
 20
-136.4095029501037
 30
0.0
 11
-16.96768768438757
 21
-123.7730466461817
 31
0.0
  0
LINE
  5
283
  8
DATA
  6
CONTINUOUS
 62
     7
 10
-17.495996715745601
 20
-122.1808047621688
 30
0.0
 11
-19.000000000000011
 21
-120.0
 31
0.0
  0
ARC
  5
284
  8
DATA
  6
CONTINUOUS
 62
     7
 10
-19.965635073491541
 20
-123.88400362957979
 30
0.0
 40
3.0000000000000182
 50
2.1196057214356601
 51
34.592288687509267
  0
LINE
  5
285
  8
DATA
  6
CONTINUOUS
 62
     7
 10
4.4999999999999849
 20
-136.4095029501037
 30
0.0
 11
4.967687684387541
 21
-123.7730466461817
 31
0.0
  0
LINE
  5
286
  8
DATA
  6
CONTINUOUS
 62
     7
 10
5.4959967157455756
 20
-122.1808047621688
 30
0.0
 11
6.9999999999999849
 21
-120.0
 31
0.0
  0
ARC
  5
287
  8
DATA
  6
CONTINUOUS
 62
     7
 10
7.9656350734915122
 20
-123.88400362957979
 30
0.0
 40
2.999999999999996
 50
145.4077113124907
 51
177.8803942785643
  0
ARC
  5
288
  8
DATA
  6
CONTINUOUS
 62
     7
 10
-6.0000000000000142
 20
-43.35119448492263
 30
0.0
 40
93.648805515077356
 50
263.56240218407299
 51
276.43759781592712
  0
LINE
  5
289
  8
DATA
  6
CONTINUOUS
 62
     7
 10
170.5
 20
-136.4095029501037
 30
0.0
 11
149.5
 21
-136.4095029501037
 31
0.0
  0
LINE
  5
28A
  8
DATA
  6
CONTINUOUS
 62
     7
 10
149.5
 20
-136.4095029501037
 30
0.0
 11
149.03231231561239
 21
-123.7730466461817
 31
0.0
  0
LINE
  5
28B
  8
DATA
  6
CONTINUOUS
 62
     7
 10
148.5040032842544
 20
-122.1808047621688
 30
0.0
 11
147.0
 21
-120.0
 31
0.0
  0
ARC
  5
28C
  8
DATA
  6
CONTINUOUS
 62
     7
 10
146.0343649265084
 20
-123.88400362957979
 30
0.0
 40
3.0000000000000182
 50
2.1196057214356601
 51
34.592288687509267
  0
LINE
  5
28D
  8
DATA
  6
CONTINUOUS
 62
     7
 10
170.5
 20
-136.4095029501037
 30
0.0
 11
170.9676876843875
 21
-123.7730466461817
 31
0.0
  0
LINE
  5
28E
  8
DATA
  6
CONTINUOUS
 62
     7
 10
171.4959967157456
 20
-122.1808047621688
 30
0.0
 11
173.0
 21
-120.0
 31
0.0
  0
ARC
  5
28F
  8
DATA
  6
CONTINUOUS
 62
     7
 10
173.96563507349151
 20
-123.88400362957979
 30
0.0
 40
2.999999999999996
 50
145.4077113124907
 51
177.8803942785643
  0
ARC
  5
290
  8
DATA
  6
CONTINUOUS
 62
     7
 10
160.0
 20
-43.35119448492263
 30
0.0
 40
93.648805515077356
 50
263.56240218407299
 51
276.43759781592712
  0
LINE
  5
291
  8
DATA
  6
CONTINUOUS
 62
     7
 10
189.5
 20
-121.5
 30
0.0
 11
189.5
 21
-120.0
 31
0.0
  0
LINE
  5
292
  8
DATA
  6
CONTINUOUS
 62
     7
 10
200.5
 20
-121.5
 30
0.0
 11
200.5
 21
-120.0
 31
0.0
  0
LINE
  5
293
  8
DATA
  6
CONTINUOUS
 62
     7
 10
189.5
 20
-121.5
 30
0.0
 11
200.5
 21
-121.5
 31
0.0
  0
LINE
  5
294
  8
DATA
  6
CONTINUOUS
 62
     7
 10
-19.76138721247419
 20
-123.5
 30
0.0
 11
-19.76138721247419
 21
-120.0
 31
0.0
  0
LINE
  5
295
  8
DATA
  6
CONTINUOUS
 62
     7
 10
-25.250000000000028
 20
-123.5
 30
0.0
 11
-25.250000000000028
 21
-120.0
 31
0.0
  0
LINE
  5
296
  8
DATA
  6
CONTINUOUS
 62
     7
 10
-25.250000000000028
 20
-123.5
 30
0.0
 11
-19.76138721247419
 21
-123.5
 31
0.0
  0
LINE
  5
297
  8
DATA
  6
CONTINUOUS
 62
     7
 10
243.0
 20
-116.0
 30
0.0
 11
-240.0
 21
-116.0
 31
0.0
  0
LINE
  5
298
  8
DATA
  6
CONTINUOUS
 62
     7
 10
243.0
 20
-117.0
 30
0.0
 11
-240.0
 21
-117.0
 31
0.0
  0
LINE
  5
299
  8
DATA
  6
CONTINUOUS
 62
     7
 10
7.2499999999999867
 20
-122.5
 30
0.0
 11
7.2499999999999867
 21
-120.0
 31
0.0
  0
LINE
  5
29A
  8
DATA
  6
CONTINUOUS
 62
     7
 10
17.249999999999979
 20
-122.5
 30
0.0
 11
17.249999999999979
 21
-120.0
 31
0.0
  0
LINE
  5
29B
  8
DATA
  6
CONTINUOUS
 62
     7
 10
31.499999999999989
 20
-122.5
 30
0.0
 11
31.499999999999989
 21
-120.0
 31
0.0
  0
LINE
  5
29C
  8
DATA
  6
CONTINUOUS
 62
     7
 10
41.499999999999993
 20
-122.5
 30
0.0
 11
41.499999999999993
 21
-120.0
 31
0.0
  0
LINE
  5
29D
  8
DATA
  6
CONTINUOUS
 62
     7
 10
53.144450227326587
 20
-122.5
 30
0.0
 11
53.144450227326587
 21
-120.0
 31
0.0
  0
LINE
  5
29E
  8
DATA
  6
CONTINUOUS
 62
     7
 10
62.51777418827119
 20
-122.5
 30
0.0
 11
62.51777418827119
 21
-120.0
 31
0.0
  0
LINE
  5
29F
  8
DATA
  6
CONTINUOUS
 62
     7
 10
104.0
 20
-122.5
 30
0.0
 11
104.0
 21
-120.0
 31
0.0
  0
LINE
  5
2A0
  8
DATA
  6
CONTINUOUS
 62
     7
 10
93.999999999999986
 20
-122.5
 30
0.0
 11
93.999999999999986
 21
-120.0
 31
0.0
  0
LINE
  5
2A1
  8
DATA
  6
CONTINUOUS
 62
     7
 10
7.2499999999999867
 20
-122.5
 30
0.0
 11
17.249999999999979
 21
-122.5
 31
0.0
  0
LINE
  5
2A2
  8
DATA
  6
CONTINUOUS
 62
     7
 10
31.499999999999989
 20
-122.5
 30
0.0
 11
41.499999999999993
 21
-122.5
 31
0.0
  0
LINE
  5
2A3
  8
DATA
  6
CONTINUOUS
 62
     7
 10
53.144450227326587
 20
-122.5
 30
0.0
 11
62.51777418827119
 21
-122.5
 31
0.0
  0
LINE
  5
2A4
  8
DATA
  6
CONTINUOUS
 62
     7
 10
93.999999999999986
 20
-122.5
 30
0.0
 11
104.0
 21
-122.5
 31
0.0
  0
LINE
  5
2A5
  8
DATA
  6
CONTINUOUS
 62
     7
 10
220.0
 20
43.0
 30
0.0
 11
220.0
 21
-116.0
 31
0.0
  0
LINE
  5
2A6
  8
DATA
  6
CONTINUOUS
 62
     7
 10
-217.0
 20
43.0
 30
0.0
 11
-217.0
 21
-116.0
 31
0.0
  0
LINE
  5
2A7
  8
DATA
  6
CONTINUOUS
 62
     7
 10
115.0
 20
-116.0
 30
0.0
 11
115.0
 21
-114.0
 31
0.0
  0
LINE
  5
2A8
  8
DATA
  6
CONTINUOUS
 62
     7
 10
92.999999999999986
 20
-116.0
 30
0.0
 11
92.999999999999986
 21
-114.0
 31
0.0
  0
LINE
  5
2A9
  8
DATA
  6
CONTINUOUS
 62
     7
 10
-9.0000000000000142
 20
-116.0
 30
0.0
 11
-9.0000000000000142
 21
-114.0
 31
0.0
  0
LINE
  5
2AA
  8
DATA
  6
CONTINUOUS
 62
     7
 10
-31.000000000000011
 20
-116.0
 30
0.0
 11
-31.000000000000011
 21
-114.0
 31
0.0
  0
LINE
  5
2AB
  8
DATA
  6
CONTINUOUS
 62
     7
 10
-120.0
 20
-116.0
 30
0.0
 11
-120.0
 21
-114.0
 31
0.0
  0
LINE
  5
2AC
  8
DATA
  6
CONTINUOUS
 62
     7
 10
-142.0
 20
-116.0
 30
0.0
 11
-142.0
 21
-114.0
 31
0.0
  0
LINE
  5
2AD
  8
DATA
  6
CONTINUOUS
 62
     7
 10
-142.0
 20
-114.0
 30
0.0
 11
-120.0
 21
-114.0
 31
0.0
  0
LINE
  5
2AE
  8
DATA
  6
CONTINUOUS
 62
     7
 10
-31.000000000000011
 20
-114.0
 30
0.0
 11
-9.0000000000000142
 21
-114.0
 31
0.0
  0
LINE
  5
2AF
  8
DATA
  6
CONTINUOUS
 62
     7
 10
92.999999999999986
 20
-114.0
 30
0.0
 11
115.0
 21
-114.0
 31
0.0
  0
ARC
  5
2B0
  8
DATA
  6
CONTINUOUS
 62
     7
 10
126.0
 20
-55.759999999999991
 30
0.0
 40
0.759999999999998
 50
0.0
 51
180.0
  0
ARC
  5
2B1
  8
DATA
  6
CONTINUOUS
 62
     7
 10
126.0
 20
-70.239999999999995
 30
0.0
 40
0.7600000000000016
 50
180.0
 51
0.0
  0
LINE
  5
2B2
  8
DATA
  6
CONTINUOUS
 62
     7
 10
125.2399999999999
 20
-70.239999999999995
 30
0.0
 11
125.2399999999999
 21
-55.759999999999991
 31
0.0
  0
LINE
  5
2B3
  8
DATA
  6
CONTINUOUS
 62
     7
 10
126.76000000000001
 20
-55.759999999999991
 30
0.0
 11
126.76000000000001
 21
-70.239999999999995
 31
0.0
  0
ARC
  5
2B4
  8
DATA
  6
CONTINUOUS
 62
     7
 10
121.0
 20
-55.759999999999991
 30
0.0
 40
0.759999999999998
 50
0.0
 51
180.0
  0
ARC
  5
2B5
  8
DATA
  6
CONTINUOUS
 62
     7
 10
121.0
 20
-70.239999999999995
 30
0.0
 40
0.7600000000000016
 50
180.0
 51
0.0
  0
LINE
  5
2B6
  8
DATA
  6
CONTINUOUS
 62
     7
 10
120.23999999999999
 20
-70.239999999999995
 30
0.0
 11
120.23999999999999
 21
-55.759999999999991
 31
0.0
  0
LINE
  5
2B7
  8
DATA
  6
CONTINUOUS
 62
     7
 10
121.76000000000001
 20
-55.759999999999991
 30
0.0
 11
121.76000000000001
 21
-70.239999999999995
 31
0.0
  0
ARC
  5
2B8
  8
DATA
  6
CONTINUOUS
 62
     7
 10
116.0
 20
-55.759999999999991
 30
0.0
 40
0.759999999999998
 50
0.0
 51
180.0
  0
ARC
  5
2B9
  8
DATA
  6
CONTINUOUS
 62
     7
 10
116.0
 20
-70.239999999999995
 30
0.0
 40
0.7600000000000016
 50
180.0
 51
0.0
  0
LINE
  5
2BA
  8
DATA
  6
CONTINUOUS
 62
     7
 10
115.23999999999999
 20
-70.239999999999995
 30
0.0
 11
115.23999999999999
 21
-55.759999999999991
 31
0.0
  0
LINE
  5
2BB
  8
DATA
  6
CONTINUOUS
 62
     7
 10
116.76000000000001
 20
-55.759999999999991
 30
0.0
 11
116.76000000000001
 21
-70.239999999999995
 31
0.0
  0
ARC
  5
2BC
  8
DATA
  6
CONTINUOUS
 62
     7
 10
111.0
 20
-55.759999999999991
 30
0.0
 40
0.759999999999998
 50
0.0
 51
180.0
  0
ARC
  5
2BD
  8
DATA
  6
CONTINUOUS
 62
     7
 10
111.0
 20
-70.239999999999995
 30
0.0
 40
0.7600000000000016
 50
180.0
 51
0.0
  0
LINE
  5
2BE
  8
DATA
  6
CONTINUOUS
 62
     7
 10
110.23999999999999
 20
-70.239999999999995
 30
0.0
 11
110.23999999999999
 21
-55.759999999999991
 31
0.0
  0
LINE
  5
2BF
  8
DATA
  6
CONTINUOUS
 62
     7
 10
111.76000000000001
 20
-55.759999999999991
 30
0.0
 11
111.76000000000001
 21
-70.239999999999995
 31
0.0
  0
ARC
  5
2C0
  8
DATA
  6
CONTINUOUS
 62
     7
 10
106.0
 20
-55.759999999999991
 30
0.0
 40
0.759999999999998
 50
0.0
 51
180.0
  0
ARC
  5
2C1
  8
DATA
  6
CONTINUOUS
 62
     7
 10
106.0
 20
-70.239999999999995
 30
0.0
 40
0.7600000000000016
 50
180.0
 51
0.0
  0
LINE
  5
2C2
  8
DATA
  6
CONTINUOUS
 62
     7
 10
105.23999999999999
 20
-70.239999999999995
 30
0.0
 11
105.23999999999999
 21
-55.759999999999991
 31
0.0
  0
LINE
  5
2C3
  8
DATA
  6
CONTINUOUS
 62
     7
 10
106.76000000000001
 20
-55.759999999999991
 30
0.0
 11
106.76000000000001
 21
-70.239999999999995
 31
0.0
  0
ARC
  5
2C4
  8
DATA
  6
CONTINUOUS
 62
     7
 10
101.0
 20
-55.759999999999991
 30
0.0
 40
0.759999999999998
 50
0.0
 51
180.0
  0
ARC
  5
2C5
  8
DATA
  6
CONTINUOUS
 62
     7
 10
101.0
 20
-70.239999999999995
 30
0.0
 40
0.7600000000000016
 50
180.0
 51
0.0
  0
LINE
  5
2C6
  8
DATA
  6
CONTINUOUS
 62
     7
 10
100.2399999999999
 20
-70.239999999999995
 30
0.0
 11
100.2399999999999
 21
-55.759999999999991
 31
0.0
  0
LINE
  5
2C7
  8
DATA
  6
CONTINUOUS
 62
     7
 10
101.76000000000001
 20
-55.759999999999991
 30
0.0
 11
101.76000000000001
 21
-70.239999999999995
 31
0.0
  0
ARC
  5
2C8
  8
DATA
  6
CONTINUOUS
 62
     7
 10
95.999999999999986
 20
-55.759999999999991
 30
0.0
 40
0.759999999999998
 50
0.0
 51
180.0
  0
ARC
  5
2C9
  8
DATA
  6
CONTINUOUS
 62
     7
 10
95.999999999999986
 20
-70.239999999999995
 30
0.0
 40
0.7600000000000016
 50
180.0
 51
0.0
  0
LINE
  5
2CA
  8
DATA
  6
CONTINUOUS
 62
     7
 10
95.239999999999995
 20
-70.239999999999995
 30
0.0
 11
95.239999999999995
 21
-55.759999999999991
 31
0.0
  0
LINE
  5
2CB
  8
DATA
  6
CONTINUOUS
 62
     7
 10
96.760000000000005
 20
-55.759999999999991
 30
0.0
 11
96.760000000000005
 21
-70.239999999999995
 31
0.0
  0
ARC
  5
2CC
  8
DATA
  6
CONTINUOUS
 62
     7
 10
90.999999999999986
 20
-55.759999999999991
 30
0.0
 40
0.759999999999998
 50
0.0
 51
180.0
  0
ARC
  5
2CD
  8
DATA
  6
CONTINUOUS
 62
     7
 10
90.999999999999986
 20
-70.239999999999995
 30
0.0
 40
0.7600000000000016
 50
180.0
 51
0.0
  0
LINE
  5
2CE
  8
DATA
  6
CONTINUOUS
 62
     7
 10
90.239999999999995
 20
-70.239999999999995
 30
0.0
 11
90.239999999999995
 21
-55.759999999999991
 31
0.0
  0
LINE
  5
2CF
  8
DATA
  6
CONTINUOUS
 62
     7
 10
91.760000000000005
 20
-55.759999999999991
 30
0.0
 11
91.760000000000005
 21
-70.239999999999995
 31
0.0
  0
ARC
  5
2D0
  8
DATA
  6
CONTINUOUS
 62
     7
 10
85.999999999999986
 20
-55.759999999999991
 30
0.0
 40
0.759999999999998
 50
0.0
 51
180.0
  0
ARC
  5
2D1
  8
DATA
  6
CONTINUOUS
 62
     7
 10
85.999999999999986
 20
-70.239999999999995
 30
0.0
 40
0.7600000000000016
 50
180.0
 51
0.0
  0
LINE
  5
2D2
  8
DATA
  6
CONTINUOUS
 62
     7
 10
85.239999999999995
 20
-70.239999999999995
 30
0.0
 11
85.239999999999995
 21
-55.759999999999991
 31
0.0
  0
LINE
  5
2D3
  8
DATA
  6
CONTINUOUS
 62
     7
 10
86.759999999999977
 20
-55.759999999999991
 30
0.0
 11
86.759999999999977
 21
-70.239999999999995
 31
0.0
  0
ARC
  5
2D4
  8
DATA
  6
CONTINUOUS
 62
     7
 10
80.999999999999986
 20
-55.759999999999991
 30
0.0
 40
0.759999999999998
 50
0.0
 51
180.0
  0
ARC
  5
2D5
  8
DATA
  6
CONTINUOUS
 62
     7
 10
80.999999999999986
 20
-70.239999999999995
 30
0.0
 40
0.7600000000000016
 50
180.0
 51
0.0
  0
LINE
  5
2D6
  8
DATA
  6
CONTINUOUS
 62
     7
 10
80.239999999999995
 20
-70.239999999999995
 30
0.0
 11
80.239999999999995
 21
-55.759999999999991
 31
0.0
  0
LINE
  5
2D7
  8
DATA
  6
CONTINUOUS
 62
     7
 10
81.759999999999977
 20
-55.759999999999991
 30
0.0
 11
81.759999999999977
 21
-70.239999999999995
 31
0.0
  0
ARC
  5
2D8
  8
DATA
  6
CONTINUOUS
 62
     7
 10
126.0
 20
-35.759999999999991
 30
0.0
 40
0.759999999999998
 50
0.0
 51
180.0
  0
ARC
  5
2D9
  8
DATA
  6
CONTINUOUS
 62
     7
 10
126.0
 20
-50.240000000000002
 30
0.0
 40
0.7600000000000016
 50
180.0
 51
0.0
  0
LINE
  5
2DA
  8
DATA
  6
CONTINUOUS
 62
     7
 10
125.2399999999999
 20
-50.240000000000002
 30
0.0
 11
125.2399999999999
 21
-35.759999999999991
 31
0.0
  0
LINE
  5
2DB
  8
DATA
  6
CONTINUOUS
 62
     7
 10
126.76000000000001
 20
-35.759999999999991
 30
0.0
 11
126.76000000000001
 21
-50.240000000000002
 31
0.0
  0
ARC
  5
2DC
  8
DATA
  6
CONTINUOUS
 62
     7
 10
121.0
 20
-35.759999999999991
 30
0.0
 40
0.759999999999998
 50
0.0
 51
180.0
  0
ARC
  5
2DD
  8
DATA
  6
CONTINUOUS
 62
     7
 10
121.0
 20
-50.240000000000002
 30
0.0
 40
0.7600000000000016
 50
180.0
 51
0.0
  0
LINE
  5
2DE
  8
DATA
  6
CONTINUOUS
 62
     7
 10
120.23999999999999
 20
-50.240000000000002
 30
0.0
 11
120.23999999999999
 21
-35.759999999999991
 31
0.0
  0
LINE
  5
2DF
  8
DATA
  6
CONTINUOUS
 62
     7
 10
121.76000000000001
 20
-35.759999999999991
 30
0.0
 11
121.76000000000001
 21
-50.240000000000002
 31
0.0
  0
ARC
  5
2E0
  8
DATA
  6
CONTINUOUS
 62
     7
 10
116.0
 20
-35.759999999999991
 30
0.0
 40
0.759999999999998
 50
0.0
 51
180.0
  0
ARC
  5
2E1
  8
DATA
  6
CONTINUOUS
 62
     7
 10
116.0
 20
-50.240000000000002
 30
0.0
 40
0.7600000000000016
 50
180.0
 51
0.0
  0
LINE
  5
2E2
  8
DATA
  6
CONTINUOUS
 62
     7
 10
115.23999999999999
 20
-50.240000000000002
 30
0.0
 11
115.23999999999999
 21
-35.759999999999991
 31
0.0
  0
LINE
  5
2E3
  8
DATA
  6
CONTINUOUS
 62
     7
 10
116.76000000000001
 20
-35.759999999999991
 30
0.0
 11
116.76000000000001
 21
-50.240000000000002
 31
0.0
  0
ARC
  5
2E4
  8
DATA
  6
CONTINUOUS
 62
     7
 10
111.0
 20
-35.759999999999991
 30
0.0
 40
0.759999999999998
 50
0.0
 51
180.0
  0
ARC
  5
2E5
  8
DATA
  6
CONTINUOUS
 62
     7
 10
111.0
 20
-50.240000000000002
 30
0.0
 40
0.7600000000000016
 50
180.0
 51
0.0
  0
LINE
  5
2E6
  8
DATA
  6
CONTINUOUS
 62
     7
 10
110.23999999999999
 20
-50.240000000000002
 30
0.0
 11
110.23999999999999
 21
-35.759999999999991
 31
0.0
  0
LINE
  5
2E7
  8
DATA
  6
CONTINUOUS
 62
     7
 10
111.76000000000001
 20
-35.759999999999991
 30
0.0
 11
111.76000000000001
 21
-50.240000000000002
 31
0.0
  0
ARC
  5
2E8
  8
DATA
  6
CONTINUOUS
 62
     7
 10
106.0
 20
-35.759999999999991
 30
0.0
 40
0.759999999999998
 50
0.0
 51
180.0
  0
ARC
  5
2E9
  8
DATA
  6
CONTINUOUS
 62
     7
 10
106.0
 20
-50.240000000000002
 30
0.0
 40
0.7600000000000016
 50
180.0
 51
0.0
  0
LINE
  5
2EA
  8
DATA
  6
CONTINUOUS
 62
     7
 10
105.23999999999999
 20
-50.240000000000002
 30
0.0
 11
105.23999999999999
 21
-35.759999999999991
 31
0.0
  0
LINE
  5
2EB
  8
DATA
  6
CONTINUOUS
 62
     7
 10
106.76000000000001
 20
-35.759999999999991
 30
0.0
 11
106.76000000000001
 21
-50.240000000000002
 31
0.0
  0
ARC
  5
2EC
  8
DATA
  6
CONTINUOUS
 62
     7
 10
101.0
 20
-35.759999999999991
 30
0.0
 40
0.759999999999998
 50
0.0
 51
180.0
  0
ARC
  5
2ED
  8
DATA
  6
CONTINUOUS
 62
     7
 10
101.0
 20
-50.240000000000002
 30
0.0
 40
0.7600000000000016
 50
180.0
 51
0.0
  0
LINE
  5
2EE
  8
DATA
  6
CONTINUOUS
 62
     7
 10
100.2399999999999
 20
-50.240000000000002
 30
0.0
 11
100.2399999999999
 21
-35.759999999999991
 31
0.0
  0
LINE
  5
2EF
  8
DATA
  6
CONTINUOUS
 62
     7
 10
101.76000000000001
 20
-35.759999999999991
 30
0.0
 11
101.76000000000001
 21
-50.240000000000002
 31
0.0
  0
ARC
  5
2F0
  8
DATA
  6
CONTINUOUS
 62
     7
 10
95.999999999999986
 20
-35.759999999999991
 30
0.0
 40
0.759999999999998
 50
0.0
 51
180.0
  0
ARC
  5
2F1
  8
DATA
  6
CONTINUOUS
 62
     7
 10
95.999999999999986
 20
-50.240000000000002
 30
0.0
 40
0.7600000000000016
 50
180.0
 51
0.0
  0
LINE
  5
2F2
  8
DATA
  6
CONTINUOUS
 62
     7
 10
95.239999999999995
 20
-50.240000000000002
 30
0.0
 11
95.239999999999995
 21
-35.759999999999991
 31
0.0
  0
LINE
  5
2F3
  8
DATA
  6
CONTINUOUS
 62
     7
 10
96.760000000000005
 20
-35.759999999999991
 30
0.0
 11
96.760000000000005
 21
-50.240000000000002
 31
0.0
  0
ARC
  5
2F4
  8
DATA
  6
CONTINUOUS
 62
     7
 10
90.999999999999986
 20
-35.759999999999991
 30
0.0
 40
0.759999999999998
 50
0.0
 51
180.0
  0
ARC
  5
2F5
  8
DATA
  6
CONTINUOUS
 62
     7
 10
90.999999999999986
 20
-50.240000000000002
 30
0.0
 40
0.7600000000000016
 50
180.0
 51
0.0
  0
LINE
  5
2F6
  8
DATA
  6
CONTINUOUS
 62
     7
 10
90.239999999999995
 20
-50.240000000000002
 30
0.0
 11
90.239999999999995
 21
-35.759999999999991
 31
0.0
  0
LINE
  5
2F7
  8
DATA
  6
CONTINUOUS
 62
     7
 10
91.760000000000005
 20
-35.759999999999991
 30
0.0
 11
91.760000000000005
 21
-50.240000000000002
 31
0.0
  0
ARC
  5
2F8
  8
DATA
  6
CONTINUOUS
 62
     7
 10
85.999999999999986
 20
-35.759999999999991
 30
0.0
 40
0.759999999999998
 50
0.0
 51
180.0
  0
ARC
  5
2F9
  8
DATA
  6
CONTINUOUS
 62
     7
 10
85.999999999999986
 20
-50.240000000000002
 30
0.0
 40
0.7600000000000016
 50
180.0
 51
0.0
  0
LINE
  5
2FA
  8
DATA
  6
CONTINUOUS
 62
     7
 10
85.239999999999995
 20
-50.240000000000002
 30
0.0
 11
85.239999999999995
 21
-35.759999999999991
 31
0.0
  0
LINE
  5
2FB
  8
DATA
  6
CONTINUOUS
 62
     7
 10
86.759999999999977
 20
-35.759999999999991
 30
0.0
 11
86.759999999999977
 21
-50.240000000000002
 31
0.0
  0
ARC
  5
2FC
  8
DATA
  6
CONTINUOUS
 62
     7
 10
80.999999999999986
 20
-35.759999999999991
 30
0.0
 40
0.759999999999998
 50
0.0
 51
180.0
  0
ARC
  5
2FD
  8
DATA
  6
CONTINUOUS
 62
     7
 10
80.999999999999986
 20
-50.240000000000002
 30
0.0
 40
0.7600000000000016
 50
180.0
 51
0.0
  0
LINE
  5
2FE
  8
DATA
  6
CONTINUOUS
 62
     7
 10
80.239999999999995
 20
-50.240000000000002
 30
0.0
 11
80.239999999999995
 21
-35.759999999999991
 31
0.0
  0
LINE
  5
2FF
  8
DATA
  6
CONTINUOUS
 62
     7
 10
81.759999999999977
 20
-35.759999999999991
 30
0.0
 11
81.759999999999977
 21
-50.240000000000002
 31
0.0
  0
ARC
  5
300
  8
DATA
  6
CONTINUOUS
 62
     7
 10
126.0
 20
-15.759999999999989
 30
0.0
 40
0.759999999999998
 50
0.0
 51
180.0
  0
ARC
  5
301
  8
DATA
  6
CONTINUOUS
 62
     7
 10
126.0
 20
-30.240000000000009
 30
0.0
 40
0.7600000000000016
 50
180.0
 51
0.0
  0
LINE
  5
302
  8
DATA
  6
CONTINUOUS
 62
     7
 10
125.2399999999999
 20
-30.240000000000009
 30
0.0
 11
125.2399999999999
 21
-15.759999999999989
 31
0.0
  0
LINE
  5
303
  8
DATA
  6
CONTINUOUS
 62
     7
 10
126.76000000000001
 20
-15.759999999999989
 30
0.0
 11
126.76000000000001
 21
-30.240000000000009
 31
0.0
  0
ARC
  5
304
  8
DATA
  6
CONTINUOUS
 62
     7
 10
121.0
 20
-15.759999999999989
 30
0.0
 40
0.759999999999998
 50
0.0
 51
180.0
  0
ARC
  5
305
  8
DATA
  6
CONTINUOUS
 62
     7
 10
121.0
 20
-30.240000000000009
 30
0.0
 40
0.7600000000000016
 50
180.0
 51
0.0
  0
LINE
  5
306
  8
DATA
  6
CONTINUOUS
 62
     7
 10
120.23999999999999
 20
-30.240000000000009
 30
0.0
 11
120.23999999999999
 21
-15.759999999999989
 31
0.0
  0
LINE
  5
307
  8
DATA
  6
CONTINUOUS
 62
     7
 10
121.76000000000001
 20
-15.759999999999989
 30
0.0
 11
121.76000000000001
 21
-30.240000000000009
 31
0.0
  0
ARC
  5
308
  8
DATA
  6
CONTINUOUS
 62
     7
 10
116.0
 20
-15.759999999999989
 30
0.0
 40
0.759999999999998
 50
0.0
 51
180.0
  0
ARC
  5
309
  8
DATA
  6
CONTINUOUS
 62
     7
 10
116.0
 20
-30.240000000000009
 30
0.0
 40
0.7600000000000016
 50
180.0
 51
0.0
  0
LINE
  5
30A
  8
DATA
  6
CONTINUOUS
 62
     7
 10
115.23999999999999
 20
-30.240000000000009
 30
0.0
 11
115.23999999999999
 21
-15.759999999999989
 31
0.0
  0
LINE
  5
30B
  8
DATA
  6
CONTINUOUS
 62
     7
 10
116.76000000000001
 20
-15.759999999999989
 30
0.0
 11
116.76000000000001
 21
-30.240000000000009
 31
0.0
  0
ARC
  5
30C
  8
DATA
  6
CONTINUOUS
 62
     7
 10
111.0
 20
-15.759999999999989
 30
0.0
 40
0.759999999999998
 50
0.0
 51
180.0
  0
ARC
  5
30D
  8
DATA
  6
CONTINUOUS
 62
     7
 10
111.0
 20
-30.240000000000009
 30
0.0
 40
0.7600000000000016
 50
180.0
 51
0.0
  0
LINE
  5
30E
  8
DATA
  6
CONTINUOUS
 62
     7
 10
110.23999999999999
 20
-30.240000000000009
 30
0.0
 11
110.23999999999999
 21
-15.759999999999989
 31
0.0
  0
LINE
  5
30F
  8
DATA
  6
CONTINUOUS
 62
     7
 10
111.76000000000001
 20
-15.759999999999989
 30
0.0
 11
111.76000000000001
 21
-30.240000000000009
 31
0.0
  0
ARC
  5
310
  8
DATA
  6
CONTINUOUS
 62
     7
 10
106.0
 20
-15.759999999999989
 30
0.0
 40
0.759999999999998
 50
0.0
 51
180.0
  0
ARC
  5
311
  8
DATA
  6
CONTINUOUS
 62
     7
 10
106.0
 20
-30.240000000000009
 30
0.0
 40
0.7600000000000016
 50
180.0
 51
0.0
  0
LINE
  5
312
  8
DATA
  6
CONTINUOUS
 62
     7
 10
105.23999999999999
 20
-30.240000000000009
 30
0.0
 11
105.23999999999999
 21
-15.759999999999989
 31
0.0
  0
LINE
  5
313
  8
DATA
  6
CONTINUOUS
 62
     7
 10
106.76000000000001
 20
-15.759999999999989
 30
0.0
 11
106.76000000000001
 21
-30.240000000000009
 31
0.0
  0
ARC
  5
314
  8
DATA
  6
CONTINUOUS
 62
     7
 10
101.0
 20
-15.759999999999989
 30
0.0
 40
0.759999999999998
 50
0.0
 51
180.0
  0
ARC
  5
315
  8
DATA
  6
CONTINUOUS
 62
     7
 10
101.0
 20
-30.240000000000009
 30
0.0
 40
0.7600000000000016
 50
180.0
 51
0.0
  0
LINE
  5
316
  8
DATA
  6
CONTINUOUS
 62
     7
 10
100.2399999999999
 20
-30.240000000000009
 30
0.0
 11
100.2399999999999
 21
-15.759999999999989
 31
0.0
  0
LINE
  5
317
  8
DATA
  6
CONTINUOUS
 62
     7
 10
101.76000000000001
 20
-15.759999999999989
 30
0.0
 11
101.76000000000001
 21
-30.240000000000009
 31
0.0
  0
ARC
  5
318
  8
DATA
  6
CONTINUOUS
 62
     7
 10
95.999999999999986
 20
-15.759999999999989
 30
0.0
 40
0.759999999999998
 50
0.0
 51
180.0
  0
ARC
  5
319
  8
DATA
  6
CONTINUOUS
 62
     7
 10
95.999999999999986
 20
-30.240000000000009
 30
0.0
 40
0.7600000000000016
 50
180.0
 51
0.0
  0
LINE
  5
31A
  8
DATA
  6
CONTINUOUS
 62
     7
 10
95.239999999999995
 20
-30.240000000000009
 30
0.0
 11
95.239999999999995
 21
-15.759999999999989
 31
0.0
  0
LINE
  5
31B
  8
DATA
  6
CONTINUOUS
 62
     7
 10
96.760000000000005
 20
-15.759999999999989
 30
0.0
 11
96.760000000000005
 21
-30.240000000000009
 31
0.0
  0
ARC
  5
31C
  8
DATA
  6
CONTINUOUS
 62
     7
 10
90.999999999999986
 20
-15.759999999999989
 30
0.0
 40
0.759999999999998
 50
0.0
 51
180.0
  0
ARC
  5
31D
  8
DATA
  6
CONTINUOUS
 62
     7
 10
90.999999999999986
 20
-30.240000000000009
 30
0.0
 40
0.7600000000000016
 50
180.0
 51
0.0
  0
LINE
  5
31E
  8
DATA
  6
CONTINUOUS
 62
     7
 10
90.239999999999995
 20
-30.240000000000009
 30
0.0
 11
90.239999999999995
 21
-15.759999999999989
 31
0.0
  0
LINE
  5
31F
  8
DATA
  6
CONTINUOUS
 62
     7
 10
91.760000000000005
 20
-15.759999999999989
 30
0.0
 11
91.760000000000005
 21
-30.240000000000009
 31
0.0
  0
ARC
  5
320
  8
DATA
  6
CONTINUOUS
 62
     7
 10
85.999999999999986
 20
-15.759999999999989
 30
0.0
 40
0.759999999999998
 50
0.0
 51
180.0
  0
ARC
  5
321
  8
DATA
  6
CONTINUOUS
 62
     7
 10
85.999999999999986
 20
-30.240000000000009
 30
0.0
 40
0.7600000000000016
 50
180.0
 51
0.0
  0
LINE
  5
322
  8
DATA
  6
CONTINUOUS
 62
     7
 10
85.239999999999995
 20
-30.240000000000009
 30
0.0
 11
85.239999999999995
 21
-15.759999999999989
 31
0.0
  0
LINE
  5
323
  8
DATA
  6
CONTINUOUS
 62
     7
 10
86.759999999999977
 20
-15.759999999999989
 30
0.0
 11
86.759999999999977
 21
-30.240000000000009
 31
0.0
  0
ARC
  5
324
  8
DATA
  6
CONTINUOUS
 62
     7
 10
80.999999999999986
 20
-15.759999999999989
 30
0.0
 40
0.759999999999998
 50
0.0
 51
180.0
  0
ARC
  5
325
  8
DATA
  6
CONTINUOUS
 62
     7
 10
80.999999999999986
 20
-30.240000000000009
 30
0.0
 40
0.7600000000000016
 50
180.0
 51
0.0
  0
LINE
  5
326
  8
DATA
  6
CONTINUOUS
 62
     7
 10
80.239999999999995
 20
-30.240000000000009
 30
0.0
 11
80.239999999999995
 21
-15.759999999999989
 31
0.0
  0
LINE
  5
327
  8
DATA
  6
CONTINUOUS
 62
     7
 10
81.759999999999977
 20
-15.759999999999989
 30
0.0
 11
81.759999999999977
 21
-30.240000000000009
 31
0.0
  0
LINE
  5
328
  8
DATA
  6
CONTINUOUS
 62
     7
 10
243.0
 20
220.0
 30
0.0
 11
243.0
 21
175.0
 31
0.0
  0
LINE
  5
329
  8
DATA
  6
CONTINUOUS
 62
     7
 10
-240.0
 20
220.0
 30
0.0
 11
243.0
 21
220.0
 31
0.0
  0
LINE
  5
32A
  8
DATA
  6
CONTINUOUS
 62
     7
 10
-240.0
 20
175.0
 30
0.0
 11
-240.0
 21
220.0
 31
0.0
  0
LINE
  5
32B
  8
DATA
  6
CONTINUOUS
 62
     7
 10
243.0
 20
175.0
 30
0.0
 11
-240.0
 21
175.0
 31
0.0
  0
ARC
  5
32C
  8
DATA
  6
CONTINUOUS
 62
     7
 10
236.2999999999999
 20
181.59999999999999
 30
0.0
 40
3.1999999999999882
 50
270.0000000000021
 51
89.999999999997996
  0
ARC
  5
32D
  8
DATA
  6
CONTINUOUS
 62
     7
 10
231.7000000000001
 20
181.59999999999999
 30
0.0
 40
3.1999999999999882
 50
90.0
 51
270.0
  0
LINE
  5
32E
  8
DATA
  6
CONTINUOUS
 62
     7
 10
231.7000000000001
 20
178.40000000000001
 30
0.0
 11
236.34999999999999
 21
178.40000000000001
 31
0.0
  0
LINE
  5
32F
  8
DATA
  6
CONTINUOUS
 62
     7
 10
236.30000000000001
 20
184.80000000000001
 30
0.0
 11
231.7000000000001
 21
184.80000000000001
 31
0.0
  0
ARC
  5
330
  8
DATA
  6
CONTINUOUS
 62
     7
 10
236.2999999999999
 20
213.40000000000001
 30
0.0
 40
3.1999999999999882
 50
270.0000000000021
 51
89.999999999997996
  0
ARC
  5
331
  8
DATA
  6
CONTINUOUS
 62
     7
 10
231.7000000000001
 20
213.40000000000001
 30
0.0
 40
3.1999999999999882
 50
90.0
 51
270.0
  0
LINE
  5
332
  8
DATA
  6
CONTINUOUS
 62
     7
 10
231.7000000000001
 20
210.19999999999999
 30
0.0
 11
236.34999999999999
 21
210.19999999999999
 31
0.0
  0
LINE
  5
333
  8
DATA
  6
CONTINUOUS
 62
     7
 10
236.30000000000001
 20
216.59999999999999
 30
0.0
 11
231.7000000000001
 21
216.59999999999999
 31
0.0
  0
ARC
  5
334
  8
DATA
  6
CONTINUOUS
 62
     7
 10
-228.70000000000019
 20
181.59999999999999
 30
0.0
 40
3.1999999999999882
 50
270.0000000000021
 51
89.999999999997996
  0
ARC
  5
335
  8
DATA
  6
CONTINUOUS
 62
     7
 10
-233.30000000000001
 20
181.59999999999999
 30
0.0
 40
3.1999999999999882
 50
90.0
 51
270.0
  0
LINE
  5
336
  8
DATA
  6
CONTINUOUS
 62
     7
 10
-233.30000000000001
 20
178.40000000000001
 30
0.0
 11
-228.65000000000001
 21
178.40000000000001
 31
0.0
  0
LINE
  5
337
  8
DATA
  6
CONTINUOUS
 62
     7
 10
-228.69999999999999
 20
184.80000000000001
 30
0.0
 11
-233.30000000000001
 21
184.80000000000001
 31
0.0
  0
ARC
  5
338
  8
DATA
  6
CONTINUOUS
 62
     7
 10
-228.70000000000019
 20
213.40000000000001
 30
0.0
 40
3.1999999999999882
 50
270.0000000000021
 51
89.999999999997996
  0
ARC
  5
339
  8
DATA
  6
CONTINUOUS
 62
     7
 10
-233.30000000000001
 20
213.40000000000001
 30
0.0
 40
3.1999999999999882
 50
90.0
 51
270.0
  0
LINE
  5
33A
  8
DATA
  6
CONTINUOUS
 62
     7
 10
-233.30000000000001
 20
210.19999999999999
 30
0.0
 11
-228.65000000000001
 21
210.19999999999999
 31
0.0
  0
LINE
  5
33B
  8
DATA
  6
CONTINUOUS
 62
     7
 10
-228.69999999999999
 20
216.59999999999999
 30
0.0
 11
-233.30000000000001
 21
216.59999999999999
 31
0.0
  0
LINE
  5
33C
  8
DATA
  6
CONTINUOUS
 62
     7
 10
220.0
 20
220.0
 30
0.0
 11
220.0
 21
175.0
 31
0.0
  0
LINE
  5
33D
  8
DATA
  6
CONTINUOUS
 62
     7
 10
-217.0
 20
220.0
 30
0.0
 11
-217.0
 21
175.0
 31
0.0
  0
LINE
  5
33E
  8
DATA
  6
CONTINUOUS
 62
     7
 10
213.0
 20
220.0
 30
0.0
 11
213.0
 21
181.69999999999999
 31
0.0
  0
LINE
  5
33F
  8
DATA
  6
CONTINUOUS
 62
     7
 10
-210.0
 20
220.0
 30
0.0
 11
-210.0
 21
181.69999999999999
 31
0.0
  0
LINE
  5
340
  8
DATA
  6
CONTINUOUS
 62
     7
 10
213.0
 20
181.69999999999999
 30
0.0
 11
-210.0
 21
181.69999999999999
 31
0.0
  0
LINE
  5
341
  8
DATA
  6
CONTINUOUS
 62
     7
 10
-217.0
 20
175.0
 30
0.0
 11
-210.0
 21
181.69999999999999
 31
0.0
  0
LINE
  5
342
  8
DATA
  6
CONTINUOUS
 62
     7
 10
213.0
 20
181.69999999999999
 30
0.0
 11
220.0
 21
175.0
 31
0.0
  0
CIRCLE
  5
343
  8
DATA
  6
CONTINUOUS
 62
     7
 10
-193.13421199382739
 20
202.21989724321131
 30
0.0
 40
9.8500000000000227
  0
CIRCLE
  5
344
  8
DATA
  6
CONTINUOUS
 62
     7
 10
-193.13421199382739
 20
202.21989724321131
 30
0.0
 40
7.8500000000000218
  0
CIRCLE
  5
345
  8
DATA
  6
CONTINUOUS
 62
     7
 10
-193.13421199382739
 20
206.1410352643538
 30
0.0
 40
1.2649999999999859
  0
CIRCLE
  5
346
  8
DATA
  6
CONTINUOUS
 62
     7
 10
-189.20273040794109
 20
202.21989724321131
 30
0.0
 40
1.2649999999999859
  0
CIRCLE
  5
347
  8
DATA
  6
CONTINUOUS
 62
     7
 10
-197.06865641321471
 20
202.21989724321131
 30
0.0
 40
1.2649999999999859
  0
ARC
  5
348
  8
DATA
  6
CONTINUOUS
 62
     7
 10
-194.96206955364909
 20
187.6857395485479
 30
0.0
 40
3.1721424401782952
 50
101.3105610478375
 51
266.88920568607011
  0
ARC
  5
349
  8
DATA
  6
CONTINUOUS
 62
     7
 10
-191.3063544340057
 20
187.6857395485479
 30
0.0
 40
3.1721424401781042
 50
273.11079431393
 51
78.689438953067906
  0
LINE
  5
34A
  8
DATA
  6
CONTINUOUS
 62
     7
 10
-191.13421199382739
 20
184.51827137332199
 30
0.0
 11
-195.13421199382739
 21
184.51827137332199
 31
0.0
  0
CIRCLE
  5
34B
  8
DATA
  6
CONTINUOUS
 62
     7
 10
-202.6410774067237
 20
211.77312238041841
 30
0.0
 40
2.0006999999999939
  0
CIRCLE
  5
34C
  8
DATA
  6
CONTINUOUS
 62
     7
 10
-183.50069999999999
 20
192.63274497369451
 30
0.0
 40
2.0006999999999939
  0
ARC
  5
34D
  8
DATA
  6
CONTINUOUS
 62
     7
 10
-193.13421199382739
 20
202.21989724321131
 30
0.0
 40
10.89999999999999
 50
282.98939147050231
 51
257.01060852923268
  0
LINE
  5
34E
  8
DATA
  6
CONTINUOUS
 62
     7
 10
-190.68421199385199
 20
192.6794570017905
 30
0.0
 11
-190.68421199385199
 21
190.7962743007956
 31
0.0
  0
LINE
  5
34F
  8
DATA
  6
CONTINUOUS
 62
     7
 10
-195.58421199385199
 20
192.6794570018032
 30
0.0
 11
-195.58421199385199
 21
190.7962743007856
 31
0.0
  0
LINE
  5
350
  8
DATA
  6
CONTINUOUS
 62
     7
 10
-201.89107740672361
 20
211.77312238041841
 30
0.0
 11
-203.3910774067237
 21
211.77312238041841
 31
0.0
  0
LINE
  5
351
  8
DATA
  6
CONTINUOUS
 62
     7
 10
-202.6410774067237
 20
212.52312238041841
 30
0.0
 11
-202.6410774067237
 21
211.02312238041841
 31
0.0
  0
LINE
  5
352
  8
DATA
  6
CONTINUOUS
 62
     7
 10
-183.50069999999999
 20
193.38274497369451
 30
0.0
 11
-183.50069999999999
 21
191.88274497369451
 31
0.0
  0
LINE
  5
353
  8
DATA
  6
CONTINUOUS
 62
     7
 10
-182.75069999999999
 20
192.63274497369451
 30
0.0
 11
-184.25069999999999
 21
192.63274497369451
 31
0.0
  0
CIRCLE
  5
354
  8
DATA
  6
CONTINUOUS
 62
     7
 10
-169.13421199382739
 20
202.21989724321131
 30
0.0
 40
9.8500000000000227
  0
CIRCLE
  5
355
  8
DATA
  6
CONTINUOUS
 62
     7
 10
-169.13421199382739
 20
202.21989724321131
 30
0.0
 40
7.8500000000000218
  0
CIRCLE
  5
356
  8
DATA
  6
CONTINUOUS
 62
     7
 10
-169.13421199382739
 20
206.1410352643538
 30
0.0
 40
1.2649999999999859
  0
CIRCLE
  5
357
  8
DATA
  6
CONTINUOUS
 62
     7
 10
-165.20273040794109
 20
202.21989724321131
 30
0.0
 40
1.2649999999999859
  0
CIRCLE
  5
358
  8
DATA
  6
CONTINUOUS
 62
     7
 10
-173.06865641321471
 20
202.21989724321131
 30
0.0
 40
1.2649999999999859
  0
ARC
  5
359
  8
DATA
  6
CONTINUOUS
 62
     7
 10
-170.96206955364909
 20
187.6857395485479
 30
0.0
 40
3.1721424401782952
 50
101.3105610478375
 51
266.88920568607011
  0
ARC
  5
35A
  8
DATA
  6
CONTINUOUS
 62
     7
 10
-167.30635443400561
 20
187.6857395485479
 30
0.0
 40
3.1721424401781042
 50
273.11079431393
 51
78.689438953067906
  0
LINE
  5
35B
  8
DATA
  6
CONTINUOUS
 62
     7
 10
-167.13421199382739
 20
184.51827137332199
 30
0.0
 11
-171.13421199382739
 21
184.51827137332199
 31
0.0
  0
CIRCLE
  5
35C
  8
DATA
  6
CONTINUOUS
 62
     7
 10
-178.6410774067237
 20
211.77312238041841
 30
0.0
 40
2.0006999999999939
  0
CIRCLE
  5
35D
  8
DATA
  6
CONTINUOUS
 62
     7
 10
-159.50069999999999
 20
192.63274497369451
 30
0.0
 40
2.0006999999999939
  0
ARC
  5
35E
  8
DATA
  6
CONTINUOUS
 62
     7
 10
-169.13421199382739
 20
202.21989724321131
 30
0.0
 40
10.89999999999999
 50
282.98939147050231
 51
257.01060852923268
  0
LINE
  5
35F
  8
DATA
  6
CONTINUOUS
 62
     7
 10
-166.68421199385199
 20
192.6794570017905
 30
0.0
 11
-166.68421199385199
 21
190.7962743007956
 31
0.0
  0
LINE
  5
360
  8
DATA
  6
CONTINUOUS
 62
     7
 10
-171.58421199385191
 20
192.6794570018032
 30
0.0
 11
-171.58421199385191
 21
190.7962743007856
 31
0.0
  0
LINE
  5
361
  8
DATA
  6
CONTINUOUS
 62
     7
 10
-177.89107740672361
 20
211.77312238041841
 30
0.0
 11
-179.39107740672361
 21
211.77312238041841
 31
0.0
  0
LINE
  5
362
  8
DATA
  6
CONTINUOUS
 62
     7
 10
-178.6410774067237
 20
212.52312238041841
 30
0.0
 11
-178.6410774067237
 21
211.02312238041841
 31
0.0
  0
LINE
  5
363
  8
DATA
  6
CONTINUOUS
 62
     7
 10
-159.50069999999999
 20
193.38274497369451
 30
0.0
 11
-159.50069999999999
 21
191.88274497369451
 31
0.0
  0
LINE
  5
364
  8
DATA
  6
CONTINUOUS
 62
     7
 10
-158.75069999999999
 20
192.63274497369451
 30
0.0
 11
-160.25069999999999
 21
192.63274497369451
 31
0.0
  0
CIRCLE
  5
365
  8
DATA
  6
CONTINUOUS
 62
     7
 10
-145.13421199382739
 20
202.21989724321131
 30
0.0
 40
9.8500000000000227
  0
CIRCLE
  5
366
  8
DATA
  6
CONTINUOUS
 62
     7
 10
-145.13421199382739
 20
202.21989724321131
 30
0.0
 40
7.8500000000000218
  0
CIRCLE
  5
367
  8
DATA
  6
CONTINUOUS
 62
     7
 10
-145.13421199382739
 20
206.1410352643538
 30
0.0
 40
1.2649999999999859
  0
CIRCLE
  5
368
  8
DATA
  6
CONTINUOUS
 62
     7
 10
-141.2027304079412
 20
202.21989724321131
 30
0.0
 40
1.2649999999999859
  0
CIRCLE
  5
369
  8
DATA
  6
CONTINUOUS
 62
     7
 10
-149.06865641321471
 20
202.21989724321131
 30
0.0
 40
1.2649999999999859
  0
ARC
  5
36A
  8
DATA
  6
CONTINUOUS
 62
     7
 10
-146.96206955364909
 20
187.6857395485479
 30
0.0
 40
3.1721424401782952
 50
101.3105610478375
 51
266.88920568607011
  0
ARC
  5
36B
  8
DATA
  6
CONTINUOUS
 62
     7
 10
-143.3063544340057
 20
187.6857395485479
 30
0.0
 40
3.1721424401781042
 50
273.11079431393
 51
78.689438953067906
  0
LINE
  5
36C
  8
DATA
  6
CONTINUOUS
 62
     7
 10
-143.13421199382739
 20
184.51827137332199
 30
0.0
 11
-147.13421199382739
 21
184.51827137332199
 31
0.0
  0
CIRCLE
  5
36D
  8
DATA
  6
CONTINUOUS
 62
     7
 10
-154.6410774067237
 20
211.77312238041841
 30
0.0
 40
2.0006999999999939
  0
CIRCLE
  5
36E
  8
DATA
  6
CONTINUOUS
 62
     7
 10
-135.50069999999999
 20
192.63274497369451
 30
0.0
 40
2.0006999999999939
  0
ARC
  5
36F
  8
DATA
  6
CONTINUOUS
 62
     7
 10
-145.13421199382739
 20
202.21989724321131
 30
0.0
 40
10.89999999999999
 50
282.98939147050231
 51
257.01060852923268
  0
LINE
  5
370
  8
DATA
  6
CONTINUOUS
 62
     7
 10
-142.68421199385199
 20
192.6794570017905
 30
0.0
 11
-142.68421199385199
 21
190.7962743007956
 31
0.0
  0
LINE
  5
371
  8
DATA
  6
CONTINUOUS
 62
     7
 10
-147.58421199385191
 20
192.6794570018032
 30
0.0
 11
-147.58421199385191
 21
190.7962743007856
 31
0.0
  0
LINE
  5
372
  8
DATA
  6
CONTINUOUS
 62
     7
 10
-153.8910774067237
 20
211.77312238041841
 30
0.0
 11
-155.3910774067237
 21
211.77312238041841
 31
0.0
  0
LINE
  5
373
  8
DATA
  6
CONTINUOUS
 62
     7
 10
-154.6410774067237
 20
212.52312238041841
 30
0.0
 11
-154.6410774067237
 21
211.02312238041841
 31
0.0
  0
LINE
  5
374
  8
DATA
  6
CONTINUOUS
 62
     7
 10
-135.50069999999999
 20
193.38274497369451
 30
0.0
 11
-135.50069999999999
 21
191.88274497369451
 31
0.0
  0
LINE
  5
375
  8
DATA
  6
CONTINUOUS
 62
     7
 10
-134.75069999999999
 20
192.63274497369451
 30
0.0
 11
-136.25069999999999
 21
192.63274497369451
 31
0.0
  0
CIRCLE
  5
376
  8
DATA
  6
CONTINUOUS
 62
     7
 10
-121.13421199382741
 20
202.21989724321131
 30
0.0
 40
9.8500000000000227
  0
CIRCLE
  5
377
  8
DATA
  6
CONTINUOUS
 62
     7
 10
-121.13421199382741
 20
202.21989724321131
 30
0.0
 40
7.8500000000000218
  0
CIRCLE
  5
378
  8
DATA
  6
CONTINUOUS
 62
     7
 10
-121.13421199382741
 20
206.1410352643538
 30
0.0
 40
1.2649999999999859
  0
CIRCLE
  5
379
  8
DATA
  6
CONTINUOUS
 62
     7
 10
-117.2027304079412
 20
202.21989724321131
 30
0.0
 40
1.2649999999999859
  0
CIRCLE
  5
37A
  8
DATA
  6
CONTINUOUS
 62
     7
 10
-125.0686564132147
 20
202.21989724321131
 30
0.0
 40
1.2649999999999859
  0
ARC
  5
37B
  8
DATA
  6
CONTINUOUS
 62
     7
 10
-122.9620695536491
 20
187.6857395485479
 30
0.0
 40
3.1721424401782952
 50
101.3105610478375
 51
266.88920568607011
  0
ARC
  5
37C
  8
DATA
  6
CONTINUOUS
 62
     7
 10
-119.3063544340057
 20
187.6857395485479
 30
0.0
 40
3.1721424401781042
 50
273.11079431393
 51
78.689438953067906
  0
LINE
  5
37D
  8
DATA
  6
CONTINUOUS
 62
     7
 10
-119.13421199382741
 20
184.51827137332199
 30
0.0
 11
-123.13421199382741
 21
184.51827137332199
 31
0.0
  0
CIRCLE
  5
37E
  8
DATA
  6
CONTINUOUS
 62
     7
 10
-130.6410774067237
 20
211.77312238041841
 30
0.0
 40
2.0006999999999939
  0
CIRCLE
  5
37F
  8
DATA
  6
CONTINUOUS
 62
     7
 10
-111.50069999999999
 20
192.63274497369451
 30
0.0
 40
2.0006999999999939
  0
ARC
  5
380
  8
DATA
  6
CONTINUOUS
 62
     7
 10
-121.13421199382741
 20
202.21989724321131
 30
0.0
 40
10.89999999999999
 50
282.98939147050231
 51
257.01060852923268
  0
LINE
  5
381
  8
DATA
  6
CONTINUOUS
 62
     7
 10
-118.684211993852
 20
192.6794570017905
 30
0.0
 11
-118.684211993852
 21
190.7962743007956
 31
0.0
  0
LINE
  5
382
  8
DATA
  6
CONTINUOUS
 62
     7
 10
-123.58421199385199
 20
192.6794570018032
 30
0.0
 11
-123.58421199385199
 21
190.7962743007856
 31
0.0
  0
LINE
  5
383
  8
DATA
  6
CONTINUOUS
 62
     7
 10
-129.8910774067237
 20
211.77312238041841
 30
0.0
 11
-131.3910774067237
 21
211.77312238041841
 31
0.0
  0
LINE
  5
384
  8
DATA
  6
CONTINUOUS
 62
     7
 10
-130.6410774067237
 20
212.52312238041841
 30
0.0
 11
-130.6410774067237
 21
211.02312238041841
 31
0.0
  0
LINE
  5
385
  8
DATA
  6
CONTINUOUS
 62
     7
 10
-111.50069999999999
 20
193.38274497369451
 30
0.0
 11
-111.50069999999999
 21
191.88274497369451
 31
0.0
  0
LINE
  5
386
  8
DATA
  6
CONTINUOUS
 62
     7
 10
-110.75069999999999
 20
192.63274497369451
 30
0.0
 11
-112.25069999999999
 21
192.63274497369451
 31
0.0
  0
CIRCLE
  5
387
  8
DATA
  6
CONTINUOUS
 62
     7
 10
-96.032432407562808
 20
201.76356592649469
 30
0.0
 40
11.0
  0
CIRCLE
  5
388
  8
DATA
  6
CONTINUOUS
 62
     7
 10
-96.032432407562808
 20
201.76356592649469
 30
0.0
 40
8.25
  0
CIRCLE
  5
389
  8
DATA
  6
CONTINUOUS
 62
     7
 10
-96.032432407562808
 20
205.95290659037761
 30
0.0
 40
1.25
  0
CIRCLE
  5
38A
  8
DATA
  6
CONTINUOUS
 62
     7
 10
-100.28243240756279
 20
201.76356592649469
 30
0.0
 40
1.25
  0
CIRCLE
  5
38B
  8
DATA
  6
CONTINUOUS
 62
     7
 10
-91.782432407562794
 20
201.76356592649469
 30
0.0
 40
1.25
  0
CIRCLE
  5
38C
  8
DATA
  6
CONTINUOUS
 62
     7
 10
-105.57018870336179
 20
211.3686292592688
 30
0.0
 40
2.0006999999999939
  0
CIRCLE
  5
38D
  8
DATA
  6
CONTINUOUS
 62
     7
 10
-86.429811296638164
 20
192.2282518525449
 30
0.0
 40
2.0006999999999939
  0
ARC
  5
38E
  8
DATA
  6
CONTINUOUS
 62
     7
 10
-96.032432407562808
 20
201.76356592649469
 30
0.0
 40
8.0000000000000302
 50
247.97568716295791
 51
292.02431283704198
  0
LINE
  5
38F
  8
DATA
  6
CONTINUOUS
 62
     7
 10
-99.032432407562823
 20
194.34736743939899
 30
0.0
 11
-99.032432407562823
 21
194.07835285202509
 31
0.0
  0
LINE
  5
390
  8
DATA
  6
CONTINUOUS
 62
     7
 10
-93.032432407562794
 20
194.34736743939899
 30
0.0
 11
-93.032432407562794
 21
194.07835285202509
 31
0.0
  0
LINE
  5
391
  8
DATA
  6
CONTINUOUS
 62
     7
 10
-86.429811296638164
 20
192.97825185254479
 30
0.0
 11
-86.429811296638164
 21
191.4782518525449
 31
0.0
  0
LINE
  5
392
  8
DATA
  6
CONTINUOUS
 62
     7
 10
-85.67981129663815
 20
192.2282518525449
 30
0.0
 11
-87.179811296638164
 21
192.2282518525449
 31
0.0
  0
LINE
  5
393
  8
DATA
  6
CONTINUOUS
 62
     7
 10
-105.57018870336179
 20
212.1186292592688
 30
0.0
 11
-105.57018870336179
 21
210.6186292592688
 31
0.0
  0
LINE
  5
394
  8
DATA
  6
CONTINUOUS
 62
     7
 10
-104.82018870336179
 20
211.3686292592688
 30
0.0
 11
-106.32018870336179
 21
211.3686292592688
 31
0.0
  0
CIRCLE
  5
395
  8
DATA
  6
CONTINUOUS
 62
     7
 10
-72.032432407562808
 20
201.76356592649469
 30
0.0
 40
11.0
  0
CIRCLE
  5
396
  8
DATA
  6
CONTINUOUS
 62
     7
 10
-72.032432407562808
 20
201.76356592649469
 30
0.0
 40
8.25
  0
CIRCLE
  5
397
  8
DATA
  6
CONTINUOUS
 62
     7
 10
-72.032432407562808
 20
205.95290659037761
 30
0.0
 40
1.25
  0
CIRCLE
  5
398
  8
DATA
  6
CONTINUOUS
 62
     7
 10
-76.282432407562808
 20
201.76356592649469
 30
0.0
 40
1.25
  0
CIRCLE
  5
399
  8
DATA
  6
CONTINUOUS
 62
     7
 10
-67.782432407562808
 20
201.76356592649469
 30
0.0
 40
1.25
  0
CIRCLE
  5
39A
  8
DATA
  6
CONTINUOUS
 62
     7
 10
-81.570188703361865
 20
211.3686292592688
 30
0.0
 40
2.0006999999999939
  0
CIRCLE
  5
39B
  8
DATA
  6
CONTINUOUS
 62
     7
 10
-62.429811296638157
 20
192.2282518525449
 30
0.0
 40
2.0006999999999939
  0
ARC
  5
39C
  8
DATA
  6
CONTINUOUS
 62
     7
 10
-72.032432407562808
 20
201.76356592649469
 30
0.0
 40
8.0000000000000302
 50
247.97568716295791
 51
292.02431283704198
  0
LINE
  5
39D
  8
DATA
  6
CONTINUOUS
 62
     7
 10
-75.032432407562808
 20
194.34736743939899
 30
0.0
 11
-75.032432407562808
 21
194.07835285202509
 31
0.0
  0
LINE
  5
39E
  8
DATA
  6
CONTINUOUS
 62
     7
 10
-69.032432407562808
 20
194.34736743939899
 30
0.0
 11
-69.032432407562808
 21
194.07835285202509
 31
0.0
  0
LINE
  5
39F
  8
DATA
  6
CONTINUOUS
 62
     7
 10
-62.429811296638157
 20
192.97825185254479
 30
0.0
 11
-62.429811296638157
 21
191.4782518525449
 31
0.0
  0
LINE
  5
3A0
  8
DATA
  6
CONTINUOUS
 62
     7
 10
-61.67981129663815
 20
192.2282518525449
 30
0.0
 11
-63.179811296638157
 21
192.2282518525449
 31
0.0
  0
LINE
  5
3A1
  8
DATA
  6
CONTINUOUS
 62
     7
 10
-81.570188703361865
 20
212.1186292592688
 30
0.0
 11
-81.570188703361865
 21
210.6186292592688
 31
0.0
  0
LINE
  5
3A2
  8
DATA
  6
CONTINUOUS
 62
     7
 10
-80.820188703361865
 20
211.3686292592688
 30
0.0
 11
-82.320188703361865
 21
211.3686292592688
 31
0.0
  0
CIRCLE
  5
3A3
  8
DATA
  6
CONTINUOUS
 62
     7
 10
-48.032432407562801
 20
201.76356592649469
 30
0.0
 40
11.0
  0
CIRCLE
  5
3A4
  8
DATA
  6
CONTINUOUS
 62
     7
 10
-48.032432407562801
 20
201.76356592649469
 30
0.0
 40
8.25
  0
CIRCLE
  5
3A5
  8
DATA
  6
CONTINUOUS
 62
     7
 10
-48.032432407562801
 20
205.95290659037761
 30
0.0
 40
1.25
  0
CIRCLE
  5
3A6
  8
DATA
  6
CONTINUOUS
 62
     7
 10
-52.282432407562808
 20
201.76356592649469
 30
0.0
 40
1.25
  0
CIRCLE
  5
3A7
  8
DATA
  6
CONTINUOUS
 62
     7
 10
-43.782432407562808
 20
201.76356592649469
 30
0.0
 40
1.25
  0
CIRCLE
  5
3A8
  8
DATA
  6
CONTINUOUS
 62
     7
 10
-57.570188703361858
 20
211.3686292592688
 30
0.0
 40
2.0006999999999939
  0
CIRCLE
  5
3A9
  8
DATA
  6
CONTINUOUS
 62
     7
 10
-38.429811296638157
 20
192.2282518525449
 30
0.0
 40
2.0006999999999939
  0
ARC
  5
3AA
  8
DATA
  6
CONTINUOUS
 62
     7
 10
-48.032432407562801
 20
201.76356592649469
 30
0.0
 40
8.0000000000000302
 50
247.97568716295791
 51
292.02431283704198
  0
LINE
  5
3AB
  8
DATA
  6
CONTINUOUS
 62
     7
 10
-51.032432407562808
 20
194.34736743939899
 30
0.0
 11
-51.032432407562808
 21
194.07835285202509
 31
0.0
  0
LINE
  5
3AC
  8
DATA
  6
CONTINUOUS
 62
     7
 10
-45.032432407562808
 20
194.34736743939899
 30
0.0
 11
-45.032432407562808
 21
194.07835285202509
 31
0.0
  0
LINE
  5
3AD
  8
DATA
  6
CONTINUOUS
 62
     7
 10
-38.429811296638157
 20
192.97825185254479
 30
0.0
 11
-38.429811296638157
 21
191.4782518525449
 31
0.0
  0
LINE
  5
3AE
  8
DATA
  6
CONTINUOUS
 62
     7
 10
-37.679811296638157
 20
192.2282518525449
 30
0.0
 11
-39.179811296638157
 21
192.2282518525449
 31
0.0
  0
LINE
  5
3AF
  8
DATA
  6
CONTINUOUS
 62
     7
 10
-57.570188703361858
 20
212.1186292592688
 30
0.0
 11
-57.570188703361858
 21
210.6186292592688
 31
0.0
  0
LINE
  5
3B0
  8
DATA
  6
CONTINUOUS
 62
     7
 10
-56.820188703361858
 20
211.3686292592688
 30
0.0
 11
-58.320188703361858
 21
211.3686292592688
 31
0.0
  0
CIRCLE
  5
3B1
  8
DATA
  6
CONTINUOUS
 62
     7
 10
-24.032432407562808
 20
201.76356592649469
 30
0.0
 40
11.0
  0
CIRCLE
  5
3B2
  8
DATA
  6
CONTINUOUS
 62
     7
 10
-24.032432407562808
 20
201.76356592649469
 30
0.0
 40
8.25
  0
CIRCLE
  5
3B3
  8
DATA
  6
CONTINUOUS
 62
     7
 10
-24.032432407562808
 20
205.95290659037761
 30
0.0
 40
1.25
  0
CIRCLE
  5
3B4
  8
DATA
  6
CONTINUOUS
 62
     7
 10
-28.282432407562808
 20
201.76356592649469
 30
0.0
 40
1.25
  0
CIRCLE
  5
3B5
  8
DATA
  6
CONTINUOUS
 62
     7
 10
-19.782432407562808
 20
201.76356592649469
 30
0.0
 40
1.25
  0
CIRCLE
  5
3B6
  8
DATA
  6
CONTINUOUS
 62
     7
 10
-33.570188703361872
 20
211.3686292592688
 30
0.0
 40
2.0006999999999939
  0
CIRCLE
  5
3B7
  8
DATA
  6
CONTINUOUS
 62
     7
 10
-14.42981129663816
 20
192.2282518525449
 30
0.0
 40
2.0006999999999939
  0
ARC
  5
3B8
  8
DATA
  6
CONTINUOUS
 62
     7
 10
-24.032432407562808
 20
201.76356592649469
 30
0.0
 40
8.0000000000000302
 50
247.97568716295791
 51
292.02431283704198
  0
LINE
  5
3B9
  8
DATA
  6
CONTINUOUS
 62
     7
 10
-27.032432407562808
 20
194.34736743939899
 30
0.0
 11
-27.032432407562808
 21
194.07835285202509
 31
0.0
  0
LINE
  5
3BA
  8
DATA
  6
CONTINUOUS
 62
     7
 10
-21.032432407562808
 20
194.34736743939899
 30
0.0
 11
-21.032432407562808
 21
194.07835285202509
 31
0.0
  0
LINE
  5
3BB
  8
DATA
  6
CONTINUOUS
 62
     7
 10
-14.42981129663816
 20
192.97825185254479
 30
0.0
 11
-14.42981129663816
 21
191.4782518525449
 31
0.0
  0
LINE
  5
3BC
  8
DATA
  6
CONTINUOUS
 62
     7
 10
-13.67981129663816
 20
192.2282518525449
 30
0.0
 11
-15.17981129663816
 21
192.2282518525449
 31
0.0
  0
LINE
  5
3BD
  8
DATA
  6
CONTINUOUS
 62
     7
 10
-33.570188703361872
 20
212.1186292592688
 30
0.0
 11
-33.570188703361872
 21
210.6186292592688
 31
0.0
  0
LINE
  5
3BE
  8
DATA
  6
CONTINUOUS
 62
     7
 10
-32.820188703361858
 20
211.3686292592688
 30
0.0
 11
-34.320188703361858
 21
211.3686292592688
 31
0.0
  0
LINE
  5
3BF
  8
DATA
  6
CONTINUOUS
 62
     7
 10
210.90683446163681
 20
217.77558651501161
 30
0.0
 11
210.90683446163681
 21
183.77558651501161
 31
0.0
  0
LINE
  5
3C0
  8
DATA
  6
CONTINUOUS
 62
     7
 10
180.90683446163681
 20
183.77558651501161
 30
0.0
 11
180.90683446163681
 21
217.77558651501161
 31
0.0
  0
LINE
  5
3C1
  8
DATA
  6
CONTINUOUS
 62
     7
 10
210.90683446163681
 20
183.77558651501161
 30
0.0
 11
180.90683446163681
 21
183.77558651501161
 31
0.0
  0
LINE
  5
3C2
  8
DATA
  6
CONTINUOUS
 62
     7
 10
183.40683446163681
 20
201.97558651501171
 30
0.0
 11
208.40683446163681
 21
201.97558651501171
 31
0.0
  0
LINE
  5
3C3
  8
DATA
  6
CONTINUOUS
 62
     7
 10
183.40683446163681
 20
191.57558651501159
 30
0.0
 11
183.40683446163681
 21
201.97558651501171
 31
0.0
  0
LINE
  5
3C4
  8
DATA
  6
CONTINUOUS
 62
     7
 10
208.40683446163681
 20
191.57558651501159
 30
0.0
 11
208.40683446163681
 21
201.97558651501171
 31
0.0
  0
LINE
  5
3C5
  8
DATA
  6
CONTINUOUS
 62
     7
 10
188.40683446163681
 20
186.57558651501159
 30
0.0
 11
183.40683446163681
 21
191.57558651501159
 31
0.0
  0
LINE
  5
3C6
  8
DATA
  6
CONTINUOUS
 62
     7
 10
203.40683446163681
 20
186.57558651501159
 30
0.0
 11
208.40683446163681
 21
191.57558651501159
 31
0.0
  0
LINE
  5
3C7
  8
DATA
  6
CONTINUOUS
 62
     7
 10
188.40683446163681
 20
186.57558651501159
 30
0.0
 11
203.40683446163681
 21
186.57558651501159
 31
0.0
  0
POLYLINE
  5
3C8
  8
DATA
  6
CONTINUOUS
 62
     7
 66
     1
 10
0.0
 20
0.0
 30
0.0
 70
     1
  0
VERTEX
  5
6F2
  8
DATA
  6
CONTINUOUS
 62
     7
 10
194.90683446163681
 20
193.7449343135805
 30
0.0
  0
VERTEX
  5
6F3
  8
DATA
  6
CONTINUOUS
 62
     7
 10
196.90683446163681
 20
193.7449343135805
 30
0.0
  0
VERTEX
  5
6F4
  8
DATA
  6
CONTINUOUS
 62
     7
 10
196.90683446163681
 20
189.9449343135804
 30
0.0
  0
VERTEX
  5
6F5
  8
DATA
  6
CONTINUOUS
 62
     7
 10
194.90683446163681
 20
189.9449343135804
 30
0.0
  0
SEQEND
  5
6F6
  8
DATA
  6
CONTINUOUS
 62
     7
  0
POLYLINE
  5
3CF
  8
DATA
  6
CONTINUOUS
 62
     7
 66
     1
 10
0.0
 20
0.0
 30
0.0
 70
     1
  0
VERTEX
  5
6F7
  8
DATA
  6
CONTINUOUS
 62
     7
 10
201.70683446163679
 20
197.87558651501169
 30
0.0
  0
VERTEX
  5
6F8
  8
DATA
  6
CONTINUOUS
 62
     7
 10
203.70683446163679
 20
197.87558651501169
 30
0.0
  0
VERTEX
  5
6F9
  8
DATA
  6
CONTINUOUS
 62
     7
 10
203.70683446163679
 20
194.07558651501159
 30
0.0
  0
VERTEX
  5
6FA
  8
DATA
  6
CONTINUOUS
 62
     7
 10
201.70683446163679
 20
194.07558651501159
 30
0.0
  0
SEQEND
  5
6FB
  8
DATA
  6
CONTINUOUS
 62
     7
  0
POLYLINE
  5
3D6
  8
DATA
  6
CONTINUOUS
 62
     7
 66
     1
 10
0.0
 20
0.0
 30
0.0
 70
     1
  0
VERTEX
  5
6FC
  8
DATA
  6
CONTINUOUS
 62
     7
 10
188.10683446163679
 20
197.87558651501169
 30
0.0
  0
VERTEX
  5
6FD
  8
DATA
  6
CONTINUOUS
 62
     7
 10
190.10683446163679
 20
197.87558651501169
 30
0.0
  0
VERTEX
  5
6FE
  8
DATA
  6
CONTINUOUS
 62
     7
 10
190.10683446163679
 20
194.07558651501159
 30
0.0
  0
VERTEX
  5
6FF
  8
DATA
  6
CONTINUOUS
 62
     7
 10
188.10683446163679
 20
194.07558651501159
 30
0.0
  0
SEQEND
  5
700
  8
DATA
  6
CONTINUOUS
 62
     7
  0
LINE
  5
3DD
  8
DATA
  6
CONTINUOUS
 62
     7
 10
210.90683446163681
 20
217.77558651501161
 30
0.0
 11
180.90683446163681
 21
217.77558651501161
 31
0.0
  0
LINE
  5
3DE
  8
DATA
  6
CONTINUOUS
 62
     7
 10
126.4999999999999
 20
213.82917263761891
 30
0.0
 11
126.4999999999999
 21
201.82917263761891
 31
0.0
  0
LINE
  5
3DF
  8
DATA
  6
CONTINUOUS
 62
     7
 10
113.4999999999999
 20
213.82917263761891
 30
0.0
 11
126.4999999999999
 21
213.82917263761891
 31
0.0
  0
LINE
  5
3E0
  8
DATA
  6
CONTINUOUS
 62
     7
 10
113.4999999999999
 20
201.82917263761891
 30
0.0
 11
113.4999999999999
 21
213.82917263761891
 31
0.0
  0
LINE
  5
3E1
  8
DATA
  6
CONTINUOUS
 62
     7
 10
126.4999999999999
 20
201.82917263761891
 30
0.0
 11
113.4999999999999
 21
201.82917263761891
 31
0.0
  0
LINE
  5
3E2
  8
DATA
  6
CONTINUOUS
 62
     7
 10
114.9999999999999
 20
212.32917263761891
 30
0.0
 11
124.9999999999999
 21
212.32917263761891
 31
0.0
  0
LINE
  5
3E3
  8
DATA
  6
CONTINUOUS
 62
     7
 10
124.9999999999999
 20
212.32917263761891
 30
0.0
 11
124.9999999999999
 21
205.32917263761891
 31
0.0
  0
LINE
  5
3E4
  8
DATA
  6
CONTINUOUS
 62
     7
 10
114.9999999999999
 20
205.3291726376188
 30
0.0
 11
114.9999999999999
 21
212.32917263761891
 31
0.0
  0
LINE
  5
3E5
  8
DATA
  6
CONTINUOUS
 62
     7
 10
122.9999999999998
 20
203.32917263761891
 30
0.0
 11
116.9999999999999
 21
203.32917263761891
 31
0.0
  0
LINE
  5
3E6
  8
DATA
  6
CONTINUOUS
 62
     7
 10
124.9999999999998
 20
205.32917263761891
 30
0.0
 11
122.9999999999998
 21
203.32917263761891
 31
0.0
  0
LINE
  5
3E7
  8
DATA
  6
CONTINUOUS
 62
     7
 10
114.9999999999999
 20
205.32917263761891
 30
0.0
 11
116.9999999999999
 21
203.32917263761891
 31
0.0
  0
CIRCLE
  5
3E8
  8
DATA
  6
CONTINUOUS
 62
     7
 10
119.9999999999999
 20
198.2291726376188
 30
0.0
 40
1.699999999999988
  0
LINE
  5
3E9
  8
DATA
  6
CONTINUOUS
 62
     7
 10
120.7505553499464
 20
198.2291726376188
 30
0.0
 11
119.24944465005341
 21
198.2291726376188
 31
0.0
  0
LINE
  5
3EA
  8
DATA
  6
CONTINUOUS
 62
     7
 10
119.9999999999999
 20
198.97972798756541
 30
0.0
 11
119.9999999999999
 21
197.47861728767239
 31
0.0
  0
POLYLINE
  5
3EB
  8
DATA
  6
CONTINUOUS
 62
     7
 66
     1
 10
0.0
 20
0.0
 30
0.0
 70
     1
  0
VERTEX
  5
701
  8
DATA
  6
CONTINUOUS
 62
     7
 10
116.9999999999999
 20
209.57917263761891
 30
0.0
  0
VERTEX
  5
702
  8
DATA
  6
CONTINUOUS
 62
     7
 10
122.9999999999998
 20
209.57917263761891
 30
0.0
  0
VERTEX
  5
703
  8
DATA
  6
CONTINUOUS
 62
     7
 10
122.9999999999998
 20
206.07917263761891
 30
0.0
  0
VERTEX
  5
704
  8
DATA
  6
CONTINUOUS
 62
     7
 10
116.9999999999999
 20
206.07917263761891
 30
0.0
  0
SEQEND
  5
705
  8
DATA
  6
CONTINUOUS
 62
     7
  0
CIRCLE
  5
3F2
  8
DATA
  6
CONTINUOUS
 62
     7
 10
97.999999999999943
 20
207.82917263761891
 30
0.0
 40
8.5
  0
POLYLINE
  5
3F3
  8
DATA
  6
CONTINUOUS
 62
     7
 66
     1
 10
0.0
 20
0.0
 30
0.0
 70
     1
  0
VERTEX
  5
706
  8
DATA
  6
CONTINUOUS
 62
     7
 10
97.999999999999943
 20
199.3291726376188
 30
0.0
  0
VERTEX
  5
707
  8
DATA
  6
CONTINUOUS
 62
     7
 10
105.3612159321676
 20
203.57917263761891
 30
0.0
  0
VERTEX
  5
708
  8
DATA
  6
CONTINUOUS
 62
     7
 10
105.3612159321676
 20
212.07917263761891
 30
0.0
  0
VERTEX
  5
709
  8
DATA
  6
CONTINUOUS
 62
     7
 10
97.999999999999943
 20
216.32917263761891
 30
0.0
  0
VERTEX
  5
70A
  8
DATA
  6
CONTINUOUS
 62
     7
 10
90.638784067832205
 20
212.07917263761891
 30
0.0
  0
VERTEX
  5
70B
  8
DATA
  6
CONTINUOUS
 62
     7
 10
90.638784067832205
 20
203.57917263761891
 30
0.0
  0
SEQEND
  5
70C
  8
DATA
  6
CONTINUOUS
 62
     7
  0
CIRCLE
  5
3FC
  8
DATA
  6
CONTINUOUS
 62
     7
 10
97.999999999999943
 20
207.82917263761891
 30
0.0
 40
5.5
  0
CIRCLE
  5
3FD
  8
DATA
  6
CONTINUOUS
 62
     7
 10
97.999999999999943
 20
207.82917263761891
 30
0.0
 40
2.8499999999999939
  0
CIRCLE
  5
3FE
  8
DATA
  6
CONTINUOUS
 62
     7
 10
72.903520294267011
 20
206.23555128263899
 30
0.0
 40
8.2500000000000071
  0
CIRCLE
  5
3FF
  8
DATA
  6
CONTINUOUS
 62
     7
 10
72.906923757947652
 20
206.37107714352661
 30
0.0
 40
6.9000000000000039
  0
CIRCLE
  5
400
  8
DATA
  6
CONTINUOUS
 62
     7
 10
75.494006983821905
 20
206.4156149057049
 30
0.0
 40
0.5519621081381495
  0
CIRCLE
  5
401
  8
DATA
  6
CONTINUOUS
 62
     7
 10
74.475223724418399
 20
208.16879722735359
 30
0.0
 40
0.5522307728991005
  0
CIRCLE
  5
402
  8
DATA
  6
CONTINUOUS
 62
     7
 10
72.655961430406734
 20
209.1546509598692
 30
0.0
 40
0.5505590016105657
  0
CIRCLE
  5
403
  8
DATA
  6
CONTINUOUS
 62
     7
 10
70.797060674024834
 20
208.16444758770089
 30
0.0
 40
0.5526399569132535
  0
CIRCLE
  5
404
  8
DATA
  6
CONTINUOUS
 62
     7
 10
69.750737091273692
 20
206.4279052208432
 30
0.0
 40
0.5441980039814838
  0
POLYLINE
  5
405
  8
DATA
  6
CONTINUOUS
 62
     7
 66
     1
 10
0.0
 20
0.0
 30
0.0
  0
VERTEX
  5
70D
  8
DATA
  6
CONTINUOUS
 62
     7
 10
72.326000488901428
 20
208.71392316254281
 30
0.0
  0
VERTEX
  5
70E
  8
DATA
  6
CONTINUOUS
 62
     7
 10
72.326000488901428
 20
207.83455388974869
 30
0.0
  0
VERTEX
  5
70F
  8
DATA
  6
CONTINUOUS
 62
     7
 10
73.007978834143657
 20
207.83455388974869
 30
0.0
  0
VERTEX
  5
710
  8
DATA
  6
CONTINUOUS
 62
     7
 10
73.007978834143657
 20
208.7313319764516
 30
0.0
  0
SEQEND
  5
711
  8
DATA
  6
CONTINUOUS
 62
     7
  0
POLYLINE
  5
40C
  8
DATA
  6
CONTINUOUS
 62
     7
 66
     1
 10
0.0
 20
0.0
 30
0.0
  0
VERTEX
  5
712
  8
DATA
  6
CONTINUOUS
 62
     7
 10
72.326000488901428
 20
209.59537875719559
 30
0.0
  0
VERTEX
  5
713
  8
DATA
  6
CONTINUOUS
 62
     7
 10
72.326000488901428
 20
210.4525092658067
 30
0.0
  0
VERTEX
  5
714
  8
DATA
  6
CONTINUOUS
 62
     7
 10
73.007978834143657
 20
210.4525092658067
 30
0.0
  0
VERTEX
  5
715
  8
DATA
  6
CONTINUOUS
 62
     7
 10
73.007978834143657
 20
209.5779699432868
 30
0.0
  0
SEQEND
  5
716
  8
DATA
  6
CONTINUOUS
 62
     7
  0
POLYLINE
  5
413
  8
DATA
  6
CONTINUOUS
 62
     7
 66
     1
 10
0.0
 20
0.0
 30
0.0
  0
VERTEX
  5
717
  8
DATA
  6
CONTINUOUS
 62
     7
 10
70.852026580829985
 20
207.61454789585619
 30
0.0
  0
VERTEX
  5
718
  8
DATA
  6
CONTINUOUS
 62
     7
 10
71.467969978403332
 20
206.9986044982831
 30
0.0
  0
VERTEX
  5
719
  8
DATA
  6
CONTINUOUS
 62
     7
 10
71.951964236107443
 20
207.4825987559872
 30
0.0
  0
VERTEX
  5
71A
  8
DATA
  6
CONTINUOUS
 62
     7
 10
71.344651162216891
 20
208.08991182987739
 30
0.0
  0
SEQEND
  5
71B
  8
DATA
  6
CONTINUOUS
 62
     7
  0
POLYLINE
  5
41A
  8
DATA
  6
CONTINUOUS
 62
     7
 66
     1
 10
0.0
 20
0.0
 30
0.0
  0
VERTEX
  5
71C
  8
DATA
  6
CONTINUOUS
 62
     7
 10
70.247160982223178
 20
208.21941349446291
 30
0.0
  0
VERTEX
  5
71D
  8
DATA
  6
CONTINUOUS
 62
     7
 10
69.62001903021546
 20
208.84655544647029
 30
0.0
  0
VERTEX
  5
71E
  8
DATA
  6
CONTINUOUS
 62
     7
 10
70.104013287919599
 20
209.33054970417439
 30
0.0
  0
VERTEX
  5
71F
  8
DATA
  6
CONTINUOUS
 62
     7
 10
70.722524916215292
 20
208.71203807587889
 30
0.0
  0
SEQEND
  5
720
  8
DATA
  6
CONTINUOUS
 62
     7
  0
POLYLINE
  5
421
  8
DATA
  6
CONTINUOUS
 62
     7
 66
     1
 10
0.0
 20
0.0
 30
0.0
  0
VERTEX
  5
721
  8
DATA
  6
CONTINUOUS
 62
     7
 10
74.529767854341742
 20
208.71832772191721
 30
0.0
  0
VERTEX
  5
722
  8
DATA
  6
CONTINUOUS
 62
     7
 10
75.142014550872346
 20
209.33054970417439
 30
0.0
  0
VERTEX
  5
723
  8
DATA
  6
CONTINUOUS
 62
     7
 10
75.626008808576444
 20
208.84655544647029
 30
0.0
  0
VERTEX
  5
724
  8
DATA
  6
CONTINUOUS
 62
     7
 10
75.022444417154674
 20
208.2430154188477
 30
0.0
  0
SEQEND
  5
725
  8
DATA
  6
CONTINUOUS
 62
     7
  0
POLYLINE
  5
428
  8
DATA
  6
CONTINUOUS
 62
     7
 66
     1
 10
0.0
 20
0.0
 30
0.0
  0
VERTEX
  5
726
  8
DATA
  6
CONTINUOUS
 62
     7
 10
73.925691028500694
 20
208.11427528056049
 30
0.0
  0
VERTEX
  5
727
  8
DATA
  6
CONTINUOUS
 62
     7
 10
73.293989004309694
 20
207.4825987559872
 30
0.0
  0
VERTEX
  5
728
  8
DATA
  6
CONTINUOUS
 62
     7
 10
73.777983262013763
 20
206.9986044982831
 30
0.0
  0
VERTEX
  5
729
  8
DATA
  6
CONTINUOUS
 62
     7
 10
74.400983443139282
 20
207.62157953105421
 30
0.0
  0
SEQEND
  5
72A
  8
DATA
  6
CONTINUOUS
 62
     7
  0
POLYLINE
  5
42F
  8
DATA
  6
CONTINUOUS
 62
     7
 66
     1
 10
0.0
 20
0.0
 30
0.0
  0
VERTEX
  5
72B
  8
DATA
  6
CONTINUOUS
 62
     7
 10
69.814684157034932
 20
205.88747739004049
 30
0.0
  0
VERTEX
  5
72C
  8
DATA
  6
CONTINUOUS
 62
     7
 10
70.455968421681789
 20
205.2385304359729
 30
0.0
  0
VERTEX
  5
72D
  8
DATA
  6
CONTINUOUS
 62
     7
 10
70.939962679385303
 20
205.722524693677
 30
0.0
  0
VERTEX
  5
72E
  8
DATA
  6
CONTINUOUS
 62
     7
 10
70.291141658586113
 20
206.36376185685091
 30
0.0
  0
SEQEND
  5
72F
  8
DATA
  6
CONTINUOUS
 62
     7
  0
POLYLINE
  5
436
  8
DATA
  6
CONTINUOUS
 62
     7
 66
     1
 10
0.0
 20
0.0
 30
0.0
  0
VERTEX
  5
730
  8
DATA
  6
CONTINUOUS
 62
     7
 10
69.211106919885466
 20
206.49826675629529
 30
0.0
  0
VERTEX
  5
731
  8
DATA
  6
CONTINUOUS
 62
     7
 10
68.608017473493859
 20
207.1085625031925
 30
0.0
  0
VERTEX
  5
732
  8
DATA
  6
CONTINUOUS
 62
     7
 10
69.070005210540373
 20
207.57062483861509
 30
0.0
  0
VERTEX
  5
733
  8
DATA
  6
CONTINUOUS
 62
     7
 10
69.68024463370908
 20
206.96751830534109
 30
0.0
  0
SEQEND
  5
734
  8
DATA
  6
CONTINUOUS
 62
     7
  0
POLYLINE
  5
43D
  8
DATA
  6
CONTINUOUS
 62
     7
 66
     1
 10
0.0
 20
0.0
 30
0.0
  0
VERTEX
  5
735
  8
DATA
  6
CONTINUOUS
 62
     7
 10
75.568015250236854
 20
206.96259291745341
 30
0.0
  0
VERTEX
  5
736
  8
DATA
  6
CONTINUOUS
 62
     7
 10
76.176022628251474
 20
207.57062483861509
 30
0.0
  0
VERTEX
  5
737
  8
DATA
  6
CONTINUOUS
 62
     7
 10
76.660016885955585
 20
207.1085625031925
 30
0.0
  0
VERTEX
  5
738
  8
DATA
  6
CONTINUOUS
 62
     7
 10
76.041837670776133
 20
206.4830219321631
 30
0.0
  0
SEQEND
  5
739
  8
DATA
  6
CONTINUOUS
 62
     7
  0
POLYLINE
  5
444
  8
DATA
  6
CONTINUOUS
 62
     7
 66
     1
 10
0.0
 20
0.0
 30
0.0
  0
VERTEX
  5
73A
  8
DATA
  6
CONTINUOUS
 62
     7
 10
74.947031959915464
 20
206.3415845601925
 30
0.0
  0
VERTEX
  5
73B
  8
DATA
  6
CONTINUOUS
 62
     7
 10
74.327997081688849
 20
205.722524693677
 30
0.0
  0
VERTEX
  5
73C
  8
DATA
  6
CONTINUOUS
 62
     7
 10
74.811991339392335
 20
205.2385304359729
 30
0.0
  0
VERTEX
  5
73D
  8
DATA
  6
CONTINUOUS
 62
     7
 10
75.433089477342733
 20
205.8670246886729
 30
0.0
  0
SEQEND
  5
73E
  8
DATA
  6
CONTINUOUS
 62
     7
  0
POLYLINE
  5
44B
  8
DATA
  6
CONTINUOUS
 62
     7
 66
     1
 10
0.0
 20
0.0
 30
0.0
  0
VERTEX
  5
73F
  8
DATA
  6
CONTINUOUS
 62
     7
 10
71.47605603980827
 20
200.82586727057159
 30
0.0
  0
VERTEX
  5
740
  8
DATA
  6
CONTINUOUS
 62
     7
 10
71.47605603980827
 20
202.48714114737771
 30
0.0
  0
VERTEX
  5
741
  8
DATA
  6
CONTINUOUS
 62
     7
 10
73.876056039808219
 20
202.48714114737771
 30
0.0
  0
VERTEX
  5
742
  8
DATA
  6
CONTINUOUS
 62
     7
 10
73.876056039808219
 20
200.82586727057159
 30
0.0
  0
SEQEND
  5
743
  8
DATA
  6
CONTINUOUS
 62
     7
  0
ARC
  5
452
  8
DATA
  6
CONTINUOUS
 62
     7
 10
72.676056039808174
 20
205.9465865339379
 30
0.0
 40
5.2594453865602988
 50
283.18882270300429
 51
256.8111772969969
  0
CIRCLE
  5
453
  8
DATA
  6
CONTINUOUS
 62
     7
 10
65.21893185169165
 20
213.89180249926341
 30
0.0
 40
2.000699999999938
  0
LINE
  5
454
  8
DATA
  6
CONTINUOUS
 62
     7
 10
65.96893185169165
 20
213.89180249926341
 30
0.0
 11
64.46893185169165
 21
213.89180249926341
 31
0.0
  0
LINE
  5
455
  8
DATA
  6
CONTINUOUS
 62
     7
 10
65.21893185169165
 20
214.64180249926341
 30
0.0
 11
65.21893185169165
 21
213.14180249926341
 31
0.0
  0
CIRCLE
  5
456
  8
DATA
  6
CONTINUOUS
 62
     7
 10
50.903520294266997
 20
206.23555128263899
 30
0.0
 40
8.2500000000000071
  0
CIRCLE
  5
457
  8
DATA
  6
CONTINUOUS
 62
     7
 10
50.906923757947638
 20
206.37107714352661
 30
0.0
 40
6.9000000000000039
  0
CIRCLE
  5
458
  8
DATA
  6
CONTINUOUS
 62
     7
 10
53.494006983821897
 20
206.4156149057049
 30
0.0
 40
0.5519621081381495
  0
CIRCLE
  5
459
  8
DATA
  6
CONTINUOUS
 62
     7
 10
52.475223724418399
 20
208.16879722735359
 30
0.0
 40
0.5522307728991005
  0
CIRCLE
  5
45A
  8
DATA
  6
CONTINUOUS
 62
     7
 10
50.655961430406741
 20
209.1546509598692
 30
0.0
 40
0.5505590016105657
  0
CIRCLE
  5
45B
  8
DATA
  6
CONTINUOUS
 62
     7
 10
48.797060674024848
 20
208.16444758770089
 30
0.0
 40
0.5526399569132535
  0
CIRCLE
  5
45C
  8
DATA
  6
CONTINUOUS
 62
     7
 10
47.750737091273699
 20
206.4279052208432
 30
0.0
 40
0.5441980039814838
  0
POLYLINE
  5
45D
  8
DATA
  6
CONTINUOUS
 62
     7
 66
     1
 10
0.0
 20
0.0
 30
0.0
  0
VERTEX
  5
744
  8
DATA
  6
CONTINUOUS
 62
     7
 10
50.326000488901428
 20
208.71392316254281
 30
0.0
  0
VERTEX
  5
745
  8
DATA
  6
CONTINUOUS
 62
     7
 10
50.326000488901428
 20
207.83455388974869
 30
0.0
  0
VERTEX
  5
746
  8
DATA
  6
CONTINUOUS
 62
     7
 10
51.00797883414365
 20
207.83455388974869
 30
0.0
  0
VERTEX
  5
747
  8
DATA
  6
CONTINUOUS
 62
     7
 10
51.00797883414365
 20
208.7313319764516
 30
0.0
  0
SEQEND
  5
748
  8
DATA
  6
CONTINUOUS
 62
     7
  0
POLYLINE
  5
464
  8
DATA
  6
CONTINUOUS
 62
     7
 66
     1
 10
0.0
 20
0.0
 30
0.0
  0
VERTEX
  5
749
  8
DATA
  6
CONTINUOUS
 62
     7
 10
50.326000488901428
 20
209.59537875719559
 30
0.0
  0
VERTEX
  5
74A
  8
DATA
  6
CONTINUOUS
 62
     7
 10
50.326000488901428
 20
210.4525092658067
 30
0.0
  0
VERTEX
  5
74B
  8
DATA
  6
CONTINUOUS
 62
     7
 10
51.00797883414365
 20
210.4525092658067
 30
0.0
  0
VERTEX
  5
74C
  8
DATA
  6
CONTINUOUS
 62
     7
 10
51.00797883414365
 20
209.5779699432868
 30
0.0
  0
SEQEND
  5
74D
  8
DATA
  6
CONTINUOUS
 62
     7
  0
POLYLINE
  5
46B
  8
DATA
  6
CONTINUOUS
 62
     7
 66
     1
 10
0.0
 20
0.0
 30
0.0
  0
VERTEX
  5
74E
  8
DATA
  6
CONTINUOUS
 62
     7
 10
48.852026580829992
 20
207.61454789585619
 30
0.0
  0
VERTEX
  5
74F
  8
DATA
  6
CONTINUOUS
 62
     7
 10
49.467969978403332
 20
206.9986044982831
 30
0.0
  0
VERTEX
  5
750
  8
DATA
  6
CONTINUOUS
 62
     7
 10
49.951964236107457
 20
207.4825987559872
 30
0.0
  0
VERTEX
  5
751
  8
DATA
  6
CONTINUOUS
 62
     7
 10
49.344651162216891
 20
208.08991182987739
 30
0.0
  0
SEQEND
  5
752
  8
DATA
  6
CONTINUOUS
 62
     7
  0
POLYLINE
  5
472
  8
DATA
  6
CONTINUOUS
 62
     7
 66
     1
 10
0.0
 20
0.0
 30
0.0
  0
VERTEX
  5
753
  8
DATA
  6
CONTINUOUS
 62
     7
 10
48.247160982223171
 20
208.21941349446291
 30
0.0
  0
VERTEX
  5
754
  8
DATA
  6
CONTINUOUS
 62
     7
 10
47.620019030215467
 20
208.84655544647029
 30
0.0
  0
VERTEX
  5
755
  8
DATA
  6
CONTINUOUS
 62
     7
 10
48.104013287919599
 20
209.33054970417439
 30
0.0
  0
VERTEX
  5
756
  8
DATA
  6
CONTINUOUS
 62
     7
 10
48.722524916215299
 20
208.71203807587889
 30
0.0
  0
SEQEND
  5
757
  8
DATA
  6
CONTINUOUS
 62
     7
  0
POLYLINE
  5
479
  8
DATA
  6
CONTINUOUS
 62
     7
 66
     1
 10
0.0
 20
0.0
 30
0.0
  0
VERTEX
  5
758
  8
DATA
  6
CONTINUOUS
 62
     7
 10
52.529767854341728
 20
208.71832772191721
 30
0.0
  0
VERTEX
  5
759
  8
DATA
  6
CONTINUOUS
 62
     7
 10
53.142014550872361
 20
209.33054970417439
 30
0.0
  0
VERTEX
  5
75A
  8
DATA
  6
CONTINUOUS
 62
     7
 10
53.626008808576422
 20
208.84655544647029
 30
0.0
  0
VERTEX
  5
75B
  8
DATA
  6
CONTINUOUS
 62
     7
 10
53.022444417154681
 20
208.2430154188477
 30
0.0
  0
SEQEND
  5
75C
  8
DATA
  6
CONTINUOUS
 62
     7
  0
POLYLINE
  5
480
  8
DATA
  6
CONTINUOUS
 62
     7
 66
     1
 10
0.0
 20
0.0
 30
0.0
  0
VERTEX
  5
75D
  8
DATA
  6
CONTINUOUS
 62
     7
 10
51.92569102850068
 20
208.11427528056049
 30
0.0
  0
VERTEX
  5
75E
  8
DATA
  6
CONTINUOUS
 62
     7
 10
51.293989004309701
 20
207.4825987559872
 30
0.0
  0
VERTEX
  5
75F
  8
DATA
  6
CONTINUOUS
 62
     7
 10
51.777983262013763
 20
206.9986044982831
 30
0.0
  0
VERTEX
  5
760
  8
DATA
  6
CONTINUOUS
 62
     7
 10
52.400983443139282
 20
207.62157953105421
 30
0.0
  0
SEQEND
  5
761
  8
DATA
  6
CONTINUOUS
 62
     7
  0
POLYLINE
  5
487
  8
DATA
  6
CONTINUOUS
 62
     7
 66
     1
 10
0.0
 20
0.0
 30
0.0
  0
VERTEX
  5
762
  8
DATA
  6
CONTINUOUS
 62
     7
 10
47.814684157034932
 20
205.88747739004049
 30
0.0
  0
VERTEX
  5
763
  8
DATA
  6
CONTINUOUS
 62
     7
 10
48.455968421681789
 20
205.2385304359729
 30
0.0
  0
VERTEX
  5
764
  8
DATA
  6
CONTINUOUS
 62
     7
 10
48.939962679385289
 20
205.722524693677
 30
0.0
  0
VERTEX
  5
765
  8
DATA
  6
CONTINUOUS
 62
     7
 10
48.291141658586113
 20
206.36376185685091
 30
0.0
  0
SEQEND
  5
766
  8
DATA
  6
CONTINUOUS
 62
     7
  0
POLYLINE
  5
48E
  8
DATA
  6
CONTINUOUS
 62
     7
 66
     1
 10
0.0
 20
0.0
 30
0.0
  0
VERTEX
  5
767
  8
DATA
  6
CONTINUOUS
 62
     7
 10
47.211106919885459
 20
206.49826675629529
 30
0.0
  0
VERTEX
  5
768
  8
DATA
  6
CONTINUOUS
 62
     7
 10
46.608017473493859
 20
207.1085625031925
 30
0.0
  0
VERTEX
  5
769
  8
DATA
  6
CONTINUOUS
 62
     7
 10
47.070005210540373
 20
207.57062483861509
 30
0.0
  0
VERTEX
  5
76A
  8
DATA
  6
CONTINUOUS
 62
     7
 10
47.68024463370908
 20
206.96751830534109
 30
0.0
  0
SEQEND
  5
76B
  8
DATA
  6
CONTINUOUS
 62
     7
  0
POLYLINE
  5
495
  8
DATA
  6
CONTINUOUS
 62
     7
 66
     1
 10
0.0
 20
0.0
 30
0.0
  0
VERTEX
  5
76C
  8
DATA
  6
CONTINUOUS
 62
     7
 10
53.568015250236883
 20
206.96259291745341
 30
0.0
  0
VERTEX
  5
76D
  8
DATA
  6
CONTINUOUS
 62
     7
 10
54.176022628251459
 20
207.57062483861509
 30
0.0
  0
VERTEX
  5
76E
  8
DATA
  6
CONTINUOUS
 62
     7
 10
54.660016885955592
 20
207.1085625031925
 30
0.0
  0
VERTEX
  5
76F
  8
DATA
  6
CONTINUOUS
 62
     7
 10
54.041837670776118
 20
206.4830219321631
 30
0.0
  0
SEQEND
  5
770
  8
DATA
  6
CONTINUOUS
 62
     7
  0
POLYLINE
  5
49C
  8
DATA
  6
CONTINUOUS
 62
     7
 66
     1
 10
0.0
 20
0.0
 30
0.0
  0
VERTEX
  5
771
  8
DATA
  6
CONTINUOUS
 62
     7
 10
52.947031959915449
 20
206.3415845601925
 30
0.0
  0
VERTEX
  5
772
  8
DATA
  6
CONTINUOUS
 62
     7
 10
52.327997081688849
 20
205.722524693677
 30
0.0
  0
VERTEX
  5
773
  8
DATA
  6
CONTINUOUS
 62
     7
 10
52.81199133939235
 20
205.2385304359729
 30
0.0
  0
VERTEX
  5
774
  8
DATA
  6
CONTINUOUS
 62
     7
 10
53.433089477342762
 20
205.8670246886729
 30
0.0
  0
SEQEND
  5
775
  8
DATA
  6
CONTINUOUS
 62
     7
  0
POLYLINE
  5
4A3
  8
DATA
  6
CONTINUOUS
 62
     7
 66
     1
 10
0.0
 20
0.0
 30
0.0
  0
VERTEX
  5
776
  8
DATA
  6
CONTINUOUS
 62
     7
 10
49.476056039808249
 20
200.82586727057159
 30
0.0
  0
VERTEX
  5
777
  8
DATA
  6
CONTINUOUS
 62
     7
 10
49.476056039808249
 20
202.48714114737771
 30
0.0
  0
VERTEX
  5
778
  8
DATA
  6
CONTINUOUS
 62
     7
 10
51.876056039808233
 20
202.48714114737771
 30
0.0
  0
VERTEX
  5
779
  8
DATA
  6
CONTINUOUS
 62
     7
 10
51.876056039808233
 20
200.82586727057159
 30
0.0
  0
SEQEND
  5
77A
  8
DATA
  6
CONTINUOUS
 62
     7
  0
ARC
  5
4AA
  8
DATA
  6
CONTINUOUS
 62
     7
 10
50.676056039808181
 20
205.9465865339379
 30
0.0
 40
5.2594453865602988
 50
283.18882270300429
 51
256.8111772969969
  0
CIRCLE
  5
4AB
  8
DATA
  6
CONTINUOUS
 62
     7
 10
43.218931851691657
 20
213.89180249926341
 30
0.0
 40
2.000699999999938
  0
LINE
  5
4AC
  8
DATA
  6
CONTINUOUS
 62
     7
 10
43.968931851691657
 20
213.89180249926341
 30
0.0
 11
42.468931851691657
 21
213.89180249926341
 31
0.0
  0
LINE
  5
4AD
  8
DATA
  6
CONTINUOUS
 62
     7
 10
43.218931851691657
 20
214.64180249926341
 30
0.0
 11
43.218931851691657
 21
213.14180249926341
 31
0.0
  0
CIRCLE
  5
4AE
  8
DATA
  6
CONTINUOUS
 62
     7
 10
10.999999999999931
 20
195.4632101619404
 30
0.0
 40
4.200000000000002
  0
CIRCLE
  5
4AF
  8
DATA
  6
CONTINUOUS
 62
     7
 10
10.999999999999931
 20
195.4632101619404
 30
0.0
 40
1.75
  0
CIRCLE
  5
4B0
  8
DATA
  6
CONTINUOUS
 62
     7
 10
24.999999999999929
 20
195.4632101619404
 30
0.0
 40
4.200000000000002
  0
CIRCLE
  5
4B1
  8
DATA
  6
CONTINUOUS
 62
     7
 10
24.999999999999929
 20
195.4632101619404
 30
0.0
 40
1.75
  0
CIRCLE
  5
4B2
  8
DATA
  6
CONTINUOUS
 62
     7
 10
24.999999999999929
 20
209.46321016194051
 30
0.0
 40
4.200000000000002
  0
CIRCLE
  5
4B3
  8
DATA
  6
CONTINUOUS
 62
     7
 10
24.999999999999929
 20
209.46321016194051
 30
0.0
 40
1.75
  0
CIRCLE
  5
4B4
  8
DATA
  6
CONTINUOUS
 62
     7
 10
10.999999999999931
 20
209.46321016194051
 30
0.0
 40
4.200000000000002
  0
CIRCLE
  5
4B5
  8
DATA
  6
CONTINUOUS
 62
     7
 10
10.999999999999931
 20
209.46321016194051
 30
0.0
 40
1.75
  0
LINE
  5
4B6
  8
DATA
  6
CONTINUOUS
 62
     7
 10
18.53033008588984
 20
202.9935402478304
 30
0.0
 11
17.469669914110039
 21
201.93288007605059
 31
0.0
  0
LINE
  5
4B7
  8
DATA
  6
CONTINUOUS
 62
     7
 10
17.469669914110039
 20
202.9935402478304
 30
0.0
 11
18.53033008588983
 21
201.93288007605059
 31
0.0
  0
CIRCLE
  5
4B8
  8
DATA
  6
CONTINUOUS
 62
     7
 10
17.999999999999918
 20
202.4632101619404
 30
0.0
 40
2.25
  0
TEXT
  5
4B9
  8
DATA
 62
     7
 10
176.0073913343229
 20
211.23602644848361
 30
0.0
 40
2.30859375
  1
100V - 120V～50/60Hz
 50
180.0
 41
0.7
 11
176.0073913343229
 21
208.92743269848361
 31
0.0
 73
     3
  0
TEXT
  5
4BA
  8
DATA
 62
     7
 10
162.757391312799
 20
216.24304332838571
 30
0.0
 40
2.30859375
  1
18W
 50
180.0
 41
0.7
 11
162.757391312799
 21
213.93444957838571
 31
0.0
 73
     3
  0
TEXT
  5
4BB
  8
DATA
 62
     7
 10
122.9874999924665
 20
194.48558279676689
 30
0.0
 40
3.1166015625000001
  1
USB
 50
180.0
 41
0.7
 11
122.9874999924665
 21
191.3689812342669
 31
0.0
 73
     3
  0
TEXT
  5
4BC
  8
DATA
 62
     7
 10
108.3766337101961
 20
194.48558279676689
 30
0.0
 40
3.1166015625000001
  1
FOOTSWITCH
 50
180.0
 41
0.7
 11
108.3766337101961
 21
191.3689812342669
 31
0.0
 73
     3
  0
TEXT
  5
4BD
  8
DATA
 62
     7
 10
75.263370642609431
 20
194.48558279676689
 30
0.0
 40
3.1166015625000001
  1
IN
 50
180.0
 41
0.7
 11
75.263370642609431
 21
191.3689812342669
 31
0.0
 73
     3
  0
TEXT
  5
4BE
  8
DATA
 62
     7
 10
55.750166426664649
 20
194.48558279676689
 30
0.0
 40
3.1166015625000001
  1
THRU
 50
180.0
 41
0.7
 11
55.750166426664649
 21
191.3689812342669
 31
0.0
 73
     3
  0
TEXT
  5
4BF
  8
DATA
 62
     7
 10
25.7399808575944
 20
218.15938211836729
 30
0.0
 40
3.1166015625000001
  1
A
 50
180.0
 41
0.7
 11
25.7399808575944
 21
215.0427805558673
 31
0.0
 73
     3
  0
TEXT
  5
4C0
  8
DATA
 62
     7
 10
11.82003828481113
 20
218.15938211836729
 30
0.0
 40
3.1166015625000001
  1
B
 50
180.0
 41
0.7
 11
11.82003828481113
 21
215.0427805558673
 31
0.0
 73
     3
  0
TEXT
  5
4C1
  8
DATA
 62
     7
 10
4.8031289912463544
 20
197.20741657469719
 30
0.0
 40
3.1166015625000001
  1
IN
 50
180.0
 41
0.7
 11
4.8031289912463526
 21
194.0908150121972
 31
0.0
 73
     3
  0
TEXT
  5
4C2
  8
DATA
 62
     7
 10
4.8031289912463544
 20
211.50548121701601
 30
0.0
 40
3.1166015625000001
  1
OUT
 50
180.0
 41
0.7
 11
4.8031289912463526
 21
208.38887965451599
 31
0.0
 73
     3
  0
TEXT
  5
4C3
  8
DATA
 62
     7
 10
23.63463164285432
 20
186.9867658423789
 30
0.0
 40
3.1166015625000001
  1
S/PDIF
 50
180.0
 41
0.7
 11
23.63463164285432
 21
183.87016427987891
 31
0.0
 73
     3
  0
TEXT
  5
4C4
  8
DATA
 62
     7
 10
-12.530606512294939
 20
215.26987311373969
 30
0.0
 40
4.113914062500001
  1
A
 50
180.0
 41
0.7
 11
-12.530606512294939
 21
211.15595905123971
 31
0.0
 73
     3
  0
TEXT
  5
4C5
  8
DATA
 62
     7
 10
-61.243758895235857
 20
215.26987311373969
 30
0.0
 40
4.113914062500001
  1
B
 50
180.0
 41
0.7
 11
-61.243758895235857
 21
211.15595905123971
 31
0.0
 73
     3
  0
TEXT
  5
4C6
  8
DATA
 62
     7
 10
-109.6639708749979
 20
215.26987311373969
 30
0.0
 40
4.113914062500001
  1
A
 50
180.0
 41
0.7
 11
-109.6639708749979
 21
211.15595905123971
 31
0.0
 73
     3
  0
TEXT
  5
4C7
  8
DATA
 62
     7
 10
-158.21835112397341
 20
215.26987311373969
 30
0.0
 40
4.113914062500001
  1
B
 50
180.0
 41
0.7
 11
-158.21835112397341
 21
211.15595905123971
 31
0.0
 73
     3
  0
TEXT
  5
4C8
  8
DATA
 62
     7
 10
-10.289171292349961
 20
186.37319047600349
 30
0.0
 40
3.2911312499999998
  1
ANALOG OUTPUT
 50
180.0
 41
0.7
 11
-10.289171292349961
 21
183.08205922600339
 31
0.0
 73
     3
  0
TEXT
  5
4C9
  8
DATA
 62
     7
 10
-109.9011163266306
 20
186.05623233045191
 30
0.0
 40
3.2911312499999998
  1
ANALOG INPUT
 50
180.0
 41
0.7
 11
-109.9011163266306
 21
182.7651010804519
 31
0.0
 73
     3
  0
TEXT
  5
4CA
  8
DATA
 62
     7
 10
-19.780893483071011
 20
218.19624528863389
 30
0.0
 40
3.2911312499999998
  1
LEFT
 50
180.0
 41
0.7
 11
-19.780893483071011
 21
214.90511403863391
 31
0.0
 73
     3
  0
TEXT
  5
4CB
  8
DATA
 62
     7
 10
-42.430221805610849
 20
218.19624528863389
 30
0.0
 40
3.2911312499999998
  1
RIGHT
 50
180.0
 41
0.7
 11
-42.430221805610849
 21
214.90511403863391
 31
0.0
 73
     3
  0
TEXT
  5
4CC
  8
DATA
 62
     7
 10
-67.780893483071011
 20
218.19624528863389
 30
0.0
 40
3.2911312499999998
  1
LEFT
 50
180.0
 41
0.7
 11
-67.780893483071011
 21
214.90511403863391
 31
0.0
 73
     3
  0
TEXT
  5
4CD
  8
DATA
 62
     7
 10
-90.430221805610842
 20
218.19624528863389
 30
0.0
 40
3.2911312499999998
  1
RIGHT
 50
180.0
 41
0.7
 11
-90.430221805610842
 21
214.90511403863391
 31
0.0
 73
     3
  0
TEXT
  5
4CE
  8
DATA
 62
     7
 10
-115.780893483071
 20
218.19624528863389
 30
0.0
 40
3.2911312499999998
  1
LEFT
 50
180.0
 41
0.7
 11
-115.780893483071
 21
214.90511403863391
 31
0.0
 73
     3
  0
TEXT
  5
4CF
  8
DATA
 62
     7
 10
-138.43022180561081
 20
218.19624528863389
 30
0.0
 40
3.2911312499999998
  1
RIGHT
 50
180.0
 41
0.7
 11
-138.43022180561081
 21
214.90511403863391
 31
0.0
 73
     3
  0
TEXT
  5
4D0
  8
DATA
 62
     7
 10
-163.780893483071
 20
218.19624528863389
 30
0.0
 40
3.2911312499999998
  1
LEFT
 50
180.0
 41
0.7
 11
-163.780893483071
 21
214.90511403863391
 31
0.0
 73
     3
  0
TEXT
  5
4D1
  8
DATA
 62
     7
 10
-186.43022180561081
 20
218.19624528863389
 30
0.0
 40
3.2911312499999998
  1
RIGHT
 50
180.0
 41
0.7
 11
-186.43022180561081
 21
214.90511403863391
 31
0.0
 73
     3
  0
TEXT
  5
4D2
  8
DATA
 62
     7
 10
-28.321789391769968
 20
190.2419564899001
 30
0.0
 40
2.3037918749999999
  1
FRONT
 50
180.0
 41
0.7
 11
-28.321789391769968
 21
187.9381646149001
 31
0.0
 73
     3
  0
TEXT
  5
4D3
  8
DATA
 62
     7
 10
-41.111433374514561
 20
190.2419564899001
 30
0.0
 40
2.3037918749999999
  1
(STEREO)
 50
180.0
 41
0.7
 11
-41.111433374514561
 21
187.9381646149001
 31
0.0
 73
     3
  0
TEXT
  5
4D4
  8
DATA
 62
     7
 10
-124.9915733203224
 20
190.70617984406121
 30
0.0
 40
2.3037918749999999
  1
FRONT
 50
180.0
 41
0.7
 11
-124.9915733203224
 21
188.40238796906121
 31
0.0
 73
     3
  0
TEXT
  5
4D5
  8
DATA
 62
     7
 10
-137.78121730306711
 20
190.70617984406121
 30
0.0
 40
2.3037918749999999
  1
(STEREO)
 50
180.0
 41
0.7
 11
-137.78121730306711
 21
188.40238796906121
 31
0.0
 73
     3
  0
TEXT
  5
4D6
  8
DATA
 62
     7
 10
-77.83243275505879
 20
190.2419564899001
 30
0.0
 40
2.3037918749999999
  1
REAR
 50
180.0
 41
0.7
 11
-77.83243275505879
 21
187.9381646149001
 31
0.0
 73
     3
  0
TEXT
  5
4D7
  8
DATA
 62
     7
 10
-175.45782568925341
 20
190.2419564899001
 30
0.0
 40
2.3037918749999999
  1
REAR
 50
180.0
 41
0.7
 11
-175.45782568925341
 21
187.9381646149001
 31
0.0
 73
     3
  0
LINE
  5
4D8
  8
DATA
  6
CONTINUOUS
 62
     7
 10
-9.0000000000000284
 20
219.17581308679249
 30
0.0
 11
-206.84975763820691
 21
219.17581308679249
 31
0.0
  0
LINE
  5
4D9
  8
DATA
  6
CONTINUOUS
 62
     7
 10
-9.0000000000000284
 20
219.17581308679249
 30
0.0
 11
-9.0000000000000284
 21
187.374943129575
 31
0.0
  0
LINE
  5
4DA
  8
DATA
  6
CONTINUOUS
 62
     7
 10
-9.0000000000000284
 20
187.374943129575
 30
0.0
 11
-116.1494741311223
 21
187.374943129575
 31
0.0
  0
LINE
  5
4DB
  8
DATA
  6
CONTINUOUS
 62
     7
 10
-126.11894985653269
 20
187.374943129575
 30
0.0
 11
-140.1494741311225
 21
187.374943129575
 31
0.0
  0
LINE
  5
4DC
  8
DATA
  6
CONTINUOUS
 62
     7
 10
-150.11894985653271
 20
187.374943129575
 30
0.0
 11
-164.14947413112219
 21
187.374943129575
 31
0.0
  0
LINE
  5
4DD
  8
DATA
  6
CONTINUOUS
 62
     7
 10
-174.11894985653271
 20
187.374943129575
 30
0.0
 11
-188.1494741311221
 21
187.374943129575
 31
0.0
  0
LINE
  5
4DE
  8
DATA
  6
CONTINUOUS
 62
     7
 10
-198.11894985653271
 20
187.374943129575
 30
0.0
 11
-206.84975763820691
 21
187.374943129575
 31
0.0
  0
LINE
  5
4DF
  8
DATA
  6
CONTINUOUS
 62
     7
 10
-206.84975763820691
 20
187.374943129575
 30
0.0
 11
-206.84975763820691
 21
219.17581308679249
 31
0.0
  0
LINE
  5
4E0
  8
DATA
  6
CONTINUOUS
 62
     7
 10
-60.077111625988692
 20
187.374943129575
 30
0.0
 11
-60.077111625988692
 21
219.19999999999999
 31
0.0
  0
LINE
  5
4E1
  8
DATA
  6
CONTINUOUS
 62
     7
 10
-108.60350756639571
 20
187.374943129575
 30
0.0
 11
-108.60350756639571
 21
219.30000000000001
 31
0.0
  0
LINE
  5
4E2
  8
DATA
  6
CONTINUOUS
 62
     7
 10
-157.17728747803289
 20
187.374943129575
 30
0.0
 11
-157.17728747803289
 21
219.17581308679249
 31
0.0
  0
LINE
  5
4E3
  8
DATA
  6
CONTINUOUS
 62
     7
 10
180.90683446163681
 20
47.0
 30
0.0
 11
180.90683446163681
 21
43.0
 31
0.0
  0
LINE
  5
4E4
  8
DATA
  6
CONTINUOUS
 62
     7
 10
210.90683446163681
 20
47.0
 30
0.0
 11
210.90683446163681
 21
43.0
 31
0.0
  0
LINE
  5
4E5
  8
DATA
  6
CONTINUOUS
 62
     7
 10
180.90683446163681
 20
47.0
 30
0.0
 11
210.90683446163681
 21
47.0
 31
0.0
  0
LINE
  5
4E6
  8
DATA
  6
CONTINUOUS
 62
     7
 10
90.638784067832205
 20
45.0
 30
0.0
 11
90.638784067832205
 21
43.0
 31
0.0
  0
LINE
  5
4E7
  8
DATA
  6
CONTINUOUS
 62
     7
 10
105.3612159321676
 20
45.0
 30
0.0
 11
105.3612159321676
 21
43.0
 31
0.0
  0
LINE
  5
4E8
  8
DATA
  6
CONTINUOUS
 62
     7
 10
90.638784067832205
 20
45.0
 30
0.0
 11
105.3612159321676
 21
45.0
 31
0.0
  0
LINE
  5
4E9
  8
DATA
  6
CONTINUOUS
 62
     7
 10
92.499999999999943
 20
49.0
 30
0.0
 11
92.499999999999943
 21
45.0
 31
0.0
  0
LINE
  5
4EA
  8
DATA
  6
CONTINUOUS
 62
     7
 10
103.4999999999999
 20
49.0
 30
0.0
 11
103.4999999999999
 21
45.0
 31
0.0
  0
LINE
  5
4EB
  8
DATA
  6
CONTINUOUS
 62
     7
 10
6.7999999999999261
 20
48.0
 30
0.0
 11
6.7999999999999261
 21
43.0
 31
0.0
  0
LINE
  5
4EC
  8
DATA
  6
CONTINUOUS
 62
     7
 10
15.19999999999993
 20
48.0
 30
0.0
 11
15.19999999999993
 21
43.0
 31
0.0
  0
LINE
  5
4ED
  8
DATA
  6
CONTINUOUS
 62
     7
 10
20.799999999999919
 20
48.0
 30
0.0
 11
20.799999999999919
 21
43.0
 31
0.0
  0
LINE
  5
4EE
  8
DATA
  6
CONTINUOUS
 62
     7
 10
29.199999999999928
 20
48.0
 30
0.0
 11
29.199999999999928
 21
43.0
 31
0.0
  0
LINE
  5
4EF
  8
DATA
  6
CONTINUOUS
 62
     7
 10
103.4999999999999
 20
49.0
 30
0.0
 11
92.499999999999943
 21
49.0
 31
0.0
  0
LINE
  5
4F0
  8
DATA
  6
CONTINUOUS
 62
     7
 10
29.199999999999928
 20
48.0
 30
0.0
 11
20.79999999999994
 21
48.0
 31
0.0
  0
LINE
  5
4F1
  8
DATA
  6
CONTINUOUS
 62
     7
 10
15.199999999999919
 20
48.0
 30
0.0
 11
6.7999999999999403
 21
48.0
 31
0.0
  0
LINE
  5
4F2
  8
DATA
  6
CONTINUOUS
 62
     7
 10
-188.1494741311221
 20
45.0
 30
0.0
 11
-198.11894985653271
 21
45.0
 31
0.0
  0
LINE
  5
4F3
  8
DATA
  6
CONTINUOUS
 62
     7
 10
-198.11894985653271
 20
45.0
 30
0.0
 11
-198.11894985653271
 21
44.200000000000003
 31
0.0
  0
LINE
  5
4F4
  8
DATA
  6
CONTINUOUS
 62
     7
 10
-188.1494741311221
 20
45.0
 30
0.0
 11
-188.1494741311221
 21
44.200000000000003
 31
0.0
  0
LINE
  5
4F5
  8
DATA
  6
CONTINUOUS
 62
     7
 10
-188.1494741311221
 20
44.200000000000003
 30
0.0
 11
-198.11894985653271
 21
44.200000000000003
 31
0.0
  0
LINE
  5
4F6
  8
DATA
  6
CONTINUOUS
 62
     7
 10
-190.7342119938273
 20
44.200000000000003
 30
0.0
 11
-190.7342119938273
 21
43.0
 31
0.0
  0
LINE
  5
4F7
  8
DATA
  6
CONTINUOUS
 62
     7
 10
-195.5342119938274
 20
43.0
 30
0.0
 11
-195.5342119938274
 21
44.200000000000003
 31
0.0
  0
LINE
  5
4F8
  8
DATA
  6
CONTINUOUS
 62
     7
 10
-164.1494741311221
 20
45.0
 30
0.0
 11
-174.11894985653271
 21
45.0
 31
0.0
  0
LINE
  5
4F9
  8
DATA
  6
CONTINUOUS
 62
     7
 10
-174.11894985653271
 20
45.0
 30
0.0
 11
-174.11894985653271
 21
44.200000000000003
 31
0.0
  0
LINE
  5
4FA
  8
DATA
  6
CONTINUOUS
 62
     7
 10
-164.1494741311221
 20
45.0
 30
0.0
 11
-164.1494741311221
 21
44.200000000000003
 31
0.0
  0
LINE
  5
4FB
  8
DATA
  6
CONTINUOUS
 62
     7
 10
-164.1494741311221
 20
44.200000000000003
 30
0.0
 11
-174.11894985653271
 21
44.200000000000003
 31
0.0
  0
LINE
  5
4FC
  8
DATA
  6
CONTINUOUS
 62
     7
 10
-166.73421199382739
 20
44.200000000000003
 30
0.0
 11
-166.73421199382739
 21
43.0
 31
0.0
  0
LINE
  5
4FD
  8
DATA
  6
CONTINUOUS
 62
     7
 10
-171.5342119938274
 20
43.0
 30
0.0
 11
-171.5342119938274
 21
44.200000000000003
 31
0.0
  0
LINE
  5
4FE
  8
DATA
  6
CONTINUOUS
 62
     7
 10
-140.1494741311221
 20
45.0
 30
0.0
 11
-150.11894985653271
 21
45.0
 31
0.0
  0
LINE
  5
4FF
  8
DATA
  6
CONTINUOUS
 62
     7
 10
-150.11894985653271
 20
45.0
 30
0.0
 11
-150.11894985653271
 21
44.200000000000003
 31
0.0
  0
LINE
  5
500
  8
DATA
  6
CONTINUOUS
 62
     7
 10
-140.1494741311221
 20
45.0
 30
0.0
 11
-140.1494741311221
 21
44.200000000000003
 31
0.0
  0
LINE
  5
501
  8
DATA
  6
CONTINUOUS
 62
     7
 10
-140.1494741311221
 20
44.200000000000003
 30
0.0
 11
-150.11894985653271
 21
44.200000000000003
 31
0.0
  0
LINE
  5
502
  8
DATA
  6
CONTINUOUS
 62
     7
 10
-142.73421199382739
 20
44.200000000000003
 30
0.0
 11
-142.73421199382739
 21
43.0
 31
0.0
  0
LINE
  5
503
  8
DATA
  6
CONTINUOUS
 62
     7
 10
-147.5342119938274
 20
43.0
 30
0.0
 11
-147.5342119938274
 21
44.200000000000003
 31
0.0
  0
LINE
  5
504
  8
DATA
  6
CONTINUOUS
 62
     7
 10
-116.1494741311221
 20
45.0
 30
0.0
 11
-126.11894985653269
 21
45.0
 31
0.0
  0
LINE
  5
505
  8
DATA
  6
CONTINUOUS
 62
     7
 10
-126.11894985653269
 20
45.0
 30
0.0
 11
-126.11894985653269
 21
44.200000000000003
 31
0.0
  0
LINE
  5
506
  8
DATA
  6
CONTINUOUS
 62
     7
 10
-116.1494741311221
 20
45.0
 30
0.0
 11
-116.1494741311221
 21
44.200000000000003
 31
0.0
  0
LINE
  5
507
  8
DATA
  6
CONTINUOUS
 62
     7
 10
-116.1494741311221
 20
44.200000000000003
 30
0.0
 11
-126.11894985653269
 21
44.200000000000003
 31
0.0
  0
LINE
  5
508
  8
DATA
  6
CONTINUOUS
 62
     7
 10
-118.7342119938274
 20
44.200000000000003
 30
0.0
 11
-118.7342119938274
 21
43.0
 31
0.0
  0
LINE
  5
509
  8
DATA
  6
CONTINUOUS
 62
     7
 10
-123.5342119938274
 20
43.0
 30
0.0
 11
-123.5342119938274
 21
44.200000000000003
 31
0.0
  0
LINE
  5
50A
  8
DATA
  6
CONTINUOUS
 62
     7
 10
315.0
 20
-175.0
 30
0.0
 11
478.0
 21
-175.0
 31
0.0
  0
LINE
  5
50B
  8
DATA
  6
CONTINUOUS
 62
     7
 10
315.0
 20
-220.0
 30
0.0
 11
478.0
 21
-220.0
 31
0.0
  0
LINE
  5
50C
  8
DATA
  6
CONTINUOUS
 62
     7
 10
315.0
 20
-220.0
 30
0.0
 11
315.0
 21
-175.0
 31
0.0
  0
LINE
  5
50D
  8
DATA
  6
CONTINUOUS
 62
     7
 10
478.0
 20
-220.0
 30
0.0
 11
478.0
 21
-175.0
 31
0.0
  0
LINE
  5
50E
  8
DATA
  6
CONTINUOUS
 62
     7
 10
319.0
 20
-220.0
 30
0.0
 11
319.0
 21
-175.0
 31
0.0
  0
LINE
  5
50F
  8
DATA
  6
CONTINUOUS
 62
     7
 10
-219.5
 20
-99.700000000000003
 30
0.0
 11
-219.5
 21
-97.299999999999983
 31
0.0
  0
LINE
  5
510
  8
DATA
  6
CONTINUOUS
 62
     7
 10
-217.0
 20
-101.7
 30
0.0
 11
-217.5
 21
-101.7
 31
0.0
  0
LINE
  5
511
  8
DATA
  6
CONTINUOUS
 62
     7
 10
-217.5
 20
-95.299999999999983
 30
0.0
 11
-217.0
 21
-95.299999999999983
 31
0.0
  0
LINE
  5
512
  8
DATA
  6
CONTINUOUS
 62
     7
 10
-219.5
 20
28.29999999999999
 30
0.0
 11
-219.5
 21
30.699999999999989
 31
0.0
  0
LINE
  5
513
  8
DATA
  6
CONTINUOUS
 62
     7
 10
-217.0
 20
26.29999999999999
 30
0.0
 11
-217.5
 21
26.29999999999999
 31
0.0
  0
LINE
  5
514
  8
DATA
  6
CONTINUOUS
 62
     7
 10
-217.5
 20
32.699999999999989
 30
0.0
 11
-217.0
 21
32.699999999999989
 31
0.0
  0
LINE
  5
515
  8
DATA
  6
CONTINUOUS
 62
     7
 10
220.5
 20
26.29999999999999
 30
0.0
 11
220.0
 21
26.29999999999999
 31
0.0
  0
LINE
  5
516
  8
DATA
  6
CONTINUOUS
 62
     7
 10
222.5
 20
30.699999999999989
 30
0.0
 11
222.5
 21
28.29999999999999
 31
0.0
  0
LINE
  5
517
  8
DATA
  6
CONTINUOUS
 62
     7
 10
220.0
 20
32.699999999999989
 30
0.0
 11
220.5
 21
32.699999999999989
 31
0.0
  0
LINE
  5
518
  8
DATA
  6
CONTINUOUS
 62
     7
 10
220.5
 20
-101.7
 30
0.0
 11
220.0
 21
-101.7
 31
0.0
  0
LINE
  5
519
  8
DATA
  6
CONTINUOUS
 62
     7
 10
222.5
 20
-97.299999999999997
 30
0.0
 11
222.5
 21
-99.700000000000003
 31
0.0
  0
LINE
  5
51A
  8
DATA
  6
CONTINUOUS
 62
     7
 10
220.0
 20
-95.299999999999983
 30
0.0
 11
220.5
 21
-95.299999999999983
 31
0.0
  0
ARC
  5
51B
  8
DATA
  6
CONTINUOUS
 62
     7
 10
-217.5
 20
-99.700000000000003
 30
0.0
 40
2.0
 50
180.0
 51
270.0
  0
ARC
  5
51C
  8
DATA
  6
CONTINUOUS
 62
     7
 10
-217.5
 20
-97.299999999999983
 30
0.0
 40
2.0
 50
90.0
 51
180.0
  0
ARC
  5
51D
  8
DATA
  6
CONTINUOUS
 62
     7
 10
-217.5
 20
30.699999999999989
 30
0.0
 40
2.0
 50
90.0
 51
180.0
  0
ARC
  5
51E
  8
DATA
  6
CONTINUOUS
 62
     7
 10
-217.5
 20
28.29999999999999
 30
0.0
 40
2.0
 50
180.0
 51
270.0
  0
ARC
  5
51F
  8
DATA
  6
CONTINUOUS
 62
     7
 10
220.5
 20
30.699999999999989
 30
0.0
 40
2.0
 50
0.0
 51
90.0
  0
ARC
  5
520
  8
DATA
  6
CONTINUOUS
 62
     7
 10
220.5
 20
28.29999999999999
 30
0.0
 40
2.0
 50
270.0
 51
0.0
  0
ARC
  5
521
  8
DATA
  6
CONTINUOUS
 62
     7
 10
220.5
 20
-97.299999999999997
 30
0.0
 40
2.0
 50
0.0
 51
90.0
  0
ARC
  5
522
  8
DATA
  6
CONTINUOUS
 62
     7
 10
220.5
 20
-99.700000000000003
 30
0.0
 40
2.0
 50
270.0
 51
0.0
  0
LINE
  5
523
  8
DATA
  6
CONTINUOUS
 62
     7
 10
318.0
 20
-220.0
 30
0.0
 11
318.0
 21
-175.0
 31
0.0
  0
ARC
  5
524
  8
DATA
  6
CONTINUOUS
 62
     7
 10
364.80000000000001
 20
-210.0
 30
0.0
 40
0.8000000000000113
 50
89.999999999995936
 51
270.00000000000398
  0
ARC
  5
525
  8
DATA
  6
CONTINUOUS
 62
     7
 10
378.7000000000001
 20
-210.0
 30
0.0
 40
0.8000000000000113
 50
269.99999999999591
 51
90.000000000004064
  0
LINE
  5
526
  8
DATA
  6
CONTINUOUS
 62
     7
 10
364.80000000000001
 20
-209.19999999999999
 30
0.0
 11
378.69999999999999
 21
-209.19999999999999
 31
0.0
  0
LINE
  5
527
  8
DATA
  6
CONTINUOUS
 62
     7
 10
378.69999999999999
 20
-210.80000000000001
 30
0.0
 11
364.80000000000001
 21
-210.80000000000001
 31
0.0
  0
ARC
  5
528
  8
DATA
  6
CONTINUOUS
 62
     7
 10
364.80000000000001
 20
-205.0
 30
0.0
 40
0.8000000000000113
 50
89.999999999995936
 51
270.00000000000398
  0
ARC
  5
529
  8
DATA
  6
CONTINUOUS
 62
     7
 10
378.7000000000001
 20
-205.0
 30
0.0
 40
0.8000000000000113
 50
269.99999999999591
 51
90.000000000004064
  0
LINE
  5
52A
  8
DATA
  6
CONTINUOUS
 62
     7
 10
364.80000000000001
 20
-204.19999999999999
 30
0.0
 11
378.69999999999999
 21
-204.19999999999999
 31
0.0
  0
LINE
  5
52B
  8
DATA
  6
CONTINUOUS
 62
     7
 10
378.69999999999999
 20
-205.80000000000001
 30
0.0
 11
364.80000000000001
 21
-205.80000000000001
 31
0.0
  0
ARC
  5
52C
  8
DATA
  6
CONTINUOUS
 62
     7
 10
364.80000000000001
 20
-200.0
 30
0.0
 40
0.8000000000000113
 50
89.999999999995936
 51
270.00000000000398
  0
ARC
  5
52D
  8
DATA
  6
CONTINUOUS
 62
     7
 10
378.7000000000001
 20
-200.0
 30
0.0
 40
0.8000000000000113
 50
269.99999999999591
 51
90.000000000004064
  0
LINE
  5
52E
  8
DATA
  6
CONTINUOUS
 62
     7
 10
364.80000000000001
 20
-199.19999999999999
 30
0.0
 11
378.69999999999999
 21
-199.19999999999999
 31
0.0
  0
LINE
  5
52F
  8
DATA
  6
CONTINUOUS
 62
     7
 10
378.69999999999999
 20
-200.80000000000001
 30
0.0
 11
364.80000000000001
 21
-200.80000000000001
 31
0.0
  0
ARC
  5
530
  8
DATA
  6
CONTINUOUS
 62
     7
 10
364.80000000000001
 20
-195.0
 30
0.0
 40
0.8000000000000113
 50
89.999999999995936
 51
270.00000000000398
  0
ARC
  5
531
  8
DATA
  6
CONTINUOUS
 62
     7
 10
378.7000000000001
 20
-195.0
 30
0.0
 40
0.8000000000000113
 50
269.99999999999591
 51
90.000000000004064
  0
LINE
  5
532
  8
DATA
  6
CONTINUOUS
 62
     7
 10
364.80000000000001
 20
-194.19999999999999
 30
0.0
 11
378.69999999999999
 21
-194.19999999999999
 31
0.0
  0
LINE
  5
533
  8
DATA
  6
CONTINUOUS
 62
     7
 10
378.69999999999999
 20
-195.80000000000001
 30
0.0
 11
364.80000000000001
 21
-195.80000000000001
 31
0.0
  0
ARC
  5
534
  8
DATA
  6
CONTINUOUS
 62
     7
 10
364.80000000000001
 20
-190.0
 30
0.0
 40
0.8000000000000113
 50
89.999999999995936
 51
270.00000000000398
  0
ARC
  5
535
  8
DATA
  6
CONTINUOUS
 62
     7
 10
378.7000000000001
 20
-190.0
 30
0.0
 40
0.8000000000000113
 50
269.99999999999591
 51
90.000000000004064
  0
LINE
  5
536
  8
DATA
  6
CONTINUOUS
 62
     7
 10
364.80000000000001
 20
-189.19999999999999
 30
0.0
 11
378.69999999999999
 21
-189.19999999999999
 31
0.0
  0
LINE
  5
537
  8
DATA
  6
CONTINUOUS
 62
     7
 10
378.69999999999999
 20
-190.80000000000001
 30
0.0
 11
364.80000000000001
 21
-190.80000000000001
 31
0.0
  0
ARC
  5
538
  8
DATA
  6
CONTINUOUS
 62
     7
 10
384.80000000000001
 20
-210.0
 30
0.0
 40
0.8000000000000113
 50
89.999999999995936
 51
270.00000000000398
  0
ARC
  5
539
  8
DATA
  6
CONTINUOUS
 62
     7
 10
398.7000000000001
 20
-210.0
 30
0.0
 40
0.8000000000000113
 50
269.99999999999591
 51
90.000000000004064
  0
LINE
  5
53A
  8
DATA
  6
CONTINUOUS
 62
     7
 10
384.80000000000001
 20
-209.19999999999999
 30
0.0
 11
398.69999999999999
 21
-209.19999999999999
 31
0.0
  0
LINE
  5
53B
  8
DATA
  6
CONTINUOUS
 62
     7
 10
398.69999999999999
 20
-210.80000000000001
 30
0.0
 11
384.80000000000001
 21
-210.80000000000001
 31
0.0
  0
ARC
  5
53C
  8
DATA
  6
CONTINUOUS
 62
     7
 10
384.80000000000001
 20
-205.0
 30
0.0
 40
0.8000000000000113
 50
89.999999999995936
 51
270.00000000000398
  0
ARC
  5
53D
  8
DATA
  6
CONTINUOUS
 62
     7
 10
398.7000000000001
 20
-205.0
 30
0.0
 40
0.8000000000000113
 50
269.99999999999591
 51
90.000000000004064
  0
LINE
  5
53E
  8
DATA
  6
CONTINUOUS
 62
     7
 10
384.80000000000001
 20
-204.19999999999999
 30
0.0
 11
398.69999999999999
 21
-204.19999999999999
 31
0.0
  0
LINE
  5
53F
  8
DATA
  6
CONTINUOUS
 62
     7
 10
398.69999999999999
 20
-205.80000000000001
 30
0.0
 11
384.80000000000001
 21
-205.80000000000001
 31
0.0
  0
ARC
  5
540
  8
DATA
  6
CONTINUOUS
 62
     7
 10
384.80000000000001
 20
-200.0
 30
0.0
 40
0.8000000000000113
 50
89.999999999995936
 51
270.00000000000398
  0
ARC
  5
541
  8
DATA
  6
CONTINUOUS
 62
     7
 10
398.7000000000001
 20
-200.0
 30
0.0
 40
0.8000000000000113
 50
269.99999999999591
 51
90.000000000004064
  0
LINE
  5
542
  8
DATA
  6
CONTINUOUS
 62
     7
 10
384.80000000000001
 20
-199.19999999999999
 30
0.0
 11
398.69999999999999
 21
-199.19999999999999
 31
0.0
  0
LINE
  5
543
  8
DATA
  6
CONTINUOUS
 62
     7
 10
398.69999999999999
 20
-200.80000000000001
 30
0.0
 11
384.80000000000001
 21
-200.80000000000001
 31
0.0
  0
ARC
  5
544
  8
DATA
  6
CONTINUOUS
 62
     7
 10
384.80000000000001
 20
-195.0
 30
0.0
 40
0.8000000000000113
 50
89.999999999995936
 51
270.00000000000398
  0
ARC
  5
545
  8
DATA
  6
CONTINUOUS
 62
     7
 10
398.7000000000001
 20
-195.0
 30
0.0
 40
0.8000000000000113
 50
269.99999999999591
 51
90.000000000004064
  0
LINE
  5
546
  8
DATA
  6
CONTINUOUS
 62
     7
 10
384.80000000000001
 20
-194.19999999999999
 30
0.0
 11
398.69999999999999
 21
-194.19999999999999
 31
0.0
  0
LINE
  5
547
  8
DATA
  6
CONTINUOUS
 62
     7
 10
398.69999999999999
 20
-195.80000000000001
 30
0.0
 11
384.80000000000001
 21
-195.80000000000001
 31
0.0
  0
ARC
  5
548
  8
DATA
  6
CONTINUOUS
 62
     7
 10
384.80000000000001
 20
-190.0
 30
0.0
 40
0.8000000000000113
 50
89.999999999995936
 51
270.00000000000398
  0
ARC
  5
549
  8
DATA
  6
CONTINUOUS
 62
     7
 10
398.7000000000001
 20
-190.0
 30
0.0
 40
0.8000000000000113
 50
269.99999999999591
 51
90.000000000004064
  0
LINE
  5
54A
  8
DATA
  6
CONTINUOUS
 62
     7
 10
384.80000000000001
 20
-189.19999999999999
 30
0.0
 11
398.69999999999999
 21
-189.19999999999999
 31
0.0
  0
LINE
  5
54B
  8
DATA
  6
CONTINUOUS
 62
     7
 10
398.69999999999999
 20
-190.80000000000001
 30
0.0
 11
384.80000000000001
 21
-190.80000000000001
 31
0.0
  0
ARC
  5
54C
  8
DATA
  6
CONTINUOUS
 62
     7
 10
404.80000000000001
 20
-210.0
 30
0.0
 40
0.8000000000000113
 50
89.999999999995936
 51
270.00000000000398
  0
ARC
  5
54D
  8
DATA
  6
CONTINUOUS
 62
     7
 10
418.7000000000001
 20
-210.0
 30
0.0
 40
0.8000000000000113
 50
269.99999999999591
 51
90.000000000004064
  0
LINE
  5
54E
  8
DATA
  6
CONTINUOUS
 62
     7
 10
404.80000000000001
 20
-209.19999999999999
 30
0.0
 11
418.69999999999999
 21
-209.19999999999999
 31
0.0
  0
LINE
  5
54F
  8
DATA
  6
CONTINUOUS
 62
     7
 10
418.69999999999999
 20
-210.80000000000001
 30
0.0
 11
404.80000000000001
 21
-210.80000000000001
 31
0.0
  0
ARC
  5
550
  8
DATA
  6
CONTINUOUS
 62
     7
 10
404.80000000000001
 20
-205.0
 30
0.0
 40
0.8000000000000113
 50
89.999999999995936
 51
270.00000000000398
  0
ARC
  5
551
  8
DATA
  6
CONTINUOUS
 62
     7
 10
418.7000000000001
 20
-205.0
 30
0.0
 40
0.8000000000000113
 50
269.99999999999591
 51
90.000000000004064
  0
LINE
  5
552
  8
DATA
  6
CONTINUOUS
 62
     7
 10
404.80000000000001
 20
-204.19999999999999
 30
0.0
 11
418.69999999999999
 21
-204.19999999999999
 31
0.0
  0
LINE
  5
553
  8
DATA
  6
CONTINUOUS
 62
     7
 10
418.69999999999999
 20
-205.80000000000001
 30
0.0
 11
404.80000000000001
 21
-205.80000000000001
 31
0.0
  0
ARC
  5
554
  8
DATA
  6
CONTINUOUS
 62
     7
 10
404.80000000000001
 20
-200.0
 30
0.0
 40
0.8000000000000113
 50
89.999999999995936
 51
270.00000000000398
  0
ARC
  5
555
  8
DATA
  6
CONTINUOUS
 62
     7
 10
418.7000000000001
 20
-200.0
 30
0.0
 40
0.8000000000000113
 50
269.99999999999591
 51
90.000000000004064
  0
LINE
  5
556
  8
DATA
  6
CONTINUOUS
 62
     7
 10
404.80000000000001
 20
-199.19999999999999
 30
0.0
 11
418.69999999999999
 21
-199.19999999999999
 31
0.0
  0
LINE
  5
557
  8
DATA
  6
CONTINUOUS
 62
     7
 10
418.69999999999999
 20
-200.80000000000001
 30
0.0
 11
404.80000000000001
 21
-200.80000000000001
 31
0.0
  0
ARC
  5
558
  8
DATA
  6
CONTINUOUS
 62
     7
 10
404.80000000000001
 20
-195.0
 30
0.0
 40
0.8000000000000113
 50
89.999999999995936
 51
270.00000000000398
  0
ARC
  5
559
  8
DATA
  6
CONTINUOUS
 62
     7
 10
418.7000000000001
 20
-195.0
 30
0.0
 40
0.8000000000000113
 50
269.99999999999591
 51
90.000000000004064
  0
LINE
  5
55A
  8
DATA
  6
CONTINUOUS
 62
     7
 10
404.80000000000001
 20
-194.19999999999999
 30
0.0
 11
418.69999999999999
 21
-194.19999999999999
 31
0.0
  0
LINE
  5
55B
  8
DATA
  6
CONTINUOUS
 62
     7
 10
418.69999999999999
 20
-195.80000000000001
 30
0.0
 11
404.80000000000001
 21
-195.80000000000001
 31
0.0
  0
ARC
  5
55C
  8
DATA
  6
CONTINUOUS
 62
     7
 10
404.80000000000001
 20
-190.0
 30
0.0
 40
0.8000000000000113
 50
89.999999999995936
 51
270.00000000000398
  0
ARC
  5
55D
  8
DATA
  6
CONTINUOUS
 62
     7
 10
418.7000000000001
 20
-190.0
 30
0.0
 40
0.8000000000000113
 50
269.99999999999591
 51
90.000000000004064
  0
LINE
  5
55E
  8
DATA
  6
CONTINUOUS
 62
     7
 10
404.80000000000001
 20
-189.19999999999999
 30
0.0
 11
418.69999999999999
 21
-189.19999999999999
 31
0.0
  0
LINE
  5
55F
  8
DATA
  6
CONTINUOUS
 62
     7
 10
418.69999999999999
 20
-190.80000000000001
 30
0.0
 11
404.80000000000001
 21
-190.80000000000001
 31
0.0
  0
CIRCLE
  5
560
  8
DATA
  6
CONTINUOUS
 62
     7
 10
332.5
 20
-215.0
 30
0.0
 40
3.5
  0
LINE
  5
561
  8
DATA
  6
CONTINUOUS
 62
     7
 10
331.0
 20
-215.0
 30
0.0
 11
334.0
 21
-215.0
 31
0.0
  0
LINE
  5
562
  8
DATA
  6
CONTINUOUS
 62
     7
 10
332.5
 20
-216.5
 30
0.0
 11
332.5
 21
-213.5
 31
0.0
  0
CIRCLE
  5
563
  8
DATA
  6
CONTINUOUS
 62
     7
 10
332.5
 20
-184.0
 30
0.0
 40
3.5
  0
LINE
  5
564
  8
DATA
  6
CONTINUOUS
 62
     7
 10
331.0
 20
-184.0
 30
0.0
 11
334.0
 21
-184.0
 31
0.0
  0
LINE
  5
565
  8
DATA
  6
CONTINUOUS
 62
     7
 10
332.5
 20
-185.5
 30
0.0
 11
332.5
 21
-182.5
 31
0.0
  0
CIRCLE
  5
566
  8
DATA
  6
CONTINUOUS
 62
     7
 10
447.0
 20
-215.0
 30
0.0
 40
3.5
  0
LINE
  5
567
  8
DATA
  6
CONTINUOUS
 62
     7
 10
445.5
 20
-215.0
 30
0.0
 11
448.5
 21
-215.0
 31
0.0
  0
LINE
  5
568
  8
DATA
  6
CONTINUOUS
 62
     7
 10
447.0
 20
-216.5
 30
0.0
 11
447.0
 21
-213.5
 31
0.0
  0
LINE
  5
569
  8
DATA
  6
CONTINUOUS
 62
     7
 10
482.0
 20
-217.80000000000001
 30
0.0
 11
482.0
 21
-183.80000000000001
 31
0.0
  0
LINE
  5
56A
  8
DATA
  6
CONTINUOUS
 62
     7
 10
478.0
 20
-183.80000000000001
 30
0.0
 11
482.0
 21
-183.80000000000001
 31
0.0
  0
LINE
  5
56B
  8
DATA
  6
CONTINUOUS
 62
     7
 10
478.0
 20
-217.80000000000001
 30
0.0
 11
482.0
 21
-217.80000000000001
 31
0.0
  0
LINE
  5
56C
  8
DATA
  6
CONTINUOUS
 62
     7
 10
298.59049704959648
 20
-214.0
 30
0.0
 11
298.59049704959648
 21
-193.0
 31
0.0
  0
LINE
  5
56D
  8
DATA
  6
CONTINUOUS
 62
     7
 10
298.59049704959648
 20
-193.0
 30
0.0
 11
311.22695335351852
 21
-192.53231231561239
 31
0.0
  0
LINE
  5
56E
  8
DATA
  6
CONTINUOUS
 62
     7
 10
312.81919523753129
 20
-192.0040032842544
 30
0.0
 11
314.99999999970021
 21
-190.5
 31
0.0
  0
ARC
  5
56F
  8
DATA
  6
CONTINUOUS
 62
     7
 10
311.1159963701204
 20
-189.5343649265084
 30
0.0
 40
3.0000000000000031
 50
272.11960572143568
 51
304.59228868750961
  0
LINE
  5
570
  8
DATA
  6
CONTINUOUS
 62
     7
 10
298.59049704959648
 20
-214.0
 30
0.0
 11
311.22695335351852
 21
-214.46768768438761
 31
0.0
  0
LINE
  5
571
  8
DATA
  6
CONTINUOUS
 62
     7
 10
312.81919523753129
 20
-214.9959967157456
 30
0.0
 11
314.99999999970021
 21
-216.5
 31
0.0
  0
ARC
  5
572
  8
DATA
  6
CONTINUOUS
 62
     7
 10
311.1159963701204
 20
-217.46563507349151
 30
0.0
 40
2.999999999999972
 50
55.407711312490427
 51
87.880394278564339
  0
ARC
  5
573
  8
DATA
  6
CONTINUOUS
 62
     7
 10
391.64880551477762
 20
-203.5
 30
0.0
 40
93.648805515077285
 50
173.56240218407291
 51
186.43759781592701
  0
LINE
  5
574
  8
DATA
  6
CONTINUOUS
 62
     7
 10
311.5
 20
-182.75
 30
0.0
 11
315.0
 21
-182.75
 31
0.0
  0
LINE
  5
575
  8
DATA
  6
CONTINUOUS
 62
     7
 10
311.5
 20
-188.25
 30
0.0
 11
315.0
 21
-188.25
 31
0.0
  0
LINE
  5
576
  8
DATA
  6
CONTINUOUS
 62
     7
 10
311.5
 20
-206.75
 30
0.0
 11
315.0
 21
-206.75
 31
0.0
  0
LINE
  5
577
  8
DATA
  6
CONTINUOUS
 62
     7
 10
311.5
 20
-212.25
 30
0.0
 11
315.0
 21
-212.25
 31
0.0
  0
LINE
  5
578
  8
DATA
  6
CONTINUOUS
 62
     7
 10
311.5
 20
-212.25
 30
0.0
 11
311.5
 21
-206.75
 31
0.0
  0
LINE
  5
579
  8
DATA
  6
CONTINUOUS
 62
     7
 10
311.5
 20
-188.25
 30
0.0
 11
311.5
 21
-182.75
 31
0.0
  0
LINE
  5
57A
  8
DATA
  6
CONTINUOUS
 62
     7
 10
311.5
 20
-177.0
 30
0.0
 11
315.0
 21
-177.0
 31
0.0
  0
LINE
  5
57B
  8
DATA
  6
CONTINUOUS
 62
     7
 10
311.5
 20
-182.5
 30
0.0
 11
315.0
 21
-182.5
 31
0.0
  0
LINE
  5
57C
  8
DATA
  6
CONTINUOUS
 62
     7
 10
311.5
 20
-182.5
 30
0.0
 11
311.5
 21
-177.0
 31
0.0
  0
LINE
  5
57D
  8
DATA
  6
CONTINUOUS
 62
     7
 10
313.19529704719412
 20
-204.94999999999999
 30
0.0
 11
315.0
 21
-204.94999999999999
 31
0.0
  0
ARC
  5
57E
  8
DATA
  6
CONTINUOUS
 62
     7
 10
304.88556040053061
 20
-196.5624277515706
 30
0.0
 40
10.45268749064082
 50
317.600977674511
 51
345.38430908292082
  0
ARC
  5
57F
  8
DATA
  6
CONTINUOUS
 62
     7
 10
313.19529704719412
 20
-204.14999999999969
 30
0.0
 40
0.8000000000003756
 50
137.6009776745245
 51
270.0
  0
LINE
  5
580
  8
DATA
  6
CONTINUOUS
 62
     7
 10
484.0
 20
-213.5
 30
0.0
 11
484.0
 21
-202.5
 31
0.0
  0
LINE
  5
581
  8
DATA
  6
CONTINUOUS
 62
     7
 10
484.0
 20
-213.5
 30
0.0
 11
482.0
 21
-213.5
 31
0.0
  0
LINE
  5
582
  8
DATA
  6
CONTINUOUS
 62
     7
 10
482.0
 20
-202.5
 30
0.0
 11
484.0
 21
-202.5
 31
0.0
  0
LINE
  5
583
  8
DATA
  6
CONTINUOUS
 62
     7
 10
220.49999999999989
 20
211.80000000000001
 30
0.0
 11
220.0
 21
211.80000000000001
 31
0.0
  0
LINE
  5
584
  8
DATA
  6
CONTINUOUS
 62
     7
 10
222.49999999999989
 20
216.19999999999999
 30
0.0
 11
222.49999999999989
 21
213.80000000000001
 31
0.0
  0
LINE
  5
585
  8
DATA
  6
CONTINUOUS
 62
     7
 10
220.0
 20
218.19999999999999
 30
0.0
 11
220.49999999999989
 21
218.19999999999999
 31
0.0
  0
ARC
  5
586
  8
DATA
  6
CONTINUOUS
 62
     7
 10
220.49999999999989
 20
216.19999999999999
 30
0.0
 40
2.0
 50
0.0
 51
90.0
  0
ARC
  5
587
  8
DATA
  6
CONTINUOUS
 62
     7
 10
220.49999999999989
 20
213.80000000000001
 30
0.0
 40
2.0
 50
270.0
 51
0.0
  0
LINE
  5
588
  8
DATA
  6
CONTINUOUS
 62
     7
 10
220.49999999999989
 20
180.80000000000001
 30
0.0
 11
220.0
 21
180.80000000000001
 31
0.0
  0
LINE
  5
589
  8
DATA
  6
CONTINUOUS
 62
     7
 10
222.49999999999989
 20
185.19999999999999
 30
0.0
 11
222.49999999999989
 21
182.80000000000001
 31
0.0
  0
LINE
  5
58A
  8
DATA
  6
CONTINUOUS
 62
     7
 10
220.0
 20
187.19999999999999
 30
0.0
 11
220.49999999999989
 21
187.19999999999999
 31
0.0
  0
ARC
  5
58B
  8
DATA
  6
CONTINUOUS
 62
     7
 10
220.49999999999989
 20
185.19999999999999
 30
0.0
 40
2.0
 50
0.0
 51
90.0
  0
ARC
  5
58C
  8
DATA
  6
CONTINUOUS
 62
     7
 10
220.49999999999989
 20
182.80000000000001
 30
0.0
 40
2.0
 50
270.0
 51
0.0
  0
LINE
  5
58D
  8
DATA
  6
CONTINUOUS
 62
     7
 10
-217.49999999999989
 20
211.88267853436139
 30
0.0
 11
-217.0
 21
211.88267853436139
 31
0.0
  0
LINE
  5
58E
  8
DATA
  6
CONTINUOUS
 62
     7
 10
-219.49999999999989
 20
216.28267853436139
 30
0.0
 11
-219.49999999999989
 21
213.88267853436139
 31
0.0
  0
LINE
  5
58F
  8
DATA
  6
CONTINUOUS
 62
     7
 10
-217.0
 20
218.28267853436139
 30
0.0
 11
-217.49999999999989
 21
218.28267853436139
 31
0.0
  0
ARC
  5
590
  8
DATA
  6
CONTINUOUS
 62
     7
 10
-217.49999999999989
 20
216.28267853436139
 30
0.0
 40
2.0
 50
90.0
 51
180.0
  0
ARC
  5
591
  8
DATA
  6
CONTINUOUS
 62
     7
 10
-217.49999999999989
 20
213.88267853436139
 30
0.0
 40
2.0
 50
180.0
 51
270.0
  0
LINE
  5
592
  8
DATA
  6
CONTINUOUS
 62
     7
 10
-217.49999999999989
 20
180.8826785343613
 30
0.0
 11
-217.0
 21
180.8826785343613
 31
0.0
  0
LINE
  5
593
  8
DATA
  6
CONTINUOUS
 62
     7
 10
-219.49999999999989
 20
185.28267853436131
 30
0.0
 11
-219.49999999999989
 21
182.8826785343613
 31
0.0
  0
LINE
  5
594
  8
DATA
  6
CONTINUOUS
 62
     7
 10
-217.0
 20
187.28267853436131
 30
0.0
 11
-217.49999999999989
 21
187.28267853436131
 31
0.0
  0
ARC
  5
595
  8
DATA
  6
CONTINUOUS
 62
     7
 10
-217.49999999999989
 20
185.28267853436131
 30
0.0
 40
2.0
 50
90.0
 51
180.0
  0
ARC
  5
596
  8
DATA
  6
CONTINUOUS
 62
     7
 10
-217.49999999999989
 20
182.8826785343613
 30
0.0
 40
2.0
 50
180.0
 51
270.0
  0
TEXT
  5
597
  8
DATA
 62
     7
 10
82.154953059480306
 20
186.2204286483759
 30
0.0
 40
3.1166015625000001
  1
MIDI
 50
180.0
 41
0.7
 11
82.154953059480306
 21
183.10382708587591
 31
0.0
 73
     3
  0
LINE
  5
598
  8
DATA
  6
CONTINUOUS
 62
     7
 10
40.0
 20
219.17581308679249
 30
0.0
 11
83.377654997108905
 21
219.17581308679249
 31
0.0
  0
LINE
  5
599
  8
DATA
  6
CONTINUOUS
 62
     7
 10
40.0
 20
219.17581308679249
 30
0.0
 11
40.0
 21
187.374943129575
 31
0.0
  0
LINE
  5
59A
  8
DATA
  6
CONTINUOUS
 62
     7
 10
83.377654997108905
 20
219.17581308679249
 30
0.0
 11
83.377654997108905
 21
187.374943129575
 31
0.0
  0
LINE
  5
59B
  8
DATA
  6
CONTINUOUS
 62
     7
 10
40.0
 20
187.374943129575
 30
0.0
 11
83.377654997108905
 21
187.374943129575
 31
0.0
  0
ARC
  5
59C
  8
DATA
  6
CONTINUOUS
 62
     7
 10
-6.6700028513939884
 20
-203.08124821787879
 30
0.0
 40
16.499999999999879
 50
113.9337648342856
 51
226.2487265890498
  0
TEXT
  5
59D
  8
DATA
 62
     7
 10
312.8950714936521
 20
-419.10166666666669
 30
0.0
 40
8.1442057291666661
  1
デュアルステレオ/サラウンドリバーブレータ ー
 41
0.7
 11
312.8950714936521
 21
-410.9574609375
 31
0.0
 73
     3
  0
ENDSEC
  0
EOF
