  0
SECTION
  2
HEADER
  9
$ACADVER
  1
AC1004
  9
$INSBASE
 10
0.0
 20
0.0
  9
$EXTMIN
 10
-49.63
 20
-51.7125
  9
$EXTMAX
 10
1525.37
 20
2175.7875
  9
$LIMMIN
 10
-49.63
 20
-51.7125
  9
$LIMMAX
 10
1525.37
 20
2175.7875
  9
$VIEWCTR
 10
6.0
 20
4.5
  9
$VIEWSIZE
 40
9.0
  9
$SNAPMODE
 70
     0
  9
$SNAPUNIT
 10
25.0
 20
25.0
  9
$SNAPBASE
 10
0.0
 20
0.0
  9
$SNAPANG
 50
0.0
  9
$SNAPSTYLE
 70
     0
  9
$SNAPISOPAIR
 70
     0
  9
$GRIDMODE
 70
     1
  9
$GRIDUNIT
 10
50.0
 20
50.0
  9
$ORTHOMODE
 70
     0
  9
$REGENMODE
 70
     1
  9
$FILLMODE
 70
     1
  9
$QTEXTMODE
 70
     0
  9
$DRAGMODE
 70
     2
  9
$LTSCALE
 40
1.0
  9
$OSMODE
 70
     1
  9
$ATTMODE
 70
     1
  9
$TEXTSIZE
 40
0.2
  9
$TRACEWID
 40
0.05
  9
$TEXTSTYLE
  7
STANDARD
  9
$CLAYER
  8
DATA
  9
$CELTYPE
  6
CONTINUOUS
  9
$CECOLOR
 62
     7
  9
$DIMSCALE
 40
1.0
  9
$DIMASZ
 40
0.18
  9
$DIMEXO
 40
0.0625
  9
$DIMDLI
 40
0.38
  9
$DIMRND
 40
0.0
  9
$DIMDLE
 40
0.0
  9
$DIMEXE
 40
0.18
  9
$DIMTP
 40
0.0
  9
$DIMTM
 40
0.0
  9
$DIMTXT
 40
0.18
  9
$DIMCEN
 40
0.09
  9
$DIMTSZ
 40
0.0
  9
$DIMTOL
 70
     0
  9
$DIMLIM
 70
     0
  9
$DIMTIH
 70
     1
  9
$DIMTOH
 70
     1
  9
$DIMSE1
 70
     0
  9
$DIMSE2
 70
     0
  9
$DIMTAD
 70
     0
  9
$DIMZIN
 70
     0
  9
$DIMBLK
  1

  9
$DIMASO
 70
     1
  9
$DIMSHO
 70
     1
  9
$DIMPOST
  1

  9
$DIMAPOST
  1

  9
$DIMALT
 70
     0
  9
$DIMALTD
 70
     2
  9
$DIMALTF
 40
25.4
  9
$DIMLFAC
 40
1.0
  9
$LUNITS
 70
     2
  9
$LUPREC
 70
     4
  9
$AXISMODE
 70
     0
  9
$AXISUNIT
 10
0.0
 20
0.0
  9
$SKETCHINC
 40
0.1
  9
$FILLETRAD
 40
2.5
  9
$AUNITS
 70
     0
  9
$AUPREC
 70
     0
  9
$MENU
  1
acad
  9
$ELEVATION
 40
0.0
  9
$THICKNESS
 40
0.0
  9
$VIEWDIR
 10
0.0
 20
0.0
 30
1.0
  9
$LIMCHECK
 70
     0
  9
$BLIPMODE
 70
     1
  9
$CHAMFERA
 40
5.0
  9
$CHAMFERB
 40
5.0
  9
$FASTZOOM
 70
     1
  9
$SKPOLY
 70
     0
  9
$TDCREATE
 40
0.0
  9
$TDUPDATE
 40
0.0
  9
$TDINDWG
 40
0.0
  9
$TDUSRTIMER
 40
0.0
  9
$USRTIMER
 70
     1
  9
$ANGBASE
 50
0.0
  9
$ANGDIR
 70
     0
  9
$PDMODE
 70
     0
  9
$PDSIZE
 40
0.0
  9
$PLINEWID
 40
0.0
  9
$COORDS
 70
     1
  9
$SPLFRAME
 70
     0
  9
$SPLINESEGS
 70
    10
  9
$ATTDIA
 70
     0
  9
$ATTREQ
 70
     1
  9
$USERI1
 70
     0
  9
$USERI2
 70
     0
  9
$USERI3
 70
     0
  9
$USERI4
 70
     0
  9
$USERI5
 70
     0
  9
$USERR1
 40
0.0
  9
$USERR2
 40
0.0
  9
$USERR3
 40
0.0
  9
$USERR4
 40
0.0
  9
$USERR5
 40
0.0
  0
ENDSEC
  0
SECTION
  2
TABLES
  0
TABLE
  2
LTYPE
 70
    11
  0
LTYPE
  2
CONTINUOUS
 70
     0
  3
Solid line
 72
    65
 73
     0
 40
0.0
  0
LTYPE
  2
DASHED
 70
     0
  3
__ __ __ __ __ __ __ __ __ __ __ __ __ __ __
 72
    65
 73
     2
 40
0.75
 49
0.5
 49
-0.25
  0
LTYPE
  2
HIDDEN
 70
     0
  3
_ _ _ _ _ _ _ _ _ _ _ _ _ _ _ _ _ _ _ _ _ _ 
 72
    65
 73
     2
 40
0.25
 49
0.125
 49
-0.125
  0
LTYPE
  2
CENTER
 70
     0
  3
____ _ ____ _ ____ _ ____ _ ____ _ ____ _ __
 72
    65
 73
     4
 40
2.0
 49
1.25
 49
-0.25
 49
0.25
 49
-0.25
  0
LTYPE
  2
PHANTOM
 70
     0
  3
_____ _ _ _____ _ _ _____ _ _ _____ _ _ ____
 72
    65
 73
     6
 40
2.5
 49
1.25
 49
-0.25
 49
0.25
 49
-0.25
 49
0.25
 49
-0.25
  0
LTYPE
  2
DOT
 70
     0
  3
............................................
 72
    65
 73
     2
 40
0.25
 49
0.0
 49
-0.25
  0
LTYPE
  2
DASHDOT
 70
     0
  3
__ . __ . __ . __ . __ . __ . __ . __ . __ .
 72
    65
 73
     4
 40
1.0
 49
0.5
 49
-0.25
 49
0.0
 49
-0.25
  0
LTYPE
  2
BORDER
 70
     0
  3
__ __ . __ __ . __ __ . __ __ . __ __ . __ _
 72
    65
 73
     6
 40
1.75
 49
0.5
 49
-0.25
 49
0.5
 49
-0.25
 49
0.0
 49
-0.25
  0
LTYPE
  2
DIVIDE
 70
     0
  3
__ . . __ . . __ . . __ . . __ . . __ . . __
 72
    65
 73
     6
 40
1.25
 49
0.5
 49
-0.25
 49
0.0
 49
-0.25
 49
0.0
 49
-0.25
  0
LTYPE
  2
DOTS
 70
     0
  3
close                                       
 72
    65
 73
     2
 40
0.1
 49
0.05
 49
-0.05
  0
LTYPE
  2
CLOSE
 70
     0
  3
                                            
 72
    65
 73
     0
 40
0.0
  0
ENDTAB
  0
TABLE
  2
LAYER
 70
     6
  0
LAYER
  2
0
 70
     0
 62
     7
  6
CONTINUOUS
  0
LAYER
  2
LAYER01
 70
     0
 62
     7
  6
CONTINUOUS
  0
LAYER
  2
DATA
 70
     0
 62
     7
  6
CONTINUOUS
  0
LAYER
  2
SPEC
 70
     0
 62
     7
  6
CONTINUOUS
  0
LAYER
  2
HIBINO-BASE
 70
     0
 62
     7
  6
CONTINUOUS
  0
LAYER
  2
DIMENSIONS
 70
     0
 62
     7
  6
CONTINUOUS
  0
ENDTAB
  0
TABLE
  2
STYLE
 70
     2
  0
STYLE
  2
STANDARD
 70
     0
 40
0.0
 41
1.0
 50
0.0
 71
     0
 42
0.2
  3
txt
  4

  0
STYLE
  2
TTF_DEFAULT
 70
     0
 40
0.0
 41
1.0
 50
0.0
 71
     0
 42
0.0
  3
txt
  4
BIGFONT
  0
ENDTAB
  0
TABLE
  2
VIEW
 70
     0
  0
ENDTAB
  0
ENDSEC
  0
SECTION
  2
BLOCKS
  0
ENDSEC
  0
SECTION
  2
ENTITIES
  0
LINE
  8
SPEC
  6
CONTINUOUS
 62
     7
 10
131.25
 20
1959.375
 11
900.0
 21
1959.375
  0
LINE
  8
SPEC
  6
CONTINUOUS
 62
     7
 10
131.25
 20
1987.5
 11
900.0
 21
1987.5
  0
LINE
  8
SPEC
  6
CONTINUOUS
 62
     7
 10
131.25
 20
1931.25
 11
900.0
 21
1931.25
  0
LINE
  8
SPEC
  6
CONTINUOUS
 62
     7
 10
131.25
 20
1903.125
 11
900.0
 21
1903.125
  0
POLYLINE
  8
HIBINO-BASE
  6
CONTINUOUS
 62
     7
 66
     1
 70
     1
 40
2.0
 41
2.0
  0
VERTEX
  8
HIBINO-BASE
 10
75.0
 20
112.5
  0
VERTEX
  8
HIBINO-BASE
 10
75.0
 20
2062.5
  0
VERTEX
  8
HIBINO-BASE
 10
1425.0
 20
2062.5
  0
VERTEX
  8
HIBINO-BASE
 10
1425.0
 20
112.5
  0
SEQEND
  8
HIBINO-BASE
  0
TEXT
  8
SPEC
  6
CONTINUOUS
 62
     7
 10
379.6875
 20
1907.8125
 40
18.75
  1
482.6(W)×177(H)×436.47(D)mm (ハンドルは含まず)
  7
TTF_DEFAULT
  0
LINE
  8
DATA
  6
CONTINUOUS
 62
     7
 10
703.3
 20
854.3
 11
703.3
 21
1245.47
  0
LINE
  8
DATA
  6
CONTINUOUS
 62
     7
 10
279.3
 20
854.3
 11
279.3
 21
1245.47
  0
LINE
  8
DIMENSIONS
  6
CONTINUOUS
 62
     7
 10
200.0
 20
850.0
 11
200.0
 21
1245.47
  0
TEXT
  8
DIMENSIONS
  6
CONTINUOUS
 62
     7
 10
190.625
 20
1016.651834
 40
18.75
  1
395.47
 50
90.0
  7
TTF_DEFAULT
  0
TEXT
  8
DATA
  6
CONTINUOUS
 62
     7
 10
296.370103
 20
645.0
 40
5.0
  1
CLEAN FAN FILTERS REGULARLY
  7
TTF_DEFAULT
  0
LINE
  8
DATA
  6
CONTINUOUS
 62
     7
 10
290.75
 20
839.0
 11
374.25
 21
839.0
  0
LINE
  8
DATA
  6
CONTINUOUS
 62
     7
 10
250.0
 20
727.0
 11
732.6
 21
727.0
  0
LINE
  8
DATA
  6
CONTINUOUS
 62
     7
 10
250.0
 20
550.0
 11
732.6
 21
550.0
  0
LINE
  8
DATA
  6
CONTINUOUS
 62
     7
 10
250.0
 20
854.3
 11
732.6
 21
854.3
  0
LINE
  8
DATA
  6
CONTINUOUS
 62
     7
 10
250.0
 20
852.3
 11
732.6
 21
852.3
  0
LINE
  8
DATA
  6
CONTINUOUS
 62
     7
 10
250.0
 20
852.0
 11
732.6
 21
852.0
  0
LINE
  8
DATA
  6
CONTINUOUS
 62
     7
 10
250.0
 20
850.0
 11
732.6
 21
850.0
  0
TEXT
  8
DATA
  6
CONTINUOUS
 62
     7
 10
334.5
 20
677.0
 40
3.0
  1
TO OVERHEAT
  7
TTF_DEFAULT
  0
TEXT
  8
DATA
  6
CONTINUOUS
 62
     7
 10
334.5
 20
680.5
 40
3.0
  1
THIS MAY CAUSE THE EQUIPMENT
  7
TTF_DEFAULT
  0
TEXT
  8
DATA
  6
CONTINUOUS
 62
     7
 10
334.5
 20
684.0
 40
3.0
  1
ANY VENTILATION SLOTS, AS
  7
TTF_DEFAULT
  0
TEXT
  8
DATA
  6
CONTINUOUS
 62
     7
 10
334.5
 20
687.0
 40
4.0
  1
WARNING:
  7
TTF_DEFAULT
  0
ARC
  8
DATA
  6
CONTINUOUS
 62
     7
 10
332.5
 20
600.25
 40
38.2
 50
72.24009
 51
74.162984
  0
ARC
  8
DATA
  6
CONTINUOUS
 62
     7
 10
362.096138
 20
605.329209
 40
33.985757
 50
116.760404
 51
179.570575
  0
ARC
  8
DATA
  6
CONTINUOUS
 62
     7
 10
359.891514
 20
606.508037
 40
33.985757
 50
117.58847
 51
182.815578
  0
ARC
  8
DATA
  6
CONTINUOUS
 62
     7
 10
314.018181
 20
579.086814
 40
33.985757
 50
333.58847
 51
38.815578
  0
ARC
  8
DATA
  6
CONTINUOUS
 62
     7
 10
311.541706
 20
578.74466
 40
33.985757
 50
333.348651
 51
35.570575
  0
ARC
  8
DATA
  6
CONTINUOUS
 62
     7
 10
346.476325
 20
573.671962
 40
33.985757
 50
47.925627
 51
107.570575
  0
ARC
  8
DATA
  6
CONTINUOUS
 62
     7
 10
346.91619
 20
576.132962
 40
33.985757
 50
48.916969
 51
110.815578
  0
LINE
  8
DATA
  6
CONTINUOUS
 62
     7
 10
374.25
 20
558.5
 11
290.75
 21
558.5
  0
LINE
  8
DATA
  6
CONTINUOUS
 62
     7
 10
290.75
 20
642.0
 11
374.25
 21
642.0
  0
LINE
  8
DIMENSIONS
  6
CONTINUOUS
 62
     7
 10
259.5
 20
500.0
 11
723.1
 21
500.0
  0
LINE
  8
DIMENSIONS
  6
CONTINUOUS
 62
     7
 10
250.0
 20
450.0
 11
732.6
 21
450.0
  0
TEXT
  8
HIBINO-BASE
  6
CONTINUOUS
 62
     7
 10
128.88
 20
64.4349
 40
30.0
  1
Hibino Corporation
  7
TTF_DEFAULT
  0
LINE
  8
DIMENSIONS
  6
CONTINUOUS
 62
     7
 10
259.5
 20
576.7
 11
259.5
 21
490.625
  0
LINE
  8
DIMENSIONS
  6
CONTINUOUS
 62
     7
 10
250.0
 20
542.5
 11
250.0
 21
440.625
  0
LINE
  8
DIMENSIONS
  6
CONTINUOUS
 62
     7
 10
274.5
 20
497.5001
 11
259.5
 21
500.0
  0
LINE
  8
DIMENSIONS
  6
CONTINUOUS
 62
     7
 10
274.5
 20
502.4999
 11
259.5
 21
500.0
  0
LINE
  8
DIMENSIONS
  6
CONTINUOUS
 62
     7
 10
265.0
 20
447.5001
 11
250.0
 21
450.0
  0
LINE
  8
DIMENSIONS
  6
CONTINUOUS
 62
     7
 10
265.0
 20
452.4999
 11
250.0
 21
450.0
  0
LINE
  8
DATA
  6
CONTINUOUS
 62
     7
 10
258.0
 20
692.8
 11
261.0
 21
692.8
  0
ARC
  8
DATA
  6
CONTINUOUS
 62
     7
 10
258.0
 20
676.6
 40
3.5
 50
90.0
 51
270.0
  0
ARC
  8
DATA
  6
CONTINUOUS
 62
     7
 10
261.0
 20
676.6
 40
3.5
 50
270.0
 51
90.0
  0
LINE
  8
DATA
  6
CONTINUOUS
 62
     7
 10
258.0
 20
680.1
 11
261.0
 21
680.1
  0
LINE
  8
DATA
  6
CONTINUOUS
 62
     7
 10
261.0
 20
673.1
 11
258.0
 21
673.1
  0
LINE
  8
DATA
  6
CONTINUOUS
 62
     7
 10
261.0
 20
685.8
 11
258.0
 21
685.8
  0
ARC
  8
DATA
  6
CONTINUOUS
 62
     7
 10
258.0
 20
689.3
 40
3.5
 50
90.0
 51
270.0
  0
ARC
  8
DATA
  6
CONTINUOUS
 62
     7
 10
261.0
 20
689.3
 40
3.5
 50
270.0
 51
90.0
  0
ARC
  8
DATA
  6
CONTINUOUS
 62
     7
 10
258.0
 20
600.4
 40
3.5
 50
90.0
 51
270.0
  0
ARC
  8
DATA
  6
CONTINUOUS
 62
     7
 10
261.0
 20
600.4
 40
3.5
 50
270.0
 51
90.0
  0
LINE
  8
DATA
  6
CONTINUOUS
 62
     7
 10
258.0
 20
603.9
 11
261.0
 21
603.9
  0
LINE
  8
DATA
  6
CONTINUOUS
 62
     7
 10
261.0
 20
596.9
 11
258.0
 21
596.9
  0
ARC
  8
DATA
  6
CONTINUOUS
 62
     7
 10
258.0
 20
587.7
 40
3.5
 50
90.0
 51
270.0
  0
ARC
  8
DATA
  6
CONTINUOUS
 62
     7
 10
261.0
 20
587.7
 40
3.5
 50
270.0
 51
90.0
  0
LINE
  8
DATA
  6
CONTINUOUS
 62
     7
 10
258.0
 20
591.2
 11
261.0
 21
591.2
  0
LINE
  8
DATA
  6
CONTINUOUS
 62
     7
 10
261.0
 20
584.2
 11
258.0
 21
584.2
  0
CIRCLE
  8
DATA
  6
CONTINUOUS
 62
     7
 10
287.0
 20
662.0
 40
4.5
  0
ARC
  8
DATA
  6
CONTINUOUS
 62
     7
 10
273.8
 20
578.5
 40
5.0
 50
180.0
 51
0.0
  0
ARC
  8
DATA
  6
CONTINUOUS
 62
     7
 10
273.8
 20
578.5
 40
7.5
 50
131.810315
 51
48.189685
  0
ARC
  8
DATA
  6
CONTINUOUS
 62
     7
 10
273.8
 20
578.5
 40
6.75
 50
137.794554
 51
42.205446
  0
LINE
  8
DATA
  6
CONTINUOUS
 62
     7
 10
278.8
 20
578.5
 11
278.8
 21
698.5
  0
LINE
  8
DATA
  6
CONTINUOUS
 62
     7
 10
268.8
 20
578.5
 11
268.8
 21
698.5
  0
ARC
  8
DATA
  6
CONTINUOUS
 62
     7
 10
273.8
 20
698.5
 40
5.0
 50
0.0
 51
180.0
  0
ARC
  8
DATA
  6
CONTINUOUS
 62
     7
 10
273.8
 20
698.5
 40
7.5
 50
311.810315
 51
228.189685
  0
ARC
  8
DATA
  6
CONTINUOUS
 62
     7
 10
273.8
 20
698.5
 40
6.75
 50
317.794554
 51
222.205446
  0
ARC
  8
DATA
  6
CONTINUOUS
 62
     7
 10
287.0
 20
569.0
 40
4.5
 50
33.55731
 51
326.44269
  0
LINE
  8
DATA
  6
CONTINUOUS
 62
     7
 10
287.0
 20
566.5
 11
287.0
 21
571.5
  0
LINE
  8
DATA
  6
CONTINUOUS
 62
     7
 10
284.5
 20
569.0
 11
289.5
 21
569.0
  0
LINE
  8
DATA
  6
CONTINUOUS
 62
     7
 10
287.0
 20
659.5
 11
287.0
 21
664.5
  0
LINE
  8
DATA
  6
CONTINUOUS
 62
     7
 10
284.5
 20
662.0
 11
289.5
 21
662.0
  0
LINE
  8
DATA
  6
CONTINUOUS
 62
     7
 10
314.5
 20
714.5
 11
314.5
 21
719.5
  0
LINE
  8
DATA
  6
CONTINUOUS
 62
     7
 10
312.0
 20
717.0
 11
317.0
 21
717.0
  0
CIRCLE
  8
DATA
  6
CONTINUOUS
 62
     7
 10
314.5
 20
717.0
 40
4.5
  0
LINE
  8
DATA
  6
CONTINUOUS
 62
     7
 10
287.0
 20
711.0
 11
287.0
 21
716.0
  0
LINE
  8
DATA
  6
CONTINUOUS
 62
     7
 10
284.5
 20
713.5
 11
289.5
 21
713.5
  0
CIRCLE
  8
DATA
  6
CONTINUOUS
 62
     7
 10
287.0
 20
713.5
 40
4.5
  0
LINE
  8
DATA
  6
CONTINUOUS
 62
     7
 10
250.0
 20
550.0
 11
250.0
 21
727.0
  0
TEXT
  8
DATA
  6
CONTINUOUS
 62
     7
 10
312.0
 20
664.5
 40
5.0
  1
+17V
  7
TTF_DEFAULT
  0
CIRCLE
  8
DATA
  6
CONTINUOUS
 62
     7
 10
307.5
 20
666.0
 40
2.5
  0
TEXT
  8
DATA
  6
CONTINUOUS
 62
     7
 10
312.0
 20
700.0
 40
5.0
  1
+48V
  7
TTF_DEFAULT
  0
CIRCLE
  8
DATA
  6
CONTINUOUS
 62
     7
 10
307.5
 20
701.5
 40
2.5
  0
LINE
  8
DATA
  6
CONTINUOUS
 62
     7
 10
325.946784
 20
604.838611
 11
326.070963
 21
597.724405
  0
LINE
  8
DATA
  6
CONTINUOUS
 62
     7
 10
328.111335
 20
605.583926
 11
334.838974
 21
607.900438
  0
LINE
  8
DATA
  6
CONTINUOUS
 62
     7
 10
336.216693
 20
606.072142
 11
340.498782
 21
600.389619
  0
LINE
  8
DATA
  6
CONTINUOUS
 62
     7
 10
322.07515
 20
637.0
 11
342.92485
 21
637.0
  0
LINE
  8
DATA
  6
CONTINUOUS
 62
     7
 10
326.110916
 20
595.43548
 11
332.915301
 21
593.35517
  0
LINE
  8
DATA
  6
CONTINUOUS
 62
     7
 10
322.07515
 20
563.5
 11
341.916565
 21
563.5
  0
LINE
  8
DATA
  6
CONTINUOUS
 62
     7
 10
335.104545
 20
592.685851
 11
339.185708
 21
598.514356
  0
ARC
  8
DATA
  6
CONTINUOUS
 62
     7
 10
332.5
 20
600.25
 40
38.2
 50
144.24009
 51
164.162984
  0
ARC
  8
DATA
  6
CONTINUOUS
 62
     7
 10
332.5
 20
600.25
 40
38.2
 50
195.837016
 51
212.026335
  0
LINE
  8
DATA
  6
CONTINUOUS
 62
     7
 10
295.75
 20
589.82515
 11
295.75
 21
610.67485
  0
LINE
  8
DATA
  6
CONTINUOUS
 62
     7
 10
290.75
 20
558.5
 11
290.75
 21
642.0
  0
ARC
  8
DATA
  6
CONTINUOUS
 62
     7
 10
332.5
 20
600.25
 40
38.2
 50
216.24009
 51
254.162984
  0
ARC
  8
DATA
  6
CONTINUOUS
 62
     7
 10
332.5
 20
600.25
 40
38.2
 50
105.837016
 51
140.026335
  0
ARC
  8
DATA
  6
CONTINUOUS
 62
     7
 10
305.570737
 20
613.537007
 40
33.985757
 50
260.760404
 51
323.570575
  0
ARC
  8
DATA
  6
CONTINUOUS
 62
     7
 10
306.661418
 20
611.28747
 40
33.985757
 50
261.58847
 51
326.815578
  0
ARC
  8
DATA
  6
CONTINUOUS
 62
     7
 10
335.012697
 20
628.234718
 40
33.985757
 50
189.58847
 51
254.815578
  0
ARC
  8
DATA
  6
CONTINUOUS
 62
     7
 10
336.815094
 20
629.967162
 40
33.985757
 50
188.760404
 51
251.570575
  0
LINE
  8
DIMENSIONS
  6
CONTINUOUS
 62
     7
 10
200.0
 20
550.0
 11
200.0
 21
727.0
  0
LINE
  8
DIMENSIONS
  6
CONTINUOUS
 62
     7
 10
242.5
 20
550.0
 11
190.625
 21
550.0
  0
LINE
  8
DIMENSIONS
  6
CONTINUOUS
 62
     7
 10
242.5
 20
727.0
 11
190.625
 21
727.0
  0
LINE
  8
DIMENSIONS
  6
CONTINUOUS
 62
     7
 10
202.4999
 20
565.0
 11
200.0
 21
550.0
  0
LINE
  8
DIMENSIONS
  6
CONTINUOUS
 62
     7
 10
197.5001
 20
565.0
 11
200.0
 21
550.0
  0
LINE
  8
DIMENSIONS
  6
CONTINUOUS
 62
     7
 10
202.4999
 20
712.0
 11
200.0
 21
727.0
  0
LINE
  8
DIMENSIONS
  6
CONTINUOUS
 62
     7
 10
197.5001
 20
712.0
 11
200.0
 21
727.0
  0
TEXT
  8
DIMENSIONS
  6
CONTINUOUS
 62
     7
 10
190.625
 20
622.515176
 40
18.75
  1
177
 50
90.0
  7
TTF_DEFAULT
  0
LINE
  8
DATA
  6
CONTINUOUS
 62
     7
 10
322.8
 20
546.65
 11
340.8
 21
546.65
  0
LINE
  8
DATA
  6
CONTINUOUS
 62
     7
 10
322.458163
 20
550.0
 11
322.8
 21
546.65
  0
LINE
  8
DATA
  6
CONTINUOUS
 62
     7
 10
340.8
 20
546.65
 11
341.141837
 21
550.0
  0
LINE
  8
DATA
  6
CONTINUOUS
 62
     7
 10
279.3
 20
875.8
 11
277.5
 21
875.8
  0
LINE
  8
DATA
  6
CONTINUOUS
 62
     7
 10
279.3
 20
883.8
 11
277.5
 21
883.8
  0
ARC
  8
DATA
  6
CONTINUOUS
 62
     7
 10
285.0
 20
879.8
 40
8.5
 50
151.927513
 51
208.072487
  0
LINE
  8
DATA
  6
CONTINUOUS
 62
     7
 10
277.5
 20
875.8
 11
277.5
 21
883.8
  0
LINE
  8
DATA
  6
CONTINUOUS
 62
     7
 10
279.3
 20
990.8
 11
277.5
 21
990.8
  0
LINE
  8
DATA
  6
CONTINUOUS
 62
     7
 10
279.3
 20
998.8
 11
277.5
 21
998.8
  0
ARC
  8
DATA
  6
CONTINUOUS
 62
     7
 10
285.0
 20
994.8
 40
8.5
 50
151.927513
 51
208.072487
  0
LINE
  8
DATA
  6
CONTINUOUS
 62
     7
 10
277.5
 20
990.8
 11
277.5
 21
998.8
  0
ARC
  8
DATA
  6
CONTINUOUS
 62
     7
 10
307.5
 20
850.0
 40
2.5
 50
180.0
 51
0.0
  0
LINE
  8
DATA
  6
CONTINUOUS
 62
     7
 10
290.75
 20
839.0
 11
290.75
 21
850.0
  0
LINE
  8
DATA
  6
CONTINUOUS
 62
     7
 10
277.8
 20
859.3
 11
269.8
 21
859.3
  0
LINE
  8
DATA
  6
CONTINUOUS
 62
     7
 10
281.3
 20
848.0
 11
266.3
 21
848.0
  0
LINE
  8
DATA
  6
CONTINUOUS
 62
     7
 10
280.55
 20
847.5
 11
267.05
 21
847.5
  0
LINE
  8
DATA
  6
CONTINUOUS
 62
     7
 10
278.8
 20
815.0
 11
278.8
 21
847.5
  0
LINE
  8
DATA
  6
CONTINUOUS
 62
     7
 10
268.8
 20
815.0
 11
268.8
 21
847.5
  0
ARC
  8
DATA
  6
CONTINUOUS
 62
     7
 10
273.8
 20
815.0
 40
5.0
 50
180.0
 51
0.0
  0
LINE
  8
DATA
  6
CONTINUOUS
 62
     7
 10
277.8
 20
854.3
 11
277.8
 21
859.3
  0
LINE
  8
DATA
  6
CONTINUOUS
 62
     7
 10
269.8
 20
854.3
 11
269.8
 21
859.3
  0
LINE
  8
DATA
  6
CONTINUOUS
 62
     7
 10
280.55
 20
847.5
 11
281.3
 21
848.0
  0
LINE
  8
DATA
  6
CONTINUOUS
 62
     7
 10
267.05
 20
847.5
 11
266.3
 21
848.0
  0
LINE
  8
DATA
  6
CONTINUOUS
 62
     7
 10
281.3
 20
848.0
 11
281.3
 21
850.0
  0
LINE
  8
DATA
  6
CONTINUOUS
 62
     7
 10
266.3
 20
848.0
 11
266.3
 21
850.0
  0
LINE
  8
DATA
  6
CONTINUOUS
 62
     7
 10
250.0
 20
850.0
 11
250.0
 21
854.3
  0
LINE
  8
DIMENSIONS
  6
CONTINUOUS
 62
     7
 10
200.0
 20
810.0
 11
200.0
 21
850.0
  0
LINE
  8
DIMENSIONS
  6
CONTINUOUS
 62
     7
 10
266.3
 20
810.0
 11
190.625
 21
810.0
  0
LINE
  8
DIMENSIONS
  6
CONTINUOUS
 62
     7
 10
202.4999
 20
825.0
 11
200.0
 21
810.0
  0
LINE
  8
DIMENSIONS
  6
CONTINUOUS
 62
     7
 10
197.5001
 20
825.0
 11
200.0
 21
810.0
  0
LINE
  8
DIMENSIONS
  6
CONTINUOUS
 62
     7
 10
202.4999
 20
835.0
 11
200.0
 21
850.0
  0
LINE
  8
DIMENSIONS
  6
CONTINUOUS
 62
     7
 10
197.5001
 20
835.0
 11
200.0
 21
850.0
  0
LINE
  8
DIMENSIONS
  6
CONTINUOUS
 62
     7
 10
242.5
 20
850.0
 11
190.625
 21
850.0
  0
LINE
  8
DIMENSIONS
  6
CONTINUOUS
 62
     7
 10
202.4999
 20
865.0
 11
200.0
 21
850.0
  0
LINE
  8
DIMENSIONS
  6
CONTINUOUS
 62
     7
 10
197.5001
 20
865.0
 11
200.0
 21
850.0
  0
TEXT
  8
DIMENSIONS
  6
CONTINUOUS
 62
     7
 10
190.625
 20
819.967027
 40
18.75
  1
40
 50
90.0
  7
TTF_DEFAULT
  0
LINE
  8
DIMENSIONS
  6
CONTINUOUS
 62
     7
 10
723.1
 20
576.7
 11
723.1
 21
490.625
  0
LINE
  8
DIMENSIONS
  6
CONTINUOUS
 62
     7
 10
732.6
 20
542.5
 11
732.6
 21
440.625
  0
TEXT
  8
DIMENSIONS
  6
CONTINUOUS
 62
     7
 10
467.703355
 20
459.375
 40
18.75
  1
482.6
  7
TTF_DEFAULT
  0
TEXT
  8
DIMENSIONS
  6
CONTINUOUS
 62
     7
 10
637.5
 20
196.875
 40
18.75
  1
(単位 : mm)
  7
TTF_DEFAULT
  0
LINE
  8
DIMENSIONS
  6
CONTINUOUS
 62
     7
 10
708.1
 20
497.5001
 11
723.1
 21
500.0
  0
LINE
  8
DIMENSIONS
  6
CONTINUOUS
 62
     7
 10
708.1
 20
502.4999
 11
723.1
 21
500.0
  0
LINE
  8
DIMENSIONS
  6
CONTINUOUS
 62
     7
 10
717.6
 20
447.5001
 11
732.6
 21
450.0
  0
LINE
  8
DIMENSIONS
  6
CONTINUOUS
 62
     7
 10
717.6
 20
452.4999
 11
732.6
 21
450.0
  0
LINE
  8
DATA
  6
CONTINUOUS
 62
     7
 10
527.5
 20
849.5
 11
553.5
 21
849.5
  0
LINE
  8
DATA
  6
CONTINUOUS
 62
     7
 10
530.5
 20
845.0
 11
550.5
 21
845.0
  0
LINE
  8
DATA
  6
CONTINUOUS
 62
     7
 10
527.5
 20
602.0
 11
553.5
 21
602.0
  0
LINE
  8
DATA
  6
CONTINUOUS
 62
     7
 10
527.5
 20
632.5
 11
553.5
 21
632.5
  0
LINE
  8
DATA
  6
CONTINUOUS
 62
     7
 10
526.0
 20
650.0
 11
602.0
 21
650.0
  0
LINE
  8
DATA
  6
CONTINUOUS
 62
     7
 10
526.0
 20
694.5
 11
602.0
 21
694.5
  0
TEXT
  8
DATA
  6
CONTINUOUS
 62
     7
 10
540.5
 20
559.0
 40
3.5
  1
AVEC FUSIBLE DE MEME TYPE.
  7
TTF_DEFAULT
  0
TEXT
  8
DATA
  6
CONTINUOUS
 62
     7
 10
540.5
 20
562.5
 40
3.5
  1
RISQUE DE FEU, REMPLACER SEULEMENT
  7
TTF_DEFAULT
  0
TEXT
  8
DATA
  6
CONTINUOUS
 62
     7
 10
540.5
 20
566.0
 40
3.5
  1
AFIN DE REDUIRE LE
  7
TTF_DEFAULT
  0
TEXT
  8
DATA
  6
CONTINUOUS
 62
     7
 10
540.5
 20
574.5
 40
3.5
  1
TYPE FUSE ONLY.
  7
TTF_DEFAULT
  0
TEXT
  8
DATA
  6
CONTINUOUS
 62
     7
 10
540.5
 20
578.0
 40
3.5
  1
FIRE, REPLACE WITH SAME
  7
TTF_DEFAULT
  0
TEXT
  8
DATA
  6
CONTINUOUS
 62
     7
 10
540.5
 20
581.5
 40
3.5
  1
TO REDUCE THE RISK OF
  7
TTF_DEFAULT
  0
TEXT
  8
DATA
  6
CONTINUOUS
 62
     7
 10
540.5
 20
590.0
 40
3.5
  1
100V/230V USE T10.0A/250V
  7
TTF_DEFAULT
  0
TEXT
  8
DATA
  6
CONTINUOUS
 62
     7
 10
540.5
 20
569.0
 40
4.0
  1
ATTENTION:
  7
TTF_DEFAULT
  0
TEXT
  8
DATA
  6
CONTINUOUS
 62
     7
 10
540.5
 20
584.5
 40
4.0
  1
CAUTION:
  7
TTF_DEFAULT
  0
TEXT
  8
DATA
  6
CONTINUOUS
 62
     7
 10
540.5
 20
593.0
 40
4.0
  1
MAINS FUSE:
  7
TTF_DEFAULT
  0
TEXT
  8
DATA
  6
CONTINUOUS
 62
     7
 10
530.978628
 20
634.5
 40
6.0
  1
POWER
  7
TTF_DEFAULT
  0
TEXT
  8
DATA
  6
CONTINUOUS
 62
     7
 10
536.945702
 20
645.0
 40
4.0
  1
DOTS LIGHT WHEN MAINS LOW
  7
TTF_DEFAULT
  0
LINE
  8
DATA
  6
CONTINUOUS
 62
     7
 10
530.5
 20
615.75
 11
550.5
 21
615.75
  0
LINE
  8
DATA
  6
CONTINUOUS
 62
     7
 10
530.5
 20
622.25
 11
550.5
 21
622.25
  0
LINE
  8
DATA
  6
CONTINUOUS
 62
     7
 10
550.5
 20
607.25
 11
530.5
 21
607.25
  0
LINE
  8
DATA
  6
CONTINUOUS
 62
     7
 10
530.5
 20
627.25
 11
550.5
 21
627.25
  0
LINE
  8
DATA
  6
CONTINUOUS
 62
     7
 10
589.5
 20
660.5
 11
538.5
 21
660.5
  0
LINE
  8
DATA
  6
CONTINUOUS
 62
     7
 10
538.5
 20
684.0
 11
589.5
 21
684.0
  0
TEXT
  8
DATA
  6
CONTINUOUS
 62
     7
 10
413.0
 20
705.5
 40
3.0
  1
ACCESS TO MAINS VOLTAGE SELECTION AWITCHES
  7
TTF_DEFAULT
  0
TEXT
  8
DATA
  6
CONTINUOUS
 62
     7
 10
413.0
 20
676.5
 40
3.0
  1
DO NOT SWITCH MAINS VOLTAGE SETTINGS
  7
TTF_DEFAULT
  0
TEXT
  8
DATA
  6
CONTINUOUS
 62
     7
 10
413.0
 20
695.0
 40
3.0
  1
SIDE WINDOW WHEN REFITTING COVER PLATE.
  7
TTF_DEFAULT
  0
TEXT
  8
DATA
  6
CONTINUOUS
 62
     7
 10
413.0
 20
698.5
 40
3.0
  1
WARNING: DISPLAY MAINS VOLTAGE SETTING IN
  7
TTF_DEFAULT
  0
LINE
  8
DATA
  6
CONTINUOUS
 62
     7
 10
527.5
 20
602.0
 11
527.5
 21
632.5
  0
LINE
  8
DATA
  6
CONTINUOUS
 62
     7
 10
526.0
 20
694.5
 11
526.0
 21
650.0
  0
LINE
  8
DATA
  6
CONTINUOUS
 62
     7
 10
432.5
 20
714.5
 11
432.5
 21
719.5
  0
LINE
  8
DATA
  6
CONTINUOUS
 62
     7
 10
430.0
 20
717.0
 11
435.0
 21
717.0
  0
CIRCLE
  8
DATA
  6
CONTINUOUS
 62
     7
 10
432.5
 20
717.0
 40
4.5
  0
TEXT
  8
DATA
  6
CONTINUOUS
 62
     7
 10
413.0
 20
673.0
 40
3.0
  1
WHILE MAINS SUPPLY IS CONNECTED.
  7
TTF_DEFAULT
  0
TEXT
  8
DATA
  6
CONTINUOUS
 62
     7
 10
413.0
 20
680.0
 40
3.0
  1
CONNECTING MAINS SUPPLY.
  7
TTF_DEFAULT
  0
TEXT
  8
DATA
  6
CONTINUOUS
 62
     7
 10
413.0
 20
683.5
 40
3.0
  1
SETTING AND CORRECT FUSE BEFORE
  7
TTF_DEFAULT
  0
TEXT
  8
DATA
  6
CONTINUOUS
 62
     7
 10
413.0
 20
687.0
 40
3.0
  1
ENSURE CORRECT MAINS VOLTAGE
  7
TTF_DEFAULT
  0
TEXT
  8
DATA
  6
CONTINUOUS
 62
     7
 10
413.0
 20
702.0
 40
3.0
  1
UNDER COVER PLATE.
  7
TTF_DEFAULT
  0
TEXT
  8
DATA
  6
CONTINUOUS
 62
     7
 10
479.220591
 20
566.0
 40
6.0
  1
CPS 2000
  7
TTF_DEFAULT
  0
TEXT
  8
DATA
  6
CONTINUOUS
 62
     7
 10
394.25
 20
566.0
 40
6.0
  1
CONSOLE POWER SUPPLY
  7
TTF_DEFAULT
  0
TEXT
  8
DATA
  6
CONTINUOUS
 62
     7
 10
394.737982
 20
576.0
 40
24.0
  1
Soundcraft
  7
TTF_DEFAULT
  0
TEXT
  8
DATA
  6
CONTINUOUS
 62
     7
 10
513.890471
 20
602.0
 40
6.0
  1
OFF
  7
TTF_DEFAULT
  0
TEXT
  8
DATA
  6
CONTINUOUS
 62
     7
 10
516.610863
 20
627.5
 40
6.0
  1
ON
  7
TTF_DEFAULT
  0
LINE
  8
DATA
  6
CONTINUOUS
 62
     7
 10
530.5
 20
607.25
 11
530.5
 21
627.25
  0
LINE
  8
DATA
  6
CONTINUOUS
 62
     7
 10
538.5
 20
660.5
 11
538.5
 21
684.0
  0
TEXT
  8
DATA
  6
CONTINUOUS
 62
     7
 10
472.926922
 20
610.25
 40
3.5
  1
100V
  7
TTF_DEFAULT
  0
LINE
  8
DATA
  6
CONTINUOUS
 62
     7
 10
470.5
 20
608.0
 11
401.0
 21
608.0
  0
LINE
  8
DATA
  6
CONTINUOUS
 62
     7
 10
510.0
 20
608.0
 11
483.0
 21
608.0
  0
LINE
  8
DATA
  6
CONTINUOUS
 62
     7
 10
470.5
 20
615.5
 11
483.0
 21
615.5
  0
LINE
  8
DATA
  6
CONTINUOUS
 62
     7
 10
483.0
 20
608.0
 11
483.0
 21
615.5
  0
LINE
  8
DATA
  6
CONTINUOUS
 62
     7
 10
470.5
 20
608.0
 11
470.5
 21
615.5
  0
LINE
  8
DATA
  6
CONTINUOUS
 62
     7
 10
510.0
 20
661.0
 11
510.0
 21
608.0
  0
LINE
  8
DATA
  6
CONTINUOUS
 62
     7
 10
401.0
 20
661.0
 11
510.0
 21
661.0
  0
LINE
  8
DATA
  6
CONTINUOUS
 62
     7
 10
401.0
 20
608.0
 11
401.0
 21
661.0
  0
LINE
  8
DATA
  6
CONTINUOUS
 62
     7
 10
504.0
 20
632.5
 11
504.0
 21
635.5
  0
LINE
  8
DATA
  6
CONTINUOUS
 62
     7
 10
502.5
 20
634.0
 11
505.5
 21
634.0
  0
CIRCLE
  8
DATA
  6
CONTINUOUS
 62
     7
 10
504.0
 20
634.0
 40
3.0
  0
CIRCLE
  8
DATA
  6
CONTINUOUS
 62
     7
 10
504.0
 20
634.0
 40
3.5
  0
LINE
  8
DATA
  6
CONTINUOUS
 62
     7
 10
409.0
 20
632.5
 11
409.0
 21
635.5
  0
LINE
  8
DATA
  6
CONTINUOUS
 62
     7
 10
407.5
 20
634.0
 11
410.5
 21
634.0
  0
CIRCLE
  8
DATA
  6
CONTINUOUS
 62
     7
 10
409.0
 20
634.0
 40
3.0
  0
CIRCLE
  8
DATA
  6
CONTINUOUS
 62
     7
 10
409.0
 20
634.0
 40
3.5
  0
LINE
  8
DATA
  6
CONTINUOUS
 62
     7
 10
369.25
 20
601.75
 11
369.25
 21
610.67485
  0
LINE
  8
DATA
  6
CONTINUOUS
 62
     7
 10
369.25
 20
589.82515
 11
369.25
 21
598.898762
  0
LINE
  8
DATA
  6
CONTINUOUS
 62
     7
 10
374.25
 20
642.0
 11
374.25
 21
558.5
  0
ARC
  8
DATA
  6
CONTINUOUS
 62
     7
 10
332.5
 20
600.25
 40
38.2
 50
15.837016
 51
68.026335
  0
ARC
  8
DATA
  6
CONTINUOUS
 62
     7
 10
332.5
 20
600.25
 40
38.2
 50
288.24009
 51
344.162984
  0
TEXT
  8
DIMENSIONS
  6
CONTINUOUS
 62
     7
 10
470.027263
 20
509.375
 40
18.75
  1
463.6
  7
TTF_DEFAULT
  0
LINE
  8
DATA
  6
CONTINUOUS
 62
     7
 10
530.5
 20
845.0
 11
530.5
 21
849.5
  0
LINE
  8
DATA
  6
CONTINUOUS
 62
     7
 10
527.5
 20
849.5
 11
527.5
 21
850.0
  0
LINE
  8
DATA
  6
CONTINUOUS
 62
     7
 10
507.0
 20
846.6
 11
507.0
 21
847.8
  0
LINE
  8
DATA
  6
CONTINUOUS
 62
     7
 10
501.0
 20
846.6
 11
501.0
 21
847.8
  0
LINE
  8
DATA
  6
CONTINUOUS
 62
     7
 10
507.5
 20
847.8
 11
507.5
 21
848.6
  0
LINE
  8
DATA
  6
CONTINUOUS
 62
     7
 10
500.5
 20
847.8
 11
500.5
 21
848.6
  0
LINE
  8
DATA
  6
CONTINUOUS
 62
     7
 10
500.5
 20
847.8
 11
507.5
 21
847.8
  0
ARC
  8
DATA
  6
CONTINUOUS
 62
     7
 10
504.0
 20
855.35
 40
9.25
 50
251.075356
 51
288.924644
  0
LINE
  8
DATA
  6
CONTINUOUS
 62
     7
 10
501.0
 20
846.6
 11
507.0
 21
846.6
  0
LINE
  8
DATA
  6
CONTINUOUS
 62
     7
 10
412.0
 20
846.6
 11
412.0
 21
847.8
  0
LINE
  8
DATA
  6
CONTINUOUS
 62
     7
 10
406.0
 20
846.6
 11
406.0
 21
847.8
  0
LINE
  8
DATA
  6
CONTINUOUS
 62
     7
 10
412.5
 20
847.8
 11
412.5
 21
848.6
  0
LINE
  8
DATA
  6
CONTINUOUS
 62
     7
 10
405.5
 20
847.8
 11
405.5
 21
848.6
  0
LINE
  8
DATA
  6
CONTINUOUS
 62
     7
 10
405.5
 20
847.8
 11
412.5
 21
847.8
  0
ARC
  8
DATA
  6
CONTINUOUS
 62
     7
 10
409.0
 20
855.35
 40
9.25
 50
251.075356
 51
288.924644
  0
LINE
  8
DATA
  6
CONTINUOUS
 62
     7
 10
406.0
 20
846.6
 11
412.0
 21
846.6
  0
LINE
  8
DATA
  6
CONTINUOUS
 62
     7
 10
510.0
 20
848.6
 11
510.0
 21
850.0
  0
LINE
  8
DATA
  6
CONTINUOUS
 62
     7
 10
401.0
 20
848.6
 11
401.0
 21
850.0
  0
LINE
  8
DATA
  6
CONTINUOUS
 62
     7
 10
401.0
 20
848.6
 11
510.0
 21
848.6
  0
LINE
  8
DATA
  6
CONTINUOUS
 62
     7
 10
374.25
 20
839.0
 11
374.25
 21
850.0
  0
LINE
  8
DATA
  6
CONTINUOUS
 62
     7
 10
724.6
 20
692.8
 11
721.6
 21
692.8
  0
ARC
  8
DATA
  6
CONTINUOUS
 62
     7
 10
724.6
 20
676.6
 40
3.5
 50
270.0
 51
90.0
  0
ARC
  8
DATA
  6
CONTINUOUS
 62
     7
 10
721.6
 20
676.6
 40
3.5
 50
90.0
 51
270.0
  0
LINE
  8
DATA
  6
CONTINUOUS
 62
     7
 10
724.6
 20
680.1
 11
721.6
 21
680.1
  0
LINE
  8
DATA
  6
CONTINUOUS
 62
     7
 10
721.6
 20
673.1
 11
724.6
 21
673.1
  0
LINE
  8
DATA
  6
CONTINUOUS
 62
     7
 10
721.6
 20
685.8
 11
724.6
 21
685.8
  0
ARC
  8
DATA
  6
CONTINUOUS
 62
     7
 10
724.6
 20
689.3
 40
3.5
 50
270.0
 51
90.0
  0
ARC
  8
DATA
  6
CONTINUOUS
 62
     7
 10
721.6
 20
689.3
 40
3.5
 50
90.0
 51
270.0
  0
ARC
  8
DATA
  6
CONTINUOUS
 62
     7
 10
724.6
 20
600.4
 40
3.5
 50
270.0
 51
90.0
  0
ARC
  8
DATA
  6
CONTINUOUS
 62
     7
 10
721.6
 20
600.4
 40
3.5
 50
90.0
 51
270.0
  0
LINE
  8
DATA
  6
CONTINUOUS
 62
     7
 10
724.6
 20
603.9
 11
721.6
 21
603.9
  0
LINE
  8
DATA
  6
CONTINUOUS
 62
     7
 10
721.6
 20
596.9
 11
724.6
 21
596.9
  0
ARC
  8
DATA
  6
CONTINUOUS
 62
     7
 10
724.6
 20
587.7
 40
3.5
 50
270.0
 51
90.0
  0
ARC
  8
DATA
  6
CONTINUOUS
 62
     7
 10
721.6
 20
587.7
 40
3.5
 50
90.0
 51
270.0
  0
LINE
  8
DATA
  6
CONTINUOUS
 62
     7
 10
724.6
 20
591.2
 11
721.6
 21
591.2
  0
LINE
  8
DATA
  6
CONTINUOUS
 62
     7
 10
721.6
 20
584.2
 11
724.6
 21
584.2
  0
LINE
  8
DATA
  6
CONTINUOUS
 62
     7
 10
713.8
 20
578.5
 11
713.8
 21
698.5
  0
CIRCLE
  8
DATA
  6
CONTINUOUS
 62
     7
 10
695.6
 20
662.0
 40
4.5
  0
ARC
  8
DATA
  6
CONTINUOUS
 62
     7
 10
708.8
 20
578.5
 40
5.0
 50
180.0
 51
0.0
  0
ARC
  8
DATA
  6
CONTINUOUS
 62
     7
 10
708.8
 20
578.5
 40
7.5
 50
131.810315
 51
48.189685
  0
ARC
  8
DATA
  6
CONTINUOUS
 62
     7
 10
708.8
 20
578.5
 40
6.75
 50
137.794554
 51
42.205446
  0
LINE
  8
DATA
  6
CONTINUOUS
 62
     7
 10
703.8
 20
578.5
 11
703.8
 21
698.5
  0
ARC
  8
DATA
  6
CONTINUOUS
 62
     7
 10
708.8
 20
698.5
 40
5.0
 50
0.0
 51
180.0
  0
ARC
  8
DATA
  6
CONTINUOUS
 62
     7
 10
708.8
 20
698.5
 40
7.5
 50
311.810315
 51
228.189685
  0
ARC
  8
DATA
  6
CONTINUOUS
 62
     7
 10
708.8
 20
698.5
 40
6.75
 50
317.794554
 51
222.205446
  0
LINE
  8
DATA
  6
CONTINUOUS
 62
     7
 10
553.5
 20
602.0
 11
553.5
 21
632.5
  0
LINE
  8
DATA
  6
CONTINUOUS
 62
     7
 10
602.0
 20
650.0
 11
602.0
 21
694.5
  0
ARC
  8
DATA
  6
CONTINUOUS
 62
     7
 10
695.6
 20
569.0
 40
4.5
 50
213.55731
 51
146.44269
  0
LINE
  8
DATA
  6
CONTINUOUS
 62
     7
 10
695.6
 20
566.5
 11
695.6
 21
571.5
  0
LINE
  8
DATA
  6
CONTINUOUS
 62
     7
 10
698.1
 20
569.0
 11
693.1
 21
569.0
  0
LINE
  8
DATA
  6
CONTINUOUS
 62
     7
 10
695.6
 20
659.5
 11
695.6
 21
664.5
  0
LINE
  8
DATA
  6
CONTINUOUS
 62
     7
 10
698.1
 20
662.0
 11
693.1
 21
662.0
  0
LINE
  8
DATA
  6
CONTINUOUS
 62
     7
 10
695.6
 20
711.0
 11
695.6
 21
716.0
  0
LINE
  8
DATA
  6
CONTINUOUS
 62
     7
 10
693.1
 20
713.5
 11
698.1
 21
713.5
  0
LINE
  8
DATA
  6
CONTINUOUS
 62
     7
 10
668.1
 20
714.5
 11
668.1
 21
719.5
  0
LINE
  8
DATA
  6
CONTINUOUS
 62
     7
 10
665.6
 20
717.0
 11
670.6
 21
717.0
  0
CIRCLE
  8
DATA
  6
CONTINUOUS
 62
     7
 10
668.1
 20
717.0
 40
4.5
  0
CIRCLE
  8
DATA
  6
CONTINUOUS
 62
     7
 10
695.6
 20
713.5
 40
4.5
  0
LINE
  8
DATA
  6
CONTINUOUS
 62
     7
 10
732.6
 20
727.0
 11
732.6
 21
550.0
  0
LINE
  8
DATA
  6
CONTINUOUS
 62
     7
 10
550.1
 20
714.5
 11
550.1
 21
719.5
  0
LINE
  8
DATA
  6
CONTINUOUS
 62
     7
 10
547.6
 20
717.0
 11
552.6
 21
717.0
  0
CIRCLE
  8
DATA
  6
CONTINUOUS
 62
     7
 10
550.1
 20
717.0
 40
4.5
  0
LINE
  8
DATA
  6
CONTINUOUS
 62
     7
 10
587.799299
 20
617.875537
 11
587.41107
 21
619.324425
  0
LINE
  8
DATA
  6
CONTINUOUS
 62
     7
 10
579.58893
 20
615.675575
 11
579.200701
 21
617.124463
  0
LINE
  8
DATA
  6
CONTINUOUS
 62
     7
 10
579.200701
 20
617.124463
 11
587.41107
 21
619.324425
  0
LINE
  8
DATA
  6
CONTINUOUS
 62
     7
 10
587.799299
 20
617.875537
 11
579.58893
 21
615.675575
  0
CIRCLE
  8
DATA
  6
CONTINUOUS
 62
     7
 10
583.5
 20
617.5
 40
7.5
  0
CIRCLE
  8
DATA
  6
CONTINUOUS
 62
     7
 10
583.5
 20
617.5
 40
10.0
  0
CIRCLE
  8
DATA
  6
CONTINUOUS
 62
     7
 10
583.5
 20
617.5
 40
11.5
  0
TEXT
  8
DATA
  6
CONTINUOUS
 62
     7
 10
628.5
 20
664.5
 40
5.0
  1
-17V
  7
TTF_DEFAULT
  0
TEXT
  8
DATA
  6
CONTINUOUS
 62
     7
 10
628.5
 20
682.0
 40
5.0
  1
HIGH TEMP
  7
TTF_DEFAULT
  0
TEXT
  8
DATA
  6
CONTINUOUS
 62
     7
 10
628.5
 20
700.0
 40
5.0
  1
+8V
  7
TTF_DEFAULT
  0
CIRCLE
  8
DATA
  6
CONTINUOUS
 62
     7
 10
624.0
 20
683.5
 40
2.5
  0
CIRCLE
  8
DATA
  6
CONTINUOUS
 62
     7
 10
624.0
 20
666.0
 40
2.5
  0
CIRCLE
  8
DATA
  6
CONTINUOUS
 62
     7
 10
624.0
 20
701.5
 40
2.5
  0
TEXT
  8
DATA
  6
CONTINUOUS
 62
     7
 10
556.492431
 20
602.0
 40
6.0
  1
0
  7
TTF_DEFAULT
  0
TEXT
  8
DATA
  6
CONTINUOUS
 62
     7
 10
556.5
 20
627.5
 40
6.0
  1
1
  7
TTF_DEFAULT
  0
LINE
  8
DATA
  6
CONTINUOUS
 62
     7
 10
550.5
 20
627.25
 11
550.5
 21
607.25
  0
LINE
  8
DATA
  6
CONTINUOUS
 62
     7
 10
589.5
 20
684.0
 11
589.5
 21
660.5
  0
TEXT
  8
DATA
  6
CONTINUOUS
 62
     7
 10
546.694597
 20
697.5
 40
5.0
  1
MAINS VOLTAGE
  7
TTF_DEFAULT
  0
ARC
  8
DATA
  6
CONTINUOUS
 62
     7
 10
650.1
 20
600.25
 40
38.2
 50
111.973665
 51
164.162984
  0
LINE
  8
DATA
  6
CONTINUOUS
 62
     7
 10
613.35
 20
601.75
 11
613.35
 21
610.67485
  0
ARC
  8
DATA
  6
CONTINUOUS
 62
     7
 10
650.1
 20
600.25
 40
38.2
 50
195.837016
 51
251.75991
  0
LINE
  8
DATA
  6
CONTINUOUS
 62
     7
 10
613.35
 20
589.82515
 11
613.35
 21
598.898762
  0
LINE
  8
DATA
  6
CONTINUOUS
 62
     7
 10
608.35
 20
642.0
 11
608.35
 21
558.5
  0
LINE
  8
DATA
  6
CONTINUOUS
 62
     7
 10
656.653216
 20
604.838611
 11
656.529037
 21
597.724405
  0
LINE
  8
DATA
  6
CONTINUOUS
 62
     7
 10
654.488665
 20
605.583926
 11
647.761026
 21
607.900438
  0
LINE
  8
DATA
  6
CONTINUOUS
 62
     7
 10
646.383307
 20
606.072142
 11
642.101218
 21
600.389619
  0
LINE
  8
DATA
  6
CONTINUOUS
 62
     7
 10
660.52485
 20
637.0
 11
639.67515
 21
637.0
  0
LINE
  8
DATA
  6
CONTINUOUS
 62
     7
 10
656.489084
 20
595.43548
 11
649.684699
 21
593.35517
  0
LINE
  8
DATA
  6
CONTINUOUS
 62
     7
 10
660.52485
 20
563.5
 11
640.683435
 21
563.5
  0
LINE
  8
DATA
  6
CONTINUOUS
 62
     7
 10
647.495455
 20
592.685851
 11
643.414292
 21
598.514356
  0
ARC
  8
DATA
  6
CONTINUOUS
 62
     7
 10
650.1
 20
600.25
 40
38.2
 50
15.837016
 51
35.75991
  0
ARC
  8
DATA
  6
CONTINUOUS
 62
     7
 10
650.1
 20
600.25
 40
38.2
 50
327.973665
 51
344.162984
  0
LINE
  8
DATA
  6
CONTINUOUS
 62
     7
 10
686.85
 20
589.82515
 11
686.85
 21
610.67485
  0
LINE
  8
DATA
  6
CONTINUOUS
 62
     7
 10
691.85
 20
558.5
 11
691.85
 21
642.0
  0
ARC
  8
DATA
  6
CONTINUOUS
 62
     7
 10
650.1
 20
600.25
 40
38.2
 50
285.837016
 51
323.75991
  0
ARC
  8
DATA
  6
CONTINUOUS
 62
     7
 10
650.1
 20
600.25
 40
38.2
 50
39.973665
 51
74.162984
  0
ARC
  8
DATA
  6
CONTINUOUS
 62
     7
 10
677.029263
 20
613.537007
 40
33.985757
 50
216.429425
 51
279.239596
  0
ARC
  8
DATA
  6
CONTINUOUS
 62
     7
 10
675.938582
 20
611.28747
 40
33.985757
 50
213.184422
 51
278.41153
  0
ARC
  8
DATA
  6
CONTINUOUS
 62
     7
 10
647.587303
 20
628.234718
 40
33.985757
 50
285.184422
 51
350.41153
  0
ARC
  8
DATA
  6
CONTINUOUS
 62
     7
 10
645.784906
 20
629.967162
 40
33.985757
 50
288.429425
 51
351.239596
  0
ARC
  8
DATA
  6
CONTINUOUS
 62
     7
 10
650.1
 20
600.25
 40
38.2
 50
105.837016
 51
107.75991
  0
ARC
  8
DATA
  6
CONTINUOUS
 62
     7
 10
620.503862
 20
605.329209
 40
33.985757
 50
0.429425
 51
63.239596
  0
ARC
  8
DATA
  6
CONTINUOUS
 62
     7
 10
622.708486
 20
606.508037
 40
33.985757
 50
357.184422
 51
62.41153
  0
ARC
  8
DATA
  6
CONTINUOUS
 62
     7
 10
636.123675
 20
573.671962
 40
33.985757
 50
72.429425
 51
132.074373
  0
ARC
  8
DATA
  6
CONTINUOUS
 62
     7
 10
635.68381
 20
576.132962
 40
33.985757
 50
69.184422
 51
131.083031
  0
ARC
  8
DATA
  6
CONTINUOUS
 62
     7
 10
668.581819
 20
579.086814
 40
33.985757
 50
141.184422
 51
206.41153
  0
ARC
  8
DATA
  6
CONTINUOUS
 62
     7
 10
671.058294
 20
578.74466
 40
33.985757
 50
144.429425
 51
206.651349
  0
LINE
  8
DATA
  6
CONTINUOUS
 62
     7
 10
608.35
 20
558.5
 11
691.85
 21
558.5
  0
LINE
  8
DATA
  6
CONTINUOUS
 62
     7
 10
691.85
 20
642.0
 11
608.35
 21
642.0
  0
LINE
  8
DATA
  6
CONTINUOUS
 62
     7
 10
641.8
 20
546.65
 11
659.8
 21
546.65
  0
LINE
  8
DATA
  6
CONTINUOUS
 62
     7
 10
641.458163
 20
550.0
 11
641.8
 21
546.65
  0
LINE
  8
DATA
  6
CONTINUOUS
 62
     7
 10
659.8
 20
546.65
 11
660.141837
 21
550.0
  0
LINE
  8
DATA
  6
CONTINUOUS
 62
     7
 10
703.3
 20
875.8
 11
705.1
 21
875.8
  0
LINE
  8
DATA
  6
CONTINUOUS
 62
     7
 10
703.3
 20
883.8
 11
705.1
 21
883.8
  0
ARC
  8
DATA
  6
CONTINUOUS
 62
     7
 10
697.6
 20
879.8
 40
8.5
 50
331.927513
 51
28.072487
  0
LINE
  8
DATA
  6
CONTINUOUS
 62
     7
 10
705.1
 20
875.8
 11
705.1
 21
883.8
  0
LINE
  8
DATA
  6
CONTINUOUS
 62
     7
 10
703.3
 20
990.8
 11
705.1
 21
990.8
  0
LINE
  8
DATA
  6
CONTINUOUS
 62
     7
 10
703.3
 20
998.8
 11
705.1
 21
998.8
  0
ARC
  8
DATA
  6
CONTINUOUS
 62
     7
 10
697.6
 20
994.8
 40
8.5
 50
331.927513
 51
28.072487
  0
LINE
  8
DATA
  6
CONTINUOUS
 62
     7
 10
705.1
 20
990.8
 11
705.1
 21
998.8
  0
LINE
  8
DATA
  6
CONTINUOUS
 62
     7
 10
553.5
 20
849.5
 11
553.5
 21
850.0
  0
LINE
  8
DATA
  6
CONTINUOUS
 62
     7
 10
550.5
 20
845.0
 11
550.5
 21
849.5
  0
ARC
  8
DATA
  6
CONTINUOUS
 62
     7
 10
624.0
 20
850.0
 40
2.5
 50
180.0
 51
0.0
  0
LINE
  8
DATA
  6
CONTINUOUS
 62
     7
 10
691.85
 20
839.0
 11
691.85
 21
850.0
  0
LINE
  8
DATA
  6
CONTINUOUS
 62
     7
 10
608.35
 20
839.0
 11
608.35
 21
850.0
  0
LINE
  8
DATA
  6
CONTINUOUS
 62
     7
 10
608.35
 20
839.0
 11
691.85
 21
839.0
  0
LINE
  8
DATA
  6
CONTINUOUS
 62
     7
 10
704.8
 20
859.3
 11
712.8
 21
859.3
  0
LINE
  8
DATA
  6
CONTINUOUS
 62
     7
 10
701.3
 20
848.0
 11
716.3
 21
848.0
  0
LINE
  8
DATA
  6
CONTINUOUS
 62
     7
 10
702.05
 20
847.5
 11
715.55
 21
847.5
  0
LINE
  8
DATA
  6
CONTINUOUS
 62
     7
 10
703.8
 20
815.0
 11
703.8
 21
847.5
  0
LINE
  8
DATA
  6
CONTINUOUS
 62
     7
 10
713.8
 20
815.0
 11
713.8
 21
847.5
  0
ARC
  8
DATA
  6
CONTINUOUS
 62
     7
 10
708.8
 20
815.0
 40
5.0
 50
180.0
 51
0.0
  0
LINE
  8
DATA
  6
CONTINUOUS
 62
     7
 10
704.8
 20
854.3
 11
704.8
 21
859.3
  0
LINE
  8
DATA
  6
CONTINUOUS
 62
     7
 10
712.8
 20
854.3
 11
712.8
 21
859.3
  0
LINE
  8
DATA
  6
CONTINUOUS
 62
     7
 10
702.05
 20
847.5
 11
701.3
 21
848.0
  0
LINE
  8
DATA
  6
CONTINUOUS
 62
     7
 10
715.55
 20
847.5
 11
716.3
 21
848.0
  0
LINE
  8
DATA
  6
CONTINUOUS
 62
     7
 10
701.3
 20
848.0
 11
701.3
 21
850.0
  0
LINE
  8
DATA
  6
CONTINUOUS
 62
     7
 10
716.3
 20
848.0
 11
716.3
 21
850.0
  0
LINE
  8
DATA
  6
CONTINUOUS
 62
     7
 10
732.6
 20
850.0
 11
732.6
 21
854.3
  0
LINE
  8
DATA
  6
CONTINUOUS
 62
     7
 10
279.3
 20
1245.47
 11
703.3
 21
1245.47
  0
LINE
  8
DIMENSIONS
  6
CONTINUOUS
 62
     7
 10
293.3
 20
1350.0
 11
689.3
 21
1350.0
  0
LINE
  8
DIMENSIONS
  6
CONTINUOUS
 62
     7
 10
277.3
 20
1400.0
 11
705.3
 21
1400.0
  0
LINE
  8
DIMENSIONS
  6
CONTINUOUS
 62
     7
 10
293.3
 20
1293.97
 11
293.3
 21
1359.375
  0
LINE
  8
DIMENSIONS
  6
CONTINUOUS
 62
     7
 10
277.3
 20
1252.97
 11
277.3
 21
1409.375
  0
ARC
  8
DATA
  6
CONTINUOUS
 62
     7
 10
298.3
 20
1242.48875
 40
5.78125
 50
55.794542
 51
124.205458
  0
LINE
  8
DATA
  6
CONTINUOUS
 62
     7
 10
295.05
 20
1245.47
 11
295.05
 21
1247.27
  0
LINE
  8
DATA
  6
CONTINUOUS
 62
     7
 10
301.55
 20
1245.47
 11
301.55
 21
1247.27
  0
LINE
  8
DATA
  6
CONTINUOUS
 62
     7
 10
295.05
 20
1247.27
 11
301.55
 21
1247.27
  0
ARC
  8
DATA
  6
CONTINUOUS
 62
     7
 10
279.8
 20
1245.47
 40
2.5
 50
90.0
 51
180.0
  0
LINE
  8
DATA
  6
CONTINUOUS
 62
     7
 10
277.3
 20
1230.97
 11
277.3
 21
1245.47
  0
LINE
  8
DATA
  6
CONTINUOUS
 62
     7
 10
292.8
 20
1247.97
 11
279.8
 21
1247.97
  0
ARC
  8
DATA
  6
CONTINUOUS
 62
     7
 10
292.8
 20
1248.47
 40
2.5
 50
270.0
 51
0.0
  0
LINE
  8
DATA
  6
CONTINUOUS
 62
     7
 10
295.3
 20
1248.47
 11
295.3
 21
1286.47
  0
LINE
  8
DATA
  6
CONTINUOUS
 62
     7
 10
292.8
 20
1245.97
 11
279.8
 21
1245.97
  0
ARC
  8
DATA
  6
CONTINUOUS
 62
     7
 10
292.8
 20
1248.47
 40
0.5
 50
270.0
 51
0.0
  0
LINE
  8
DATA
  6
CONTINUOUS
 62
     7
 10
293.3
 20
1248.47
 11
293.3
 21
1286.47
  0
ARC
  8
DATA
  6
CONTINUOUS
 62
     7
 10
279.8
 20
1245.47
 40
0.5
 50
90.0
 51
180.0
  0
LINE
  8
DATA
  6
CONTINUOUS
 62
     7
 10
295.3
 20
1281.47
 11
293.3
 21
1281.47
  0
LINE
  8
DATA
  6
CONTINUOUS
 62
     7
 10
295.3
 20
1286.47
 11
293.3
 21
1286.47
  0
LINE
  8
DATA
  6
CONTINUOUS
 62
     7
 10
279.3
 20
1230.97
 11
277.3
 21
1230.97
  0
LINE
  8
DATA
  6
CONTINUOUS
 62
     7
 10
279.3
 20
1222.3
 11
277.5
 21
1222.3
  0
LINE
  8
DATA
  6
CONTINUOUS
 62
     7
 10
279.3
 20
1230.3
 11
277.5
 21
1230.3
  0
ARC
  8
DATA
  6
CONTINUOUS
 62
     7
 10
285.0
 20
1226.3
 40
8.5
 50
151.927513
 51
208.072487
  0
LINE
  8
DATA
  6
CONTINUOUS
 62
     7
 10
277.5
 20
1222.3
 11
277.5
 21
1230.3
  0
LINE
  8
DATA
  6
CONTINUOUS
 62
     7
 10
277.3
 20
1232.8
 11
275.5
 21
1232.8
  0
LINE
  8
DATA
  6
CONTINUOUS
 62
     7
 10
277.3
 20
1240.8
 11
275.5
 21
1240.8
  0
ARC
  8
DATA
  6
CONTINUOUS
 62
     7
 10
283.0
 20
1236.8
 40
8.5
 50
151.927513
 51
208.072487
  0
LINE
  8
DATA
  6
CONTINUOUS
 62
     7
 10
275.5
 20
1232.8
 11
275.5
 21
1240.8
  0
LINE
  8
DATA
  6
CONTINUOUS
 62
     7
 10
279.3
 20
1107.3
 11
277.5
 21
1107.3
  0
LINE
  8
DATA
  6
CONTINUOUS
 62
     7
 10
279.3
 20
1115.3
 11
277.5
 21
1115.3
  0
ARC
  8
DATA
  6
CONTINUOUS
 62
     7
 10
285.0
 20
1111.3
 40
8.5
 50
151.927513
 51
208.072487
  0
LINE
  8
DATA
  6
CONTINUOUS
 62
     7
 10
277.5
 20
1107.3
 11
277.5
 21
1115.3
  0
LINE
  8
DATA
  6
CONTINUOUS
 62
     7
 10
326.3
 20
1236.97
 11
322.3
 21
1236.97
  0
LINE
  8
DATA
  6
CONTINUOUS
 62
     7
 10
324.3
 20
1234.97
 11
324.3
 21
1238.97
  0
CIRCLE
  8
DATA
  6
CONTINUOUS
 62
     7
 10
324.3
 20
1236.97
 40
4.0
  0
LINE
  8
DIMENSIONS
  6
CONTINUOUS
 62
     7
 10
200.0
 20
1245.47
 11
200.0
 21
1286.47
  0
LINE
  8
DIMENSIONS
  6
CONTINUOUS
 62
     7
 10
285.8
 20
1286.47
 11
190.625
 21
1286.47
  0
LINE
  8
DIMENSIONS
  6
CONTINUOUS
 62
     7
 10
202.4999
 20
1260.47
 11
200.0
 21
1245.47
  0
LINE
  8
DIMENSIONS
  6
CONTINUOUS
 62
     7
 10
197.5001
 20
1260.47
 11
200.0
 21
1245.47
  0
LINE
  8
DIMENSIONS
  6
CONTINUOUS
 62
     7
 10
202.4999
 20
1271.47
 11
200.0
 21
1286.47
  0
LINE
  8
DIMENSIONS
  6
CONTINUOUS
 62
     7
 10
197.5001
 20
1271.47
 11
200.0
 21
1286.47
  0
LINE
  8
DIMENSIONS
  6
CONTINUOUS
 62
     7
 10
271.8
 20
1245.47
 11
190.625
 21
1245.47
  0
LINE
  8
DIMENSIONS
  6
CONTINUOUS
 62
     7
 10
202.4999
 20
1230.47
 11
200.0
 21
1245.47
  0
LINE
  8
DIMENSIONS
  6
CONTINUOUS
 62
     7
 10
197.5001
 20
1230.47
 11
200.0
 21
1245.47
  0
TEXT
  8
DIMENSIONS
  6
CONTINUOUS
 62
     7
 10
190.625
 20
1254.667031
 40
18.75
  1
41
 50
90.0
  7
TTF_DEFAULT
  0
LINE
  8
DIMENSIONS
  6
CONTINUOUS
 62
     7
 10
308.3
 20
1347.5001
 11
293.3
 21
1350.0
  0
LINE
  8
DIMENSIONS
  6
CONTINUOUS
 62
     7
 10
308.3
 20
1352.4999
 11
293.3
 21
1350.0
  0
LINE
  8
DIMENSIONS
  6
CONTINUOUS
 62
     7
 10
292.3
 20
1397.5001
 11
277.3
 21
1400.0
  0
LINE
  8
DIMENSIONS
  6
CONTINUOUS
 62
     7
 10
292.3
 20
1402.4999
 11
277.3
 21
1400.0
  0
TEXT
  8
SPEC
  6
CONTINUOUS
 62
     7
 10
135.9375
 20
1879.6875
 40
18.75
  1
定格ヒューズ  250V. 10A
  7
TTF_DEFAULT
  0
TEXT
  8
SPEC
  6
CONTINUOUS
 62
     7
 10
140.625
 20
1996.875
 40
22.5
  1
仕様
  7
TTF_DEFAULT
  0
TEXT
  8
SPEC
  6
CONTINUOUS
 62
     7
 10
135.9375
 20
1964.0625
 40
18.75
  1
電源/消費電力
  7
TTF_DEFAULT
  0
TEXT
  8
SPEC
  6
CONTINUOUS
 62
     7
 10
135.9375
 20
1935.9375
 40
18.75
  1
重量
  7
TTF_DEFAULT
  0
TEXT
  8
SPEC
  6
CONTINUOUS
 62
     7
 10
135.9375
 20
1907.8125
 40
18.75
  1
寸法
  7
TTF_DEFAULT
  0
LINE
  8
SPEC
  6
CONTINUOUS
 62
     7
 10
131.25
 20
1903.125
 11
131.25
 21
1987.5
  0
ARC
  8
DATA
  6
CONTINUOUS
 62
     7
 10
368.8
 20
1242.48875
 40
5.78125
 50
55.794542
 51
124.205458
  0
LINE
  8
DATA
  6
CONTINUOUS
 62
     7
 10
425.55
 20
1248.47
 11
427.3
 21
1248.47
  0
LINE
  8
DATA
  6
CONTINUOUS
 62
     7
 10
376.3
 20
1248.47
 11
379.55
 21
1248.47
  0
LINE
  8
DATA
  6
CONTINUOUS
 62
     7
 10
427.3
 20
1248.47
 11
427.3
 21
1245.47
  0
LINE
  8
DATA
  6
CONTINUOUS
 62
     7
 10
376.3
 20
1248.47
 11
376.3
 21
1245.47
  0
LINE
  8
DATA
  6
CONTINUOUS
 62
     7
 10
365.55
 20
1245.47
 11
365.55
 21
1247.27
  0
LINE
  8
DATA
  6
CONTINUOUS
 62
     7
 10
372.05
 20
1245.47
 11
372.05
 21
1247.27
  0
LINE
  8
DATA
  6
CONTINUOUS
 62
     7
 10
365.55
 20
1247.27
 11
372.05
 21
1247.27
  0
LINE
  8
DATA
  6
CONTINUOUS
 62
     7
 10
422.3
 20
1254.47
 11
422.3
 21
1252.47
  0
LINE
  8
DATA
  6
CONTINUOUS
 62
     7
 10
422.3
 20
1257.90449
 11
422.3
 21
1255.97
  0
LINE
  8
DATA
  6
CONTINUOUS
 62
     7
 10
422.3
 20
1250.97
 11
422.3
 21
1248.97
  0
LINE
  8
DATA
  6
CONTINUOUS
 62
     7
 10
423.55
 20
1250.97
 11
423.55
 21
1252.47
  0
LINE
  8
DATA
  6
CONTINUOUS
 62
     7
 10
423.55
 20
1254.47
 11
423.55
 21
1255.97
  0
LINE
  8
DATA
  6
CONTINUOUS
 62
     7
 10
423.55
 20
1257.97
 11
423.55
 21
1259.47
  0
LINE
  8
DATA
  6
CONTINUOUS
 62
     7
 10
381.55
 20
1255.768873
 11
423.55
 21
1257.97
  0
LINE
  8
DATA
  6
CONTINUOUS
 62
     7
 10
382.8
 20
1250.334383
 11
382.8
 21
1252.334383
  0
LINE
  8
DATA
  6
CONTINUOUS
 62
     7
 10
382.8
 20
1253.834383
 11
382.8
 21
1255.834383
  0
LINE
  8
DATA
  6
CONTINUOUS
 62
     7
 10
381.55
 20
1252.268873
 11
381.55
 21
1253.768873
  0
LINE
  8
DATA
  6
CONTINUOUS
 62
     7
 10
381.55
 20
1248.97
 11
381.55
 21
1250.268873
  0
LINE
  8
DATA
  6
CONTINUOUS
 62
     7
 10
381.55
 20
1255.768873
 11
381.55
 21
1257.268873
  0
LINE
  8
DATA
  6
CONTINUOUS
 62
     7
 10
382.8
 20
1259.47
 11
423.55
 21
1259.47
  0
LINE
  8
DATA
  6
CONTINUOUS
 62
     7
 10
382.8
 20
1259.47
 11
382.8
 21
1257.334383
  0
LINE
  8
DATA
  6
CONTINUOUS
 62
     7
 10
385.387727
 20
1248.97
 11
423.55
 21
1250.97
  0
LINE
  8
DATA
  6
CONTINUOUS
 62
     7
 10
381.55
 20
1250.268873
 11
423.55
 21
1252.47
  0
LINE
  8
DATA
  6
CONTINUOUS
 62
     7
 10
381.55
 20
1252.268873
 11
423.55
 21
1254.47
  0
LINE
  8
DATA
  6
CONTINUOUS
 62
     7
 10
381.55
 20
1253.768873
 11
423.55
 21
1255.97
  0
LINE
  8
DATA
  6
CONTINUOUS
 62
     7
 10
381.55
 20
1257.268873
 11
423.55
 21
1259.47
  0
LINE
  8
DATA
  6
CONTINUOUS
 62
     7
 10
420.45
 20
1259.47
 11
420.45
 21
1270.47
  0
LINE
  8
DATA
  6
CONTINUOUS
 62
     7
 10
384.65
 20
1259.47
 11
384.65
 21
1270.47
  0
LINE
  8
DATA
  6
CONTINUOUS
 62
     7
 10
425.55
 20
1248.97
 11
425.55
 21
1245.47
  0
LINE
  8
DATA
  6
CONTINUOUS
 62
     7
 10
379.55
 20
1248.97
 11
379.55
 21
1245.47
  0
LINE
  8
DATA
  6
CONTINUOUS
 62
     7
 10
379.55
 20
1248.97
 11
425.55
 21
1248.97
  0
LINE
  8
DATA
  6
CONTINUOUS
 62
     7
 10
384.65
 20
1270.47
 11
420.45
 21
1270.47
  0
LINE
  8
DATA
  6
CONTINUOUS
 62
     7
 10
493.3
 20
1236.97
 11
489.3
 21
1236.97
  0
LINE
  8
DATA
  6
CONTINUOUS
 62
     7
 10
491.3
 20
1234.97
 11
491.3
 21
1238.97
  0
CIRCLE
  8
DATA
  6
CONTINUOUS
 62
     7
 10
491.3
 20
1236.97
 40
4.0
  0
TEXT
  8
DIMENSIONS
  6
CONTINUOUS
 62
     7
 10
475.937383
 20
1409.375
 40
18.75
  1
428
  7
TTF_DEFAULT
  0
TEXT
  8
DIMENSIONS
  6
CONTINUOUS
 62
     7
 10
475.937383
 20
1359.375
 40
18.75
  1
396
  7
TTF_DEFAULT
  0
LINE
  8
DIMENSIONS
  6
CONTINUOUS
 62
     7
 10
689.3
 20
1293.97
 11
689.3
 21
1359.375
  0
LINE
  8
DIMENSIONS
  6
CONTINUOUS
 62
     7
 10
705.3
 20
1252.97
 11
705.3
 21
1409.375
  0
ARC
  8
DATA
  6
CONTINUOUS
 62
     7
 10
613.8
 20
1242.48875
 40
5.78125
 50
55.794542
 51
124.205458
  0
ARC
  8
DATA
  6
CONTINUOUS
 62
     7
 10
684.3
 20
1242.48875
 40
5.78125
 50
55.794542
 51
124.205458
  0
LINE
  8
DATA
  6
CONTINUOUS
 62
     7
 10
617.05
 20
1245.47
 11
617.05
 21
1247.27
  0
LINE
  8
DATA
  6
CONTINUOUS
 62
     7
 10
610.55
 20
1245.47
 11
610.55
 21
1247.27
  0
LINE
  8
DATA
  6
CONTINUOUS
 62
     7
 10
617.05
 20
1247.27
 11
610.55
 21
1247.27
  0
LINE
  8
DATA
  6
CONTINUOUS
 62
     7
 10
687.55
 20
1245.47
 11
687.55
 21
1247.27
  0
LINE
  8
DATA
  6
CONTINUOUS
 62
     7
 10
681.05
 20
1245.47
 11
681.05
 21
1247.27
  0
LINE
  8
DATA
  6
CONTINUOUS
 62
     7
 10
687.55
 20
1247.27
 11
681.05
 21
1247.27
  0
LINE
  8
DATA
  6
CONTINUOUS
 62
     7
 10
599.8
 20
1254.47
 11
599.8
 21
1252.47
  0
LINE
  8
DATA
  6
CONTINUOUS
 62
     7
 10
599.8
 20
1257.90449
 11
599.8
 21
1255.97
  0
LINE
  8
DATA
  6
CONTINUOUS
 62
     7
 10
599.8
 20
1250.97
 11
599.8
 21
1248.97
  0
LINE
  8
DATA
  6
CONTINUOUS
 62
     7
 10
601.05
 20
1250.97
 11
601.05
 21
1252.47
  0
LINE
  8
DATA
  6
CONTINUOUS
 62
     7
 10
601.05
 20
1254.47
 11
601.05
 21
1255.97
  0
LINE
  8
DATA
  6
CONTINUOUS
 62
     7
 10
601.05
 20
1257.97
 11
601.05
 21
1259.47
  0
LINE
  8
DATA
  6
CONTINUOUS
 62
     7
 10
559.05
 20
1255.768873
 11
601.05
 21
1257.97
  0
LINE
  8
DATA
  6
CONTINUOUS
 62
     7
 10
560.3
 20
1250.334383
 11
560.3
 21
1252.334383
  0
LINE
  8
DATA
  6
CONTINUOUS
 62
     7
 10
560.3
 20
1253.834383
 11
560.3
 21
1255.834383
  0
LINE
  8
DATA
  6
CONTINUOUS
 62
     7
 10
559.05
 20
1252.268873
 11
559.05
 21
1253.768873
  0
LINE
  8
DATA
  6
CONTINUOUS
 62
     7
 10
559.05
 20
1248.97
 11
559.05
 21
1250.268873
  0
LINE
  8
DATA
  6
CONTINUOUS
 62
     7
 10
559.05
 20
1255.768873
 11
559.05
 21
1257.268873
  0
LINE
  8
DATA
  6
CONTINUOUS
 62
     7
 10
560.3
 20
1259.47
 11
601.05
 21
1259.47
  0
LINE
  8
DATA
  6
CONTINUOUS
 62
     7
 10
560.3
 20
1259.47
 11
560.3
 21
1257.334383
  0
LINE
  8
DATA
  6
CONTINUOUS
 62
     7
 10
562.887727
 20
1248.97
 11
601.05
 21
1250.97
  0
LINE
  8
DATA
  6
CONTINUOUS
 62
     7
 10
559.05
 20
1250.268873
 11
601.05
 21
1252.47
  0
LINE
  8
DATA
  6
CONTINUOUS
 62
     7
 10
559.05
 20
1252.268873
 11
601.05
 21
1254.47
  0
LINE
  8
DATA
  6
CONTINUOUS
 62
     7
 10
559.05
 20
1253.768873
 11
601.05
 21
1255.97
  0
LINE
  8
DATA
  6
CONTINUOUS
 62
     7
 10
559.05
 20
1257.268873
 11
601.05
 21
1259.47
  0
LINE
  8
DATA
  6
CONTINUOUS
 62
     7
 10
597.95
 20
1259.47
 11
597.95
 21
1270.47
  0
LINE
  8
DATA
  6
CONTINUOUS
 62
     7
 10
562.15
 20
1259.47
 11
562.15
 21
1270.47
  0
LINE
  8
DATA
  6
CONTINUOUS
 62
     7
 10
603.05
 20
1248.97
 11
603.05
 21
1245.47
  0
LINE
  8
DATA
  6
CONTINUOUS
 62
     7
 10
557.05
 20
1248.97
 11
557.05
 21
1245.47
  0
LINE
  8
DATA
  6
CONTINUOUS
 62
     7
 10
557.05
 20
1248.97
 11
603.05
 21
1248.97
  0
LINE
  8
DATA
  6
CONTINUOUS
 62
     7
 10
562.15
 20
1270.47
 11
597.95
 21
1270.47
  0
ARC
  8
DATA
  6
CONTINUOUS
 62
     7
 10
702.8
 20
1245.47
 40
2.5
 50
360.0
 51
90.0
  0
LINE
  8
DATA
  6
CONTINUOUS
 62
     7
 10
705.3
 20
1230.97
 11
705.3
 21
1245.47
  0
LINE
  8
DATA
  6
CONTINUOUS
 62
     7
 10
689.8
 20
1247.97
 11
702.8
 21
1247.97
  0
ARC
  8
DATA
  6
CONTINUOUS
 62
     7
 10
689.8
 20
1248.47
 40
2.5
 50
180.0
 51
270.0
  0
LINE
  8
DATA
  6
CONTINUOUS
 62
     7
 10
687.3
 20
1248.47
 11
687.3
 21
1286.47
  0
LINE
  8
DATA
  6
CONTINUOUS
 62
     7
 10
689.8
 20
1245.97
 11
702.8
 21
1245.97
  0
ARC
  8
DATA
  6
CONTINUOUS
 62
     7
 10
689.8
 20
1248.47
 40
0.5
 50
180.0
 51
270.0
  0
LINE
  8
DATA
  6
CONTINUOUS
 62
     7
 10
689.3
 20
1248.47
 11
689.3
 21
1286.47
  0
ARC
  8
DATA
  6
CONTINUOUS
 62
     7
 10
702.8
 20
1245.47
 40
0.5
 50
0.0
 51
90.0
  0
LINE
  8
DATA
  6
CONTINUOUS
 62
     7
 10
687.3
 20
1281.47
 11
689.3
 21
1281.47
  0
LINE
  8
DATA
  6
CONTINUOUS
 62
     7
 10
687.3
 20
1286.47
 11
689.3
 21
1286.47
  0
LINE
  8
DATA
  6
CONTINUOUS
 62
     7
 10
703.3
 20
1230.97
 11
705.3
 21
1230.97
  0
LINE
  8
DATA
  6
CONTINUOUS
 62
     7
 10
703.3
 20
1107.3
 11
705.1
 21
1107.3
  0
LINE
  8
DATA
  6
CONTINUOUS
 62
     7
 10
703.3
 20
1115.3
 11
705.1
 21
1115.3
  0
ARC
  8
DATA
  6
CONTINUOUS
 62
     7
 10
697.6
 20
1111.3
 40
8.5
 50
331.927513
 51
28.072487
  0
LINE
  8
DATA
  6
CONTINUOUS
 62
     7
 10
705.1
 20
1107.3
 11
705.1
 21
1115.3
  0
LINE
  8
DATA
  6
CONTINUOUS
 62
     7
 10
703.3
 20
1222.3
 11
705.1
 21
1222.3
  0
LINE
  8
DATA
  6
CONTINUOUS
 62
     7
 10
703.3
 20
1230.3
 11
705.1
 21
1230.3
  0
ARC
  8
DATA
  6
CONTINUOUS
 62
     7
 10
697.6
 20
1226.3
 40
8.5
 50
331.927513
 51
28.072487
  0
LINE
  8
DATA
  6
CONTINUOUS
 62
     7
 10
705.1
 20
1222.3
 11
705.1
 21
1230.3
  0
LINE
  8
DATA
  6
CONTINUOUS
 62
     7
 10
705.3
 20
1232.8
 11
707.1
 21
1232.8
  0
LINE
  8
DATA
  6
CONTINUOUS
 62
     7
 10
705.3
 20
1240.8
 11
707.1
 21
1240.8
  0
ARC
  8
DATA
  6
CONTINUOUS
 62
     7
 10
699.6
 20
1236.8
 40
8.5
 50
331.927513
 51
28.072487
  0
LINE
  8
DATA
  6
CONTINUOUS
 62
     7
 10
707.1
 20
1232.8
 11
707.1
 21
1240.8
  0
LINE
  8
DATA
  6
CONTINUOUS
 62
     7
 10
660.3
 20
1236.97
 11
656.3
 21
1236.97
  0
LINE
  8
DATA
  6
CONTINUOUS
 62
     7
 10
658.3
 20
1234.97
 11
658.3
 21
1238.97
  0
CIRCLE
  8
DATA
  6
CONTINUOUS
 62
     7
 10
658.3
 20
1236.97
 40
4.0
  0
LINE
  8
DIMENSIONS
  6
CONTINUOUS
 62
     7
 10
674.3
 20
1347.5001
 11
689.3
 21
1350.0
  0
LINE
  8
DIMENSIONS
  6
CONTINUOUS
 62
     7
 10
674.3
 20
1352.4999
 11
689.3
 21
1350.0
  0
LINE
  8
DIMENSIONS
  6
CONTINUOUS
 62
     7
 10
690.3
 20
1397.5001
 11
705.3
 21
1400.0
  0
LINE
  8
DIMENSIONS
  6
CONTINUOUS
 62
     7
 10
690.3
 20
1402.4999
 11
705.3
 21
1400.0
  0
TEXT
  8
SPEC
  6
CONTINUOUS
 62
     7
 10
379.6875
 20
1964.0625
 40
18.75
  1
AC100V 50/60Hz 900W
  7
TTF_DEFAULT
  0
LINE
  8
SPEC
  6
CONTINUOUS
 62
     7
 10
375.0
 20
1987.5
 11
375.0
 21
1903.125
  0
TEXT
  8
SPEC
  6
CONTINUOUS
 62
     7
 10
379.6875
 20
1935.9375
 40
18.75
  1
約35kg
  7
TTF_DEFAULT
  0
TEXT
  8
HIBINO-BASE
  6
CONTINUOUS
 62
     7
 10
1110.0
 20
168.75
 40
18.75
  1
DRAWN
  7
TTF_DEFAULT
  0
LINE
  8
HIBINO-BASE
  6
CONTINUOUS
 62
     7
 10
750.0
 20
187.5
 11
1425.0
 21
187.5
  0
TEXT
  8
HIBINO-BASE
  6
CONTINUOUS
 62
     7
 10
1115.625
 20
131.25
 40
18.75
  1
N.Sasaki
  7
TTF_DEFAULT
  0
LINE
  8
DIMENSIONS
  6
CONTINUOUS
 62
     7
 10
750.0
 20
282.25
 11
1425.0
 21
282.25
  0
LINE
  8
DIMENSIONS
  6
CONTINUOUS
 62
     7
 10
750.0
 20
280.25
 11
1425.0
 21
280.25
  0
LINE
  8
DIMENSIONS
  6
CONTINUOUS
 62
     7
 10
750.0
 20
282.25
 11
750.0
 21
280.25
  0
LINE
  8
DIMENSIONS
  6
CONTINUOUS
 62
     7
 10
1425.0
 20
282.25
 11
1425.0
 21
280.25
  0
SOLID
  8
HIBINO-BASE
  6
CONTINUOUS
 62
     7
 10
750.0
 20
282.25
 11
1425.0
 21
282.25
 12
750.0
 22
280.25
 13
1425.0
 23
280.25
  0
LINE
  8
DATA
  6
CONTINUOUS
 62
     7
 10
829.3
 20
556.45
 11
1220.47
 21
556.45
  0
LINE
  8
DATA
  6
CONTINUOUS
 62
     7
 10
829.3
 20
724.95
 11
1220.47
 21
724.95
  0
LINE
  8
DATA
  6
CONTINUOUS
 62
     7
 10
829.3
 20
624.7
 11
1205.47
 21
624.7
  0
LINE
  8
DATA
  6
CONTINUOUS
 62
     7
 10
829.3
 20
625.2
 11
1205.47
 21
625.2
  0
LINE
  8
DIMENSIONS
  6
CONTINUOUS
 62
     7
 10
825.0
 20
500.0
 11
1220.47
 21
500.0
  0
LINE
  8
DIMENSIONS
  6
CONTINUOUS
 62
     7
 10
785.0
 20
581.0
 11
785.0
 21
490.625
  0
LINE
  8
DIMENSIONS
  6
CONTINUOUS
 62
     7
 10
825.0
 20
542.5
 11
825.0
 21
490.625
  0
TEXT
  8
HIBINO-BASE
  6
CONTINUOUS
 62
     7
 10
922.5
 20
168.75
 40
18.75
  1
DATE
  7
TTF_DEFAULT
  0
TEXT
  8
HIBINO-BASE
  6
CONTINUOUS
 62
     7
 10
928.125
 20
131.25
 40
18.75
  1
'99.12.
  7
TTF_DEFAULT
  0
LINE
  8
DIMENSIONS
  6
CONTINUOUS
 62
     7
 10
749.0
 20
112.5
 11
749.0
 21
281.25
  0
LINE
  8
DIMENSIONS
  6
CONTINUOUS
 62
     7
 10
751.0
 20
112.5
 11
751.0
 21
281.25
  0
LINE
  8
DIMENSIONS
  6
CONTINUOUS
 62
     7
 10
749.0
 20
112.5
 11
751.0
 21
112.5
  0
LINE
  8
DIMENSIONS
  6
CONTINUOUS
 62
     7
 10
749.0
 20
281.25
 11
751.0
 21
281.25
  0
SOLID
  8
HIBINO-BASE
  6
CONTINUOUS
 62
     7
 10
749.0
 20
112.5
 11
749.0
 21
281.25
 12
751.0
 22
112.5
 13
751.0
 23
281.25
  0
LINE
  8
HIBINO-BASE
  6
CONTINUOUS
 62
     7
 10
843.75
 20
112.5
 11
843.75
 21
187.5
  0
LINE
  8
HIBINO-BASE
  6
CONTINUOUS
 62
     7
 10
918.75
 20
112.5
 11
918.75
 21
187.5
  0
TEXT
  8
HIBINO-BASE
  6
CONTINUOUS
 62
     7
 10
847.5
 20
168.75
 40
18.75
  1
SCALE
  7
TTF_DEFAULT
  0
TEXT
  8
HIBINO-BASE
  6
CONTINUOUS
 62
     7
 10
753.75
 20
168.75
 40
16.875
  1
図面サイズ
  7
TTF_DEFAULT
  0
TEXT
  8
HIBINO-BASE
  6
CONTINUOUS
 62
     7
 10
853.125
 20
135.9375
 40
22.5
  1
1
  7
TTF_DEFAULT
  0
LINE
  8
HIBINO-BASE
  6
CONTINUOUS
 62
     7
 10
857.8125
 20
121.875
 11
885.9375
 21
150.0
  0
TEXT
  8
HIBINO-BASE
  6
CONTINUOUS
 62
     7
 10
778.125
 20
121.875
 40
30.0
  1
A4
  7
TTF_DEFAULT
  0
TEXT
  8
HIBINO-BASE
  6
CONTINUOUS
 62
     7
 10
881.25
 20
121.875
 40
22.5
  1
7.5
  7
TTF_DEFAULT
  0
TEXT
  8
HIBINO-BASE
  6
CONTINUOUS
 62
     7
 10
753.75
 20
262.5
 40
18.75
  1
NOTE
  7
TTF_DEFAULT
  0
LINE
  8
DIMENSIONS
  6
CONTINUOUS
 62
     7
 10
785.0
 20
500.0
 11
825.0
 21
500.0
  0
LINE
  8
DIMENSIONS
  6
CONTINUOUS
 62
     7
 10
800.0
 20
497.5001
 11
785.0
 21
500.0
  0
LINE
  8
DIMENSIONS
  6
CONTINUOUS
 62
     7
 10
800.0
 20
502.4999
 11
785.0
 21
500.0
  0
LINE
  8
DIMENSIONS
  6
CONTINUOUS
 62
     7
 10
810.0
 20
497.5001
 11
825.0
 21
500.0
  0
LINE
  8
DIMENSIONS
  6
CONTINUOUS
 62
     7
 10
810.0
 20
502.4999
 11
825.0
 21
500.0
  0
LINE
  8
DIMENSIONS
  6
CONTINUOUS
 62
     7
 10
840.0
 20
497.5001
 11
825.0
 21
500.0
  0
LINE
  8
DIMENSIONS
  6
CONTINUOUS
 62
     7
 10
840.0
 20
502.4999
 11
825.0
 21
500.0
  0
LINE
  8
HIBINO-BASE
  6
CONTINUOUS
 62
     7
 10
1012.5
 20
112.5
 11
1012.5
 21
281.25
  0
LINE
  8
HIBINO-BASE
  6
CONTINUOUS
 62
     7
 10
1106.25
 20
187.5
 11
1106.25
 21
112.5
  0
TEXT
  8
HIBINO-BASE
  6
CONTINUOUS
 62
     7
 10
1016.25
 20
168.75
 40
18.75
  1
DESIGN
  7
TTF_DEFAULT
  0
TEXT
  8
HIBINO-BASE
  6
CONTINUOUS
 62
     7
 10
1016.25
 20
262.5
 40
18.75
  1
TITLE
  7
TTF_DEFAULT
  0
LINE
  8
DATA
  6
CONTINUOUS
 62
     7
 10
823.6
 20
661.0
 11
825.0
 21
661.0
  0
LINE
  8
DATA
  6
CONTINUOUS
 62
     7
 10
823.6
 20
661.0
 11
823.6
 21
642.0
  0
LINE
  8
DATA
  6
CONTINUOUS
 62
     7
 10
814.0
 20
583.5
 11
814.0
 21
642.0
  0
LINE
  8
DATA
  6
CONTINUOUS
 62
     7
 10
814.0
 20
558.5
 11
814.0
 21
573.5
  0
LINE
  8
DATA
  6
CONTINUOUS
 62
     7
 10
834.3
 20
574.5
 11
834.3
 21
582.5
  0
LINE
  8
DATA
  6
CONTINUOUS
 62
     7
 10
834.3
 20
694.5
 11
834.3
 21
702.5
  0
LINE
  8
DATA
  6
CONTINUOUS
 62
     7
 10
852.0
 20
556.2
 11
852.0
 21
555.0
  0
LINE
  8
DATA
  6
CONTINUOUS
 62
     7
 10
827.3
 20
555.0
 11
827.3
 21
727.0
  0
LINE
  8
DATA
  6
CONTINUOUS
 62
     7
 10
829.3
 20
555.0
 11
829.3
 21
727.0
  0
LINE
  8
DATA
  6
CONTINUOUS
 62
     7
 10
827.0
 20
550.0
 11
827.0
 21
727.0
  0
LINE
  8
DATA
  6
CONTINUOUS
 62
     7
 10
785.0
 20
588.5
 11
785.0
 21
688.5
  0
LINE
  8
DATA
  6
CONTINUOUS
 62
     7
 10
795.0
 20
588.5
 11
795.0
 21
688.5
  0
LINE
  8
DATA
  6
CONTINUOUS
 62
     7
 10
823.0
 20
586.0
 11
823.0
 21
571.0
  0
LINE
  8
DATA
  6
CONTINUOUS
 62
     7
 10
822.5
 20
585.25
 11
822.5
 21
571.75
  0
LINE
  8
DATA
  6
CONTINUOUS
 62
     7
 10
823.0
 20
691.0
 11
823.0
 21
706.0
  0
LINE
  8
DATA
  6
CONTINUOUS
 62
     7
 10
822.5
 20
691.75
 11
822.5
 21
705.25
  0
LINE
  8
DATA
  6
CONTINUOUS
 62
     7
 10
825.0
 20
727.0
 11
825.0
 21
550.0
  0
ARC
  8
DATA
  6
CONTINUOUS
 62
     7
 10
825.0
 20
683.5
 40
2.5
 50
90.0
 51
270.0
  0
ARC
  8
DATA
  6
CONTINUOUS
 62
     7
 10
825.0
 20
666.0
 40
2.5
 50
90.0
 51
270.0
  0
LINE
  8
DATA
  6
CONTINUOUS
 62
     7
 10
814.0
 20
558.5
 11
825.0
 21
558.5
  0
LINE
  8
DATA
  6
CONTINUOUS
 62
     7
 10
814.0
 20
642.0
 11
825.0
 21
642.0
  0
LINE
  8
DATA
  6
CONTINUOUS
 62
     7
 10
854.8
 20
638.7
 11
854.8
 21
642.7
  0
LINE
  8
DATA
  6
CONTINUOUS
 62
     7
 10
852.8
 20
640.7
 11
856.8
 21
640.7
  0
CIRCLE
  8
DATA
  6
CONTINUOUS
 62
     7
 10
854.8
 20
640.7
 40
4.0
  0
LINE
  8
DATA
  6
CONTINUOUS
 62
     7
 10
829.3
 20
574.5
 11
834.3
 21
574.5
  0
LINE
  8
DATA
  6
CONTINUOUS
 62
     7
 10
829.3
 20
582.5
 11
834.3
 21
582.5
  0
LINE
  8
DATA
  6
CONTINUOUS
 62
     7
 10
829.3
 20
694.5
 11
834.3
 21
694.5
  0
LINE
  8
DATA
  6
CONTINUOUS
 62
     7
 10
829.3
 20
702.5
 11
834.3
 21
702.5
  0
LINE
  8
DATA
  6
CONTINUOUS
 62
     7
 10
827.0
 20
555.0
 11
852.0
 21
555.0
  0
LINE
  8
DATA
  6
CONTINUOUS
 62
     7
 10
825.0
 20
550.0
 11
827.0
 21
550.0
  0
LINE
  8
DATA
  6
CONTINUOUS
 62
     7
 10
825.0
 20
727.0
 11
829.3
 21
727.0
  0
ARC
  8
DATA
  6
CONTINUOUS
 62
     7
 10
800.0
 20
588.5
 40
15.0
 50
180.0
 51
270.0
  0
LINE
  8
DATA
  6
CONTINUOUS
 62
     7
 10
800.0
 20
573.5
 11
822.5
 21
573.5
  0
ARC
  8
DATA
  6
CONTINUOUS
 62
     7
 10
800.0
 20
588.5
 40
5.0
 50
180.0
 51
270.0
  0
LINE
  8
DATA
  6
CONTINUOUS
 62
     7
 10
800.0
 20
583.5
 11
822.5
 21
583.5
  0
LINE
  8
DATA
  6
CONTINUOUS
 62
     7
 10
822.5
 20
585.25
 11
823.0
 21
586.0
  0
LINE
  8
DATA
  6
CONTINUOUS
 62
     7
 10
822.5
 20
571.75
 11
823.0
 21
571.0
  0
LINE
  8
DATA
  6
CONTINUOUS
 62
     7
 10
823.0
 20
586.0
 11
825.0
 21
586.0
  0
LINE
  8
DATA
  6
CONTINUOUS
 62
     7
 10
823.0
 20
571.0
 11
825.0
 21
571.0
  0
ARC
  8
DATA
  6
CONTINUOUS
 62
     7
 10
800.0
 20
688.5
 40
5.0
 50
90.0
 51
180.0
  0
LINE
  8
DATA
  6
CONTINUOUS
 62
     7
 10
800.0
 20
693.5
 11
822.5
 21
693.5
  0
ARC
  8
DATA
  6
CONTINUOUS
 62
     7
 10
800.0
 20
688.5
 40
15.0
 50
90.0
 51
180.0
  0
LINE
  8
DATA
  6
CONTINUOUS
 62
     7
 10
800.0
 20
703.5
 11
822.5
 21
703.5
  0
LINE
  8
DATA
  6
CONTINUOUS
 62
     7
 10
822.5
 20
691.75
 11
823.0
 21
691.0
  0
LINE
  8
DATA
  6
CONTINUOUS
 62
     7
 10
822.5
 20
705.25
 11
823.0
 21
706.0
  0
LINE
  8
DATA
  6
CONTINUOUS
 62
     7
 10
823.0
 20
691.0
 11
825.0
 21
691.0
  0
LINE
  8
DATA
  6
CONTINUOUS
 62
     7
 10
823.0
 20
706.0
 11
825.0
 21
706.0
  0
LINE
  8
DATA
  6
CONTINUOUS
 62
     7
 10
890.5
 20
546.65
 11
891.5
 21
556.45
  0
LINE
  8
DATA
  6
CONTINUOUS
 62
     7
 10
872.5
 20
546.65
 11
871.5
 21
556.45
  0
LINE
  8
DATA
  6
CONTINUOUS
 62
     7
 10
872.5
 20
546.65
 11
890.5
 21
546.65
  0
TEXT
  8
DIMENSIONS
  6
CONTINUOUS
 62
     7
 10
794.658211
 20
509.375
 40
18.75
  1
40
  7
TTF_DEFAULT
  0
LINE
  8
DATA
  6
CONTINUOUS
 62
     7
 10
1086.3
 20
638.7
 11
1086.3
 21
642.7
  0
LINE
  8
DATA
  6
CONTINUOUS
 62
     7
 10
1084.3
 20
640.7
 11
1088.3
 21
640.7
  0
CIRCLE
  8
DATA
  6
CONTINUOUS
 62
     7
 10
1086.3
 20
640.7
 40
4.0
  0
LINE
  8
DATA
  6
CONTINUOUS
 62
     7
 10
969.8
 20
638.7
 11
969.8
 21
642.7
  0
LINE
  8
DATA
  6
CONTINUOUS
 62
     7
 10
967.8
 20
640.7
 11
971.8
 21
640.7
  0
CIRCLE
  8
DATA
  6
CONTINUOUS
 62
     7
 10
969.8
 20
640.7
 40
4.0
  0
TEXT
  8
DIMENSIONS
  6
CONTINUOUS
 62
     7
 10
994.530121
 20
509.375
 40
18.75
  1
395.47
  7
TTF_DEFAULT
  0
LINE
  8
DIMENSIONS
  6
CONTINUOUS
 62
     7
 10
1220.47
 20
548.95
 11
1220.47
 21
490.625
  0
TEXT
  8
DIMENSIONS
  6
CONTINUOUS
 62
     7
 10
1265.625
 20
495.825
 40
18.75
  1
9.8
 50
90.0
  7
TTF_DEFAULT
  0
TEXT
  8
DIMENSIONS
  6
CONTINUOUS
 62
     7
 10
1315.625
 20
502.525
 40
18.75
  1
31.7
 50
90.0
  7
TTF_DEFAULT
  0
TEXT
  8
HIBINO-BASE
  6
CONTINUOUS
 62
     7
 10
1297.5
 20
168.75
 40
18.75
  1
DRAWING NO.
  7
TTF_DEFAULT
  0
TEXT
  8
HIBINO-BASE
  6
CONTINUOUS
 62
     7
 10
1190.475197
 20
64.4349
 40
30.0
  1
ヒビノ株式会社
  7
TTF_DEFAULT
  0
TEXT
  8
DATA
  6
CONTINUOUS
 62
     7
 10
1143.75
 20
214.0625
 40
22.5
  1
CPS2000
  7
TTF_DEFAULT
  0
LINE
  8
HIBINO-BASE
  6
CONTINUOUS
 62
     7
 10
1200.0
 20
112.5
 11
1200.0
 21
187.5
  0
LINE
  8
HIBINO-BASE
  6
CONTINUOUS
 62
     7
 10
1293.75
 20
187.5
 11
1293.75
 21
112.5
  0
TEXT
  8
HIBINO-BASE
  6
CONTINUOUS
 62
     7
 10
1203.75
 20
168.75
 40
18.75
  1
CHECK
  7
TTF_DEFAULT
  0
TEXT
  8
DATA
  6
CONTINUOUS
 62
     7
 10
1143.75
 20
248.4375
 40
22.5
  1
Soundcraft
  7
TTF_DEFAULT
  0
LINE
  8
DIMENSIONS
  6
CONTINUOUS
 62
     7
 10
1205.47
 20
497.5001
 11
1220.47
 21
500.0
  0
LINE
  8
DIMENSIONS
  6
CONTINUOUS
 62
     7
 10
1205.47
 20
502.4999
 11
1220.47
 21
500.0
  0
LINE
  8
DIMENSIONS
  6
CONTINUOUS
 62
     7
 10
1260.47
 20
588.15
 11
1334.375
 21
588.15
  0
LINE
  8
DIMENSIONS
  6
CONTINUOUS
 62
     7
 10
1260.47
 20
689.75
 11
1334.375
 21
689.75
  0
LINE
  8
DIMENSIONS
  6
CONTINUOUS
 62
     7
 10
1227.97
 20
724.95
 11
1384.375
 21
724.95
  0
LINE
  8
DIMENSIONS
  6
CONTINUOUS
 62
     7
 10
1227.97
 20
556.45
 11
1384.375
 21
556.45
  0
LINE
  8
DIMENSIONS
  6
CONTINUOUS
 62
     7
 10
1261.47
 20
702.7
 11
1261.47
 21
809.375
  0
LINE
  8
DIMENSIONS
  6
CONTINUOUS
 62
     7
 10
1220.47
 20
732.45
 11
1220.47
 21
809.375
  0
LINE
  8
DATA
  6
CONTINUOUS
 62
     7
 10
1222.97
 20
573.7
 11
1256.47
 21
573.7
  0
LINE
  8
DATA
  6
CONTINUOUS
 62
     7
 10
1222.97
 20
700.2
 11
1256.47
 21
700.2
  0
LINE
  8
DATA
  6
CONTINUOUS
 62
     7
 10
1249.97
 20
584.65
 11
1252.97
 21
584.65
  0
LINE
  8
DATA
  6
CONTINUOUS
 62
     7
 10
1249.97
 20
591.65
 11
1252.97
 21
591.65
  0
ARC
  8
DATA
  6
CONTINUOUS
 62
     7
 10
1252.97
 20
588.15
 40
3.5
 50
270.0
 51
90.0
  0
ARC
  8
DATA
  6
CONTINUOUS
 62
     7
 10
1249.97
 20
588.15
 40
3.5
 50
90.0
 51
270.0
  0
LINE
  8
DATA
  6
CONTINUOUS
 62
     7
 10
1249.97
 20
686.25
 11
1252.97
 21
686.25
  0
LINE
  8
DATA
  6
CONTINUOUS
 62
     7
 10
1249.97
 20
693.25
 11
1252.97
 21
693.25
  0
ARC
  8
DATA
  6
CONTINUOUS
 62
     7
 10
1252.97
 20
689.75
 40
3.5
 50
270.0
 51
90.0
  0
ARC
  8
DATA
  6
CONTINUOUS
 62
     7
 10
1249.97
 20
689.75
 40
3.5
 50
90.0
 51
270.0
  0
LINE
  8
DATA
  6
CONTINUOUS
 62
     7
 10
1261.47
 20
695.2
 11
1256.47
 21
700.2
  0
LINE
  8
DATA
  6
CONTINUOUS
 62
     7
 10
1261.47
 20
578.7
 11
1261.47
 21
695.2
  0
LINE
  8
DATA
  6
CONTINUOUS
 62
     7
 10
1261.47
 20
578.7
 11
1256.47
 21
573.7
  0
LINE
  8
DATA
  6
CONTINUOUS
 62
     7
 10
1220.47
 20
556.45
 11
1220.47
 21
558.7
  0
LINE
  8
DATA
  6
CONTINUOUS
 62
     7
 10
1220.47
 20
715.2
 11
1220.47
 21
724.95
  0
LINE
  8
DATA
  6
CONTINUOUS
 62
     7
 10
1215.97
 20
724.95
 11
1215.97
 21
726.75
  0
LINE
  8
DATA
  6
CONTINUOUS
 62
     7
 10
1207.97
 20
724.95
 11
1207.97
 21
726.75
  0
ARC
  8
DATA
  6
CONTINUOUS
 62
     7
 10
1211.97
 20
719.25
 40
8.5
 50
61.927513
 51
118.072487
  0
LINE
  8
DATA
  6
CONTINUOUS
 62
     7
 10
1215.97
 20
726.75
 11
1207.97
 21
726.75
  0
LINE
  8
DATA
  6
CONTINUOUS
 62
     7
 10
1205.97
 20
558.7
 11
1222.97
 21
558.7
  0
LINE
  8
DATA
  6
CONTINUOUS
 62
     7
 10
1205.97
 20
715.2
 11
1222.97
 21
715.2
  0
LINE
  8
DATA
  6
CONTINUOUS
 62
     7
 10
1205.97
 20
558.7
 11
1205.97
 21
715.2
  0
LINE
  8
DATA
  6
CONTINUOUS
 62
     7
 10
1222.97
 20
558.7
 11
1222.97
 21
715.2
  0
LINE
  8
DATA
  6
CONTINUOUS
 62
     7
 10
1211.8
 20
610.2
 11
1211.8
 21
614.2
  0
LINE
  8
DATA
  6
CONTINUOUS
 62
     7
 10
1209.8
 20
612.2
 11
1213.8
 21
612.2
  0
CIRCLE
  8
DATA
  6
CONTINUOUS
 62
     7
 10
1211.8
 20
612.2
 40
4.0
  0
LINE
  8
DATA
  6
CONTINUOUS
 62
     7
 10
1211.8
 20
566.2
 11
1211.8
 21
570.2
  0
LINE
  8
DATA
  6
CONTINUOUS
 62
     7
 10
1209.8
 20
568.2
 11
1213.8
 21
568.2
  0
CIRCLE
  8
DATA
  6
CONTINUOUS
 62
     7
 10
1211.8
 20
568.2
 40
4.0
  0
LINE
  8
DATA
  6
CONTINUOUS
 62
     7
 10
1211.8
 20
661.2
 11
1211.8
 21
665.2
  0
LINE
  8
DATA
  6
CONTINUOUS
 62
     7
 10
1209.8
 20
663.2
 11
1213.8
 21
663.2
  0
CIRCLE
  8
DATA
  6
CONTINUOUS
 62
     7
 10
1211.8
 20
663.2
 40
4.0
  0
LINE
  8
DATA
  6
CONTINUOUS
 62
     7
 10
1211.8
 20
703.2
 11
1211.8
 21
707.2
  0
LINE
  8
DATA
  6
CONTINUOUS
 62
     7
 10
1209.8
 20
705.2
 11
1213.8
 21
705.2
  0
CIRCLE
  8
DATA
  6
CONTINUOUS
 62
     7
 10
1211.8
 20
705.2
 40
4.0
  0
LINE
  8
DATA
  6
CONTINUOUS
 62
     7
 10
1201.3
 20
638.7
 11
1201.3
 21
642.7
  0
LINE
  8
DATA
  6
CONTINUOUS
 62
     7
 10
1199.3
 20
640.7
 11
1203.3
 21
640.7
  0
CIRCLE
  8
DATA
  6
CONTINUOUS
 62
     7
 10
1201.3
 20
640.7
 40
4.0
  0
LINE
  8
DIMENSIONS
  6
CONTINUOUS
 62
     7
 10
1261.47
 20
750.0
 11
1291.47
 21
750.0
  0
LINE
  8
DIMENSIONS
  6
CONTINUOUS
 62
     7
 10
1251.47
 20
750.0
 11
1221.47
 21
750.0
  0
LINE
  8
DIMENSIONS
  6
CONTINUOUS
 62
     7
 10
1251.47
 20
700.75
 11
1251.47
 21
759.375
  0
LINE
  8
DIMENSIONS
  6
CONTINUOUS
 62
     7
 10
1276.47
 20
752.4999
 11
1261.47
 21
750.0
  0
LINE
  8
DIMENSIONS
  6
CONTINUOUS
 62
     7
 10
1276.47
 20
747.5001
 11
1261.47
 21
750.0
  0
LINE
  8
DIMENSIONS
  6
CONTINUOUS
 62
     7
 10
1236.47
 20
752.4999
 11
1251.47
 21
750.0
  0
LINE
  8
DIMENSIONS
  6
CONTINUOUS
 62
     7
 10
1236.47
 20
747.5001
 11
1251.47
 21
750.0
  0
LINE
  8
DIMENSIONS
  6
CONTINUOUS
 62
     7
 10
1325.0
 20
556.45
 11
1325.0
 21
526.45
  0
LINE
  8
DIMENSIONS
  6
CONTINUOUS
 62
     7
 10
1327.4999
 20
541.45
 11
1325.0
 21
556.45
  0
LINE
  8
DIMENSIONS
  6
CONTINUOUS
 62
     7
 10
1322.5001
 20
541.45
 11
1325.0
 21
556.45
  0
LINE
  8
DATA
  6
CONTINUOUS
 62
     7
 10
1188.0
 20
546.65
 11
1189.0
 21
556.45
  0
LINE
  8
DATA
  6
CONTINUOUS
 62
     7
 10
1170.0
 20
546.65
 11
1169.0
 21
556.45
  0
LINE
  8
DATA
  6
CONTINUOUS
 62
     7
 10
1170.0
 20
546.65
 11
1188.0
 21
546.65
  0
LINE
  8
DIMENSIONS
  6
CONTINUOUS
 62
     7
 10
1325.0
 20
588.15
 11
1325.0
 21
689.75
  0
LINE
  8
DIMENSIONS
  6
CONTINUOUS
 62
     7
 10
1327.4999
 20
603.15
 11
1325.0
 21
588.15
  0
LINE
  8
DIMENSIONS
  6
CONTINUOUS
 62
     7
 10
1322.5001
 20
603.15
 11
1325.0
 21
588.15
  0
LINE
  8
DIMENSIONS
  6
CONTINUOUS
 62
     7
 10
1327.4999
 20
674.75
 11
1325.0
 21
689.75
  0
LINE
  8
DIMENSIONS
  6
CONTINUOUS
 62
     7
 10
1322.5001
 20
674.75
 11
1325.0
 21
689.75
  0
LINE
  8
DIMENSIONS
  6
CONTINUOUS
 62
     7
 10
1275.0
 20
556.45
 11
1275.0
 21
586.45
  0
LINE
  8
DIMENSIONS
  6
CONTINUOUS
 62
     7
 10
1275.0
 20
546.65
 11
1275.0
 21
516.65
  0
LINE
  8
DIMENSIONS
  6
CONTINUOUS
 62
     7
 10
1195.5
 20
546.65
 11
1284.375
 21
546.65
  0
LINE
  8
DIMENSIONS
  6
CONTINUOUS
 62
     7
 10
1272.5001
 20
571.45
 11
1275.0
 21
556.45
  0
LINE
  8
DIMENSIONS
  6
CONTINUOUS
 62
     7
 10
1277.4999
 20
571.45
 11
1275.0
 21
556.45
  0
LINE
  8
DIMENSIONS
  6
CONTINUOUS
 62
     7
 10
1272.5001
 20
531.65
 11
1275.0
 21
546.65
  0
LINE
  8
DIMENSIONS
  6
CONTINUOUS
 62
     7
 10
1277.4999
 20
531.65
 11
1275.0
 21
546.65
  0
TEXT
  8
DIMENSIONS
  6
CONTINUOUS
 62
     7
 10
1300.845
 20
759.375
 40
18.75
  1
10
  7
TTF_DEFAULT
  0
TEXT
  8
DIMENSIONS
  6
CONTINUOUS
 62
     7
 10
1315.625
 20
617.582667
 40
18.75
  1
101.6
 50
90.0
  7
TTF_DEFAULT
  0
LINE
  8
DIMENSIONS
  6
CONTINUOUS
 62
     7
 10
1261.47
 20
800.0
 11
1220.47
 21
800.0
  0
LINE
  8
DIMENSIONS
  6
CONTINUOUS
 62
     7
 10
1246.47
 20
802.4999
 11
1261.47
 21
800.0
  0
LINE
  8
DIMENSIONS
  6
CONTINUOUS
 62
     7
 10
1246.47
 20
797.5001
 11
1261.47
 21
800.0
  0
LINE
  8
DIMENSIONS
  6
CONTINUOUS
 62
     7
 10
1235.47
 20
802.4999
 11
1220.47
 21
800.0
  0
LINE
  8
DIMENSIONS
  6
CONTINUOUS
 62
     7
 10
1235.47
 20
797.5001
 11
1220.47
 21
800.0
  0
TEXT
  8
DIMENSIONS
  6
CONTINUOUS
 62
     7
 10
1231.043077
 20
809.375
 40
18.75
  1
41
  7
TTF_DEFAULT
  0
LINE
  8
DIMENSIONS
  6
CONTINUOUS
 62
     7
 10
1375.0
 20
724.95
 11
1375.0
 21
556.45
  0
LINE
  8
DIMENSIONS
  6
CONTINUOUS
 62
     7
 10
1372.5001
 20
709.95
 11
1375.0
 21
724.95
  0
LINE
  8
DIMENSIONS
  6
CONTINUOUS
 62
     7
 10
1377.4999
 20
709.95
 11
1375.0
 21
724.95
  0
LINE
  8
DIMENSIONS
  6
CONTINUOUS
 62
     7
 10
1372.5001
 20
571.45
 11
1375.0
 21
556.45
  0
LINE
  8
DIMENSIONS
  6
CONTINUOUS
 62
     7
 10
1377.4999
 20
571.45
 11
1375.0
 21
556.45
  0
TEXT
  8
DIMENSIONS
  6
CONTINUOUS
 62
     7
 10
1365.625
 20
619.332667
 40
18.75
  1
168.5
 50
90.0
  7
TTF_DEFAULT
  0
LINE
  8
SPEC
  6
CONTINUOUS
 62
     7
 10
900.0
 20
1903.125
 11
900.0
 21
1987.5
  0
ENDSEC
  0
EOF
