  0
SECTION
  2
HEADER
  9
$ACADVER
  1
AC1004
  9
$INSBASE
 10
0.0
 20
0.0
  9
$EXTMIN
 10
-66.173333
 20
-68.95
  9
$EXTMAX
 10
2033.826667
 20
2901.05
  9
$LIMMIN
 10
-66.173333
 20
-68.95
  9
$LIMMAX
 10
2033.826667
 20
2901.05
  9
$VIEWCTR
 10
6.0
 20
4.5
  9
$VIEWSIZE
 40
9.0
  9
$SNAPMODE
 70
     0
  9
$SNAPUNIT
 10
25.0
 20
25.0
  9
$SNAPBASE
 10
0.0
 20
0.0
  9
$SNAPANG
 50
0.0
  9
$SNAPSTYLE
 70
     0
  9
$SNAPISOPAIR
 70
     0
  9
$GRIDMODE
 70
     1
  9
$GRIDUNIT
 10
100.0
 20
100.0
  9
$ORTHOMODE
 70
     0
  9
$REGENMODE
 70
     1
  9
$FILLMODE
 70
     1
  9
$QTEXTMODE
 70
     0
  9
$DRAGMODE
 70
     2
  9
$LTSCALE
 40
1.0
  9
$OSMODE
 70
     1
  9
$ATTMODE
 70
     1
  9
$TEXTSIZE
 40
0.2
  9
$TRACEWID
 40
0.05
  9
$TEXTSTYLE
  7
STANDARD
  9
$CLAYER
  8
DATA
  9
$CELTYPE
  6
CONTINUOUS
  9
$CECOLOR
 62
     7
  9
$DIMSCALE
 40
1.0
  9
$DIMASZ
 40
0.18
  9
$DIMEXO
 40
0.0625
  9
$DIMDLI
 40
0.38
  9
$DIMRND
 40
0.0
  9
$DIMDLE
 40
0.0
  9
$DIMEXE
 40
0.18
  9
$DIMTP
 40
0.0
  9
$DIMTM
 40
0.0
  9
$DIMTXT
 40
0.18
  9
$DIMCEN
 40
0.09
  9
$DIMTSZ
 40
0.0
  9
$DIMTOL
 70
     0
  9
$DIMLIM
 70
     0
  9
$DIMTIH
 70
     1
  9
$DIMTOH
 70
     1
  9
$DIMSE1
 70
     0
  9
$DIMSE2
 70
     0
  9
$DIMTAD
 70
     0
  9
$DIMZIN
 70
     0
  9
$DIMBLK
  1

  9
$DIMASO
 70
     1
  9
$DIMSHO
 70
     1
  9
$DIMPOST
  1

  9
$DIMAPOST
  1

  9
$DIMALT
 70
     0
  9
$DIMALTD
 70
     2
  9
$DIMALTF
 40
25.4
  9
$DIMLFAC
 40
1.0
  9
$LUNITS
 70
     2
  9
$LUPREC
 70
     4
  9
$AXISMODE
 70
     0
  9
$AXISUNIT
 10
0.0
 20
0.0
  9
$SKETCHINC
 40
0.1
  9
$FILLETRAD
 40
10.0
  9
$AUNITS
 70
     0
  9
$AUPREC
 70
     0
  9
$MENU
  1
acad
  9
$ELEVATION
 40
0.0
  9
$THICKNESS
 40
0.0
  9
$VIEWDIR
 10
0.0
 20
0.0
 30
1.0
  9
$LIMCHECK
 70
     0
  9
$BLIPMODE
 70
     1
  9
$CHAMFERA
 40
10.0
  9
$CHAMFERB
 40
10.0
  9
$FASTZOOM
 70
     1
  9
$SKPOLY
 70
     0
  9
$TDCREATE
 40
0.0
  9
$TDUPDATE
 40
0.0
  9
$TDINDWG
 40
0.0
  9
$TDUSRTIMER
 40
0.0
  9
$USRTIMER
 70
     1
  9
$ANGBASE
 50
0.0
  9
$ANGDIR
 70
     0
  9
$PDMODE
 70
     0
  9
$PDSIZE
 40
0.0
  9
$PLINEWID
 40
0.0
  9
$COORDS
 70
     1
  9
$SPLFRAME
 70
     0
  9
$SPLINESEGS
 70
    10
  9
$ATTDIA
 70
     0
  9
$ATTREQ
 70
     1
  9
$USERI1
 70
     0
  9
$USERI2
 70
     0
  9
$USERI3
 70
     0
  9
$USERI4
 70
     0
  9
$USERI5
 70
     0
  9
$USERR1
 40
0.0
  9
$USERR2
 40
0.0
  9
$USERR3
 40
0.0
  9
$USERR4
 40
0.0
  9
$USERR5
 40
0.0
  0
ENDSEC
  0
SECTION
  2
TABLES
  0
TABLE
  2
LTYPE
 70
    11
  0
LTYPE
  2
CONTINUOUS
 70
     0
  3
Solid line
 72
    65
 73
     0
 40
0.0
  0
LTYPE
  2
DASHED
 70
     0
  3
__ __ __ __ __ __ __ __ __ __ __ __ __ __ __
 72
    65
 73
     2
 40
0.75
 49
0.5
 49
-0.25
  0
LTYPE
  2
HIDDEN
 70
     0
  3
_ _ _ _ _ _ _ _ _ _ _ _ _ _ _ _ _ _ _ _ _ _ 
 72
    65
 73
     2
 40
0.25
 49
0.125
 49
-0.125
  0
LTYPE
  2
CENTER
 70
     0
  3
____ _ ____ _ ____ _ ____ _ ____ _ ____ _ __
 72
    65
 73
     4
 40
2.0
 49
1.25
 49
-0.25
 49
0.25
 49
-0.25
  0
LTYPE
  2
PHANTOM
 70
     0
  3
_____ _ _ _____ _ _ _____ _ _ _____ _ _ ____
 72
    65
 73
     6
 40
2.5
 49
1.25
 49
-0.25
 49
0.25
 49
-0.25
 49
0.25
 49
-0.25
  0
LTYPE
  2
DOT
 70
     0
  3
............................................
 72
    65
 73
     2
 40
0.25
 49
0.0
 49
-0.25
  0
LTYPE
  2
DASHDOT
 70
     0
  3
__ . __ . __ . __ . __ . __ . __ . __ . __ .
 72
    65
 73
     4
 40
1.0
 49
0.5
 49
-0.25
 49
0.0
 49
-0.25
  0
LTYPE
  2
BORDER
 70
     0
  3
__ __ . __ __ . __ __ . __ __ . __ __ . __ _
 72
    65
 73
     6
 40
1.75
 49
0.5
 49
-0.25
 49
0.5
 49
-0.25
 49
0.0
 49
-0.25
  0
LTYPE
  2
DIVIDE
 70
     0
  3
__ . . __ . . __ . . __ . . __ . . __ . . __
 72
    65
 73
     6
 40
1.25
 49
0.5
 49
-0.25
 49
0.0
 49
-0.25
 49
0.0
 49
-0.25
  0
LTYPE
  2
DOTS
 70
     0
  3
close                                       
 72
    65
 73
     2
 40
0.1
 49
0.05
 49
-0.05
  0
LTYPE
  2
CLOSE
 70
     0
  3
                                            
 72
    65
 73
     0
 40
0.0
  0
ENDTAB
  0
TABLE
  2
LAYER
 70
     7
  0
LAYER
  2
0
 70
     0
 62
     7
  6
CONTINUOUS
  0
LAYER
  2
LAYER01
 70
     0
 62
     7
  6
CONTINUOUS
  0
LAYER
  2
DATA
 70
     0
 62
     7
  6
CONTINUOUS
  0
LAYER
  2
SPEC
 70
     0
 62
     7
  6
CONTINUOUS
  0
LAYER
  2
PATTERN_FILL
 70
     0
 62
     7
  6
CONTINUOUS
  0
LAYER
  2
DIMENSIONS
 70
     0
 62
     7
  6
CONTINUOUS
  0
LAYER
  2
HIBINO-BASE
 70
     0
 62
     7
  6
CONTINUOUS
  0
ENDTAB
  0
TABLE
  2
STYLE
 70
     2
  0
STYLE
  2
STANDARD
 70
     0
 40
0.0
 41
1.0
 50
0.0
 71
     0
 42
0.2
  3
txt
  4

  0
STYLE
  2
TTF_DEFAULT
 70
     0
 40
0.0
 41
1.0
 50
0.0
 71
     0
 42
0.0
  3
txt
  4
BIGFONT
  0
ENDTAB
  0
TABLE
  2
VIEW
 70
     0
  0
ENDTAB
  0
ENDSEC
  0
SECTION
  2
BLOCKS
  0
BLOCK
  8
0
  2
CPS275-G1
 70
     0
 10
0.0
 20
0.0
  0
LINE
  8
DATA
  6
CONTINUOUS
 62
     7
 10
1309.332672
 20
1406.438454
 11
1305.617022
 21
1408.981254
  0
LINE
  8
DATA
  6
CONTINUOUS
 62
     7
 10
1305.617022
 20
1403.868036
 11
1305.617022
 21
1408.981254
  0
LINE
  8
DATA
  6
CONTINUOUS
 62
     7
 10
1309.332672
 20
1406.438454
 11
1305.617022
 21
1403.868036
  0
ENDBLK
  8
0
  0
ENDSEC
  0
SECTION
  2
ENTITIES
  0
LINE
  8
SPEC
  6
CONTINUOUS
 62
     7
 10
175.0
 20
2650.0
 11
1425.0
 21
2650.0
  0
LINE
  8
SPEC
  6
CONTINUOUS
 62
     7
 10
175.0
 20
2612.5
 11
1425.0
 21
2612.5
  0
LINE
  8
SPEC
  6
CONTINUOUS
 62
     7
 10
175.0
 20
2537.5
 11
1425.0
 21
2537.5
  0
LINE
  8
SPEC
  6
CONTINUOUS
 62
     7
 10
175.0
 20
2575.0
 11
1425.0
 21
2575.0
  0
POLYLINE
  8
HIBINO-BASE
  6
CONTINUOUS
 62
     7
 66
     1
 70
     1
 40
3.0
 41
3.0
  0
VERTEX
  8
HIBINO-BASE
 10
100.0
 20
150.0
  0
VERTEX
  8
HIBINO-BASE
 10
100.0
 20
2750.0
  0
VERTEX
  8
HIBINO-BASE
 10
1900.0
 20
2750.0
  0
VERTEX
  8
HIBINO-BASE
 10
1900.0
 20
150.0
  0
SEQEND
  8
HIBINO-BASE
  0
TEXT
  8
DATA
  6
CONTINUOUS
 62
     7
 10
787.5
 20
1306.25
 40
25.0
  1
CONSOLEｺﾈｸﾀ(F-Type)
  7
TTF_DEFAULT
  0
LINE
  8
DIMENSIONS
  6
CONTINUOUS
 62
     7
 10
516.3
 20
1250.5
 11
378.388701
 21
1250.5
  0
LINE
  8
DIMENSIONS
  6
CONTINUOUS
 62
     7
 10
387.5
 20
900.0
 11
490.0
 21
900.0
  0
LINE
  8
DIMENSIONS
  6
CONTINUOUS
 62
     7
 10
287.5
 20
688.1
 11
490.0
 21
688.1
  0
LINE
  8
DIMENSIONS
  6
CONTINUOUS
 62
     7
 10
287.5
 20
589.0
 11
521.0
 21
589.0
  0
LINE
  8
DIMENSIONS
  6
CONTINUOUS
 62
     7
 10
437.5
 20
682.15
 11
492.8
 21
682.15
  0
LINE
  8
DIMENSIONS
  6
CONTINUOUS
 62
     7
 10
437.5
 20
605.95
 11
492.8
 21
605.95
  0
LINE
  8
DIMENSIONS
  6
CONTINUOUS
 62
     7
 10
387.5
 20
600.0
 11
490.0
 21
600.0
  0
TEXT
  8
HIBINO-BASE
  6
CONTINUOUS
 62
     7
 10
171.84
 20
85.9132
 40
40.0
  1
Hibino Corporation
  7
TTF_DEFAULT
  0
LINE
  8
DIMENSIONS
  6
CONTINUOUS
 62
     7
 10
300.0
 20
688.1
 11
300.0
 21
589.0
  0
LINE
  8
DIMENSIONS
  6
CONTINUOUS
 62
     7
 10
296.6668
 20
668.1
 11
300.0
 21
688.1
  0
LINE
  8
DIMENSIONS
  6
CONTINUOUS
 62
     7
 10
303.3332
 20
668.1
 11
300.0
 21
688.1
  0
LINE
  8
DIMENSIONS
  6
CONTINUOUS
 62
     7
 10
453.3332
 20
662.15
 11
450.0
 21
682.15
  0
LINE
  8
DIMENSIONS
  6
CONTINUOUS
 62
     7
 10
446.6668
 20
662.15
 11
450.0
 21
682.15
  0
LINE
  8
DIMENSIONS
  6
CONTINUOUS
 62
     7
 10
450.0
 20
682.15
 11
450.0
 21
605.95
  0
LINE
  8
DIMENSIONS
  6
CONTINUOUS
 62
     7
 10
396.6668
 20
668.1
 11
400.0
 21
688.1
  0
LINE
  8
DIMENSIONS
  6
CONTINUOUS
 62
     7
 10
403.3332
 20
668.1
 11
400.0
 21
688.1
  0
LINE
  8
DIMENSIONS
  6
CONTINUOUS
 62
     7
 10
400.0
 20
600.0
 11
400.0
 21
688.1
  0
TEXT
  8
DIMENSIONS
  6
CONTINUOUS
 62
     7
 10
287.5
 20
616.142937
 40
25.0
  1
99.1
 50
90.0
  7
TTF_DEFAULT
  0
TEXT
  8
DIMENSIONS
  6
CONTINUOUS
 62
     7
 10
437.5
 20
621.642937
 40
25.0
  1
76.2
 50
90.0
  7
TTF_DEFAULT
  0
TEXT
  8
DIMENSIONS
  6
CONTINUOUS
 62
     7
 10
387.5
 20
621.642937
 40
25.0
  1
88.1
 50
90.0
  7
TTF_DEFAULT
  0
LINE
  8
DIMENSIONS
  6
CONTINUOUS
 62
     7
 10
296.6668
 20
609.0
 11
300.0
 21
589.0
  0
LINE
  8
DIMENSIONS
  6
CONTINUOUS
 62
     7
 10
303.3332
 20
609.0
 11
300.0
 21
589.0
  0
LINE
  8
DIMENSIONS
  6
CONTINUOUS
 62
     7
 10
453.3332
 20
625.95
 11
450.0
 21
605.95
  0
LINE
  8
DIMENSIONS
  6
CONTINUOUS
 62
     7
 10
446.6668
 20
625.95
 11
450.0
 21
605.95
  0
LINE
  8
DIMENSIONS
  6
CONTINUOUS
 62
     7
 10
396.6668
 20
620.0
 11
400.0
 21
600.0
  0
LINE
  8
DIMENSIONS
  6
CONTINUOUS
 62
     7
 10
403.3332
 20
620.0
 11
400.0
 21
600.0
  0
LINE
  8
DIMENSIONS
  6
CONTINUOUS
 62
     7
 10
400.0
 20
1250.5
 11
400.0
 21
900.0
  0
LINE
  8
DIMENSIONS
  6
CONTINUOUS
 62
     7
 10
403.3332
 20
920.0
 11
400.0
 21
900.0
  0
LINE
  8
DIMENSIONS
  6
CONTINUOUS
 62
     7
 10
396.6668
 20
920.0
 11
400.0
 21
900.0
  0
LINE
  8
DIMENSIONS
  6
CONTINUOUS
 62
     7
 10
403.3332
 20
1230.5
 11
400.0
 21
1250.5
  0
LINE
  8
DIMENSIONS
  6
CONTINUOUS
 62
     7
 10
396.6668
 20
1230.5
 11
400.0
 21
1250.5
  0
TEXT
  8
DIMENSIONS
  6
CONTINUOUS
 62
     7
 10
387.5
 20
1046.284772
 40
25.0
  1
350.5
 50
90.0
  7
TTF_DEFAULT
  0
TEXT
  8
DATA
  6
CONTINUOUS
 62
     7
 10
691.3699
 20
660.85
 40
20.0
  1
Soundcraft
  7
TTF_DEFAULT
  0
LINE
  8
DATA
  6
CONTINUOUS
 62
     7
 10
500.0
 20
600.0
 11
500.0
 21
688.1
  0
LINE
  8
DATA
  6
CONTINUOUS
 62
     7
 10
982.6
 20
688.1
 11
982.6
 21
600.0
  0
ARC
  8
DATA
  6
CONTINUOUS
 62
     7
 10
887.6
 20
674.1
 40
4.0
 50
90.0
 51
270.0
  0
ARC
  8
DATA
  6
CONTINUOUS
 62
     7
 10
934.6
 20
674.1
 40
4.0
 50
270.0
 51
90.0
  0
LINE
  8
DATA
  6
CONTINUOUS
 62
     7
 10
982.6
 20
600.0
 11
500.0
 21
600.0
  0
TEXT
  8
DATA
  6
CONTINUOUS
 62
     7
 10
691.3699
 20
654.85
 40
5.0
  1
CONSOLE POWER SUPPLY
  7
TTF_DEFAULT
  0
CIRCLE
  8
DATA
  6
CONTINUOUS
 62
     7
 10
720.5
 20
639.6
 40
1.5
  0
CIRCLE
  8
DATA
  6
CONTINUOUS
 62
     7
 10
720.5
 20
622.6
 40
1.5
  0
LINE
  8
DATA
  6
CONTINUOUS
 62
     7
 10
537.0
 20
629.1
 11
537.0
 21
659.1
  0
LINE
  8
DATA
  6
CONTINUOUS
 62
     7
 10
563.0
 20
629.1
 11
563.0
 21
659.1
  0
TEXT
  8
DATA
  6
CONTINUOUS
 62
     7
 10
528.737012
 20
652.1
 40
7.0
  1
1
  7
TTF_DEFAULT
  0
TEXT
  8
DATA
  6
CONTINUOUS
 62
     7
 10
568.0
 20
652.1
 40
7.0
  1
ON
  7
TTF_DEFAULT
  0
TEXT
  8
DATA
  6
CONTINUOUS
 62
     7
 10
568.0
 20
632.1
 40
7.0
  1
OFF
  7
TTF_DEFAULT
  0
LINE
  8
DATA
  6
CONTINUOUS
 62
     7
 10
540.0
 20
634.1
 11
540.0
 21
654.1
  0
LINE
  8
DATA
  6
CONTINUOUS
 62
     7
 10
560.0
 20
654.1
 11
560.0
 21
634.1
  0
TEXT
  8
DATA
  6
CONTINUOUS
 62
     7
 10
528.737012
 20
632.1
 40
7.0
  1
0
  7
TTF_DEFAULT
  0
ARC
  8
DATA
  6
CONTINUOUS
 62
     7
 10
506.3
 20
605.95
 40
3.5
 50
90.0
 51
270.0
  0
ARC
  8
DATA
  6
CONTINUOUS
 62
     7
 10
511.3
 20
605.95
 40
3.5
 50
270.0
 51
90.0
  0
LINE
  8
DATA
  6
CONTINUOUS
 62
     7
 10
506.3
 20
602.45
 11
511.3
 21
602.45
  0
LINE
  8
DATA
  6
CONTINUOUS
 62
     7
 10
506.3
 20
609.45
 11
511.3
 21
609.45
  0
LINE
  8
DATA
  6
CONTINUOUS
 62
     7
 10
531.0
 20
589.0
 11
531.0
 21
600.0
  0
LINE
  8
DATA
  6
CONTINUOUS
 62
     7
 10
549.0
 20
600.0
 11
549.0
 21
589.0
  0
LINE
  8
DATA
  6
CONTINUOUS
 62
     7
 10
549.0
 20
589.0
 11
531.0
 21
589.0
  0
LINE
  8
DATA
  6
CONTINUOUS
 62
     7
 10
537.0
 20
629.1
 11
563.0
 21
629.1
  0
LINE
  8
DATA
  6
CONTINUOUS
 62
     7
 10
560.0
 20
634.1
 11
540.0
 21
634.1
  0
LINE
  8
DATA
  6
CONTINUOUS
 62
     7
 10
540.0
 20
654.1
 11
560.0
 21
654.1
  0
LINE
  8
DATA
  6
CONTINUOUS
 62
     7
 10
540.0
 20
643.1
 11
560.0
 21
643.1
  0
LINE
  8
DATA
  6
CONTINUOUS
 62
     7
 10
540.0
 20
648.6
 11
560.0
 21
648.6
  0
LINE
  8
DATA
  6
CONTINUOUS
 62
     7
 10
537.0
 20
659.1
 11
563.0
 21
659.1
  0
TEXT
  8
DATA
  6
CONTINUOUS
 62
     7
 10
541.84253
 20
661.1
 40
7.0
  1
POWER
  7
TTF_DEFAULT
  0
CIRCLE
  8
DATA
  6
CONTINUOUS
 62
     7
 10
625.5
 20
639.6
 40
1.5
  0
CIRCLE
  8
DATA
  6
CONTINUOUS
 62
     7
 10
630.5
 20
639.6
 40
1.5
  0
CIRCLE
  8
DATA
  6
CONTINUOUS
 62
     7
 10
635.5
 20
639.6
 40
1.5
  0
CIRCLE
  8
DATA
  6
CONTINUOUS
 62
     7
 10
640.5
 20
639.6
 40
1.5
  0
CIRCLE
  8
DATA
  6
CONTINUOUS
 62
     7
 10
645.5
 20
639.6
 40
1.5
  0
CIRCLE
  8
DATA
  6
CONTINUOUS
 62
     7
 10
650.5
 20
639.6
 40
1.5
  0
CIRCLE
  8
DATA
  6
CONTINUOUS
 62
     7
 10
655.5
 20
639.6
 40
1.5
  0
CIRCLE
  8
DATA
  6
CONTINUOUS
 62
     7
 10
660.5
 20
639.6
 40
1.5
  0
CIRCLE
  8
DATA
  6
CONTINUOUS
 62
     7
 10
665.5
 20
639.6
 40
1.5
  0
CIRCLE
  8
DATA
  6
CONTINUOUS
 62
     7
 10
670.5
 20
639.6
 40
1.5
  0
CIRCLE
  8
DATA
  6
CONTINUOUS
 62
     7
 10
675.5
 20
639.6
 40
1.5
  0
CIRCLE
  8
DATA
  6
CONTINUOUS
 62
     7
 10
680.5
 20
639.6
 40
1.5
  0
CIRCLE
  8
DATA
  6
CONTINUOUS
 62
     7
 10
685.5
 20
639.6
 40
1.5
  0
CIRCLE
  8
DATA
  6
CONTINUOUS
 62
     7
 10
690.5
 20
639.6
 40
1.5
  0
CIRCLE
  8
DATA
  6
CONTINUOUS
 62
     7
 10
695.5
 20
639.6
 40
1.5
  0
CIRCLE
  8
DATA
  6
CONTINUOUS
 62
     7
 10
700.5
 20
639.6
 40
1.5
  0
CIRCLE
  8
DATA
  6
CONTINUOUS
 62
     7
 10
705.5
 20
639.6
 40
1.5
  0
CIRCLE
  8
DATA
  6
CONTINUOUS
 62
     7
 10
710.5
 20
639.6
 40
1.5
  0
CIRCLE
  8
DATA
  6
CONTINUOUS
 62
     7
 10
715.5
 20
639.6
 40
1.5
  0
CIRCLE
  8
DATA
  6
CONTINUOUS
 62
     7
 10
628.0
 20
631.1
 40
1.5
  0
CIRCLE
  8
DATA
  6
CONTINUOUS
 62
     7
 10
633.0
 20
631.1
 40
1.5
  0
CIRCLE
  8
DATA
  6
CONTINUOUS
 62
     7
 10
638.0
 20
631.1
 40
1.5
  0
CIRCLE
  8
DATA
  6
CONTINUOUS
 62
     7
 10
643.0
 20
631.1
 40
1.5
  0
CIRCLE
  8
DATA
  6
CONTINUOUS
 62
     7
 10
648.0
 20
631.1
 40
1.5
  0
CIRCLE
  8
DATA
  6
CONTINUOUS
 62
     7
 10
653.0
 20
631.1
 40
1.5
  0
CIRCLE
  8
DATA
  6
CONTINUOUS
 62
     7
 10
658.0
 20
631.1
 40
1.5
  0
CIRCLE
  8
DATA
  6
CONTINUOUS
 62
     7
 10
663.0
 20
631.1
 40
1.5
  0
CIRCLE
  8
DATA
  6
CONTINUOUS
 62
     7
 10
668.0
 20
631.1
 40
1.5
  0
CIRCLE
  8
DATA
  6
CONTINUOUS
 62
     7
 10
673.0
 20
631.1
 40
1.5
  0
CIRCLE
  8
DATA
  6
CONTINUOUS
 62
     7
 10
678.0
 20
631.1
 40
1.5
  0
CIRCLE
  8
DATA
  6
CONTINUOUS
 62
     7
 10
683.0
 20
631.1
 40
1.5
  0
CIRCLE
  8
DATA
  6
CONTINUOUS
 62
     7
 10
688.0
 20
631.1
 40
1.5
  0
CIRCLE
  8
DATA
  6
CONTINUOUS
 62
     7
 10
693.0
 20
631.1
 40
1.5
  0
CIRCLE
  8
DATA
  6
CONTINUOUS
 62
     7
 10
698.0
 20
631.1
 40
1.5
  0
CIRCLE
  8
DATA
  6
CONTINUOUS
 62
     7
 10
703.0
 20
631.1
 40
1.5
  0
CIRCLE
  8
DATA
  6
CONTINUOUS
 62
     7
 10
708.0
 20
631.1
 40
1.5
  0
CIRCLE
  8
DATA
  6
CONTINUOUS
 62
     7
 10
713.0
 20
631.1
 40
1.5
  0
CIRCLE
  8
DATA
  6
CONTINUOUS
 62
     7
 10
718.0
 20
631.1
 40
1.5
  0
CIRCLE
  8
DATA
  6
CONTINUOUS
 62
     7
 10
630.5
 20
622.6
 40
1.5
  0
CIRCLE
  8
DATA
  6
CONTINUOUS
 62
     7
 10
635.5
 20
622.6
 40
1.5
  0
CIRCLE
  8
DATA
  6
CONTINUOUS
 62
     7
 10
640.5
 20
622.6
 40
1.5
  0
CIRCLE
  8
DATA
  6
CONTINUOUS
 62
     7
 10
645.5
 20
622.6
 40
1.5
  0
CIRCLE
  8
DATA
  6
CONTINUOUS
 62
     7
 10
650.5
 20
622.6
 40
1.5
  0
CIRCLE
  8
DATA
  6
CONTINUOUS
 62
     7
 10
655.5
 20
622.6
 40
1.5
  0
CIRCLE
  8
DATA
  6
CONTINUOUS
 62
     7
 10
660.5
 20
622.6
 40
1.5
  0
CIRCLE
  8
DATA
  6
CONTINUOUS
 62
     7
 10
665.5
 20
622.6
 40
1.5
  0
CIRCLE
  8
DATA
  6
CONTINUOUS
 62
     7
 10
670.5
 20
622.6
 40
1.5
  0
CIRCLE
  8
DATA
  6
CONTINUOUS
 62
     7
 10
675.5
 20
622.6
 40
1.5
  0
CIRCLE
  8
DATA
  6
CONTINUOUS
 62
     7
 10
680.5
 20
622.6
 40
1.5
  0
CIRCLE
  8
DATA
  6
CONTINUOUS
 62
     7
 10
685.5
 20
622.6
 40
1.5
  0
CIRCLE
  8
DATA
  6
CONTINUOUS
 62
     7
 10
690.5
 20
622.6
 40
1.5
  0
CIRCLE
  8
DATA
  6
CONTINUOUS
 62
     7
 10
695.5
 20
622.6
 40
1.5
  0
CIRCLE
  8
DATA
  6
CONTINUOUS
 62
     7
 10
700.5
 20
622.6
 40
1.5
  0
CIRCLE
  8
DATA
  6
CONTINUOUS
 62
     7
 10
705.5
 20
622.6
 40
1.5
  0
CIRCLE
  8
DATA
  6
CONTINUOUS
 62
     7
 10
710.5
 20
622.6
 40
1.5
  0
CIRCLE
  8
DATA
  6
CONTINUOUS
 62
     7
 10
715.5
 20
622.6
 40
1.5
  0
CIRCLE
  8
DATA
  6
CONTINUOUS
 62
     7
 10
620.5
 20
656.6
 40
1.5
  0
CIRCLE
  8
DATA
  6
CONTINUOUS
 62
     7
 10
625.5
 20
656.6
 40
1.5
  0
CIRCLE
  8
DATA
  6
CONTINUOUS
 62
     7
 10
630.5
 20
656.6
 40
1.5
  0
CIRCLE
  8
DATA
  6
CONTINUOUS
 62
     7
 10
635.5
 20
656.6
 40
1.5
  0
CIRCLE
  8
DATA
  6
CONTINUOUS
 62
     7
 10
640.5
 20
656.6
 40
1.5
  0
CIRCLE
  8
DATA
  6
CONTINUOUS
 62
     7
 10
645.5
 20
656.6
 40
1.5
  0
CIRCLE
  8
DATA
  6
CONTINUOUS
 62
     7
 10
650.5
 20
656.6
 40
1.5
  0
CIRCLE
  8
DATA
  6
CONTINUOUS
 62
     7
 10
655.5
 20
656.6
 40
1.5
  0
CIRCLE
  8
DATA
  6
CONTINUOUS
 62
     7
 10
660.5
 20
656.6
 40
1.5
  0
CIRCLE
  8
DATA
  6
CONTINUOUS
 62
     7
 10
665.5
 20
656.6
 40
1.5
  0
CIRCLE
  8
DATA
  6
CONTINUOUS
 62
     7
 10
670.5
 20
656.6
 40
1.5
  0
CIRCLE
  8
DATA
  6
CONTINUOUS
 62
     7
 10
675.5
 20
656.6
 40
1.5
  0
CIRCLE
  8
DATA
  6
CONTINUOUS
 62
     7
 10
623.0
 20
648.1
 40
1.5
  0
CIRCLE
  8
DATA
  6
CONTINUOUS
 62
     7
 10
628.0
 20
648.1
 40
1.5
  0
CIRCLE
  8
DATA
  6
CONTINUOUS
 62
     7
 10
633.0
 20
648.1
 40
1.5
  0
CIRCLE
  8
DATA
  6
CONTINUOUS
 62
     7
 10
638.0
 20
648.1
 40
1.5
  0
CIRCLE
  8
DATA
  6
CONTINUOUS
 62
     7
 10
643.0
 20
648.1
 40
1.5
  0
CIRCLE
  8
DATA
  6
CONTINUOUS
 62
     7
 10
648.0
 20
648.1
 40
1.5
  0
CIRCLE
  8
DATA
  6
CONTINUOUS
 62
     7
 10
653.0
 20
648.1
 40
1.5
  0
CIRCLE
  8
DATA
  6
CONTINUOUS
 62
     7
 10
658.0
 20
648.1
 40
1.5
  0
CIRCLE
  8
DATA
  6
CONTINUOUS
 62
     7
 10
663.0
 20
648.1
 40
1.5
  0
CIRCLE
  8
DATA
  6
CONTINUOUS
 62
     7
 10
668.0
 20
648.1
 40
1.5
  0
CIRCLE
  8
DATA
  6
CONTINUOUS
 62
     7
 10
673.0
 20
648.1
 40
1.5
  0
CIRCLE
  8
DATA
  6
CONTINUOUS
 62
     7
 10
678.0
 20
648.1
 40
1.5
  0
CIRCLE
  8
DATA
  6
CONTINUOUS
 62
     7
 10
683.0
 20
648.1
 40
1.5
  0
CIRCLE
  8
DATA
  6
CONTINUOUS
 62
     7
 10
688.0
 20
648.1
 40
1.5
  0
CIRCLE
  8
DATA
  6
CONTINUOUS
 62
     7
 10
693.0
 20
648.1
 40
1.5
  0
CIRCLE
  8
DATA
  6
CONTINUOUS
 62
     7
 10
698.0
 20
648.1
 40
1.5
  0
CIRCLE
  8
DATA
  6
CONTINUOUS
 62
     7
 10
703.0
 20
648.1
 40
1.5
  0
CIRCLE
  8
DATA
  6
CONTINUOUS
 62
     7
 10
708.0
 20
648.1
 40
1.5
  0
CIRCLE
  8
DATA
  6
CONTINUOUS
 62
     7
 10
713.0
 20
648.1
 40
1.5
  0
CIRCLE
  8
DATA
  6
CONTINUOUS
 62
     7
 10
718.0
 20
648.1
 40
1.5
  0
CIRCLE
  8
DATA
  6
CONTINUOUS
 62
     7
 10
623.0
 20
665.1
 40
1.5
  0
CIRCLE
  8
DATA
  6
CONTINUOUS
 62
     7
 10
628.0
 20
665.1
 40
1.5
  0
CIRCLE
  8
DATA
  6
CONTINUOUS
 62
     7
 10
633.0
 20
665.1
 40
1.5
  0
CIRCLE
  8
DATA
  6
CONTINUOUS
 62
     7
 10
638.0
 20
665.1
 40
1.5
  0
CIRCLE
  8
DATA
  6
CONTINUOUS
 62
     7
 10
643.0
 20
665.1
 40
1.5
  0
CIRCLE
  8
DATA
  6
CONTINUOUS
 62
     7
 10
648.0
 20
665.1
 40
1.5
  0
CIRCLE
  8
DATA
  6
CONTINUOUS
 62
     7
 10
653.0
 20
665.1
 40
1.5
  0
CIRCLE
  8
DATA
  6
CONTINUOUS
 62
     7
 10
658.0
 20
665.1
 40
1.5
  0
CIRCLE
  8
DATA
  6
CONTINUOUS
 62
     7
 10
663.0
 20
665.1
 40
1.5
  0
CIRCLE
  8
DATA
  6
CONTINUOUS
 62
     7
 10
668.0
 20
665.1
 40
1.5
  0
CIRCLE
  8
DATA
  6
CONTINUOUS
 62
     7
 10
673.0
 20
665.1
 40
1.5
  0
CIRCLE
  8
DATA
  6
CONTINUOUS
 62
     7
 10
723.0
 20
631.1
 40
1.5
  0
CIRCLE
  8
DATA
  6
CONTINUOUS
 62
     7
 10
723.0
 20
648.1
 40
1.5
  0
CIRCLE
  8
DATA
  6
CONTINUOUS
 62
     7
 10
753.0
 20
631.1
 40
1.5
  0
CIRCLE
  8
DATA
  6
CONTINUOUS
 62
     7
 10
753.0
 20
648.1
 40
1.5
  0
CIRCLE
  8
DATA
  6
CONTINUOUS
 62
     7
 10
740.5
 20
639.6
 40
1.5
  0
CIRCLE
  8
DATA
  6
CONTINUOUS
 62
     7
 10
740.5
 20
622.6
 40
1.5
  0
CIRCLE
  8
DATA
  6
CONTINUOUS
 62
     7
 10
725.5
 20
639.6
 40
1.5
  0
CIRCLE
  8
DATA
  6
CONTINUOUS
 62
     7
 10
730.5
 20
639.6
 40
1.5
  0
CIRCLE
  8
DATA
  6
CONTINUOUS
 62
     7
 10
735.5
 20
639.6
 40
1.5
  0
CIRCLE
  8
DATA
  6
CONTINUOUS
 62
     7
 10
728.0
 20
631.1
 40
1.5
  0
CIRCLE
  8
DATA
  6
CONTINUOUS
 62
     7
 10
733.0
 20
631.1
 40
1.5
  0
CIRCLE
  8
DATA
  6
CONTINUOUS
 62
     7
 10
738.0
 20
631.1
 40
1.5
  0
CIRCLE
  8
DATA
  6
CONTINUOUS
 62
     7
 10
725.5
 20
622.6
 40
1.5
  0
CIRCLE
  8
DATA
  6
CONTINUOUS
 62
     7
 10
730.5
 20
622.6
 40
1.5
  0
CIRCLE
  8
DATA
  6
CONTINUOUS
 62
     7
 10
735.5
 20
622.6
 40
1.5
  0
CIRCLE
  8
DATA
  6
CONTINUOUS
 62
     7
 10
728.0
 20
648.1
 40
1.5
  0
CIRCLE
  8
DATA
  6
CONTINUOUS
 62
     7
 10
733.0
 20
648.1
 40
1.5
  0
CIRCLE
  8
DATA
  6
CONTINUOUS
 62
     7
 10
738.0
 20
648.1
 40
1.5
  0
CIRCLE
  8
DATA
  6
CONTINUOUS
 62
     7
 10
745.5
 20
639.6
 40
1.5
  0
CIRCLE
  8
DATA
  6
CONTINUOUS
 62
     7
 10
750.5
 20
639.6
 40
1.5
  0
CIRCLE
  8
DATA
  6
CONTINUOUS
 62
     7
 10
743.0
 20
631.1
 40
1.5
  0
CIRCLE
  8
DATA
  6
CONTINUOUS
 62
     7
 10
748.0
 20
631.1
 40
1.5
  0
CIRCLE
  8
DATA
  6
CONTINUOUS
 62
     7
 10
745.5
 20
622.6
 40
1.5
  0
CIRCLE
  8
DATA
  6
CONTINUOUS
 62
     7
 10
750.5
 20
622.6
 40
1.5
  0
CIRCLE
  8
DATA
  6
CONTINUOUS
 62
     7
 10
743.0
 20
648.1
 40
1.5
  0
CIRCLE
  8
DATA
  6
CONTINUOUS
 62
     7
 10
748.0
 20
648.1
 40
1.5
  0
CIRCLE
  8
DATA
  6
CONTINUOUS
 62
     7
 10
853.0
 20
631.1
 40
1.5
  0
CIRCLE
  8
DATA
  6
CONTINUOUS
 62
     7
 10
853.0
 20
648.1
 40
1.5
  0
CIRCLE
  8
DATA
  6
CONTINUOUS
 62
     7
 10
853.0
 20
665.1
 40
1.5
  0
TEXT
  8
DATA
  6
CONTINUOUS
 62
     7
 10
774.919601
 20
654.85
 40
5.0
  1
CPS 275
  7
TTF_DEFAULT
  0
CIRCLE
  8
DATA
  6
CONTINUOUS
 62
     7
 10
840.5
 20
639.6
 40
1.5
  0
CIRCLE
  8
DATA
  6
CONTINUOUS
 62
     7
 10
755.5
 20
639.6
 40
1.5
  0
CIRCLE
  8
DATA
  6
CONTINUOUS
 62
     7
 10
760.5
 20
639.6
 40
1.5
  0
CIRCLE
  8
DATA
  6
CONTINUOUS
 62
     7
 10
765.5
 20
639.6
 40
1.5
  0
CIRCLE
  8
DATA
  6
CONTINUOUS
 62
     7
 10
770.5
 20
639.6
 40
1.5
  0
CIRCLE
  8
DATA
  6
CONTINUOUS
 62
     7
 10
775.5
 20
639.6
 40
1.5
  0
CIRCLE
  8
DATA
  6
CONTINUOUS
 62
     7
 10
780.5
 20
639.6
 40
1.5
  0
CIRCLE
  8
DATA
  6
CONTINUOUS
 62
     7
 10
785.5
 20
639.6
 40
1.5
  0
CIRCLE
  8
DATA
  6
CONTINUOUS
 62
     7
 10
790.5
 20
639.6
 40
1.5
  0
CIRCLE
  8
DATA
  6
CONTINUOUS
 62
     7
 10
795.5
 20
639.6
 40
1.5
  0
CIRCLE
  8
DATA
  6
CONTINUOUS
 62
     7
 10
800.5
 20
639.6
 40
1.5
  0
CIRCLE
  8
DATA
  6
CONTINUOUS
 62
     7
 10
805.5
 20
639.6
 40
1.5
  0
CIRCLE
  8
DATA
  6
CONTINUOUS
 62
     7
 10
810.5
 20
639.6
 40
1.5
  0
CIRCLE
  8
DATA
  6
CONTINUOUS
 62
     7
 10
815.5
 20
639.6
 40
1.5
  0
CIRCLE
  8
DATA
  6
CONTINUOUS
 62
     7
 10
820.5
 20
639.6
 40
1.5
  0
CIRCLE
  8
DATA
  6
CONTINUOUS
 62
     7
 10
825.5
 20
639.6
 40
1.5
  0
CIRCLE
  8
DATA
  6
CONTINUOUS
 62
     7
 10
830.5
 20
639.6
 40
1.5
  0
CIRCLE
  8
DATA
  6
CONTINUOUS
 62
     7
 10
835.5
 20
639.6
 40
1.5
  0
CIRCLE
  8
DATA
  6
CONTINUOUS
 62
     7
 10
845.5
 20
639.6
 40
1.5
  0
CIRCLE
  8
DATA
  6
CONTINUOUS
 62
     7
 10
850.5
 20
639.6
 40
1.5
  0
CIRCLE
  8
DATA
  6
CONTINUOUS
 62
     7
 10
840.5
 20
622.6
 40
1.5
  0
CIRCLE
  8
DATA
  6
CONTINUOUS
 62
     7
 10
782.5
 20
620.1
 40
2.5
  0
CIRCLE
  8
DATA
  6
CONTINUOUS
 62
     7
 10
793.0
 20
620.1
 40
2.5
  0
CIRCLE
  8
DATA
  6
CONTINUOUS
 62
     7
 10
803.5
 20
620.1
 40
2.5
  0
TEXT
  8
DATA
  6
CONTINUOUS
 62
     7
 10
778.956194
 20
612.6
 40
3.0
  1
±17V
  7
TTF_DEFAULT
  0
TEXT
  8
DATA
  6
CONTINUOUS
 62
     7
 10
790.164955
 20
612.6
 40
3.0
  1
+48V
  7
TTF_DEFAULT
  0
TEXT
  8
DATA
  6
CONTINUOUS
 62
     7
 10
801.373716
 20
612.6
 40
3.0
  1
+5V
  7
TTF_DEFAULT
  0
CIRCLE
  8
DATA
  6
CONTINUOUS
 62
     7
 10
758.0
 20
631.1
 40
1.5
  0
CIRCLE
  8
DATA
  6
CONTINUOUS
 62
     7
 10
763.0
 20
631.1
 40
1.5
  0
CIRCLE
  8
DATA
  6
CONTINUOUS
 62
     7
 10
768.0
 20
631.1
 40
1.5
  0
CIRCLE
  8
DATA
  6
CONTINUOUS
 62
     7
 10
773.0
 20
631.1
 40
1.5
  0
CIRCLE
  8
DATA
  6
CONTINUOUS
 62
     7
 10
778.0
 20
631.1
 40
1.5
  0
CIRCLE
  8
DATA
  6
CONTINUOUS
 62
     7
 10
783.0
 20
631.1
 40
1.5
  0
CIRCLE
  8
DATA
  6
CONTINUOUS
 62
     7
 10
788.0
 20
631.1
 40
1.5
  0
CIRCLE
  8
DATA
  6
CONTINUOUS
 62
     7
 10
793.0
 20
631.1
 40
1.5
  0
CIRCLE
  8
DATA
  6
CONTINUOUS
 62
     7
 10
798.0
 20
631.1
 40
1.5
  0
CIRCLE
  8
DATA
  6
CONTINUOUS
 62
     7
 10
803.0
 20
631.1
 40
1.5
  0
CIRCLE
  8
DATA
  6
CONTINUOUS
 62
     7
 10
808.0
 20
631.1
 40
1.5
  0
CIRCLE
  8
DATA
  6
CONTINUOUS
 62
     7
 10
813.0
 20
631.1
 40
1.5
  0
CIRCLE
  8
DATA
  6
CONTINUOUS
 62
     7
 10
818.0
 20
631.1
 40
1.5
  0
CIRCLE
  8
DATA
  6
CONTINUOUS
 62
     7
 10
823.0
 20
631.1
 40
1.5
  0
CIRCLE
  8
DATA
  6
CONTINUOUS
 62
     7
 10
828.0
 20
631.1
 40
1.5
  0
CIRCLE
  8
DATA
  6
CONTINUOUS
 62
     7
 10
833.0
 20
631.1
 40
1.5
  0
CIRCLE
  8
DATA
  6
CONTINUOUS
 62
     7
 10
838.0
 20
631.1
 40
1.5
  0
CIRCLE
  8
DATA
  6
CONTINUOUS
 62
     7
 10
755.5
 20
622.6
 40
1.5
  0
CIRCLE
  8
DATA
  6
CONTINUOUS
 62
     7
 10
760.5
 20
622.6
 40
1.5
  0
CIRCLE
  8
DATA
  6
CONTINUOUS
 62
     7
 10
765.5
 20
622.6
 40
1.5
  0
CIRCLE
  8
DATA
  6
CONTINUOUS
 62
     7
 10
770.5
 20
622.6
 40
1.5
  0
CIRCLE
  8
DATA
  6
CONTINUOUS
 62
     7
 10
815.5
 20
622.6
 40
1.5
  0
CIRCLE
  8
DATA
  6
CONTINUOUS
 62
     7
 10
820.5
 20
622.6
 40
1.5
  0
CIRCLE
  8
DATA
  6
CONTINUOUS
 62
     7
 10
825.5
 20
622.6
 40
1.5
  0
CIRCLE
  8
DATA
  6
CONTINUOUS
 62
     7
 10
830.5
 20
622.6
 40
1.5
  0
CIRCLE
  8
DATA
  6
CONTINUOUS
 62
     7
 10
835.5
 20
622.6
 40
1.5
  0
CIRCLE
  8
DATA
  6
CONTINUOUS
 62
     7
 10
843.0
 20
631.1
 40
1.5
  0
CIRCLE
  8
DATA
  6
CONTINUOUS
 62
     7
 10
848.0
 20
631.1
 40
1.5
  0
CIRCLE
  8
DATA
  6
CONTINUOUS
 62
     7
 10
845.5
 20
622.6
 40
1.5
  0
CIRCLE
  8
DATA
  6
CONTINUOUS
 62
     7
 10
850.5
 20
622.6
 40
1.5
  0
CIRCLE
  8
DATA
  6
CONTINUOUS
 62
     7
 10
840.5
 20
656.6
 40
1.5
  0
CIRCLE
  8
DATA
  6
CONTINUOUS
 62
     7
 10
758.0
 20
648.1
 40
1.5
  0
CIRCLE
  8
DATA
  6
CONTINUOUS
 62
     7
 10
763.0
 20
648.1
 40
1.5
  0
CIRCLE
  8
DATA
  6
CONTINUOUS
 62
     7
 10
768.0
 20
648.1
 40
1.5
  0
CIRCLE
  8
DATA
  6
CONTINUOUS
 62
     7
 10
773.0
 20
648.1
 40
1.5
  0
CIRCLE
  8
DATA
  6
CONTINUOUS
 62
     7
 10
778.0
 20
648.1
 40
1.5
  0
CIRCLE
  8
DATA
  6
CONTINUOUS
 62
     7
 10
783.0
 20
648.1
 40
1.5
  0
CIRCLE
  8
DATA
  6
CONTINUOUS
 62
     7
 10
788.0
 20
648.1
 40
1.5
  0
CIRCLE
  8
DATA
  6
CONTINUOUS
 62
     7
 10
793.0
 20
648.1
 40
1.5
  0
CIRCLE
  8
DATA
  6
CONTINUOUS
 62
     7
 10
798.0
 20
648.1
 40
1.5
  0
CIRCLE
  8
DATA
  6
CONTINUOUS
 62
     7
 10
803.0
 20
648.1
 40
1.5
  0
CIRCLE
  8
DATA
  6
CONTINUOUS
 62
     7
 10
808.0
 20
648.1
 40
1.5
  0
CIRCLE
  8
DATA
  6
CONTINUOUS
 62
     7
 10
813.0
 20
648.1
 40
1.5
  0
CIRCLE
  8
DATA
  6
CONTINUOUS
 62
     7
 10
818.0
 20
648.1
 40
1.5
  0
CIRCLE
  8
DATA
  6
CONTINUOUS
 62
     7
 10
823.0
 20
648.1
 40
1.5
  0
CIRCLE
  8
DATA
  6
CONTINUOUS
 62
     7
 10
828.0
 20
648.1
 40
1.5
  0
CIRCLE
  8
DATA
  6
CONTINUOUS
 62
     7
 10
833.0
 20
648.1
 40
1.5
  0
CIRCLE
  8
DATA
  6
CONTINUOUS
 62
     7
 10
838.0
 20
648.1
 40
1.5
  0
CIRCLE
  8
DATA
  6
CONTINUOUS
 62
     7
 10
815.5
 20
656.6
 40
1.5
  0
CIRCLE
  8
DATA
  6
CONTINUOUS
 62
     7
 10
820.5
 20
656.6
 40
1.5
  0
CIRCLE
  8
DATA
  6
CONTINUOUS
 62
     7
 10
825.5
 20
656.6
 40
1.5
  0
CIRCLE
  8
DATA
  6
CONTINUOUS
 62
     7
 10
830.5
 20
656.6
 40
1.5
  0
CIRCLE
  8
DATA
  6
CONTINUOUS
 62
     7
 10
835.5
 20
656.6
 40
1.5
  0
CIRCLE
  8
DATA
  6
CONTINUOUS
 62
     7
 10
843.0
 20
648.1
 40
1.5
  0
CIRCLE
  8
DATA
  6
CONTINUOUS
 62
     7
 10
848.0
 20
648.1
 40
1.5
  0
CIRCLE
  8
DATA
  6
CONTINUOUS
 62
     7
 10
845.5
 20
656.6
 40
1.5
  0
CIRCLE
  8
DATA
  6
CONTINUOUS
 62
     7
 10
850.5
 20
656.6
 40
1.5
  0
CIRCLE
  8
DATA
  6
CONTINUOUS
 62
     7
 10
818.0
 20
665.1
 40
1.5
  0
CIRCLE
  8
DATA
  6
CONTINUOUS
 62
     7
 10
823.0
 20
665.1
 40
1.5
  0
CIRCLE
  8
DATA
  6
CONTINUOUS
 62
     7
 10
828.0
 20
665.1
 40
1.5
  0
CIRCLE
  8
DATA
  6
CONTINUOUS
 62
     7
 10
833.0
 20
665.1
 40
1.5
  0
CIRCLE
  8
DATA
  6
CONTINUOUS
 62
     7
 10
838.0
 20
665.1
 40
1.5
  0
CIRCLE
  8
DATA
  6
CONTINUOUS
 62
     7
 10
843.0
 20
665.1
 40
1.5
  0
CIRCLE
  8
DATA
  6
CONTINUOUS
 62
     7
 10
848.0
 20
665.1
 40
1.5
  0
ARC
  8
DATA
  6
CONTINUOUS
 62
     7
 10
887.6
 20
661.1
 40
4.0
 50
90.0
 51
270.0
  0
ARC
  8
DATA
  6
CONTINUOUS
 62
     7
 10
939.6
 20
661.1
 40
4.0
 50
270.0
 51
90.0
  0
CIRCLE
  8
DATA
  6
CONTINUOUS
 62
     7
 10
865.5
 20
639.6
 40
1.5
  0
CIRCLE
  8
DATA
  6
CONTINUOUS
 62
     7
 10
855.5
 20
639.6
 40
1.5
  0
CIRCLE
  8
DATA
  6
CONTINUOUS
 62
     7
 10
860.5
 20
639.6
 40
1.5
  0
ARC
  8
DATA
  6
CONTINUOUS
 62
     7
 10
887.6
 20
635.1
 40
4.0
 50
90.0
 51
270.0
  0
ARC
  8
DATA
  6
CONTINUOUS
 62
     7
 10
939.6
 20
635.1
 40
4.0
 50
270.0
 51
90.0
  0
CIRCLE
  8
DATA
  6
CONTINUOUS
 62
     7
 10
858.0
 20
631.1
 40
1.5
  0
CIRCLE
  8
DATA
  6
CONTINUOUS
 62
     7
 10
863.0
 20
631.1
 40
1.5
  0
CIRCLE
  8
DATA
  6
CONTINUOUS
 62
     7
 10
855.5
 20
622.6
 40
1.5
  0
CIRCLE
  8
DATA
  6
CONTINUOUS
 62
     7
 10
860.5
 20
622.6
 40
1.5
  0
ARC
  8
DATA
  6
CONTINUOUS
 62
     7
 10
971.3
 20
605.95
 40
3.5
 50
90.0
 51
270.0
  0
ARC
  8
DATA
  6
CONTINUOUS
 62
     7
 10
976.3
 20
605.95
 40
3.5
 50
270.0
 51
90.0
  0
LINE
  8
DATA
  6
CONTINUOUS
 62
     7
 10
971.3
 20
602.45
 11
976.3
 21
602.45
  0
LINE
  8
DATA
  6
CONTINUOUS
 62
     7
 10
971.3
 20
609.45
 11
976.3
 21
609.45
  0
LINE
  8
DATA
  6
CONTINUOUS
 62
     7
 10
951.6
 20
589.0
 11
951.6
 21
600.0
  0
LINE
  8
DATA
  6
CONTINUOUS
 62
     7
 10
933.6
 20
600.0
 11
933.6
 21
589.0
  0
LINE
  8
DATA
  6
CONTINUOUS
 62
     7
 10
933.6
 20
589.0
 11
951.6
 21
589.0
  0
LINE
  8
DATA
  6
CONTINUOUS
 62
     7
 10
887.6
 20
631.1
 11
939.6
 21
631.1
  0
ARC
  8
DATA
  6
CONTINUOUS
 62
     7
 10
887.6
 20
622.1
 40
4.0
 50
90.0
 51
270.0
  0
ARC
  8
DATA
  6
CONTINUOUS
 62
     7
 10
939.6
 20
622.1
 40
4.0
 50
270.0
 51
90.0
  0
LINE
  8
DATA
  6
CONTINUOUS
 62
     7
 10
887.6
 20
618.1
 11
939.6
 21
618.1
  0
LINE
  8
DATA
  6
CONTINUOUS
 62
     7
 10
887.6
 20
626.1
 11
939.6
 21
626.1
  0
ARC
  8
DATA
  6
CONTINUOUS
 62
     7
 10
939.6
 20
609.1
 40
4.0
 50
270.0
 51
90.0
  0
ARC
  8
DATA
  6
CONTINUOUS
 62
     7
 10
892.6
 20
609.1
 40
4.0
 50
90.0
 51
270.0
  0
LINE
  8
DATA
  6
CONTINUOUS
 62
     7
 10
892.6
 20
613.1
 11
939.6
 21
613.1
  0
LINE
  8
DATA
  6
CONTINUOUS
 62
     7
 10
892.6
 20
605.1
 11
939.6
 21
605.1
  0
CIRCLE
  8
DATA
  6
CONTINUOUS
 62
     7
 10
865.5
 20
656.6
 40
1.5
  0
CIRCLE
  8
DATA
  6
CONTINUOUS
 62
     7
 10
858.0
 20
648.1
 40
1.5
  0
CIRCLE
  8
DATA
  6
CONTINUOUS
 62
     7
 10
863.0
 20
648.1
 40
1.5
  0
CIRCLE
  8
DATA
  6
CONTINUOUS
 62
     7
 10
855.5
 20
656.6
 40
1.5
  0
CIRCLE
  8
DATA
  6
CONTINUOUS
 62
     7
 10
860.5
 20
656.6
 40
1.5
  0
LINE
  8
DATA
  6
CONTINUOUS
 62
     7
 10
887.6
 20
657.1
 11
939.6
 21
657.1
  0
ARC
  8
DATA
  6
CONTINUOUS
 62
     7
 10
887.6
 20
648.1
 40
4.0
 50
90.0
 51
270.0
  0
ARC
  8
DATA
  6
CONTINUOUS
 62
     7
 10
939.6
 20
648.1
 40
4.0
 50
270.0
 51
90.0
  0
LINE
  8
DATA
  6
CONTINUOUS
 62
     7
 10
887.6
 20
644.1
 11
939.6
 21
644.1
  0
LINE
  8
DATA
  6
CONTINUOUS
 62
     7
 10
887.6
 20
652.1
 11
939.6
 21
652.1
  0
LINE
  8
DATA
  6
CONTINUOUS
 62
     7
 10
887.6
 20
639.1
 11
939.6
 21
639.1
  0
CIRCLE
  8
DATA
  6
CONTINUOUS
 62
     7
 10
868.0
 20
648.1
 40
1.5
  0
CIRCLE
  8
DATA
  6
CONTINUOUS
 62
     7
 10
870.5
 20
656.6
 40
1.5
  0
CIRCLE
  8
DATA
  6
CONTINUOUS
 62
     7
 10
863.0
 20
665.1
 40
1.5
  0
CIRCLE
  8
DATA
  6
CONTINUOUS
 62
     7
 10
858.0
 20
665.1
 40
1.5
  0
LINE
  8
DATA
  6
CONTINUOUS
 62
     7
 10
887.6
 20
670.1
 11
934.6
 21
670.1
  0
LINE
  8
DATA
  6
CONTINUOUS
 62
     7
 10
887.6
 20
665.1
 11
939.6
 21
665.1
  0
CIRCLE
  8
DATA
  6
CONTINUOUS
 62
     7
 10
868.0
 20
665.1
 40
1.5
  0
LINE
  8
DATA
  6
CONTINUOUS
 62
     7
 10
500.0
 20
688.1
 11
982.6
 21
688.1
  0
LINE
  8
DIMENSIONS
  6
CONTINUOUS
 62
     7
 10
508.8
 20
750.0
 11
973.8
 21
750.0
  0
LINE
  8
DIMENSIONS
  6
CONTINUOUS
 62
     7
 10
500.0
 20
800.0
 11
982.6
 21
800.0
  0
TEXT
  8
DIMENSIONS
  6
CONTINUOUS
 62
     7
 10
712.790212
 20
812.5
 40
25.0
  1
482.6
  7
TTF_DEFAULT
  0
LINE
  8
DATA
  6
CONTINUOUS
 62
     7
 10
500.0
 20
902.0
 11
982.6
 21
902.0
  0
LINE
  8
DATA
  6
CONTINUOUS
 62
     7
 10
982.6
 20
900.0
 11
500.0
 21
900.0
  0
LINE
  8
DATA
  6
CONTINUOUS
 62
     7
 10
526.3
 20
1248.5
 11
956.3
 21
1248.5
  0
LINE
  8
DATA
  6
CONTINUOUS
 62
     7
 10
526.3
 20
1250.5
 11
956.3
 21
1250.5
  0
LINE
  8
DATA
  6
CONTINUOUS
 62
     7
 10
734.3
 20
1259.5
 11
709.3
 21
1297.0
  0
LINE
  8
DATA
  6
CONTINUOUS
 62
     7
 10
526.3
 20
902.0
 11
526.3
 21
1250.5
  0
LINE
  8
DIMENSIONS
  6
CONTINUOUS
 62
     7
 10
508.8
 20
695.65
 11
508.8
 21
762.5
  0
LINE
  8
DIMENSIONS
  6
CONTINUOUS
 62
     7
 10
500.0
 20
698.1
 11
500.0
 21
812.5
  0
LINE
  8
DATA
  6
CONTINUOUS
 62
     7
 10
506.3
 20
685.65
 11
511.3
 21
685.65
  0
ARC
  8
DATA
  6
CONTINUOUS
 62
     7
 10
506.3
 20
682.15
 40
3.5
 50
90.0
 51
270.0
  0
ARC
  8
DATA
  6
CONTINUOUS
 62
     7
 10
511.3
 20
682.15
 40
3.5
 50
270.0
 51
90.0
  0
LINE
  8
DATA
  6
CONTINUOUS
 62
     7
 10
506.3
 20
678.65
 11
511.3
 21
678.65
  0
CIRCLE
  8
DATA
  6
CONTINUOUS
 62
     7
 10
540.0
 20
680.1
 40
3.75
  0
CIRCLE
  8
DATA
  6
CONTINUOUS
 62
     7
 10
540.0
 20
680.1
 40
4.5
  0
LINE
  8
DATA
  6
CONTINUOUS
 62
     7
 10
538.5
 20
680.1
 11
541.5
 21
680.1
  0
LINE
  8
DATA
  6
CONTINUOUS
 62
     7
 10
540.0
 20
678.6
 11
540.0
 21
681.6
  0
CIRCLE
  8
DATA
  6
CONTINUOUS
 62
     7
 10
640.0
 20
680.1
 40
3.75
  0
CIRCLE
  8
DATA
  6
CONTINUOUS
 62
     7
 10
640.0
 20
680.1
 40
4.5
  0
LINE
  8
DATA
  6
CONTINUOUS
 62
     7
 10
638.5
 20
680.1
 11
641.5
 21
680.1
  0
LINE
  8
DATA
  6
CONTINUOUS
 62
     7
 10
640.0
 20
678.6
 11
640.0
 21
681.6
  0
LINE
  8
DIMENSIONS
  6
CONTINUOUS
 62
     7
 10
528.8
 20
746.6668
 11
508.8
 21
750.0
  0
LINE
  8
DIMENSIONS
  6
CONTINUOUS
 62
     7
 10
528.8
 20
753.3332
 11
508.8
 21
750.0
  0
LINE
  8
DIMENSIONS
  6
CONTINUOUS
 62
     7
 10
520.0
 20
796.6668
 11
500.0
 21
800.0
  0
LINE
  8
DIMENSIONS
  6
CONTINUOUS
 62
     7
 10
520.0
 20
803.3332
 11
500.0
 21
800.0
  0
LINE
  8
DATA
  6
CONTINUOUS
 62
     7
 10
500.0
 20
900.0
 11
500.0
 21
902.0
  0
LINE
  8
DATA
  6
CONTINUOUS
 62
     7
 10
535.5
 20
899.4
 11
544.5
 21
899.4
  0
ARC
  8
DATA
  6
CONTINUOUS
 62
     7
 10
540.0
 20
900.374569
 40
3.874569
 50
194.568047
 51
345.431953
  0
LINE
  8
DATA
  6
CONTINUOUS
 62
     7
 10
535.5
 20
900.0
 11
535.5
 21
899.4
  0
LINE
  8
DATA
  6
CONTINUOUS
 62
     7
 10
544.5
 20
900.0
 11
544.5
 21
899.4
  0
LINE
  8
DATA
  6
CONTINUOUS
 62
     7
 10
563.0
 20
897.5
 11
563.0
 21
900.0
  0
LINE
  8
DATA
  6
CONTINUOUS
 62
     7
 10
560.0
 20
897.5
 11
560.0
 21
893.5
  0
LINE
  8
DATA
  6
CONTINUOUS
 62
     7
 10
540.0
 20
893.5
 11
560.0
 21
893.5
  0
LINE
  8
DATA
  6
CONTINUOUS
 62
     7
 10
540.0
 20
896.5
 11
540.0
 21
893.5
  0
LINE
  8
DATA
  6
CONTINUOUS
 62
     7
 10
542.59791
 20
897.5
 11
563.0
 21
897.5
  0
LINE
  8
DATA
  6
CONTINUOUS
 62
     7
 10
537.0
 20
897.5
 11
537.40209
 21
897.5
  0
LINE
  8
DATA
  6
CONTINUOUS
 62
     7
 10
537.0
 20
897.5
 11
537.0
 21
897.922573
  0
LINE
  8
DATA
  6
CONTINUOUS
 62
     7
 10
526.3
 20
918.5
 11
525.7
 21
918.5
  0
LINE
  8
DATA
  6
CONTINUOUS
 62
     7
 10
526.3
 20
909.5
 11
525.7
 21
909.5
  0
ARC
  8
DATA
  6
CONTINUOUS
 62
     7
 10
526.674569
 20
914.0
 40
3.874569
 50
104.568047
 51
255.431953
  0
LINE
  8
DATA
  6
CONTINUOUS
 62
     7
 10
525.7
 20
909.5
 11
525.7
 21
918.5
  0
LINE
  8
DATA
  6
CONTINUOUS
 62
     7
 10
635.5
 20
899.4
 11
644.5
 21
899.4
  0
ARC
  8
DATA
  6
CONTINUOUS
 62
     7
 10
640.0
 20
900.374569
 40
3.874569
 50
194.568047
 51
345.431953
  0
LINE
  8
DATA
  6
CONTINUOUS
 62
     7
 10
635.5
 20
900.0
 11
635.5
 21
899.4
  0
LINE
  8
DATA
  6
CONTINUOUS
 62
     7
 10
644.5
 20
900.0
 11
644.5
 21
899.4
  0
TEXT
  8
DATA
  6
CONTINUOUS
 62
     7
 10
522.772678
 20
1306.25
 40
25.0
  1
LINKｺﾈｸﾀ(F-Type)
  7
TTF_DEFAULT
  0
LINE
  8
DATA
  6
CONTINUOUS
 62
     7
 10
526.3
 20
1080.0
 11
525.7
 21
1080.0
  0
LINE
  8
DATA
  6
CONTINUOUS
 62
     7
 10
526.3
 20
1071.0
 11
525.7
 21
1071.0
  0
ARC
  8
DATA
  6
CONTINUOUS
 62
     7
 10
526.674569
 20
1075.5
 40
3.874569
 50
104.568047
 51
255.431953
  0
LINE
  8
DATA
  6
CONTINUOUS
 62
     7
 10
525.7
 20
1071.0
 11
525.7
 21
1080.0
  0
LINE
  8
DATA
  6
CONTINUOUS
 62
     7
 10
553.3
 20
1254.0
 11
602.8
 21
1254.0
  0
LINE
  8
DATA
  6
CONTINUOUS
 62
     7
 10
526.3
 20
1231.5
 11
525.7
 21
1231.5
  0
ARC
  8
DATA
  6
CONTINUOUS
 62
     7
 10
526.674569
 20
1236.0
 40
3.874569
 50
104.568047
 51
255.431953
  0
LINE
  8
DATA
  6
CONTINUOUS
 62
     7
 10
525.7
 20
1231.5
 11
525.7
 21
1240.5
  0
LINE
  8
DATA
  6
CONTINUOUS
 62
     7
 10
526.3
 20
1240.5
 11
525.7
 21
1240.5
  0
LINE
  8
DATA
  6
CONTINUOUS
 62
     7
 10
554.3
 20
1251.1
 11
545.3
 21
1251.1
  0
ARC
  8
DATA
  6
CONTINUOUS
 62
     7
 10
549.8
 20
1250.125431
 40
3.874569
 50
14.568047
 51
165.431953
  0
LINE
  8
DATA
  6
CONTINUOUS
 62
     7
 10
554.3
 20
1250.5
 11
554.3
 21
1251.1
  0
LINE
  8
DATA
  6
CONTINUOUS
 62
     7
 10
545.3
 20
1250.5
 11
545.3
 21
1251.1
  0
LINE
  8
DATA
  6
CONTINUOUS
 62
     7
 10
553.3
 20
1251.787443
 11
553.3
 21
1254.0
  0
LINE
  8
DATA
  6
CONTINUOUS
 62
     7
 10
602.8
 20
1250.5
 11
602.8
 21
1254.0
  0
LINE
  8
DATA
  6
CONTINUOUS
 62
     7
 10
956.3
 20
902.0
 11
956.3
 21
1250.5
  0
LINE
  8
DIMENSIONS
  6
CONTINUOUS
 62
     7
 10
973.8
 20
695.65
 11
973.8
 21
762.5
  0
LINE
  8
DIMENSIONS
  6
CONTINUOUS
 62
     7
 10
982.6
 20
698.1
 11
982.6
 21
812.5
  0
CIRCLE
  8
DATA
  6
CONTINUOUS
 62
     7
 10
741.3
 20
680.1
 40
3.75
  0
CIRCLE
  8
DATA
  6
CONTINUOUS
 62
     7
 10
741.3
 20
680.1
 40
4.5
  0
LINE
  8
DATA
  6
CONTINUOUS
 62
     7
 10
739.8
 20
680.1
 11
742.8
 21
680.1
  0
LINE
  8
DATA
  6
CONTINUOUS
 62
     7
 10
741.3
 20
678.6
 11
741.3
 21
681.6
  0
CIRCLE
  8
DATA
  6
CONTINUOUS
 62
     7
 10
842.6
 20
680.1
 40
3.75
  0
CIRCLE
  8
DATA
  6
CONTINUOUS
 62
     7
 10
842.6
 20
680.1
 40
4.5
  0
LINE
  8
DATA
  6
CONTINUOUS
 62
     7
 10
844.1
 20
680.1
 11
841.1
 21
680.1
  0
LINE
  8
DATA
  6
CONTINUOUS
 62
     7
 10
842.6
 20
678.6
 11
842.6
 21
681.6
  0
LINE
  8
DATA
  6
CONTINUOUS
 62
     7
 10
971.3
 20
685.65
 11
976.3
 21
685.65
  0
ARC
  8
DATA
  6
CONTINUOUS
 62
     7
 10
971.3
 20
682.15
 40
3.5
 50
90.0
 51
270.0
  0
ARC
  8
DATA
  6
CONTINUOUS
 62
     7
 10
976.3
 20
682.15
 40
3.5
 50
270.0
 51
90.0
  0
LINE
  8
DATA
  6
CONTINUOUS
 62
     7
 10
971.3
 20
678.65
 11
976.3
 21
678.65
  0
LINE
  8
DATA
  6
CONTINUOUS
 62
     7
 10
887.6
 20
678.1
 11
934.6
 21
678.1
  0
CIRCLE
  8
DATA
  6
CONTINUOUS
 62
     7
 10
875.6
 20
678.1
 40
3.0
  0
LINE
  8
DATA
  6
CONTINUOUS
 62
     7
 10
874.6
 20
678.1
 11
876.6
 21
678.1
  0
LINE
  8
DATA
  6
CONTINUOUS
 62
     7
 10
875.6
 20
677.1
 11
875.6
 21
679.1
  0
CIRCLE
  8
DATA
  6
CONTINUOUS
 62
     7
 10
947.6
 20
678.1
 40
3.0
  0
LINE
  8
DATA
  6
CONTINUOUS
 62
     7
 10
946.6
 20
678.1
 11
948.6
 21
678.1
  0
LINE
  8
DATA
  6
CONTINUOUS
 62
     7
 10
947.6
 20
677.1
 11
947.6
 21
679.1
  0
TEXT
  8
DIMENSIONS
  6
CONTINUOUS
 62
     7
 10
722.055893
 20
762.5
 40
25.0
  1
465
  7
TTF_DEFAULT
  0
LINE
  8
DIMENSIONS
  6
CONTINUOUS
 62
     7
 10
953.8
 20
746.6668
 11
973.8
 21
750.0
  0
LINE
  8
DIMENSIONS
  6
CONTINUOUS
 62
     7
 10
953.8
 20
753.3332
 11
973.8
 21
750.0
  0
LINE
  8
DIMENSIONS
  6
CONTINUOUS
 62
     7
 10
962.6
 20
796.6668
 11
982.6
 21
800.0
  0
LINE
  8
DIMENSIONS
  6
CONTINUOUS
 62
     7
 10
962.6
 20
803.3332
 11
982.6
 21
800.0
  0
LINE
  8
DATA
  6
CONTINUOUS
 62
     7
 10
736.8
 20
899.4
 11
745.8
 21
899.4
  0
ARC
  8
DATA
  6
CONTINUOUS
 62
     7
 10
741.3
 20
900.374569
 40
3.874569
 50
194.568047
 51
345.431953
  0
LINE
  8
DATA
  6
CONTINUOUS
 62
     7
 10
736.8
 20
900.0
 11
736.8
 21
899.4
  0
LINE
  8
DATA
  6
CONTINUOUS
 62
     7
 10
745.8
 20
900.0
 11
745.8
 21
899.4
  0
LINE
  8
DATA
  6
CONTINUOUS
 62
     7
 10
838.1
 20
899.4
 11
847.1
 21
899.4
  0
ARC
  8
DATA
  6
CONTINUOUS
 62
     7
 10
842.6
 20
900.374569
 40
3.874569
 50
194.568047
 51
345.431953
  0
LINE
  8
DATA
  6
CONTINUOUS
 62
     7
 10
838.1
 20
900.0
 11
838.1
 21
899.4
  0
ARC
  8
DATA
  6
CONTINUOUS
 62
     7
 10
782.5
 20
900.0
 40
2.5
 50
180.0
 51
0.0
  0
ARC
  8
DATA
  6
CONTINUOUS
 62
     7
 10
793.0
 20
900.0
 40
2.5
 50
180.0
 51
0.0
  0
ARC
  8
DATA
  6
CONTINUOUS
 62
     7
 10
803.5
 20
900.0
 40
2.5
 50
180.0
 51
0.0
  0
LINE
  8
DATA
  6
CONTINUOUS
 62
     7
 10
847.1
 20
900.0
 11
847.1
 21
899.4
  0
LINE
  8
DATA
  6
CONTINUOUS
 62
     7
 10
982.6
 20
902.0
 11
982.6
 21
900.0
  0
ARC
  8
DATA
  6
CONTINUOUS
 62
     7
 10
875.6
 20
900.818421
 40
3.318421
 50
205.305113
 51
334.694887
  0
LINE
  8
DATA
  6
CONTINUOUS
 62
     7
 10
872.6
 20
899.4
 11
872.6
 21
900.0
  0
LINE
  8
DATA
  6
CONTINUOUS
 62
     7
 10
878.6
 20
899.4
 11
878.6
 21
900.0
  0
ARC
  8
DATA
  6
CONTINUOUS
 62
     7
 10
947.6
 20
900.818421
 40
3.318421
 50
205.305113
 51
334.694887
  0
LINE
  8
DATA
  6
CONTINUOUS
 62
     7
 10
944.6
 20
899.4
 11
944.6
 21
900.0
  0
LINE
  8
DATA
  6
CONTINUOUS
 62
     7
 10
950.6
 20
899.4
 11
950.6
 21
900.0
  0
LINE
  8
DATA
  6
CONTINUOUS
 62
     7
 10
956.9
 20
909.5
 11
956.9
 21
918.5
  0
ARC
  8
DATA
  6
CONTINUOUS
 62
     7
 10
955.925431
 20
914.0
 40
3.874569
 50
284.568047
 51
75.431953
  0
LINE
  8
DATA
  6
CONTINUOUS
 62
     7
 10
956.3
 20
909.5
 11
956.9
 21
909.5
  0
LINE
  8
DATA
  6
CONTINUOUS
 62
     7
 10
956.3
 20
918.5
 11
956.9
 21
918.5
  0
LINE
  8
DATA
  6
CONTINUOUS
 62
     7
 10
721.8
 20
1259.5
 11
746.8
 21
1259.5
  0
LINE
  8
DATA
  6
CONTINUOUS
 62
     7
 10
721.8
 20
1252.0
 11
746.8
 21
1251.126981
  0
LINE
  8
DATA
  6
CONTINUOUS
 62
     7
 10
721.8
 20
1253.5
 11
746.8
 21
1252.626981
  0
LINE
  8
DATA
  6
CONTINUOUS
 62
     7
 10
721.8
 20
1255.0
 11
746.8
 21
1254.126981
  0
LINE
  8
DATA
  6
CONTINUOUS
 62
     7
 10
721.8
 20
1256.5
 11
746.8
 21
1255.626981
  0
LINE
  8
DATA
  6
CONTINUOUS
 62
     7
 10
721.8
 20
1258.0
 11
746.8
 21
1257.126981
  0
LINE
  8
DATA
  6
CONTINUOUS
 62
     7
 10
721.8
 20
1259.5
 11
746.8
 21
1258.626981
  0
LINE
  8
DATA
  6
CONTINUOUS
 62
     7
 10
721.8
 20
1250.5
 11
721.8
 21
1259.5
  0
LINE
  8
DATA
  6
CONTINUOUS
 62
     7
 10
956.9
 20
1071.0
 11
956.9
 21
1080.0
  0
ARC
  8
DATA
  6
CONTINUOUS
 62
     7
 10
955.925431
 20
1075.5
 40
3.874569
 50
284.568047
 51
75.431953
  0
LINE
  8
DATA
  6
CONTINUOUS
 62
     7
 10
956.3
 20
1071.0
 11
956.9
 21
1071.0
  0
LINE
  8
DATA
  6
CONTINUOUS
 62
     7
 10
956.3
 20
1080.0
 11
956.9
 21
1080.0
  0
LINE
  8
DATA
  6
CONTINUOUS
 62
     7
 10
729.307645
 20
1270.593965
 11
734.3
 21
1259.5
  0
LINE
  8
DATA
  6
CONTINUOUS
 62
     7
 10
725.979574
 20
1268.375257
 11
734.3
 21
1259.5
  0
LINE
  8
DATA
  6
CONTINUOUS
 62
     7
 10
746.8
 20
1250.5
 11
746.8
 21
1259.5
  0
LINE
  8
DATA
  6
CONTINUOUS
 62
     7
 10
784.3
 20
1259.5
 11
809.3
 21
1297.0
  0
LINE
  8
DATA
  6
CONTINUOUS
 62
     7
 10
771.8
 20
1250.5
 11
771.8
 21
1259.5
  0
LINE
  8
DATA
  6
CONTINUOUS
 62
     7
 10
796.8
 20
1250.5
 11
796.8
 21
1259.5
  0
LINE
  8
DATA
  6
CONTINUOUS
 62
     7
 10
771.8
 20
1259.5
 11
796.8
 21
1259.5
  0
LINE
  8
DATA
  6
CONTINUOUS
 62
     7
 10
771.8
 20
1259.5
 11
796.8
 21
1258.626981
  0
LINE
  8
DATA
  6
CONTINUOUS
 62
     7
 10
771.8
 20
1252.0
 11
796.8
 21
1251.126981
  0
LINE
  8
DATA
  6
CONTINUOUS
 62
     7
 10
771.8
 20
1253.5
 11
796.8
 21
1252.626981
  0
LINE
  8
DATA
  6
CONTINUOUS
 62
     7
 10
771.8
 20
1255.0
 11
796.8
 21
1254.126981
  0
LINE
  8
DATA
  6
CONTINUOUS
 62
     7
 10
771.8
 20
1256.5
 11
796.8
 21
1255.626981
  0
LINE
  8
DATA
  6
CONTINUOUS
 62
     7
 10
771.8
 20
1258.0
 11
796.8
 21
1257.126981
  0
LINE
  8
DATA
  6
CONTINUOUS
 62
     7
 10
792.620426
 20
1268.375257
 11
784.3
 21
1259.5
  0
LINE
  8
DATA
  6
CONTINUOUS
 62
     7
 10
789.292355
 20
1270.593965
 11
784.3
 21
1259.5
  0
LINE
  8
DATA
  6
CONTINUOUS
 62
     7
 10
956.3
 20
1240.5
 11
956.9
 21
1240.5
  0
LINE
  8
DATA
  6
CONTINUOUS
 62
     7
 10
956.3
 20
1231.5
 11
956.9
 21
1231.5
  0
LINE
  8
DATA
  6
CONTINUOUS
 62
     7
 10
956.9
 20
1231.5
 11
956.9
 21
1240.5
  0
ARC
  8
DATA
  6
CONTINUOUS
 62
     7
 10
955.925431
 20
1236.0
 40
3.874569
 50
284.568047
 51
75.431953
  0
LINE
  8
DATA
  6
CONTINUOUS
 62
     7
 10
936.08
 20
1251.1
 11
927.08
 21
1251.1
  0
ARC
  8
DATA
  6
CONTINUOUS
 62
     7
 10
931.58
 20
1250.125431
 40
3.874569
 50
14.568047
 51
165.431953
  0
LINE
  8
DATA
  6
CONTINUOUS
 62
     7
 10
936.08
 20
1250.5
 11
936.08
 21
1251.1
  0
LINE
  8
DATA
  6
CONTINUOUS
 62
     7
 10
927.08
 20
1250.5
 11
927.08
 21
1251.1
  0
TEXT
  8
SPEC
  6
CONTINUOUS
 62
     7
 10
187.5
 20
2662.5
 40
30.0
  1
仕様
  7
TTF_DEFAULT
  0
TEXT
  8
SPEC
  6
CONTINUOUS
 62
     7
 10
181.25
 20
2618.75
 40
25.0
  1
電源 / 消費電力
  7
TTF_DEFAULT
  0
TEXT
  8
SPEC
  6
CONTINUOUS
 62
     7
 10
181.25
 20
2581.25
 40
25.0
  1
重量
  7
TTF_DEFAULT
  0
TEXT
  8
SPEC
  6
CONTINUOUS
 62
     7
 10
181.25
 20
2543.75
 40
25.0
  1
寸法
  7
TTF_DEFAULT
  0
LINE
  8
SPEC
  6
CONTINUOUS
 62
     7
 10
175.0
 20
2537.5
 11
175.0
 21
2650.0
  0
LINE
  8
DATA
  6
CONTINUOUS
 62
     7
 10
500.0
 20
1450.0
 11
982.6
 21
1450.0
  0
CIRCLE
  8
DATA
  6
CONTINUOUS
 62
     7
 10
721.3
 20
1472.5
 40
1.5
  0
LINE
  8
DATA
  6
CONTINUOUS
 62
     7
 10
500.0
 20
1538.1
 11
982.6
 21
1538.1
  0
CIRCLE
  8
DATA
  6
CONTINUOUS
 62
     7
 10
721.3
 20
1498.5
 40
1.5
  0
TEXT
  8
DATA
  6
CONTINUOUS
 62
     7
 10
739.582158
 20
1470.0
 40
5.0
  1
LINK
 50
180.0
  7
TTF_DEFAULT
  0
TEXT
  8
DATA
  6
CONTINUOUS
 62
     7
 10
783.82
 20
1507.5
 40
3.5
  1
PIN 1 - +17VDC @ 5.25A
 50
180.0
  7
TTF_DEFAULT
  0
TEXT
  8
DATA
  6
CONTINUOUS
 62
     7
 10
783.82
 20
1531.5
 40
3.5
  1
PIN 10 - +48VDC @ 0.35A
 50
180.0
  7
TTF_DEFAULT
  0
TEXT
  8
DATA
  6
CONTINUOUS
 62
     7
 10
783.82
 20
1523.5
 40
3.5
  1
PIN 5 - 0V (±17V & +48V)
 50
180.0
  7
TTF_DEFAULT
  0
TEXT
  8
DATA
  6
CONTINUOUS
 62
     7
 10
783.82
 20
1519.5
 40
3.5
  1
PIN 4 - CHASSIS EARTH
 50
180.0
  7
TTF_DEFAULT
  0
TEXT
  8
DATA
  6
CONTINUOUS
 62
     7
 10
783.82
 20
1515.5
 40
3.5
  1
PIN 3 - -17VDC @ 5.25A
 50
180.0
  7
TTF_DEFAULT
  0
TEXT
  8
DATA
  6
CONTINUOUS
 62
     7
 10
783.82
 20
1527.5
 40
3.5
  1
PIN 7 - 0V (+5V)
 50
180.0
  7
TTF_DEFAULT
  0
TEXT
  8
DATA
  6
CONTINUOUS
 62
     7
 10
783.82
 20
1511.5
 40
3.5
  1
PIN 2 - +5V @ 1A
 50
180.0
  7
TTF_DEFAULT
  0
LINE
  8
DATA
  6
CONTINUOUS
 62
     7
 10
500.0
 20
1450.0
 11
500.0
 21
1538.1
  0
LINE
  8
DATA
  6
CONTINUOUS
 62
     7
 10
526.3
 20
1538.1
 11
526.3
 21
1450.0
  0
LINE
  8
DATA
  6
CONTINUOUS
 62
     7
 10
556.8
 20
1481.25
 11
556.8
 21
1493.0
  0
LINE
  8
DATA
  6
CONTINUOUS
 62
     7
 10
553.3
 20
1473.0
 11
553.3
 21
1497.0
  0
LINE
  8
DATA
  6
CONTINUOUS
 62
     7
 10
582.8
 20
1476.0
 11
582.8
 21
1493.0
  0
LINE
  8
DATA
  6
CONTINUOUS
 62
     7
 10
581.3
 20
1481.25
 11
581.3
 21
1493.0
  0
LINE
  8
DATA
  6
CONTINUOUS
 62
     7
 10
599.8
 20
1476.0
 11
599.8
 21
1493.0
  0
LINE
  8
DATA
  6
CONTINUOUS
 62
     7
 10
602.8
 20
1497.0
 11
602.8
 21
1473.0
  0
LINE
  8
DATA
  6
CONTINUOUS
 62
     7
 10
553.3
 20
1473.0
 11
602.8
 21
1473.0
  0
LINE
  8
DATA
  6
CONTINUOUS
 62
     7
 10
582.8
 20
1476.0
 11
599.8
 21
1476.0
  0
LINE
  8
DATA
  6
CONTINUOUS
 62
     7
 10
576.05
 20
1476.0
 11
581.3
 21
1481.25
  0
LINE
  8
DATA
  6
CONTINUOUS
 62
     7
 10
511.3
 20
1452.45
 11
506.3
 21
1452.45
  0
ARC
  8
DATA
  6
CONTINUOUS
 62
     7
 10
511.3
 20
1455.95
 40
3.5
 50
270.0
 51
90.0
  0
ARC
  8
DATA
  6
CONTINUOUS
 62
     7
 10
506.3
 20
1455.95
 40
3.5
 50
90.0
 51
270.0
  0
LINE
  8
DATA
  6
CONTINUOUS
 62
     7
 10
511.3
 20
1459.45
 11
506.3
 21
1459.45
  0
CIRCLE
  8
DATA
  6
CONTINUOUS
 62
     7
 10
549.8
 20
1458.0
 40
3.75
  0
CIRCLE
  8
DATA
  6
CONTINUOUS
 62
     7
 10
549.8
 20
1458.0
 40
4.5
  0
LINE
  8
DATA
  6
CONTINUOUS
 62
     7
 10
548.3
 20
1458.0
 11
551.3
 21
1458.0
  0
LINE
  8
DATA
  6
CONTINUOUS
 62
     7
 10
549.8
 20
1459.5
 11
549.8
 21
1456.5
  0
LINE
  8
DATA
  6
CONTINUOUS
 62
     7
 10
576.8
 20
1483.5
 11
576.8
 21
1489.0
  0
LINE
  8
DATA
  6
CONTINUOUS
 62
     7
 10
576.8
 20
1483.5
 11
575.3
 21
1483.5
  0
LINE
  8
DATA
  6
CONTINUOUS
 62
     7
 10
562.8
 20
1489.0
 11
561.3
 21
1489.0
  0
LINE
  8
DATA
  6
CONTINUOUS
 62
     7
 10
561.3
 20
1483.5
 11
561.3
 21
1489.0
  0
LINE
  8
DATA
  6
CONTINUOUS
 62
     7
 10
562.8
 20
1483.5
 11
562.8
 21
1489.0
  0
LINE
  8
DATA
  6
CONTINUOUS
 62
     7
 10
569.8
 20
1480.0
 11
568.3
 21
1480.0
  0
LINE
  8
DATA
  6
CONTINUOUS
 62
     7
 10
569.8
 20
1480.0
 11
569.8
 21
1485.5
  0
LINE
  8
DATA
  6
CONTINUOUS
 62
     7
 10
568.3
 20
1480.0
 11
568.3
 21
1485.5
  0
LINE
  8
DATA
  6
CONTINUOUS
 62
     7
 10
569.8
 20
1485.5
 11
568.3
 21
1485.5
  0
LINE
  8
DATA
  6
CONTINUOUS
 62
     7
 10
576.8
 20
1489.0
 11
575.3
 21
1489.0
  0
LINE
  8
DATA
  6
CONTINUOUS
 62
     7
 10
575.3
 20
1483.5
 11
575.3
 21
1489.0
  0
LINE
  8
DATA
  6
CONTINUOUS
 62
     7
 10
562.8
 20
1483.5
 11
561.3
 21
1483.5
  0
LINE
  8
DATA
  6
CONTINUOUS
 62
     7
 10
556.8
 20
1481.25
 11
562.05
 21
1476.0
  0
LINE
  8
DATA
  6
CONTINUOUS
 62
     7
 10
562.05
 20
1476.0
 11
576.05
 21
1476.0
  0
LINE
  8
DATA
  6
CONTINUOUS
 62
     7
 10
531.0
 20
1549.1
 11
531.0
 21
1538.1
  0
LINE
  8
DATA
  6
CONTINUOUS
 62
     7
 10
549.0
 20
1538.1
 11
549.0
 21
1549.1
  0
LINE
  8
DATA
  6
CONTINUOUS
 62
     7
 10
553.3
 20
1497.0
 11
602.8
 21
1497.0
  0
LINE
  8
DATA
  6
CONTINUOUS
 62
     7
 10
582.8
 20
1493.0
 11
599.8
 21
1493.0
  0
LINE
  8
DATA
  6
CONTINUOUS
 62
     7
 10
556.8
 20
1493.0
 11
581.3
 21
1493.0
  0
ARC
  8
DATA
  6
CONTINUOUS
 62
     7
 10
511.3
 20
1532.15
 40
3.5
 50
270.0
 51
90.0
  0
ARC
  8
DATA
  6
CONTINUOUS
 62
     7
 10
506.3
 20
1532.15
 40
3.5
 50
90.0
 51
270.0
  0
LINE
  8
DATA
  6
CONTINUOUS
 62
     7
 10
511.3
 20
1535.65
 11
506.3
 21
1535.65
  0
LINE
  8
DATA
  6
CONTINUOUS
 62
     7
 10
511.3
 20
1528.65
 11
506.3
 21
1528.65
  0
LINE
  8
DATA
  6
CONTINUOUS
 62
     7
 10
549.0
 20
1549.1
 11
531.0
 21
1549.1
  0
CIRCLE
  8
DATA
  6
CONTINUOUS
 62
     7
 10
734.3
 20
1485.5
 40
12.5
  0
CIRCLE
  8
DATA
  6
CONTINUOUS
 62
     7
 10
734.3
 20
1485.5
 40
9.0
  0
CIRCLE
  8
DATA
  6
CONTINUOUS
 62
     7
 10
734.3
 20
1485.5
 40
10.5
  0
CIRCLE
  8
DATA
  6
CONTINUOUS
 62
     7
 10
784.3
 20
1485.5
 40
9.0
  0
CIRCLE
  8
DATA
  6
CONTINUOUS
 62
     7
 10
784.3
 20
1485.5
 40
10.5
  0
CIRCLE
  8
DATA
  6
CONTINUOUS
 62
     7
 10
784.3
 20
1485.5
 40
12.5
  0
LINE
  8
DATA
  6
CONTINUOUS
 62
     7
 10
982.6
 20
1538.1
 11
982.6
 21
1450.0
  0
LINE
  8
DATA
  6
CONTINUOUS
 62
     7
 10
956.3
 20
1538.1
 11
956.3
 21
1450.0
  0
LINE
  8
DATA
  6
CONTINUOUS
 62
     7
 10
739.8
 20
1458.0
 11
742.8
 21
1458.0
  0
CIRCLE
  8
DATA
  6
CONTINUOUS
 62
     7
 10
741.3
 20
1458.0
 40
4.5
  0
CIRCLE
  8
DATA
  6
CONTINUOUS
 62
     7
 10
741.3
 20
1458.0
 40
3.75
  0
CIRCLE
  8
DATA
  6
CONTINUOUS
 62
     7
 10
740.6
 20
1486.5
 40
0.5
  0
CIRCLE
  8
DATA
  6
CONTINUOUS
 62
     7
 10
736.4
 20
1486.5
 40
0.5
  0
CIRCLE
  8
DATA
  6
CONTINUOUS
 62
     7
 10
734.3
 20
1489.8
 40
0.5
  0
CIRCLE
  8
DATA
  6
CONTINUOUS
 62
     7
 10
738.5
 20
1489.8
 40
0.5
  0
CIRCLE
  8
DATA
  6
CONTINUOUS
 62
     7
 10
734.3
 20
1483.0
 40
0.5
  0
CIRCLE
  8
DATA
  6
CONTINUOUS
 62
     7
 10
738.5
 20
1483.0
 40
0.5
  0
LINE
  8
DATA
  6
CONTINUOUS
 62
     7
 10
735.284375
 20
1473.6875
 11
735.284375
 21
1475.046244
  0
LINE
  8
DATA
  6
CONTINUOUS
 62
     7
 10
733.315625
 20
1473.6875
 11
733.315625
 21
1475.046244
  0
LINE
  8
DATA
  6
CONTINUOUS
 62
     7
 10
733.315625
 20
1473.6875
 11
735.284375
 21
1473.6875
  0
CIRCLE
  8
DATA
  6
CONTINUOUS
 62
     7
 10
732.2
 20
1486.5
 40
0.5
  0
CIRCLE
  8
DATA
  6
CONTINUOUS
 62
     7
 10
728.0
 20
1486.5
 40
0.5
  0
CIRCLE
  8
DATA
  6
CONTINUOUS
 62
     7
 10
730.1
 20
1489.8
 40
0.5
  0
CIRCLE
  8
DATA
  6
CONTINUOUS
 62
     7
 10
730.1
 20
1483.0
 40
0.5
  0
LINE
  8
DATA
  6
CONTINUOUS
 62
     7
 10
722.488206
 20
1484.515446
 11
723.846175
 21
1484.516358
  0
LINE
  8
DATA
  6
CONTINUOUS
 62
     7
 10
722.487416
 20
1486.485107
 11
723.846273
 21
1486.484682
  0
LINE
  8
DATA
  6
CONTINUOUS
 62
     7
 10
722.487416
 20
1486.485107
 11
722.488206
 21
1484.515446
  0
LINE
  8
DATA
  6
CONTINUOUS
 62
     7
 10
741.3
 20
1459.5
 11
741.3
 21
1456.5
  0
LINE
  8
DATA
  6
CONTINUOUS
 62
     7
 10
744.652379
 20
1487.254494
 11
745.9655
 21
1487.606563
  0
LINE
  8
DATA
  6
CONTINUOUS
 62
     7
 10
744.142744
 20
1489.156555
 11
745.454938
 21
1489.508375
  0
LINE
  8
DATA
  6
CONTINUOUS
 62
     7
 10
745.9655
 20
1487.606563
 11
745.454938
 21
1489.508375
  0
CIRCLE
  8
DATA
  6
CONTINUOUS
 62
     7
 10
747.3
 20
1472.5
 40
1.5
  0
TEXT
  8
DATA
  6
CONTINUOUS
 62
     7
 10
793.436705
 20
1470.0
 40
5.0
  1
CONSOLE
 50
180.0
  7
TTF_DEFAULT
  0
CIRCLE
  8
DATA
  6
CONTINUOUS
 62
     7
 10
790.6
 20
1486.5
 40
0.5
  0
CIRCLE
  8
DATA
  6
CONTINUOUS
 62
     7
 10
786.4
 20
1486.5
 40
0.5
  0
CIRCLE
  8
DATA
  6
CONTINUOUS
 62
     7
 10
782.2
 20
1486.5
 40
0.5
  0
CIRCLE
  8
DATA
  6
CONTINUOUS
 62
     7
 10
778.0
 20
1486.5
 40
0.5
  0
CIRCLE
  8
DATA
  6
CONTINUOUS
 62
     7
 10
780.1
 20
1489.8
 40
0.5
  0
CIRCLE
  8
DATA
  6
CONTINUOUS
 62
     7
 10
784.3
 20
1489.8
 40
0.5
  0
CIRCLE
  8
DATA
  6
CONTINUOUS
 62
     7
 10
788.5
 20
1489.8
 40
0.5
  0
CIRCLE
  8
DATA
  6
CONTINUOUS
 62
     7
 10
780.1
 20
1483.0
 40
0.5
  0
CIRCLE
  8
DATA
  6
CONTINUOUS
 62
     7
 10
784.3
 20
1483.0
 40
0.5
  0
CIRCLE
  8
DATA
  6
CONTINUOUS
 62
     7
 10
788.5
 20
1483.0
 40
0.5
  0
LINE
  8
DATA
  6
CONTINUOUS
 62
     7
 10
772.488206
 20
1484.515446
 11
773.846175
 21
1484.516358
  0
LINE
  8
DATA
  6
CONTINUOUS
 62
     7
 10
772.487416
 20
1486.485107
 11
773.846273
 21
1486.484682
  0
LINE
  8
DATA
  6
CONTINUOUS
 62
     7
 10
772.487416
 20
1486.485107
 11
772.488206
 21
1484.515446
  0
LINE
  8
DATA
  6
CONTINUOUS
 62
     7
 10
785.284375
 20
1473.6875
 11
785.284375
 21
1475.046244
  0
LINE
  8
DATA
  6
CONTINUOUS
 62
     7
 10
783.315625
 20
1473.6875
 11
783.315625
 21
1475.046244
  0
LINE
  8
DATA
  6
CONTINUOUS
 62
     7
 10
794.652379
 20
1487.254494
 11
795.9655
 21
1487.606563
  0
LINE
  8
DATA
  6
CONTINUOUS
 62
     7
 10
794.142744
 20
1489.156555
 11
795.454938
 21
1489.508375
  0
LINE
  8
DATA
  6
CONTINUOUS
 62
     7
 10
783.315625
 20
1473.6875
 11
785.284375
 21
1473.6875
  0
LINE
  8
DATA
  6
CONTINUOUS
 62
     7
 10
795.9655
 20
1487.606563
 11
795.454938
 21
1489.508375
  0
CIRCLE
  8
DATA
  6
CONTINUOUS
 62
     7
 10
797.3
 20
1472.5
 40
1.5
  0
CIRCLE
  8
DATA
  6
CONTINUOUS
 62
     7
 10
771.3
 20
1472.5
 40
1.5
  0
LINE
  8
DATA
  6
CONTINUOUS
 62
     7
 10
976.3
 20
1452.45
 11
971.3
 21
1452.45
  0
ARC
  8
DATA
  6
CONTINUOUS
 62
     7
 10
976.3
 20
1455.95
 40
3.5
 50
270.0
 51
90.0
  0
ARC
  8
DATA
  6
CONTINUOUS
 62
     7
 10
971.3
 20
1455.95
 40
3.5
 50
90.0
 51
270.0
  0
LINE
  8
DATA
  6
CONTINUOUS
 62
     7
 10
976.3
 20
1459.45
 11
971.3
 21
1459.45
  0
CIRCLE
  8
DATA
  6
CONTINUOUS
 62
     7
 10
931.58
 20
1458.0
 40
3.75
  0
CIRCLE
  8
DATA
  6
CONTINUOUS
 62
     7
 10
931.58
 20
1458.0
 40
4.5
  0
LINE
  8
DATA
  6
CONTINUOUS
 62
     7
 10
933.08
 20
1458.0
 11
930.08
 21
1458.0
  0
LINE
  8
DATA
  6
CONTINUOUS
 62
     7
 10
931.58
 20
1459.5
 11
931.58
 21
1456.5
  0
CIRCLE
  8
DATA
  6
CONTINUOUS
 62
     7
 10
896.3
 20
1465.0
 40
1.5
  0
CIRCLE
  8
DATA
  6
CONTINUOUS
 62
     7
 10
901.3
 20
1465.0
 40
1.5
  0
CIRCLE
  8
DATA
  6
CONTINUOUS
 62
     7
 10
906.3
 20
1465.0
 40
1.5
  0
CIRCLE
  8
DATA
  6
CONTINUOUS
 62
     7
 10
916.3
 20
1465.0
 40
1.5
  0
CIRCLE
  8
DATA
  6
CONTINUOUS
 62
     7
 10
921.3
 20
1465.0
 40
1.5
  0
CIRCLE
  8
DATA
  6
CONTINUOUS
 62
     7
 10
926.3
 20
1465.0
 40
1.5
  0
CIRCLE
  8
DATA
  6
CONTINUOUS
 62
     7
 10
931.3
 20
1465.0
 40
1.5
  0
CIRCLE
  8
DATA
  6
CONTINUOUS
 62
     7
 10
936.3
 20
1465.0
 40
1.5
  0
CIRCLE
  8
DATA
  6
CONTINUOUS
 62
     7
 10
941.3
 20
1465.0
 40
1.5
  0
CIRCLE
  8
DATA
  6
CONTINUOUS
 62
     7
 10
946.3
 20
1465.0
 40
1.5
  0
CIRCLE
  8
DATA
  6
CONTINUOUS
 62
     7
 10
911.3
 20
1465.0
 40
1.5
  0
CIRCLE
  8
DATA
  6
CONTINUOUS
 62
     7
 10
886.3
 20
1465.0
 40
1.5
  0
CIRCLE
  8
DATA
  6
CONTINUOUS
 62
     7
 10
881.3
 20
1465.0
 40
1.5
  0
CIRCLE
  8
DATA
  6
CONTINUOUS
 62
     7
 10
891.3
 20
1465.0
 40
1.5
  0
CIRCLE
  8
DATA
  6
CONTINUOUS
 62
     7
 10
893.8
 20
1489.0
 40
1.5
  0
CIRCLE
  8
DATA
  6
CONTINUOUS
 62
     7
 10
898.8
 20
1489.0
 40
1.5
  0
CIRCLE
  8
DATA
  6
CONTINUOUS
 62
     7
 10
903.8
 20
1489.0
 40
1.5
  0
CIRCLE
  8
DATA
  6
CONTINUOUS
 62
     7
 10
908.8
 20
1489.0
 40
1.5
  0
CIRCLE
  8
DATA
  6
CONTINUOUS
 62
     7
 10
896.3
 20
1481.0
 40
1.5
  0
CIRCLE
  8
DATA
  6
CONTINUOUS
 62
     7
 10
901.3
 20
1481.0
 40
1.5
  0
CIRCLE
  8
DATA
  6
CONTINUOUS
 62
     7
 10
906.3
 20
1481.0
 40
1.5
  0
CIRCLE
  8
DATA
  6
CONTINUOUS
 62
     7
 10
893.8
 20
1473.0
 40
1.5
  0
CIRCLE
  8
DATA
  6
CONTINUOUS
 62
     7
 10
898.8
 20
1473.0
 40
1.5
  0
CIRCLE
  8
DATA
  6
CONTINUOUS
 62
     7
 10
903.8
 20
1473.0
 40
1.5
  0
CIRCLE
  8
DATA
  6
CONTINUOUS
 62
     7
 10
908.8
 20
1473.0
 40
1.5
  0
CIRCLE
  8
DATA
  6
CONTINUOUS
 62
     7
 10
913.8
 20
1489.0
 40
1.5
  0
CIRCLE
  8
DATA
  6
CONTINUOUS
 62
     7
 10
918.8
 20
1489.0
 40
1.5
  0
CIRCLE
  8
DATA
  6
CONTINUOUS
 62
     7
 10
923.8
 20
1489.0
 40
1.5
  0
CIRCLE
  8
DATA
  6
CONTINUOUS
 62
     7
 10
928.8
 20
1489.0
 40
1.5
  0
CIRCLE
  8
DATA
  6
CONTINUOUS
 62
     7
 10
933.8
 20
1489.0
 40
1.5
  0
CIRCLE
  8
DATA
  6
CONTINUOUS
 62
     7
 10
938.8
 20
1489.0
 40
1.5
  0
CIRCLE
  8
DATA
  6
CONTINUOUS
 62
     7
 10
943.8
 20
1489.0
 40
1.5
  0
CIRCLE
  8
DATA
  6
CONTINUOUS
 62
     7
 10
948.8
 20
1489.0
 40
1.5
  0
CIRCLE
  8
DATA
  6
CONTINUOUS
 62
     7
 10
916.3
 20
1481.0
 40
1.5
  0
CIRCLE
  8
DATA
  6
CONTINUOUS
 62
     7
 10
921.3
 20
1481.0
 40
1.5
  0
CIRCLE
  8
DATA
  6
CONTINUOUS
 62
     7
 10
926.3
 20
1481.0
 40
1.5
  0
CIRCLE
  8
DATA
  6
CONTINUOUS
 62
     7
 10
931.3
 20
1481.0
 40
1.5
  0
CIRCLE
  8
DATA
  6
CONTINUOUS
 62
     7
 10
936.3
 20
1481.0
 40
1.5
  0
CIRCLE
  8
DATA
  6
CONTINUOUS
 62
     7
 10
941.3
 20
1481.0
 40
1.5
  0
CIRCLE
  8
DATA
  6
CONTINUOUS
 62
     7
 10
946.3
 20
1481.0
 40
1.5
  0
CIRCLE
  8
DATA
  6
CONTINUOUS
 62
     7
 10
913.8
 20
1473.0
 40
1.5
  0
CIRCLE
  8
DATA
  6
CONTINUOUS
 62
     7
 10
918.8
 20
1473.0
 40
1.5
  0
CIRCLE
  8
DATA
  6
CONTINUOUS
 62
     7
 10
923.8
 20
1473.0
 40
1.5
  0
CIRCLE
  8
DATA
  6
CONTINUOUS
 62
     7
 10
928.8
 20
1473.0
 40
1.5
  0
CIRCLE
  8
DATA
  6
CONTINUOUS
 62
     7
 10
933.8
 20
1473.0
 40
1.5
  0
CIRCLE
  8
DATA
  6
CONTINUOUS
 62
     7
 10
938.8
 20
1473.0
 40
1.5
  0
CIRCLE
  8
DATA
  6
CONTINUOUS
 62
     7
 10
943.8
 20
1473.0
 40
1.5
  0
CIRCLE
  8
DATA
  6
CONTINUOUS
 62
     7
 10
948.8
 20
1473.0
 40
1.5
  0
CIRCLE
  8
DATA
  6
CONTINUOUS
 62
     7
 10
911.3
 20
1481.0
 40
1.5
  0
CIRCLE
  8
DATA
  6
CONTINUOUS
 62
     7
 10
878.8
 20
1489.0
 40
1.5
  0
CIRCLE
  8
DATA
  6
CONTINUOUS
 62
     7
 10
878.8
 20
1473.0
 40
1.5
  0
CIRCLE
  8
DATA
  6
CONTINUOUS
 62
     7
 10
888.8
 20
1489.0
 40
1.5
  0
CIRCLE
  8
DATA
  6
CONTINUOUS
 62
     7
 10
883.8
 20
1489.0
 40
1.5
  0
CIRCLE
  8
DATA
  6
CONTINUOUS
 62
     7
 10
886.3
 20
1481.0
 40
1.5
  0
CIRCLE
  8
DATA
  6
CONTINUOUS
 62
     7
 10
888.8
 20
1473.0
 40
1.5
  0
CIRCLE
  8
DATA
  6
CONTINUOUS
 62
     7
 10
883.8
 20
1473.0
 40
1.5
  0
CIRCLE
  8
DATA
  6
CONTINUOUS
 62
     7
 10
881.3
 20
1481.0
 40
1.5
  0
CIRCLE
  8
DATA
  6
CONTINUOUS
 62
     7
 10
891.3
 20
1481.0
 40
1.5
  0
LINE
  8
DATA
  6
CONTINUOUS
 62
     7
 10
951.6
 20
1549.1
 11
951.6
 21
1538.1
  0
LINE
  8
DATA
  6
CONTINUOUS
 62
     7
 10
933.6
 20
1538.1
 11
933.6
 21
1549.1
  0
LINE
  8
DATA
  6
CONTINUOUS
 62
     7
 10
740.268364
 20
1495.740604
 11
741.88102
 21
1494.61138
  0
LINE
  8
DATA
  6
CONTINUOUS
 62
     7
 10
740.268364
 20
1495.740604
 11
739.489314
 21
1494.628035
  0
LINE
  8
DATA
  6
CONTINUOUS
 62
     7
 10
728.331636
 20
1495.740604
 11
729.110686
 21
1494.628035
  0
LINE
  8
DATA
  6
CONTINUOUS
 62
     7
 10
726.71898
 20
1494.61138
 11
727.497969
 21
1493.498898
  0
LINE
  8
DATA
  6
CONTINUOUS
 62
     7
 10
728.331636
 20
1495.740604
 11
726.71898
 21
1494.61138
  0
LINE
  8
DATA
  6
CONTINUOUS
 62
     7
 10
741.88102
 20
1494.61138
 11
741.102031
 21
1493.498898
  0
CIRCLE
  8
DATA
  6
CONTINUOUS
 62
     7
 10
747.3
 20
1498.5
 40
1.5
  0
LINE
  8
DATA
  6
CONTINUOUS
 62
     7
 10
790.268364
 20
1495.740604
 11
789.489314
 21
1494.628035
  0
LINE
  8
DATA
  6
CONTINUOUS
 62
     7
 10
791.88102
 20
1494.61138
 11
791.102031
 21
1493.498898
  0
LINE
  8
DATA
  6
CONTINUOUS
 62
     7
 10
790.268364
 20
1495.740604
 11
791.88102
 21
1494.61138
  0
LINE
  8
DATA
  6
CONTINUOUS
 62
     7
 10
778.331636
 20
1495.740604
 11
779.110686
 21
1494.628035
  0
LINE
  8
DATA
  6
CONTINUOUS
 62
     7
 10
776.71898
 20
1494.61138
 11
777.497969
 21
1493.498898
  0
LINE
  8
DATA
  6
CONTINUOUS
 62
     7
 10
778.331636
 20
1495.740604
 11
776.71898
 21
1494.61138
  0
CIRCLE
  8
DATA
  6
CONTINUOUS
 62
     7
 10
797.3
 20
1498.5
 40
1.5
  0
CIRCLE
  8
DATA
  6
CONTINUOUS
 62
     7
 10
771.3
 20
1498.5
 40
1.5
  0
CIRCLE
  8
DATA
  6
CONTINUOUS
 62
     7
 10
893.8
 20
1505.0
 40
1.5
  0
CIRCLE
  8
DATA
  6
CONTINUOUS
 62
     7
 10
898.8
 20
1505.0
 40
1.5
  0
CIRCLE
  8
DATA
  6
CONTINUOUS
 62
     7
 10
903.8
 20
1505.0
 40
1.5
  0
CIRCLE
  8
DATA
  6
CONTINUOUS
 62
     7
 10
908.8
 20
1505.0
 40
1.5
  0
CIRCLE
  8
DATA
  6
CONTINUOUS
 62
     7
 10
913.8
 20
1505.0
 40
1.5
  0
CIRCLE
  8
DATA
  6
CONTINUOUS
 62
     7
 10
918.8
 20
1505.0
 40
1.5
  0
CIRCLE
  8
DATA
  6
CONTINUOUS
 62
     7
 10
923.8
 20
1505.0
 40
1.5
  0
CIRCLE
  8
DATA
  6
CONTINUOUS
 62
     7
 10
928.8
 20
1505.0
 40
1.5
  0
CIRCLE
  8
DATA
  6
CONTINUOUS
 62
     7
 10
933.8
 20
1505.0
 40
1.5
  0
CIRCLE
  8
DATA
  6
CONTINUOUS
 62
     7
 10
938.8
 20
1505.0
 40
1.5
  0
CIRCLE
  8
DATA
  6
CONTINUOUS
 62
     7
 10
943.8
 20
1505.0
 40
1.5
  0
CIRCLE
  8
DATA
  6
CONTINUOUS
 62
     7
 10
948.8
 20
1505.0
 40
1.5
  0
CIRCLE
  8
DATA
  6
CONTINUOUS
 62
     7
 10
878.8
 20
1505.0
 40
1.5
  0
CIRCLE
  8
DATA
  6
CONTINUOUS
 62
     7
 10
888.8
 20
1505.0
 40
1.5
  0
CIRCLE
  8
DATA
  6
CONTINUOUS
 62
     7
 10
883.8
 20
1505.0
 40
1.5
  0
CIRCLE
  8
DATA
  6
CONTINUOUS
 62
     7
 10
896.3
 20
1497.0
 40
1.5
  0
CIRCLE
  8
DATA
  6
CONTINUOUS
 62
     7
 10
901.3
 20
1497.0
 40
1.5
  0
CIRCLE
  8
DATA
  6
CONTINUOUS
 62
     7
 10
906.3
 20
1497.0
 40
1.5
  0
CIRCLE
  8
DATA
  6
CONTINUOUS
 62
     7
 10
916.3
 20
1497.0
 40
1.5
  0
CIRCLE
  8
DATA
  6
CONTINUOUS
 62
     7
 10
921.3
 20
1497.0
 40
1.5
  0
CIRCLE
  8
DATA
  6
CONTINUOUS
 62
     7
 10
926.3
 20
1497.0
 40
1.5
  0
CIRCLE
  8
DATA
  6
CONTINUOUS
 62
     7
 10
931.3
 20
1497.0
 40
1.5
  0
CIRCLE
  8
DATA
  6
CONTINUOUS
 62
     7
 10
936.3
 20
1497.0
 40
1.5
  0
CIRCLE
  8
DATA
  6
CONTINUOUS
 62
     7
 10
941.3
 20
1497.0
 40
1.5
  0
CIRCLE
  8
DATA
  6
CONTINUOUS
 62
     7
 10
946.3
 20
1497.0
 40
1.5
  0
CIRCLE
  8
DATA
  6
CONTINUOUS
 62
     7
 10
911.3
 20
1497.0
 40
1.5
  0
CIRCLE
  8
DATA
  6
CONTINUOUS
 62
     7
 10
886.3
 20
1497.0
 40
1.5
  0
CIRCLE
  8
DATA
  6
CONTINUOUS
 62
     7
 10
881.3
 20
1497.0
 40
1.5
  0
CIRCLE
  8
DATA
  6
CONTINUOUS
 62
     7
 10
891.3
 20
1497.0
 40
1.5
  0
ARC
  8
DATA
  6
CONTINUOUS
 62
     7
 10
976.3
 20
1532.15
 40
3.5
 50
270.0
 51
90.0
  0
ARC
  8
DATA
  6
CONTINUOUS
 62
     7
 10
971.3
 20
1532.15
 40
3.5
 50
90.0
 51
270.0
  0
LINE
  8
DATA
  6
CONTINUOUS
 62
     7
 10
976.3
 20
1535.65
 11
971.3
 21
1535.65
  0
LINE
  8
DATA
  6
CONTINUOUS
 62
     7
 10
976.3
 20
1528.65
 11
971.3
 21
1528.65
  0
CIRCLE
  8
DATA
  6
CONTINUOUS
 62
     7
 10
896.3
 20
1529.0
 40
1.5
  0
CIRCLE
  8
DATA
  6
CONTINUOUS
 62
     7
 10
901.3
 20
1529.0
 40
1.5
  0
CIRCLE
  8
DATA
  6
CONTINUOUS
 62
     7
 10
906.3
 20
1529.0
 40
1.5
  0
CIRCLE
  8
DATA
  6
CONTINUOUS
 62
     7
 10
893.8
 20
1521.0
 40
1.5
  0
CIRCLE
  8
DATA
  6
CONTINUOUS
 62
     7
 10
898.8
 20
1521.0
 40
1.5
  0
CIRCLE
  8
DATA
  6
CONTINUOUS
 62
     7
 10
903.8
 20
1521.0
 40
1.5
  0
CIRCLE
  8
DATA
  6
CONTINUOUS
 62
     7
 10
908.8
 20
1521.0
 40
1.5
  0
CIRCLE
  8
DATA
  6
CONTINUOUS
 62
     7
 10
896.3
 20
1513.0
 40
1.5
  0
CIRCLE
  8
DATA
  6
CONTINUOUS
 62
     7
 10
901.3
 20
1513.0
 40
1.5
  0
CIRCLE
  8
DATA
  6
CONTINUOUS
 62
     7
 10
906.3
 20
1513.0
 40
1.5
  0
CIRCLE
  8
DATA
  6
CONTINUOUS
 62
     7
 10
916.3
 20
1529.0
 40
1.5
  0
CIRCLE
  8
DATA
  6
CONTINUOUS
 62
     7
 10
921.3
 20
1529.0
 40
1.5
  0
CIRCLE
  8
DATA
  6
CONTINUOUS
 62
     7
 10
926.3
 20
1529.0
 40
1.5
  0
CIRCLE
  8
DATA
  6
CONTINUOUS
 62
     7
 10
931.3
 20
1529.0
 40
1.5
  0
CIRCLE
  8
DATA
  6
CONTINUOUS
 62
     7
 10
936.3
 20
1529.0
 40
1.5
  0
CIRCLE
  8
DATA
  6
CONTINUOUS
 62
     7
 10
941.3
 20
1529.0
 40
1.5
  0
CIRCLE
  8
DATA
  6
CONTINUOUS
 62
     7
 10
946.3
 20
1529.0
 40
1.5
  0
CIRCLE
  8
DATA
  6
CONTINUOUS
 62
     7
 10
913.8
 20
1521.0
 40
1.5
  0
CIRCLE
  8
DATA
  6
CONTINUOUS
 62
     7
 10
918.8
 20
1521.0
 40
1.5
  0
CIRCLE
  8
DATA
  6
CONTINUOUS
 62
     7
 10
923.8
 20
1521.0
 40
1.5
  0
CIRCLE
  8
DATA
  6
CONTINUOUS
 62
     7
 10
928.8
 20
1521.0
 40
1.5
  0
CIRCLE
  8
DATA
  6
CONTINUOUS
 62
     7
 10
933.8
 20
1521.0
 40
1.5
  0
CIRCLE
  8
DATA
  6
CONTINUOUS
 62
     7
 10
938.8
 20
1521.0
 40
1.5
  0
CIRCLE
  8
DATA
  6
CONTINUOUS
 62
     7
 10
943.8
 20
1521.0
 40
1.5
  0
CIRCLE
  8
DATA
  6
CONTINUOUS
 62
     7
 10
948.8
 20
1521.0
 40
1.5
  0
CIRCLE
  8
DATA
  6
CONTINUOUS
 62
     7
 10
916.3
 20
1513.0
 40
1.5
  0
CIRCLE
  8
DATA
  6
CONTINUOUS
 62
     7
 10
921.3
 20
1513.0
 40
1.5
  0
CIRCLE
  8
DATA
  6
CONTINUOUS
 62
     7
 10
926.3
 20
1513.0
 40
1.5
  0
CIRCLE
  8
DATA
  6
CONTINUOUS
 62
     7
 10
931.3
 20
1513.0
 40
1.5
  0
CIRCLE
  8
DATA
  6
CONTINUOUS
 62
     7
 10
936.3
 20
1513.0
 40
1.5
  0
CIRCLE
  8
DATA
  6
CONTINUOUS
 62
     7
 10
941.3
 20
1513.0
 40
1.5
  0
CIRCLE
  8
DATA
  6
CONTINUOUS
 62
     7
 10
946.3
 20
1513.0
 40
1.5
  0
CIRCLE
  8
DATA
  6
CONTINUOUS
 62
     7
 10
911.3
 20
1529.0
 40
1.5
  0
CIRCLE
  8
DATA
  6
CONTINUOUS
 62
     7
 10
911.3
 20
1513.0
 40
1.5
  0
CIRCLE
  8
DATA
  6
CONTINUOUS
 62
     7
 10
878.8
 20
1521.0
 40
1.5
  0
CIRCLE
  8
DATA
  6
CONTINUOUS
 62
     7
 10
886.3
 20
1529.0
 40
1.5
  0
CIRCLE
  8
DATA
  6
CONTINUOUS
 62
     7
 10
888.8
 20
1521.0
 40
1.5
  0
CIRCLE
  8
DATA
  6
CONTINUOUS
 62
     7
 10
883.8
 20
1521.0
 40
1.5
  0
CIRCLE
  8
DATA
  6
CONTINUOUS
 62
     7
 10
886.3
 20
1513.0
 40
1.5
  0
CIRCLE
  8
DATA
  6
CONTINUOUS
 62
     7
 10
881.3
 20
1529.0
 40
1.5
  0
CIRCLE
  8
DATA
  6
CONTINUOUS
 62
     7
 10
881.3
 20
1513.0
 40
1.5
  0
CIRCLE
  8
DATA
  6
CONTINUOUS
 62
     7
 10
891.3
 20
1529.0
 40
1.5
  0
CIRCLE
  8
DATA
  6
CONTINUOUS
 62
     7
 10
891.3
 20
1513.0
 40
1.5
  0
LINE
  8
DATA
  6
CONTINUOUS
 62
     7
 10
933.6
 20
1549.1
 11
951.6
 21
1549.1
  0
TEXT
  8
SPEC
  6
CONTINUOUS
 62
     7
 10
506.25
 20
2618.75
 40
25.0
  1
AC100V 50/60Hz 最大450W
  7
TTF_DEFAULT
  0
TEXT
  8
SPEC
  6
CONTINUOUS
 62
     7
 10
506.25
 20
2543.75
 40
25.0
  1
482.6(W)×88.1(H)×350.5(D)mm
  7
TTF_DEFAULT
  0
TEXT
  8
SPEC
  6
CONTINUOUS
 62
     7
 10
506.25
 20
2581.25
 40
25.0
  1
11kg
  7
TTF_DEFAULT
  0
LINE
  8
SPEC
  6
CONTINUOUS
 62
     7
 10
500.0
 20
2537.5
 11
500.0
 21
2650.0
  0
LINE
  8
DATA
  6
CONTINUOUS
 62
     7
 10
1250.0
 20
1438.101497
 11
1250.0
 21
1327.287197
  0
LINE
  8
DATA
  6
CONTINUOUS
 62
     7
 10
1340.666252
 20
1327.287197
 11
1340.666252
 21
1438.101497
  0
TEXT
  8
DATA
  6
CONTINUOUS
 62
     7
 10
1350.703259
 20
1407.879416
 40
20.0
  1
LINK
  7
TTF_DEFAULT
  0
LINE
  8
HIBINO-BASE
  6
CONTINUOUS
 62
     7
 10
1000.0
 20
250.0
 11
1900.0
 21
250.0
  0
TEXT
  8
HIBINO-BASE
  6
CONTINUOUS
 62
     7
 10
1487.5
 20
175.0
 40
25.0
  1
N.Sasaki
  7
TTF_DEFAULT
  0
TEXT
  8
HIBINO-BASE
  6
CONTINUOUS
 62
     7
 10
1480.0
 20
225.0
 40
25.0
  1
DRAWN
  7
TTF_DEFAULT
  0
TEXT
  8
DATA
  6
CONTINUOUS
 62
     7
 10
1500.0
 20
325.0
 40
30.0
  1
Soundcraft
  7
TTF_DEFAULT
  0
TEXT
  8
DATA
  6
CONTINUOUS
 62
     7
 10
1500.0
 20
275.0
 40
30.0
  1
CPS275
  7
TTF_DEFAULT
  0
LINE
  8
0
  6
CONTINUOUS
 62
     7
 10
1000.0
 20
376.5
 11
1900.0
 21
376.5
  0
LINE
  8
0
  6
CONTINUOUS
 62
     7
 10
1000.0
 20
373.5
 11
1900.0
 21
373.5
  0
LINE
  8
0
  6
CONTINUOUS
 62
     7
 10
1000.0
 20
376.5
 11
1000.0
 21
373.5
  0
LINE
  8
0
  6
CONTINUOUS
 62
     7
 10
1900.0
 20
376.5
 11
1900.0
 21
373.5
  0
SOLID
  8
HIBINO-BASE
  6
CONTINUOUS
 62
     7
 10
1000.0
 20
376.5
 11
1900.0
 21
376.5
 12
1000.0
 22
373.5
 13
1900.0
 23
373.5
  0
LINE
  8
DATA
  6
CONTINUOUS
 62
     7
 10
1501.070948
 20
1129.631097
 11
1513.846025
 21
1129.631097
  0
LINE
  8
DATA
  6
CONTINUOUS
 62
     7
 10
1513.846025
 20
1129.631097
 11
1505.793464
 21
1137.683668
  0
LINE
  8
DATA
  6
CONTINUOUS
 62
     7
 10
1502.652939
 20
1132.601661
 11
1513.78027
 21
1129.631097
  0
TEXT
  8
DATA
  6
CONTINUOUS
 62
     7
 10
1175.0
 20
1075.0
 40
20.0
  1
バックアップ用ＣＰＳ２７５オートチェンジシステム
  7
TTF_DEFAULT
  0
LINE
  8
DATA
  6
CONTINUOUS
 62
     7
 10
1102.0
 20
600.0
 11
1102.0
 21
688.1
  0
LINE
  8
DATA
  6
CONTINUOUS
 62
     7
 10
1100.0
 20
688.1
 11
1100.0
 21
600.0
  0
LINE
  8
DATA
  6
CONTINUOUS
 62
     7
 10
1450.5
 20
600.0
 11
1450.5
 21
688.1
  0
LINE
  8
DATA
  6
CONTINUOUS
 62
     7
 10
1448.5
 20
600.0
 11
1448.5
 21
688.1
  0
TEXT
  8
HIBINO-BASE
  6
CONTINUOUS
 62
     7
 10
1230.0
 20
225.0
 40
25.0
  1
DATE
  7
TTF_DEFAULT
  0
TEXT
  8
HIBINO-BASE
  6
CONTINUOUS
 62
     7
 10
1237.5
 20
175.0
 40
25.0
  1
'98.6.
  7
TTF_DEFAULT
  0
LINE
  8
DATA
  6
CONTINUOUS
 62
     7
 10
1100.0
 20
600.0
 11
1450.5
 21
600.0
  0
LINE
  8
0
  6
CONTINUOUS
 62
     7
 10
998.5
 20
150.0
 11
998.5
 21
375.0
  0
LINE
  8
0
  6
CONTINUOUS
 62
     7
 10
1001.5
 20
150.0
 11
1001.5
 21
375.0
  0
LINE
  8
0
  6
CONTINUOUS
 62
     7
 10
998.5
 20
150.0
 11
1001.5
 21
150.0
  0
LINE
  8
0
  6
CONTINUOUS
 62
     7
 10
998.5
 20
375.0
 11
1001.5
 21
375.0
  0
SOLID
  8
HIBINO-BASE
  6
CONTINUOUS
 62
     7
 10
998.5
 20
150.0
 11
998.5
 21
375.0
 12
1001.5
 22
150.0
 13
1001.5
 23
375.0
  0
TEXT
  8
HIBINO-BASE
  6
CONTINUOUS
 62
     7
 10
1005.0
 20
225.0
 40
22.5
  1
図面サイズ
  7
TTF_DEFAULT
  0
LINE
  8
HIBINO-BASE
  6
CONTINUOUS
 62
     7
 10
1225.0
 20
150.0
 11
1225.0
 21
250.0
  0
LINE
  8
HIBINO-BASE
  6
CONTINUOUS
 62
     7
 10
1125.0
 20
150.0
 11
1125.0
 21
250.0
  0
TEXT
  8
HIBINO-BASE
  6
CONTINUOUS
 62
     7
 10
1037.5
 20
162.5
 40
40.0
  1
A4
  7
TTF_DEFAULT
  0
LINE
  8
HIBINO-BASE
  6
CONTINUOUS
 62
     7
 10
1143.75
 20
162.5
 11
1181.25
 21
200.0
  0
TEXT
  8
HIBINO-BASE
  6
CONTINUOUS
 62
     7
 10
1137.5
 20
181.25
 40
30.0
  1
1
  7
TTF_DEFAULT
  0
TEXT
  8
HIBINO-BASE
  6
CONTINUOUS
 62
     7
 10
1130.0
 20
225.0
 40
25.0
  1
SCALE
  7
TTF_DEFAULT
  0
TEXT
  8
HIBINO-BASE
  6
CONTINUOUS
 62
     7
 10
1175.0
 20
162.5
 40
30.0
  1
10
  7
TTF_DEFAULT
  0
TEXT
  8
HIBINO-BASE
  6
CONTINUOUS
 62
     7
 10
1005.0
 20
350.0
 40
25.0
  1
NOTE
  7
TTF_DEFAULT
  0
LINE
  8
DATA
  6
CONTINUOUS
 62
     7
 10
1097.5
 20
629.1
 11
1097.5
 21
659.1
  0
LINE
  8
DATA
  6
CONTINUOUS
 62
     7
 10
1122.0
 20
589.0
 11
1122.0
 21
600.0
  0
LINE
  8
DATA
  6
CONTINUOUS
 62
     7
 10
1140.0
 20
600.0
 11
1140.0
 21
589.0
  0
LINE
  8
DATA
  6
CONTINUOUS
 62
     7
 10
1140.0
 20
589.0
 11
1122.0
 21
589.0
  0
CIRCLE
  8
DATA
  6
CONTINUOUS
 62
     7
 10
1114.0
 20
622.1
 40
3.0
  0
LINE
  8
DATA
  6
CONTINUOUS
 62
     7
 10
1113.0
 20
622.1
 11
1115.0
 21
622.1
  0
LINE
  8
DATA
  6
CONTINUOUS
 62
     7
 10
1114.0
 20
621.1
 11
1114.0
 21
623.1
  0
ARC
  8
DATA
  6
CONTINUOUS
 62
     7
 10
1100.0
 20
620.1
 40
2.5
 50
90.0
 51
270.0
  0
LINE
  8
DATA
  6
CONTINUOUS
 62
     7
 10
1097.5
 20
629.1
 11
1100.0
 21
629.1
  0
ARC
  8
DATA
  6
CONTINUOUS
 62
     7
 10
1101.097664
 20
647.278972
 40
7.711654
 50
117.808829
 51
170.136424
  0
ARC
  8
DATA
  6
CONTINUOUS
 62
     7
 10
1091.762245
 20
643.131633
 40
5.737842
 50
359.684127
 51
72.370619
  0
LINE
  8
DATA
  6
CONTINUOUS
 62
     7
 10
1097.5
 20
659.1
 11
1100.0
 21
659.1
  0
LINE
  8
HIBINO-BASE
  6
CONTINUOUS
 62
     7
 10
1350.0
 20
150.0
 11
1350.0
 21
375.0
  0
LINE
  8
HIBINO-BASE
  6
CONTINUOUS
 62
     7
 10
1475.0
 20
250.0
 11
1475.0
 21
150.0
  0
TEXT
  8
HIBINO-BASE
  6
CONTINUOUS
 62
     7
 10
1355.0
 20
225.0
 40
25.0
  1
DESIGN
  7
TTF_DEFAULT
  0
TEXT
  8
HIBINO-BASE
  6
CONTINUOUS
 62
     7
 10
1355.0
 20
350.0
 40
25.0
  1
TITLE
  7
TTF_DEFAULT
  0
CIRCLE
  8
DATA
  6
CONTINUOUS
 62
     7
 10
1275.5
 20
622.1
 40
3.0
  0
LINE
  8
DATA
  6
CONTINUOUS
 62
     7
 10
1274.5
 20
622.1
 11
1276.5
 21
622.1
  0
LINE
  8
DATA
  6
CONTINUOUS
 62
     7
 10
1275.5
 20
621.1
 11
1275.5
 21
623.1
  0
LINE
  8
DATA
  6
CONTINUOUS
 62
     7
 10
1439.5
 20
589.0
 11
1421.5
 21
589.0
  0
LINE
  8
DATA
  6
CONTINUOUS
 62
     7
 10
1421.5
 20
589.0
 11
1421.5
 21
600.0
  0
LINE
  8
DATA
  6
CONTINUOUS
 62
     7
 10
1459.5
 20
640.1
 11
1459.5
 21
665.1
  0
LINE
  8
DATA
  6
CONTINUOUS
 62
     7
 10
1451.126981
 20
640.1
 11
1452.0
 21
665.1
  0
LINE
  8
DATA
  6
CONTINUOUS
 62
     7
 10
1452.626981
 20
640.1
 11
1453.5
 21
665.1
  0
LINE
  8
DATA
  6
CONTINUOUS
 62
     7
 10
1454.126981
 20
640.1
 11
1455.0
 21
665.1
  0
LINE
  8
DATA
  6
CONTINUOUS
 62
     7
 10
1455.626981
 20
640.1
 11
1456.5
 21
665.1
  0
LINE
  8
DATA
  6
CONTINUOUS
 62
     7
 10
1457.126981
 20
640.1
 11
1458.0
 21
665.1
  0
LINE
  8
DATA
  6
CONTINUOUS
 62
     7
 10
1458.626981
 20
640.1
 11
1459.5
 21
665.1
  0
LINE
  8
DATA
  6
CONTINUOUS
 62
     7
 10
1439.5
 20
600.0
 11
1439.5
 21
589.0
  0
CIRCLE
  8
DATA
  6
CONTINUOUS
 62
     7
 10
1436.0
 20
622.1
 40
3.0
  0
LINE
  8
DATA
  6
CONTINUOUS
 62
     7
 10
1435.0
 20
622.1
 11
1437.0
 21
622.1
  0
LINE
  8
DATA
  6
CONTINUOUS
 62
     7
 10
1436.0
 20
621.1
 11
1436.0
 21
623.1
  0
LINE
  8
DATA
  6
CONTINUOUS
 62
     7
 10
1450.5
 20
640.1
 11
1459.5
 21
640.1
  0
LINE
  8
DATA
  6
CONTINUOUS
 62
     7
 10
1450.5
 20
665.1
 11
1459.5
 21
665.1
  0
TEXT
  8
DATA
  6
CONTINUOUS
 62
     7
 10
1200.0
 20
1300.0
 40
20.0
  1
スペアーＰＳＵ（オプション)
  7
TTF_DEFAULT
  0
LINE
  8
DATA
  6
CONTINUOUS
 62
     7
 10
1100.0
 20
688.1
 11
1450.5
 21
688.1
  0
LINE
  8
DIMENSIONS
  6
CONTINUOUS
 62
     7
 10
1100.0
 20
750.0
 11
1450.5
 21
750.0
  0
TEXT
  8
DIMENSIONS
  6
CONTINUOUS
 62
     7
 10
1246.284772
 20
762.5
 40
25.0
  1
350.5
  7
TTF_DEFAULT
  0
LINE
  8
DIMENSIONS
  6
CONTINUOUS
 62
     7
 10
1100.0
 20
698.1
 11
1100.0
 21
762.5
  0
LINE
  8
DATA
  6
CONTINUOUS
 62
     7
 10
1099.4
 20
675.1
 11
1100.0
 21
675.1
  0
ARC
  8
DATA
  6
CONTINUOUS
 62
     7
 10
1100.818421
 20
678.1
 40
3.318421
 50
115.305113
 51
244.694887
  0
LINE
  8
DATA
  6
CONTINUOUS
 62
     7
 10
1099.4
 20
681.1
 11
1100.0
 21
681.1
  0
LINE
  8
DATA
  6
CONTINUOUS
 62
     7
 10
1100.0
 20
684.6
 11
1099.4
 21
684.6
  0
ARC
  8
DATA
  6
CONTINUOUS
 62
     7
 10
1100.374569
 20
680.1
 40
3.874569
 50
104.568047
 51
223.600949
  0
LINE
  8
DATA
  6
CONTINUOUS
 62
     7
 10
1099.4
 20
681.1
 11
1099.4
 21
684.6
  0
LINE
  8
DIMENSIONS
  6
CONTINUOUS
 62
     7
 10
1120.0
 20
746.6668
 11
1100.0
 21
750.0
  0
LINE
  8
DIMENSIONS
  6
CONTINUOUS
 62
     7
 10
1120.0
 20
753.3332
 11
1100.0
 21
750.0
  0
LINE
  8
DIMENSIONS
  6
CONTINUOUS
 62
     7
 10
1450.5
 20
698.1
 11
1450.5
 21
762.5
  0
ARC
  8
DATA
  6
CONTINUOUS
 62
     7
 10
1450.125431
 20
680.1
 40
3.874569
 50
284.568047
 51
75.431953
  0
LINE
  8
DATA
  6
CONTINUOUS
 62
     7
 10
1451.1
 20
675.6
 11
1451.1
 21
684.6
  0
LINE
  8
DATA
  6
CONTINUOUS
 62
     7
 10
1450.5
 20
675.6
 11
1451.1
 21
675.6
  0
LINE
  8
DATA
  6
CONTINUOUS
 62
     7
 10
1450.5
 20
684.6
 11
1451.1
 21
684.6
  0
LINE
  8
DIMENSIONS
  6
CONTINUOUS
 62
     7
 10
1430.5
 20
746.6668
 11
1450.5
 21
750.0
  0
LINE
  8
DIMENSIONS
  6
CONTINUOUS
 62
     7
 10
1430.5
 20
753.3332
 11
1450.5
 21
750.0
  0
LINE
  8
DATA
  6
CONTINUOUS
 62
     7
 10
1260.074034
 20
1237.308238
 11
1260.074034
 21
1183.580095
  0
LINE
  8
DATA
  6
CONTINUOUS
 62
     7
 10
1250.0
 20
1260.81431
 11
1250.0
 21
1150.0
  0
LINE
  8
DATA
  6
CONTINUOUS
 62
     7
 10
1302.04914
 20
1237.308238
 11
1302.04914
 21
1183.580095
  0
LINE
  8
DATA
  6
CONTINUOUS
 62
     7
 10
1340.666252
 20
1150.0
 11
1340.666252
 21
1260.81431
  0
LINE
  8
DATA
  6
CONTINUOUS
 62
     7
 10
1330.172473
 20
1195.490529
 11
1330.172473
 21
1229.151267
  0
LINE
  8
DATA
  6
CONTINUOUS
 62
     7
 10
1318.629315
 20
1221.624402
 11
1318.629315
 21
1187.937901
  0
TEXT
  8
DATA
  6
CONTINUOUS
 62
     7
 10
1300.0
 20
1125.0
 40
20.0
  1
メインＰＳＵ
  7
TTF_DEFAULT
  0
LINE
  8
DATA
  6
CONTINUOUS
 62
     7
 10
1345.703259
 20
1191.702377
 11
1351.305479
 21
1192.474988
  0
LINE
  8
DATA
  6
CONTINUOUS
 62
     7
 10
1250.0
 20
1150.0
 11
1340.666252
 21
1150.0
  0
LINE
  8
DATA
  6
CONTINUOUS
 62
     7
 10
1260.074034
 20
1183.580095
 11
1302.04914
 21
1183.580095
  0
LINE
  8
DATA
  6
CONTINUOUS
 62
     7
 10
1302.04914
 20
1187.937901
 11
1340.666252
 21
1187.937901
  0
LINE
  8
DATA
  6
CONTINUOUS
 62
     7
 10
1345.703259
 20
1186.497371
 11
1340.666252
 21
1186.497371
  0
LINE
  8
DATA
  6
CONTINUOUS
 62
     7
 10
1345.703259
 20
1196.907195
 11
1345.703259
 21
1186.497371
  0
LINE
  8
DATA
  6
CONTINUOUS
 62
     7
 10
1344.884608
 20
1196.907195
 11
1345.703259
 21
1196.907195
  0
LINE
  8
DATA
  6
CONTINUOUS
 62
     7
 10
1340.666252
 20
1196.907195
 11
1344.884608
 21
1196.907195
  0
LINE
  8
DATA
  6
CONTINUOUS
 62
     7
 10
1336.048981
 20
1195.490529
 11
1330.172473
 21
1195.490529
  0
LINE
  8
DATA
  6
CONTINUOUS
 62
     7
 10
1340.666252
 20
1195.490529
 11
1336.048981
 21
1195.490529
  0
CIRCLE
  8
DATA
  6
CONTINUOUS
 62
     7
 10
1318.629315
 20
1187.937901
 40
1.5
  0
POLYLINE
  8
PATTERN_FILL
  6
CONTINUOUS
 62
     7
 66
     1
 70
     1
  0
VERTEX
  8
PATTERN_FILL
 10
1320.129315
 20
1187.937901
 42
1.0
  0
VERTEX
  8
PATTERN_FILL
 10
1317.129315
 20
1187.937901
 42
1.0
  0
SEQEND
  8
PATTERN_FILL
  0
LINE
  8
DATA
  6
CONTINUOUS
 62
     7
 10
1378.484626
 20
1193.762664
 11
1379.77468
 21
1193.613778
  0
LINE
  8
DATA
  6
CONTINUOUS
 62
     7
 10
1365.15504
 20
1193.923631
 11
1366.517523
 21
1193.99893
  0
LINE
  8
DATA
  6
CONTINUOUS
 62
     7
 10
1351.305479
 20
1192.474988
 11
1354.099158
 21
1192.838295
  0
LINE
  8
DATA
  6
CONTINUOUS
 62
     7
 10
1354.099158
 20
1192.838295
 11
1356.883925
 21
1193.174013
  0
LINE
  8
DATA
  6
CONTINUOUS
 62
     7
 10
1356.883925
 20
1193.174013
 11
1359.656816
 21
1193.472944
  0
LINE
  8
DATA
  6
CONTINUOUS
 62
     7
 10
1359.656816
 20
1193.472944
 11
1362.414836
 21
1193.725876
  0
LINE
  8
DATA
  6
CONTINUOUS
 62
     7
 10
1362.414836
 20
1193.725876
 11
1365.15504
 21
1193.923631
  0
LINE
  8
DATA
  6
CONTINUOUS
 62
     7
 10
1366.517523
 20
1193.99893
 11
1367.874436
 21
1194.056989
  0
LINE
  8
DATA
  6
CONTINUOUS
 62
     7
 10
1367.874436
 20
1194.056989
 11
1369.225411
 21
1194.096659
  0
LINE
  8
DATA
  6
CONTINUOUS
 62
     7
 10
1369.225411
 20
1194.096659
 11
1370.570069
 21
1194.116781
  0
LINE
  8
DATA
  6
CONTINUOUS
 62
     7
 10
1370.570069
 20
1194.116781
 11
1371.908039
 21
1194.116207
  0
LINE
  8
DATA
  6
CONTINUOUS
 62
     7
 10
1371.908039
 20
1194.116207
 11
1373.238954
 21
1194.093787
  0
LINE
  8
DATA
  6
CONTINUOUS
 62
     7
 10
1373.238954
 20
1194.093787
 11
1374.562443
 21
1194.048374
  0
LINE
  8
DATA
  6
CONTINUOUS
 62
     7
 10
1374.562443
 20
1194.048374
 11
1375.878127
 21
1193.978818
  0
LINE
  8
DATA
  6
CONTINUOUS
 62
     7
 10
1375.878127
 20
1193.978818
 11
1377.185648
 21
1193.883961
  0
LINE
  8
DATA
  6
CONTINUOUS
 62
     7
 10
1377.185648
 20
1193.883961
 11
1378.484626
 21
1193.762664
  0
LINE
  8
DATA
  6
CONTINUOUS
 62
     7
 10
1477.753105
 20
1139.936346
 11
1480.486551
 21
1139.045453
  0
LINE
  8
DATA
  6
CONTINUOUS
 62
     7
 10
1387.30707
 20
1192.076617
 11
1388.524328
 21
1191.702377
  0
LINE
  8
DATA
  6
CONTINUOUS
 62
     7
 10
1379.77468
 20
1193.613778
 11
1381.055464
 21
1193.436145
  0
LINE
  8
DATA
  6
CONTINUOUS
 62
     7
 10
1384.83836
 20
1192.719306
 11
1386.078284
 21
1192.415207
  0
LINE
  8
DATA
  6
CONTINUOUS
 62
     7
 10
1386.078284
 20
1192.415207
 11
1387.30707
 21
1192.076617
  0
LINE
  8
DATA
  6
CONTINUOUS
 62
     7
 10
1381.055464
 20
1193.436145
 11
1382.973694
 21
1193.122979
  0
LINE
  8
DATA
  6
CONTINUOUS
 62
     7
 10
1382.973694
 20
1193.122979
 11
1384.83836
 21
1192.719306
  0
LINE
  8
DATA
  6
CONTINUOUS
 62
     7
 10
1388.524328
 20
1191.702377
 11
1389.903045
 21
1191.229506
  0
LINE
  8
DATA
  6
CONTINUOUS
 62
     7
 10
1389.903045
 20
1191.229506
 11
1391.266923
 21
1190.710514
  0
LINE
  8
DATA
  6
CONTINUOUS
 62
     7
 10
1391.266923
 20
1190.710514
 11
1392.616687
 21
1190.147473
  0
LINE
  8
DATA
  6
CONTINUOUS
 62
     7
 10
1392.616687
 20
1190.147473
 11
1393.953099
 21
1189.542443
  0
LINE
  8
DATA
  6
CONTINUOUS
 62
     7
 10
1393.953099
 20
1189.542443
 11
1395.276865
 21
1188.897498
  0
LINE
  8
DATA
  6
CONTINUOUS
 62
     7
 10
1395.276865
 20
1188.897498
 11
1396.588724
 21
1188.214708
  0
LINE
  8
DATA
  6
CONTINUOUS
 62
     7
 10
1396.588724
 20
1188.214708
 11
1397.889404
 21
1187.496135
  0
LINE
  8
DATA
  6
CONTINUOUS
 62
     7
 10
1397.889404
 20
1187.496135
 11
1399.179654
 21
1186.743851
  0
LINE
  8
DATA
  6
CONTINUOUS
 62
     7
 10
1399.179654
 20
1186.743851
 11
1400.460191
 21
1185.959917
  0
LINE
  8
DATA
  6
CONTINUOUS
 62
     7
 10
1400.460191
 20
1185.959917
 11
1401.731744
 21
1185.146415
  0
LINE
  8
DATA
  6
CONTINUOUS
 62
     7
 10
1401.731744
 20
1185.146415
 11
1402.995062
 21
1184.305397
  0
LINE
  8
DATA
  6
CONTINUOUS
 62
     7
 10
1402.995062
 20
1184.305397
 11
1404.250862
 21
1183.438944
  0
LINE
  8
DATA
  6
CONTINUOUS
 62
     7
 10
1404.250862
 20
1183.438944
 11
1405.499882
 21
1182.549117
  0
LINE
  8
DATA
  6
CONTINUOUS
 62
     7
 10
1405.499882
 20
1182.549117
 11
1406.742862
 21
1181.637978
  0
LINE
  8
DATA
  6
CONTINUOUS
 62
     7
 10
1411.668918
 20
1177.82175
 11
1414.114695
 21
1175.839573
  0
LINE
  8
DATA
  6
CONTINUOUS
 62
     7
 10
1414.114695
 20
1175.839573
 11
1419.001029
 21
1171.809805
  0
LINE
  8
DATA
  6
CONTINUOUS
 62
     7
 10
1419.001029
 20
1171.809805
 11
1421.453308
 21
1169.795291
  0
LINE
  8
DATA
  6
CONTINUOUS
 62
     7
 10
1421.453308
 20
1169.795291
 11
1423.919464
 21
1167.803093
  0
LINE
  8
DATA
  6
CONTINUOUS
 62
     7
 10
1423.919464
 20
1167.803093
 11
1426.405363
 21
1165.849745
  0
LINE
  8
DATA
  6
CONTINUOUS
 62
     7
 10
1426.405363
 20
1165.849745
 11
1427.657542
 21
1164.892814
  0
LINE
  8
DATA
  6
CONTINUOUS
 62
     7
 10
1427.657542
 20
1164.892814
 11
1428.91685
 21
1163.951789
  0
LINE
  8
DATA
  6
CONTINUOUS
 62
     7
 10
1428.91685
 20
1163.951789
 11
1430.100766
 21
1163.088228
  0
LINE
  8
DATA
  6
CONTINUOUS
 62
     7
 10
1430.100766
 20
1163.088228
 11
1431.29143
 21
1162.240123
  0
LINE
  8
DATA
  6
CONTINUOUS
 62
     7
 10
1431.29143
 20
1162.240123
 11
1432.488761
 21
1161.407237
  0
LINE
  8
DATA
  6
CONTINUOUS
 62
     7
 10
1432.488761
 20
1161.407237
 11
1433.692625
 21
1160.589325
  0
LINE
  8
DATA
  6
CONTINUOUS
 62
     7
 10
1433.692625
 20
1160.589325
 11
1434.90294
 21
1159.786141
  0
LINE
  8
DATA
  6
CONTINUOUS
 62
     7
 10
1434.90294
 20
1159.786141
 11
1436.119582
 21
1158.997438
  0
LINE
  8
DATA
  6
CONTINUOUS
 62
     7
 10
1436.119582
 20
1158.997438
 11
1438.571431
 21
1157.462491
  0
LINE
  8
DATA
  6
CONTINUOUS
 62
     7
 10
1438.571431
 20
1157.462491
 11
1441.04732
 21
1155.982527
  0
LINE
  8
DATA
  6
CONTINUOUS
 62
     7
 10
1441.04732
 20
1155.982527
 11
1443.546387
 21
1154.555576
  0
LINE
  8
DATA
  6
CONTINUOUS
 62
     7
 10
1443.546387
 20
1154.555576
 11
1446.067781
 21
1153.179689
  0
LINE
  8
DATA
  6
CONTINUOUS
 62
     7
 10
1453.757302
 20
1149.338682
 11
1456.3594
 21
1148.147362
  0
LINE
  8
DATA
  6
CONTINUOUS
 62
     7
 10
1456.3594
 20
1148.147362
 11
1458.979528
 21
1146.99728
  0
LINE
  8
DATA
  6
CONTINUOUS
 62
     7
 10
1458.979528
 20
1146.99728
 11
1461.616825
 21
1145.886468
  0
LINE
  8
DATA
  6
CONTINUOUS
 62
     7
 10
1461.616825
 20
1145.886468
 11
1464.270429
 21
1144.812968
  0
LINE
  8
DATA
  6
CONTINUOUS
 62
     7
 10
1464.270429
 20
1144.812968
 11
1466.939488
 21
1143.774809
  0
LINE
  8
DATA
  6
CONTINUOUS
 62
     7
 10
1466.939488
 20
1143.774809
 11
1469.623142
 21
1142.770024
  0
LINE
  8
DATA
  6
CONTINUOUS
 62
     7
 10
1469.623142
 20
1142.770024
 11
1472.320539
 21
1141.796673
  0
LINE
  8
DATA
  6
CONTINUOUS
 62
     7
 10
1472.320539
 20
1141.796673
 11
1475.030807
 21
1140.852756
  0
LINE
  8
DATA
  6
CONTINUOUS
 62
     7
 10
1475.030807
 20
1140.852756
 11
1477.753105
 21
1139.936346
  0
LINE
  8
DATA
  6
CONTINUOUS
 62
     7
 10
1406.742862
 20
1181.637978
 11
1408.667059
 21
1180.191526
  0
LINE
  8
DATA
  6
CONTINUOUS
 62
     7
 10
1408.667059
 20
1180.191526
 11
1411.668918
 21
1177.82175
  0
LINE
  8
DATA
  6
CONTINUOUS
 62
     7
 10
1446.067781
 20
1153.179689
 11
1449.854935
 21
1151.20363
  0
LINE
  8
DATA
  6
CONTINUOUS
 62
     7
 10
1449.854935
 20
1151.20363
 11
1453.757302
 21
1149.338682
  0
LINE
  8
DATA
  6
CONTINUOUS
 62
     7
 10
1480.486551
 20
1139.045453
 11
1483.230304
 21
1138.178128
  0
LINE
  8
DATA
  6
CONTINUOUS
 62
     7
 10
1483.230304
 20
1138.178128
 11
1485.983504
 21
1137.332402
  0
LINE
  8
DATA
  6
CONTINUOUS
 62
     7
 10
1485.983504
 20
1137.332402
 11
1488.745287
 21
1136.506306
  0
LINE
  8
DATA
  6
CONTINUOUS
 62
     7
 10
1488.745287
 20
1136.506306
 11
1491.514804
 21
1135.697891
  0
LINE
  8
DATA
  6
CONTINUOUS
 62
     7
 10
1491.514804
 20
1135.697891
 11
1494.291181
 21
1134.905178
  0
LINE
  8
DATA
  6
CONTINUOUS
 62
     7
 10
1494.291181
 20
1134.905178
 11
1497.073569
 21
1134.126208
  0
LINE
  8
DATA
  6
CONTINUOUS
 62
     7
 10
1497.073569
 20
1134.126208
 11
1502.652939
 21
1132.601661
  0
TEXT
  8
DATA
  6
CONTINUOUS
 62
     7
 10
1387.5
 20
1193.75
 40
20.0
  1
CONSOLE
  7
TTF_DEFAULT
  0
LINE
  8
DATA
  6
CONTINUOUS
 62
     7
 10
1345.703259
 20
1225.351674
 11
1360.484379
 21
1227.054623
  0
LINE
  8
DATA
  6
CONTINUOUS
 62
     7
 10
1345.703259
 20
1402.674499
 11
1351.887483
 21
1401.112856
  0
TEXT
  8
DATA
  6
CONTINUOUS
 62
     7
 10
1343.75
 20
1343.75
 40
20.0
  1
CONSOLE
  7
TTF_DEFAULT
  0
LINE
  8
DATA
  6
CONTINUOUS
 62
     7
 10
1305.617022
 20
1226.580848
 11
1305.617022
 21
1231.694067
  0
LINE
  8
DATA
  6
CONTINUOUS
 62
     7
 10
1309.332672
 20
1229.151267
 11
1305.617022
 21
1231.694067
  0
LINE
  8
DATA
  6
CONTINUOUS
 62
     7
 10
1309.332672
 20
1231.694067
 11
1309.332672
 21
1226.580848
  0
LINE
  8
DATA
  6
CONTINUOUS
 62
     7
 10
1309.61465
 20
1231.694067
 11
1309.61465
 21
1226.580848
  0
SOLID
  8
PATTERN_FILL
  6
CONTINUOUS
 62
     7
 10
1309.332672
 20
1226.583617
 11
1309.332672
 21
1231.696836
 12
1309.61465
 22
1226.583617
 13
1309.61465
 23
1231.696836
  0
SOLID
  8
PATTERN_FILL
  6
CONTINUOUS
 62
     7
 10
1305.617022
 20
1231.696836
 11
1305.617022
 21
1226.583617
 12
1309.332672
 22
1229.154036
 13
1309.332672
 23
1229.154036
  0
LINE
  8
DATA
  6
CONTINUOUS
 62
     7
 10
1345.703259
 20
1220.182395
 11
1345.703259
 21
1230.592219
  0
CIRCLE
  8
DATA
  6
CONTINUOUS
 62
     7
 10
1330.172473
 20
1229.151267
 40
1.5
  0
POLYLINE
  8
PATTERN_FILL
  6
CONTINUOUS
 62
     7
 66
     1
 70
     1
  0
VERTEX
  8
PATTERN_FILL
 10
1331.672473
 20
1229.151267
 42
1.0
  0
VERTEX
  8
PATTERN_FILL
 10
1328.672473
 20
1229.151267
 42
1.0
  0
SEQEND
  8
PATTERN_FILL
  0
LINE
  8
DATA
  6
CONTINUOUS
 62
     7
 10
1302.04914
 20
1229.151267
 11
1330.172473
 21
1229.151267
  0
LINE
  8
DATA
  6
CONTINUOUS
 62
     7
 10
1309.332672
 20
1229.151267
 11
1305.617022
 21
1226.580848
  0
LINE
  8
DATA
  6
CONTINUOUS
 62
     7
 10
1309.61465
 20
1226.580848
 11
1309.332672
 21
1226.580848
  0
LINE
  8
DATA
  6
CONTINUOUS
 62
     7
 10
1345.703259
 20
1220.182395
 11
1340.666252
 21
1220.182395
  0
LINE
  8
DATA
  6
CONTINUOUS
 62
     7
 10
1340.666252
 20
1221.624402
 11
1318.629315
 21
1221.624402
  0
LINE
  8
DATA
  6
CONTINUOUS
 62
     7
 10
1330.172473
 20
1229.151267
 11
1340.666252
 21
1229.151267
  0
LINE
  8
DATA
  6
CONTINUOUS
 62
     7
 10
1344.884608
 20
1230.592219
 11
1345.703259
 21
1230.592219
  0
LINE
  8
DATA
  6
CONTINUOUS
 62
     7
 10
1340.666252
 20
1230.592219
 11
1344.884608
 21
1230.592219
  0
LINE
  8
DATA
  6
CONTINUOUS
 62
     7
 10
1250.0
 20
1260.81431
 11
1340.666252
 21
1260.81431
  0
LINE
  8
DATA
  6
CONTINUOUS
 62
     7
 10
1260.074034
 20
1237.308238
 11
1302.04914
 21
1237.308238
  0
LINE
  8
DATA
  6
CONTINUOUS
 62
     7
 10
1309.332672
 20
1231.694067
 11
1309.61465
 21
1231.694067
  0
LINE
  8
DATA
  6
CONTINUOUS
 62
     7
 10
1250.0
 20
1327.287197
 11
1340.666252
 21
1327.287197
  0
LINE
  8
DATA
  6
CONTINUOUS
 62
     7
 10
1260.074034
 20
1414.595435
 11
1302.04914
 21
1414.595435
  0
LINE
  8
DATA
  6
CONTINUOUS
 62
     7
 10
1260.074034
 20
1360.867283
 11
1302.04914
 21
1360.867283
  0
LINE
  8
DATA
  6
CONTINUOUS
 62
     7
 10
1260.074034
 20
1414.595435
 11
1260.074034
 21
1360.867283
  0
LINE
  8
DATA
  6
CONTINUOUS
 62
     7
 10
1302.04914
 20
1406.438454
 11
1330.172473
 21
1406.438454
  0
LINE
  8
DATA
  6
CONTINUOUS
 62
     7
 10
1302.04914
 20
1365.225099
 11
1340.666252
 21
1365.225099
  0
LINE
  8
DATA
  6
CONTINUOUS
 62
     7
 10
1302.04914
 20
1414.595435
 11
1302.04914
 21
1360.867283
  0
POLYLINE
  8
DATA
  6
CONTINUOUS
 62
     7
 66
     1
 70
     1
  0
VERTEX
  8
DATA
 10
1309.332672
 20
1403.868036
  0
VERTEX
  8
DATA
 10
1309.332672
 20
1408.981254
  0
VERTEX
  8
DATA
 10
1309.61465
 20
1408.981254
  0
VERTEX
  8
DATA
 10
1309.61465
 20
1403.868036
  0
SEQEND
  8
DATA
  0
INSERT
  8
DATA
  2
CPS275-G1
 10
0.0
 20
0.0
  0
LINE
  8
DATA
  6
CONTINUOUS
 62
     7
 10
1330.172473
 20
1406.438454
 11
1340.666252
 21
1406.438454
  0
LINE
  8
DATA
  6
CONTINUOUS
 62
     7
 10
1340.666252
 20
1407.879416
 11
1344.884608
 21
1407.879416
  0
LINE
  8
DATA
  6
CONTINUOUS
 62
     7
 10
1344.884608
 20
1407.879416
 11
1345.703259
 21
1407.879416
  0
LINE
  8
DATA
  6
CONTINUOUS
 62
     7
 10
1345.703259
 20
1397.469582
 11
1340.666252
 21
1397.469582
  0
LINE
  8
DATA
  6
CONTINUOUS
 62
     7
 10
1340.666252
 20
1374.194382
 11
1344.884608
 21
1374.194382
  0
LINE
  8
DATA
  6
CONTINUOUS
 62
     7
 10
1344.884608
 20
1374.194382
 11
1345.703259
 21
1374.194382
  0
LINE
  8
DATA
  6
CONTINUOUS
 62
     7
 10
1345.703259
 20
1374.194382
 11
1345.703259
 21
1363.784558
  0
LINE
  8
DATA
  6
CONTINUOUS
 62
     7
 10
1345.703259
 20
1363.784558
 11
1340.666252
 21
1363.784558
  0
LINE
  8
DATA
  6
CONTINUOUS
 62
     7
 10
1340.666252
 20
1398.911589
 11
1318.629315
 21
1398.911589
  0
LINE
  8
DATA
  6
CONTINUOUS
 62
     7
 10
1340.666252
 20
1372.777727
 11
1336.048981
 21
1372.777727
  0
LINE
  8
DATA
  6
CONTINUOUS
 62
     7
 10
1336.048981
 20
1372.777727
 11
1330.172473
 21
1372.777727
  0
LINE
  8
DATA
  6
CONTINUOUS
 62
     7
 10
1345.703259
 20
1407.879416
 11
1345.703259
 21
1397.469582
  0
LINE
  8
DATA
  6
CONTINUOUS
 62
     7
 10
1330.172473
 20
1372.777727
 11
1330.172473
 21
1406.438454
  0
LINE
  8
DATA
  6
CONTINUOUS
 62
     7
 10
1318.629315
 20
1398.911589
 11
1318.629315
 21
1365.225099
  0
CIRCLE
  8
DATA
  6
CONTINUOUS
 62
     7
 10
1330.172473
 20
1406.438454
 40
1.5
  0
CIRCLE
  8
DATA
  6
CONTINUOUS
 62
     7
 10
1318.629315
 20
1365.225099
 40
1.5
  0
SOLID
  8
PATTERN_FILL
  6
CONTINUOUS
 62
     7
 10
1309.332672
 20
1403.868036
 11
1309.332672
 21
1408.981254
 12
1309.61465
 22
1403.868036
 13
1309.61465
 23
1408.981254
  0
SOLID
  8
PATTERN_FILL
  6
CONTINUOUS
 62
     7
 10
1305.617022
 20
1408.981254
 11
1305.617022
 21
1403.868036
 12
1309.332672
 22
1406.438454
 13
1309.332672
 23
1406.438454
  0
POLYLINE
  8
PATTERN_FILL
  6
CONTINUOUS
 62
     7
 66
     1
 70
     1
  0
VERTEX
  8
PATTERN_FILL
 10
1331.672473
 20
1406.438454
 42
1.0
  0
VERTEX
  8
PATTERN_FILL
 10
1328.672473
 20
1406.438454
 42
1.0
  0
SEQEND
  8
PATTERN_FILL
  0
POLYLINE
  8
PATTERN_FILL
  6
CONTINUOUS
 62
     7
 66
     1
 70
     1
  0
VERTEX
  8
PATTERN_FILL
 10
1320.129315
 20
1365.225099
 42
1.0
  0
VERTEX
  8
PATTERN_FILL
 10
1317.129315
 20
1365.225099
 42
1.0
  0
SEQEND
  8
PATTERN_FILL
  0
LINE
  8
DATA
  6
CONTINUOUS
 62
     7
 10
1444.846492
 20
1266.521638
 11
1444.222715
 21
1265.186364
  0
LINE
  8
DATA
  6
CONTINUOUS
 62
     7
 10
1382.068936
 20
1230.112803
 11
1378.551884
 21
1229.526799
  0
TEXT
  8
DATA
  6
CONTINUOUS
 62
     7
 10
1350.0
 20
1237.5
 40
20.0
  1
LINK
  7
TTF_DEFAULT
  0
LINE
  8
DATA
  6
CONTINUOUS
 62
     7
 10
1367.791066
 20
1227.967854
 11
1364.148204
 21
1227.50128
  0
LINE
  8
DATA
  6
CONTINUOUS
 62
     7
 10
1364.148204
 20
1227.50128
 11
1360.484379
 21
1227.054623
  0
LINE
  8
DATA
  6
CONTINUOUS
 62
     7
 10
1378.551884
 20
1229.526799
 11
1374.9971
 21
1228.976629
  0
LINE
  8
DATA
  6
CONTINUOUS
 62
     7
 10
1374.9971
 20
1228.976629
 11
1371.408759
 21
1228.458303
  0
LINE
  8
DATA
  6
CONTINUOUS
 62
     7
 10
1371.408759
 20
1228.458303
 11
1367.791066
 21
1227.967854
  0
LINE
  8
DATA
  6
CONTINUOUS
 62
     7
 10
1385.544041
 20
1230.738611
 11
1382.068936
 21
1230.112803
  0
LINE
  8
DATA
  6
CONTINUOUS
 62
     7
 10
1388.973015
 20
1231.408212
 11
1385.544041
 21
1230.738611
  0
LINE
  8
DATA
  6
CONTINUOUS
 62
     7
 10
1444.222715
 20
1265.186364
 11
1443.566991
 21
1263.878341
  0
LINE
  8
DATA
  6
CONTINUOUS
 62
     7
 10
1443.566991
 20
1263.878341
 11
1442.879165
 21
1262.598491
  0
LINE
  8
DATA
  6
CONTINUOUS
 62
     7
 10
1442.879165
 20
1262.598491
 11
1442.159044
 21
1261.347768
  0
LINE
  8
DATA
  6
CONTINUOUS
 62
     7
 10
1442.159044
 20
1261.347768
 11
1441.406473
 21
1260.127084
  0
LINE
  8
DATA
  6
CONTINUOUS
 62
     7
 10
1441.406473
 20
1260.127084
 11
1440.61016
 21
1258.920687
  0
LINE
  8
DATA
  6
CONTINUOUS
 62
     7
 10
1440.61016
 20
1258.920687
 11
1439.780823
 21
1257.745643
  0
LINE
  8
DATA
  6
CONTINUOUS
 62
     7
 10
1439.780823
 20
1257.745643
 11
1438.918985
 21
1256.601458
  0
LINE
  8
DATA
  6
CONTINUOUS
 62
     7
 10
1438.918985
 20
1256.601458
 11
1438.025168
 21
1255.487631
  0
LINE
  8
DATA
  6
CONTINUOUS
 62
     7
 10
1438.025168
 20
1255.487631
 11
1437.099897
 21
1254.403649
  0
LINE
  8
DATA
  6
CONTINUOUS
 62
     7
 10
1437.099897
 20
1254.403649
 11
1436.143694
 21
1253.34904
  0
LINE
  8
DATA
  6
CONTINUOUS
 62
     7
 10
1436.143694
 20
1253.34904
 11
1435.157092
 21
1252.323281
  0
LINE
  8
DATA
  6
CONTINUOUS
 62
     7
 10
1432.020085
 20
1249.414222
 11
1430.917109
 21
1248.498941
  0
LINE
  8
DATA
  6
CONTINUOUS
 62
     7
 10
1430.917109
 20
1248.498941
 11
1429.786339
 21
1247.610037
  0
LINE
  8
DATA
  6
CONTINUOUS
 62
     7
 10
1429.786339
 20
1247.610037
 11
1428.628309
 21
1246.747009
  0
LINE
  8
DATA
  6
CONTINUOUS
 62
     7
 10
1428.628309
 20
1246.747009
 11
1427.443552
 21
1245.909354
  0
LINE
  8
DATA
  6
CONTINUOUS
 62
     7
 10
1427.443552
 20
1245.909354
 11
1426.232581
 21
1245.096581
  0
LINE
  8
DATA
  6
CONTINUOUS
 62
     7
 10
1426.232581
 20
1245.096581
 11
1424.995918
 21
1244.308196
  0
LINE
  8
DATA
  6
CONTINUOUS
 62
     7
 10
1424.995918
 20
1244.308196
 11
1423.734098
 21
1243.543697
  0
LINE
  8
DATA
  6
CONTINUOUS
 62
     7
 10
1423.734098
 20
1243.543697
 11
1422.447643
 21
1242.802592
  0
LINE
  8
DATA
  6
CONTINUOUS
 62
     7
 10
1422.447643
 20
1242.802592
 11
1421.137066
 21
1242.084368
  0
LINE
  8
DATA
  6
CONTINUOUS
 62
     7
 10
1421.137066
 20
1242.084368
 11
1419.802901
 21
1241.388542
  0
LINE
  8
DATA
  6
CONTINUOUS
 62
     7
 10
1419.802901
 20
1241.388542
 11
1418.445669
 21
1240.714614
  0
LINE
  8
DATA
  6
CONTINUOUS
 62
     7
 10
1418.445669
 20
1240.714614
 11
1417.065896
 21
1240.062079
  0
LINE
  8
DATA
  6
CONTINUOUS
 62
     7
 10
1417.065896
 20
1240.062079
 11
1415.664112
 21
1239.430446
  0
LINE
  8
DATA
  6
CONTINUOUS
 62
     7
 10
1415.664112
 20
1239.430446
 11
1414.240823
 21
1238.819212
  0
LINE
  8
DATA
  6
CONTINUOUS
 62
     7
 10
1414.240823
 20
1238.819212
 11
1412.79658
 21
1238.227885
  0
LINE
  8
DATA
  6
CONTINUOUS
 62
     7
 10
1412.79658
 20
1238.227885
 11
1411.331877
 21
1237.655962
  0
LINE
  8
DATA
  6
CONTINUOUS
 62
     7
 10
1411.331877
 20
1237.655962
 11
1409.847266
 21
1237.102961
  0
LINE
  8
DATA
  6
CONTINUOUS
 62
     7
 10
1405.279133
 20
1235.552415
 11
1403.720075
 21
1235.070068
  0
LINE
  8
DATA
  6
CONTINUOUS
 62
     7
 10
1403.720075
 20
1235.070068
 11
1402.143726
 21
1234.60414
  0
LINE
  8
DATA
  6
CONTINUOUS
 62
     7
 10
1402.143726
 20
1234.60414
 11
1400.550597
 21
1234.15414
  0
LINE
  8
DATA
  6
CONTINUOUS
 62
     7
 10
1400.550597
 20
1234.15414
 11
1398.941213
 21
1233.719564
  0
LINE
  8
DATA
  6
CONTINUOUS
 62
     7
 10
1398.941213
 20
1233.719564
 11
1397.316107
 21
1233.299922
  0
LINE
  8
DATA
  6
CONTINUOUS
 62
     7
 10
1397.316107
 20
1233.299922
 11
1395.675791
 21
1232.894709
  0
LINE
  8
DATA
  6
CONTINUOUS
 62
     7
 10
1395.675791
 20
1232.894709
 11
1394.020809
 21
1232.503424
  0
LINE
  8
DATA
  6
CONTINUOUS
 62
     7
 10
1394.020809
 20
1232.503424
 11
1392.351663
 21
1232.125585
  0
LINE
  8
DATA
  6
CONTINUOUS
 62
     7
 10
1392.351663
 20
1232.125585
 11
1388.973015
 21
1231.408212
  0
LINE
  8
DATA
  6
CONTINUOUS
 62
     7
 10
1432.020085
 20
1249.414222
 11
1433.636964
 21
1250.831712
  0
LINE
  8
DATA
  6
CONTINUOUS
 62
     7
 10
1433.636964
 20
1250.831712
 11
1435.157092
 21
1252.323281
  0
LINE
  8
DATA
  6
CONTINUOUS
 62
     7
 10
1405.279133
 20
1235.552415
 11
1407.601743
 21
1236.30479
  0
LINE
  8
DATA
  6
CONTINUOUS
 62
     7
 10
1407.601743
 20
1236.30479
 11
1409.847266
 21
1237.102961
  0
LINE
  8
DATA
  6
CONTINUOUS
 62
     7
 10
1364.177577
 20
1397.885678
 11
1367.219491
 21
1397.038301
  0
LINE
  8
DATA
  6
CONTINUOUS
 62
     7
 10
1351.887483
 20
1401.112856
 11
1358.052109
 21
1399.525235
  0
LINE
  8
DATA
  6
CONTINUOUS
 62
     7
 10
1358.052109
 20
1399.525235
 11
1361.120966
 21
1398.713569
  0
LINE
  8
DATA
  6
CONTINUOUS
 62
     7
 10
1361.120966
 20
1398.713569
 11
1364.177577
 21
1397.885678
  0
LINE
  8
DATA
  6
CONTINUOUS
 62
     7
 10
1385.025439
 20
1391.363223
 11
1387.895987
 21
1390.288605
  0
LINE
  8
DATA
  6
CONTINUOUS
 62
     7
 10
1450.046146
 20
1311.192931
 11
1450.346942
 21
1308.610836
  0
LINE
  8
DATA
  6
CONTINUOUS
 62
     7
 10
1367.219491
 20
1397.038301
 11
1370.244278
 21
1396.168207
  0
LINE
  8
DATA
  6
CONTINUOUS
 62
     7
 10
1370.244278
 20
1396.168207
 11
1373.249476
 21
1395.272134
  0
LINE
  8
DATA
  6
CONTINUOUS
 62
     7
 10
1373.249476
 20
1395.272134
 11
1376.232635
 21
1394.346853
  0
LINE
  8
DATA
  6
CONTINUOUS
 62
     7
 10
1376.232635
 20
1394.346853
 11
1379.191322
 21
1393.389101
  0
LINE
  8
DATA
  6
CONTINUOUS
 62
     7
 10
1379.191322
 20
1393.389101
 11
1382.123067
 21
1392.395638
  0
LINE
  8
DATA
  6
CONTINUOUS
 62
     7
 10
1382.123067
 20
1392.395638
 11
1385.025439
 21
1391.363223
  0
LINE
  8
DATA
  6
CONTINUOUS
 62
     7
 10
1450.346942
 20
1308.610836
 11
1450.565876
 21
1306.036558
  0
LINE
  8
DATA
  6
CONTINUOUS
 62
     7
 10
1450.565876
 20
1306.036558
 11
1450.684445
 21
1304.322615
  0
LINE
  8
DATA
  6
CONTINUOUS
 62
     7
 10
1450.684445
 20
1304.322615
 11
1450.775395
 21
1302.61265
  0
LINE
  8
DATA
  6
CONTINUOUS
 62
     7
 10
1450.775395
 20
1302.61265
 11
1450.838561
 21
1300.907578
  0
LINE
  8
DATA
  6
CONTINUOUS
 62
     7
 10
1387.895987
 20
1390.288605
 11
1390.732259
 21
1389.168532
  0
LINE
  8
DATA
  6
CONTINUOUS
 62
     7
 10
1390.732259
 20
1389.168532
 11
1392.136771
 21
1388.590435
  0
LINE
  8
DATA
  6
CONTINUOUS
 62
     7
 10
1392.136771
 20
1388.590435
 11
1393.531805
 21
1387.999764
  0
LINE
  8
DATA
  6
CONTINUOUS
 62
     7
 10
1393.531805
 20
1387.999764
 11
1394.917046
 21
1387.396109
  0
LINE
  8
DATA
  6
CONTINUOUS
 62
     7
 10
1394.917046
 20
1387.396109
 11
1396.292184
 21
1386.77906
  0
LINE
  8
DATA
  6
CONTINUOUS
 62
     7
 10
1396.292184
 20
1386.77906
 11
1397.656912
 21
1386.148206
  0
LINE
  8
DATA
  6
CONTINUOUS
 62
     7
 10
1401.685623
 20
1384.168829
 11
1403.005677
 21
1383.478737
  0
LINE
  8
DATA
  6
CONTINUOUS
 62
     7
 10
1403.005677
 20
1383.478737
 11
1404.313802
 21
1382.772809
  0
LINE
  8
DATA
  6
CONTINUOUS
 62
     7
 10
1404.313802
 20
1382.772809
 11
1405.609672
 21
1382.050657
  0
LINE
  8
DATA
  6
CONTINUOUS
 62
     7
 10
1405.609672
 20
1382.050657
 11
1406.893009
 21
1381.31187
  0
LINE
  8
DATA
  6
CONTINUOUS
 62
     7
 10
1406.893009
 20
1381.31187
 11
1408.163486
 21
1380.556037
  0
LINE
  8
DATA
  6
CONTINUOUS
 62
     7
 10
1408.163486
 20
1380.556037
 11
1409.420803
 21
1379.782749
  0
LINE
  8
DATA
  6
CONTINUOUS
 62
     7
 10
1409.420803
 20
1379.782749
 11
1410.664655
 21
1378.991615
  0
LINE
  8
DATA
  6
CONTINUOUS
 62
     7
 10
1410.664655
 20
1378.991615
 11
1411.894733
 21
1378.182216
  0
LINE
  8
DATA
  6
CONTINUOUS
 62
     7
 10
1411.894733
 20
1378.182216
 11
1413.11074
 21
1377.354151
  0
LINE
  8
DATA
  6
CONTINUOUS
 62
     7
 10
1413.11074
 20
1377.354151
 11
1414.312358
 21
1376.507009
  0
LINE
  8
DATA
  6
CONTINUOUS
 62
     7
 10
1414.312358
 20
1376.507009
 11
1415.499289
 21
1375.640402
  0
LINE
  8
DATA
  6
CONTINUOUS
 62
     7
 10
1415.499289
 20
1375.640402
 11
1416.671226
 21
1374.753898
  0
LINE
  8
DATA
  6
CONTINUOUS
 62
     7
 10
1416.671226
 20
1374.753898
 11
1417.827861
 21
1373.847108
  0
LINE
  8
DATA
  6
CONTINUOUS
 62
     7
 10
1417.827861
 20
1373.847108
 11
1418.968887
 21
1372.919622
  0
LINE
  8
DATA
  6
CONTINUOUS
 62
     7
 10
1418.968887
 20
1372.919622
 11
1420.094006
 21
1371.971029
  0
LINE
  8
DATA
  6
CONTINUOUS
 62
     7
 10
1420.094006
 20
1371.971029
 11
1421.202899
 21
1371.000939
  0
LINE
  8
DATA
  6
CONTINUOUS
 62
     7
 10
1421.202899
 20
1371.000939
 11
1422.295271
 21
1370.008932
  0
LINE
  8
DATA
  6
CONTINUOUS
 62
     7
 10
1425.470164
 20
1366.89737
 11
1426.493369
 21
1365.813644
  0
LINE
  8
DATA
  6
CONTINUOUS
 62
     7
 10
1426.493369
 20
1365.813644
 11
1427.498524
 21
1364.705981
  0
LINE
  8
DATA
  6
CONTINUOUS
 62
     7
 10
1427.498524
 20
1364.705981
 11
1428.48531
 21
1363.573981
  0
LINE
  8
DATA
  6
CONTINUOUS
 62
     7
 10
1428.48531
 20
1363.573981
 11
1429.453431
 21
1362.417212
  0
LINE
  8
DATA
  6
CONTINUOUS
 62
     7
 10
1429.453431
 20
1362.417212
 11
1430.402588
 21
1361.235286
  0
LINE
  8
DATA
  6
CONTINUOUS
 62
     7
 10
1430.402588
 20
1361.235286
 11
1431.332454
 21
1360.027802
  0
LINE
  8
DATA
  6
CONTINUOUS
 62
     7
 10
1431.332454
 20
1360.027802
 11
1432.287416
 21
1358.732701
  0
LINE
  8
DATA
  6
CONTINUOUS
 62
     7
 10
1432.287416
 20
1358.732701
 11
1433.220625
 21
1357.409909
  0
LINE
  8
DATA
  6
CONTINUOUS
 62
     7
 10
1433.220625
 20
1357.409909
 11
1434.131908
 21
1356.06038
  0
LINE
  8
DATA
  6
CONTINUOUS
 62
     7
 10
1434.131908
 20
1356.06038
 11
1435.021098
 21
1354.685026
  0
LINE
  8
DATA
  6
CONTINUOUS
 62
     7
 10
1435.021098
 20
1354.685026
 11
1435.888023
 21
1353.284782
  0
LINE
  8
DATA
  6
CONTINUOUS
 62
     7
 10
1435.888023
 20
1353.284782
 11
1436.732508
 21
1351.860589
  0
LINE
  8
DATA
  6
CONTINUOUS
 62
     7
 10
1436.732508
 20
1351.860589
 11
1437.554369
 21
1350.413362
  0
LINE
  8
DATA
  6
CONTINUOUS
 62
     7
 10
1437.554369
 20
1350.413362
 11
1438.353451
 21
1348.944044
  0
LINE
  8
DATA
  6
CONTINUOUS
 62
     7
 10
1438.353451
 20
1348.944044
 11
1439.12958
 21
1347.453557
  0
LINE
  8
DATA
  6
CONTINUOUS
 62
     7
 10
1439.12958
 20
1347.453557
 11
1439.882572
 21
1345.942845
  0
LINE
  8
DATA
  6
CONTINUOUS
 62
     7
 10
1439.882572
 20
1345.942845
 11
1440.612262
 21
1344.412822
  0
LINE
  8
DATA
  6
CONTINUOUS
 62
     7
 10
1442.65977
 20
1339.716274
 11
1443.294511
 21
1338.118356
  0
LINE
  8
DATA
  6
CONTINUOUS
 62
     7
 10
1443.294511
 20
1338.118356
 11
1443.905088
 21
1336.505803
  0
LINE
  8
DATA
  6
CONTINUOUS
 62
     7
 10
1443.905088
 20
1336.505803
 11
1444.491319
 21
1334.879527
  0
LINE
  8
DATA
  6
CONTINUOUS
 62
     7
 10
1444.491319
 20
1334.879527
 11
1445.053047
 21
1333.240463
  0
LINE
  8
DATA
  6
CONTINUOUS
 62
     7
 10
1445.053047
 20
1333.240463
 11
1445.590079
 21
1331.589552
  0
LINE
  8
DATA
  6
CONTINUOUS
 62
     7
 10
1445.590079
 20
1331.589552
 11
1446.102251
 21
1329.927719
  0
LINE
  8
DATA
  6
CONTINUOUS
 62
     7
 10
1446.102251
 20
1329.927719
 11
1446.589399
 21
1328.255887
  0
LINE
  8
DATA
  6
CONTINUOUS
 62
     7
 10
1446.589399
 20
1328.255887
 11
1447.051347
 21
1326.574998
  0
LINE
  8
DATA
  6
CONTINUOUS
 62
     7
 10
1447.051347
 20
1326.574998
 11
1447.487912
 21
1324.885987
  0
LINE
  8
DATA
  6
CONTINUOUS
 62
     7
 10
1447.487912
 20
1324.885987
 11
1447.898929
 21
1323.189776
  0
LINE
  8
DATA
  6
CONTINUOUS
 62
     7
 10
1447.898929
 20
1323.189776
 11
1448.284215
 21
1321.487289
  0
LINE
  8
DATA
  6
CONTINUOUS
 62
     7
 10
1448.284215
 20
1321.487289
 11
1448.643614
 21
1319.779478
  0
LINE
  8
DATA
  6
CONTINUOUS
 62
     7
 10
1448.643614
 20
1319.779478
 11
1448.976953
 21
1318.067248
  0
LINE
  8
DATA
  6
CONTINUOUS
 62
     7
 10
1448.976953
 20
1318.067248
 11
1449.284036
 21
1316.35155
  0
LINE
  8
DATA
  6
CONTINUOUS
 62
     7
 10
1449.284036
 20
1316.35155
 11
1449.564721
 21
1314.63332
  0
LINE
  8
DATA
  6
CONTINUOUS
 62
     7
 10
1449.564721
 20
1314.63332
 11
1449.818812
 21
1312.913469
  0
LINE
  8
DATA
  6
CONTINUOUS
 62
     7
 10
1449.818812
 20
1312.913469
 11
1450.046146
 21
1311.192931
  0
LINE
  8
DATA
  6
CONTINUOUS
 62
     7
 10
1397.656912
 20
1386.148206
 11
1399.696967
 21
1385.176336
  0
LINE
  8
DATA
  6
CONTINUOUS
 62
     7
 10
1399.696967
 20
1385.176336
 11
1401.685623
 21
1384.168829
  0
LINE
  8
DATA
  6
CONTINUOUS
 62
     7
 10
1422.295271
 20
1370.008932
 11
1423.913437
 21
1368.482838
  0
LINE
  8
DATA
  6
CONTINUOUS
 62
     7
 10
1423.913437
 20
1368.482838
 11
1425.470164
 21
1366.89737
  0
LINE
  8
DATA
  6
CONTINUOUS
 62
     7
 10
1440.612262
 20
1344.412822
 11
1441.670399
 21
1342.092812
  0
LINE
  8
DATA
  6
CONTINUOUS
 62
     7
 10
1441.670399
 20
1342.092812
 11
1442.65977
 21
1339.716274
  0
LINE
  8
DATA
  6
CONTINUOUS
 62
     7
 10
1449.365622
 20
1281.168323
 11
1449.051739
 21
1279.611746
  0
LINE
  8
DATA
  6
CONTINUOUS
 62
     7
 10
1449.051739
 20
1279.611746
 11
1448.707642
 21
1278.073118
  0
LINE
  8
DATA
  6
CONTINUOUS
 62
     7
 10
1447.492343
 20
1273.574172
 11
1447.025676
 21
1272.116617
  0
LINE
  8
DATA
  6
CONTINUOUS
 62
     7
 10
1447.025676
 20
1272.116617
 11
1446.527924
 21
1270.681645
  0
LINE
  8
DATA
  6
CONTINUOUS
 62
     7
 10
1446.527924
 20
1270.681645
 11
1445.998923
 21
1269.270212
  0
LINE
  8
DATA
  6
CONTINUOUS
 62
     7
 10
1445.998923
 20
1269.270212
 11
1445.438507
 21
1267.883228
  0
LINE
  8
DATA
  6
CONTINUOUS
 62
     7
 10
1445.438507
 20
1267.883228
 11
1444.846492
 21
1266.521638
  0
LINE
  8
DATA
  6
CONTINUOUS
 62
     7
 10
1448.14473
 20
1275.788682
 11
1448.707642
 21
1278.073118
  0
LINE
  8
DATA
  6
CONTINUOUS
 62
     7
 10
1447.492343
 20
1273.574172
 11
1448.14473
 21
1275.788682
  0
LINE
  8
DATA
  6
CONTINUOUS
 62
     7
 10
1450.838561
 20
1300.907578
 11
1450.873749
 21
1299.208352
  0
LINE
  8
DATA
  6
CONTINUOUS
 62
     7
 10
1450.873749
 20
1299.208352
 11
1450.880795
 21
1297.515895
  0
LINE
  8
DATA
  6
CONTINUOUS
 62
     7
 10
1450.880795
 20
1297.515895
 11
1450.859535
 21
1295.83113
  0
LINE
  8
DATA
  6
CONTINUOUS
 62
     7
 10
1450.859535
 20
1295.83113
 11
1450.809793
 21
1294.155
  0
LINE
  8
DATA
  6
CONTINUOUS
 62
     7
 10
1450.809793
 20
1294.155
 11
1450.731387
 21
1292.488419
  0
LINE
  8
DATA
  6
CONTINUOUS
 62
     7
 10
1450.731387
 20
1292.488419
 11
1450.62415
 21
1290.832339
  0
LINE
  8
DATA
  6
CONTINUOUS
 62
     7
 10
1450.62415
 20
1290.832339
 11
1450.48791
 21
1289.187685
  0
LINE
  8
DATA
  6
CONTINUOUS
 62
     7
 10
1450.48791
 20
1289.187685
 11
1450.322492
 21
1287.555379
  0
LINE
  8
DATA
  6
CONTINUOUS
 62
     7
 10
1450.322492
 20
1287.555379
 11
1450.127732
 21
1285.936354
  0
LINE
  8
DATA
  6
CONTINUOUS
 62
     7
 10
1450.127732
 20
1285.936354
 11
1449.903444
 21
1284.331555
  0
LINE
  8
DATA
  6
CONTINUOUS
 62
     7
 10
1449.903444
 20
1284.331555
 11
1449.649466
 21
1282.741893
  0
LINE
  8
DATA
  6
CONTINUOUS
 62
     7
 10
1449.649466
 20
1282.741893
 11
1449.365622
 21
1281.168323
  0
TEXT
  8
HIBINO-BASE
  6
CONTINUOUS
 62
     7
 10
1587.30026
 20
85.9132
 40
40.0
  1
ヒビノ株式会社
  7
TTF_DEFAULT
  0
TEXT
  8
HIBINO-BASE
  6
CONTINUOUS
 62
     7
 10
1730.0
 20
225.0
 40
25.0
  1
DRAWING NO.
  7
TTF_DEFAULT
  0
LINE
  8
HIBINO-BASE
  6
CONTINUOUS
 62
     7
 10
1725.0
 20
250.0
 11
1725.0
 21
150.0
  0
LINE
  8
HIBINO-BASE
  6
CONTINUOUS
 62
     7
 10
1600.0
 20
150.0
 11
1600.0
 21
250.0
  0
TEXT
  8
HIBINO-BASE
  6
CONTINUOUS
 62
     7
 10
1605.0
 20
225.0
 40
25.0
  1
CHECK
  7
TTF_DEFAULT
  0
TEXT
  8
DATA
  6
CONTINUOUS
 62
     7
 10
1518.75
 20
1118.75
 40
20.0
  1
TO CONSOLE
  7
TTF_DEFAULT
  0
LINE
  8
DATA
  6
CONTINUOUS
 62
     7
 10
1250.0
 20
1438.101497
 11
1340.666252
 21
1438.101497
  0
LINE
  8
SPEC
  6
CONTINUOUS
 62
     7
 10
1425.0
 20
2537.5
 11
1425.0
 21
2650.0
  0
ENDSEC
  0
EOF
