  0
SECTION
  2
HEADER
  9
$ACADVER
  1
AC1004
  9
$INSBASE
 10
0.0
 20
0.0
  9
$EXTMIN
 10
-66.173333
 20
-68.95
  9
$EXTMAX
 10
2033.826667
 20
2901.05
  9
$LIMMIN
 10
-66.173333
 20
-68.95
  9
$LIMMAX
 10
2033.826667
 20
2901.05
  9
$VIEWCTR
 10
6.0
 20
4.5
  9
$VIEWSIZE
 40
9.0
  9
$SNAPMODE
 70
     0
  9
$SNAPUNIT
 10
25.0
 20
25.0
  9
$SNAPBASE
 10
0.0
 20
0.0
  9
$SNAPANG
 50
0.0
  9
$SNAPSTYLE
 70
     0
  9
$SNAPISOPAIR
 70
     0
  9
$GRIDMODE
 70
     1
  9
$GRIDUNIT
 10
50.0
 20
50.0
  9
$ORTHOMODE
 70
     0
  9
$REGENMODE
 70
     1
  9
$FILLMODE
 70
     1
  9
$QTEXTMODE
 70
     0
  9
$DRAGMODE
 70
     2
  9
$LTSCALE
 40
1.0
  9
$OSMODE
 70
     1
  9
$ATTMODE
 70
     1
  9
$TEXTSIZE
 40
0.2
  9
$TRACEWID
 40
0.05
  9
$TEXTSTYLE
  7
STANDARD
  9
$CLAYER
  8
DATA
  9
$CELTYPE
  6
CONTINUOUS
  9
$CECOLOR
 62
     7
  9
$DIMSCALE
 40
1.0
  9
$DIMASZ
 40
0.18
  9
$DIMEXO
 40
0.0625
  9
$DIMDLI
 40
0.38
  9
$DIMRND
 40
0.0
  9
$DIMDLE
 40
0.0
  9
$DIMEXE
 40
0.18
  9
$DIMTP
 40
0.0
  9
$DIMTM
 40
0.0
  9
$DIMTXT
 40
0.18
  9
$DIMCEN
 40
0.09
  9
$DIMTSZ
 40
0.0
  9
$DIMTOL
 70
     0
  9
$DIMLIM
 70
     0
  9
$DIMTIH
 70
     1
  9
$DIMTOH
 70
     1
  9
$DIMSE1
 70
     0
  9
$DIMSE2
 70
     0
  9
$DIMTAD
 70
     0
  9
$DIMZIN
 70
     0
  9
$DIMBLK
  1

  9
$DIMASO
 70
     1
  9
$DIMSHO
 70
     1
  9
$DIMPOST
  1

  9
$DIMAPOST
  1

  9
$DIMALT
 70
     0
  9
$DIMALTD
 70
     2
  9
$DIMALTF
 40
25.4
  9
$DIMLFAC
 40
1.0
  9
$LUNITS
 70
     2
  9
$LUPREC
 70
     4
  9
$AXISMODE
 70
     0
  9
$AXISUNIT
 10
0.0
 20
0.0
  9
$SKETCHINC
 40
0.1
  9
$FILLETRAD
 40
7.0
  9
$AUNITS
 70
     0
  9
$AUPREC
 70
     0
  9
$MENU
  1
acad
  9
$ELEVATION
 40
0.0
  9
$THICKNESS
 40
0.0
  9
$VIEWDIR
 10
0.0
 20
0.0
 30
1.0
  9
$LIMCHECK
 70
     0
  9
$BLIPMODE
 70
     1
  9
$CHAMFERA
 40
8.0
  9
$CHAMFERB
 40
8.0
  9
$FASTZOOM
 70
     1
  9
$SKPOLY
 70
     0
  9
$TDCREATE
 40
0.0
  9
$TDUPDATE
 40
0.0
  9
$TDINDWG
 40
0.0
  9
$TDUSRTIMER
 40
0.0
  9
$USRTIMER
 70
     1
  9
$ANGBASE
 50
0.0
  9
$ANGDIR
 70
     0
  9
$PDMODE
 70
     0
  9
$PDSIZE
 40
0.0
  9
$PLINEWID
 40
0.0
  9
$COORDS
 70
     1
  9
$SPLFRAME
 70
     0
  9
$SPLINESEGS
 70
    10
  9
$ATTDIA
 70
     0
  9
$ATTREQ
 70
     1
  9
$USERI1
 70
     0
  9
$USERI2
 70
     0
  9
$USERI3
 70
     0
  9
$USERI4
 70
     0
  9
$USERI5
 70
     0
  9
$USERR1
 40
0.0
  9
$USERR2
 40
0.0
  9
$USERR3
 40
0.0
  9
$USERR4
 40
0.0
  9
$USERR5
 40
0.0
  0
ENDSEC
  0
SECTION
  2
TABLES
  0
TABLE
  2
LTYPE
 70
    11
  0
LTYPE
  2
CONTINUOUS
 70
     0
  3
Solid line
 72
    65
 73
     0
 40
0.0
  0
LTYPE
  2
DASHED
 70
     0
  3
__ __ __ __ __ __ __ __ __ __ __ __ __ __ __
 72
    65
 73
     2
 40
0.75
 49
0.5
 49
-0.25
  0
LTYPE
  2
HIDDEN
 70
     0
  3
_ _ _ _ _ _ _ _ _ _ _ _ _ _ _ _ _ _ _ _ _ _ 
 72
    65
 73
     2
 40
0.25
 49
0.125
 49
-0.125
  0
LTYPE
  2
CENTER
 70
     0
  3
____ _ ____ _ ____ _ ____ _ ____ _ ____ _ __
 72
    65
 73
     4
 40
2.0
 49
1.25
 49
-0.25
 49
0.25
 49
-0.25
  0
LTYPE
  2
PHANTOM
 70
     0
  3
_____ _ _ _____ _ _ _____ _ _ _____ _ _ ____
 72
    65
 73
     6
 40
2.5
 49
1.25
 49
-0.25
 49
0.25
 49
-0.25
 49
0.25
 49
-0.25
  0
LTYPE
  2
DOT
 70
     0
  3
............................................
 72
    65
 73
     2
 40
0.25
 49
0.0
 49
-0.25
  0
LTYPE
  2
DASHDOT
 70
     0
  3
__ . __ . __ . __ . __ . __ . __ . __ . __ .
 72
    65
 73
     4
 40
1.0
 49
0.5
 49
-0.25
 49
0.0
 49
-0.25
  0
LTYPE
  2
BORDER
 70
     0
  3
__ __ . __ __ . __ __ . __ __ . __ __ . __ _
 72
    65
 73
     6
 40
1.75
 49
0.5
 49
-0.25
 49
0.5
 49
-0.25
 49
0.0
 49
-0.25
  0
LTYPE
  2
DIVIDE
 70
     0
  3
__ . . __ . . __ . . __ . . __ . . __ . . __
 72
    65
 73
     6
 40
1.25
 49
0.5
 49
-0.25
 49
0.0
 49
-0.25
 49
0.0
 49
-0.25
  0
LTYPE
  2
DOTS
 70
     0
  3
close                                       
 72
    65
 73
     2
 40
0.1
 49
0.05
 49
-0.05
  0
LTYPE
  2
CLOSE
 70
     0
  3
                                            
 72
    65
 73
     0
 40
0.0
  0
ENDTAB
  0
TABLE
  2
LAYER
 70
     6
  0
LAYER
  2
0
 70
     0
 62
     7
  6
CONTINUOUS
  0
LAYER
  2
LAYER01
 70
     0
 62
     7
  6
CONTINUOUS
  0
LAYER
  2
DATA
 70
     0
 62
     7
  6
CONTINUOUS
  0
LAYER
  2
DIMENSIONS
 70
     0
 62
     7
  6
CONTINUOUS
  0
LAYER
  2
SPEC
 70
     0
 62
     7
  6
CONTINUOUS
  0
LAYER
  2
HIBINO-BASE
 70
     0
 62
     7
  6
CONTINUOUS
  0
ENDTAB
  0
TABLE
  2
STYLE
 70
     2
  0
STYLE
  2
STANDARD
 70
     0
 40
0.0
 41
1.0
 50
0.0
 71
     0
 42
0.2
  3
txt
  4

  0
STYLE
  2
TTF_DEFAULT
 70
     0
 40
0.0
 41
1.0
 50
0.0
 71
     0
 42
0.0
  3
txt
  4
BIGFONT
  0
ENDTAB
  0
TABLE
  2
VIEW
 70
     0
  0
ENDTAB
  0
ENDSEC
  0
SECTION
  2
BLOCKS
  0
ENDSEC
  0
SECTION
  2
ENTITIES
  0
LINE
  8
SPEC
  6
CONTINUOUS
 62
     7
 10
175.0
 20
2650.0
 11
1100.0
 21
2650.0
  0
LINE
  8
SPEC
  6
CONTINUOUS
 62
     7
 10
175.0
 20
2612.5
 11
1100.0
 21
2612.5
  0
LINE
  8
SPEC
  6
CONTINUOUS
 62
     7
 10
175.0
 20
2575.0
 11
1100.0
 21
2575.0
  0
LINE
  8
SPEC
  6
CONTINUOUS
 62
     7
 10
175.0
 20
2537.5
 11
1100.0
 21
2537.5
  0
POLYLINE
  8
HIBINO-BASE
  6
CONTINUOUS
 62
     7
 66
     1
 70
     1
 40
3.0
 41
3.0
  0
VERTEX
  8
HIBINO-BASE
 10
100.0
 20
150.0
  0
VERTEX
  8
HIBINO-BASE
 10
100.0
 20
2750.0
  0
VERTEX
  8
HIBINO-BASE
 10
1900.0
 20
2750.0
  0
VERTEX
  8
HIBINO-BASE
 10
1900.0
 20
150.0
  0
SEQEND
  8
HIBINO-BASE
  0
LINE
  8
DATA
  6
CONTINUOUS
 62
     7
 10
400.0
 20
1400.0
 11
400.0
 21
1532.5
  0
LINE
  8
DATA
  6
CONTINUOUS
 62
     7
 10
882.6
 20
1400.0
 11
882.6
 21
1532.5
  0
LINE
  8
DATA
  6
CONTINUOUS
 62
     7
 10
426.3
 20
1406.5
 11
426.3
 21
1532.5
  0
LINE
  8
DATA
  6
CONTINUOUS
 62
     7
 10
856.3
 20
1532.5
 11
856.3
 21
1406.5
  0
LINE
  8
DATA
  6
CONTINUOUS
 62
     7
 10
424.3
 20
1400.0
 11
424.3
 21
1532.5
  0
LINE
  8
DATA
  6
CONTINUOUS
 62
     7
 10
858.3
 20
1400.0
 11
858.3
 21
1532.5
  0
LINE
  8
DATA
  6
CONTINUOUS
 62
     7
 10
729.8
 20
1415.0
 11
729.8
 21
1524.5
  0
LINE
  8
DATA
  6
CONTINUOUS
 62
     7
 10
853.3
 20
1524.5
 11
853.3
 21
1415.0
  0
ARC
  8
DATA
  6
CONTINUOUS
 62
     7
 10
829.460509
 20
1438.947466
 40
58.971214
 50
151.242278
 51
203.534701
  0
LINE
  8
DATA
  6
CONTINUOUS
 62
     7
 10
422.3
 20
1400.0
 11
422.3
 21
1421.0
  0
TEXT
  8
DATA
  6
CONTINUOUS
 62
     7
 10
724.8
 20
1418.0
 40
3.0
  1
OF FIRE OR ELECTRIC SHOCK
 50
180.0
  7
TTF_DEFAULT
  0
LINE
  8
DATA
  6
CONTINUOUS
 62
     7
 10
860.3
 20
1400.0
 11
860.3
 21
1421.0
  0
LINE
  8
DATA
  6
CONTINUOUS
 62
     7
 10
845.9
 20
1427.610765
 11
833.689235
 21
1415.4
  0
LINE
  8
DATA
  6
CONTINUOUS
 62
     7
 10
749.410765
 20
1415.4
 11
737.2
 21
1427.610765
  0
ARC
  8
DATA
  6
CONTINUOUS
 62
     7
 10
831.725567
 20
1439.346857
 40
58.971214
 50
153.124831
 51
203.958638
  0
LINE
  8
DATA
  6
CONTINUOUS
 62
     7
 10
400.0
 20
632.5
 11
882.6
 21
632.5
  0
LINE
  8
DATA
  6
CONTINUOUS
 62
     7
 10
400.0
 20
500.0
 11
882.6
 21
500.0
  0
LINE
  8
DATA
  6
CONTINUOUS
 62
     7
 10
400.0
 20
900.0
 11
882.6
 21
900.0
  0
LINE
  8
DATA
  6
CONTINUOUS
 62
     7
 10
424.3
 20
1252.0
 11
858.3
 21
1252.0
  0
LINE
  8
DATA
  6
CONTINUOUS
 62
     7
 10
400.0
 20
903.2
 11
882.6
 21
903.2
  0
LINE
  8
DATA
  6
CONTINUOUS
 62
     7
 10
427.0
 20
587.5
 11
510.5
 21
587.5
  0
LINE
  8
DATA
  6
CONTINUOUS
 62
     7
 10
510.5
 20
504.0
 11
427.0
 21
504.0
  0
LINE
  8
DATA
  6
CONTINUOUS
 62
     7
 10
458.32515
 20
582.5
 11
479.17485
 21
582.5
  0
ARC
  8
DATA
  6
CONTINUOUS
 62
     7
 10
473.065094
 20
575.467162
 40
33.985757
 50
188.760404
 51
251.570575
  0
ARC
  8
DATA
  6
CONTINUOUS
 62
     7
 10
471.262697
 20
573.734718
 40
33.985757
 50
189.58847
 51
254.815578
  0
ARC
  8
DATA
  6
CONTINUOUS
 62
     7
 10
442.911418
 20
556.78747
 40
33.985757
 50
261.58847
 51
326.815578
  0
ARC
  8
DATA
  6
CONTINUOUS
 62
     7
 10
441.820737
 20
559.037007
 40
33.985757
 50
260.760404
 51
323.570575
  0
LINE
  8
DATA
  6
CONTINUOUS
 62
     7
 10
458.32515
 20
509.0
 11
478.166565
 21
509.0
  0
LINE
  8
DATA
  6
CONTINUOUS
 62
     7
 10
427.0
 20
889.5
 11
510.5
 21
889.5
  0
LINE
  8
DIMENSIONS
  6
CONTINUOUS
 62
     7
 10
400.0
 20
750.0
 11
882.6
 21
750.0
  0
LINE
  8
DIMENSIONS
  6
CONTINUOUS
 62
     7
 10
408.8
 20
700.0
 11
873.8
 21
700.0
  0
LINE
  8
DATA
  6
CONTINUOUS
 62
     7
 10
454.3
 20
1255.2
 11
503.3
 21
1255.2
  0
LINE
  8
DATA
  6
CONTINUOUS
 62
     7
 10
858.3
 20
1402.5
 11
424.3
 21
1402.5
  0
LINE
  8
DATA
  6
CONTINUOUS
 62
     7
 10
424.3
 20
1404.5
 11
858.3
 21
1404.5
  0
LINE
  8
DATA
  6
CONTINUOUS
 62
     7
 10
438.3
 20
1400.0
 11
625.3
 21
1400.0
  0
LINE
  8
DIMENSIONS
  6
CONTINUOUS
 62
     7
 10
534.3
 20
1277.5
 11
237.5
 21
1277.5
  0
LINE
  8
DIMENSIONS
  6
CONTINUOUS
 62
     7
 10
419.8
 20
1325.0
 11
862.8
 21
1325.0
  0
TEXT
  8
HIBINO-BASE
  6
CONTINUOUS
 62
     7
 10
171.84
 20
85.9132
 40
40.0
  1
Hibino Corporation
  7
TTF_DEFAULT
  0
TEXT
  8
DATA
  6
CONTINUOUS
 62
     7
 10
627.8
 20
1414.5
 40
3.0
  1
NO USER SERVICEABLE PARTS INSIDE
 50
180.0
  7
TTF_DEFAULT
  0
LINE
  8
DIMENSIONS
  6
CONTINUOUS
 62
     7
 10
400.0
 20
642.5
 11
400.0
 21
762.5
  0
LINE
  8
DIMENSIONS
  6
CONTINUOUS
 62
     7
 10
408.8
 20
608.0755
 11
408.8
 21
712.5
  0
LINE
  8
DATA
  6
CONTINUOUS
 62
     7
 10
400.0
 20
500.0
 11
400.0
 21
632.5
  0
ARC
  8
DATA
  6
CONTINUOUS
 62
     7
 10
407.2
 20
594.8255
 40
3.25
 50
90.0
 51
270.0
  0
ARC
  8
DATA
  6
CONTINUOUS
 62
     7
 10
410.4
 20
594.8255
 40
3.25
 50
270.0
 51
90.0
  0
LINE
  8
DATA
  6
CONTINUOUS
 62
     7
 10
407.2
 20
591.5755
 11
410.4
 21
591.5755
  0
LINE
  8
DATA
  6
CONTINUOUS
 62
     7
 10
407.2
 20
598.0755
 11
410.4
 21
598.0755
  0
ARC
  8
DATA
  6
CONTINUOUS
 62
     7
 10
407.2
 20
537.6745
 40
3.25
 50
90.0
 51
270.0
  0
ARC
  8
DATA
  6
CONTINUOUS
 62
     7
 10
410.4
 20
537.6745
 40
3.25
 50
270.0
 51
90.0
  0
LINE
  8
DATA
  6
CONTINUOUS
 62
     7
 10
407.2
 20
534.4245
 11
410.4
 21
534.4245
  0
LINE
  8
DATA
  6
CONTINUOUS
 62
     7
 10
407.2
 20
540.9245
 11
410.4
 21
540.9245
  0
CIRCLE
  8
DATA
  6
CONTINUOUS
 62
     7
 10
433.0
 20
612.5
 40
3.75
  0
LINE
  8
DATA
  6
CONTINUOUS
 62
     7
 10
431.0
 20
612.5
 11
435.0
 21
612.5
  0
LINE
  8
DATA
  6
CONTINUOUS
 62
     7
 10
433.0
 20
610.5
 11
433.0
 21
614.5
  0
LINE
  8
DATA
  6
CONTINUOUS
 62
     7
 10
427.0
 20
504.0
 11
427.0
 21
587.5
  0
LINE
  8
DATA
  6
CONTINUOUS
 62
     7
 10
432.0
 20
535.32515
 11
432.0
 21
556.17485
  0
ARC
  8
DATA
  6
CONTINUOUS
 62
     7
 10
468.75
 20
545.75
 40
38.2
 50
105.837016
 51
140.026335
  0
ARC
  8
DATA
  6
CONTINUOUS
 62
     7
 10
468.75
 20
545.75
 40
38.2
 50
144.24009
 51
164.162984
  0
ARC
  8
DATA
  6
CONTINUOUS
 62
     7
 10
468.75
 20
545.75
 40
38.2
 50
195.837016
 51
212.026335
  0
ARC
  8
DATA
  6
CONTINUOUS
 62
     7
 10
468.75
 20
545.75
 40
38.2
 50
216.24009
 51
254.162984
  0
LINE
  8
DATA
  6
CONTINUOUS
 62
     7
 10
430.3
 20
490.0
 11
448.3
 21
490.0
  0
LINE
  8
DATA
  6
CONTINUOUS
 62
     7
 10
430.3
 20
490.0
 11
429.3
 21
500.0
  0
LINE
  8
DATA
  6
CONTINUOUS
 62
     7
 10
448.3
 20
490.0
 11
449.3
 21
500.0
  0
LINE
  8
DIMENSIONS
  6
CONTINUOUS
 62
     7
 10
420.3
 20
490.0
 11
237.5
 21
490.0
  0
LINE
  8
DIMENSIONS
  6
CONTINUOUS
 62
     7
 10
246.6668
 20
470.0
 11
250.0
 21
490.0
  0
LINE
  8
DIMENSIONS
  6
CONTINUOUS
 62
     7
 10
253.3332
 20
470.0
 11
250.0
 21
490.0
  0
LINE
  8
DIMENSIONS
  6
CONTINUOUS
 62
     7
 10
250.0
 20
490.0
 11
250.0
 21
450.0
  0
LINE
  8
DIMENSIONS
  6
CONTINUOUS
 62
     7
 10
300.0
 20
632.5
 11
300.0
 21
672.5
  0
LINE
  8
DIMENSIONS
  6
CONTINUOUS
 62
     7
 10
300.0
 20
594.8255
 11
300.0
 21
554.8255
  0
LINE
  8
DIMENSIONS
  6
CONTINUOUS
 62
     7
 10
296.6668
 20
652.5
 11
300.0
 21
632.5
  0
LINE
  8
DIMENSIONS
  6
CONTINUOUS
 62
     7
 10
303.3332
 20
652.5
 11
300.0
 21
632.5
  0
LINE
  8
DIMENSIONS
  6
CONTINUOUS
 62
     7
 10
300.0
 20
594.8255
 11
300.0
 21
537.6745
  0
LINE
  8
DIMENSIONS
  6
CONTINUOUS
 62
     7
 10
393.95
 20
594.8255
 11
287.5
 21
594.8255
  0
LINE
  8
DIMENSIONS
  6
CONTINUOUS
 62
     7
 10
393.95
 20
537.6745
 11
287.5
 21
537.6745
  0
LINE
  8
DIMENSIONS
  6
CONTINUOUS
 62
     7
 10
296.6668
 20
574.8255
 11
300.0
 21
594.8255
  0
LINE
  8
DIMENSIONS
  6
CONTINUOUS
 62
     7
 10
303.3332
 20
574.8255
 11
300.0
 21
594.8255
  0
LINE
  8
DIMENSIONS
  6
CONTINUOUS
 62
     7
 10
296.6668
 20
557.6745
 11
300.0
 21
537.6745
  0
LINE
  8
DIMENSIONS
  6
CONTINUOUS
 62
     7
 10
303.3332
 20
557.6745
 11
300.0
 21
537.6745
  0
LINE
  8
DIMENSIONS
  6
CONTINUOUS
 62
     7
 10
250.0
 20
632.5
 11
250.0
 21
500.0
  0
LINE
  8
DIMENSIONS
  6
CONTINUOUS
 62
     7
 10
390.0
 20
632.5
 11
237.5
 21
632.5
  0
LINE
  8
DIMENSIONS
  6
CONTINUOUS
 62
     7
 10
246.6668
 20
612.5
 11
250.0
 21
632.5
  0
LINE
  8
DIMENSIONS
  6
CONTINUOUS
 62
     7
 10
253.3332
 20
612.5
 11
250.0
 21
632.5
  0
LINE
  8
DIMENSIONS
  6
CONTINUOUS
 62
     7
 10
246.6668
 20
520.0
 11
250.0
 21
500.0
  0
LINE
  8
DIMENSIONS
  6
CONTINUOUS
 62
     7
 10
253.3332
 20
520.0
 11
250.0
 21
500.0
  0
TEXT
  8
DIMENSIONS
  6
CONTINUOUS
 62
     7
 10
287.5
 20
543.208992
 40
25.0
  1
57.2
 50
90.0
  7
TTF_DEFAULT
  0
TEXT
  8
DIMENSIONS
  6
CONTINUOUS
 62
     7
 10
237.5
 20
536.488698
 40
25.0
  1
132.5
 50
90.0
  7
TTF_DEFAULT
  0
TEXT
  8
DIMENSIONS
  6
CONTINUOUS
 62
     7
 10
237.5
 20
427.5
 40
25.0
  1
10
 50
90.0
  7
TTF_DEFAULT
  0
LINE
  8
DIMENSIONS
  6
CONTINUOUS
 62
     7
 10
390.0
 20
500.0
 11
237.5
 21
500.0
  0
LINE
  8
DATA
  6
CONTINUOUS
 62
     7
 10
424.3
 20
1252.0
 11
424.3
 21
903.2
  0
LINE
  8
DIMENSIONS
  6
CONTINUOUS
 62
     7
 10
419.8
 20
925.7
 11
419.8
 21
1337.5
  0
LINE
  8
DIMENSIONS
  6
CONTINUOUS
 62
     7
 10
250.0
 20
1252.0
 11
250.0
 21
900.0
  0
CIRCLE
  8
DATA
  6
CONTINUOUS
 62
     7
 10
434.3
 20
954.0
 40
4.5
  0
CIRCLE
  8
DATA
  6
CONTINUOUS
 62
     7
 10
434.3
 20
954.0
 40
4.0
  0
LINE
  8
DATA
  6
CONTINUOUS
 62
     7
 10
436.8
 20
954.0
 11
431.8
 21
954.0
  0
LINE
  8
DATA
  6
CONTINUOUS
 62
     7
 10
434.3
 20
951.5
 11
434.3
 21
956.5
  0
LINE
  8
DATA
  6
CONTINUOUS
 62
     7
 10
422.3
 20
905.2
 11
422.3
 21
928.2
  0
LINE
  8
DATA
  6
CONTINUOUS
 62
     7
 10
400.0
 20
905.2
 11
422.3
 21
905.2
  0
LINE
  8
DATA
  6
CONTINUOUS
 62
     7
 10
422.3
 20
928.2
 11
424.3
 21
928.2
  0
LINE
  8
DATA
  6
CONTINUOUS
 62
     7
 10
400.0
 20
900.0
 11
400.0
 21
905.2
  0
LINE
  8
DATA
  6
CONTINUOUS
 62
     7
 10
427.0
 20
889.5
 11
427.0
 21
900.0
  0
LINE
  8
DATA
  6
CONTINUOUS
 62
     7
 10
423.5
 20
942.7
 11
423.5
 21
933.7
  0
LINE
  8
DATA
  6
CONTINUOUS
 62
     7
 10
424.3
 20
933.7
 11
423.5
 21
933.7
  0
LINE
  8
DATA
  6
CONTINUOUS
 62
     7
 10
424.3
 20
942.7
 11
423.5
 21
942.7
  0
ARC
  8
DATA
  6
CONTINUOUS
 62
     7
 10
434.733333
 20
938.2
 40
13.633333
 50
162.938469
 51
197.061531
  0
LINE
  8
DATA
  6
CONTINUOUS
 62
     7
 10
421.7
 20
942.2
 11
421.7
 21
934.2
  0
LINE
  8
DATA
  6
CONTINUOUS
 62
     7
 10
421.7
 20
942.2
 11
423.5
 21
942.2
  0
LINE
  8
DATA
  6
CONTINUOUS
 62
     7
 10
421.7
 20
934.2
 11
423.5
 21
934.2
  0
LINE
  8
DATA
  6
CONTINUOUS
 62
     7
 10
423.5
 20
1022.7
 11
423.5
 21
1013.7
  0
LINE
  8
DATA
  6
CONTINUOUS
 62
     7
 10
424.3
 20
1013.7
 11
423.5
 21
1013.7
  0
LINE
  8
DATA
  6
CONTINUOUS
 62
     7
 10
424.3
 20
1022.7
 11
423.5
 21
1022.7
  0
ARC
  8
DATA
  6
CONTINUOUS
 62
     7
 10
434.733333
 20
1018.2
 40
13.633333
 50
162.938469
 51
197.061531
  0
LINE
  8
DATA
  6
CONTINUOUS
 62
     7
 10
421.7
 20
1022.2
 11
421.7
 21
1014.2
  0
LINE
  8
DATA
  6
CONTINUOUS
 62
     7
 10
421.7
 20
1022.2
 11
423.5
 21
1022.2
  0
LINE
  8
DATA
  6
CONTINUOUS
 62
     7
 10
421.7
 20
1014.2
 11
423.5
 21
1014.2
  0
LINE
  8
DIMENSIONS
  6
CONTINUOUS
 62
     7
 10
420.0
 20
746.6668
 11
400.0
 21
750.0
  0
LINE
  8
DIMENSIONS
  6
CONTINUOUS
 62
     7
 10
420.0
 20
753.3332
 11
400.0
 21
750.0
  0
LINE
  8
DIMENSIONS
  6
CONTINUOUS
 62
     7
 10
428.8
 20
696.6668
 11
408.8
 21
700.0
  0
LINE
  8
DIMENSIONS
  6
CONTINUOUS
 62
     7
 10
428.8
 20
703.3332
 11
408.8
 21
700.0
  0
TEXT
  8
DIMENSIONS
  6
CONTINUOUS
 62
     7
 10
287.5
 20
685.0
 40
25.0
  1
37.7
 50
90.0
  7
TTF_DEFAULT
  0
LINE
  8
DATA
  6
CONTINUOUS
 62
     7
 10
420.4
 20
911.95
 11
420.4
 21
919.45
  0
ARC
  8
DATA
  6
CONTINUOUS
 62
     7
 10
431.81875
 20
915.7
 40
12.01875
 50
161.819446
 51
198.180554
  0
LINE
  8
DATA
  6
CONTINUOUS
 62
     7
 10
420.4
 20
919.45
 11
422.3
 21
919.45
  0
LINE
  8
DATA
  6
CONTINUOUS
 62
     7
 10
420.4
 20
911.95
 11
422.3
 21
911.95
  0
LINE
  8
DIMENSIONS
  6
CONTINUOUS
 62
     7
 10
350.0
 20
905.2
 11
350.0
 21
945.2
  0
LINE
  8
DIMENSIONS
  6
CONTINUOUS
 62
     7
 10
350.0
 20
900.0
 11
350.0
 21
860.0
  0
LINE
  8
DIMENSIONS
  6
CONTINUOUS
 62
     7
 10
390.0
 20
905.2
 11
337.5
 21
905.2
  0
LINE
  8
DIMENSIONS
  6
CONTINUOUS
 62
     7
 10
346.6668
 20
925.2
 11
350.0
 21
905.2
  0
LINE
  8
DIMENSIONS
  6
CONTINUOUS
 62
     7
 10
353.3332
 20
925.2
 11
350.0
 21
905.2
  0
LINE
  8
DIMENSIONS
  6
CONTINUOUS
 62
     7
 10
346.6668
 20
880.0
 11
350.0
 21
900.0
  0
LINE
  8
DIMENSIONS
  6
CONTINUOUS
 62
     7
 10
353.3332
 20
880.0
 11
350.0
 21
900.0
  0
LINE
  8
DIMENSIONS
  6
CONTINUOUS
 62
     7
 10
300.0
 20
900.0
 11
300.0
 21
940.0
  0
LINE
  8
DIMENSIONS
  6
CONTINUOUS
 62
     7
 10
300.0
 20
889.5
 11
300.0
 21
849.5
  0
LINE
  8
DIMENSIONS
  6
CONTINUOUS
 62
     7
 10
417.0
 20
889.5
 11
287.5
 21
889.5
  0
LINE
  8
DIMENSIONS
  6
CONTINUOUS
 62
     7
 10
296.6668
 20
920.0
 11
300.0
 21
900.0
  0
LINE
  8
DIMENSIONS
  6
CONTINUOUS
 62
     7
 10
303.3332
 20
920.0
 11
300.0
 21
900.0
  0
LINE
  8
DIMENSIONS
  6
CONTINUOUS
 62
     7
 10
296.6668
 20
869.5
 11
300.0
 21
889.5
  0
LINE
  8
DIMENSIONS
  6
CONTINUOUS
 62
     7
 10
303.3332
 20
869.5
 11
300.0
 21
889.5
  0
LINE
  8
DIMENSIONS
  6
CONTINUOUS
 62
     7
 10
390.0
 20
900.0
 11
237.5
 21
900.0
  0
LINE
  8
DIMENSIONS
  6
CONTINUOUS
 62
     7
 10
246.6668
 20
920.0
 11
250.0
 21
900.0
  0
LINE
  8
DIMENSIONS
  6
CONTINUOUS
 62
     7
 10
253.3332
 20
920.0
 11
250.0
 21
900.0
  0
TEXT
  8
DIMENSIONS
  6
CONTINUOUS
 62
     7
 10
287.5
 20
827.5
 40
25.0
  1
10.5
 50
90.0
  7
TTF_DEFAULT
  0
TEXT
  8
DIMENSIONS
  6
CONTINUOUS
 62
     7
 10
337.5
 20
832.7
 40
25.0
  1
5.2
 50
90.0
  7
TTF_DEFAULT
  0
CIRCLE
  8
DATA
  6
CONTINUOUS
 62
     7
 10
434.3
 20
1113.0
 40
4.5
  0
CIRCLE
  8
DATA
  6
CONTINUOUS
 62
     7
 10
434.3
 20
1113.0
 40
4.0
  0
LINE
  8
DATA
  6
CONTINUOUS
 62
     7
 10
436.8
 20
1113.0
 11
431.8
 21
1113.0
  0
LINE
  8
DATA
  6
CONTINUOUS
 62
     7
 10
434.3
 20
1110.5
 11
434.3
 21
1115.5
  0
CIRCLE
  8
DATA
  6
CONTINUOUS
 62
     7
 10
434.3
 20
1242.5
 40
4.5
  0
CIRCLE
  8
DATA
  6
CONTINUOUS
 62
     7
 10
434.3
 20
1242.5
 40
4.0
  0
LINE
  8
DATA
  6
CONTINUOUS
 62
     7
 10
436.8
 20
1242.5
 11
431.8
 21
1242.5
  0
LINE
  8
DATA
  6
CONTINUOUS
 62
     7
 10
434.3
 20
1240.0
 11
434.3
 21
1245.0
  0
LINE
  8
DATA
  6
CONTINUOUS
 62
     7
 10
423.5
 20
1102.2
 11
423.5
 21
1093.2
  0
LINE
  8
DATA
  6
CONTINUOUS
 62
     7
 10
424.3
 20
1093.2
 11
423.5
 21
1093.2
  0
LINE
  8
DATA
  6
CONTINUOUS
 62
     7
 10
424.3
 20
1102.2
 11
423.5
 21
1102.2
  0
ARC
  8
DATA
  6
CONTINUOUS
 62
     7
 10
434.733333
 20
1097.7
 40
13.633333
 50
162.938469
 51
197.061531
  0
LINE
  8
DATA
  6
CONTINUOUS
 62
     7
 10
421.7
 20
1101.7
 11
421.7
 21
1093.7
  0
LINE
  8
DATA
  6
CONTINUOUS
 62
     7
 10
421.7
 20
1101.7
 11
423.5
 21
1101.7
  0
LINE
  8
DATA
  6
CONTINUOUS
 62
     7
 10
421.7
 20
1093.7
 11
423.5
 21
1093.7
  0
LINE
  8
DATA
  6
CONTINUOUS
 62
     7
 10
423.5
 20
1182.7
 11
423.5
 21
1173.7
  0
LINE
  8
DATA
  6
CONTINUOUS
 62
     7
 10
424.3
 20
1173.7
 11
423.5
 21
1173.7
  0
LINE
  8
DATA
  6
CONTINUOUS
 62
     7
 10
424.3
 20
1182.7
 11
423.5
 21
1182.7
  0
ARC
  8
DATA
  6
CONTINUOUS
 62
     7
 10
434.733333
 20
1178.2
 40
13.633333
 50
162.938469
 51
197.061531
  0
LINE
  8
DATA
  6
CONTINUOUS
 62
     7
 10
421.7
 20
1182.2
 11
421.7
 21
1174.2
  0
LINE
  8
DATA
  6
CONTINUOUS
 62
     7
 10
421.7
 20
1182.2
 11
423.5
 21
1182.2
  0
LINE
  8
DATA
  6
CONTINUOUS
 62
     7
 10
421.7
 20
1174.2
 11
423.5
 21
1174.2
  0
LINE
  8
DATA
  6
CONTINUOUS
 62
     7
 10
423.5
 20
1246.7
 11
423.5
 21
1237.7
  0
LINE
  8
DATA
  6
CONTINUOUS
 62
     7
 10
424.3
 20
1237.7
 11
423.5
 21
1237.7
  0
LINE
  8
DATA
  6
CONTINUOUS
 62
     7
 10
424.3
 20
1246.7
 11
423.5
 21
1246.7
  0
LINE
  8
DATA
  6
CONTINUOUS
 62
     7
 10
421.7
 20
1246.2
 11
423.5
 21
1246.2
  0
LINE
  8
DATA
  6
CONTINUOUS
 62
     7
 10
421.7
 20
1238.2
 11
423.5
 21
1238.2
  0
LINE
  8
DATA
  6
CONTINUOUS
 62
     7
 10
454.3
 20
1252.0
 11
454.3
 21
1255.2
  0
LINE
  8
DATA
  6
CONTINUOUS
 62
     7
 10
426.3
 20
1406.5
 11
439.8
 21
1406.5
  0
LINE
  8
DATA
  6
CONTINUOUS
 62
     7
 10
439.8
 20
1404.5
 11
439.8
 21
1406.5
  0
LINE
  8
DATA
  6
CONTINUOUS
 62
     7
 10
438.8
 20
1401.7
 11
429.8
 21
1401.7
  0
LINE
  8
DATA
  6
CONTINUOUS
 62
     7
 10
429.8
 20
1402.5
 11
429.8
 21
1401.7
  0
LINE
  8
DATA
  6
CONTINUOUS
 62
     7
 10
438.8
 20
1402.5
 11
438.8
 21
1401.7
  0
ARC
  8
DATA
  6
CONTINUOUS
 62
     7
 10
434.3
 20
1412.933333
 40
13.633333
 50
252.938469
 51
287.061531
  0
LINE
  8
DATA
  6
CONTINUOUS
 62
     7
 10
438.3
 20
1399.9
 11
430.3
 21
1399.9
  0
LINE
  8
DATA
  6
CONTINUOUS
 62
     7
 10
438.3
 20
1399.9
 11
438.3
 21
1401.7
  0
LINE
  8
DATA
  6
CONTINUOUS
 62
     7
 10
430.3
 20
1399.9
 11
430.3
 21
1401.7
  0
LINE
  8
DATA
  6
CONTINUOUS
 62
     7
 10
400.0
 20
1400.0
 11
430.3
 21
1400.0
  0
LINE
  8
DATA
  6
CONTINUOUS
 62
     7
 10
421.7
 20
1246.2
 11
421.7
 21
1238.2
  0
ARC
  8
DATA
  6
CONTINUOUS
 62
     7
 10
434.733333
 20
1242.2
 40
13.633333
 50
162.938469
 51
197.061531
  0
LINE
  8
DIMENSIONS
  6
CONTINUOUS
 62
     7
 10
250.0
 20
1252.0
 11
250.0
 21
1212.0
  0
LINE
  8
DIMENSIONS
  6
CONTINUOUS
 62
     7
 10
250.0
 20
1277.5
 11
250.0
 21
1317.5
  0
LINE
  8
DIMENSIONS
  6
CONTINUOUS
 62
     7
 10
253.3332
 20
1232.0
 11
250.0
 21
1252.0
  0
LINE
  8
DIMENSIONS
  6
CONTINUOUS
 62
     7
 10
246.6668
 20
1232.0
 11
250.0
 21
1252.0
  0
LINE
  8
DIMENSIONS
  6
CONTINUOUS
 62
     7
 10
253.3332
 20
1297.5
 11
250.0
 21
1277.5
  0
LINE
  8
DIMENSIONS
  6
CONTINUOUS
 62
     7
 10
246.6668
 20
1297.5
 11
250.0
 21
1277.5
  0
LINE
  8
DIMENSIONS
  6
CONTINUOUS
 62
     7
 10
439.8
 20
1321.6668
 11
419.8
 21
1325.0
  0
LINE
  8
DIMENSIONS
  6
CONTINUOUS
 62
     7
 10
439.8
 20
1328.3332
 11
419.8
 21
1325.0
  0
LINE
  8
DIMENSIONS
  6
CONTINUOUS
 62
     7
 10
414.3
 20
1252.0
 11
237.5
 21
1252.0
  0
LINE
  8
DIMENSIONS
  6
CONTINUOUS
 62
     7
 10
246.6668
 20
1232.0
 11
250.0
 21
1252.0
  0
LINE
  8
DIMENSIONS
  6
CONTINUOUS
 62
     7
 10
253.3332
 20
1232.0
 11
250.0
 21
1252.0
  0
TEXT
  8
DIMENSIONS
  6
CONTINUOUS
 62
     7
 10
237.5
 20
1330.0
 40
25.0
  1
25.5
 50
90.0
  7
TTF_DEFAULT
  0
TEXT
  8
DIMENSIONS
  6
CONTINUOUS
 62
     7
 10
237.5
 20
1054.194102
 40
25.0
  1
352
 50
90.0
  7
TTF_DEFAULT
  0
LINE
  8
DIMENSIONS
  6
CONTINUOUS
 62
     7
 10
882.6
 20
642.5
 11
882.6
 21
762.5
  0
LINE
  8
DIMENSIONS
  6
CONTINUOUS
 62
     7
 10
873.8
 20
608.0755
 11
873.8
 21
712.5
  0
CIRCLE
  8
DATA
  6
CONTINUOUS
 62
     7
 10
724.5
 20
622.7
 40
3.75
  0
TEXT
  8
DATA
  6
CONTINUOUS
 62
     7
 10
612.0
 20
593.5
 40
25.0
  1
Soundcraft
  7
TTF_DEFAULT
  0
TEXT
  8
DATA
  6
CONTINUOUS
 62
     7
 10
703.837228
 20
585.5
 40
6.0
  1
CPS 800
  7
TTF_DEFAULT
  0
TEXT
  8
DATA
  6
CONTINUOUS
 62
     7
 10
696.205694
 20
530.7
 40
4.0
  1
HI-TEMP
  7
TTF_DEFAULT
  0
TEXT
  8
DATA
  6
CONTINUOUS
 62
     7
 10
693.717048
 20
525.7
 40
4.0
  1
SHUTDOWN
  7
TTF_DEFAULT
  0
TEXT
  8
DATA
  6
CONTINUOUS
 62
     7
 10
602.5
 20
506.0
 40
3.5
  1
CLEAN FAN FILTERS REGULARY
  7
TTF_DEFAULT
  0
TEXT
  8
DATA
  6
CONTINUOUS
 62
     7
 10
602.5
 20
502.0
 40
3.5
  1
INCLUDING FAN FILTER ON REAR PANEL
  7
TTF_DEFAULT
  0
TEXT
  8
DATA
  6
CONTINUOUS
 62
     7
 10
612.0
 20
585.5
 40
6.0
  1
CONSOLE POWER SUPPLY
  7
TTF_DEFAULT
  0
LINE
  8
DATA
  6
CONTINUOUS
 62
     7
 10
500.5
 20
622.0
 11
526.5
 21
622.0
  0
LINE
  8
DATA
  6
CONTINUOUS
 62
     7
 10
500.5
 20
592.0
 11
526.5
 21
592.0
  0
LINE
  8
DATA
  6
CONTINUOUS
 62
     7
 10
500.5
 20
592.0
 11
500.5
 21
622.0
  0
LINE
  8
DATA
  6
CONTINUOUS
 62
     7
 10
526.5
 20
592.0
 11
526.5
 21
622.0
  0
LINE
  8
DATA
  6
CONTINUOUS
 62
     7
 10
503.5
 20
597.0
 11
503.5
 21
617.0
  0
LINE
  8
DATA
  6
CONTINUOUS
 62
     7
 10
503.5
 20
617.0
 11
523.5
 21
617.0
  0
LINE
  8
DATA
  6
CONTINUOUS
 62
     7
 10
523.5
 20
617.0
 11
523.5
 21
597.0
  0
LINE
  8
DATA
  6
CONTINUOUS
 62
     7
 10
523.5
 20
597.0
 11
503.5
 21
597.0
  0
LINE
  8
DATA
  6
CONTINUOUS
 62
     7
 10
503.5
 20
612.0
 11
523.5
 21
612.0
  0
CIRCLE
  8
DATA
  6
CONTINUOUS
 62
     7
 10
545.5
 20
622.7
 40
3.75
  0
LINE
  8
DATA
  6
CONTINUOUS
 62
     7
 10
543.5
 20
622.7
 11
547.5
 21
622.7
  0
LINE
  8
DATA
  6
CONTINUOUS
 62
     7
 10
545.5
 20
620.7
 11
545.5
 21
624.7
  0
TEXT
  8
DATA
  6
CONTINUOUS
 62
     7
 10
528.5
 20
592.0
 40
6.0
  1
OFF
  7
TTF_DEFAULT
  0
TEXT
  8
DATA
  6
CONTINUOUS
 62
     7
 10
495.404056
 20
592.0
 40
6.0
  1
0
  7
TTF_DEFAULT
  0
TEXT
  8
DATA
  6
CONTINUOUS
 62
     7
 10
528.5
 20
618.0
 40
6.0
  1
ON
  7
TTF_DEFAULT
  0
TEXT
  8
DATA
  6
CONTINUOUS
 62
     7
 10
495.404056
 20
618.0
 40
6.0
  1
1
  7
TTF_DEFAULT
  0
TEXT
  8
DATA
  6
CONTINUOUS
 62
     7
 10
473.720683
 20
606.0
 40
6.0
  1
POWER
  7
TTF_DEFAULT
  0
LINE
  8
DATA
  6
CONTINUOUS
 62
     7
 10
503.5
 20
607.0
 11
523.5
 21
607.0
  0
LINE
  8
DATA
  6
CONTINUOUS
 62
     7
 10
510.5
 20
587.5
 11
510.5
 21
504.0
  0
LINE
  8
DATA
  6
CONTINUOUS
 62
     7
 10
516.0
 20
587.5
 11
516.0
 21
504.0
  0
LINE
  8
DATA
  6
CONTINUOUS
 62
     7
 10
516.0
 20
587.5
 11
599.5
 21
587.5
  0
LINE
  8
DATA
  6
CONTINUOUS
 62
     7
 10
599.5
 20
587.5
 11
599.5
 21
504.0
  0
LINE
  8
DATA
  6
CONTINUOUS
 62
     7
 10
599.5
 20
504.0
 11
516.0
 21
504.0
  0
LINE
  8
DATA
  6
CONTINUOUS
 62
     7
 10
472.466693
 20
551.572142
 11
476.748782
 21
545.889619
  0
ARC
  8
DATA
  6
CONTINUOUS
 62
     7
 10
483.16619
 20
521.632962
 40
33.985757
 50
48.916969
 51
110.815578
  0
ARC
  8
DATA
  6
CONTINUOUS
 62
     7
 10
482.726325
 20
519.171962
 40
33.985757
 50
47.925627
 51
107.570575
  0
LINE
  8
DATA
  6
CONTINUOUS
 62
     7
 10
464.361335
 20
551.083926
 11
471.088974
 21
553.400438
  0
LINE
  8
DATA
  6
CONTINUOUS
 62
     7
 10
462.196784
 20
550.338611
 11
462.320963
 21
543.224405
  0
LINE
  8
DATA
  6
CONTINUOUS
 62
     7
 10
462.360916
 20
540.93548
 11
469.165301
 21
538.85517
  0
LINE
  8
DATA
  6
CONTINUOUS
 62
     7
 10
471.354545
 20
538.185851
 11
475.435708
 21
544.014356
  0
ARC
  8
DATA
  6
CONTINUOUS
 62
     7
 10
496.141514
 20
552.008037
 40
33.985757
 50
117.58847
 51
182.815578
  0
ARC
  8
DATA
  6
CONTINUOUS
 62
     7
 10
498.346138
 20
550.829209
 40
33.985757
 50
116.760404
 51
179.570575
  0
ARC
  8
DATA
  6
CONTINUOUS
 62
     7
 10
447.791706
 20
524.24466
 40
33.985757
 50
333.348651
 51
35.570575
  0
ARC
  8
DATA
  6
CONTINUOUS
 62
     7
 10
450.268181
 20
524.586814
 40
33.985757
 50
333.58847
 51
38.815578
  0
ARC
  8
DATA
  6
CONTINUOUS
 62
     7
 10
468.75
 20
545.75
 40
38.2
 50
288.24009
 51
344.162984
  0
LINE
  8
DATA
  6
CONTINUOUS
 62
     7
 10
505.5
 20
535.32515
 11
505.5
 21
544.398762
  0
LINE
  8
DATA
  6
CONTINUOUS
 62
     7
 10
505.5
 20
547.25
 11
505.5
 21
556.17485
  0
ARC
  8
DATA
  6
CONTINUOUS
 62
     7
 10
468.75
 20
545.75
 40
38.2
 50
15.837016
 51
68.026335
  0
ARC
  8
DATA
  6
CONTINUOUS
 62
     7
 10
468.75
 20
545.75
 40
38.2
 50
72.24009
 51
74.162984
  0
ARC
  8
DATA
  6
CONTINUOUS
 62
     7
 10
557.75
 20
545.75
 40
38.2
 50
72.24009
 51
74.162984
  0
LINE
  8
DATA
  6
CONTINUOUS
 62
     7
 10
547.32515
 20
582.5
 11
568.17485
 21
582.5
  0
ARC
  8
DATA
  6
CONTINUOUS
 62
     7
 10
562.065094
 20
575.467162
 40
33.985757
 50
188.760404
 51
251.570575
  0
ARC
  8
DATA
  6
CONTINUOUS
 62
     7
 10
560.262697
 20
573.734718
 40
33.985757
 50
189.58847
 51
254.815578
  0
ARC
  8
DATA
  6
CONTINUOUS
 62
     7
 10
531.911418
 20
556.78747
 40
33.985757
 50
261.58847
 51
326.815578
  0
ARC
  8
DATA
  6
CONTINUOUS
 62
     7
 10
530.820737
 20
559.037007
 40
33.985757
 50
260.760404
 51
323.570575
  0
LINE
  8
DATA
  6
CONTINUOUS
 62
     7
 10
547.32515
 20
509.0
 11
567.166565
 21
509.0
  0
LINE
  8
DATA
  6
CONTINUOUS
 62
     7
 10
521.0
 20
535.32515
 11
521.0
 21
556.17485
  0
ARC
  8
DATA
  6
CONTINUOUS
 62
     7
 10
557.75
 20
545.75
 40
38.2
 50
105.837016
 51
140.026335
  0
ARC
  8
DATA
  6
CONTINUOUS
 62
     7
 10
557.75
 20
545.75
 40
38.2
 50
144.24009
 51
164.162984
  0
ARC
  8
DATA
  6
CONTINUOUS
 62
     7
 10
557.75
 20
545.75
 40
38.2
 50
195.837016
 51
212.026335
  0
ARC
  8
DATA
  6
CONTINUOUS
 62
     7
 10
557.75
 20
545.75
 40
38.2
 50
216.24009
 51
254.162984
  0
LINE
  8
DATA
  6
CONTINUOUS
 62
     7
 10
561.466693
 20
551.572142
 11
565.748782
 21
545.889619
  0
ARC
  8
DATA
  6
CONTINUOUS
 62
     7
 10
572.16619
 20
521.632962
 40
33.985757
 50
48.916969
 51
110.815578
  0
ARC
  8
DATA
  6
CONTINUOUS
 62
     7
 10
571.726325
 20
519.171962
 40
33.985757
 50
47.925627
 51
107.570575
  0
LINE
  8
DATA
  6
CONTINUOUS
 62
     7
 10
553.361335
 20
551.083926
 11
560.088974
 21
553.400438
  0
LINE
  8
DATA
  6
CONTINUOUS
 62
     7
 10
551.196784
 20
550.338611
 11
551.320963
 21
543.224405
  0
LINE
  8
DATA
  6
CONTINUOUS
 62
     7
 10
551.360916
 20
540.93548
 11
558.165301
 21
538.85517
  0
LINE
  8
DATA
  6
CONTINUOUS
 62
     7
 10
560.354545
 20
538.185851
 11
564.435708
 21
544.014356
  0
ARC
  8
DATA
  6
CONTINUOUS
 62
     7
 10
585.141514
 20
552.008037
 40
33.985757
 50
117.58847
 51
182.815578
  0
ARC
  8
DATA
  6
CONTINUOUS
 62
     7
 10
587.346138
 20
550.829209
 40
33.985757
 50
116.760404
 51
179.570575
  0
ARC
  8
DATA
  6
CONTINUOUS
 62
     7
 10
536.791706
 20
524.24466
 40
33.985757
 50
333.348651
 51
35.570575
  0
ARC
  8
DATA
  6
CONTINUOUS
 62
     7
 10
539.268181
 20
524.586814
 40
33.985757
 50
333.58847
 51
38.815578
  0
ARC
  8
DATA
  6
CONTINUOUS
 62
     7
 10
557.75
 20
545.75
 40
38.2
 50
288.24009
 51
344.162984
  0
LINE
  8
DATA
  6
CONTINUOUS
 62
     7
 10
594.5
 20
535.32515
 11
594.5
 21
544.398762
  0
LINE
  8
DATA
  6
CONTINUOUS
 62
     7
 10
594.5
 20
547.25
 11
594.5
 21
556.17485
  0
ARC
  8
DATA
  6
CONTINUOUS
 62
     7
 10
557.75
 20
545.75
 40
38.2
 50
15.837016
 51
68.026335
  0
CIRCLE
  8
DATA
  6
CONTINUOUS
 62
     7
 10
642.0
 20
537.7
 40
2.5
  0
CIRCLE
  8
DATA
  6
CONTINUOUS
 62
     7
 10
661.5
 20
537.7
 40
2.5
  0
CIRCLE
  8
DATA
  6
CONTINUOUS
 62
     7
 10
673.0
 20
537.7
 40
2.5
  0
CIRCLE
  8
DATA
  6
CONTINUOUS
 62
     7
 10
684.5
 20
537.7
 40
2.5
  0
CIRCLE
  8
DATA
  6
CONTINUOUS
 62
     7
 10
703.5
 20
537.7
 40
2.5
  0
TEXT
  8
DATA
  6
CONTINUOUS
 62
     7
 10
681.410647
 20
530.7
 40
4.0
  1
+8V
  7
TTF_DEFAULT
  0
TEXT
  8
DATA
  6
CONTINUOUS
 62
     7
 10
668.966678
 20
530.7
 40
4.0
  1
+48V
  7
TTF_DEFAULT
  0
TEXT
  8
DATA
  6
CONTINUOUS
 62
     7
 10
657.466678
 20
530.7
 40
4.0
  1
+17V
  7
TTF_DEFAULT
  0
TEXT
  8
DATA
  6
CONTINUOUS
 62
     7
 10
638.224124
 20
530.7
 40
4.0
  1
LOW
  7
TTF_DEFAULT
  0
TEXT
  8
DATA
  6
CONTINUOUS
 62
     7
 10
636.679447
 20
525.7
 40
4.0
  1
MAINS
  7
TTF_DEFAULT
  0
CIRCLE
  8
DATA
  6
CONTINUOUS
 62
     7
 10
711.1
 20
509.0
 40
3.75
  0
LINE
  8
DATA
  6
CONTINUOUS
 62
     7
 10
709.1
 20
509.0
 11
713.1
 21
509.0
  0
LINE
  8
DATA
  6
CONTINUOUS
 62
     7
 10
711.1
 20
507.0
 11
711.1
 21
511.0
  0
TEXT
  8
DIMENSIONS
  6
CONTINUOUS
 62
     7
 10
850.0
 20
275.0
 40
25.0
  1
(単位 : mm)
  7
TTF_DEFAULT
  0
LINE
  8
DATA
  6
CONTINUOUS
 62
     7
 10
882.6
 20
500.0
 11
882.6
 21
632.5
  0
ARC
  8
DATA
  6
CONTINUOUS
 62
     7
 10
872.2
 20
594.8255
 40
3.25
 50
90.0
 51
270.0
  0
ARC
  8
DATA
  6
CONTINUOUS
 62
     7
 10
875.4
 20
594.8255
 40
3.25
 50
270.0
 51
90.0
  0
LINE
  8
DATA
  6
CONTINUOUS
 62
     7
 10
872.2
 20
591.5755
 11
875.4
 21
591.5755
  0
LINE
  8
DATA
  6
CONTINUOUS
 62
     7
 10
872.2
 20
598.0755
 11
875.4
 21
598.0755
  0
ARC
  8
DATA
  6
CONTINUOUS
 62
     7
 10
872.2
 20
537.6745
 40
3.25
 50
90.0
 51
270.0
  0
ARC
  8
DATA
  6
CONTINUOUS
 62
     7
 10
875.4
 20
537.6745
 40
3.25
 50
270.0
 51
90.0
  0
LINE
  8
DATA
  6
CONTINUOUS
 62
     7
 10
872.2
 20
534.4245
 11
875.4
 21
534.4245
  0
LINE
  8
DATA
  6
CONTINUOUS
 62
     7
 10
872.2
 20
540.9245
 11
875.4
 21
540.9245
  0
LINE
  8
DATA
  6
CONTINUOUS
 62
     7
 10
722.5
 20
622.7
 11
726.5
 21
622.7
  0
LINE
  8
DATA
  6
CONTINUOUS
 62
     7
 10
724.5
 20
620.7
 11
724.5
 21
624.7
  0
CIRCLE
  8
DATA
  6
CONTINUOUS
 62
     7
 10
849.6
 20
612.5
 40
3.75
  0
LINE
  8
DATA
  6
CONTINUOUS
 62
     7
 10
851.6
 20
612.5
 11
847.6
 21
612.5
  0
LINE
  8
DATA
  6
CONTINUOUS
 62
     7
 10
849.6
 20
610.5
 11
849.6
 21
614.5
  0
CIRCLE
  8
DATA
  6
CONTINUOUS
 62
     7
 10
765.1
 20
615.7
 40
1.5
  0
CIRCLE
  8
DATA
  6
CONTINUOUS
 62
     7
 10
770.1
 20
615.7
 40
1.5
  0
CIRCLE
  8
DATA
  6
CONTINUOUS
 62
     7
 10
775.1
 20
615.7
 40
1.5
  0
CIRCLE
  8
DATA
  6
CONTINUOUS
 62
     7
 10
780.1
 20
615.7
 40
1.5
  0
CIRCLE
  8
DATA
  6
CONTINUOUS
 62
     7
 10
785.1
 20
615.7
 40
1.5
  0
CIRCLE
  8
DATA
  6
CONTINUOUS
 62
     7
 10
790.1
 20
615.7
 40
1.5
  0
CIRCLE
  8
DATA
  6
CONTINUOUS
 62
     7
 10
795.1
 20
615.7
 40
1.5
  0
CIRCLE
  8
DATA
  6
CONTINUOUS
 62
     7
 10
800.1
 20
615.7
 40
1.5
  0
CIRCLE
  8
DATA
  6
CONTINUOUS
 62
     7
 10
805.1
 20
615.7
 40
1.5
  0
CIRCLE
  8
DATA
  6
CONTINUOUS
 62
     7
 10
810.1
 20
615.7
 40
1.5
  0
CIRCLE
  8
DATA
  6
CONTINUOUS
 62
     7
 10
815.1
 20
615.7
 40
1.5
  0
CIRCLE
  8
DATA
  6
CONTINUOUS
 62
     7
 10
820.1
 20
615.7
 40
1.5
  0
CIRCLE
  8
DATA
  6
CONTINUOUS
 62
     7
 10
825.1
 20
615.7
 40
1.5
  0
CIRCLE
  8
DATA
  6
CONTINUOUS
 62
     7
 10
830.1
 20
615.7
 40
1.5
  0
CIRCLE
  8
DATA
  6
CONTINUOUS
 62
     7
 10
835.1
 20
615.7
 40
1.5
  0
CIRCLE
  8
DATA
  6
CONTINUOUS
 62
     7
 10
840.1
 20
615.7
 40
1.5
  0
CIRCLE
  8
DATA
  6
CONTINUOUS
 62
     7
 10
765.1
 20
608.7
 40
1.5
  0
CIRCLE
  8
DATA
  6
CONTINUOUS
 62
     7
 10
770.1
 20
608.7
 40
1.5
  0
CIRCLE
  8
DATA
  6
CONTINUOUS
 62
     7
 10
775.1
 20
608.7
 40
1.5
  0
CIRCLE
  8
DATA
  6
CONTINUOUS
 62
     7
 10
780.1
 20
608.7
 40
1.5
  0
CIRCLE
  8
DATA
  6
CONTINUOUS
 62
     7
 10
785.1
 20
608.7
 40
1.5
  0
CIRCLE
  8
DATA
  6
CONTINUOUS
 62
     7
 10
790.1
 20
608.7
 40
1.5
  0
CIRCLE
  8
DATA
  6
CONTINUOUS
 62
     7
 10
795.1
 20
608.7
 40
1.5
  0
CIRCLE
  8
DATA
  6
CONTINUOUS
 62
     7
 10
800.1
 20
608.7
 40
1.5
  0
CIRCLE
  8
DATA
  6
CONTINUOUS
 62
     7
 10
805.1
 20
608.7
 40
1.5
  0
CIRCLE
  8
DATA
  6
CONTINUOUS
 62
     7
 10
810.1
 20
608.7
 40
1.5
  0
CIRCLE
  8
DATA
  6
CONTINUOUS
 62
     7
 10
815.1
 20
608.7
 40
1.5
  0
CIRCLE
  8
DATA
  6
CONTINUOUS
 62
     7
 10
820.1
 20
608.7
 40
1.5
  0
CIRCLE
  8
DATA
  6
CONTINUOUS
 62
     7
 10
825.1
 20
608.7
 40
1.5
  0
CIRCLE
  8
DATA
  6
CONTINUOUS
 62
     7
 10
830.1
 20
608.7
 40
1.5
  0
CIRCLE
  8
DATA
  6
CONTINUOUS
 62
     7
 10
835.1
 20
608.7
 40
1.5
  0
CIRCLE
  8
DATA
  6
CONTINUOUS
 62
     7
 10
840.1
 20
608.7
 40
1.5
  0
CIRCLE
  8
DATA
  6
CONTINUOUS
 62
     7
 10
740.1
 20
601.7
 40
1.5
  0
CIRCLE
  8
DATA
  6
CONTINUOUS
 62
     7
 10
745.1
 20
601.7
 40
1.5
  0
CIRCLE
  8
DATA
  6
CONTINUOUS
 62
     7
 10
750.1
 20
601.7
 40
1.5
  0
CIRCLE
  8
DATA
  6
CONTINUOUS
 62
     7
 10
755.1
 20
601.7
 40
1.5
  0
CIRCLE
  8
DATA
  6
CONTINUOUS
 62
     7
 10
760.1
 20
601.7
 40
1.5
  0
CIRCLE
  8
DATA
  6
CONTINUOUS
 62
     7
 10
765.1
 20
601.7
 40
1.5
  0
CIRCLE
  8
DATA
  6
CONTINUOUS
 62
     7
 10
770.1
 20
601.7
 40
1.5
  0
CIRCLE
  8
DATA
  6
CONTINUOUS
 62
     7
 10
775.1
 20
601.7
 40
1.5
  0
CIRCLE
  8
DATA
  6
CONTINUOUS
 62
     7
 10
780.1
 20
601.7
 40
1.5
  0
CIRCLE
  8
DATA
  6
CONTINUOUS
 62
     7
 10
785.1
 20
601.7
 40
1.5
  0
CIRCLE
  8
DATA
  6
CONTINUOUS
 62
     7
 10
790.1
 20
601.7
 40
1.5
  0
CIRCLE
  8
DATA
  6
CONTINUOUS
 62
     7
 10
795.1
 20
601.7
 40
1.5
  0
CIRCLE
  8
DATA
  6
CONTINUOUS
 62
     7
 10
800.1
 20
601.7
 40
1.5
  0
CIRCLE
  8
DATA
  6
CONTINUOUS
 62
     7
 10
805.1
 20
601.7
 40
1.5
  0
CIRCLE
  8
DATA
  6
CONTINUOUS
 62
     7
 10
810.1
 20
601.7
 40
1.5
  0
CIRCLE
  8
DATA
  6
CONTINUOUS
 62
     7
 10
815.1
 20
601.7
 40
1.5
  0
CIRCLE
  8
DATA
  6
CONTINUOUS
 62
     7
 10
820.1
 20
601.7
 40
1.5
  0
CIRCLE
  8
DATA
  6
CONTINUOUS
 62
     7
 10
825.1
 20
601.7
 40
1.5
  0
CIRCLE
  8
DATA
  6
CONTINUOUS
 62
     7
 10
830.1
 20
601.7
 40
1.5
  0
CIRCLE
  8
DATA
  6
CONTINUOUS
 62
     7
 10
835.1
 20
601.7
 40
1.5
  0
CIRCLE
  8
DATA
  6
CONTINUOUS
 62
     7
 10
840.1
 20
601.7
 40
1.5
  0
CIRCLE
  8
DATA
  6
CONTINUOUS
 62
     7
 10
746.5
 20
612.5
 40
3.75
  0
LINE
  8
DATA
  6
CONTINUOUS
 62
     7
 10
744.5
 20
612.5
 11
748.5
 21
612.5
  0
LINE
  8
DATA
  6
CONTINUOUS
 62
     7
 10
746.5
 20
610.5
 11
746.5
 21
614.5
  0
CIRCLE
  8
DATA
  6
CONTINUOUS
 62
     7
 10
740.1
 20
594.7
 40
1.5
  0
CIRCLE
  8
DATA
  6
CONTINUOUS
 62
     7
 10
745.1
 20
594.7
 40
1.5
  0
CIRCLE
  8
DATA
  6
CONTINUOUS
 62
     7
 10
750.1
 20
594.7
 40
1.5
  0
CIRCLE
  8
DATA
  6
CONTINUOUS
 62
     7
 10
755.1
 20
594.7
 40
1.5
  0
CIRCLE
  8
DATA
  6
CONTINUOUS
 62
     7
 10
760.1
 20
594.7
 40
1.5
  0
CIRCLE
  8
DATA
  6
CONTINUOUS
 62
     7
 10
765.1
 20
594.7
 40
1.5
  0
CIRCLE
  8
DATA
  6
CONTINUOUS
 62
     7
 10
770.1
 20
594.7
 40
1.5
  0
CIRCLE
  8
DATA
  6
CONTINUOUS
 62
     7
 10
740.1
 20
587.7
 40
1.5
  0
CIRCLE
  8
DATA
  6
CONTINUOUS
 62
     7
 10
745.1
 20
587.7
 40
1.5
  0
CIRCLE
  8
DATA
  6
CONTINUOUS
 62
     7
 10
750.1
 20
587.7
 40
1.5
  0
CIRCLE
  8
DATA
  6
CONTINUOUS
 62
     7
 10
755.1
 20
587.7
 40
1.5
  0
CIRCLE
  8
DATA
  6
CONTINUOUS
 62
     7
 10
760.1
 20
587.7
 40
1.5
  0
CIRCLE
  8
DATA
  6
CONTINUOUS
 62
     7
 10
765.1
 20
587.7
 40
1.5
  0
CIRCLE
  8
DATA
  6
CONTINUOUS
 62
     7
 10
770.1
 20
587.7
 40
1.5
  0
CIRCLE
  8
DATA
  6
CONTINUOUS
 62
     7
 10
740.1
 20
580.7
 40
1.5
  0
CIRCLE
  8
DATA
  6
CONTINUOUS
 62
     7
 10
745.1
 20
580.7
 40
1.5
  0
CIRCLE
  8
DATA
  6
CONTINUOUS
 62
     7
 10
750.1
 20
580.7
 40
1.5
  0
CIRCLE
  8
DATA
  6
CONTINUOUS
 62
     7
 10
755.1
 20
580.7
 40
1.5
  0
CIRCLE
  8
DATA
  6
CONTINUOUS
 62
     7
 10
760.1
 20
580.7
 40
1.5
  0
CIRCLE
  8
DATA
  6
CONTINUOUS
 62
     7
 10
765.1
 20
580.7
 40
1.5
  0
CIRCLE
  8
DATA
  6
CONTINUOUS
 62
     7
 10
770.1
 20
580.7
 40
1.5
  0
CIRCLE
  8
DATA
  6
CONTINUOUS
 62
     7
 10
740.1
 20
573.7
 40
1.5
  0
CIRCLE
  8
DATA
  6
CONTINUOUS
 62
     7
 10
745.1
 20
573.7
 40
1.5
  0
CIRCLE
  8
DATA
  6
CONTINUOUS
 62
     7
 10
750.1
 20
573.7
 40
1.5
  0
CIRCLE
  8
DATA
  6
CONTINUOUS
 62
     7
 10
755.1
 20
573.7
 40
1.5
  0
CIRCLE
  8
DATA
  6
CONTINUOUS
 62
     7
 10
760.1
 20
573.7
 40
1.5
  0
CIRCLE
  8
DATA
  6
CONTINUOUS
 62
     7
 10
765.1
 20
573.7
 40
1.5
  0
CIRCLE
  8
DATA
  6
CONTINUOUS
 62
     7
 10
770.1
 20
573.7
 40
1.5
  0
CIRCLE
  8
DATA
  6
CONTINUOUS
 62
     7
 10
740.1
 20
566.7
 40
1.5
  0
CIRCLE
  8
DATA
  6
CONTINUOUS
 62
     7
 10
745.1
 20
566.7
 40
1.5
  0
CIRCLE
  8
DATA
  6
CONTINUOUS
 62
     7
 10
750.1
 20
566.7
 40
1.5
  0
CIRCLE
  8
DATA
  6
CONTINUOUS
 62
     7
 10
755.1
 20
566.7
 40
1.5
  0
CIRCLE
  8
DATA
  6
CONTINUOUS
 62
     7
 10
760.1
 20
566.7
 40
1.5
  0
CIRCLE
  8
DATA
  6
CONTINUOUS
 62
     7
 10
765.1
 20
566.7
 40
1.5
  0
CIRCLE
  8
DATA
  6
CONTINUOUS
 62
     7
 10
770.1
 20
566.7
 40
1.5
  0
CIRCLE
  8
DATA
  6
CONTINUOUS
 62
     7
 10
740.1
 20
559.7
 40
1.5
  0
CIRCLE
  8
DATA
  6
CONTINUOUS
 62
     7
 10
745.1
 20
559.7
 40
1.5
  0
CIRCLE
  8
DATA
  6
CONTINUOUS
 62
     7
 10
750.1
 20
559.7
 40
1.5
  0
CIRCLE
  8
DATA
  6
CONTINUOUS
 62
     7
 10
755.1
 20
559.7
 40
1.5
  0
CIRCLE
  8
DATA
  6
CONTINUOUS
 62
     7
 10
760.1
 20
559.7
 40
1.5
  0
CIRCLE
  8
DATA
  6
CONTINUOUS
 62
     7
 10
765.1
 20
559.7
 40
1.5
  0
CIRCLE
  8
DATA
  6
CONTINUOUS
 62
     7
 10
770.1
 20
559.7
 40
1.5
  0
CIRCLE
  8
DATA
  6
CONTINUOUS
 62
     7
 10
740.1
 20
552.7
 40
1.5
  0
CIRCLE
  8
DATA
  6
CONTINUOUS
 62
     7
 10
745.1
 20
552.7
 40
1.5
  0
CIRCLE
  8
DATA
  6
CONTINUOUS
 62
     7
 10
750.1
 20
552.7
 40
1.5
  0
CIRCLE
  8
DATA
  6
CONTINUOUS
 62
     7
 10
755.1
 20
552.7
 40
1.5
  0
CIRCLE
  8
DATA
  6
CONTINUOUS
 62
     7
 10
760.1
 20
552.7
 40
1.5
  0
CIRCLE
  8
DATA
  6
CONTINUOUS
 62
     7
 10
765.1
 20
552.7
 40
1.5
  0
CIRCLE
  8
DATA
  6
CONTINUOUS
 62
     7
 10
770.1
 20
552.7
 40
1.5
  0
CIRCLE
  8
DATA
  6
CONTINUOUS
 62
     7
 10
740.1
 20
545.7
 40
1.5
  0
CIRCLE
  8
DATA
  6
CONTINUOUS
 62
     7
 10
745.1
 20
545.7
 40
1.5
  0
CIRCLE
  8
DATA
  6
CONTINUOUS
 62
     7
 10
750.1
 20
545.7
 40
1.5
  0
CIRCLE
  8
DATA
  6
CONTINUOUS
 62
     7
 10
755.1
 20
545.7
 40
1.5
  0
CIRCLE
  8
DATA
  6
CONTINUOUS
 62
     7
 10
760.1
 20
545.7
 40
1.5
  0
CIRCLE
  8
DATA
  6
CONTINUOUS
 62
     7
 10
765.1
 20
545.7
 40
1.5
  0
CIRCLE
  8
DATA
  6
CONTINUOUS
 62
     7
 10
770.1
 20
545.7
 40
1.5
  0
CIRCLE
  8
DATA
  6
CONTINUOUS
 62
     7
 10
740.1
 20
528.7
 40
1.5
  0
CIRCLE
  8
DATA
  6
CONTINUOUS
 62
     7
 10
745.1
 20
528.7
 40
1.5
  0
CIRCLE
  8
DATA
  6
CONTINUOUS
 62
     7
 10
750.1
 20
528.7
 40
1.5
  0
CIRCLE
  8
DATA
  6
CONTINUOUS
 62
     7
 10
755.1
 20
528.7
 40
1.5
  0
CIRCLE
  8
DATA
  6
CONTINUOUS
 62
     7
 10
760.1
 20
528.7
 40
1.5
  0
CIRCLE
  8
DATA
  6
CONTINUOUS
 62
     7
 10
765.1
 20
528.7
 40
1.5
  0
CIRCLE
  8
DATA
  6
CONTINUOUS
 62
     7
 10
770.1
 20
528.7
 40
1.5
  0
CIRCLE
  8
DATA
  6
CONTINUOUS
 62
     7
 10
740.1
 20
521.7
 40
1.5
  0
CIRCLE
  8
DATA
  6
CONTINUOUS
 62
     7
 10
745.1
 20
521.7
 40
1.5
  0
CIRCLE
  8
DATA
  6
CONTINUOUS
 62
     7
 10
750.1
 20
521.7
 40
1.5
  0
CIRCLE
  8
DATA
  6
CONTINUOUS
 62
     7
 10
755.1
 20
521.7
 40
1.5
  0
CIRCLE
  8
DATA
  6
CONTINUOUS
 62
     7
 10
760.1
 20
521.7
 40
1.5
  0
CIRCLE
  8
DATA
  6
CONTINUOUS
 62
     7
 10
765.1
 20
521.7
 40
1.5
  0
CIRCLE
  8
DATA
  6
CONTINUOUS
 62
     7
 10
770.1
 20
521.7
 40
1.5
  0
CIRCLE
  8
DATA
  6
CONTINUOUS
 62
     7
 10
740.1
 20
514.7
 40
1.5
  0
CIRCLE
  8
DATA
  6
CONTINUOUS
 62
     7
 10
745.1
 20
514.7
 40
1.5
  0
CIRCLE
  8
DATA
  6
CONTINUOUS
 62
     7
 10
750.1
 20
514.7
 40
1.5
  0
CIRCLE
  8
DATA
  6
CONTINUOUS
 62
     7
 10
755.1
 20
514.7
 40
1.5
  0
CIRCLE
  8
DATA
  6
CONTINUOUS
 62
     7
 10
760.1
 20
514.7
 40
1.5
  0
CIRCLE
  8
DATA
  6
CONTINUOUS
 62
     7
 10
765.1
 20
514.7
 40
1.5
  0
CIRCLE
  8
DATA
  6
CONTINUOUS
 62
     7
 10
770.1
 20
514.7
 40
1.5
  0
CIRCLE
  8
DATA
  6
CONTINUOUS
 62
     7
 10
775.1
 20
514.7
 40
1.5
  0
CIRCLE
  8
DATA
  6
CONTINUOUS
 62
     7
 10
780.1
 20
514.7
 40
1.5
  0
CIRCLE
  8
DATA
  6
CONTINUOUS
 62
     7
 10
785.1
 20
514.7
 40
1.5
  0
CIRCLE
  8
DATA
  6
CONTINUOUS
 62
     7
 10
790.1
 20
514.7
 40
1.5
  0
CIRCLE
  8
DATA
  6
CONTINUOUS
 62
     7
 10
795.1
 20
514.7
 40
1.5
  0
ARC
  8
DATA
  6
CONTINUOUS
 62
     7
 10
789.0
 20
591.1
 40
3.9
 50
90.0
 51
270.0
  0
ARC
  8
DATA
  6
CONTINUOUS
 62
     7
 10
841.2
 20
591.1
 40
3.9
 50
270.0
 51
90.0
  0
LINE
  8
DATA
  6
CONTINUOUS
 62
     7
 10
789.0
 20
587.2
 11
841.2
 21
587.2
  0
LINE
  8
DATA
  6
CONTINUOUS
 62
     7
 10
789.0
 20
595.0
 11
841.2
 21
595.0
  0
ARC
  8
DATA
  6
CONTINUOUS
 62
     7
 10
789.0
 20
578.35
 40
3.9
 50
90.0
 51
270.0
  0
ARC
  8
DATA
  6
CONTINUOUS
 62
     7
 10
841.2
 20
578.35
 40
3.9
 50
270.0
 51
90.0
  0
LINE
  8
DATA
  6
CONTINUOUS
 62
     7
 10
789.0
 20
574.45
 11
841.2
 21
574.45
  0
LINE
  8
DATA
  6
CONTINUOUS
 62
     7
 10
789.0
 20
582.25
 11
841.2
 21
582.25
  0
ARC
  8
DATA
  6
CONTINUOUS
 62
     7
 10
789.0
 20
565.6
 40
3.9
 50
90.0
 51
270.0
  0
ARC
  8
DATA
  6
CONTINUOUS
 62
     7
 10
841.2
 20
565.6
 40
3.9
 50
270.0
 51
90.0
  0
LINE
  8
DATA
  6
CONTINUOUS
 62
     7
 10
789.0
 20
561.7
 11
841.2
 21
561.7
  0
LINE
  8
DATA
  6
CONTINUOUS
 62
     7
 10
789.0
 20
569.5
 11
841.2
 21
569.5
  0
ARC
  8
DATA
  6
CONTINUOUS
 62
     7
 10
789.0
 20
552.85
 40
3.9
 50
90.0
 51
270.0
  0
ARC
  8
DATA
  6
CONTINUOUS
 62
     7
 10
841.2
 20
552.85
 40
3.9
 50
270.0
 51
90.0
  0
LINE
  8
DATA
  6
CONTINUOUS
 62
     7
 10
789.0
 20
548.95
 11
841.2
 21
548.95
  0
LINE
  8
DATA
  6
CONTINUOUS
 62
     7
 10
789.0
 20
556.75
 11
841.2
 21
556.75
  0
ARC
  8
DATA
  6
CONTINUOUS
 62
     7
 10
789.0
 20
540.1
 40
3.9
 50
90.0
 51
270.0
  0
ARC
  8
DATA
  6
CONTINUOUS
 62
     7
 10
841.2
 20
540.1
 40
3.9
 50
270.0
 51
90.0
  0
LINE
  8
DATA
  6
CONTINUOUS
 62
     7
 10
789.0
 20
536.2
 11
841.2
 21
536.2
  0
LINE
  8
DATA
  6
CONTINUOUS
 62
     7
 10
789.0
 20
544.0
 11
841.2
 21
544.0
  0
ARC
  8
DATA
  6
CONTINUOUS
 62
     7
 10
841.2
 20
527.35
 40
3.9
 50
270.0
 51
90.0
  0
ARC
  8
DATA
  6
CONTINUOUS
 62
     7
 10
794.5
 20
527.35
 40
3.9
 50
90.0
 51
270.0
  0
LINE
  8
DATA
  6
CONTINUOUS
 62
     7
 10
794.5
 20
531.25
 11
841.2
 21
531.25
  0
LINE
  8
DATA
  6
CONTINUOUS
 62
     7
 10
794.5
 20
523.45
 11
841.2
 21
523.45
  0
ARC
  8
DATA
  6
CONTINUOUS
 62
     7
 10
833.7
 20
514.6
 40
3.9
 50
270.0
 51
90.0
  0
ARC
  8
DATA
  6
CONTINUOUS
 62
     7
 10
809.5
 20
514.6
 40
3.9
 50
90.0
 51
270.0
  0
LINE
  8
DATA
  6
CONTINUOUS
 62
     7
 10
809.5
 20
510.7
 11
833.7
 21
510.7
  0
LINE
  8
DATA
  6
CONTINUOUS
 62
     7
 10
809.5
 20
518.5
 11
833.7
 21
518.5
  0
CIRCLE
  8
DATA
  6
CONTINUOUS
 62
     7
 10
849.6
 20
509.0
 40
3.75
  0
LINE
  8
DATA
  6
CONTINUOUS
 62
     7
 10
851.6
 20
509.0
 11
847.6
 21
509.0
  0
LINE
  8
DATA
  6
CONTINUOUS
 62
     7
 10
849.6
 20
507.0
 11
849.6
 21
511.0
  0
TEXT
  8
DATA
  6
CONTINUOUS
 62
     7
 10
748.6
 20
505.7
 40
3.5
  1
DO NOT COVER ANY VENTILATION SLOTS AS THIS
  7
TTF_DEFAULT
  0
TEXT
  8
DATA
  6
CONTINUOUS
 62
     7
 10
748.6
 20
501.7
 40
3.5
  1
MAY CAUSE THE EQUIPMENT TO OVERHEAT
  7
TTF_DEFAULT
  0
LINE
  8
DATA
  6
CONTINUOUS
 62
     7
 10
834.3
 20
490.0
 11
852.3
 21
490.0
  0
LINE
  8
DATA
  6
CONTINUOUS
 62
     7
 10
834.3
 20
490.0
 11
833.3
 21
500.0
  0
LINE
  8
DATA
  6
CONTINUOUS
 62
     7
 10
852.3
 20
490.0
 11
853.3
 21
500.0
  0
LINE
  8
DATA
  6
CONTINUOUS
 62
     7
 10
633.3
 20
1400.0
 11
844.3
 21
1400.0
  0
TEXT
  8
DATA
  6
CONTINUOUS
 62
     7
 10
724.8
 20
1414.5
 40
4.0
  1
WARNING:
 50
180.0
  7
TTF_DEFAULT
  0
LINE
  8
DATA
  6
CONTINUOUS
 62
     7
 10
516.0
 20
889.5
 11
599.5
 21
889.5
  0
LINE
  8
DATA
  6
CONTINUOUS
 62
     7
 10
599.5
 20
889.5
 11
599.5
 21
900.0
  0
ARC
  8
DATA
  6
CONTINUOUS
 62
     7
 10
642.0
 20
900.5625
 40
2.5625
 50
192.680383
 51
347.319617
  0
ARC
  8
DATA
  6
CONTINUOUS
 62
     7
 10
661.5
 20
900.5625
 40
2.5625
 50
192.680383
 51
347.319617
  0
ARC
  8
DATA
  6
CONTINUOUS
 62
     7
 10
673.0
 20
900.5625
 40
2.5625
 50
192.680383
 51
347.319617
  0
ARC
  8
DATA
  6
CONTINUOUS
 62
     7
 10
684.5
 20
900.5625
 40
2.5625
 50
192.680383
 51
347.319617
  0
ARC
  8
DATA
  6
CONTINUOUS
 62
     7
 10
703.5
 20
900.5625
 40
2.5625
 50
192.680383
 51
347.319617
  0
LINE
  8
DATA
  6
CONTINUOUS
 62
     7
 10
500.5
 20
897.8
 11
526.5
 21
897.8
  0
LINE
  8
DATA
  6
CONTINUOUS
 62
     7
 10
503.5
 20
893.0
 11
523.5
 21
893.0
  0
LINE
  8
DATA
  6
CONTINUOUS
 62
     7
 10
523.5
 20
893.0
 11
523.5
 21
897.8
  0
LINE
  8
DATA
  6
CONTINUOUS
 62
     7
 10
503.5
 20
893.0
 11
503.5
 21
897.8
  0
LINE
  8
DATA
  6
CONTINUOUS
 62
     7
 10
500.5
 20
897.8
 11
500.5
 21
900.0
  0
LINE
  8
DATA
  6
CONTINUOUS
 62
     7
 10
526.5
 20
897.8
 11
526.5
 21
900.0
  0
LINE
  8
DATA
  6
CONTINUOUS
 62
     7
 10
510.5
 20
889.5
 11
510.5
 21
893.0
  0
LINE
  8
DATA
  6
CONTINUOUS
 62
     7
 10
516.0
 20
889.5
 11
516.0
 21
893.0
  0
TEXT
  8
DIMENSIONS
  6
CONTINUOUS
 62
     7
 10
619.494102
 20
712.5
 40
25.0
  1
465
  7
TTF_DEFAULT
  0
TEXT
  8
DIMENSIONS
  6
CONTINUOUS
 62
     7
 10
612.964057
 20
762.5
 40
25.0
  1
482.6
  7
TTF_DEFAULT
  0
CIRCLE
  8
DATA
  6
CONTINUOUS
 62
     7
 10
629.3
 20
1242.5
 40
4.5
  0
CIRCLE
  8
DATA
  6
CONTINUOUS
 62
     7
 10
629.3
 20
1242.5
 40
4.0
  0
LINE
  8
DATA
  6
CONTINUOUS
 62
     7
 10
626.8
 20
1242.5
 11
631.8
 21
1242.5
  0
LINE
  8
DATA
  6
CONTINUOUS
 62
     7
 10
629.3
 20
1240.0
 11
629.3
 21
1245.0
  0
LINE
  8
DATA
  6
CONTINUOUS
 62
     7
 10
662.1
 20
1255.8
 11
662.1
 21
1256.8
  0
LINE
  8
DATA
  6
CONTINUOUS
 62
     7
 10
656.6
 20
1255.8
 11
656.6
 21
1256.8
  0
ARC
  8
DATA
  6
CONTINUOUS
 62
     7
 10
659.35
 20
1253.9125
 40
3.9875
 50
46.397181
 51
133.602819
  0
LINE
  8
DATA
  6
CONTINUOUS
 62
     7
 10
628.0
 20
1255.8
 11
628.0
 21
1256.8
  0
LINE
  8
DATA
  6
CONTINUOUS
 62
     7
 10
622.5
 20
1255.8
 11
622.5
 21
1256.8
  0
ARC
  8
DATA
  6
CONTINUOUS
 62
     7
 10
625.25
 20
1253.9125
 40
3.9875
 50
46.397181
 51
133.602819
  0
LINE
  8
DATA
  6
CONTINUOUS
 62
     7
 10
624.3
 20
1277.5
 11
660.3
 21
1277.5
  0
LINE
  8
DATA
  6
CONTINUOUS
 62
     7
 10
660.3
 20
1277.5
 11
660.3
 21
1266.5
  0
LINE
  8
DATA
  6
CONTINUOUS
 62
     7
 10
624.3
 20
1277.5
 11
624.3
 21
1266.5
  0
LINE
  8
DATA
  6
CONTINUOUS
 62
     7
 10
621.3
 20
1266.5
 11
663.3
 21
1266.5
  0
LINE
  8
DATA
  6
CONTINUOUS
 62
     7
 10
663.3
 20
1255.8
 11
663.3
 21
1266.5
  0
LINE
  8
DATA
  6
CONTINUOUS
 62
     7
 10
621.3
 20
1255.8
 11
621.3
 21
1266.5
  0
LINE
  8
DATA
  6
CONTINUOUS
 62
     7
 10
666.8
 20
1252.0
 11
666.8
 21
1253.0
  0
LINE
  8
DATA
  6
CONTINUOUS
 62
     7
 10
617.8
 20
1252.0
 11
617.8
 21
1253.0
  0
LINE
  8
DATA
  6
CONTINUOUS
 62
     7
 10
617.8
 20
1253.0
 11
666.8
 21
1253.0
  0
LINE
  8
DATA
  6
CONTINUOUS
 62
     7
 10
665.3
 20
1253.0
 11
665.3
 21
1255.8
  0
LINE
  8
DATA
  6
CONTINUOUS
 62
     7
 10
619.3
 20
1253.0
 11
619.3
 21
1255.8
  0
LINE
  8
DATA
  6
CONTINUOUS
 62
     7
 10
619.3
 20
1255.8
 11
665.3
 21
1255.8
  0
LINE
  8
DATA
  6
CONTINUOUS
 62
     7
 10
582.1
 20
1255.8
 11
582.1
 21
1256.8
  0
LINE
  8
DATA
  6
CONTINUOUS
 62
     7
 10
576.6
 20
1255.8
 11
576.6
 21
1256.8
  0
ARC
  8
DATA
  6
CONTINUOUS
 62
     7
 10
579.35
 20
1253.9125
 40
3.9875
 50
46.397181
 51
133.602819
  0
LINE
  8
DATA
  6
CONTINUOUS
 62
     7
 10
548.0
 20
1255.8
 11
548.0
 21
1256.8
  0
LINE
  8
DATA
  6
CONTINUOUS
 62
     7
 10
542.5
 20
1255.8
 11
542.5
 21
1256.8
  0
ARC
  8
DATA
  6
CONTINUOUS
 62
     7
 10
545.25
 20
1253.9125
 40
3.9875
 50
46.397181
 51
133.602819
  0
LINE
  8
DATA
  6
CONTINUOUS
 62
     7
 10
544.3
 20
1277.5
 11
580.3
 21
1277.5
  0
LINE
  8
DATA
  6
CONTINUOUS
 62
     7
 10
580.3
 20
1277.5
 11
580.3
 21
1266.5
  0
LINE
  8
DATA
  6
CONTINUOUS
 62
     7
 10
544.3
 20
1277.5
 11
544.3
 21
1266.5
  0
LINE
  8
DATA
  6
CONTINUOUS
 62
     7
 10
541.3
 20
1266.5
 11
583.3
 21
1266.5
  0
LINE
  8
DATA
  6
CONTINUOUS
 62
     7
 10
583.3
 20
1255.8
 11
583.3
 21
1266.5
  0
LINE
  8
DATA
  6
CONTINUOUS
 62
     7
 10
541.3
 20
1255.8
 11
541.3
 21
1266.5
  0
LINE
  8
DATA
  6
CONTINUOUS
 62
     7
 10
586.8
 20
1252.0
 11
586.8
 21
1253.0
  0
LINE
  8
DATA
  6
CONTINUOUS
 62
     7
 10
537.8
 20
1252.0
 11
537.8
 21
1253.0
  0
LINE
  8
DATA
  6
CONTINUOUS
 62
     7
 10
537.8
 20
1253.0
 11
586.8
 21
1253.0
  0
LINE
  8
DATA
  6
CONTINUOUS
 62
     7
 10
585.3
 20
1253.0
 11
585.3
 21
1255.8
  0
LINE
  8
DATA
  6
CONTINUOUS
 62
     7
 10
539.3
 20
1253.0
 11
539.3
 21
1255.8
  0
LINE
  8
DATA
  6
CONTINUOUS
 62
     7
 10
539.3
 20
1255.8
 11
585.3
 21
1255.8
  0
LINE
  8
DATA
  6
CONTINUOUS
 62
     7
 10
503.3
 20
1252.0
 11
503.3
 21
1255.2
  0
LINE
  8
DATA
  6
CONTINUOUS
 62
     7
 10
633.8
 20
1401.7
 11
624.8
 21
1401.7
  0
LINE
  8
DATA
  6
CONTINUOUS
 62
     7
 10
624.8
 20
1402.5
 11
624.8
 21
1401.7
  0
LINE
  8
DATA
  6
CONTINUOUS
 62
     7
 10
633.8
 20
1402.5
 11
633.8
 21
1401.7
  0
ARC
  8
DATA
  6
CONTINUOUS
 62
     7
 10
629.3
 20
1412.933333
 40
13.633333
 50
252.938469
 51
287.061531
  0
LINE
  8
DATA
  6
CONTINUOUS
 62
     7
 10
633.3
 20
1399.9
 11
625.3
 21
1399.9
  0
LINE
  8
DATA
  6
CONTINUOUS
 62
     7
 10
633.3
 20
1399.9
 11
633.3
 21
1401.7
  0
LINE
  8
DATA
  6
CONTINUOUS
 62
     7
 10
625.3
 20
1399.9
 11
625.3
 21
1401.7
  0
TEXT
  8
DATA
  6
CONTINUOUS
 62
     7
 10
704.8
 20
1414.5
 40
3.0
  1
TO REDUCE THE RISK
 50
180.0
  7
TTF_DEFAULT
  0
TEXT
  8
DIMENSIONS
  6
CONTINUOUS
 62
     7
 10
621.998103
 20
1337.5
 40
25.0
  1
443
  7
TTF_DEFAULT
  0
LINE
  8
DATA
  6
CONTINUOUS
 62
     7
 10
858.3
 20
903.2
 11
858.3
 21
1252.0
  0
LINE
  8
DIMENSIONS
  6
CONTINUOUS
 62
     7
 10
862.8
 20
925.7
 11
862.8
 21
1337.5
  0
LINE
  8
DATA
  6
CONTINUOUS
 62
     7
 10
860.3
 20
905.2
 11
860.3
 21
928.2
  0
LINE
  8
DATA
  6
CONTINUOUS
 62
     7
 10
860.3
 20
905.2
 11
882.6
 21
905.2
  0
LINE
  8
DATA
  6
CONTINUOUS
 62
     7
 10
882.6
 20
905.2
 11
882.6
 21
900.0
  0
LINE
  8
DATA
  6
CONTINUOUS
 62
     7
 10
859.1
 20
1022.7
 11
859.1
 21
1013.7
  0
LINE
  8
DATA
  6
CONTINUOUS
 62
     7
 10
858.3
 20
1013.7
 11
859.1
 21
1013.7
  0
LINE
  8
DATA
  6
CONTINUOUS
 62
     7
 10
858.3
 20
1022.7
 11
859.1
 21
1022.7
  0
ARC
  8
DATA
  6
CONTINUOUS
 62
     7
 10
847.866667
 20
1018.2
 40
13.633333
 50
342.938469
 51
17.061531
  0
LINE
  8
DATA
  6
CONTINUOUS
 62
     7
 10
860.9
 20
1022.2
 11
860.9
 21
1014.2
  0
LINE
  8
DATA
  6
CONTINUOUS
 62
     7
 10
860.9
 20
1022.2
 11
859.1
 21
1022.2
  0
LINE
  8
DATA
  6
CONTINUOUS
 62
     7
 10
860.9
 20
1014.2
 11
859.1
 21
1014.2
  0
CIRCLE
  8
DATA
  6
CONTINUOUS
 62
     7
 10
848.3
 20
954.0
 40
4.5
  0
CIRCLE
  8
DATA
  6
CONTINUOUS
 62
     7
 10
848.3
 20
954.0
 40
4.0
  0
LINE
  8
DATA
  6
CONTINUOUS
 62
     7
 10
845.8
 20
954.0
 11
850.8
 21
954.0
  0
LINE
  8
DATA
  6
CONTINUOUS
 62
     7
 10
848.3
 20
951.5
 11
848.3
 21
956.5
  0
LINE
  8
DATA
  6
CONTINUOUS
 62
     7
 10
860.3
 20
928.2
 11
858.3
 21
928.2
  0
LINE
  8
DATA
  6
CONTINUOUS
 62
     7
 10
859.1
 20
933.7
 11
859.1
 21
942.7
  0
LINE
  8
DATA
  6
CONTINUOUS
 62
     7
 10
858.3
 20
933.7
 11
859.1
 21
933.7
  0
LINE
  8
DATA
  6
CONTINUOUS
 62
     7
 10
858.3
 20
942.7
 11
859.1
 21
942.7
  0
ARC
  8
DATA
  6
CONTINUOUS
 62
     7
 10
847.866667
 20
938.2
 40
13.633333
 50
342.938469
 51
17.061531
  0
LINE
  8
DATA
  6
CONTINUOUS
 62
     7
 10
860.9
 20
942.2
 11
860.9
 21
934.2
  0
LINE
  8
DATA
  6
CONTINUOUS
 62
     7
 10
860.9
 20
942.2
 11
859.1
 21
942.2
  0
LINE
  8
DATA
  6
CONTINUOUS
 62
     7
 10
860.9
 20
934.2
 11
859.1
 21
934.2
  0
LINE
  8
DIMENSIONS
  6
CONTINUOUS
 62
     7
 10
862.6
 20
746.6668
 11
882.6
 21
750.0
  0
LINE
  8
DIMENSIONS
  6
CONTINUOUS
 62
     7
 10
862.6
 20
753.3332
 11
882.6
 21
750.0
  0
LINE
  8
DIMENSIONS
  6
CONTINUOUS
 62
     7
 10
853.8
 20
696.6668
 11
873.8
 21
700.0
  0
LINE
  8
DIMENSIONS
  6
CONTINUOUS
 62
     7
 10
853.8
 20
703.3332
 11
873.8
 21
700.0
  0
LINE
  8
DATA
  6
CONTINUOUS
 62
     7
 10
862.2
 20
919.45
 11
862.2
 21
911.95
  0
ARC
  8
DATA
  6
CONTINUOUS
 62
     7
 10
850.78125
 20
915.7
 40
12.01875
 50
341.819446
 51
18.180554
  0
LINE
  8
DATA
  6
CONTINUOUS
 62
     7
 10
860.3
 20
919.45
 11
862.2
 21
919.45
  0
LINE
  8
DATA
  6
CONTINUOUS
 62
     7
 10
860.3
 20
911.95
 11
862.2
 21
911.95
  0
CIRCLE
  8
DATA
  6
CONTINUOUS
 62
     7
 10
848.3
 20
1113.0
 40
4.5
  0
CIRCLE
  8
DATA
  6
CONTINUOUS
 62
     7
 10
848.3
 20
1113.0
 40
4.0
  0
LINE
  8
DATA
  6
CONTINUOUS
 62
     7
 10
845.8
 20
1113.0
 11
850.8
 21
1113.0
  0
LINE
  8
DATA
  6
CONTINUOUS
 62
     7
 10
848.3
 20
1110.5
 11
848.3
 21
1115.5
  0
CIRCLE
  8
DATA
  6
CONTINUOUS
 62
     7
 10
848.3
 20
1242.5
 40
4.5
  0
CIRCLE
  8
DATA
  6
CONTINUOUS
 62
     7
 10
848.3
 20
1242.5
 40
4.0
  0
LINE
  8
DATA
  6
CONTINUOUS
 62
     7
 10
845.8
 20
1242.5
 11
850.8
 21
1242.5
  0
LINE
  8
DATA
  6
CONTINUOUS
 62
     7
 10
848.3
 20
1240.0
 11
848.3
 21
1245.0
  0
LINE
  8
DATA
  6
CONTINUOUS
 62
     7
 10
859.1
 20
1102.2
 11
859.1
 21
1093.2
  0
LINE
  8
DATA
  6
CONTINUOUS
 62
     7
 10
858.3
 20
1093.2
 11
859.1
 21
1093.2
  0
LINE
  8
DATA
  6
CONTINUOUS
 62
     7
 10
858.3
 20
1102.2
 11
859.1
 21
1102.2
  0
ARC
  8
DATA
  6
CONTINUOUS
 62
     7
 10
847.866667
 20
1097.7
 40
13.633333
 50
342.938469
 51
17.061531
  0
LINE
  8
DATA
  6
CONTINUOUS
 62
     7
 10
860.9
 20
1101.7
 11
860.9
 21
1093.7
  0
LINE
  8
DATA
  6
CONTINUOUS
 62
     7
 10
860.9
 20
1101.7
 11
859.1
 21
1101.7
  0
LINE
  8
DATA
  6
CONTINUOUS
 62
     7
 10
860.9
 20
1093.7
 11
859.1
 21
1093.7
  0
LINE
  8
DATA
  6
CONTINUOUS
 62
     7
 10
859.1
 20
1182.7
 11
859.1
 21
1173.7
  0
LINE
  8
DATA
  6
CONTINUOUS
 62
     7
 10
858.3
 20
1173.7
 11
859.1
 21
1173.7
  0
LINE
  8
DATA
  6
CONTINUOUS
 62
     7
 10
858.3
 20
1182.7
 11
859.1
 21
1182.7
  0
ARC
  8
DATA
  6
CONTINUOUS
 62
     7
 10
847.866667
 20
1178.2
 40
13.633333
 50
342.938469
 51
17.061531
  0
LINE
  8
DATA
  6
CONTINUOUS
 62
     7
 10
860.9
 20
1182.2
 11
860.9
 21
1174.2
  0
LINE
  8
DATA
  6
CONTINUOUS
 62
     7
 10
860.9
 20
1182.2
 11
859.1
 21
1182.2
  0
LINE
  8
DATA
  6
CONTINUOUS
 62
     7
 10
860.9
 20
1174.2
 11
859.1
 21
1174.2
  0
LINE
  8
DATA
  6
CONTINUOUS
 62
     7
 10
859.1
 20
1246.7
 11
859.1
 21
1237.7
  0
LINE
  8
DATA
  6
CONTINUOUS
 62
     7
 10
858.3
 20
1237.7
 11
859.1
 21
1237.7
  0
LINE
  8
DATA
  6
CONTINUOUS
 62
     7
 10
858.3
 20
1246.7
 11
859.1
 21
1246.7
  0
ARC
  8
DATA
  6
CONTINUOUS
 62
     7
 10
847.866667
 20
1242.2
 40
13.633333
 50
342.938469
 51
17.061531
  0
LINE
  8
DATA
  6
CONTINUOUS
 62
     7
 10
860.9
 20
1246.2
 11
860.9
 21
1238.2
  0
LINE
  8
DATA
  6
CONTINUOUS
 62
     7
 10
860.9
 20
1246.2
 11
859.1
 21
1246.2
  0
LINE
  8
DATA
  6
CONTINUOUS
 62
     7
 10
860.9
 20
1238.2
 11
859.1
 21
1238.2
  0
LINE
  8
DATA
  6
CONTINUOUS
 62
     7
 10
729.8
 20
1261.5
 11
853.3
 21
1261.5
  0
LINE
  8
DATA
  6
CONTINUOUS
 62
     7
 10
729.8
 20
1252.0
 11
729.8
 21
1261.5
  0
LINE
  8
DATA
  6
CONTINUOUS
 62
     7
 10
853.3
 20
1252.0
 11
853.3
 21
1261.5
  0
LINE
  8
DATA
  6
CONTINUOUS
 62
     7
 10
846.3
 20
1408.0
 11
736.8
 21
1408.0
  0
LINE
  8
DATA
  6
CONTINUOUS
 62
     7
 10
833.689235
 20
1415.4
 11
777.835381
 21
1415.4
  0
LINE
  8
DATA
  6
CONTINUOUS
 62
     7
 10
842.8
 20
1404.5
 11
842.8
 21
1406.5
  0
LINE
  8
DATA
  6
CONTINUOUS
 62
     7
 10
842.8
 20
1406.5
 11
856.3
 21
1406.5
  0
LINE
  8
DATA
  6
CONTINUOUS
 62
     7
 10
852.8
 20
1401.7
 11
843.8
 21
1401.7
  0
LINE
  8
DATA
  6
CONTINUOUS
 62
     7
 10
843.8
 20
1402.5
 11
843.8
 21
1401.7
  0
LINE
  8
DATA
  6
CONTINUOUS
 62
     7
 10
852.8
 20
1402.5
 11
852.8
 21
1401.7
  0
ARC
  8
DATA
  6
CONTINUOUS
 62
     7
 10
848.3
 20
1412.933333
 40
13.633333
 50
252.938469
 51
287.061531
  0
LINE
  8
DATA
  6
CONTINUOUS
 62
     7
 10
852.3
 20
1399.9
 11
844.3
 21
1399.9
  0
LINE
  8
DATA
  6
CONTINUOUS
 62
     7
 10
852.3
 20
1399.9
 11
852.3
 21
1401.7
  0
LINE
  8
DATA
  6
CONTINUOUS
 62
     7
 10
844.3
 20
1399.9
 11
844.3
 21
1401.7
  0
LINE
  8
DATA
  6
CONTINUOUS
 62
     7
 10
852.3
 20
1400.0
 11
882.6
 21
1400.0
  0
ARC
  8
DATA
  6
CONTINUOUS
 62
     7
 10
846.3
 20
1415.0
 40
7.0
 50
270.0
 51
0.0
  0
ARC
  8
DATA
  6
CONTINUOUS
 62
     7
 10
736.8
 20
1415.0
 40
7.0
 50
180.0
 51
270.0
  0
LINE
  8
DATA
  6
CONTINUOUS
 62
     7
 10
775.394615
 20
1415.4
 11
749.410765
 21
1415.4
  0
LINE
  8
DIMENSIONS
  6
CONTINUOUS
 62
     7
 10
842.8
 20
1321.6668
 11
862.8
 21
1325.0
  0
LINE
  8
DIMENSIONS
  6
CONTINUOUS
 62
     7
 10
842.8
 20
1328.3332
 11
862.8
 21
1325.0
  0
LINE
  8
DATA
  6
CONTINUOUS
 62
     7
 10
503.3
 20
1455.0
 11
454.3
 21
1455.0
  0
LINE
  8
DATA
  6
CONTINUOUS
 62
     7
 10
462.042641
 20
1458.75
 11
457.8
 21
1462.992641
  0
LINE
  8
DATA
  6
CONTINUOUS
 62
     7
 10
503.3
 20
1441.5
 11
454.3
 21
1441.5
  0
ARC
  8
DATA
  6
CONTINUOUS
 62
     7
 10
459.3
 20
1473.25
 40
1.5
 50
90.0
 51
180.0
  0
LINE
  8
DATA
  6
CONTINUOUS
 62
     7
 10
400.0
 20
1532.5
 11
882.6
 21
1532.5
  0
LINE
  8
DATA
  6
CONTINUOUS
 62
     7
 10
503.3
 20
1478.5
 11
454.3
 21
1478.5
  0
TEXT
  8
DATA
  6
CONTINUOUS
 62
     7
 10
486.891053
 20
1445.5
 40
3.0
  1
MAINS FUSE
 50
180.0
  7
TTF_DEFAULT
  0
TEXT
  8
DATA
  6
CONTINUOUS
 62
     7
 10
499.968452
 20
1453.0
 40
3.0
  1
85V,100V,115V～USE T16A/250V
 50
180.0
  7
TTF_DEFAULT
  0
TEXT
  8
DATA
  6
CONTINUOUS
 62
     7
 10
494.041285
 20
1449.25
 40
3.0
  1
230V～USE T6.3A/250V
 50
180.0
  7
TTF_DEFAULT
  0
LINE
  8
DATA
  6
CONTINUOUS
 62
     7
 10
422.3
 20
1464.5
 11
422.3
 21
1504.5
  0
LINE
  8
DATA
  6
CONTINUOUS
 62
     7
 10
454.3
 20
1478.5
 11
454.3
 21
1441.5
  0
LINE
  8
DATA
  6
CONTINUOUS
 62
     7
 10
457.8
 20
1473.25
 11
457.8
 21
1462.992641
  0
TEXT
  8
DATA
  6
CONTINUOUS
 62
     7
 10
452.3
 20
1466.25
 40
3.0
  1
115V-230V～
 50
180.0
  7
TTF_DEFAULT
  0
ARC
  8
DATA
  6
CONTINUOUS
 62
     7
 10
407.2
 20
1437.6745
 40
3.25
 50
90.0
 51
270.0
  0
ARC
  8
DATA
  6
CONTINUOUS
 62
     7
 10
410.4
 20
1437.6745
 40
3.25
 50
270.0
 51
90.0
  0
LINE
  8
DATA
  6
CONTINUOUS
 62
     7
 10
407.2
 20
1434.4245
 11
410.4
 21
1434.4245
  0
LINE
  8
DATA
  6
CONTINUOUS
 62
     7
 10
407.2
 20
1440.9245
 11
410.4
 21
1440.9245
  0
LINE
  8
DATA
  6
CONTINUOUS
 62
     7
 10
423.5
 20
1465.0
 11
423.5
 21
1456.0
  0
LINE
  8
DATA
  6
CONTINUOUS
 62
     7
 10
424.3
 20
1456.0
 11
423.5
 21
1456.0
  0
LINE
  8
DATA
  6
CONTINUOUS
 62
     7
 10
424.3
 20
1465.0
 11
423.5
 21
1465.0
  0
ARC
  8
DATA
  6
CONTINUOUS
 62
     7
 10
434.733333
 20
1460.5
 40
13.633333
 50
162.938469
 51
197.061531
  0
LINE
  8
DATA
  6
CONTINUOUS
 62
     7
 10
421.7
 20
1464.5
 11
421.7
 21
1456.5
  0
LINE
  8
DATA
  6
CONTINUOUS
 62
     7
 10
421.7
 20
1464.5
 11
423.5
 21
1464.5
  0
LINE
  8
DATA
  6
CONTINUOUS
 62
     7
 10
421.7
 20
1456.5
 11
423.5
 21
1456.5
  0
LINE
  8
DATA
  6
CONTINUOUS
 62
     7
 10
423.5
 20
1429.5
 11
423.5
 21
1420.5
  0
LINE
  8
DATA
  6
CONTINUOUS
 62
     7
 10
424.3
 20
1420.5
 11
423.5
 21
1420.5
  0
LINE
  8
DATA
  6
CONTINUOUS
 62
     7
 10
424.3
 20
1429.5
 11
423.5
 21
1429.5
  0
ARC
  8
DATA
  6
CONTINUOUS
 62
     7
 10
434.733333
 20
1425.0
 40
13.633333
 50
162.938469
 51
197.061531
  0
LINE
  8
DATA
  6
CONTINUOUS
 62
     7
 10
421.7
 20
1429.0
 11
421.7
 21
1421.0
  0
LINE
  8
DATA
  6
CONTINUOUS
 62
     7
 10
421.7
 20
1429.0
 11
423.5
 21
1429.0
  0
LINE
  8
DATA
  6
CONTINUOUS
 62
     7
 10
421.7
 20
1421.0
 11
423.5
 21
1421.0
  0
LINE
  8
DATA
  6
CONTINUOUS
 62
     7
 10
422.3
 20
1433.75
 11
421.5
 21
1433.75
  0
LINE
  8
DATA
  6
CONTINUOUS
 62
     7
 10
422.3
 20
1429.0
 11
422.3
 21
1456.5
  0
LINE
  8
DATA
  6
CONTINUOUS
 62
     7
 10
421.5
 20
1428.278211
 11
421.5
 21
1433.75
  0
TEXT
  8
DATA
  6
CONTINUOUS
 62
     7
 10
446.404194
 20
1462.75
 40
3.0
  1
～
 50
180.0
  7
TTF_DEFAULT
  0
TEXT
  8
DATA
  6
CONTINUOUS
 62
     7
 10
448.975769
 20
1459.25
 40
3.0
  1
INPUT
 50
180.0
  7
TTF_DEFAULT
  0
TEXT
  8
DATA
  6
CONTINUOUS
 62
     7
 10
452.3
 20
1469.75
 40
3.0
  1
85V-100V～
 50
180.0
  7
TTF_DEFAULT
  0
TEXT
  8
DATA
  6
CONTINUOUS
 62
     7
 10
452.3
 20
1473.25
 40
3.0
  1
50-50Hz
 50
180.0
  7
TTF_DEFAULT
  0
TEXT
  8
DATA
  6
CONTINUOUS
 62
     7
 10
452.3
 20
1476.75
 40
3.0
  1
650 WATTS
 50
180.0
  7
TTF_DEFAULT
  0
ARC
  8
DATA
  6
CONTINUOUS
 62
     7
 10
407.2
 20
1494.8255
 40
3.25
 50
90.0
 51
270.0
  0
ARC
  8
DATA
  6
CONTINUOUS
 62
     7
 10
410.4
 20
1494.8255
 40
3.25
 50
270.0
 51
90.0
  0
LINE
  8
DATA
  6
CONTINUOUS
 62
     7
 10
407.2
 20
1491.5755
 11
410.4
 21
1491.5755
  0
LINE
  8
DATA
  6
CONTINUOUS
 62
     7
 10
407.2
 20
1498.0755
 11
410.4
 21
1498.0755
  0
LINE
  8
DATA
  6
CONTINUOUS
 62
     7
 10
423.5
 20
1513.0
 11
423.5
 21
1504.0
  0
LINE
  8
DATA
  6
CONTINUOUS
 62
     7
 10
424.3
 20
1504.0
 11
423.5
 21
1504.0
  0
LINE
  8
DATA
  6
CONTINUOUS
 62
     7
 10
424.3
 20
1513.0
 11
423.5
 21
1513.0
  0
ARC
  8
DATA
  6
CONTINUOUS
 62
     7
 10
434.733333
 20
1508.5
 40
13.633333
 50
162.938469
 51
197.061531
  0
LINE
  8
DATA
  6
CONTINUOUS
 62
     7
 10
421.7
 20
1512.5
 11
421.7
 21
1504.5
  0
LINE
  8
DATA
  6
CONTINUOUS
 62
     7
 10
421.7
 20
1512.5
 11
423.5
 21
1512.5
  0
LINE
  8
DATA
  6
CONTINUOUS
 62
     7
 10
421.7
 20
1504.5
 11
423.5
 21
1504.5
  0
LINE
  8
DATA
  6
CONTINUOUS
 62
     7
 10
422.3
 20
1498.75
 11
421.5
 21
1498.75
  0
LINE
  8
DATA
  6
CONTINUOUS
 62
     7
 10
421.5
 20
1498.75
 11
421.5
 21
1505.221789
  0
LINE
  8
DATA
  6
CONTINUOUS
 62
     7
 10
422.3
 20
1512.5
 11
422.3
 21
1532.5
  0
LINE
  8
DATA
  6
CONTINUOUS
 62
     7
 10
448.3
 20
1542.5
 11
430.3
 21
1542.5
  0
LINE
  8
DATA
  6
CONTINUOUS
 62
     7
 10
448.3
 20
1542.5
 11
449.3
 21
1532.5
  0
LINE
  8
DATA
  6
CONTINUOUS
 62
     7
 10
430.3
 20
1542.5
 11
429.3
 21
1532.5
  0
ARC
  8
DATA
  6
CONTINUOUS
 62
     7
 10
432.633333
 20
1503.25
 40
13.633333
 50
162.938469
 51
197.061531
  0
LINE
  8
DATA
  6
CONTINUOUS
 62
     7
 10
419.6
 20
1499.25
 11
419.6
 21
1507.25
  0
LINE
  8
DATA
  6
CONTINUOUS
 62
     7
 10
419.6
 20
1499.25
 11
421.5
 21
1499.25
  0
LINE
  8
DATA
  6
CONTINUOUS
 62
     7
 10
419.6
 20
1507.25
 11
421.157425
 21
1507.25
  0
ARC
  8
DATA
  6
CONTINUOUS
 62
     7
 10
432.633333
 20
1429.25
 40
13.633333
 50
162.938469
 51
197.061531
  0
LINE
  8
DATA
  6
CONTINUOUS
 62
     7
 10
419.6
 20
1425.25
 11
419.6
 21
1433.25
  0
LINE
  8
DATA
  6
CONTINUOUS
 62
     7
 10
419.6
 20
1433.25
 11
421.5
 21
1433.25
  0
LINE
  8
DATA
  6
CONTINUOUS
 62
     7
 10
419.6
 20
1425.25
 11
421.102292
 21
1425.25
  0
TEXT
  8
SPEC
  6
CONTINUOUS
 62
     7
 10
187.5
 20
2662.5
 40
30.0
  1
仕様
  7
TTF_DEFAULT
  0
TEXT
  8
SPEC
  6
CONTINUOUS
 62
     7
 10
181.25
 20
2543.75
 40
25.0
  1
重量
  7
TTF_DEFAULT
  0
TEXT
  8
SPEC
  6
CONTINUOUS
 62
     7
 10
181.25
 20
2581.25
 40
25.0
  1
寸法
  7
TTF_DEFAULT
  0
TEXT
  8
SPEC
  6
CONTINUOUS
 62
     7
 10
181.25
 20
2618.75
 40
25.0
  1
電源／ 消費電力
  7
TTF_DEFAULT
  0
LINE
  8
SPEC
  6
CONTINUOUS
 62
     7
 10
175.0
 20
2537.5
 11
175.0
 21
2650.0
  0
TEXT
  8
DATA
  6
CONTINUOUS
 62
     7
 10
724.8
 20
1467.0
 40
3.0
  1
      14, 15            CHASSIS GROUND
 50
180.0
  7
TTF_DEFAULT
  0
TEXT
  8
DATA
  6
CONTINUOUS
 62
     7
 10
724.8
 20
1421.5
 40
3.0
  1
DO NOT EXPOSE THIS UNIT
 50
180.0
  7
TTF_DEFAULT
  0
TEXT
  8
DATA
  6
CONTINUOUS
 62
     7
 10
724.8
 20
1425.0
 40
3.0
  1
TO RAIN OR MOISTURE
 50
180.0
  7
TTF_DEFAULT
  0
TEXT
  8
DATA
  6
CONTINUOUS
 62
     7
 10
724.8
 20
1432.0
 40
3.0
  1
DO NOT COVER ANY VENTILATION
 50
180.0
  7
TTF_DEFAULT
  0
TEXT
  8
DATA
  6
CONTINUOUS
 62
     7
 10
724.8
 20
1435.5
 40
3.0
  1
SLOTS AS THIS MAY CAUSE THE
 50
180.0
  7
TTF_DEFAULT
  0
TEXT
  8
DATA
  6
CONTINUOUS
 62
     7
 10
724.8
 20
1439.0
 40
3.0
  1
EQUIPMENT TO OVERHEAT
 50
180.0
  7
TTF_DEFAULT
  0
TEXT
  8
DATA
  6
CONTINUOUS
 62
     7
 10
724.8
 20
1460.0
 40
3.0
  1
      9, 10, 11, 12    -17V   11A
 50
180.0
  7
TTF_DEFAULT
  0
TEXT
  8
DATA
  6
CONTINUOUS
 62
     7
 10
724.8
 20
1456.5
 40
3.0
  1
      5, 6, 7, 8         +0V
 50
180.0
  7
TTF_DEFAULT
  0
TEXT
  8
DATA
  6
CONTINUOUS
 62
     7
 10
724.8
 20
1453.0
 40
3.0
  1
PIN 1, 2, 3, 4         +17V   11A
 50
180.0
  7
TTF_DEFAULT
  0
TEXT
  8
DATA
  6
CONTINUOUS
 62
     7
 10
724.8
 20
1463.5
 40
3.0
  1
      13                 +48V   0.5A
 50
180.0
  7
TTF_DEFAULT
  0
TEXT
  8
DATA
  6
CONTINUOUS
 62
     7
 10
724.8
 20
1477.5
 40
3.0
  1
      19                NOT USED
 50
180.0
  7
TTF_DEFAULT
  0
TEXT
  8
DATA
  6
CONTINUOUS
 62
     7
 10
724.8
 20
1470.5
 40
3.0
  1
      16, 17            0V
 50
180.0
  7
TTF_DEFAULT
  0
TEXT
  8
DATA
  6
CONTINUOUS
 62
     7
 10
724.8
 20
1474.0
 40
3.0
  1
      18                +8V   1A
 50
180.0
  7
TTF_DEFAULT
  0
TEXT
  8
DATA
  6
CONTINUOUS
 62
     7
 10
724.8
 20
1481.0
 40
3.0
  1
( BOTH DC CONNECTORS HAVE
 50
180.0
  7
TTF_DEFAULT
  0
TEXT
  8
DATA
  6
CONTINUOUS
 62
     7
 10
724.8
 20
1484.5
 40
3.0
  1
   IDENTICAL PINOUT )
 50
180.0
  7
TTF_DEFAULT
  0
TEXT
  8
DATA
  6
CONTINUOUS
 62
     7
 10
724.8
 20
1506.5
 40
4.0
  1
ENSURE CORRECT MAINS VOLTAGE
 50
180.0
  7
TTF_DEFAULT
  0
TEXT
  8
DATA
  6
CONTINUOUS
 62
     7
 10
724.8
 20
1511.0
 40
4.0
  1
SETTING AND CORRECT FUSE BEFORE
 50
180.0
  7
TTF_DEFAULT
  0
TEXT
  8
DATA
  6
CONTINUOUS
 62
     7
 10
724.8
 20
1515.5
 40
4.0
  1
CONNECTING MAINS SUPPLY.
 50
180.0
  7
TTF_DEFAULT
  0
TEXT
  8
DATA
  6
CONTINUOUS
 62
     7
 10
724.8
 20
1520.0
 40
4.0
  1
DO NOT SWITCH MAINS VOLTAGE SETTING
 50
180.0
  7
TTF_DEFAULT
  0
TEXT
  8
DATA
  6
CONTINUOUS
 62
     7
 10
724.8
 20
1524.5
 40
4.0
  1
WHILE MAINS SUPPLY IS CONNECTED.
 50
180.0
  7
TTF_DEFAULT
  0
TEXT
  8
DATA
  6
CONTINUOUS
 62
     7
 10
724.8
 20
1498.5
 40
4.0
  1
THIS EQUIPMENT MUST BE EARTHED.
 50
180.0
  7
TTF_DEFAULT
  0
CIRCLE
  8
DATA
  6
CONTINUOUS
 62
     7
 10
642.3
 20
1467.5
 40
18.0
  0
CIRCLE
  8
DATA
  6
CONTINUOUS
 62
     7
 10
642.3
 20
1467.5
 40
21.0
  0
CIRCLE
  8
DATA
  6
CONTINUOUS
 62
     7
 10
642.3
 20
1467.5
 40
14.0
  0
LINE
  8
DATA
  6
CONTINUOUS
 62
     7
 10
665.3
 20
1484.136039
 11
665.3
 21
1450.863961
  0
LINE
  8
DATA
  6
CONTINUOUS
 62
     7
 10
619.3
 20
1450.863961
 11
619.3
 21
1484.136039
  0
LINE
  8
DATA
  6
CONTINUOUS
 62
     7
 10
666.8
 20
1485.282486
 11
666.8
 21
1449.717514
  0
LINE
  8
DATA
  6
CONTINUOUS
 62
     7
 10
617.8
 20
1485.282486
 11
617.8
 21
1449.717514
  0
CIRCLE
  8
DATA
  6
CONTINUOUS
 62
     7
 10
562.3
 20
1467.5
 40
18.0
  0
CIRCLE
  8
DATA
  6
CONTINUOUS
 62
     7
 10
562.3
 20
1467.5
 40
21.0
  0
CIRCLE
  8
DATA
  6
CONTINUOUS
 62
     7
 10
562.3
 20
1467.5
 40
14.0
  0
LINE
  8
DATA
  6
CONTINUOUS
 62
     7
 10
585.3
 20
1484.136039
 11
585.3
 21
1450.863961
  0
LINE
  8
DATA
  6
CONTINUOUS
 62
     7
 10
539.3
 20
1450.863961
 11
539.3
 21
1484.136039
  0
LINE
  8
DATA
  6
CONTINUOUS
 62
     7
 10
586.8
 20
1485.282486
 11
586.8
 21
1449.717514
  0
LINE
  8
DATA
  6
CONTINUOUS
 62
     7
 10
537.8
 20
1485.282486
 11
537.8
 21
1449.717514
  0
LINE
  8
DATA
  6
CONTINUOUS
 62
     7
 10
503.3
 20
1478.5
 11
503.3
 21
1441.5
  0
TEXT
  8
DATA
  6
CONTINUOUS
 62
     7
 10
643.049412
 20
1466.1
 40
1.5
  1
10
 50
180.0
  7
TTF_DEFAULT
  0
LINE
  8
DATA
  6
CONTINUOUS
 62
     7
 10
476.05
 20
1465.75
 11
476.05
 21
1471.25
  0
LINE
  8
DATA
  6
CONTINUOUS
 62
     7
 10
469.05
 20
1462.25
 11
469.05
 21
1467.75
  0
LINE
  8
DATA
  6
CONTINUOUS
 62
     7
 10
470.55
 20
1462.25
 11
470.55
 21
1467.75
  0
LINE
  8
DATA
  6
CONTINUOUS
 62
     7
 10
463.55
 20
1465.75
 11
463.55
 21
1471.25
  0
LINE
  8
DATA
  6
CONTINUOUS
 62
     7
 10
462.05
 20
1465.75
 11
462.05
 21
1471.25
  0
LINE
  8
DATA
  6
CONTINUOUS
 62
     7
 10
477.55
 20
1465.75
 11
477.55
 21
1471.25
  0
LINE
  8
DATA
  6
CONTINUOUS
 62
     7
 10
481.8
 20
1462.992641
 11
481.8
 21
1473.25
  0
LINE
  8
DATA
  6
CONTINUOUS
 62
     7
 10
500.3
 20
1475.25
 11
500.3
 21
1458.25
  0
LINE
  8
DATA
  6
CONTINUOUS
 62
     7
 10
483.3
 20
1458.25
 11
483.3
 21
1475.25
  0
POLYLINE
  8
DATA
  6
CONTINUOUS
 62
     7
 66
     1
 70
     1
  0
VERTEX
  8
DATA
 10
495.335534
 20
1468.164214
  0
VERTEX
  8
DATA
 10
490.385786
 20
1463.214466
  0
VERTEX
  8
DATA
 10
488.264466
 20
1465.335786
  0
VERTEX
  8
DATA
 10
493.214214
 20
1470.285534
  0
SEQEND
  8
DATA
  0
LINE
  8
DATA
  6
CONTINUOUS
 62
     7
 10
495.512311
 20
1470.462311
 11
488.087689
 21
1463.037689
  0
TEXT
  8
DATA
  6
CONTINUOUS
 62
     7
 10
498.3
 20
1468.274453
 40
2.0
  1
115
 50
270.0
  7
TTF_DEFAULT
  0
TEXT
  8
DATA
  6
CONTINUOUS
 62
     7
 10
485.3
 20
1465.225547
 40
2.0
  1
230
 50
90.0
  7
TTF_DEFAULT
  0
TEXT
  8
DATA
  6
CONTINUOUS
 62
     7
 10
563.049412
 20
1466.1
 40
1.5
  1
10
 50
180.0
  7
TTF_DEFAULT
  0
TEXT
  8
DATA
  6
CONTINUOUS
 62
     7
 10
638.049412
 20
1466.1
 40
1.5
  1
11
 50
180.0
  7
TTF_DEFAULT
  0
TEXT
  8
DATA
  6
CONTINUOUS
 62
     7
 10
633.049412
 20
1466.1
 40
1.5
  1
12
 50
180.0
  7
TTF_DEFAULT
  0
TEXT
  8
DATA
  6
CONTINUOUS
 62
     7
 10
572.674706
 20
1466.1
 40
1.5
  1
8
 50
180.0
  7
TTF_DEFAULT
  0
TEXT
  8
DATA
  6
CONTINUOUS
 62
     7
 10
567.674706
 20
1466.1
 40
1.5
  1
9
 50
180.0
  7
TTF_DEFAULT
  0
TEXT
  8
DATA
  6
CONTINUOUS
 62
     7
 10
558.049412
 20
1466.1
 40
1.5
  1
11
 50
180.0
  7
TTF_DEFAULT
  0
TEXT
  8
DATA
  6
CONTINUOUS
 62
     7
 10
553.049412
 20
1466.1
 40
1.5
  1
12
 50
180.0
  7
TTF_DEFAULT
  0
TEXT
  8
DATA
  6
CONTINUOUS
 62
     7
 10
652.674706
 20
1466.1
 40
1.5
  1
8
 50
180.0
  7
TTF_DEFAULT
  0
TEXT
  8
DATA
  6
CONTINUOUS
 62
     7
 10
647.674706
 20
1466.1
 40
1.5
  1
9
 50
180.0
  7
TTF_DEFAULT
  0
LINE
  8
DATA
  6
CONTINUOUS
 62
     7
 10
658.936039
 20
1444.5
 11
625.663961
 21
1444.5
  0
LINE
  8
DATA
  6
CONTINUOUS
 62
     7
 10
660.082486
 20
1443.0
 11
624.517514
 21
1443.0
  0
CIRCLE
  8
DATA
  6
CONTINUOUS
 62
     7
 10
642.3
 20
1457.5
 40
0.9
  0
TEXT
  8
DATA
  6
CONTINUOUS
 62
     7
 10
650.48248
 20
1442.5
 40
3.0
  1
TO CONSOLE
 50
180.0
  7
TTF_DEFAULT
  0
TEXT
  8
DATA
  6
CONTINUOUS
 62
     7
 10
652.211173
 20
1439.0
 40
3.0
  1
DC POWER OUT
 50
180.0
  7
TTF_DEFAULT
  0
LINE
  8
DATA
  6
CONTINUOUS
 62
     7
 10
578.936039
 20
1444.5
 11
545.663961
 21
1444.5
  0
LINE
  8
DATA
  6
CONTINUOUS
 62
     7
 10
580.082486
 20
1443.0
 11
544.517514
 21
1443.0
  0
TEXT
  8
DATA
  6
CONTINUOUS
 62
     7
 10
577.858237
 20
1442.5
 40
3.0
  1
FROM STANDBY SUPPLY
 50
180.0
  7
TTF_DEFAULT
  0
TEXT
  8
DATA
  6
CONTINUOUS
 62
     7
 10
570.828219
 20
1439.0
 40
3.0
  1
DC POWER IN
 50
180.0
  7
TTF_DEFAULT
  0
LINE
  8
DATA
  6
CONTINUOUS
 62
     7
 10
625.663961
 20
1444.5
 11
619.3
 21
1450.863961
  0
LINE
  8
DATA
  6
CONTINUOUS
 62
     7
 10
624.517514
 20
1443.0
 11
617.8
 21
1449.717514
  0
CIRCLE
  8
DATA
  6
CONTINUOUS
 62
     7
 10
625.25
 20
1450.45
 40
2.75
  0
LINE
  8
DATA
  6
CONTINUOUS
 62
     7
 10
627.25
 20
1450.45
 11
623.25
 21
1450.45
  0
LINE
  8
DATA
  6
CONTINUOUS
 62
     7
 10
625.25
 20
1452.45
 11
625.25
 21
1448.45
  0
CIRCLE
  8
DATA
  6
CONTINUOUS
 62
     7
 10
639.8
 20
1462.5
 40
0.9
  0
CIRCLE
  8
DATA
  6
CONTINUOUS
 62
     7
 10
634.8
 20
1462.5
 40
0.9
  0
CIRCLE
  8
DATA
  6
CONTINUOUS
 62
     7
 10
637.3
 20
1457.5
 40
0.9
  0
TEXT
  8
DATA
  6
CONTINUOUS
 62
     7
 10
642.674706
 20
1456.1
 40
1.5
  1
2
 50
180.0
  7
TTF_DEFAULT
  0
TEXT
  8
DATA
  6
CONTINUOUS
 62
     7
 10
637.674706
 20
1456.1
 40
1.5
  1
3
 50
180.0
  7
TTF_DEFAULT
  0
TEXT
  8
DATA
  6
CONTINUOUS
 62
     7
 10
640.174706
 20
1461.1
 40
1.5
  1
6
 50
180.0
  7
TTF_DEFAULT
  0
TEXT
  8
DATA
  6
CONTINUOUS
 62
     7
 10
635.174706
 20
1461.1
 40
1.5
  1
7
 50
180.0
  7
TTF_DEFAULT
  0
CIRCLE
  8
DATA
  6
CONTINUOUS
 62
     7
 10
579.35
 20
1450.45
 40
2.75
  0
LINE
  8
DATA
  6
CONTINUOUS
 62
     7
 10
585.3
 20
1450.863961
 11
578.936039
 21
1444.5
  0
LINE
  8
DATA
  6
CONTINUOUS
 62
     7
 10
586.8
 20
1449.717514
 11
580.082486
 21
1443.0
  0
LINE
  8
DATA
  6
CONTINUOUS
 62
     7
 10
581.35
 20
1450.45
 11
577.35
 21
1450.45
  0
LINE
  8
DATA
  6
CONTINUOUS
 62
     7
 10
579.35
 20
1452.45
 11
579.35
 21
1448.45
  0
CIRCLE
  8
DATA
  6
CONTINUOUS
 62
     7
 10
569.8
 20
1462.5
 40
0.9
  0
CIRCLE
  8
DATA
  6
CONTINUOUS
 62
     7
 10
564.8
 20
1462.5
 40
0.9
  0
CIRCLE
  8
DATA
  6
CONTINUOUS
 62
     7
 10
567.3
 20
1457.5
 40
0.9
  0
CIRCLE
  8
DATA
  6
CONTINUOUS
 62
     7
 10
562.3
 20
1457.5
 40
0.9
  0
TEXT
  8
DATA
  6
CONTINUOUS
 62
     7
 10
567.674706
 20
1456.1
 40
1.5
  1
1
 50
180.0
  7
TTF_DEFAULT
  0
TEXT
  8
DATA
  6
CONTINUOUS
 62
     7
 10
562.674706
 20
1456.1
 40
1.5
  1
2
 50
180.0
  7
TTF_DEFAULT
  0
TEXT
  8
DATA
  6
CONTINUOUS
 62
     7
 10
570.174706
 20
1461.1
 40
1.5
  1
4
 50
180.0
  7
TTF_DEFAULT
  0
TEXT
  8
DATA
  6
CONTINUOUS
 62
     7
 10
565.174706
 20
1461.1
 40
1.5
  1
5
 50
180.0
  7
TTF_DEFAULT
  0
LINE
  8
DATA
  6
CONTINUOUS
 62
     7
 10
545.663961
 20
1444.5
 11
539.3
 21
1450.863961
  0
LINE
  8
DATA
  6
CONTINUOUS
 62
     7
 10
544.517514
 20
1443.0
 11
537.8
 21
1449.717514
  0
CIRCLE
  8
DATA
  6
CONTINUOUS
 62
     7
 10
545.25
 20
1450.45
 40
2.75
  0
LINE
  8
DATA
  6
CONTINUOUS
 62
     7
 10
547.25
 20
1450.45
 11
543.25
 21
1450.45
  0
LINE
  8
DATA
  6
CONTINUOUS
 62
     7
 10
545.25
 20
1452.45
 11
545.25
 21
1448.45
  0
CIRCLE
  8
DATA
  6
CONTINUOUS
 62
     7
 10
559.8
 20
1462.5
 40
0.9
  0
CIRCLE
  8
DATA
  6
CONTINUOUS
 62
     7
 10
554.8
 20
1462.5
 40
0.9
  0
CIRCLE
  8
DATA
  6
CONTINUOUS
 62
     7
 10
557.3
 20
1457.5
 40
0.9
  0
TEXT
  8
DATA
  6
CONTINUOUS
 62
     7
 10
557.674706
 20
1456.1
 40
1.5
  1
3
 50
180.0
  7
TTF_DEFAULT
  0
TEXT
  8
DATA
  6
CONTINUOUS
 62
     7
 10
560.174706
 20
1461.1
 40
1.5
  1
6
 50
180.0
  7
TTF_DEFAULT
  0
TEXT
  8
DATA
  6
CONTINUOUS
 62
     7
 10
555.174706
 20
1461.1
 40
1.5
  1
7
 50
180.0
  7
TTF_DEFAULT
  0
LINE
  8
DATA
  6
CONTINUOUS
 62
     7
 10
463.55
 20
1465.75
 11
462.05
 21
1465.75
  0
LINE
  8
DATA
  6
CONTINUOUS
 62
     7
 10
470.55
 20
1462.25
 11
469.05
 21
1462.25
  0
LINE
  8
DATA
  6
CONTINUOUS
 62
     7
 10
477.55
 20
1465.75
 11
476.05
 21
1465.75
  0
LINE
  8
DATA
  6
CONTINUOUS
 62
     7
 10
481.8
 20
1462.992641
 11
477.557359
 21
1458.75
  0
LINE
  8
DATA
  6
CONTINUOUS
 62
     7
 10
477.557359
 20
1458.75
 11
462.042641
 21
1458.75
  0
LINE
  8
DATA
  6
CONTINUOUS
 62
     7
 10
500.3
 20
1458.25
 11
483.3
 21
1458.25
  0
TEXT
  8
DATA
  6
CONTINUOUS
 62
     7
 10
493.283252
 20
1460.25
 40
2.0
  1
100
 50
180.0
  7
TTF_DEFAULT
  0
CIRCLE
  8
DATA
  6
CONTINUOUS
 62
     7
 10
659.35
 20
1450.45
 40
2.75
  0
LINE
  8
DATA
  6
CONTINUOUS
 62
     7
 10
665.3
 20
1450.863961
 11
658.936039
 21
1444.5
  0
LINE
  8
DATA
  6
CONTINUOUS
 62
     7
 10
666.8
 20
1449.717514
 11
660.082486
 21
1443.0
  0
LINE
  8
DATA
  6
CONTINUOUS
 62
     7
 10
661.35
 20
1450.45
 11
657.35
 21
1450.45
  0
LINE
  8
DATA
  6
CONTINUOUS
 62
     7
 10
659.35
 20
1452.45
 11
659.35
 21
1448.45
  0
CIRCLE
  8
DATA
  6
CONTINUOUS
 62
     7
 10
649.8
 20
1462.5
 40
0.9
  0
CIRCLE
  8
DATA
  6
CONTINUOUS
 62
     7
 10
644.8
 20
1462.5
 40
0.9
  0
CIRCLE
  8
DATA
  6
CONTINUOUS
 62
     7
 10
647.3
 20
1457.5
 40
0.9
  0
TEXT
  8
DATA
  6
CONTINUOUS
 62
     7
 10
647.674706
 20
1456.1
 40
1.5
  1
1
 50
180.0
  7
TTF_DEFAULT
  0
TEXT
  8
DATA
  6
CONTINUOUS
 62
     7
 10
650.174706
 20
1461.1
 40
1.5
  1
4
 50
180.0
  7
TTF_DEFAULT
  0
TEXT
  8
DATA
  6
CONTINUOUS
 62
     7
 10
645.174706
 20
1461.1
 40
1.5
  1
5
 50
180.0
  7
TTF_DEFAULT
  0
LINE
  8
DATA
  6
CONTINUOUS
 62
     7
 10
682.8
 20
1452.0
 11
679.8
 21
1452.0
  0
LINE
  8
DATA
  6
CONTINUOUS
 62
     7
 10
682.8
 20
1455.5
 11
679.8
 21
1455.5
  0
LINE
  8
DATA
  6
CONTINUOUS
 62
     7
 10
682.8
 20
1459.0
 11
679.8
 21
1459.0
  0
LINE
  8
DATA
  6
CONTINUOUS
 62
     7
 10
682.8
 20
1462.5
 11
679.8
 21
1462.5
  0
LINE
  8
DATA
  6
CONTINUOUS
 62
     7
 10
679.8
 20
1462.5
 11
679.8
 21
1452.0
  0
CIRCLE
  8
DATA
  6
CONTINUOUS
 62
     7
 10
647.3
 20
1477.5
 40
0.9
  0
CIRCLE
  8
DATA
  6
CONTINUOUS
 62
     7
 10
642.3
 20
1477.5
 40
0.9
  0
CIRCLE
  8
DATA
  6
CONTINUOUS
 62
     7
 10
637.3
 20
1477.5
 40
0.9
  0
CIRCLE
  8
DATA
  6
CONTINUOUS
 62
     7
 10
567.3
 20
1477.5
 40
0.9
  0
CIRCLE
  8
DATA
  6
CONTINUOUS
 62
     7
 10
562.3
 20
1477.5
 40
0.9
  0
CIRCLE
  8
DATA
  6
CONTINUOUS
 62
     7
 10
557.3
 20
1477.5
 40
0.9
  0
CIRCLE
  8
DATA
  6
CONTINUOUS
 62
     7
 10
642.3
 20
1467.5
 40
0.9
  0
TEXT
  8
DATA
  6
CONTINUOUS
 62
     7
 10
645.549412
 20
1471.1
 40
1.5
  1
14
 50
180.0
  7
TTF_DEFAULT
  0
TEXT
  8
DATA
  6
CONTINUOUS
 62
     7
 10
643.049412
 20
1476.1
 40
1.5
  1
18
 50
180.0
  7
TTF_DEFAULT
  0
TEXT
  8
DATA
  6
CONTINUOUS
 62
     7
 10
563.049412
 20
1476.1
 40
1.5
  1
18
 50
180.0
  7
TTF_DEFAULT
  0
CIRCLE
  8
DATA
  6
CONTINUOUS
 62
     7
 10
637.3
 20
1467.5
 40
0.9
  0
CIRCLE
  8
DATA
  6
CONTINUOUS
 62
     7
 10
632.3
 20
1467.5
 40
0.9
  0
CIRCLE
  8
DATA
  6
CONTINUOUS
 62
     7
 10
639.8
 20
1472.5
 40
0.9
  0
CIRCLE
  8
DATA
  6
CONTINUOUS
 62
     7
 10
634.8
 20
1472.5
 40
0.9
  0
TEXT
  8
DATA
  6
CONTINUOUS
 62
     7
 10
640.549412
 20
1471.1
 40
1.5
  1
15
 50
180.0
  7
TTF_DEFAULT
  0
TEXT
  8
DATA
  6
CONTINUOUS
 62
     7
 10
635.549412
 20
1471.1
 40
1.5
  1
16
 50
180.0
  7
TTF_DEFAULT
  0
TEXT
  8
DATA
  6
CONTINUOUS
 62
     7
 10
638.049412
 20
1476.1
 40
1.5
  1
19
 50
180.0
  7
TTF_DEFAULT
  0
CIRCLE
  8
DATA
  6
CONTINUOUS
 62
     7
 10
572.3
 20
1467.5
 40
0.9
  0
CIRCLE
  8
DATA
  6
CONTINUOUS
 62
     7
 10
567.3
 20
1467.5
 40
0.9
  0
CIRCLE
  8
DATA
  6
CONTINUOUS
 62
     7
 10
562.3
 20
1467.5
 40
0.9
  0
CIRCLE
  8
DATA
  6
CONTINUOUS
 62
     7
 10
569.8
 20
1472.5
 40
0.9
  0
CIRCLE
  8
DATA
  6
CONTINUOUS
 62
     7
 10
564.8
 20
1472.5
 40
0.9
  0
TEXT
  8
DATA
  6
CONTINUOUS
 62
     7
 10
570.549412
 20
1471.1
 40
1.5
  1
13
 50
180.0
  7
TTF_DEFAULT
  0
TEXT
  8
DATA
  6
CONTINUOUS
 62
     7
 10
565.549412
 20
1471.1
 40
1.5
  1
14
 50
180.0
  7
TTF_DEFAULT
  0
TEXT
  8
DATA
  6
CONTINUOUS
 62
     7
 10
568.049412
 20
1476.1
 40
1.5
  1
17
 50
180.0
  7
TTF_DEFAULT
  0
CIRCLE
  8
DATA
  6
CONTINUOUS
 62
     7
 10
557.3
 20
1467.5
 40
0.9
  0
CIRCLE
  8
DATA
  6
CONTINUOUS
 62
     7
 10
552.3
 20
1467.5
 40
0.9
  0
CIRCLE
  8
DATA
  6
CONTINUOUS
 62
     7
 10
559.8
 20
1472.5
 40
0.9
  0
CIRCLE
  8
DATA
  6
CONTINUOUS
 62
     7
 10
554.8
 20
1472.5
 40
0.9
  0
TEXT
  8
DATA
  6
CONTINUOUS
 62
     7
 10
560.549412
 20
1471.1
 40
1.5
  1
15
 50
180.0
  7
TTF_DEFAULT
  0
TEXT
  8
DATA
  6
CONTINUOUS
 62
     7
 10
555.549412
 20
1471.1
 40
1.5
  1
16
 50
180.0
  7
TTF_DEFAULT
  0
TEXT
  8
DATA
  6
CONTINUOUS
 62
     7
 10
558.049412
 20
1476.1
 40
1.5
  1
19
 50
180.0
  7
TTF_DEFAULT
  0
LINE
  8
DATA
  6
CONTINUOUS
 62
     7
 10
477.55
 20
1471.25
 11
476.05
 21
1471.25
  0
LINE
  8
DATA
  6
CONTINUOUS
 62
     7
 10
470.55
 20
1467.75
 11
469.05
 21
1467.75
  0
LINE
  8
DATA
  6
CONTINUOUS
 62
     7
 10
463.55
 20
1471.25
 11
462.05
 21
1471.25
  0
LINE
  8
DATA
  6
CONTINUOUS
 62
     7
 10
480.3
 20
1474.75
 11
459.3
 21
1474.75
  0
ARC
  8
DATA
  6
CONTINUOUS
 62
     7
 10
480.3
 20
1473.25
 40
1.5
 50
0.0
 51
90.0
  0
LINE
  8
DATA
  6
CONTINUOUS
 62
     7
 10
483.3
 20
1475.25
 11
500.3
 21
1475.25
  0
TEXT
  8
DATA
  6
CONTINUOUS
 62
     7
 10
490.811166
 20
1473.25
 40
2.0
  1
85
  7
TTF_DEFAULT
  0
CIRCLE
  8
DATA
  6
CONTINUOUS
 62
     7
 10
652.3
 20
1467.5
 40
0.9
  0
CIRCLE
  8
DATA
  6
CONTINUOUS
 62
     7
 10
647.3
 20
1467.5
 40
0.9
  0
CIRCLE
  8
DATA
  6
CONTINUOUS
 62
     7
 10
649.8
 20
1472.5
 40
0.9
  0
CIRCLE
  8
DATA
  6
CONTINUOUS
 62
     7
 10
644.8
 20
1472.5
 40
0.9
  0
TEXT
  8
DATA
  6
CONTINUOUS
 62
     7
 10
650.549412
 20
1471.1
 40
1.5
  1
13
 50
180.0
  7
TTF_DEFAULT
  0
TEXT
  8
DATA
  6
CONTINUOUS
 62
     7
 10
648.049412
 20
1476.1
 40
1.5
  1
17
 50
180.0
  7
TTF_DEFAULT
  0
LINE
  8
DATA
  6
CONTINUOUS
 62
     7
 10
682.8
 20
1469.5
 11
679.8
 21
1469.5
  0
LINE
  8
DATA
  6
CONTINUOUS
 62
     7
 10
682.8
 20
1472.281817
 11
679.8
 21
1472.281817
  0
LINE
  8
DATA
  6
CONTINUOUS
 62
     7
 10
679.8
 20
1472.281817
 11
679.8
 21
1469.5
  0
LINE
  8
DATA
  6
CONTINUOUS
 62
     7
 10
658.936039
 20
1490.5
 11
625.663961
 21
1490.5
  0
LINE
  8
DATA
  6
CONTINUOUS
 62
     7
 10
660.082486
 20
1492.0
 11
624.517514
 21
1492.0
  0
LINE
  8
DATA
  6
CONTINUOUS
 62
     7
 10
578.936039
 20
1490.5
 11
545.663961
 21
1490.5
  0
LINE
  8
DATA
  6
CONTINUOUS
 62
     7
 10
580.082486
 20
1492.0
 11
544.517514
 21
1492.0
  0
LINE
  8
DATA
  6
CONTINUOUS
 62
     7
 10
625.663961
 20
1490.5
 11
619.3
 21
1484.136039
  0
LINE
  8
DATA
  6
CONTINUOUS
 62
     7
 10
624.517514
 20
1492.0
 11
617.8
 21
1485.282486
  0
CIRCLE
  8
DATA
  6
CONTINUOUS
 62
     7
 10
625.25
 20
1484.55
 40
2.75
  0
LINE
  8
DATA
  6
CONTINUOUS
 62
     7
 10
627.25
 20
1484.55
 11
623.25
 21
1484.55
  0
LINE
  8
DATA
  6
CONTINUOUS
 62
     7
 10
625.25
 20
1486.55
 11
625.25
 21
1482.55
  0
LINE
  8
DATA
  6
CONTINUOUS
 62
     7
 10
585.3
 20
1484.136039
 11
578.936039
 21
1490.5
  0
LINE
  8
DATA
  6
CONTINUOUS
 62
     7
 10
586.8
 20
1485.282486
 11
580.082486
 21
1492.0
  0
CIRCLE
  8
DATA
  6
CONTINUOUS
 62
     7
 10
579.35
 20
1484.55
 40
2.75
  0
LINE
  8
DATA
  6
CONTINUOUS
 62
     7
 10
581.35
 20
1484.55
 11
577.35
 21
1484.55
  0
LINE
  8
DATA
  6
CONTINUOUS
 62
     7
 10
579.35
 20
1486.55
 11
579.35
 21
1482.55
  0
LINE
  8
DATA
  6
CONTINUOUS
 62
     7
 10
545.663961
 20
1490.5
 11
539.3
 21
1484.136039
  0
LINE
  8
DATA
  6
CONTINUOUS
 62
     7
 10
544.517514
 20
1492.0
 11
537.8
 21
1485.282486
  0
CIRCLE
  8
DATA
  6
CONTINUOUS
 62
     7
 10
545.25
 20
1484.55
 40
2.75
  0
LINE
  8
DATA
  6
CONTINUOUS
 62
     7
 10
547.25
 20
1484.55
 11
543.25
 21
1484.55
  0
LINE
  8
DATA
  6
CONTINUOUS
 62
     7
 10
545.25
 20
1486.55
 11
545.25
 21
1482.55
  0
LINE
  8
DATA
  6
CONTINUOUS
 62
     7
 10
665.3
 20
1484.136039
 11
658.936039
 21
1490.5
  0
LINE
  8
DATA
  6
CONTINUOUS
 62
     7
 10
666.8
 20
1485.282486
 11
660.082486
 21
1492.0
  0
CIRCLE
  8
DATA
  6
CONTINUOUS
 62
     7
 10
659.35
 20
1484.55
 40
2.75
  0
LINE
  8
DATA
  6
CONTINUOUS
 62
     7
 10
661.35
 20
1484.55
 11
657.35
 21
1484.55
  0
LINE
  8
DATA
  6
CONTINUOUS
 62
     7
 10
659.35
 20
1486.55
 11
659.35
 21
1482.55
  0
LINE
  8
DATA
  6
CONTINUOUS
 62
     7
 10
860.3
 20
1464.5
 11
860.3
 21
1504.5
  0
ARC
  8
DATA
  6
CONTINUOUS
 62
     7
 10
778.985029
 20
1516.953012
 40
58.971214
 50
295.242278
 51
2.871289
  0
ARC
  8
DATA
  6
CONTINUOUS
 62
     7
 10
776.917803
 20
1517.961265
 40
58.971214
 50
297.124831
 51
3.967527
  0
LINE
  8
DATA
  6
CONTINUOUS
 62
     7
 10
803.804588
 20
1465.475983
 11
801.275217
 21
1479.820757
  0
LINE
  8
DATA
  6
CONTINUOUS
 62
     7
 10
845.9
 20
1441.048195
 11
845.9
 21
1511.889235
  0
LINE
  8
DATA
  6
CONTINUOUS
 62
     7
 10
737.2
 20
1467.367296
 11
737.2
 21
1427.610765
  0
ARC
  8
DATA
  6
CONTINUOUS
 62
     7
 10
832.559942
 20
1496.28653
 40
58.971214
 50
223.242278
 51
283.074219
  0
ARC
  8
DATA
  6
CONTINUOUS
 62
     7
 10
832.880041
 20
1498.564147
 40
58.971214
 50
225.124831
 51
282.755144
  0
ARC
  8
DATA
  6
CONTINUOUS
 62
     7
 10
872.2
 20
1437.6745
 40
3.25
 50
90.0
 51
270.0
  0
ARC
  8
DATA
  6
CONTINUOUS
 62
     7
 10
875.4
 20
1437.6745
 40
3.25
 50
270.0
 51
90.0
  0
LINE
  8
DATA
  6
CONTINUOUS
 62
     7
 10
872.2
 20
1434.4245
 11
875.4
 21
1434.4245
  0
LINE
  8
DATA
  6
CONTINUOUS
 62
     7
 10
872.2
 20
1440.9245
 11
875.4
 21
1440.9245
  0
LINE
  8
DATA
  6
CONTINUOUS
 62
     7
 10
859.1
 20
1465.0
 11
859.1
 21
1456.0
  0
LINE
  8
DATA
  6
CONTINUOUS
 62
     7
 10
858.3
 20
1456.0
 11
859.1
 21
1456.0
  0
LINE
  8
DATA
  6
CONTINUOUS
 62
     7
 10
858.3
 20
1465.0
 11
859.1
 21
1465.0
  0
ARC
  8
DATA
  6
CONTINUOUS
 62
     7
 10
847.866667
 20
1460.5
 40
13.633333
 50
342.938469
 51
17.061531
  0
LINE
  8
DATA
  6
CONTINUOUS
 62
     7
 10
860.9
 20
1464.5
 11
860.9
 21
1456.5
  0
LINE
  8
DATA
  6
CONTINUOUS
 62
     7
 10
860.9
 20
1464.5
 11
859.1
 21
1464.5
  0
LINE
  8
DATA
  6
CONTINUOUS
 62
     7
 10
860.9
 20
1456.5
 11
859.1
 21
1456.5
  0
LINE
  8
DATA
  6
CONTINUOUS
 62
     7
 10
859.1
 20
1429.5
 11
859.1
 21
1420.5
  0
LINE
  8
DATA
  6
CONTINUOUS
 62
     7
 10
858.3
 20
1420.5
 11
859.1
 21
1420.5
  0
LINE
  8
DATA
  6
CONTINUOUS
 62
     7
 10
858.3
 20
1429.5
 11
859.1
 21
1429.5
  0
ARC
  8
DATA
  6
CONTINUOUS
 62
     7
 10
847.866667
 20
1425.0
 40
13.633333
 50
342.938469
 51
17.061531
  0
LINE
  8
DATA
  6
CONTINUOUS
 62
     7
 10
860.9
 20
1429.0
 11
860.9
 21
1421.0
  0
LINE
  8
DATA
  6
CONTINUOUS
 62
     7
 10
860.9
 20
1429.0
 11
859.1
 21
1429.0
  0
LINE
  8
DATA
  6
CONTINUOUS
 62
     7
 10
860.9
 20
1421.0
 11
859.1
 21
1421.0
  0
LINE
  8
DATA
  6
CONTINUOUS
 62
     7
 10
860.3
 20
1433.75
 11
861.1
 21
1433.75
  0
LINE
  8
DATA
  6
CONTINUOUS
 62
     7
 10
860.3
 20
1429.0
 11
860.3
 21
1456.5
  0
LINE
  8
DATA
  6
CONTINUOUS
 62
     7
 10
861.1
 20
1428.278211
 11
861.1
 21
1433.75
  0
LINE
  8
DATA
  6
CONTINUOUS
 62
     7
 10
845.9
 20
1427.610765
 11
845.9
 21
1438.843977
  0
LINE
  8
DATA
  6
CONTINUOUS
 62
     7
 10
804.133117
 20
1463.612804
 11
791.272044
 21
1456.77445
  0
LINE
  8
DATA
  6
CONTINUOUS
 62
     7
 10
789.601577
 20
1455.886247
 11
779.123626
 21
1466.004686
  0
ARC
  8
DATA
  6
CONTINUOUS
 62
     7
 10
775.049825
 20
1422.145677
 40
58.971214
 50
81.124831
 51
129.928833
  0
ARC
  8
DATA
  6
CONTINUOUS
 62
     7
 10
773.970041
 20
1424.176457
 40
58.971214
 50
79.242278
 51
128.574026
  0
LINE
  8
DATA
  6
CONTINUOUS
 62
     7
 10
784.148034
 20
1480.410818
 11
777.762691
 21
1467.318926
  0
LINE
  8
DATA
  6
CONTINUOUS
 62
     7
 10
737.2
 20
1511.889235
 11
737.2
 21
1470.280341
  0
LINE
  8
DATA
  6
CONTINUOUS
 62
     7
 10
736.8
 20
1531.5
 11
846.3
 21
1531.5
  0
LINE
  8
DATA
  6
CONTINUOUS
 62
     7
 10
833.689235
 20
1524.1
 11
771.117408
 21
1524.1
  0
ARC
  8
DATA
  6
CONTINUOUS
 62
     7
 10
872.2
 20
1494.8255
 40
3.25
 50
90.0
 51
270.0
  0
ARC
  8
DATA
  6
CONTINUOUS
 62
     7
 10
875.4
 20
1494.8255
 40
3.25
 50
270.0
 51
90.0
  0
LINE
  8
DATA
  6
CONTINUOUS
 62
     7
 10
872.2
 20
1491.5755
 11
875.4
 21
1491.5755
  0
LINE
  8
DATA
  6
CONTINUOUS
 62
     7
 10
872.2
 20
1498.0755
 11
875.4
 21
1498.0755
  0
LINE
  8
DATA
  6
CONTINUOUS
 62
     7
 10
859.1
 20
1513.0
 11
859.1
 21
1504.0
  0
LINE
  8
DATA
  6
CONTINUOUS
 62
     7
 10
858.3
 20
1504.0
 11
859.1
 21
1504.0
  0
LINE
  8
DATA
  6
CONTINUOUS
 62
     7
 10
858.3
 20
1513.0
 11
859.1
 21
1513.0
  0
ARC
  8
DATA
  6
CONTINUOUS
 62
     7
 10
847.866667
 20
1508.5
 40
13.633333
 50
342.938469
 51
17.061531
  0
LINE
  8
DATA
  6
CONTINUOUS
 62
     7
 10
860.9
 20
1512.5
 11
860.9
 21
1504.5
  0
LINE
  8
DATA
  6
CONTINUOUS
 62
     7
 10
860.9
 20
1512.5
 11
859.1
 21
1512.5
  0
LINE
  8
DATA
  6
CONTINUOUS
 62
     7
 10
860.9
 20
1504.5
 11
859.1
 21
1504.5
  0
LINE
  8
DATA
  6
CONTINUOUS
 62
     7
 10
860.3
 20
1498.75
 11
861.1
 21
1498.75
  0
LINE
  8
DATA
  6
CONTINUOUS
 62
     7
 10
861.1
 20
1498.75
 11
861.1
 21
1505.221789
  0
LINE
  8
DATA
  6
CONTINUOUS
 62
     7
 10
860.3
 20
1512.5
 11
860.3
 21
1532.5
  0
ARC
  8
DATA
  6
CONTINUOUS
 62
     7
 10
846.3
 20
1524.5
 40
7.0
 50
0.0
 51
90.0
  0
LINE
  8
DATA
  6
CONTINUOUS
 62
     7
 10
845.9
 20
1511.889235
 11
837.88221
 21
1519.907025
  0
LINE
  8
DATA
  6
CONTINUOUS
 62
     7
 10
835.747688
 20
1522.041547
 11
833.689235
 21
1524.1
  0
ARC
  8
DATA
  6
CONTINUOUS
 62
     7
 10
736.8
 20
1524.5
 40
7.0
 50
90.0
 51
180.0
  0
LINE
  8
DATA
  6
CONTINUOUS
 62
     7
 10
749.410765
 20
1524.1
 11
737.2
 21
1511.889235
  0
ARC
  8
DATA
  6
CONTINUOUS
 62
     7
 10
742.774478
 20
1472.386535
 40
58.971214
 50
7.242278
 51
61.273892
  0
ARC
  8
DATA
  6
CONTINUOUS
 62
     7
 10
741.176764
 20
1470.732054
 40
58.971214
 50
9.124831
 51
64.820993
  0
LINE
  8
DATA
  6
CONTINUOUS
 62
     7
 10
799.401708
 20
1480.084062
 11
784.977398
 21
1482.111266
  0
LINE
  8
DATA
  6
CONTINUOUS
 62
     7
 10
766.265933
 20
1524.1
 11
749.410765
 21
1524.1
  0
LINE
  8
DATA
  6
CONTINUOUS
 62
     7
 10
852.3
 20
1542.5
 11
834.3
 21
1542.5
  0
LINE
  8
DATA
  6
CONTINUOUS
 62
     7
 10
852.3
 20
1542.5
 11
853.3
 21
1532.5
  0
LINE
  8
DATA
  6
CONTINUOUS
 62
     7
 10
834.3
 20
1542.5
 11
833.3
 21
1532.5
  0
ARC
  8
DATA
  6
CONTINUOUS
 62
     7
 10
849.966667
 20
1503.25
 40
13.633333
 50
342.938469
 51
17.061531
  0
LINE
  8
DATA
  6
CONTINUOUS
 62
     7
 10
863.0
 20
1499.25
 11
863.0
 21
1507.25
  0
LINE
  8
DATA
  6
CONTINUOUS
 62
     7
 10
861.1
 20
1499.25
 11
863.0
 21
1499.25
  0
LINE
  8
DATA
  6
CONTINUOUS
 62
     7
 10
861.442575
 20
1507.25
 11
863.0
 21
1507.25
  0
ARC
  8
DATA
  6
CONTINUOUS
 62
     7
 10
849.966667
 20
1429.25
 40
13.633333
 50
342.938469
 51
17.061531
  0
LINE
  8
DATA
  6
CONTINUOUS
 62
     7
 10
863.0
 20
1425.25
 11
863.0
 21
1433.25
  0
LINE
  8
DATA
  6
CONTINUOUS
 62
     7
 10
861.1
 20
1433.25
 11
863.0
 21
1433.25
  0
LINE
  8
DATA
  6
CONTINUOUS
 62
     7
 10
861.497708
 20
1425.25
 11
863.0
 21
1425.25
  0
TEXT
  8
SPEC
  6
CONTINUOUS
 62
     7
 10
506.25
 20
2581.25
 40
25.0
  1
482.6(W)×132.5(H)×352(D)mm
  7
TTF_DEFAULT
  0
TEXT
  8
SPEC
  6
CONTINUOUS
 62
     7
 10
506.25
 20
2618.75
 40
25.0
  1
AC100V 50/60Hz 650W
  7
TTF_DEFAULT
  0
LINE
  8
SPEC
  6
CONTINUOUS
 62
     7
 10
500.0
 20
2650.0
 11
500.0
 21
2537.5
  0
TEXT
  8
SPEC
  6
CONTINUOUS
 62
     7
 10
506.25
 20
2543.75
 40
25.0
  1
約22kg
  7
TTF_DEFAULT
  0
TEXT
  8
HIBINO-BASE
  6
CONTINUOUS
 62
     7
 10
1487.5
 20
175.0
 40
25.0
  1
N.Sasaki
  7
TTF_DEFAULT
  0
LINE
  8
HIBINO-BASE
  6
CONTINUOUS
 62
     7
 10
1000.0
 20
250.0
 11
1900.0
 21
250.0
  0
TEXT
  8
HIBINO-BASE
  6
CONTINUOUS
 62
     7
 10
1480.0
 20
225.0
 40
25.0
  1
DRAWN
  7
TTF_DEFAULT
  0
LINE
  8
HIBINO-BASE
  6
CONTINUOUS
 62
     7
 10
1000.0
 20
375.0
 11
1900.0
 21
375.0
  0
TEXT
  8
HIBINO-BASE
  6
CONTINUOUS
 62
     7
 10
1230.0
 20
225.0
 40
25.0
  1
DATE
  7
TTF_DEFAULT
  0
TEXT
  8
HIBINO-BASE
  6
CONTINUOUS
 62
     7
 10
1237.5
 20
175.0
 40
25.0
  1
'99.05.
  7
TTF_DEFAULT
  0
LINE
  8
DATA
  6
CONTINUOUS
 62
     7
 10
1000.0
 20
500.0
 11
1352.0
 21
500.0
  0
LINE
  8
DATA
  6
CONTINUOUS
 62
     7
 10
1009.459259
 20
630.0
 11
1352.0
 21
630.0
  0
LINE
  8
DATA
  6
CONTINUOUS
 62
     7
 10
1012.866667
 20
628.0
 11
1352.0
 21
628.0
  0
LINE
  8
HIBINO-BASE
  6
CONTINUOUS
 62
     7
 10
1000.0
 20
150.0
 11
1000.0
 21
375.0
  0
TEXT
  8
HIBINO-BASE
  6
CONTINUOUS
 62
     7
 10
1037.5
 20
162.5
 40
40.0
  1
A4
  7
TTF_DEFAULT
  0
LINE
  8
HIBINO-BASE
  6
CONTINUOUS
 62
     7
 10
1143.75
 20
162.5
 11
1181.25
 21
200.0
  0
TEXT
  8
HIBINO-BASE
  6
CONTINUOUS
 62
     7
 10
1137.5
 20
181.25
 40
30.0
  1
1
  7
TTF_DEFAULT
  0
TEXT
  8
HIBINO-BASE
  6
CONTINUOUS
 62
     7
 10
1005.0
 20
225.0
 40
22.5
  1
図面サイズ
  7
TTF_DEFAULT
  0
TEXT
  8
HIBINO-BASE
  6
CONTINUOUS
 62
     7
 10
1130.0
 20
225.0
 40
25.0
  1
SCALE
  7
TTF_DEFAULT
  0
LINE
  8
HIBINO-BASE
  6
CONTINUOUS
 62
     7
 10
1225.0
 20
150.0
 11
1225.0
 21
250.0
  0
LINE
  8
HIBINO-BASE
  6
CONTINUOUS
 62
     7
 10
1125.0
 20
150.0
 11
1125.0
 21
250.0
  0
TEXT
  8
HIBINO-BASE
  6
CONTINUOUS
 62
     7
 10
1175.0
 20
162.5
 40
30.0
  1
10
  7
TTF_DEFAULT
  0
TEXT
  8
HIBINO-BASE
  6
CONTINUOUS
 62
     7
 10
1005.0
 20
350.0
 40
25.0
  1
NOTE
  7
TTF_DEFAULT
  0
LINE
  8
DATA
  6
CONTINUOUS
 62
     7
 10
1000.0
 20
500.0
 11
1000.0
 21
632.5
  0
LINE
  8
DATA
  6
CONTINUOUS
 62
     7
 10
1049.5
 20
630.8
 11
1058.5
 21
630.8
  0
LINE
  8
DATA
  6
CONTINUOUS
 62
     7
 10
1058.5
 20
630.0
 11
1058.5
 21
630.8
  0
LINE
  8
DATA
  6
CONTINUOUS
 62
     7
 10
1049.5
 20
630.0
 11
1049.5
 21
630.8
  0
ARC
  8
DATA
  6
CONTINUOUS
 62
     7
 10
1054.0
 20
619.566667
 40
13.633333
 50
72.938469
 51
107.061531
  0
LINE
  8
DATA
  6
CONTINUOUS
 62
     7
 10
1050.0
 20
632.6
 11
1058.0
 21
632.6
  0
LINE
  8
DATA
  6
CONTINUOUS
 62
     7
 10
1050.0
 20
632.6
 11
1050.0
 21
630.8
  0
LINE
  8
DATA
  6
CONTINUOUS
 62
     7
 10
1058.0
 20
632.6
 11
1058.0
 21
630.8
  0
LINE
  8
DATA
  6
CONTINUOUS
 62
     7
 10
1208.5
 20
630.8
 11
1217.5
 21
630.8
  0
LINE
  8
DATA
  6
CONTINUOUS
 62
     7
 10
1217.5
 20
630.0
 11
1217.5
 21
630.8
  0
LINE
  8
DATA
  6
CONTINUOUS
 62
     7
 10
1208.5
 20
630.0
 11
1208.5
 21
630.8
  0
ARC
  8
DATA
  6
CONTINUOUS
 62
     7
 10
1213.0
 20
619.566667
 40
13.633333
 50
72.938469
 51
107.061531
  0
LINE
  8
DATA
  6
CONTINUOUS
 62
     7
 10
1209.0
 20
632.6
 11
1217.0
 21
632.6
  0
LINE
  8
DATA
  6
CONTINUOUS
 62
     7
 10
1209.0
 20
632.6
 11
1209.0
 21
630.8
  0
LINE
  8
DATA
  6
CONTINUOUS
 62
     7
 10
1217.0
 20
632.6
 11
1217.0
 21
630.8
  0
LINE
  8
DATA
  6
CONTINUOUS
 62
     7
 10
1028.2
 20
619.0
 11
1028.2
 21
513.5
  0
LINE
  8
DATA
  6
CONTINUOUS
 62
     7
 10
1005.2
 20
500.0
 11
1028.2
 21
513.5
  0
CIRCLE
  8
DATA
  6
CONTINUOUS
 62
     7
 10
1015.7
 20
603.25
 40
3.75
  0
LINE
  8
DATA
  6
CONTINUOUS
 62
     7
 10
1013.7
 20
603.25
 11
1017.7
 21
603.25
  0
LINE
  8
DATA
  6
CONTINUOUS
 62
     7
 10
1015.7
 20
601.25
 11
1015.7
 21
605.25
  0
CIRCLE
  8
DATA
  6
CONTINUOUS
 62
     7
 10
1015.7
 20
529.25
 40
3.75
  0
LINE
  8
DATA
  6
CONTINUOUS
 62
     7
 10
1013.7
 20
529.25
 11
1017.7
 21
529.25
  0
LINE
  8
DATA
  6
CONTINUOUS
 62
     7
 10
1015.7
 20
527.25
 11
1015.7
 21
531.25
  0
CIRCLE
  8
DATA
  6
CONTINUOUS
 62
     7
 10
1038.2
 20
572.0
 40
4.5
  0
CIRCLE
  8
DATA
  6
CONTINUOUS
 62
     7
 10
1038.2
 20
572.0
 40
4.0
  0
LINE
  8
DATA
  6
CONTINUOUS
 62
     7
 10
1038.2
 20
574.5
 11
1038.2
 21
569.5
  0
LINE
  8
DATA
  6
CONTINUOUS
 62
     7
 10
1035.7
 20
572.0
 11
1040.7
 21
572.0
  0
CIRCLE
  8
DATA
  6
CONTINUOUS
 62
     7
 10
1118.2
 20
572.0
 40
4.5
  0
CIRCLE
  8
DATA
  6
CONTINUOUS
 62
     7
 10
1118.2
 20
572.0
 40
4.0
  0
LINE
  8
DATA
  6
CONTINUOUS
 62
     7
 10
1118.2
 20
574.5
 11
1118.2
 21
569.5
  0
LINE
  8
DATA
  6
CONTINUOUS
 62
     7
 10
1115.7
 20
572.0
 11
1120.7
 21
572.0
  0
CIRCLE
  8
DATA
  6
CONTINUOUS
 62
     7
 10
1197.7
 20
572.0
 40
4.5
  0
CIRCLE
  8
DATA
  6
CONTINUOUS
 62
     7
 10
1197.7
 20
572.0
 40
4.0
  0
LINE
  8
DATA
  6
CONTINUOUS
 62
     7
 10
1197.7
 20
574.5
 11
1197.7
 21
569.5
  0
LINE
  8
DATA
  6
CONTINUOUS
 62
     7
 10
1195.2
 20
572.0
 11
1200.2
 21
572.0
  0
LINE
  8
DATA
  6
CONTINUOUS
 62
     7
 10
1005.2
 20
632.5
 11
1028.2
 21
619.0
  0
LINE
  8
DATA
  6
CONTINUOUS
 62
     7
 10
1005.2
 20
500.0
 11
1005.2
 21
632.5
  0
LINE
  8
DATA
  6
CONTINUOUS
 62
     7
 10
1003.2
 20
500.0
 11
1003.2
 21
632.5
  0
LINE
  8
DATA
  6
CONTINUOUS
 62
     7
 10
1000.0
 20
632.5
 11
1005.2
 21
632.5
  0
LINE
  8
DATA
  6
CONTINUOUS
 62
     7
 10
1009.5
 20
490.0
 11
1027.5
 21
490.0
  0
LINE
  8
DATA
  6
CONTINUOUS
 62
     7
 10
1009.5
 20
490.0
 11
1008.5
 21
500.0
  0
LINE
  8
DATA
  6
CONTINUOUS
 62
     7
 10
1027.5
 20
490.0
 11
1028.5
 21
500.0
  0
LINE
  8
HIBINO-BASE
  6
CONTINUOUS
 62
     7
 10
1350.0
 20
150.0
 11
1350.0
 21
375.0
  0
TEXT
  8
HIBINO-BASE
  6
CONTINUOUS
 62
     7
 10
1355.0
 20
225.0
 40
25.0
  1
DESIGN
  7
TTF_DEFAULT
  0
LINE
  8
HIBINO-BASE
  6
CONTINUOUS
 62
     7
 10
1475.0
 20
250.0
 11
1475.0
 21
150.0
  0
TEXT
  8
HIBINO-BASE
  6
CONTINUOUS
 62
     7
 10
1355.0
 20
350.0
 40
25.0
  1
TITLE
  7
TTF_DEFAULT
  0
LINE
  8
DATA
  6
CONTINUOUS
 62
     7
 10
1352.0
 20
500.0
 11
1352.0
 21
630.0
  0
LINE
  8
DATA
  6
CONTINUOUS
 62
     7
 10
1338.0
 20
630.8
 11
1347.0
 21
630.8
  0
LINE
  8
DATA
  6
CONTINUOUS
 62
     7
 10
1347.0
 20
630.0
 11
1347.0
 21
630.8
  0
LINE
  8
DATA
  6
CONTINUOUS
 62
     7
 10
1338.0
 20
630.0
 11
1338.0
 21
630.8
  0
ARC
  8
DATA
  6
CONTINUOUS
 62
     7
 10
1342.5
 20
619.566667
 40
13.633333
 50
72.938469
 51
107.061531
  0
LINE
  8
DATA
  6
CONTINUOUS
 62
     7
 10
1338.5
 20
632.6
 11
1346.5
 21
632.6
  0
LINE
  8
DATA
  6
CONTINUOUS
 62
     7
 10
1338.5
 20
632.6
 11
1338.5
 21
630.8
  0
LINE
  8
DATA
  6
CONTINUOUS
 62
     7
 10
1346.5
 20
632.6
 11
1346.5
 21
630.8
  0
CIRCLE
  8
DATA
  6
CONTINUOUS
 62
     7
 10
1278.2
 20
572.0
 40
4.5
  0
CIRCLE
  8
DATA
  6
CONTINUOUS
 62
     7
 10
1278.2
 20
572.0
 40
4.0
  0
LINE
  8
DATA
  6
CONTINUOUS
 62
     7
 10
1278.2
 20
574.5
 11
1278.2
 21
569.5
  0
LINE
  8
DATA
  6
CONTINUOUS
 62
     7
 10
1275.7
 20
572.0
 11
1280.7
 21
572.0
  0
CIRCLE
  8
DATA
  6
CONTINUOUS
 62
     7
 10
1342.2
 20
524.0
 40
4.5
  0
CIRCLE
  8
DATA
  6
CONTINUOUS
 62
     7
 10
1342.2
 20
524.0
 40
4.0
  0
LINE
  8
DATA
  6
CONTINUOUS
 62
     7
 10
1342.2
 20
526.5
 11
1342.2
 21
521.5
  0
LINE
  8
DATA
  6
CONTINUOUS
 62
     7
 10
1339.7
 20
524.0
 11
1344.7
 21
524.0
  0
CIRCLE
  8
DATA
  6
CONTINUOUS
 62
     7
 10
1342.2
 20
607.5
 40
4.5
  0
CIRCLE
  8
DATA
  6
CONTINUOUS
 62
     7
 10
1342.2
 20
607.5
 40
4.0
  0
LINE
  8
DATA
  6
CONTINUOUS
 62
     7
 10
1342.2
 20
610.0
 11
1342.2
 21
605.0
  0
LINE
  8
DATA
  6
CONTINUOUS
 62
     7
 10
1339.7
 20
607.5
 11
1344.7
 21
607.5
  0
LINE
  8
DATA
  6
CONTINUOUS
 62
     7
 10
1327.5
 20
490.0
 11
1345.5
 21
490.0
  0
LINE
  8
DATA
  6
CONTINUOUS
 62
     7
 10
1327.5
 20
490.0
 11
1326.5
 21
500.0
  0
LINE
  8
DATA
  6
CONTINUOUS
 62
     7
 10
1345.5
 20
490.0
 11
1346.5
 21
500.0
  0
TEXT
  8
HIBINO-BASE
  6
CONTINUOUS
 62
     7
 10
1587.300263
 20
85.9132
 40
40.0
  1
ヒビノ株式会社
  7
TTF_DEFAULT
  0
TEXT
  8
HIBINO-BASE
  6
CONTINUOUS
 62
     7
 10
1730.0
 20
225.0
 40
25.0
  1
DRAWING NO.
  7
TTF_DEFAULT
  0
TEXT
  8
HIBINO-BASE
  6
CONTINUOUS
 62
     7
 10
1605.0
 20
225.0
 40
25.0
  1
CHECK
  7
TTF_DEFAULT
  0
LINE
  8
HIBINO-BASE
  6
CONTINUOUS
 62
     7
 10
1725.0
 20
250.0
 11
1725.0
 21
150.0
  0
LINE
  8
HIBINO-BASE
  6
CONTINUOUS
 62
     7
 10
1600.0
 20
150.0
 11
1600.0
 21
250.0
  0
TEXT
  8
DATA
  6
CONTINUOUS
 62
     7
 10
1525.0
 20
268.75
 40
30.0
  1
CPS800
  7
TTF_DEFAULT
  0
TEXT
  8
DATA
  6
CONTINUOUS
 62
     7
 10
1525.0
 20
331.25
 40
30.0
  1
Soundcraft
  7
TTF_DEFAULT
  0
LINE
  8
SPEC
  6
CONTINUOUS
 62
     7
 10
1100.0
 20
2537.5
 11
1100.0
 21
2650.0
  0
ENDSEC
  0
EOF
